  0
SECTION
  2
HEADER
  9
$ACADVER
  1
AC1015
  9
$ACADMAINTVER
 70
     6
  9
$DWGCODEPAGE
  3
ANSI_1252
  9
$INSBASE
 10
0.0
 20
0.0
 30
0.0
  9
$EXTMIN
 10
-825.0
 20
-425.0
 30
0.0
  9
$EXTMAX
 10
825.0
 20
425.0
 30
0.0
  9
$LIMMIN
 10
0.0
 20
0.0
  9
$LIMMAX
 10
420.0
 20
297.0
  9
$ORTHOMODE
 70
     0
  9
$REGENMODE
 70
     1
  9
$FILLMODE
 70
     1
  9
$QTEXTMODE
 70
     0
  9
$MIRRTEXT
 70
     1
  9
$LTSCALE
 40
1.0
  9
$ATTMODE
 70
     1
  9
$TEXTSIZE
 40
3.5
  9
$TRACEWID
 40
1.0
  9
$TEXTSTYLE
  7
STANDARD
  9
$CLAYER
  8
0
  9
$CELTYPE
  6
ByLayer
  9
$CECOLOR
 62
   256
  9
$CELTSCALE
 40
1.0
  9
$DISPSILH
 70
     0
  9
$DIMSCALE
 40
1.0
  9
$DIMASZ
 40
8.0
  9
$DIMEXO
 40
1.0
  9
$DIMDLI
 40
3.75
  9
$DIMRND
 40
0.0
  9
$DIMDLE
 40
0.0
  9
$DIMEXE
 40
1.0
  9
$DIMTP
 40
0.0
  9
$DIMTM
 40
0.0
  9
$DIMTXT
 40
16.9333333333
  9
$DIMCEN
 40
2.5
  9
$DIMTSZ
 40
0.0
  9
$DIMTOL
 70
     0
  9
$DIMLIM
 70
     0
  9
$DIMTIH
 70
     1
  9
$DIMTOH
 70
     1
  9
$DIMSE1
 70
     0
  9
$DIMSE2
 70
     0
  9
$DIMTAD
 70
     1
  9
$DIMZIN
 70
     0
  9
$DIMBLK
  1

  9
$DIMASO
 70
     1
  9
$DIMSHO
 70
     1
  9
$DIMPOST
  1

  9
$DIMAPOST
  1

  9
$DIMALT
 70
     0
  9
$DIMALTD
 70
     3
  9
$DIMALTF
 40
0.0393700787
  9
$DIMLFAC
 40
1.0
  9
$DIMTOFL
 70
     1
  9
$DIMTVP
 40
0.0
  9
$DIMTIX
 70
     0
  9
$DIMSOXD
 70
     0
  9
$DIMSAH
 70
     0
  9
$DIMBLK1
  1

  9
$DIMBLK2
  1

  9
$DIMSTYLE
  2
ISO-25
  9
$DIMCLRD
 70
     0
  9
$DIMCLRE
 70
     0
  9
$DIMCLRT
 70
     0
  9
$DIMTFAC
 40
1.0
  9
$DIMGAP
 40
1.524
  9
$DIMJUST
 70
     0
  9
$DIMSD1
 70
     0
  9
$DIMSD2
 70
     0
  9
$DIMTOLJ
 70
     0
  9
$DIMTZIN
 70
     0
  9
$DIMALTZ
 70
     0
  9
$DIMALTTZ
 70
     0
  9
$DIMUPT
 70
     0
  9
$DIMDEC
 70
     2
  9
$DIMTDEC
 70
     2
  9
$DIMALTU
 70
     2
  9
$DIMALTTD
 70
     3
  9
$DIMTXSTY
  7
STANDARD
  9
$DIMAUNIT
 70
     0
  9
$DIMADEC
 70
     2
  9
$DIMALTRND
 40
0.0
  9
$DIMAZIN
 70
     0
  9
$DIMDSEP
 70
    44
  9
$DIMATFIT
 70
     3
  9
$DIMFRAC
 70
     0
  9
$DIMLDRBLK
  1

  9
$DIMLUNIT
 70
     2
  9
$DIMLWD
 70
    -2
  9
$DIMLWE
 70
    -2
  9
$DIMTMOVE
 70
     0
  9
$LUNITS
 70
     2
  9
$LUPREC
 70
     2
  9
$SKETCHINC
 40
1.0
  9
$FILLETRAD
 40
10.0
  9
$AUNITS
 70
     0
  9
$AUPREC
 70
     2
  9
$MENU
  1
.
  9
$ELEVATION
 40
0.0
  9
$PELEVATION
 40
0.0
  9
$THICKNESS
 40
0.0
  9
$LIMCHECK
 70
     0
  9
$CHAMFERA
 40
0.0
  9
$CHAMFERB
 40
0.0
  9
$CHAMFERC
 40
0.0
  9
$CHAMFERD
 40
0.0
  9
$SKPOLY
 70
     0
  9
$TDCREATE
 40
2458382.478678414
  9
$TDUCREATE
 40
2458382.395345081
  9
$TDUPDATE
 40
2458382.478712199
  9
$TDUUPDATE
 40
2458382.395378866
  9
$TDINDWG
 40
0.0000000116
  9
$TDUSRTIMER
 40
0.0000000116
  9
$USRTIMER
 70
     1
  9
$ANGBASE
 50
0.0
  9
$ANGDIR
 70
     0
  9
$PDMODE
 70
     0
  9
$PDSIZE
 40
-1.0
  9
$PLINEWID
 40
0.0
  9
$SPLFRAME
 70
     0
  9
$SPLINETYPE
 70
     6
  9
$SPLINESEGS
 70
     8
  9
$HANDSEED
  5
F0
  9
$SURFTAB1
 70
     6
  9
$SURFTAB2
 70
     6
  9
$SURFTYPE
 70
     6
  9
$SURFU
 70
     6
  9
$SURFV
 70
     6
  9
$UCSBASE
  2

  9
$UCSNAME
  2

  9
$UCSORG
 10
0.0
 20
0.0
 30
0.0
  9
$UCSXDIR
 10
1.0
 20
0.0
 30
0.0
  9
$UCSYDIR
 10
0.0
 20
1.0
 30
0.0
  9
$UCSORTHOREF
  2

  9
$UCSORTHOVIEW
 70
     0
  9
$UCSORGTOP
 10
0.0
 20
0.0
 30
0.0
  9
$UCSORGBOTTOM
 10
0.0
 20
0.0
 30
0.0
  9
$UCSORGLEFT
 10
0.0
 20
0.0
 30
0.0
  9
$UCSORGRIGHT
 10
0.0
 20
0.0
 30
0.0
  9
$UCSORGFRONT
 10
0.0
 20
0.0
 30
0.0
  9
$UCSORGBACK
 10
0.0
 20
0.0
 30
0.0
  9
$PUCSBASE
  2

  9
$PUCSNAME
  2

  9
$PUCSORG
 10
0.0
 20
0.0
 30
0.0
  9
$PUCSXDIR
 10
1.0
 20
0.0
 30
0.0
  9
$PUCSYDIR
 10
0.0
 20
1.0
 30
0.0
  9
$PUCSORTHOREF
  2

  9
$PUCSORTHOVIEW
 70
     0
  9
$PUCSORGTOP
 10
0.0
 20
0.0
 30
0.0
  9
$PUCSORGBOTTOM
 10
0.0
 20
0.0
 30
0.0
  9
$PUCSORGLEFT
 10
0.0
 20
0.0
 30
0.0
  9
$PUCSORGRIGHT
 10
0.0
 20
0.0
 30
0.0
  9
$PUCSORGFRONT
 10
0.0
 20
0.0
 30
0.0
  9
$PUCSORGBACK
 10
0.0
 20
0.0
 30
0.0
  9
$USERI1
 70
     0
  9
$USERI2
 70
     0
  9
$USERI3
 70
     0
  9
$USERI4
 70
     0
  9
$USERI5
 70
     0
  9
$USERR1
 40
0.0
  9
$USERR2
 40
0.0
  9
$USERR3
 40
0.0
  9
$USERR4
 40
0.0
  9
$USERR5
 40
0.0
  9
$WORLDVIEW
 70
     1
  9
$SHADEDGE
 70
     3
  9
$SHADEDIF
 70
    70
  9
$TILEMODE
 70
     1
  9
$MAXACTVP
 70
    64
  9
$PINSBASE
 10
0.0
 20
0.0
 30
0.0
  9
$PLIMCHECK
 70
     0
  9
$PEXTMIN
 10
-825.0
 20
-520.0
 30
0.0
  9
$PEXTMAX
 10
825.0
 20
0.0
 30
0.0
  9
$PLIMMIN
 10
-953.4046692607
 20
-568.1517509728
  9
$PLIMMAX
 10
953.4046692607
 20
780.0972762646
  9
$UNITMODE
 70
     0
  9
$VISRETAIN
 70
     1
  9
$PLINEGEN
 70
     0
  9
$PSLTSCALE
 70
     1
  9
$TREEDEPTH
 70
  3020
  9
$CMLSTYLE
  2
Standard
  9
$CMLJUST
 70
     0
  9
$CMLSCALE
 40
20.0
  9
$PROXYGRAPHICS
 70
     1
  9
$MEASUREMENT
 70
     1
  9
$CELWEIGHT
370
    -1
  9
$ENDCAPS
280
     0
  9
$JOINSTYLE
280
     0
  9
$LWDISPLAY
290
     1
  9
$INSUNITS
 70
     4
  9
$HYPERLINKBASE
  1

  9
$STYLESHEET
  1

  9
$XEDIT
290
     1
  9
$CEPSNTYPE
380
     0
  9
$PSTYLEMODE
290
     1
  9
$FINGERPRINTGUID
  2
{E4DA814C-7403-4DBD-8B5F-F1D5B5A7FC1E}
  9
$VERSIONGUID
  2
{FAEB1C32-E019-11D5-929B-00C0DF256EC4}
  9
$EXTNAMES
290
     1
  9
$PSVPSCALE
 40
0.0
  9
$OLESTARTUP
290
     0
  0
ENDSEC
  0
SECTION
  2
CLASSES
  0
CLASS
  1
ACDBDICTIONARYWDFLT
  2
AcDbDictionaryWithDefault
  3
ObjectDBX Classes
 90
        0
280
     0
281
     0
  0
CLASS
  1
VISUALSTYLE
  2
AcDbVisualStyle
  3
ObjectDBX Classes
 90
     4095
280
     0
281
     0
  0
CLASS
  1
MATERIAL
  2
AcDbMaterial
  3
ObjectDBX Classes
 90
     1153
280
     0
281
     0
  0
CLASS
  1
SCALE
  2
AcDbScale
  3
ObjectDBX Classes
 90
     1153
280
     0
281
     0
  0
CLASS
  1
TABLESTYLE
  2
AcDbTableStyle
  3
ObjectDBX Classes
 90
     4095
280
     0
281
     0
  0
CLASS
  1
MLEADERSTYLE
  2
AcDbMLeaderStyle
  3
ACDB_MLEADERSTYLE_CLASS
 90
     4095
280
     0
281
     0
  0
CLASS
  1
SUN
  2
AcDbSun
  3
SCENEOE
 90
     1153
280
     0
281
     0
  0
CLASS
  1
ACDBPLACEHOLDER
  2
AcDbPlaceHolder
  3
ObjectDBX Classes
 90
        0
280
     0
281
     0
  0
CLASS
  1
LAYOUT
  2
AcDbLayout
  3
ObjectDBX Classes
 90
        0
280
     0
281
     0
  0
ENDSEC
  0
SECTION
  2
TABLES
  0
TABLE
  2
VPORT
  5
8
330
0
100
AcDbSymbolTable
 70
     1
  0
VPORT
  5
29
330
8
100
AcDbSymbolTableRecord
100
AcDbViewportTableRecord
  2
*Active
 70
     0
 10
0.0
 20
0.0
 11
1.0
 21
1.0
 12
0.0
 22
0.0
 13
0.0
 23
0.0
 14
10.0
 24
10.0
 15
10.0
 25
10.0
 16
0.0
 26
0.0
 36
1.0
 17
0.0
 27
0.0
 37
0.0
 40
867.0
 41
1.9411764706
 42
50.0
 43
0.0
 44
0.0
 50
0.0
 51
0.0
 71
     0
 72
   100
 73
     1
 74
     3
 75
     0
 76
     0
 77
     0
 78
     0
281
     0
 65
     1
110
0.0
120
0.0
130
0.0
111
1.0
121
0.0
131
0.0
112
0.0
122
1.0
132
0.0
 79
     0
146
0.0
  0
ENDTAB
  0
TABLE
  2
LTYPE
  5
5
330
0
100
AcDbSymbolTable
 70
     6
  0
LTYPE
  5
14
330
5
100
AcDbSymbolTableRecord
100
AcDbLinetypeTableRecord
  2
ByBlock
 70
     0
  3

 72
    65
 73
     0
 40
0.0
  0
LTYPE
  5
15
330
5
100
AcDbSymbolTableRecord
100
AcDbLinetypeTableRecord
  2
ByLayer
 70
     0
  3

 72
    65
 73
     0
 40
0.0
  0
LTYPE
  5
16
330
5
100
AcDbSymbolTableRecord
100
AcDbLinetypeTableRecord
  2
Continuous
 70
     0
  3
Solid line
 72
    65
 73
     0
 40
0.0
  0
LTYPE
  5
6E
330
5
100
AcDbSymbolTableRecord
100
AcDbLinetypeTableRecord
  2
HIDDEN
 70
     0
  3
Hidden __ __ __ __ __ __ __ __ __ __ __ __ __ __
 72
    65
 73
     2
 40
1.905
 49
1.27
 74
     0
 49
-0.635
 74
     0
  0
LTYPE
  5
6F
330
5
100
AcDbSymbolTableRecord
100
AcDbLinetypeTableRecord
  2
PHANTOM
 70
     0
  3
Phantom ______  __  __  ______  __  __  ______
 72
    65
 73
     6
 40
12.7
 49
6.35
 74
     0
 49
-1.27
 74
     0
 49
1.27
 74
     0
 49
-1.27
 74
     0
 49
1.27
 74
     0
 49
-1.27
 74
     0
  0
LTYPE
  5
70
330
5
100
AcDbSymbolTableRecord
100
AcDbLinetypeTableRecord
  2
CENTER
 70
     0
  3
Center ____ _ ____ _ ____ _ ____ _ ____ _ ____
 72
    65
 73
     4
 40
10.16
 49
6.35
 74
     0
 49
-1.27
 74
     0
 49
1.27
 74
     0
 49
-1.27
 74
     0
  0
LTYPE
  5
71
330
5
100
AcDbSymbolTableRecord
100
AcDbLinetypeTableRecord
  2
CENTERX2
 70
     0
  3
Center (2x) ________  __  ________  __  _____
 72
    65
 73
     4
 40
20.32
 49
12.7
 74
     0
 49
-2.54
 74
     0
 49
2.54
 74
     0
 49
-2.54
 74
     0
  0
LTYPE
  5
72
330
5
100
AcDbSymbolTableRecord
100
AcDbLinetypeTableRecord
  2
DOT2
 70
     0
  3
Dot (.5x) ........................................
 72
    65
 73
     2
 40
0.635
 49
0.0
 74
     0
 49
-0.635
 74
     0
  0
ENDTAB
  0
TABLE
  2
LAYER
  5
2
330
0
100
AcDbSymbolTable
 70
     1
  0
LAYER
  5
10
330
2
100
AcDbSymbolTableRecord
100
AcDbLayerTableRecord
  2
0
 70
     0
 62
     7
  6
Continuous
370
    -3
390
F
  0
ENDTAB
  0
TABLE
  2
STYLE
  5
3
330
0
100
AcDbSymbolTable
 70
     1
  0
STYLE
  5
11
330
3
100
AcDbSymbolTableRecord
100
AcDbTextStyleTableRecord
  2
STANDARD
 70
     0
 40
0.0
 41
1.0
 50
0.0
 71
     0
 42
3.5
  3
GOTHIC.TTF
  4

1001
ACAD
1000
CENTURY GOTHIC
1071
       34
  0
ENDTAB
  0
TABLE
  2
VIEW
  5
6
330
0
100
AcDbSymbolTable
 70
     0
  0
ENDTAB
  0
TABLE
  2
UCS
  5
7
330
0
100
AcDbSymbolTable
 70
     0
  0
ENDTAB
  0
TABLE
  2
APPID
  5
9
330
0
100
AcDbSymbolTable
 70
     1
  0
APPID
  5
12
330
9
100
AcDbSymbolTableRecord
100
AcDbRegAppTableRecord
  2
ACAD
 70
     0
  0
ENDTAB
  0
TABLE
  2
DIMSTYLE
  5
A
330
0
100
AcDbSymbolTable
 70
     1
100
AcDbDimStyleTable
  0
DIMSTYLE
105
27
330
A
100
AcDbSymbolTableRecord
100
AcDbDimStyleTableRecord
  2
ISO-25
 70
     0
 41
2.5
 42
0.625
 43
3.75
 44
1.25
 73
     0
 74
     0
 77
     1
 78
     8
140
2.5
141
2.5
143
0.0393700787
147
0.625
171
     3
172
     1
178
     0
271
     2
272
     2
274
     3
278
    44
283
     0
284
     8
340
11
  0
ENDTAB
  0
TABLE
  2
BLOCK_RECORD
  5
1
330
0
100
AcDbSymbolTable
 70
     8
  0
BLOCK_RECORD
  5
1F
330
1
100
AcDbSymbolTableRecord
100
AcDbBlockTableRecord
  2
*Model_Space
340
22
  0
BLOCK_RECORD
  5
1B
330
1
100
AcDbSymbolTableRecord
100
AcDbBlockTableRecord
  2
*Paper_Space
340
1E
  0
BLOCK_RECORD
  5
23
330
1
100
AcDbSymbolTableRecord
100
AcDbBlockTableRecord
  2
*Paper_Space0
340
26
  0
BLOCK_RECORD
  5
8C
330
1
100
AcDbSymbolTableRecord
100
AcDbBlockTableRecord
  2
*Paper_Space1
340
8D
  0
BLOCK_RECORD
  5
98
330
1
100
AcDbSymbolTableRecord
100
AcDbBlockTableRecord
  2
*Paper_Space2
340
99
  0
BLOCK_RECORD
  5
A0
330
1
100
AcDbSymbolTableRecord
100
AcDbBlockTableRecord
  2
*Paper_Space3
340
A1
  0
BLOCK_RECORD
  5
AC
330
1
100
AcDbSymbolTableRecord
100
AcDbBlockTableRecord
  2
*Paper_Space4
340
AD
  0
BLOCK_RECORD
  5
C0
330
1
100
AcDbSymbolTableRecord
100
AcDbBlockTableRecord
  2
*Paper_Space5
340
C1
  0
BLOCK_RECORD
  5
C9
330
1
100
AcDbSymbolTableRecord
100
AcDbBlockTableRecord
  2
*Paper_Space6
340
CA
  0
BLOCK_RECORD
  5
D4
330
1
100
AcDbSymbolTableRecord
100
AcDbBlockTableRecord
  2
*Paper_Space7
340
D5
  0
ENDTAB
  0
ENDSEC
  0
SECTION
  2
BLOCKS
  0
BLOCK
  5
20
330
1F
100
AcDbEntity
  8
0
100
AcDbBlockBegin
  2
*Model_Space
 70
     0
 10
0.0
 20
0.0
 30
0.0
  3
*Model_Space
  1

  0
ENDBLK
  5
21
330
1F
100
AcDbEntity
  8
0
100
AcDbBlockEnd
  0
BLOCK
  5
1C
330
1B
100
AcDbEntity
 67
     1
  8
0
100
AcDbBlockBegin
  2
*Paper_Space
 70
     0
 10
0.0
 20
0.0
 30
0.0
  3
*Paper_Space
  1

  0
ENDBLK
  5
1D
330
1B
100
AcDbEntity
 67
     1
  8
0
100
AcDbBlockEnd
  0
BLOCK
  5
24
330
23
100
AcDbEntity
  8
0
100
AcDbBlockBegin
  2
*Paper_Space0
 70
     0
 10
0.0
 20
0.0
 30
0.0
  3
*Paper_Space0
  1

  0
SPLINE
  5
83
330
23
100
AcDbEntity
  8
0
  6
Continuous
 62
     7
370
    25
100
AcDbSpline
210
0.0
220
0.0
230
1.0
 70
     8
 71
     3
 72
    90
 73
    86
 74
     0
 42
0.000000001
 43
0.00000001
 40
0.0
 40
0.0
 40
0.0
 40
0.0
 40
0.0084800877484601
 40
0.0157895379343586
 40
0.0229973322956531
 40
0.0347060424496756
 40
0.047576135419941
 40
0.0587537488492811
 40
0.0703910048250645
 40
0.0817446541751049
 40
0.0928177020141424
 40
0.1036432498146207
 40
0.1184497260937071
 40
0.1329474550331642
 40
0.1472509730655072
 40
0.1614811769802355
 40
0.1726930937393383
 40
0.1838584264776807
 40
0.1939136500146505
 40
0.202659708437452
 40
0.2084478573099119
 40
0.2135512613024521
 40
0.2180205222700329
 40
0.2210012667452183
 40
0.223710802749026
 40
0.2262071756225486
 40
0.228563586909455
 40
0.2322027807524435
 40
0.2350776686559427
 40
0.2382542757403506
 40
0.2429591804342426
 40
0.2491923445818891
 40
0.2563888294760791
 40
0.2649167939127508
 40
0.2747766046671262
 40
0.2859689363241911
 40
0.2979578169184568
 40
0.3100265498709144
 40
0.338783104843112
 40
0.3679907342357048
 40
0.3931432630808545
 40
0.4186509129273309
 40
0.4445293545272078
 40
0.4599597983830946
 40
0.4755284104177615
 40
0.4911274874327802
 40
0.50573383717323
 40
0.5208192756045996
 40
0.5342866814102989
 40
0.5461267681766013
 40
0.5563305506813991
 40
0.5648897363540338
 40
0.5717971311223918
 40
0.5770471490284856
 40
0.5791473802794163
 40
0.5815007193119232
 40
0.5843203902866378
 40
0.5876932272305055
 40
0.5938896771640488
 40
0.6015281886118126
 40
0.6106520508450399
 40
0.6212839728249588
 40
0.6320109990457484
 40
0.6439448275204327
 40
0.6570888941577437
 40
0.671445618070049
 40
0.6870169058835678
 40
0.7038044746762623
 40
0.7240526554775603
 40
0.7458314424893735
 40
0.7691439870535877
 40
0.793994004084595
 40
0.8203858559877563
 40
0.8483246116119457
 40
0.8676143906058764
 40
0.887582378407141
 40
0.908230587518855
 40
0.929502078708582
 40
0.938818564026601
 40
0.9475232440158005
 40
0.956291663067211
 40
0.9660894359070108
 40
0.9769194216503964
 40
0.9883718758358235
 40
1.0
 40
1.0
 40
1.0
 40
1.0
 10
-425.0000000000001
 20
0.0
 30
0.0
 10
-424.8864870596911
 20
-2.25795389467176
 30
0.0
 10
-424.6751311244446
 20
-6.462161413683109
 30
0.0
 10
-424.3394268162128
 20
-12.4634140025405
 30
0.0
 10
-423.9433986833141
 20
-19.11580457132567
 30
0.0
 10
-423.4391418833708
 20
-26.92140702743481
 30
0.0
 10
-422.8439179405828
 20
-35.33971686617665
 30
0.0
 10
-422.2250633056637
 20
-43.44188439506694
 30
0.0
 10
-421.6109082730213
 20
-50.97094642043534
 30
0.0
 10
-420.9832664211785
 20
-58.22078573018025
 30
0.0
 10
-420.363931637465
 20
-65.0129319193485
 30
0.0
 10
-419.6823205489724
 20
-72.15881678785537
 30
0.0
 10
-418.9521060106572
 20
-79.46394175731697
 30
0.0
 10
-418.2006594696615
 20
-86.66306391405665
 30
0.0
 10
-417.5213841657712
 20
-92.96136988052788
 30
0.0
 10
-416.971139202131
 20
-97.95534892615221
 30
0.0
 10
-416.533285996682
 20
-101.8918190993673
 30
0.0
 10
-416.2238109780288
 20
-104.6937212157982
 30
0.0
 10
-415.8860775138494
 20
-107.6825865782303
 30
0.0
 10
-415.5572184855988
 20
-110.5216875485209
 30
0.0
 10
-415.245167305405
 20
-113.1522239422182
 30
0.0
 10
-414.9605461136475
 20
-115.5033782939171
 30
0.0
 10
-414.6868214697807
 20
-117.7160487760774
 30
0.0
 10
-414.4304943408011
 20
-119.7510475063954
 30
0.0
 10
-414.1964232380667
 20
-121.5692939165474
 30
0.0
 10
-413.9534573097784
 20
-123.4072040460667
 30
0.0
 10
-413.6569048590469
 20
-125.6156964903203
 30
0.0
 10
-413.3319413624604
 20
-127.9996459294415
 30
0.0
 10
-412.9774420709095
 20
-130.5631119817609
 30
0.0
 10
-412.5773845668006
 20
-133.4174298924923
 30
0.0
 10
-412.0441493618544
 20
-137.1566303057336
 30
0.0
 10
-411.342953108925
 20
-141.958675217305
 30
0.0
 10
-410.4702709268929
 20
-147.7669253210996
 30
0.0
 10
-409.4207997817123
 20
-154.5269978319643
 30
0.0
 10
-408.1629929057761
 20
-162.331920512099
 30
0.0
 10
-406.7006433529664
 20
-171.0358427240704
 30
0.0
 10
-405.0727346388244
 20
-180.3024824445905
 30
0.0
 10
-402.528028128063
 20
-194.1504877312675
 30
0.0
 10
-398.9134554838888
 20
-212.4305576041777
 30
0.0
 10
-394.2120680441549
 20
-233.9643288746124
 30
0.0
 10
-389.3175407560868
 20
-254.4935410324578
 30
0.0
 10
-384.2865904760583
 20
-274.0086924040144
 30
0.0
 10
-379.5905459962145
 20
-290.8936260398087
 30
0.0
 10
-375.3839353564437
 20
-305.1551699674191
 30
0.0
 10
-371.8086417254355
 20
-316.7684458564775
 30
0.0
 10
-368.1693411084894
 20
-328.103133185322
 30
0.0
 10
-364.4451887823881
 20
-339.2497628152111
 30
0.0
 10
-360.7812712457871
 20
-349.8041532350384
 30
0.0
 10
-357.2494239770172
 20
-359.6174645718503
 30
0.0
 10
-354.0656320309823
 20
-368.1902936057934
 30
0.0
 10
-351.2637542422132
 20
-375.534416192686
 30
0.0
 10
-348.8752287278642
 20
-381.6555016566975
 30
0.0
 10
-346.9210388081206
 20
-386.5720099251358
 30
0.0
 10
-345.5731279215312
 20
-389.9153795876502
 30
0.0
 10
-344.6438664112659
 20
-392.2000682791055
 30
0.0
 10
-344.0681472582918
 20
-393.6011706580334
 30
0.0
 10
-343.519429072153
 20
-394.9259988274197
 30
0.0
 10
-342.8708419866813
 20
-396.4795886187943
 30
0.0
 10
-342.1675006211697
 20
-398.1482912488864
 30
0.0
 10
-341.4327626083854
 20
-399.877539727914
 30
0.0
 10
-340.7292811306833
 20
-401.5222224990289
 30
0.0
 10
-340.0888581328438
 20
-403.0123738169103
 30
0.0
 10
-339.5016699186399
 20
-404.3748218782313
 30
0.0
 10
-338.9632383802218
 20
-405.6225414697872
 30
0.0
 10
-338.4548532210801
 20
-406.8007979013045
 30
0.0
 10
-337.9772576046702
 20
-407.9093827331099
 30
0.0
 10
-337.5309887470395
 20
-408.948227416842
 30
0.0
 10
-337.0979953428816
 20
-409.9603601330112
 30
0.0
 10
-336.6857620660521
 20
-410.9295266822994
 30
0.0
 10
-336.3001205369102
 20
-411.8428881494818
 30
0.0
 10
-335.954570357546
 20
-412.6683164564164
 30
0.0
 10
-335.6488572667549
 20
-413.4055516119091
 30
0.0
 10
-335.3825259067476
 20
-414.0542621692304
 30
0.0
 10
-335.1828363093617
 20
-414.5459474828064
 30
0.0
 10
-335.0320265435251
 20
-414.9195120942499
 30
0.0
 10
-334.9196979902999
 20
-415.2019748519879
 30
0.0
 10
-334.8189518730637
 20
-415.4454642529438
 30
0.0
 10
-334.7648274805111
 20
-415.6074228574464
 30
0.0
 10
-334.6916186340626
 20
-415.7172074209065
 30
0.0
 10
-334.5694172070714
 20
-415.7915309476461
 30
0.0
 10
-334.4502080823997
 20
-415.8579976908015
 30
0.0
 10
-334.4433257951337
 20
-415.9118927716949
 30
0.0
 10
-334.4978143169568
 20
-415.957625563326
 30
0.0
 10
-334.5739579732612
 20
-415.9962444827535
 30
0.0
 10
-334.5847124593284
 20
-416.0156967863143
 30
0.0
 10
-334.5901306294201
 20
-416.0254969653939
 30
0.0
  0
SPLINE
  5
84
330
23
100
AcDbEntity
  8
0
  6
Continuous
 62
     7
370
    25
100
AcDbSpline
210
0.0
220
0.0
230
1.0
 70
     8
 71
     3
 72
    19
 73
    15
 74
     0
 42
0.000000001
 43
0.00000001
 40
0.0
 40
0.0
 40
0.0
 40
0.0
 40
0.0778696432193046
 40
0.1610299954748603
 40
0.2494632832753065
 40
0.3431222580686626
 40
0.4391000811695163
 40
0.5310525280500308
 40
0.6186032346947117
 40
0.7016353397043475
 40
0.7800655585311265
 40
0.8546364647030426
 40
0.9279000412206502
 40
1.0
 40
1.0
 40
1.0
 40
1.0
 10
-334.5901305612331
 20
-416.0254971347157
 30
0.0
 10
-333.1850335079831
 20
-419.3699876180837
 30
0.0
 10
-330.2793726782634
 20
-426.286203811417
 30
0.0
 10
-325.0736965370321
 20
-436.683378205147
 30
0.0
 10
-318.9681323056653
 20
-447.4302146662737
 30
0.0
 10
-311.8890290092576
 20
-458.2862788457368
 30
0.0
 10
-304.0562985596183
 20
-468.8164298412936
 30
0.0
 10
-295.7716977226183
 20
-478.6245806681273
 30
0.0
 10
-287.3383484557061
 20
-487.4883177979956
 30
0.0
 10
-278.8835200116588
 20
-495.4357072480065
 30
0.0
 10
-270.4826580613433
 20
-502.5349896699279
 30
0.0
 10
-262.0919905538112
 20
-508.9167825728955
 30
0.0
 10
-253.6633168982677
 20
-514.7488542662617
 30
0.0
 10
-247.8723202204994
 20
-518.2589841455687
 30
0.0
 10
-244.9999999999882
 20
-520.0
 30
0.0
  0
SPLINE
  5
85
330
23
100
AcDbEntity
  8
0
  6
Continuous
 62
     7
370
    25
100
AcDbSpline
210
0.0
220
0.0
230
1.0
 70
     8
 71
     3
 72
    86
 73
    82
 74
     0
 42
0.000000001
 43
0.00000001
 40
0.0
 40
0.0
 40
0.0
 40
0.0
 40
0.0352256381989378
 40
0.06887716636955
 40
0.1009633284272028
 40
0.131492033307485
 40
0.1604704062261382
 40
0.1879048007953623
 40
0.2123623833975896
 40
0.2354564434848149
 40
0.257190512966608
 40
0.2775676244345304
 40
0.2965903759207487
 40
0.3133578692294336
 40
0.3289145996418244
 40
0.3432622751735532
 40
0.3564027861701555
 40
0.3683385220626774
 40
0.3790728651215556
 40
0.3886109922542791
 40
0.3969612423363786
 40
0.404137588255169
 40
0.4087641361565518
 40
0.4127610785998918
 40
0.4161564250461425
 40
0.4189978539804733
 40
0.4213690223976791
 40
0.4241505629708968
 40
0.4275225182022461
 40
0.4316028104120044
 40
0.4373192396046424
 40
0.4440148692752479
 40
0.452432015905195
 40
0.4620056305232529
 40
0.4727304612270872
 40
0.4846010374202748
 40
0.4976118351983534
 40
0.5117574461608334
 40
0.5266870201019022
 40
0.5415297868132191
 40
0.5722240873431594
 40
0.6023947410171705
 40
0.6320679242741594
 40
0.6691512550422403
 40
0.7055124244469774
 40
0.7167478046330701
 40
0.7270721847906337
 40
0.7362118854766777
 40
0.7441674347622995
 40
0.7509391258062668
 40
0.7571973740488662
 40
0.7619270930506402
 40
0.7651282453906231
 40
0.7679861618894475
 40
0.7716190710048286
 40
0.773972065440904
 40
0.7764631030498889
 40
0.7791657967305874
 40
0.782138583867483
 40
0.786596040990318
 40
0.7916867719923727
 40
0.7974617213785044
 40
0.8047849613565584
 40
0.8130456281413322
 40
0.8222610034615402
 40
0.8318057749860165
 40
0.8413008598793159
 40
0.8507834275762873
 40
0.8657448775320647
 40
0.8809063567213156
 40
0.8964002965296144
 40
0.907219725453853
 40
0.9182865066408811
 40
0.9296337816400528
 40
0.9412655425867277
 40
0.952440940355755
 40
0.9653079506065548
 40
0.9770132289921161
 40
0.984218553021286
 40
0.9915240270043931
 40
0.9999999999999999
 40
0.9999999999999999
 40
0.9999999999999999
 40
0.9999999999999999
 10
334.5901305569056
 20
-416.0254971456662
 30
0.0
 10
334.6055526594953
 20
-415.9870099323175
 30
0.0
 10
334.6357077050856
 20
-415.9117553639848
 30
0.0
 10
334.727329200413
 20
-415.6816959882818
 30
0.0
 10
334.852797435562
 20
-415.3674263026488
 30
0.0
 10
335.0151315779934
 20
-414.9617065416513
 30
0.0
 10
335.2146425704656
 20
-414.4669112456324
 30
0.0
 10
335.4483841936387
 20
-413.8932952444752
 30
0.0
 10
335.7141814916716
 20
-413.2474952639936
 30
0.0
 10
336.0093377732019
 20
-412.5370757627135
 30
0.0
 10
336.3398771951083
 20
-411.7484469039353
 30
0.0
 10
336.7060042348965
 20
-410.8818122291287
 30
0.0
 10
337.1014009874077
 20
-409.9523127664569
 30
0.0
 10
337.5234187033765
 20
-408.9657232073659
 30
0.0
 10
337.9685160350949
 20
-407.9295056375452
 30
0.0
 10
338.4448714947231
 20
-406.8237186421487
 30
0.0
 10
338.9519455039413
 20
-405.6484499516366
 30
0.0
 10
339.4890269882098
 20
-404.4038470716093
 30
0.0
 10
340.0552461287146
 20
-403.0900970829609
 30
0.0
 10
340.6494941546832
 20
-401.7076552264116
 30
0.0
 10
341.270625877025
 20
-400.2567445298855
 30
0.0
 10
341.8748636940292
 20
-398.8376064951875
 30
0.0
 10
342.4479671250741
 20
-397.4829807951754
 30
0.0
 10
342.965800530013
 20
-396.2517389175015
 30
0.0
 10
343.4972555605639
 20
-394.9791052053897
 30
0.0
 10
344.0441354821301
 20
-393.6592322724172
 30
0.0
 10
344.6712162919629
 20
-392.1337742440342
 30
0.0
 10
345.4986149174445
 20
-390.0979924490829
 30
0.0
 10
346.4644666907186
 20
-387.7043710497783
 30
0.0
 10
347.7129924728682
 20
-384.5830981278518
 30
0.0
 10
349.2624251021817
 20
-380.6642778155016
 30
0.0
 10
351.2011783360394
 20
-375.6877962797352
 30
0.0
 10
353.4680186078095
 20
-369.7622823659393
 30
0.0
 10
356.0610049192557
 20
-362.8340820484916
 30
0.0
 10
358.908749041439
 20
-355.0321295752968
 30
0.0
 10
361.9894323406596
 20
-346.3496724322929
 30
0.0
 10
365.2791423634157
 20
-336.7796112998384
 30
0.0
 10
368.7237526202734
 20
-326.3997579705302
 30
0.0
 10
372.203132824934
 20
-315.504006833803
 30
0.0
 10
376.8327103043091
 20
-300.4103838758588
 30
0.0
 10
382.3211447146032
 20
-281.34209067877
 30
0.0
 10
388.394273988925
 20
-258.2883161236181
 30
0.0
 10
394.3845577506418
 20
-233.366732966912
 30
0.0
 10
400.1585307139671
 20
-206.5937810225211
 30
0.0
 10
404.3699151749438
 20
-184.4062669614686
 30
0.0
 10
407.0208011269208
 20
-169.1553763924361
 30
0.0
 10
408.3708181205795
 20
-161.0572827581337
 30
0.0
 10
409.5325681565267
 20
-153.8133887335748
 30
0.0
 10
410.5104179197335
 20
-147.4998881063415
 30
0.0
 10
411.3450826981447
 20
-141.9428388263781
 30
0.0
 10
412.0328341548197
 20
-137.2351735844711
 30
0.0
 10
412.5696425010703
 20
-133.4722838954405
 30
0.0
 10
412.9714113590728
 20
-130.6064453376243
 30
0.0
 10
413.3264478360188
 20
-128.039638369176
 30
0.0
 10
413.6507083360389
 20
-125.6614236698515
 30
0.0
 10
413.9475323488095
 20
-123.4516465800029
 30
0.0
 10
414.1908199038439
 20
-121.6121115067216
 30
0.0
 10
414.4252728587365
 20
-119.7922674784424
 30
0.0
 10
414.6818769871937
 20
-117.7555981276324
 30
0.0
 10
414.9559374098642
 20
-115.5410813779287
 30
0.0
 10
415.2408368797306
 20
-113.1883472305765
 30
0.0
 10
415.5309490904787
 20
-110.7435813628101
 30
0.0
 10
415.8220776475986
 20
-108.2370963868105
 30
0.0
 10
416.1161332099553
 20
-105.6526455083855
 30
0.0
 10
416.3818846792666
 20
-103.2604095544999
 30
0.0
 10
416.6831108077311
 20
-100.5463348343219
 30
0.0
 10
417.0391029505016
 20
-97.33825300134811
 30
0.0
 10
417.5103606536071
 20
-93.0556805082545
 30
0.0
 10
418.1278013708732
 20
-87.35059647375498
 30
0.0
 10
418.9107425350466
 20
-79.8729441185128
 30
0.0
 10
419.6656915931311
 20
-72.3321810377427
 30
0.0
 10
420.3605312497391
 20
-65.04940227706568
 30
0.0
 10
420.9801872748843
 20
-58.25546490452799
 30
0.0
 10
421.6082107091641
 20
-51.00309111746157
 30
0.0
 10
422.2228433640591
 20
-43.47008788365164
 30
0.0
 10
422.8422430863806
 20
-35.36266903854268
 30
0.0
 10
423.4380131353736
 20
-26.93827329815132
 30
0.0
 10
423.9427024887983
 20
-19.12712260271388
 30
0.0
 10
424.3390250479305
 20
-12.4704523538402
 30
0.0
 10
424.6749452456015
 20
-6.465756155212943
 30
0.0
 10
424.8864201006008
 20
-2.259249937783148
 30
0.0
 10
425.0000000000007
 20
0.0
 30
0.0
  0
SPLINE
  5
86
330
23
100
AcDbEntity
  8
0
  6
Continuous
 62
     7
370
    25
100
AcDbSpline
210
0.0
220
0.0
230
1.0
 70
     8
 71
     3
 72
    21
 73
    17
 74
     0
 42
0.000000001
 43
0.00000001
 40
0.0
 40
0.0
 40
0.0
 40
0.0
 40
0.0459865255963161
 40
0.085269019667528
 40
0.1242720192238215
 40
0.1679705603105091
 40
0.2163913243108415
 40
0.2695561468326883
 40
0.3274764622358303
 40
0.3901391752470022
 40
0.4793396333462056
 40
0.573808424254118
 40
0.6733741954670543
 40
0.7777974189850702
 40
0.8867851709168141
 40
0.9999999999999999
 40
0.9999999999999999
 40
0.9999999999999999
 40
0.9999999999999999
 10
244.9999999999998
 20
-520.0
 30
0.0
 10
246.8374303596648
 20
-518.8990133065577
 30
0.0
 10
250.2444258533303
 20
-516.8575445328358
 30
0.0
 10
255.0997342712879
 20
-513.7047840840742
 30
0.0
 10
259.790657997206
 20
-510.4985176633526
 30
0.0
 10
264.7362893799748
 20
-506.9139531810498
 30
0.0
 10
270.0944044767163
 20
-502.7793816822524
 30
0.0
 10
275.821870778158
 20
-498.0453459476671
 30
0.0
 10
281.8679040764556
 20
-492.6633291587486
 30
0.0
 10
288.9055965968848
 20
-485.8817023485154
 30
0.0
 10
296.7669811919163
 20
-477.5156121059225
 30
0.0
 10
305.2059954125364
 20
-467.3654572828713
 30
0.0
 10
313.4055677198833
 20
-456.1269026293261
 30
0.0
 10
321.1798637551962
 20
-443.7855990030185
 30
0.0
 10
328.4416098025149
 20
-430.3948846829699
 30
0.0
 10
332.5147948546953
 20
-420.8756560971111
 30
0.0
 10
334.5901305569201
 20
-416.02549714563
 30
0.0
  0
LWPOLYLINE
  5
87
330
23
100
AcDbEntity
  8
0
  6
Continuous
 62
     7
370
    25
100
AcDbPolyline
 90
        2
 70
   128
 43
0.0
 10
-425.0
 20
0.0
 10
-425.0
 20
0.0
  0
LINE
  5
8A
330
23
100
AcDbEntity
  8
0
  6
Continuous
 62
     7
370
    25
100
AcDbLine
 10
-425.0
 20
0.0
 30
0.0
 11
425.0
 21
0.0
 31
0.0
  0
LINE
  5
8B
330
23
100
AcDbEntity
  8
0
  6
Continuous
 62
     7
370
    25
100
AcDbLine
 10
245.0
 20
-520.0
 30
0.0
 11
-245.0
 21
-520.0
 31
0.0
  0
VIEWPORT
  5
E0
330
23
100
AcDbEntity
  8
0
100
AcDbViewport
 10
0.0
 20
0.0
 30
0.0
 40
205.6
 41
156.0
 68
     1
 69
     1
 12
0.0
 22
0.0
 13
0.0
 23
0.0
 14
10.0
 24
10.0
 15
10.0
 25
10.0
 16
0.0
 26
0.0
 36
1.0
 17
0.0
 27
0.0
 37
0.0
 42
50.0
 43
0.0
 44
0.0
 45
1276.9844357977
 50
0.0
 51
0.0
 72
   100
 90
   557152
  1

281
     0
 71
     1
 74
     0
110
0.0
120
0.0
130
0.0
111
1.0
121
0.0
131
0.0
112
0.0
122
1.0
132
0.0
 79
     0
146
0.0
  0
ENDBLK
  5
25
330
23
100
AcDbEntity
  8
0
100
AcDbBlockEnd
  0
BLOCK
  5
8E
330
8C
100
AcDbEntity
  8
0
100
AcDbBlockBegin
  2
*Paper_Space1
 70
     0
 10
0.0
 20
0.0
 30
0.0
  3
*Paper_Space1
  1

  0
SPLINE
  5
90
330
8C
100
AcDbEntity
  8
0
  6
Continuous
 62
     7
370
    25
100
AcDbSpline
210
0.0
220
0.0
230
1.0
 70
     8
 71
     3
 72
    45
 73
    41
 74
     0
 42
0.000000001
 43
0.00000001
 40
0.0
 40
0.0
 40
0.0
 40
0.0
 40
0.023584086375251
 40
0.0455284362061317
 40
0.0659326528949226
 40
0.0848701676959903
 40
0.1023923284420635
 40
0.1185354350844225
 40
0.1361199061052884
 40
0.1517762549347229
 40
0.1655127847714922
 40
0.1773269629830573
 40
0.1872093706580325
 40
0.194807433181327
 40
0.2028635269079608
 40
0.2120895618823351
 40
0.222504315212432
 40
0.2341322459519267
 40
0.2469837625074924
 40
0.2636382313903607
 40
0.2819219710174613
 40
0.3018388464202014
 40
0.3233925878925024
 40
0.3499737026494288
 40
0.3786925189747894
 40
0.4095527502995785
 40
0.4425570127381115
 40
0.4777062299668121
 40
0.5143143216318148
 40
0.5529865665714938
 40
0.5937168578109183
 40
0.6364962280864844
 40
0.6764139450903157
 40
0.7179442861060172
 40
0.7610732419388174
 40
0.8057837985604772
 40
0.8520559402989455
 40
0.8998673202705251
 40
0.9491920541699703
 40
1.0
 40
1.0
 40
1.0
 40
1.0
 10
585.0000000000002
 20
-520.0
 30
0.0
 10
588.4944783855699
 20
-517.0339965805276
 30
0.0
 10
595.2404737029068
 20
-511.3082077871009
 30
0.0
 10
604.6626631608656
 20
-502.620931978716
 30
0.0
 10
613.193686196874
 20
-494.3088525238772
 30
0.0
 10
620.8890683255645
 20
-486.3764645257172
 30
0.0
 10
627.8173277155094
 20
-478.8588376506934
 30
0.0
 10
634.3911036785504
 20
-471.376160819682
 30
0.0
 10
640.5533544474084
 20
-464.0179260081673
 30
0.0
 10
646.2493492931861
 20
-456.8828550130026
 30
0.0
 10
651.1146329991013
 20
-450.5219568482745
 30
0.0
 10
655.1990492795608
 20
-444.9780694977471
 30
0.0
 10
658.5058347965092
 20
-440.343915981462
 30
0.0
 10
661.3384807304441
 20
-436.2691798167572
 30
0.0
 10
664.0543259024333
 20
-432.2689343706921
 30
0.0
 10
667.0229957125695
 20
-427.7791675417523
 30
0.0
 10
670.3040668727443
 20
-422.664464442042
 30
0.0
 10
673.875434691366
 20
-416.8997835035851
 30
0.0
 10
677.9725312222034
 20
-410.0358907254289
 30
0.0
 10
682.6877094173739
 20
-402.0349300165187
 30
0.0
 10
688.0127597308366
 20
-392.8000775491288
 30
0.0
 10
693.7169735424391
 20
-382.6854599695121
 30
0.0
 10
700.0909143149602
 20
-371.0981393203907
 30
0.0
 10
707.1288386748992
 20
-357.9249272487457
 30
0.0
 10
714.8105403576617
 20
-343.0469374632344
 30
0.0
 10
722.8216466749824
 20
-326.9364216497525
 30
0.0
 10
731.1074551809545
 20
-309.5695830589981
 30
0.0
 10
739.5535383726808
 20
-291.0448239440415
 30
0.0
 10
748.0986438974189
 20
-271.3584489554603
 30
0.0
 10
756.6782309685543
 20
-250.5089701192617
 30
0.0
 10
765.2691366541015
 20
-228.3722980332661
 30
0.0
 10
773.4697820041894
 20
-205.8301100946641
 30
0.0
 10
781.2431562476012
 20
-182.9730898876503
 30
0.0
 10
788.5619689710475
 20
-159.8950304730996
 30
0.0
 10
795.6450900086247
 20
-135.7709796948079
 30
0.0
 10
802.426305594436
 20
-110.6045669548749
 30
0.0
 10
808.8410114218561
 20
-84.40388120708148
 30
0.0
 10
814.8053760292015
 20
-57.17903646756822
 30
0.0
 10
820.3152373540555
 20
-28.9573397564743
 30
0.0
 10
823.4230675746879
 20
-9.747295960084001
 30
0.0
 10
825.0000000000003
 20
0.0
 30
0.0
  0
SPLINE
  5
91
330
8C
100
AcDbEntity
  8
0
  6
Continuous
 62
     7
370
    25
100
AcDbSpline
210
0.0
220
0.0
230
1.0
 70
     8
 71
     3
 72
    28
 73
    24
 74
     0
 42
0.000000001
 43
0.00000001
 40
0.0
 40
0.0
 40
0.0
 40
0.0
 40
0.0627205546903444
 40
0.1248503260613893
 40
0.1863459243410215
 40
0.2471673538484305
 40
0.3072752157157341
 40
0.3655791352898298
 40
0.4231263725349877
 40
0.479887181027898
 40
0.5358338017829208
 40
0.577660360676229
 40
0.6189948633750785
 40
0.6598287296713431
 40
0.7001539018408637
 40
0.7399627483025445
 40
0.779167523613375
 40
0.8172980599726692
 40
0.8545505516246081
 40
0.8912031342574114
 40
0.9275044911898609
 40
0.9636893845397867
 40
1.0
 40
1.0
 40
1.0
 40
1.0
 10
-825.0000000000002
 20
0.0
 30
0.0
 10
-823.0321163473845
 20
-12.02918559562374
 30
0.0
 10
-819.1148851160449
 20
-35.97425035599322
 30
0.0
 10
-811.8312107935071
 20
-71.45485063474827
 30
0.0
 10
-803.6021794538044
 20
-106.3443176627414
 30
0.0
 10
-794.3689887155854
 20
-140.5765251341421
 30
0.0
 10
-784.272805452939
 20
-173.9157425258689
 30
0.0
 10
-773.3792975434727
 20
-206.3322772271927
 30
0.0
 10
-761.758469853015
 20
-237.8025545982773
 30
0.0
 10
-749.3979312573864
 20
-268.4961348684778
 30
0.0
 10
-737.3854784726411
 20
-296.0229856053883
 30
0.0
 10
-725.9592936729837
 20
-320.5233053282334
 30
0.0
 10
-715.313645064066
 20
-342.141192885987
 30
0.0
 10
-704.3510203551647
 20
-363.2715356572483
 30
0.0
 10
-693.1029242051533
 20
-383.9150758640549
 30
0.0
 10
-681.5709747057992
 20
-404.0348352938993
 30
0.0
 10
-669.9383148877675
 20
-423.6086737596062
 30
0.0
 10
-657.4930945600184
 20
-442.08860453628
 30
0.0
 10
-644.3947325119238
 20
-459.4899933064075
 30
0.0
 10
-630.6368290193158
 20
-475.9156401303013
 30
0.0
 10
-616.1821736696552
 20
-491.4446532058927
 30
0.0
 10
-601.0514270798454
 20
-506.230583408037
 30
0.0
 10
-590.3566580024094
 20
-515.404891091057
 30
0.0
 10
-585.0000000000002
 20
-520.0
 30
0.0
  0
SPLINE
  5
92
330
8C
100
AcDbEntity
  8
0
  6
Continuous
 62
     7
370
    25
100
AcDbSpline
210
0.0
220
0.0
230
1.0
 70
    24
 71
     3
 72
    29
 73
    25
 74
     0
 42
0.000000001
 43
0.00000001
 40
0.0
 40
0.0
 40
0.0
 40
0.0
 40
0.0092912373824026
 40
0.013936856073604
 40
0.0185824747648051
 40
0.0929123738240255
 40
0.0929123738240255
 40
0.0973575937425829
 40
0.0973575937425829
 40
0.1164611368433874
 40
0.1164611368433874
 40
0.1246115803238423
 40
0.1246115803238423
 40
0.1278934392747961
 40
0.1278934392747961
 40
0.1452749158826837
 40
0.1609740912289248
 40
0.1736787968712915
 40
0.1889467196373979
 40
0.1976374579413418
 40
0.2092978130915985
 40
0.2238187289706709
 40
0.2296489065457991
 40
0.2500000000008616
 40
0.2500000000008616
 40
0.2500000000008616
 40
0.2500000000008616
 10
0.9986041738154188
 20
0.0
 30
0.0
 10
-13.33333333333338
 20
0.0
 30
0.0
 10
-33.33333333333359
 20
0.0
 30
0.0
 10
-60.00000000000035
 20
0.0
 30
0.0
 10
-180.0000000000006
 20
0.0
 30
0.0
 10
-293.3333333333345
 20
0.0
 30
0.0
 10
-406.3790856346384
 20
0.0
 30
0.0
 10
-412.7438131894287
 20
0.0
 30
0.0
 10
-446.3612600062473
 20
0.0
 30
0.0
 10
-473.2842284811327
 20
0.0
 30
0.0
 10
-510.6847639037812
 20
0.0
 30
0.0
 10
-521.7400992848186
 20
0.0
 30
0.0
 10
-537.031622901625
 20
0.0
 30
0.0
 10
-541.3965089715163
 20
0.0
 30
0.0
 10
-568.7130856997586
 20
0.0
 30
0.0
 10
-611.0397994137318
 20
0.0
 30
0.0
 10
-664.8112131361974
 20
0.0
 30
0.0
 10
-710.6945376964641
 20
0.0
 30
0.0
 10
-743.8293671786072
 20
0.0
 30
0.0
 10
-770.9554763522508
 20
0.0
 30
0.0
 10
-793.0164686813038
 20
0.0
 30
0.0
 10
-807.8274177207858
 20
0.0
 30
0.0
 10
-821.1216964893547
 20
0.0
 30
0.0
 10
-824.9999999998724
 20
0.0
 30
0.0
 10
-825.0000000000002
 20
0.0
 30
0.0
  0
SPLINE
  5
94
330
8C
100
AcDbEntity
  8
0
  6
Continuous
 62
     7
370
    25
100
AcDbSpline
210
0.0
220
0.0
230
1.0
 70
    24
 71
     3
 72
    29
 73
    25
 74
     0
 42
0.000000001
 43
0.00000001
 40
0.0
 40
0.0
 40
0.0
 40
0.0
 40
0.0092912373824026
 40
0.013936856073604
 40
0.0185824747648051
 40
0.0929123738240255
 40
0.0929123738240255
 40
0.0973575937425829
 40
0.0973575937425829
 40
0.1164611368433874
 40
0.1164611368433874
 40
0.1246115803238423
 40
0.1246115803238423
 40
0.1278934392747961
 40
0.1278934392747961
 40
0.1452749158826837
 40
0.1609740912289248
 40
0.1736787968712915
 40
0.1889467196373979
 40
0.1976374579413418
 40
0.2092978130915985
 40
0.2238187289706709
 40
0.2296489065457991
 40
0.2500000000008616
 40
0.2500000000008616
 40
0.2500000000008616
 40
0.2500000000008616
 10
0.9145228282635455
 20
-520.0
 30
0.0
 10
-9.041702080883864
 20
-520.0
 30
0.0
 10
-22.60425520220979
 20
-520.0
 30
0.0
 10
-40.68765936397756
 20
-520.0
 30
0.0
 10
-122.0629780919324
 20
-520.0
 30
0.0
 10
-198.9174457794455
 20
-520.0
 30
0.0
 10
-275.5768968157792
 20
-520.0
 30
0.0
 10
-279.9027312050425
 20
-520.0
 30
0.0
 10
-302.8190437295375
 20
-520.0
 30
0.0
 10
-321.4095218647692
 20
-520.0000000000005
 30
0.0
 10
-347.9315465469572
 20
-520.0
 30
0.0
 10
-355.8245880077242
 20
-520.0
 30
0.0
 10
-366.8051746538266
 20
-520.0
 30
0.0
 10
-369.9468795812323
 20
-520.0
 30
0.0
 10
-389.6510431050091
 20
-520.0
 30
0.0
 10
-420.5359307558969
 20
-520.0
 30
0.0
 10
-460.3643974913449
 20
-520.0
 30
0.0
 10
-495.2204484716091
 20
-520.0
 30
0.0
 10
-520.9419420288204
 20
-519.9999999999999
 30
0.0
 10
-542.1981400596858
 20
-519.9999999999999
 30
0.0
 10
-559.6452825062752
 20
-519.9999999999999
 30
0.0
 10
-571.3716036474651
 20
-519.9999999999999
 30
0.0
 10
-581.9062333599871
 20
-520.0
 30
0.0
 10
-584.9999999998981
 20
-520.0000000000001
 30
0.0
 10
-585.0
 20
-520.0
 30
0.0
  0
LINE
  5
96
330
8C
100
AcDbEntity
  8
0
  6
Continuous
 62
     7
370
    25
100
AcDbLine
 10
825.0
 20
0.0
 30
0.0
 11
0.9986041738
 21
0.0
 31
0.0
  0
LINE
  5
97
330
8C
100
AcDbEntity
  8
0
  6
Continuous
 62
     7
370
    25
100
AcDbLine
 10
585.0
 20
-520.0
 30
0.0
 11
0.9145228283
 21
-520.0
 31
0.0
  0
VIEWPORT
  5
E2
330
8C
100
AcDbEntity
  8
0
100
AcDbViewport
 10
0.0
 20
0.0
 30
0.0
 40
205.6
 41
156.0
 68
     1
 69
     1
 12
0.0
 22
0.0
 13
0.0
 23
0.0
 14
10.0
 24
10.0
 15
10.0
 25
10.0
 16
0.0
 26
0.0
 36
1.0
 17
0.0
 27
0.0
 37
0.0
 42
50.0
 43
0.0
 44
0.0
 45
1276.9844357977
 50
0.0
 51
0.0
 72
   100
 90
   557152
  1

281
     0
 71
     1
 74
     0
110
0.0
120
0.0
130
0.0
111
1.0
121
0.0
131
0.0
112
0.0
122
1.0
132
0.0
 79
     0
146
0.0
  0
ENDBLK
  5
8F
330
8C
100
AcDbEntity
  8
0
100
AcDbBlockEnd
  0
BLOCK
  5
9A
330
98
100
AcDbEntity
  8
0
100
AcDbBlockBegin
  2
*Paper_Space2
 70
     0
 10
0.0
 20
0.0
 30
0.0
  3
*Paper_Space2
  1

  0
SPLINE
  5
9C
330
98
100
AcDbEntity
  8
0
  6
Continuous
 62
     7
370
    25
100
AcDbSpline
210
0.0
220
0.0
230
1.0
 70
     8
 71
     3
 72
    31
 73
    27
 74
     0
 42
0.000000001
 43
0.00000001
 40
0.0
 40
0.0
 40
0.0
 40
0.0
 40
0.0264935928028826
 40
0.0539290280006286
 40
0.0823808145047563
 40
0.1119412038091411
 40
0.142727705146416
 40
0.1748915885904352
 40
0.2037030749668506
 40
0.2338295935026493
 40
0.2652551587026694
 40
0.2977014440491474
 40
0.3311625320912651
 40
0.3656372477982502
 40
0.4011236182144773
 40
0.4490117986359947
 40
0.4986128313840628
 40
0.5499127164636779
 40
0.6028935651260111
 40
0.657533536150527
 40
0.7138064307954907
 40
0.7683314120927698
 40
0.8242493181531286
 40
0.8815258530407222
 40
0.9401236609954117
 40
0.9999999999999999
 40
0.9999999999999999
 40
0.9999999999999999
 40
0.9999999999999999
 10
585.0000000000002
 20
-520.0
 30
0.0
 10
588.9214011852503
 20
-516.6631375005657
 30
0.0
 10
596.9036086530891
 20
-509.8707876480888
 30
0.0
 10
608.5866458094529
 20
-498.9174190883065
 30
0.0
 10
620.2801480266904
 20
-487.1236355686586
 30
0.0
 10
631.9117872241094
 20
-474.3700381075092
 30
0.0
 10
643.4584903129537
 20
-460.5840713404829
 30
0.0
 10
654.2898312100788
 20
-446.411236447062
 30
0.0
 10
664.439273944974
 20
-431.8999428769246
 30
0.0
 10
673.8679148309673
 20
-417.0796715053781
 30
0.0
 10
683.1205766919697
 20
-401.3284986562571
 30
0.0
 10
692.5157577317138
 20
-384.9121866576936
 30
0.0
 10
701.8974463677457
 20
-367.808237897067
 30
0.0
 10
711.2638696341809
 20
-350.0256336375788
 30
0.0
 10
721.5727159628105
 20
-329.5745999355729
 30
0.0
 10
732.7128218884517
 20
-306.2557224194462
 30
0.0
 10
744.5250811371247
 20
-279.8618003781557
 30
0.0
 10
756.0376059729937
 20
-252.2599194850185
 30
0.0
 10
767.1674343486983
 20
-223.4488277456617
 30
0.0
 10
777.8256681909444
 20
-193.4320726168424
 30
0.0
 10
787.7247432297697
 20
-162.8405339557968
 30
0.0
 10
796.8270693082472
 20
-131.7442342417343
 30
0.0
 10
805.1058911424767
 20
-100.2160476367262
 30
0.0
 10
812.6307004094526
 20
-67.68783261805581
 30
0.0
 10
819.4187468890882
 20
-34.20844343766893
 30
0.0
 10
823.1262456251056
 20
-11.48455719099151
 30
0.0
 10
825.0000000000002
 20
0.0
 30
0.0
  0
SPLINE
  5
9D
330
98
100
AcDbEntity
  8
0
  6
Continuous
 62
     7
370
    25
100
AcDbSpline
210
0.0
220
0.0
230
1.0
 70
     8
 71
     3
 72
    42
 73
    38
 74
     0
 42
0.000000001
 43
0.00000001
 40
0.0
 40
0.0
 40
0.0
 40
0.0
 40
0.0537793007048157
 40
0.1057055630642191
 40
0.1557422960393194
 40
0.2038587931616677
 40
0.2500288914915466
 40
0.2934579812955014
 40
0.3349699970721833
 40
0.3745509182973044
 40
0.4121899696231217
 40
0.4485871455828889
 40
0.4829480995560046
 40
0.5152690949634972
 40
0.5455483424174101
 40
0.5737857059416217
 40
0.5999824836467825
 40
0.6241412057293025
 40
0.6439503930697198
 40
0.6621471187070268
 40
0.6787341953441824
 40
0.6937145337004365
 40
0.7070910511855046
 40
0.7197469549871398
 40
0.7340365065795739
 40
0.7500100159595922
 40
0.7676525133437393
 40
0.7871886426671745
 40
0.8082610946043832
 40
0.8308774418487829
 40
0.855064595800339
 40
0.8808708125557464
 40
0.9023331461626123
 40
0.9248958893754526
 40
0.9486284489921942
 40
0.9736227059971461
 40
1.0
 40
1.0
 40
1.0
 40
1.0
 10
-825.0000000000002
 20
0.0
 30
0.0
 10
-823.3263731278046
 20
-10.31663801367741
 30
0.0
 10
-820.0367864547487
 20
-30.59444036278547
 30
0.0
 10
-814.1694724447912
 20
-60.29097101349517
 30
0.0
 10
-807.831414777305
 20
-88.76111155327793
 30
0.0
 10
-801.0397842560512
 20
-115.9756856320572
 30
0.0
 10
-793.9398803610034
 20
-141.7812798372333
 30
0.0
 10
-786.6216932530209
 20
-166.1884933742243
 30
0.0
 10
-779.1726444094317
 20
-189.2134903311754
 30
0.0
 10
-771.6184933997234
 20
-211.0164989068446
 30
0.0
 10
-763.9801165170843
 20
-231.7336310911562
 30
0.0
 10
-756.3212833672651
 20
-251.3579368477494
 30
0.0
 10
-748.7036786483483
 20
-269.8852813344994
 30
0.0
 10
-741.2438402750491
 20
-287.1889262748958
 30
0.0
 10
-733.9979055189297
 20
-303.286323558821
 30
0.0
 10
-727.0174542113056
 20
-318.1959537468478
 30
0.0
 10
-720.349782463094
 20
-331.9369698856512
 30
0.0
 10
-714.2402802115483
 20
-344.1269980830526
 30
0.0
 10
-708.7069238007982
 20
-354.8658041893765
 30
0.0
 10
-703.7566119860486
 20
-364.2491948818151
 30
0.0
 10
-699.1687169434305
 20
-372.7623497952854
 30
0.0
 10
-694.9636210636022
 20
-380.4173770570688
 30
0.0
 10
-691.0761519263885
 20
-387.3750138360385
 30
0.0
 10
-687.2086665940313
 20
-394.1898209626896
 30
0.0
 10
-683.043628059745
 20
-401.415896330814
 30
0.0
 10
-678.3273314081733
 20
-409.44221467877
 30
0.0
 10
-673.0414651567354
 20
-418.3166899995805
 30
0.0
 10
-667.0015627000148
 20
-427.892418438054
 30
0.0
 10
-660.1482754360457
 20
-438.092028281592
 30
0.0
 10
-652.457942615984
 20
-448.8111644652488
 30
0.0
 10
-643.8586920727874
 20
-460.0015641833222
 30
0.0
 10
-635.0118954820963
 20
-470.7086310992983
 30
0.0
 10
-626.0242864369634
 20
-480.8784360032602
 30
0.0
 10
-617.0020005692343
 20
-490.4721808189011
 30
0.0
 10
-607.1796574488596
 20
-500.2443957232018
 30
0.0
 10
-596.5091930330301
 20
-510.2087677077171
 30
0.0
 10
-588.9046415200922
 20
-516.6781987206579
 30
0.0
 10
-585.0000000000002
 20
-520.0000000000001
 30
0.0
  0
SPLINE
  5
9E
330
98
100
AcDbEntity
  8
0
  6
Continuous
 62
     7
370
    25
100
AcDbSpline
210
0.0
220
0.0
230
1.0
 70
    24
 71
     3
 72
    45
 73
    41
 74
     0
 42
0.000000001
 43
0.00000001
 40
0.2500000000008616
 40
0.2500000000008616
 40
0.2500000000008616
 40
0.2500000000008616
 40
0.2703510934542002
 40
0.276181271029329
 40
0.2907021869084008
 40
0.3023625420586581
 40
0.3110532803626014
 40
0.3263212031287085
 40
0.3390259087710744
 40
0.3547250841173162
 40
0.3721065607252032
 40
0.3721065607252032
 40
0.3753884196761575
 40
0.3753884196761575
 40
0.3835388631566118
 40
0.3835388631566118
 40
0.402642406257417
 40
0.402642406257417
 40
0.4070876261759744
 40
0.4070876261759744
 40
0.4999999999999998
 40
0.5929123738240252
 40
0.5929123738240252
 40
0.5973575937425828
 40
0.5973575937425828
 40
0.6164611368433874
 40
0.6164611368433874
 40
0.6246115803238425
 40
0.6246115803238425
 40
0.6278934392747961
 40
0.6278934392747961
 40
0.6452749158826834
 40
0.660974091228925
 40
0.6736787968712914
 40
0.6889467196373982
 40
0.6976374579413416
 40
0.7092978130915988
 40
0.7238187289706707
 40
0.7296489065457994
 40
0.7500000000008614
 40
0.7500000000008614
 40
0.7500000000008614
 40
0.7500000000008614
 10
825.0000000000001
 20
0.0
 30
0.0
 10
825.0000000001279
 20
0.0
 30
0.0
 10
821.121696489918
 20
0.0
 30
0.0
 10
807.8274177207859
 20
0.0
 30
0.0
 10
793.0164686813039
 20
0.0
 30
0.0
 10
770.9554763522516
 20
0.0
 30
0.0
 10
743.8293671786078
 20
0.0
 30
0.0
 10
710.6945376964652
 20
0.0
 30
0.0
 10
664.8112131361979
 20
0.0
 30
0.0
 10
611.039799413733
 20
0.0
 30
0.0
 10
568.7130856997602
 20
0.0
 30
0.0
 10
541.396508971518
 20
0.0
 30
0.0
 10
537.0316229016261
 20
0.0
 30
0.0
 10
521.74009928482
 20
0.0
 30
0.0
 10
510.6847639037827
 20
0.0
 30
0.0
 10
473.2842284811349
 20
0.0
 30
0.0
 10
446.3612600062478
 20
0.0
 30
0.0
 10
412.7438131894284
 20
0.0
 30
0.0
 10
406.3790856346382
 20
0.0
 30
0.0
 10
266.666666666667
 20
0.0
 30
0.0
 10
0.0000000000001023
 20
0.0
 30
0.0
 10
-266.666666666667
 20
0.0
 30
0.0
 10
-406.3790856346388
 20
0.0
 30
0.0
 10
-412.7438131894295
 20
0.0
 30
0.0
 10
-446.3612600062489
 20
0.0
 30
0.0
 10
-473.284228481135
 20
0.0
 30
0.0
 10
-510.6847639037827
 20
0.0
 30
0.0
 10
-521.7400992848205
 20
0.0
 30
0.0
 10
-537.0316229016271
 20
0.0
 30
0.0
 10
-541.396508971518
 20
0.0
 30
0.0
 10
-568.7130856997596
 20
0.0
 30
0.0
 10
-611.0397994137327
 20
0.0
 30
0.0
 10
-664.8112131361986
 20
0.0
 30
0.0
 10
-710.6945376964653
 20
0.0
 30
0.0
 10
-743.8293671786081
 20
0.0
 30
0.0
 10
-770.9554763522518
 20
0.0
 30
0.0
 10
-793.0164686813042
 20
0.0
 30
0.0
 10
-807.8274177207862
 20
0.0
 30
0.0
 10
-821.1216964893553
 20
0.0
 30
0.0
 10
-824.9999999998727
 20
0.0
 30
0.0
 10
-825.0000000000005
 20
0.0
 30
0.0
  0
SPLINE
  5
9F
330
98
100
AcDbEntity
  8
0
  6
Continuous
 62
     7
370
    25
100
AcDbSpline
210
0.0
220
0.0
230
1.0
 70
    24
 71
     3
 72
    45
 73
    41
 74
     0
 42
0.000000001
 43
0.00000001
 40
0.2500000000008616
 40
0.2500000000008616
 40
0.2500000000008616
 40
0.2500000000008616
 40
0.2703510934542002
 40
0.276181271029329
 40
0.2907021869084008
 40
0.3023625420586581
 40
0.3110532803626014
 40
0.3263212031287085
 40
0.3390259087710744
 40
0.3547250841173162
 40
0.3721065607252032
 40
0.3721065607252032
 40
0.3753884196761575
 40
0.3753884196761575
 40
0.3835388631566118
 40
0.3835388631566118
 40
0.402642406257417
 40
0.402642406257417
 40
0.4070876261759744
 40
0.4070876261759744
 40
0.4999999999999998
 40
0.5929123738240252
 40
0.5929123738240252
 40
0.5973575937425828
 40
0.5973575937425828
 40
0.6164611368433874
 40
0.6164611368433874
 40
0.6246115803238425
 40
0.6246115803238425
 40
0.6278934392747961
 40
0.6278934392747961
 40
0.6452749158826834
 40
0.660974091228925
 40
0.6736787968712914
 40
0.6889467196373982
 40
0.6976374579413416
 40
0.7092978130915988
 40
0.7238187289706707
 40
0.7296489065457994
 40
0.7500000000008614
 40
0.7500000000008614
 40
0.7500000000008614
 40
0.7500000000008614
 10
584.9999999999999
 20
-520.0
 30
0.0
 10
585.0000000001019
 20
-520.0
 30
0.0
 10
581.9062333604332
 20
-519.9999999999999
 30
0.0
 10
571.3716036474652
 20
-520.0
 30
0.0
 10
559.6452825062746
 20
-520.0000000000001
 30
0.0
 10
542.198140059685
 20
-520.0
 30
0.0
 10
520.9419420288197
 20
-520.0
 30
0.0
 10
495.2204484716084
 20
-520.0000000000002
 30
0.0
 10
460.3643974913436
 20
-520.0000000000002
 30
0.0
 10
420.5359307558959
 20
-520.0000000000003
 30
0.0
 10
389.6510431050078
 20
-520.0
 30
0.0
 10
369.9468795812314
 20
-520.0
 30
0.0
 10
366.8051746538252
 20
-520.0
 30
0.0
 10
355.8245880077228
 20
-520.0
 30
0.0
 10
347.9315465469564
 20
-520.0
 30
0.0
 10
321.4095218647684
 20
-520.0
 30
0.0
 10
302.8190437295361
 20
-520.0
 30
0.0
 10
279.9027312050407
 20
-520.0
 30
0.0
 10
275.5768968157773
 20
-520.0
 30
0.0
 10
180.8340416176763
 20
-520.0
 30
0.0
 10
-0.0000000000007164
 20
-520.0
 30
0.0
 10
-180.8340416176768
 20
-520.0
 30
0.0
 10
-275.5768968157785
 20
-520.0
 30
0.0
 10
-279.9027312050422
 20
-520.0
 30
0.0
 10
-302.8190437295372
 20
-520.0
 30
0.0
 10
-321.4095218647685
 20
-520.0
 30
0.0
 10
-347.9315465469577
 20
-520.0
 30
0.0
 10
-355.8245880077245
 20
-520.0
 30
0.0
 10
-366.8051746538268
 20
-520.0
 30
0.0
 10
-369.9468795812324
 20
-520.0
 30
0.0
 10
-389.6510431050084
 20
-520.0
 30
0.0
 10
-420.5359307558965
 20
-520.0
 30
0.0
 10
-460.3643974913442
 20
-520.0
 30
0.0
 10
-495.2204484716092
 20
-520.0
 30
0.0
 10
-520.94194202882
 20
-519.9999999999999
 30
0.0
 10
-542.1981400596853
 20
-519.9999999999998
 30
0.0
 10
-559.6452825062745
 20
-519.9999999999999
 30
0.0
 10
-571.3716036474652
 20
-519.9999999999999
 30
0.0
 10
-581.9062333599873
 20
-519.9999999999999
 30
0.0
 10
-584.9999999998983
 20
-520.0
 30
0.0
 10
-585.0000000000002
 20
-520.0
 30
0.0
  0
VIEWPORT
  5
E4
330
98
100
AcDbEntity
  8
0
100
AcDbViewport
 10
0.0
 20
0.0
 30
0.0
 40
205.6
 41
156.0
 68
     1
 69
     1
 12
0.0
 22
0.0
 13
0.0
 23
0.0
 14
10.0
 24
10.0
 15
10.0
 25
10.0
 16
0.0
 26
0.0
 36
1.0
 17
0.0
 27
0.0
 37
0.0
 42
50.0
 43
0.0
 44
0.0
 45
1276.9844357977
 50
0.0
 51
0.0
 72
   100
 90
   557152
  1

281
     0
 71
     1
 74
     0
110
0.0
120
0.0
130
0.0
111
1.0
121
0.0
131
0.0
112
0.0
122
1.0
132
0.0
 79
     0
146
0.0
  0
ENDBLK
  5
9B
330
98
100
AcDbEntity
  8
0
100
AcDbBlockEnd
  0
BLOCK
  5
A2
330
A0
100
AcDbEntity
  8
0
100
AcDbBlockBegin
  2
*Paper_Space3
 70
     0
 10
0.0
 20
0.0
 30
0.0
  3
*Paper_Space3
  1

  0
SPLINE
  5
A4
330
A0
100
AcDbEntity
  8
0
  6
Continuous
 62
     7
370
    25
100
AcDbSpline
210
0.0
220
0.0
230
1.0
 70
     8
 71
     3
 72
    84
 73
    80
 74
     0
 42
0.000000001
 43
0.00000001
 40
0.0
 40
0.0
 40
0.0
 40
0.0
 40
0.008475981303371
 40
0.0157814624469747
 40
0.0229867935384824
 40
0.0346920833970455
 40
0.0475591062595389
 40
0.0587345149822218
 40
0.0703662873298642
 40
0.0817135734511576
 40
0.0927803654853713
 40
0.1035998050143441
 40
0.1183980585856472
 40
0.1328880669243879
 40
0.1471844974246743
 40
0.1614083730347029
 40
0.1726159250427031
 40
0.1837711076894483
 40
0.1938082149487265
 40
0.2025364017024923
 40
0.2083113567489272
 40
0.2134020927406545
 40
0.2178595542324649
 40
0.2208323442831406
 40
0.2235350406128904
 40
0.2260260806634734
 40
0.228379077405846
 40
0.2320119900820381
 40
0.2348699093820616
 40
0.2380710648596669
 40
0.2428007884972945
 40
0.2490590428739416
 40
0.2562791920208184
 40
0.2648310623777316
 40
0.2747150263013787
 40
0.2859317668223168
 40
0.2979189139586341
 40
0.3099841274688429
 40
0.338732578927779
 40
0.3679324070693671
 40
0.3930785841207533
 40
0.4185801550311582
 40
0.4444528183919642
 40
0.4598800101984534
 40
0.4754454909969872
 40
0.4910258738994778
 40
0.5055907777263234
 40
0.5206279415385948
 40
0.5340458015168595
 40
0.5458350622506447
 40
0.555986741294583
 40
0.5644925615774558
 40
0.5713453593280254
 40
0.57653960088904
 40
0.5786337294919143
 40
0.581004900233231
 40
0.5838463319526012
 40
0.5872416817268156
 40
0.59346988166569
 40
0.6011353682625886
 40
0.61028027797894
 40
0.6209267875575192
 40
0.6316611411377079
 40
0.6435968887290905
 40
0.6567374126054177
 40
0.6710851022000801
 40
0.6866418478604637
 40
0.7034093576038759
 40
0.723628515906977
 40
0.7453713464883086
 40
0.7686409932398566
 40
0.7934411609025022
 40
0.819776197860727
 40
0.847651154349554
 40
0.875348895663777
 40
0.9044262357296933
 40
0.9348892707052361
 40
0.9667447290695589
 40
1.0
 40
1.0
 40
1.0
 40
1.0
 10
-425.0000000000004
 20
0.0
 30
0.0
 10
-424.8864201006041
 20
-2.259249937751673
 30
0.0
 10
-424.6749452456112
 20
-6.46575615512357
 30
0.0
 10
-424.3390250478974
 20
-12.47045235414418
 30
0.0
 10
-423.9427024889549
 20
-19.12712260130117
 30
0.0
 10
-423.4380131343328
 20
-26.9382733076346
 30
0.0
 10
-422.8422430903927
 20
-35.3626690020693
 30
0.0
 10
-422.2228433511015
 20
-43.47008800155569
 30
0.0
 10
-421.6082107594473
 20
-51.00309066010541
 30
0.0
 10
-420.9801870944361
 20
-58.25546654604724
 30
0.0
 10
-420.3605318990164
 20
-65.04939637094398
 30
0.0
 10
-419.6786208712658
 20
-72.19666243369977
 30
0.0
 10
-418.9481659756591
 20
-79.50249597201753
 30
0.0
 10
-418.1965983779965
 20
-86.70130010974204
 30
0.0
 10
-417.5173796401532
 20
-92.99805318668514
 30
0.0
 10
-416.967308704396
 20
-97.98989160998123
 30
0.0
 10
-416.5299684545698
 20
-101.9216953643193
 30
0.0
 10
-416.2207129941884
 20
-104.7215753845619
 30
0.0
 10
-415.8824119948517
 20
-107.7146271764785
 30
0.0
 10
-415.55325104822
 20
-110.5555741599343
 30
0.0
 10
-415.2408573849294
 20
-113.1881877591636
 30
0.0
 10
-414.9559328630858
 20
-115.541116739012
 30
0.0
 10
-414.681877721091
 20
-117.7555924202152
 30
0.0
 10
-414.4252727125526
 20
-119.7922686155461
 30
0.0
 10
-414.1908199382094
 20
-121.6121112396632
 30
0.0
 10
-413.9475323406492
 20
-123.4516466437002
 30
0.0
 10
-413.6507083394341
 20
-125.6614236435989
 30
0.0
 10
-413.3264478359506
 20
-128.0396383703351
 30
0.0
 10
-412.9714113571157
 20
-130.6064453518985
 30
0.0
 10
-412.5696425123709
 20
-133.4722838138723
 30
0.0
 10
-412.0328340804143
 20
-137.2351741235954
 30
0.0
 10
-411.3277166115129
 20
-142.0617096956417
 30
0.0
 10
-410.4507011788126
 20
-147.895227153585
 30
0.0
 10
-409.3964320350818
 20
-154.6812428794816
 30
0.0
 10
-408.1331807659293
 20
-162.5133023020133
 30
0.0
 10
-406.6658516252824
 20
-171.2384542492103
 30
0.0
 10
-405.0337540745193
 20
-180.5194078754967
 30
0.0
 10
-402.4845190506102
 20
-194.3777160238772
 30
0.0
 10
-398.8636087287401
 20
-212.6707415364678
 30
0.0
 10
-394.1539356721647
 20
-234.2196400612711
 30
0.0
 10
-389.250714602796
 20
-254.7632293248327
 30
0.0
 10
-384.2107576168611
 20
-274.2920243802555
 30
0.0
 10
-379.5062628486237
 20
-291.1886542145026
 30
0.0
 10
-375.2920432427488
 20
-305.4600362377636
 30
0.0
 10
-371.7114586626013
 20
-317.0773997229136
 30
0.0
 10
-368.0699107828755
 20
-328.4064473652073
 30
0.0
 10
-364.3474450539216
 20
-339.5362964868509
 30
0.0
 10
-360.6885867431597
 20
-350.0660209628845
 30
0.0
 10
-357.1635856323068
 20
-359.8519492199527
 30
0.0
 10
-353.9881830741097
 20
-368.3957804760745
 30
0.0
 10
-351.196433723216
 20
-375.7086727837852
 30
0.0
 10
-348.8190100896021
 20
-381.7980742565929
 30
0.0
 10
-346.8787641691037
 20
-386.6774242377651
 30
0.0
 10
-345.5380141590151
 20
-390.0022149802135
 30
0.0
 10
-344.6159371813656
 20
-392.2683143329014
 30
0.0
 10
-344.0446093551207
 20
-393.6580554932066
 30
0.0
 10
-343.4970442954535
 20
-394.9796340935664
 30
0.0
 10
-342.8503340410704
 20
-396.5281735501895
 30
0.0
 10
-342.1486174235457
 20
-398.1926068561007
 30
0.0
 10
-341.4155404878268
 20
-399.9176045968618
 30
0.0
 10
-340.7136768682699
 20
-401.5582884639185
 30
0.0
 10
-340.0747660895238
 20
-403.0448044283565
 30
0.0
 10
-339.4890164840984
 20
-404.403872093207
 30
0.0
 10
-338.9519487755367
 20
-405.6484421587056
 30
0.0
 10
-338.4448704451986
 20
-406.8237211411438
 30
0.0
 10
-337.9685165527572
 20
-407.9295044090095
 30
0.0
 10
-337.5234177090759
 20
-408.9657255567001
 30
0.0
 10
-337.0915719605507
 20
-409.975290891882
 30
0.0
 10
-336.6804315186999
 20
-410.9420108042869
 30
0.0
 10
-336.295807278523
 20
-411.8530822525345
 30
0.0
 10
-335.9511679825154
 20
-412.6764463089959
 30
0.0
 10
-335.6462462057161
 20
-413.4118450757886
 30
0.0
 10
-335.380635194924
 20
-414.0589432289386
 30
0.0
 10
-335.1584017186639
 20
-414.6058911617588
 30
0.0
 10
-334.9760264464674
 20
-415.0594113978997
 30
0.0
 10
-334.8296751359734
 20
-415.4252663255074
 30
0.0
 10
-334.7161558137402
 20
-415.7097571426079
 30
0.0
 10
-334.6326653321997
 20
-415.9193691370011
 30
0.0
 10
-334.6045105812542
 20
-415.9896177190535
 30
0.0
 10
-334.5901305569354
 20
-416.0254971455925
 30
0.0
  0
SPLINE
  5
A5
330
A0
100
AcDbEntity
  8
0
  6
Continuous
 62
     7
370
    25
100
AcDbSpline
210
0.0
220
0.0
230
1.0
 70
     8
 71
     3
 72
    90
 73
    86
 74
     0
 42
0.000000001
 43
0.00000001
 40
0.0
 40
0.0
 40
0.0
 40
0.0
 40
0.01792427048154
 40
0.0348191336501616
 40
0.0511582061051248
 40
0.067132857444905
 40
0.0827483331601505
 40
0.0980055347426807
 40
0.1129053197343374
 40
0.1392959613921899
 40
0.164492677647687
 40
0.188499681828003
 40
0.2129055078249733
 40
0.2359539597059344
 40
0.2576485583609031
 40
0.2779923282616144
 40
0.2969878613493432
 40
0.3137352194199906
 40
0.3292772951793176
 40
0.3436157877470004
 40
0.3567525715346128
 40
0.3686900069672605
 40
0.3794314239572392
 40
0.388981905308608
 40
0.3973496191937975
 40
0.4045482205612691
 40
0.4091942356848302
 40
0.4132125167888405
 40
0.4166302056215752
 40
0.4194933512476866
 40
0.4218825652283325
 40
0.4246513815595932
 40
0.4279868893172217
 40
0.4320312287617446
 40
0.43770594434316
 40
0.4443605923179835
 40
0.4527338816992176
 40
0.4622645357017273
 40
0.472947306031384
 40
0.4847767196924858
 40
0.497747244705262
 40
0.5118534592766304
 40
0.5267703112598298
 40
0.5416100566810587
 40
0.5722976771883039
 40
0.6024612192760797
 40
0.6321269056300585
 40
0.6692002041673543
 40
0.7055508694860008
 40
0.7167904820349775
 40
0.7271377906953166
 40
0.7363001960279081
 40
0.7442782328469435
 40
0.7510721988492267
 40
0.7573555050580132
 40
0.762110013435298
 40
0.7653356873174777
 40
0.7681773571235019
 40
0.7718037561012396
 40
0.7741533869192246
 40
0.7766391340144011
 40
0.7793350209499472
 40
0.7822998781670061
 40
0.7867455587586263
 40
0.791823637107013
 40
0.7975854029083703
 40
0.8048935104912426
 40
0.8131388411298571
 40
0.8223401712799971
 40
0.8318814896934319
 40
0.8413727132768923
 40
0.850851040816723
 40
0.8658051405772582
 40
0.8809585603893089
 40
0.8964438818687781
 40
0.9072571915765375
 40
0.9183177054252428
 40
0.929658605043553
 40
0.9412848518800881
 40
0.9524580290127789
 40
0.965321951281443
 40
0.977023793612798
 40
0.9842266449381558
 40
0.9915281435798481
 40
1.0
 40
1.0
 40
1.0
 40
1.0
 10
334.5901304930451
 20
-416.0254973040405
 30
0.0
 10
334.5966560428568
 20
-416.0092505772427
 30
0.0
 10
334.6093323741624
 20
-415.9776901880858
 30
0.0
 10
334.6400189410338
 20
-415.9008192311522
 30
0.0
 10
334.6782610390276
 20
-415.8048920698495
 30
0.0
 10
334.7247256854639
 20
-415.6883216350317
 30
0.0
 10
334.7794864162843
 20
-415.5510414302896
 30
0.0
 10
334.8426018597395
 20
-415.3930036695547
 30
0.0
 10
334.9330719323741
 20
-415.1668772527507
 30
0.0
 10
335.0609590669017
 20
-414.8477019673938
 30
0.0
 10
335.2424370158842
 20
-414.398616774298
 30
0.0
 10
335.4582212450161
 20
-413.8693995164999
 30
0.0
 10
335.7114130097669
 20
-413.2541672142819
 30
0.0
 10
336.0057959749769
 20
-412.5455193357955
 30
0.0
 10
336.3354673829196
 20
-411.7588592254837
 30
0.0
 10
336.7006295622883
 20
-410.894394590691
 30
0.0
 10
337.0949824118338
 20
-409.9672323451381
 30
0.0
 10
337.5158876090513
 20
-408.9831312686251
 30
0.0
 10
337.9598208996429
 20
-407.9495237339193
 30
0.0
 10
338.4349408243906
 20
-406.8465239434022
 30
0.0
 10
338.9407142858826
 20
-405.6742176859764
 30
0.0
 10
339.4764384215854
 20
-404.432748152899
 30
0.0
 10
340.0412522121279
 20
-403.1222983341596
 30
0.0
 10
340.6340607499679
 20
-401.7433080242625
 30
0.0
 10
341.2537245485761
 20
-400.2960059955707
 30
0.0
 10
341.8565157817944
 20
-398.8805141212636
 30
0.0
 10
342.4281898969365
 20
-397.5295798645117
 30
0.0
 10
342.9448927724422
 20
-396.3013613277539
 30
0.0
 10
343.4749719538644
 20
-395.0324776648583
 30
0.0
 10
344.0207652334791
 20
-393.7156816096123
 30
0.0
 10
344.6422071203852
 20
-392.2046816891215
 30
0.0
 10
345.464851925281
 20
-390.1814005911588
 30
0.0
 10
346.4246353885511
 20
-387.8034282738457
 30
0.0
 10
347.663549902393
 20
-384.7073574817266
 30
0.0
 10
349.2040443342379
 20
-380.8129014255855
 30
0.0
 10
351.1337567857075
 20
-375.8623010008394
 30
0.0
 10
353.3923441380278
 20
-369.9620741385901
 30
0.0
 10
355.9778818162256
 20
-363.0587484543161
 30
0.0
 10
358.8193082301933
 20
-355.2804025731037
 30
0.0
 10
361.8948131311519
 20
-346.620310547785
 30
0.0
 10
365.1804917069659
 20
-337.0713731070233
 30
0.0
 10
368.624285175996
 20
-326.7050651993372
 30
0.0
 10
372.1062738720015
 20
-315.8133619357408
 30
0.0
 10
376.7434848753085
 20
-300.7118553301102
 30
0.0
 10
382.2418138273267
 20
-281.6304188658822
 30
0.0
 10
388.325832337148
 20
-258.5605514556271
 30
0.0
 10
394.3267539868514
 20
-233.6215500684877
 30
0.0
 10
400.1108834574635
 20
-206.8298086568962
 30
0.0
 10
404.33001467739
 20
-184.6245346037896
 30
0.0
 10
406.987023068163
 20
-169.3539027652431
 30
0.0
 10
408.3418910577631
 20
-161.2343660388474
 30
0.0
 10
409.5086951877997
 20
-153.9650203916308
 30
0.0
 10
410.4910317665226
 20
-147.6271337787384
 30
0.0
 10
411.3298557837721
 20
-142.0458038081231
 30
0.0
 10
412.0214579722423
 20
-137.3141066157915
 30
0.0
 10
412.5618470038347
 20
-133.5274999048986
 30
0.0
 10
412.9653565082041
 20
-130.6499430023715
 30
0.0
 10
413.3209489586288
 20
-128.07966175196
 30
0.0
 10
413.644520907727
 20
-125.7070707149717
 30
0.0
 10
413.9416032212111
 20
-123.4961044134734
 30
0.0
 10
414.1852113858706
 20
-121.6549405985093
 30
0.0
 10
414.4200484204603
 20
-119.8334985014325
 30
0.0
 10
414.676930329099
 20
-117.7951493613491
 30
0.0
 10
414.9513217172961
 20
-115.5788277073425
 30
0.0
 10
415.2365261740891
 20
-113.2243061138175
 30
0.0
 10
415.5269438911056
 20
-110.7777182455374
 30
0.0
 10
415.8183746227889
 20
-108.2693275662253
 30
0.0
 10
416.1126976802529
 20
-105.6831691315881
 30
0.0
 10
416.378962566985
 20
-103.2869484014142
 30
0.0
 10
416.6794531619572
 20
-100.5791853977274
 30
0.0
 10
417.0353039934657
 20
-97.3726196044643
 30
0.0
 10
417.5063572571057
 20
-93.09233985423593
 30
0.0
 10
418.1237403899038
 20
-87.38870503161012
 30
0.0
 10
418.9067903427406
 20
-79.91152280140767
 30
0.0
 10
419.6619871469561
 20
-72.37003489928823
 30
0.0
 10
420.3571319102422
 20
-65.08585312452797
 30
0.0
 10
420.9771081613937
 20
-58.29013443744177
 30
0.0
 10
421.6055129187868
 20
-51.03523027286447
 30
0.0
 10
422.2206228743676
 20
-43.49829136749309
 30
0.0
 10
422.840567673878
 20
-35.38562406713092
 30
0.0
 10
423.4368840713432
 20
-26.95514148629441
 30
0.0
 10
423.942006149153
 20
-19.13844165172993
 30
0.0
 10
424.3386232320852
 20
-12.47749097972406
 30
0.0
 10
424.6747593581858
 20
-6.469350956994968
 30
0.0
 10
424.8863531455889
 20
-2.260545859949781
 30
0.0
 10
424.9999999999993
 20
0.0
 30
0.0
  0
SPLINE
  5
A6
330
A0
100
AcDbEntity
  8
0
  6
Continuous
 62
     7
370
    25
100
AcDbSpline
210
0.0
220
0.0
230
1.0
 70
     8
 71
     3
 72
    21
 73
    17
 74
     0
 42
0.000000001
 43
0.00000001
 40
0.0
 40
0.0
 40
0.0
 40
0.0
 40
0.0459865261670713
 40
0.0852690210677895
 40
0.124272021164717
 40
0.167970562928034
 40
0.2163913277011796
 40
0.2695561510398062
 40
0.3274764672383551
 40
0.3901391809580145
 40
0.4793396399395593
 40
0.5738084312702486
 40
0.6733742022356597
 40
0.7777974246234792
 40
0.8867851743467612
 40
1.0
 40
1.0
 40
1.0
 40
1.0
 10
244.9999999999882
 20
-520.0
 30
0.0
 10
246.837430321665
 20
-518.8990133296245
 30
0.0
 10
250.2444257585552
 20
-516.8575445904871
 30
0.0
 10
255.0997341017568
 20
-513.7047841954061
 30
0.0
 10
259.7906577685366
 20
-510.4985178223309
 30
0.0
 10
264.7362890912166
 20
-506.9139533946532
 30
0.0
 10
270.0944041389827
 20
-502.7793819492872
 30
0.0
 10
275.8218704028911
 20
-498.0453462666241
 30
0.0
 10
281.8679036756298
 20
-492.6633295267764
 30
0.0
 10
288.9055961853394
 20
-485.8817027627245
 30
0.0
 10
296.7669807941487
 20
-477.5156125532433
 30
0.0
 10
305.2059950637805
 20
-467.3654577291564
 30
0.0
 10
313.4055674401389
 20
-456.1269030420553
 30
0.0
 10
321.1798635584918
 20
-443.7855993414169
 30
0.0
 10
328.4416096940802
 20
-430.3948849173568
 30
0.0
 10
332.5147948277175
 20
-420.8756561531835
 30
0.0
 10
334.5901305612331
 20
-416.0254971347159
 30
0.0
  0
SPLINE
  5
A7
330
A0
100
AcDbEntity
  8
0
  6
Continuous
 62
     7
370
    25
100
AcDbSpline
210
0.0
220
0.0
230
1.0
 70
     8
 71
     3
 72
    19
 73
    15
 74
     0
 42
0.000000001
 43
0.00000001
 40
0.0
 40
0.0
 40
0.0
 40
0.0
 40
0.0778696453768241
 40
0.1610299993862729
 40
0.2494632883843087
 40
0.3431222636825137
 40
0.4391000870363757
 40
0.5310525337071655
 40
0.6186032397165253
 40
0.701635343832999
 40
0.7800655616581507
 40
0.8546364667072516
 40
0.9279000421360886
 40
1.0
 40
1.0
 40
1.0
 40
1.0
 10
-334.5901305569201
 20
-416.02549714563
 30
0.0
 10
-333.185033529483
 20
-419.3699875707028
 30
0.0
 10
-330.2793727630711
 20
-426.2862036198536
 30
0.0
 10
-325.0736967127016
 20
-436.6833778725937
 30
0.0
 10
-318.9681325847089
 20
-447.4302142057543
 30
0.0
 10
-311.889029386167
 20
-458.2862783050377
 30
0.0
 10
-304.0562990086401
 20
-468.8164292773782
 30
0.0
 10
-295.7716982038157
 20
-478.6245801353275
 30
0.0
 10
-287.3383489357072
 20
-487.4883173251064
 30
0.0
 10
-278.8835204586534
 20
-495.4357068539341
 30
0.0
 10
-270.4826584462845
 20
-502.5349893655327
 30
0.0
 10
-262.0919908461898
 20
-508.9167823649776
 30
0.0
 10
-253.6633170654706
 20
-514.7488541621664
 30
0.0
 10
-247.8723202780375
 20
-518.2589841097863
 30
0.0
 10
-244.9999999999997
 20
-519.9999999999999
 30
0.0
  0
SPLINE
  5
A8
330
A0
100
AcDbEntity
  8
0
  6
Continuous
 62
     7
370
    25
100
AcDbSpline
210
0.0
220
0.0
230
1.0
 70
    24
 71
     3
 72
    49
 73
    45
 74
     0
 42
0.000000001
 43
0.00000001
 40
0.0
 40
0.0
 40
0.0
 40
0.0
 40
0.0092912373824026
 40
0.013936856073604
 40
0.0185824747648051
 40
0.0929123738240255
 40
0.0929123738240255
 40
0.0973575937425829
 40
0.0973575937425829
 40
0.1164611368433874
 40
0.1164611368433874
 40
0.1246115803238423
 40
0.1246115803238423
 40
0.1278934392747961
 40
0.1278934392747961
 40
0.1452749158826837
 40
0.1609740912289248
 40
0.1736787968712915
 40
0.1889467196373979
 40
0.1976374579413418
 40
0.2092978130915985
 40
0.2238187289706709
 40
0.2296489065457991
 40
0.2500000000008616
 40
0.2703510934542002
 40
0.276181271029329
 40
0.2907021869084008
 40
0.3023625420586581
 40
0.3110532803626014
 40
0.3263212031287085
 40
0.3390259087710744
 40
0.3547250841173162
 40
0.3721065607252032
 40
0.3721065607252032
 40
0.3753884196761575
 40
0.3753884196761575
 40
0.3835388631566118
 40
0.3835388631566118
 40
0.402642406257417
 40
0.402642406257417
 40
0.4070876261759744
 40
0.4070876261759744
 40
0.4999999999999998
 40
0.5919999999999997
 40
0.5919999999999997
 40
0.5919999999999997
 40
0.5919999999999997
 10
424.9999999999796
 20
0.0
 30
0.0
 10
425.0
 20
0.0
 30
0.0
 10
425.0000000000001
 20
0.0
 30
0.0
 10
425.0
 20
0.0
 30
0.0
 10
424.9999999999999
 20
0.0
 30
0.0
 10
424.9999999999984
 20
0.0
 30
0.0
 10
425.0000000000002
 20
0.0
 30
0.0
 10
424.8561805147667
 20
0.0
 30
0.0
 10
423.3429199510203
 20
0.0
 30
0.0
 10
419.4958006171228
 20
0.0
 30
0.0
 10
410.495083723395
 20
0.0
 30
0.0
 10
407.3559712817499
 20
0.0
 30
0.0
 10
402.3372870168546
 20
0.0
 30
0.0
 10
400.8253672235907
 20
0.0
 30
0.0
 10
390.8606250323381
 20
0.0
 30
0.0
 10
371.1316464450965
 20
0.0
 30
0.0
 10
334.2355470356203
 20
0.0
 30
0.0
 10
292.0581068523067
 20
0.0
 30
0.0
 10
251.5287510798317
 20
0.0
 30
0.0
 10
208.9159367753495
 20
0.0
 30
0.0
 10
164.9796029018206
 20
0.0
 30
0.0
 10
122.348537476698
 20
0.0
 30
0.0
 10
66.26489767396232
 20
0.0
 30
0.0
 10
0.0000000000007746
 20
0.0
 30
0.0
 10
-66.26489767396168
 20
0.0
 30
0.0
 10
-122.3485374766974
 20
0.0
 30
0.0
 10
-164.9796029018205
 20
0.0
 30
0.0
 10
-208.9159367753486
 20
0.0
 30
0.0
 10
-251.5287510798316
 20
0.0
 30
0.0
 10
-292.0581068523055
 20
0.0
 30
0.0
 10
-334.2355470356199
 20
0.0
 30
0.0
 10
-371.1316464450957
 20
0.0
 30
0.0
 10
-390.8606250323375
 20
0.0
 30
0.0
 10
-400.8253672235903
 20
0.0
 30
0.0
 10
-402.3372870168545
 20
0.0
 30
0.0
 10
-407.3559712817494
 20
0.0
 30
0.0
 10
-410.4950837233942
 20
0.0
 30
0.0
 10
-419.4958006171226
 20
0.0
 30
0.0
 10
-423.3429199510205
 20
0.0
 30
0.0
 10
-424.8561805147665
 20
0.0
 30
0.0
 10
-425.0000000000001
 20
0.0
 30
0.0
 10
-425.0000000000007
 20
0.0
 30
0.0
 10
-425.0
 20
0.0
 30
0.0
 10
-425.0000000000011
 20
0.0
 30
0.0
 10
-425.0000000000001
 20
0.0
 30
0.0
  0
SPLINE
  5
AA
330
A0
100
AcDbEntity
  8
0
  6
Continuous
 62
     7
370
    25
100
AcDbSpline
210
0.0
220
0.0
230
1.0
 70
    24
 71
     3
 72
    49
 73
    45
 74
     0
 42
0.000000001
 43
0.00000001
 40
0.0
 40
0.0
 40
0.0
 40
0.0
 40
0.0092912373824026
 40
0.013936856073604
 40
0.0185824747648051
 40
0.0929123738240255
 40
0.0929123738240255
 40
0.0973575937425829
 40
0.0973575937425829
 40
0.1164611368433874
 40
0.1164611368433874
 40
0.1246115803238423
 40
0.1246115803238423
 40
0.1278934392747961
 40
0.1278934392747961
 40
0.1452749158826837
 40
0.1609740912289248
 40
0.1736787968712915
 40
0.1889467196373979
 40
0.1976374579413418
 40
0.2092978130915985
 40
0.2238187289706709
 40
0.2296489065457991
 40
0.2500000000008616
 40
0.2703510934542002
 40
0.276181271029329
 40
0.2907021869084008
 40
0.3023625420586581
 40
0.3110532803626014
 40
0.3263212031287085
 40
0.3390259087710744
 40
0.3547250841173162
 40
0.3721065607252032
 40
0.3721065607252032
 40
0.3753884196761575
 40
0.3753884196761575
 40
0.3835388631566118
 40
0.3835388631566118
 40
0.402642406257417
 40
0.402642406257417
 40
0.4070876261759744
 40
0.4070876261759744
 40
0.4999999999999998
 40
0.5000599500828541
 40
0.5000599500828541
 40
0.5000599500828541
 40
0.5000599500828541
 10
244.9999999999883
 20
-520.0
 30
0.0
 10
245.0
 20
-520.0
 30
0.0
 10
245.0000000000001
 20
-520.0
 30
0.0
 10
245.0000000000001
 20
-520.0
 30
0.0
 10
245.0000000000002
 20
-520.0
 30
0.0
 10
245.0000000000001
 20
-520.0
 30
0.0
 10
245.0
 20
-520.0
 30
0.0
 10
245.0
 20
-520.0
 30
0.0
 10
244.9999999999999
 20
-520.0
 30
0.0
 10
244.9999999999997
 20
-520.0000000000005
 30
0.0
 10
245.0000000000003
 20
-520.0
 30
0.0
 10
244.6143090348134
 20
-520.0
 30
0.0
 10
243.548434648835
 20
-520.0
 30
0.0
 10
243.1817835745786
 20
-520.0
 30
0.0
 10
240.4959836230622
 20
-520.0
 30
0.0
 10
233.0066095239373
 20
-520.0
 30
0.0
 10
214.7080822653266
 20
-520.0
 30
0.0
 10
190.9875430266695
 20
-520.0
 30
0.0
 10
166.4165818250592
 20
-519.9999999999999
 30
0.0
 10
139.3641364882206
 20
-519.9999999999999
 30
0.0
 10
110.7294835328556
 20
-519.9999999999999
 30
0.0
 10
82.47199614046721
 20
-519.9999999999999
 30
0.0
 10
44.93605973911568
 20
-520.0
 30
0.0
 10
-0.0000000000001978
 20
-520.0000000000001
 30
0.0
 10
-44.93605973911662
 20
-519.9999999999999
 30
0.0
 10
-82.47199614046819
 20
-520.0
 30
0.0
 10
-110.7294835328571
 20
-520.0000000000001
 30
0.0
 10
-139.3641364882215
 20
-520.0
 30
0.0
 10
-166.4165818250603
 20
-520.0
 30
0.0
 10
-190.9875430266702
 20
-520.0000000000002
 30
0.0
 10
-214.7080822653276
 20
-520.0000000000002
 30
0.0
 10
-233.0066095239375
 20
-520.0000000000003
 30
0.0
 10
-240.4959836230623
 20
-520.0
 30
0.0
 10
-243.1817835745787
 20
-520.0
 30
0.0
 10
-243.5484346488351
 20
-520.0
 30
0.0
 10
-244.6143090348134
 20
-520.0
 30
0.0
 10
-244.9999999999999
 20
-520.0
 30
0.0
 10
-245.0000000000001
 20
-520.0
 30
0.0
 10
-244.9999999999999
 20
-520.0
 30
0.0
 10
-245.0
 20
-520.0
 30
0.0
 10
-245.0
 20
-520.0
 30
0.0
 10
-244.9999999999999
 20
-520.0
 30
0.0
 10
-244.9999999999999
 20
-520.0
 30
0.0
 10
-244.9999999999998
 20
-520.0
 30
0.0
 10
-244.9999999999998
 20
-520.0
 30
0.0
  0
LINE
  5
AB
330
A0
100
AcDbEntity
  8
0
  6
Continuous
 62
     7
370
    25
100
AcDbLine
 10
425.0
 20
0.0
 30
0.0
 11
424.9956409296
 21
0.0
 31
0.0
  0
VIEWPORT
  5
E6
330
A0
100
AcDbEntity
  8
0
100
AcDbViewport
 10
0.0
 20
0.0
 30
0.0
 40
205.6
 41
156.0
 68
     1
 69
     1
 12
0.0
 22
0.0
 13
0.0
 23
0.0
 14
10.0
 24
10.0
 15
10.0
 25
10.0
 16
0.0
 26
0.0
 36
1.0
 17
0.0
 27
0.0
 37
0.0
 42
50.0
 43
0.0
 44
0.0
 45
1276.9844357977
 50
0.0
 51
0.0
 72
   100
 90
   557152
  1

281
     0
 71
     1
 74
     0
110
0.0
120
0.0
130
0.0
111
1.0
121
0.0
131
0.0
112
0.0
122
1.0
132
0.0
 79
     0
146
0.0
  0
ENDBLK
  5
A3
330
A0
100
AcDbEntity
  8
0
100
AcDbBlockEnd
  0
BLOCK
  5
AE
330
AC
100
AcDbEntity
  8
0
100
AcDbBlockBegin
  2
*Paper_Space4
 70
     0
 10
0.0
 20
0.0
 30
0.0
  3
*Paper_Space4
  1

  0
SPLINE
  5
B0
330
AC
100
AcDbEntity
  8
0
  6
Continuous
 62
     7
370
    25
100
AcDbSpline
210
0.0
220
0.0
230
1.0
 70
    11
 71
     3
 72
    89
 73
    85
 74
     0
 42
0.000000001
 43
0.00000001
 40
0.0
 40
0.0
 40
0.0
 40
0.0
 40
0.0092912373824026
 40
0.013936856073604
 40
0.0185824747648051
 40
0.0929123738240255
 40
0.0929123738240255
 40
0.0973575937425829
 40
0.0973575937425829
 40
0.1164611368433874
 40
0.1164611368433874
 40
0.1246115803238423
 40
0.1246115803238423
 40
0.1278934392747961
 40
0.1278934392747961
 40
0.1452749158826837
 40
0.1609740912289248
 40
0.1736787968712915
 40
0.1889467196373979
 40
0.1976374579413418
 40
0.2092978130915985
 40
0.2238187289706709
 40
0.2296489065457991
 40
0.2500000000008616
 40
0.2703510934542002
 40
0.276181271029329
 40
0.2907021869084008
 40
0.3023625420586581
 40
0.3110532803626014
 40
0.3263212031287085
 40
0.3390259087710744
 40
0.3547250841173162
 40
0.3721065607252032
 40
0.3721065607252032
 40
0.3753884196761575
 40
0.3753884196761575
 40
0.3835388631566118
 40
0.3835388631566118
 40
0.402642406257417
 40
0.402642406257417
 40
0.4070876261759744
 40
0.4070876261759744
 40
0.4999999999999998
 40
0.5929123738240252
 40
0.5929123738240252
 40
0.5973575937425828
 40
0.5973575937425828
 40
0.6164611368433874
 40
0.6164611368433874
 40
0.6246115803238425
 40
0.6246115803238425
 40
0.6278934392747961
 40
0.6278934392747961
 40
0.6452749158826834
 40
0.660974091228925
 40
0.6736787968712914
 40
0.6889467196373982
 40
0.6976374579413416
 40
0.7092978130915988
 40
0.7238187289706707
 40
0.7296489065457994
 40
0.7500000000008614
 40
0.7703510934542006
 40
0.7761812710293289
 40
0.7907021869084012
 40
0.802362542058658
 40
0.8110532803626018
 40
0.8263212031287084
 40
0.839025908771075
 40
0.8547250841173162
 40
0.8721065607252039
 40
0.8721065607252039
 40
0.8753884196761577
 40
0.8753884196761577
 40
0.8835388631566126
 40
0.8835388631566126
 40
0.902642406257417
 40
0.902642406257417
 40
0.9070876261759744
 40
0.9070876261759744
 40
0.9814175252351949
 40
0.9860631439263962
 40
0.9907087626175974
 40
1.0
 40
1.0
 40
1.0
 40
1.0
 10
0.9314800619462539
 20
214.9999999999901
 30
0.0
 10
-8.45031337057429
 20
215.0000000000005
 30
0.0
 10
-21.12578342643584
 20
215.0000000000005
 30
0.0
 10
-38.02641016758446
 20
215.0000000000005
 30
0.0
 10
-114.0792305027532
 20
215.0000000000005
 30
0.0
 10
-185.906894152635
 20
215.0000000000002
 30
0.0
 10
-257.5522965645104
 20
215.0000000000004
 30
0.0
 10
-261.5951920117921
 20
215.0000000000004
 30
0.0
 10
-283.0126220927297
 20
215.0000000000004
 30
0.0
 10
-300.3871567263849
 20
215.0000000000003
 30
0.0
 10
-325.1744609066943
 20
215.0000000000006
 30
0.0
 10
-332.5872304533472
 20
215.0000000000005
 30
0.0
 10
-342.9848270399496
 20
215.0000000000005
 30
0.0
 10
-345.9634401219421
 20
214.9377571204443
 30
0.0
 10
-364.6669578311812
 20
214.158971516628
 30
0.0
 10
-394.1818514382075
 20
209.6317060663062
 30
0.0
 10
-432.5557374642888
 20
195.3177173248478
 30
0.0
 10
-466.3415299936539
 20
175.3112923314435
 30
0.0
 10
-491.5787133488914
 20
153.6634307035681
 30
0.0
 10
-512.5400191937376
 20
129.2356309731936
 30
0.0
 10
-529.8286189581424
 20
102.9915015449341
 30
0.0
 10
-541.464247892625
 20
76.86005898860367
 30
0.0
 10
-551.92064031701
 20
41.99693631105174
 30
0.0
 10
-557.3936323266134
 20
0.000000000000824
 30
0.0
 10
-551.92064031701
 20
-41.99693631105066
 30
0.0
 10
-541.4642478926254
 20
-76.86005898860253
 30
0.0
 10
-529.8286189581426
 20
-102.9915015449333
 30
0.0
 10
-512.5400191937381
 20
-129.2356309731922
 30
0.0
 10
-491.5787133488915
 20
-153.6634307035671
 30
0.0
 10
-466.3415299936548
 20
-175.3112923314422
 30
0.0
 10
-432.555737464289
 20
-195.3177173248469
 30
0.0
 10
-394.1818514382088
 20
-209.6317060663052
 30
0.0
 10
-364.6669578311819
 20
-214.1589715166271
 30
0.0
 10
-345.9634401219429
 20
-214.9377571204434
 30
0.0
 10
-342.98482703995
 20
-214.9999999999995
 30
0.0
 10
-332.5872304533477
 20
-214.9999999999995
 30
0.0
 10
-325.1744609066951
 20
-214.9999999999995
 30
0.0
 10
-300.3871567263865
 20
-214.9999999999997
 30
0.0
 10
-283.0126220927297
 20
-214.9999999999995
 30
0.0
 10
-261.5951920117917
 20
-214.9999999999995
 30
0.0
 10
-257.5522965645101
 20
-214.9999999999995
 30
0.0
 10
-169.0062674114863
 20
-214.9999999999996
 30
0.0
 10
-0.0000000000003175
 20
-214.9999999999994
 30
0.0
 10
169.0062674114845
 20
-214.9999999999994
 30
0.0
 10
257.5522965645092
 20
-214.9999999999995
 30
0.0
 10
261.5951920117911
 20
-214.9999999999995
 30
0.0
 10
283.0126220927289
 20
-214.9999999999995
 30
0.0
 10
300.3871567263853
 20
-214.9999999999998
 30
0.0
 10
325.1744609066936
 20
-214.9999999999995
 30
0.0
 10
332.5872304533469
 20
-214.9999999999996
 30
0.0
 10
342.9848270399494
 20
-214.9999999999996
 30
0.0
 10
345.9634401219417
 20
-214.9377571204435
 30
0.0
 10
364.6669578311804
 20
-214.1589715166273
 30
0.0
 10
394.181851438207
 20
-209.6317060663054
 30
0.0
 10
432.5557374642883
 20
-195.3177173248471
 30
0.0
 10
466.3415299936539
 20
-175.3112923314426
 30
0.0
 10
491.5787133488907
 20
-153.6634307035675
 30
0.0
 10
512.5400191937373
 20
-129.2356309731929
 30
0.0
 10
529.8286189581419
 20
-102.9915015449338
 30
0.0
 10
541.4642478926254
 20
-76.86005898860292
 30
0.0
 10
551.9206403170098
 20
-41.99693631105108
 30
0.0
 10
557.3936323266134
 20
0.0000000000004437
 30
0.0
 10
551.9206403170102
 20
41.99693631105158
 30
0.0
 10
541.4642478926252
 20
76.86005898860365
 30
0.0
 10
529.8286189581423
 20
102.991501544934
 30
0.0
 10
512.5400191937377
 20
129.2356309731934
 30
0.0
 10
491.5787133488914
 20
153.6634307035679
 30
0.0
 10
466.3415299936542
 20
175.3112923314434
 30
0.0
 10
432.5557374642892
 20
195.3177173248477
 30
0.0
 10
394.181851438208
 20
209.6317060663063
 30
0.0
 10
364.666957831181
 20
214.1589715166281
 30
0.0
 10
345.9634401219418
 20
214.9377571204443
 30
0.0
 10
342.9848270399494
 20
215.0000000000005
 30
0.0
 10
332.587230453347
 20
215.0000000000004
 30
0.0
 10
325.1744609066938
 20
215.0000000000004
 30
0.0
 10
300.3871567263854
 20
215.0000000000003
 30
0.0
 10
283.0126220927294
 20
215.0000000000003
 30
0.0
 10
261.595192011792
 20
215.0000000000004
 30
0.0
 10
257.5522965645104
 20
215.0000000000004
 30
0.0
 10
185.9068941526347
 20
215.0000000000003
 30
0.0
 10
114.079230502753
 20
215.0000000000002
 30
0.0
 10
38.02641016758432
 20
215.0000000000003
 30
0.0
 10
25.78318373616805
 20
214.7772761023408
 30
0.0
 10
10.3132734944668
 20
214.9999999999798
 30
0.0
 10
0.9314800619462539
 20
214.9999999999901
 30
0.0
  0
SPLINE
  5
B1
330
AC
100
AcDbEntity
  8
0
  6
Continuous
 62
     7
370
    25
100
AcDbSpline
210
0.0
220
0.0
230
1.0
 70
     8
 71
     3
 72
   118
 73
   114
 74
     0
 42
0.000000001
 43
0.00000001
 40
0.0
 40
0.0
 40
0.0
 40
0.0
 40
0.0002441406250001
 40
0.0002441406250001
 40
0.0004882812500002
 40
0.0009765625000003
 40
0.0019531250000004
 40
0.0039062500000003
 40
0.0078125000000004
 40
0.0156250000000003
 40
0.0156250000000003
 40
0.0312499999999999
 40
0.0312499999999999
 40
0.062499999999999
 40
0.062499999999999
 40
0.0937499999999982
 40
0.0937499999999982
 40
0.1093749999999978
 40
0.1093749999999978
 40
0.1171874999999976
 40
0.1171874999999976
 40
0.1249999999999974
 40
0.1249999999999974
 40
0.1562499999999966
 40
0.1562499999999966
 40
0.1874999999999957
 40
0.1874999999999957
 40
0.2187499999999948
 40
0.2187499999999948
 40
0.2265624999999947
 40
0.2265624999999947
 40
0.2343749999999946
 40
0.2343749999999946
 40
0.2499999999999945
 40
0.2499999999999945
 40
0.2812499999999944
 40
0.2812499999999944
 40
0.3124999999999944
 40
0.3124999999999944
 40
0.3281249999999943
 40
0.3281249999999943
 40
0.3359374999999942
 40
0.3359374999999942
 40
0.3437499999999941
 40
0.3437499999999941
 40
0.3749999999999942
 40
0.3749999999999942
 40
0.4062499999999943
 40
0.4062499999999943
 40
0.4374999999999943
 40
0.4374999999999943
 40
0.4453124999999944
 40
0.4453124999999944
 40
0.4531249999999946
 40
0.4531249999999946
 40
0.4687499999999947
 40
0.4687499999999947
 40
0.4999999999999951
 40
0.4999999999999951
 40
0.5312499999999954
 40
0.5312499999999954
 40
0.5468749999999957
 40
0.5468749999999957
 40
0.5546874999999958
 40
0.5546874999999958
 40
0.562499999999996
 40
0.562499999999996
 40
0.5937499999999964
 40
0.5937499999999964
 40
0.6249999999999969
 40
0.6249999999999969
 40
0.6562499999999974
 40
0.6562499999999974
 40
0.6640624999999976
 40
0.6640624999999976
 40
0.6718749999999978
 40
0.6718749999999978
 40
0.687499999999998
 40
0.687499999999998
 40
0.7187499999999986
 40
0.7187499999999986
 40
0.749999999999999
 40
0.749999999999999
 40
0.7656249999999993
 40
0.7656249999999993
 40
0.7812499999999996
 40
0.7812499999999996
 40
0.8125000000000003
 40
0.8125000000000003
 40
0.843750000000001
 40
0.843750000000001
 40
0.8593750000000012
 40
0.8593750000000012
 40
0.8671875000000013
 40
0.8671875000000013
 40
0.8750000000000014
 40
0.8750000000000014
 40
0.9062500000000013
 40
0.9062500000000013
 40
0.9375000000000011
 40
0.9375000000000011
 40
0.968750000000001
 40
0.968750000000001
 40
0.9843750000000008
 40
0.9843750000000008
 40
0.9921875000000007
 40
0.9921875000000007
 40
0.9960937500000003
 40
0.9980468750000002
 40
0.9990234375000002
 40
0.9995117187500002
 40
0.9995117187500002
 40
1.0
 40
1.0
 40
1.0
 40
1.0
 10
-334.6275521989447
 20
-205.362476520186
 30
0.0
 10
-334.6795027080946
 20
-205.3606041291946
 30
0.0
 10
-334.7326483563457
 20
-205.3580705655409
 30
0.0
 10
-334.8377344380763
 20
-205.3536091193054
 30
0.0
 10
-334.995352683162
 20
-205.3468614997315
 30
0.0
 10
-335.3630524735136
 20
-205.3307290667549
 30
0.0
 10
-336.0981478143466
 20
-205.2969135541167
 30
0.0
 10
-337.5671232586992
 20
-205.2230901908557
 30
0.0
 10
-340.5002264339795
 20
-205.0507533598991
 30
0.0
 10
-343.0060479226083
 20
-204.8609721258378
 30
0.0
 10
-348.0067620857513
 20
-204.4259114658431
 30
0.0
 10
-351.3260076221747
 20
-204.0619119905231
 30
0.0
 10
-361.2405334689322
 20
-202.7513622344255
 30
0.0
 10
-367.7927007712368
 20
-201.5867774116071
 30
0.0
 10
-380.7819043912176
 20
-198.6799953503957
 30
0.0
 10
-387.2189913928096
 20
-196.9380265095019
 30
0.0
 10
-396.7855361436845
 20
-193.8813270273598
 30
0.0
 10
-399.9594959376317
 20
-192.7882477621795
 30
0.0
 10
-404.6974881727406
 20
-191.0345779623178
 30
0.0
 10
-406.2747241982656
 20
-190.4302865264435
 30
0.0
 10
-409.406974825424
 20
-189.1889720254993
 30
0.0
 10
-410.9632196687002
 20
-188.5515402630992
 30
0.0
 10
-418.6953684067919
 20
-185.2810876274676
 30
0.0
 10
-424.7242275142254
 20
-182.3984942786915
 30
0.0
 10
-436.4726640879152
 20
-176.1089843379464
 30
0.0
 10
-442.1925047276584
 20
-172.702534947344
 30
0.0
 10
-453.3200594137936
 20
-165.3611897147236
 30
0.0
 10
-458.727668079811
 20
-161.4261004826609
 30
0.0
 10
-465.2841178846252
 20
-156.1638307227247
 30
0.0
 10
-466.5852254923649
 20
-155.0941571449432
 30
0.0
 10
-469.1667423887589
 20
-152.919816019602
 30
0.0
 10
-470.4467291794024
 20
-151.8154116835122
 30
0.0
 10
-474.2342301908178
 20
-148.4677682865196
 30
0.0
 10
-476.6964674764158
 20
-146.1841899641966
 30
0.0
 10
-483.8961128027137
 20
-139.1790172015175
 30
0.0
 10
-488.445475730756
 20
-134.3021570414349
 30
0.0
 10
-497.0529959651607
 20
-124.1430169358215
 30
0.0
 10
-501.1118597338646
 20
-118.861334126795
 30
0.0
 10
-506.8257775822412
 20
-110.6299644528571
 30
0.0
 10
-508.667836247073
 20
-107.8345475793626
 30
0.0
 10
-511.3345439670344
 20
-103.5619229418211
 30
0.0
 10
-512.2073723757674
 20
-102.1244558692045
 30
0.0
 10
-513.9203236617569
 20
-99.22254529883965
 30
0.0
 10
-514.7613774807788
 20
-97.7564107014866
 30
0.0
 10
-518.8723180587139
 20
-90.37676377841119
 30
0.0
 10
-521.836597618689
 20
-84.35984798808485
 30
0.0
 10
-527.1294805108049
 20
-72.10427269622575
 30
0.0
 10
-529.4580532723559
 20
-65.86560252445739
 30
0.0
 10
-533.4805696435295
 20
-53.16690946189547
 30
0.0
 10
-535.1746569834274
 20
-46.70693662144803
 30
0.0
 10
-536.8881898653335
 20
-38.4910496469376
 30
0.0
 10
-537.2106387295074
 20
-36.8408074004277
 30
0.0
 10
-537.8145605384179
 20
-33.52603291280901
 30
0.0
 10
-538.0962510133902
 20
-31.86009151103704
 30
0.0
 10
-538.8775313219802
 20
-26.84982691507958
 30
0.0
 10
-539.3107545514296
 20
-23.51100839422878
 30
0.0
 10
-540.3518227231544
 20
-13.49855994739456
 30
0.0
 10
-540.7020206660085
 20
-6.828922323777847
 30
0.0
 10
-540.7134111196532
 20
6.499676291916978
 30
0.0
 10
-540.3744406579716
 20
13.15863475324974
 30
0.0
 10
-539.3552772906719
 20
23.13915889667175
 30
0.0
 10
-538.930199362032
 20
26.46467764610455
 30
0.0
 10
-538.163115318113
 20
31.45094961211339
 30
0.0
 10
-537.885826974215
 20
33.11270566249989
 30
0.0
 10
-537.2876266517808
 20
36.43554178426047
 30
0.0
 10
-536.9664807477978
 20
38.09741026272737
 30
0.0
 10
-535.2608951135445
 20
46.35695307374026
 30
0.0
 10
-533.5714564146325
 20
52.84345764208861
 30
0.0
 10
-529.5594172892763
 20
65.58043200456382
 30
0.0
 10
-527.2366432546265
 20
71.83083716904154
 30
0.0
 10
-521.9607347626543
 20
84.09662914771532
 30
0.0
 10
-519.0076173634976
 20
90.11202233255605
 30
0.0
 10
-514.9167657910912
 20
97.48231823198923
 30
0.0
 10
-514.0773971554506
 20
98.95091449189641
 30
0.0
 10
-512.365145272387
 20
101.8617749353231
 30
0.0
 10
-511.4925558469748
 20
103.3036972782267
 30
0.0
 10
-508.8262389633147
 20
107.5896300972976
 30
0.0
 10
-506.9840061338566
 20
110.3938421670787
 30
0.0
 10
-501.2682912946406
 20
118.6513695870012
 30
0.0
 10
-497.2065351696539
 20
123.9501878367805
 30
0.0
 10
-488.5898572771592
 20
134.1429667935716
 30
0.0
 10
-484.0342597135297
 20
139.0363591843088
 30
0.0
 10
-476.8223987440339
 20
146.065616750359
 30
0.0
 10
-474.3556094808087
 20
148.3571010430333
 30
0.0
 10
-469.2955092183257
 20
152.8361680357033
 30
0.0
 10
-466.7200192372562
 20
155.0079159430269
 30
0.0
 10
-458.8695402967729
 20
161.3188743182768
 30
0.0
 10
-453.4672722078119
 20
165.2575586565869
 30
0.0
 10
-442.3361633540728
 20
172.6140972996867
 30
0.0
 10
-436.6074422746561
 20
176.032156175888
 30
0.0
 10
-427.7705205334898
 20
180.7699334173289
 30
0.0
 10
-424.784150437713
 20
182.2841598244369
 30
0.0
 10
-420.2428895775071
 20
184.4569195320956
 30
0.0
 10
-418.7188533855116
 20
185.1647457995152
 30
0.0
 10
-415.6501013649205
 20
186.5473524642142
 30
0.0
 10
-414.1041516161873
 20
187.2226523771614
 30
0.0
 10
-406.3362151897858
 20
190.5100863587389
 30
0.0
 10
-400.0482491427201
 20
192.8357258743597
 30
0.0
 10
-387.3320358055401
 20
196.9049614460394
 30
0.0
 10
-380.9038691794121
 20
198.648947365074
 30
0.0
 10
-367.9102592121233
 20
201.5641552502642
 30
0.0
 10
-361.3447631966516
 20
202.7351778137996
 30
0.0
 10
-351.392346423331
 20
204.0543250681244
 30
0.0
 10
-348.0574821551834
 20
204.4210125324254
 30
0.0
 10
-343.0286456075746
 20
204.8592458233895
 30
0.0
 10
-341.3489737932619
 20
204.9865641184759
 30
0.0
 10
-338.8295151752376
 20
205.1489180151135
 30
0.0
 10
-337.569426801526
 20
205.2229717981192
 30
0.0
 10
-336.098697488756
 20
205.2968879777154
 30
0.0
 10
-335.3631765092846
 20
205.3307235980652
 30
0.0
 10
-335.0479197581502
 20
205.3445551934039
 30
0.0
 10
-334.8377411545234
 20
205.3536274712972
 30
0.0
 10
-334.7312576866044
 20
205.3581472492162
 30
0.0
 10
-334.6275521989333
 20
205.3624765202182
 30
0.0
  0
SPLINE
  5
B2
330
AC
100
AcDbEntity
  8
0
  6
Continuous
 62
     7
370
    25
100
AcDbSpline
210
0.0
220
0.0
230
1.0
 70
     8
 71
     3
 72
    53
 73
    49
 74
     0
 42
0.000000001
 43
0.00000001
 40
0.0
 40
0.0
 40
0.0
 40
0.0
 40
0.0004882812499999
 40
0.0004882812499999
 40
0.0009765624999997
 40
0.0019531249999997
 40
0.0039062499999999
 40
0.0078125
 40
0.0156250000000003
 40
0.0156250000000003
 40
0.0312500000000006
 40
0.0312500000000006
 40
0.062500000000001
 40
0.062500000000001
 40
0.070312500000001
 40
0.070312500000001
 40
0.0781250000000011
 40
0.093750000000001
 40
0.1250000000000011
 40
0.1250000000000011
 40
0.2500000000000011
 40
0.2500000000000011
 40
0.3750000000000012
 40
0.3750000000000012
 40
0.5000000000000012
 40
0.5000000000000012
 40
0.6250000000000012
 40
0.6250000000000012
 40
0.7500000000000013
 40
0.7500000000000013
 40
0.8750000000000013
 40
0.8750000000000013
 40
0.9062500000000013
 40
0.9062500000000013
 40
0.9218750000000012
 40
0.929687500000001
 40
0.929687500000001
 40
0.9375000000000008
 40
0.9375000000000008
 40
0.9687500000000003
 40
0.9687500000000003
 40
0.9843750000000001
 40
0.9843750000000001
 40
0.9921875000000001
 40
0.9921875000000001
 40
0.99609375
 40
0.99609375
 40
1.0
 40
1.0
 40
1.0
 40
1.0
 10
334.6275521989328
 20
-205.3624765202171
 30
0.0
 10
334.5191019935874
 20
-205.3667220440636
 30
0.0
 10
334.4100309136212
 20
-205.3697440105752
 30
0.0
 10
334.1925078187114
 20
-205.3769823688409
 30
0.0
 10
333.8662214478106
 20
-205.3878107752303
 30
0.0
 10
333.1048744847371
 20
-205.4128732182291
 30
0.0
 10
331.5821321831945
 20
-205.4621833465253
 30
0.0
 10
328.5364541714516
 20
-205.5575488382273
 30
0.0
 10
325.9255417062188
 20
-205.6337243507378
 30
0.0
 10
320.703274350137
 20
-205.7786654705661
 30
0.0
 10
317.2211735914616
 20
-205.8654251836467
 30
0.0
 10
306.7730763436767
 20
-206.0958157312506
 30
0.0
 10
299.8053051163874
 20
-206.2098937552524
 30
0.0
 10
291.0923054189247
 20
-206.2983151102667
 30
0.0
 10
289.3494944145928
 20
-206.3125337700114
 30
0.0
 10
285.8639312847108
 20
-206.3418214796396
 30
0.0
 10
280.6355669754547
 20
-206.3852831438514
 30
0.0
 10
268.4359118953348
 20
-206.4834275644653
 30
0.0
 10
257.9788240481727
 20
-206.5620329365935
 30
0.0
 10
223.12131628012
 20
-206.8121552884788
 30
0.0
 10
195.2332902135752
 20
-206.974427892734
 30
0.0
 10
139.4545926337045
 20
-207.2310750387131
 30
0.0
 10
111.5647346836077
 20
-207.3254784667625
 30
0.0
 10
55.78384756711215
 20
-207.4510566547685
 30
0.0
 10
27.89281774446154
 20
-207.4822058521603
 30
0.0
 10
-27.89063101293628
 20
-207.4822075781417
 30
0.0
 10
-55.78179450665381
 20
-207.4510600662742
 30
0.0
 10
-111.5631750812914
 20
-207.32548352105
 30
0.0
 10
-139.4538376678426
 20
-207.2310776656297
 30
0.0
 10
-195.2316854388898
 20
-206.9744362442148
 30
0.0
 10
-223.1188835857741
 20
-206.8121701905519
 30
0.0
 10
-257.9759254058837
 20
-206.5620543742769
 30
0.0
 10
-264.9472355704329
 20
-206.5096520914439
 30
0.0
 10
-275.4040571747573
 20
-206.4273696625355
 30
0.0
 10
-280.6324320732559
 20
-206.3853087291778
 30
0.0
 10
-285.8607538806149
 20
-206.3418479865657
 30
0.0
 10
-289.346290045796
 20
-206.3125608860189
 30
0.0
 10
-291.0890846251449
 20
-206.2983444228306
 30
0.0
 10
-299.8021120303286
 20
-206.2099396346178
 30
0.0
 10
-306.7701780052926
 20
-206.0958706198906
 30
0.0
 10
-317.2190859348628
 20
-205.8654757273912
 30
0.0
 10
-320.7015188738124
 20
-205.7787116095634
 30
0.0
 10
-325.9243759421361
 20
-205.6337579967042
 30
0.0
 10
-327.6651960818087
 20
-205.5829691753054
 30
0.0
 10
-330.2762282672876
 20
-205.5030735085905
 30
0.0
 10
-331.1465393177134
 20
-205.4758227359743
 30
0.0
 10
-332.8870953641783
 20
-205.4200808100598
 30
0.0
 10
-333.7586452558602
 20
-205.3915459933247
 30
0.0
 10
-334.6275521989447
 20
-205.362476520186
 30
0.0
  0
SPLINE
  5
B3
330
AC
100
AcDbEntity
  8
0
  6
Continuous
 62
     7
370
    25
100
AcDbSpline
210
0.0
220
0.0
230
1.0
 70
     8
 71
     3
 72
   121
 73
   117
 74
     0
 42
0.000000001
 43
0.00000001
 40
0.0
 40
0.0
 40
0.0
 40
0.0
 40
0.00048828125
 40
0.00048828125
 40
0.0009765625
 40
0.0019531249999999
 40
0.0039062499999999
 40
0.0078124999999997
 40
0.0156249999999993
 40
0.0156249999999993
 40
0.0312499999999989
 40
0.0312499999999989
 40
0.0468749999999985
 40
0.0468749999999985
 40
0.0546874999999983
 40
0.0546874999999983
 40
0.0624999999999981
 40
0.0624999999999981
 40
0.0937499999999976
 40
0.0937499999999976
 40
0.124999999999997
 40
0.124999999999997
 40
0.1562499999999964
 40
0.1562499999999964
 40
0.171874999999996
 40
0.171874999999996
 40
0.179687499999996
 40
0.179687499999996
 40
0.1874999999999959
 40
0.1874999999999959
 40
0.2187499999999959
 40
0.2187499999999959
 40
0.2499999999999959
 40
0.2499999999999959
 40
0.2812499999999958
 40
0.2812499999999958
 40
0.2890624999999959
 40
0.2890624999999959
 40
0.2968749999999961
 40
0.2968749999999961
 40
0.3124999999999962
 40
0.3124999999999962
 40
0.3437499999999965
 40
0.3437499999999965
 40
0.3749999999999968
 40
0.3749999999999968
 40
0.390624999999997
 40
0.390624999999997
 40
0.3984374999999971
 40
0.3984374999999971
 40
0.4062499999999971
 40
0.4062499999999971
 40
0.4374999999999977
 40
0.4374999999999977
 40
0.4687499999999983
 40
0.4687499999999983
 40
0.4999999999999989
 40
0.4999999999999989
 40
0.5078124999999991
 40
0.5078124999999991
 40
0.5156249999999992
 40
0.5156249999999992
 40
0.5312499999999996
 40
0.5312499999999996
 40
0.5625
 40
0.5625
 40
0.5937500000000006
 40
0.5937500000000006
 40
0.6093750000000009
 40
0.6093750000000009
 40
0.617187500000001
 40
0.617187500000001
 40
0.6250000000000012
 40
0.6250000000000012
 40
0.6562500000000013
 40
0.6562500000000013
 40
0.6875000000000013
 40
0.6875000000000013
 40
0.7031250000000016
 40
0.7031250000000016
 40
0.7109375000000017
 40
0.7109375000000017
 40
0.7187500000000017
 40
0.7187500000000017
 40
0.7500000000000018
 40
0.7500000000000018
 40
0.7812500000000019
 40
0.7812500000000019
 40
0.8125000000000019
 40
0.8125000000000019
 40
0.8203125000000019
 40
0.8203125000000019
 40
0.8281250000000019
 40
0.8281250000000019
 40
0.8437500000000018
 40
0.8437500000000018
 40
0.8750000000000018
 40
0.8750000000000018
 40
0.9062500000000018
 40
0.9062500000000018
 40
0.9218750000000017
 40
0.9218750000000017
 40
0.9296875000000017
 40
0.9296875000000017
 40
0.9375000000000016
 40
0.9375000000000016
 40
0.9687500000000008
 40
0.9687500000000008
 40
0.9843750000000004
 40
0.9843750000000004
 40
0.9921875000000002
 40
0.9921875000000002
 40
0.9960937500000001
 40
0.9980468750000001
 40
0.9980468750000001
 40
1.0
 40
1.0
 40
1.0
 40
1.0
 10
334.6275521989446
 20
205.3624765201873
 30
0.0
 10
334.7323491033154
 20
205.3586994489182
 30
0.0
 10
334.8375073928195
 20
205.3536373919907
 30
0.0
 10
335.0474370775543
 20
205.3445761970261
 30
0.0
 10
335.3623058797536
 20
205.3307623844202
 30
0.0
 10
336.096819727944
 20
205.296976795113
 30
0.0
 10
337.5651277156026
 20
205.2231982613791
 30
0.0
 10
340.4988676387352
 20
205.0508579124826
 30
0.0
 10
343.0085799391076
 20
204.8608014243771
 30
0.0
 10
348.0214520179871
 20
204.4245339859447
 30
0.0
 10
351.3546348518963
 20
204.0588544555505
 30
0.0
 10
358.0034860336924
 20
203.1785135846055
 30
0.0
 10
361.3191534915238
 20
202.6638489363195
 30
0.0
 10
366.2793747238107
 20
201.7797520661644
 30
0.0
 10
367.930567465688
 20
201.4663609985459
 30
0.0
 10
371.2284883202009
 20
200.8020287447703
 30
0.0
 10
372.8765960197926
 20
200.4507561067584
 30
0.0
 10
381.0785455460181
 20
198.6062790807119
 30
0.0
 10
387.5305823464306
 20
196.8474164355856
 30
0.0
 10
400.2194468123624
 20
192.7747742476662
 30
0.0
 10
406.45610614464
 20
190.4605293576207
 30
0.0
 10
418.7116412692439
 20
185.2715491223972
 30
0.0
 10
424.7304622609131
 20
182.3966672525117
 30
0.0
 10
433.5901289912871
 20
177.6513829091731
 30
0.0
 10
436.51524597285
 20
175.9974404527651
 30
0.0
 10
440.8597220081348
 20
173.4057097114126
 30
0.0
 10
442.2974746353378
 20
172.5251912128012
 30
0.0
 10
445.1449663819603
 20
170.7356164059462
 30
0.0
 10
446.5558565154639
 20
169.8258760196471
 30
0.0
 10
453.5464414403223
 20
165.2029028105987
 30
0.0
 10
458.9348947967268
 20
161.2672660268927
 30
0.0
 10
469.3078877379754
 20
152.9266090706443
 30
0.0
 10
474.2924286771644
 20
148.5216109604656
 30
0.0
 10
483.8462296940873
 20
139.2292247407806
 30
0.0
 10
488.4142689864794
 20
134.3403640761868
 30
0.0
 10
493.8552584855267
 20
127.916841836578
 30
0.0
 10
494.9313497700192
 20
126.6147946096633
 30
0.0
 10
497.0493784404069
 20
123.9876187001293
 30
0.0
 10
498.0902622688587
 20
122.6638992990369
 30
0.0
 10
501.1590582299904
 20
118.6626487760171
 30
0.0
 10
503.1331531699691
 20
115.9550467422114
 30
0.0
 10
508.8424054496797
 20
107.7132218795417
 30
0.0
 10
512.3652104053016
 20
102.0603629434937
 30
0.0
 10
518.8384895376319
 20
90.43493989568971
 30
0.0
 10
521.7886766469551
 20
84.46221302041673
 30
0.0
 10
525.7704070610563
 20
75.25538425159282
 30
0.0
 10
527.0236349193096
 20
72.14510106365383
 30
0.0
 10
528.7898323663816
 20
67.41620661583819
 30
0.0
 10
529.3596175450632
 20
65.82932651496522
 30
0.0
 10
530.4607741153336
 20
62.63411324999614
 30
0.0
 10
530.9901998415176
 20
61.03135713379466
 30
0.0
 10
533.5285071943528
 20
53.00483113756665
 30
0.0
 10
535.2161733819155
 20
46.52974483409934
 30
0.0
 10
537.9295700919156
 20
33.47562490486629
 30
0.0
 10
538.9555664901909
 20
26.89663322376782
 30
0.0
 10
540.3408604626796
 20
13.63395950949713
 30
0.0
 10
540.7002767453035
 20
6.950296130687684
 30
0.0
 10
540.7095186762695
 20
-1.473381940692877
 30
0.0
 10
540.6892085712774
 20
-3.163623607779817
 30
0.0
 10
540.6043764602683
 20
-6.541444842820977
 30
0.0
 10
540.5399890390944
 20
-8.226106401857924
 30
0.0
 10
540.2821070622323
 20
-13.2675750167621
 30
0.0
 10
540.0239597137341
 20
-16.6118789714784
 30
0.0
 10
538.997847222972
 20
-26.59612100001939
 30
0.0
 10
537.9791716064655
 20
-33.18757518426779
 30
0.0
 10
535.2854901940195
 20
-46.24355279313252
 30
0.0
 10
533.6101888592556
 20
-52.70801882782138
 30
0.0
 10
530.5924134427753
 20
-62.30707706550477
 30
0.0
 10
529.5022157589143
 20
-65.49046351620557
 30
0.0
 10
527.7378689374782
 20
-70.24058155262824
 30
0.0
 10
527.1290183649977
 20
-71.81752052939117
 30
0.0
 10
525.8752071079465
 20
-74.94569167612804
 30
0.0
 10
525.2295406407984
 20
-76.49884489833413
 30
0.0
 10
521.9085760541591
 20
-84.21063016891675
 30
0.0
 10
518.9558676714577
 20
-90.20760283396113
 30
0.0
 10
512.480458248057
 20
-101.8693418699642
 30
0.0
 10
508.9580147269235
 20
-107.5342607456477
 30
0.0
 10
503.2538671566606
 20
-115.786540735365
 30
0.0
 10
501.2822348994779
 20
-118.4963515885194
 30
0.0
 10
498.2185965315678
 20
-122.4991606788739
 30
0.0
 10
497.1796758154551
 20
-123.8231069198837
 30
0.0
 10
495.0661211214937
 20
-126.4501773437668
 30
0.0
 10
493.9902311175248
 20
-127.7547288977535
 30
0.0
 10
488.5471194758435
 20
-134.1937866264956
 30
0.0
 10
483.9754435826041
 20
-139.0957775775687
 30
0.0
 10
474.4098770997783
 20
-148.4149473866178
 30
0.0
 10
469.4172119823351
 20
-152.8335868049808
 30
0.0
 10
459.0230653507503
 20
-161.2013915074866
 30
0.0
 10
453.6215911662167
 20
-165.1505448905233
 30
0.0
 10
446.6112498724021
 20
-169.7898911900014
 30
0.0
 10
445.1962337832357
 20
-170.7028795969213
 30
0.0
 10
442.3401277992149
 20
-172.4988846684818
 30
0.0
 10
440.9019532712675
 20
-173.3800299965767
 30
0.0
 10
436.5680324255249
 20
-175.9669002036873
 30
0.0
 10
433.6485103127976
 20
-177.6188707776311
 30
0.0
 10
424.8011130517035
 20
-182.3612728182477
 30
0.0
 10
418.7844512451015
 20
-185.2382727133286
 30
0.0
 10
406.5200807094404
 20
-190.4358641838155
 30
0.0
 10
400.2724363513598
 20
-192.7566158188466
 30
0.0
 10
390.7284760131296
 20
-195.8215850704473
 30
0.0
 10
387.5183689733462
 20
-196.7737948496757
 30
0.0
 10
382.6597584086207
 20
-198.0971469306518
 30
0.0
 10
381.0329730865722
 20
-198.5207532511791
 30
0.0
 10
377.7647930714605
 20
-199.3326477164248
 30
0.0
 10
376.1250491523817
 20
-199.7204905356795
 30
0.0
 10
367.9203092125676
 20
-201.5643045116584
 30
0.0
 10
361.3165242181914
 20
-202.7400146474793
 30
0.0
 10
351.3522280335324
 20
-204.0590911557716
 30
0.0
 10
348.0210091622586
 20
-204.424565484257
 30
0.0
 10
343.0095016279594
 20
-204.8607247312078
 30
0.0
 10
341.336551245697
 20
-204.987426262353
 30
0.0
 10
338.8234430945743
 20
-205.1492782559577
 30
0.0
 10
337.5659682547337
 20
-205.2231532612412
 30
0.0
 10
336.3071091394482
 20
-205.2864110559019
 30
0.0
 10
335.4675616877946
 20
-205.3262184386813
 30
0.0
 10
335.0459509500777
 20
-205.3450101191391
 30
0.0
 10
334.627552198933
 20
-205.3624765202171
 30
0.0
  0
SPLINE
  5
B4
330
AC
100
AcDbEntity
  8
0
  6
Continuous
 62
     7
370
    25
100
AcDbSpline
210
0.0
220
0.0
230
1.0
 70
     8
 71
     3
 72
    36
 73
    32
 74
     0
 42
0.000000001
 43
0.00000001
 40
0.0
 40
0.0
 40
0.0
 40
0.0
 40
0.0625000000000004
 40
0.0625000000000004
 40
0.0781250000000005
 40
0.0781250000000005
 40
0.0937500000000006
 40
0.0937500000000006
 40
0.1093750000000007
 40
0.1093750000000007
 40
0.1250000000000008
 40
0.1250000000000008
 40
0.1562500000000009
 40
0.1562500000000009
 40
0.1875000000000011
 40
0.2500000000000014
 40
0.2500000000000014
 40
0.5000000000000026
 40
0.5000000000000026
 40
0.7500000000000038
 40
0.7500000000000038
 40
0.812500000000004
 40
0.812500000000004
 40
0.8437500000000039
 40
0.8593750000000038
 40
0.8593750000000038
 40
0.8750000000000037
 40
0.8750000000000037
 40
0.9375000000000018
 40
0.9375000000000018
 40
1.0
 40
1.0
 40
1.0
 40
1.0
 10
0.7588983182207956
 20
207.48521311812
 30
0.0
 10
7.716546148749668
 20
207.4879268471432
 30
0.0
 10
14.67406801726382
 20
207.4117035809524
 30
0.0
 10
23.37100203564743
 20
207.3690216395535
 30
0.0
 10
25.11039088968597
 20
207.3633697217201
 30
0.0
 10
28.58918094581852
 20
207.3668833346236
 30
0.0
 10
30.32858147797377
 20
207.3779000272765
 30
0.0
 10
33.80737092082824
 20
207.4071434525402
 30
0.0
 10
35.54676007322918
 20
207.4244154087015
 30
0.0
 10
39.0255262221993
 20
207.4465290947421
 30
0.0
 10
40.76490626377779
 20
207.4511082352729
 30
0.0
 10
45.98304683764983
 20
207.4563536967302
 30
0.0
 10
49.46180363723685
 20
207.4495093127248
 30
0.0
 10
56.41930894544628
 20
207.4396346226688
 30
0.0
 10
66.85555128606073
 20
207.4233569756407
 30
0.0
 10
77.29174775349831
 20
207.4026700766726
 30
0.0
 10
112.0789714790268
 20
207.3238280357407
 30
0.0
 10
139.9076651236495
 20
207.2292716587652
 30
0.0
 10
195.5629633742637
 20
206.972583004296
 30
0.0
 10
223.3896005055016
 20
206.8104184512862
 30
0.0
 10
258.1717527752338
 20
206.560600617466
 30
0.0
 10
265.1281257956907
 20
206.508267107395
 30
0.0
 10
275.5626013850775
 20
206.4261022168266
 30
0.0
 10
280.7798181985776
 20
206.3841036474997
 30
0.0
 10
285.9970040010697
 20
206.3407107753604
 30
0.0
 10
289.4751210332274
 20
206.3114701579203
 30
0.0
 10
291.2142638432304
 20
206.2971968117254
 30
0.0
 10
299.9085166014613
 20
206.2083478956811
 30
0.0
 10
306.8587924948918
 20
206.0941760607158
 30
0.0
 10
320.7500996103723
 20
205.7873561432619
 30
0.0
 10
327.6910129162759
 20
205.5945399752639
 30
0.0
 10
334.6275521989447
 20
205.3624765201873
 30
0.0
  0
SPLINE
  5
B5
330
AC
100
AcDbEntity
  8
0
  6
Continuous
 62
     7
370
    25
100
AcDbSpline
210
0.0
220
0.0
230
1.0
 70
     8
 71
     3
 72
    34
 73
    30
 74
     0
 42
0.000000001
 43
0.00000001
 40
0.0
 40
0.0
 40
0.0
 40
0.0
 40
0.0009765624999998
 40
0.0009765624999998
 40
0.0019531249999996
 40
0.0039062499999997
 40
0.0078124999999994
 40
0.0156249999999993
 40
0.0312499999999989
 40
0.0312499999999989
 40
0.0624999999999988
 40
0.0624999999999988
 40
0.1249999999999985
 40
0.1249999999999985
 40
0.1406249999999986
 40
0.1406249999999986
 40
0.1562499999999988
 40
0.1874999999999986
 40
0.2499999999999988
 40
0.2499999999999988
 40
0.4999999999999992
 40
0.4999999999999992
 40
0.7499999999999997
 40
0.7499999999999997
 40
0.8749999999999999
 40
0.8749999999999999
 40
0.9374999999999999
 40
0.9374999999999999
 40
1.0
 40
1.0
 40
1.0
 40
1.0
 10
-334.6275521989331
 20
205.3624765202182
 30
0.0
 10
-334.5188564107118
 20
205.366731658431
 30
0.0
 10
-334.4094708460497
 20
205.369762697566
 30
0.0
 10
-334.1913880367083
 20
205.3770195806021
 30
0.0
 10
-333.864262465862
 20
205.3878756114042
 30
0.0
 10
-333.1009599710978
 20
205.4130013742137
 30
0.0
 10
-331.5743170094432
 20
205.4624336095263
 30
0.0
 10
-328.5208792741802
 20
205.5580253071368
 30
0.0
 10
-325.9033868853111
 20
205.6343642429003
 30
0.0
 10
-320.6680548780092
 20
205.779592398518
 30
0.0
 10
-317.1773711296283
 20
205.8664905227805
 30
0.0
 10
-306.7039112625261
 20
206.0971397319256
 30
0.0
 10
-299.719742491928
 20
206.2111851366784
 30
0.0
 10
-290.986952556382
 20
206.299274619567
 30
0.0
 10
-289.2402313209741
 20
206.3134584395635
 30
0.0
 10
-285.7468407508336
 20
206.3427983231741
 30
0.0
 10
-280.5067395473829
 20
206.3863361707342
 30
0.0
 10
-268.2797284612676
 20
206.4846439863579
 30
0.0
 10
-257.7992448828393
 20
206.5633654013111
 30
0.0
 10
-222.8638702710046
 20
206.8138239714746
 30
0.0
 10
-194.9142022341657
 20
206.9761970099441
 30
0.0
 10
-139.0118447202496
 20
207.2327640165703
 30
0.0
 10
-111.0589944983826
 20
207.3269930420988
 30
0.0
 10
-69.12765084560547
 20
207.42071983874
 30
0.0
 10
-55.15045658691882
 20
207.4439941096022
 30
0.0
 10
-34.18453514538594
 20
207.4671206924037
 30
0.0
 10
-27.19587288305136
 20
207.4728771049847
 30
0.0
 10
-13.21850337784986
 20
207.4803947093981
 30
0.0
 10
-6.229799795734848
 20
207.482487278388
 30
0.0
 10
0.7588983182207241
 20
207.4852131181207
 30
0.0
  0
SPLINE
  5
B6
330
AC
100
AcDbEntity
  8
0
  6
Continuous
 62
     7
370
    25
100
AcDbSpline
210
0.0
220
0.0
230
1.0
 70
    11
 71
     3
 72
    89
 73
    85
 74
     0
 42
0.000000001
 43
0.00000001
 40
0.0
 40
0.0
 40
0.0
 40
0.0
 40
0.0092912373824026
 40
0.013936856073604
 40
0.0185824747648051
 40
0.0929123738240255
 40
0.0929123738240255
 40
0.0973575937425829
 40
0.0973575937425829
 40
0.1164611368433874
 40
0.1164611368433874
 40
0.1246115803238423
 40
0.1246115803238423
 40
0.1278934392747961
 40
0.1278934392747961
 40
0.1452749158826837
 40
0.1609740912289248
 40
0.1736787968712915
 40
0.1889467196373979
 40
0.1976374579413418
 40
0.2092978130915985
 40
0.2238187289706709
 40
0.2296489065457991
 40
0.2500000000008616
 40
0.2703510934542002
 40
0.276181271029329
 40
0.2907021869084008
 40
0.3023625420586581
 40
0.3110532803626014
 40
0.3263212031287085
 40
0.3390259087710744
 40
0.3547250841173162
 40
0.3721065607252032
 40
0.3721065607252032
 40
0.3753884196761575
 40
0.3753884196761575
 40
0.3835388631566118
 40
0.3835388631566118
 40
0.402642406257417
 40
0.402642406257417
 40
0.4070876261759744
 40
0.4070876261759744
 40
0.4999999999999998
 40
0.5929123738240252
 40
0.5929123738240252
 40
0.5973575937425828
 40
0.5973575937425828
 40
0.6164611368433874
 40
0.6164611368433874
 40
0.6246115803238425
 40
0.6246115803238425
 40
0.6278934392747961
 40
0.6278934392747961
 40
0.6452749158826834
 40
0.660974091228925
 40
0.6736787968712914
 40
0.6889467196373982
 40
0.6976374579413416
 40
0.7092978130915988
 40
0.7238187289706707
 40
0.7296489065457994
 40
0.7500000000008614
 40
0.7703510934542006
 40
0.7761812710293289
 40
0.7907021869084012
 40
0.802362542058658
 40
0.8110532803626018
 40
0.8263212031287084
 40
0.839025908771075
 40
0.8547250841173162
 40
0.8721065607252039
 40
0.8721065607252039
 40
0.8753884196761577
 40
0.8753884196761577
 40
0.8835388631566126
 40
0.8835388631566126
 40
0.902642406257417
 40
0.902642406257417
 40
0.9070876261759744
 40
0.9070876261759744
 40
0.9814175252351949
 40
0.9860631439263962
 40
0.9907087626175974
 40
1.0
 40
1.0
 40
1.0
 40
1.0
 10
0.9145228282635455
 20
244.9999999999887
 30
0.0
 10
-9.041702080883864
 20
245.0000000000004
 30
0.0
 10
-22.60425520220979
 20
245.0000000000005
 30
0.0
 10
-40.68765936397756
 20
245.0000000000005
 30
0.0
 10
-122.0629780919324
 20
245.0000000000006
 30
0.0
 10
-198.9174457794455
 20
245.0000000000005
 30
0.0
 10
-275.5768968157792
 20
245.0000000000004
 30
0.0
 10
-279.9027312050425
 20
245.0000000000004
 30
0.0
 10
-302.8190437295375
 20
245.0000000000003
 30
0.0
 10
-321.4095218647692
 20
245.0000000000001
 30
0.0
 10
-347.9315465469572
 20
245.0000000000008
 30
0.0
 10
-355.8245880077242
 20
244.6143090348139
 30
0.0
 10
-366.8051746538266
 20
243.5484346488354
 30
0.0
 10
-369.9468795812323
 20
243.181783574579
 30
0.0
 10
-389.6510431050091
 20
240.4959836230627
 30
0.0
 10
-420.5359307558969
 20
233.0066095239377
 30
0.0
 10
-460.3643974913449
 20
214.7080822653271
 30
0.0
 10
-495.2204484716091
 20
190.98754302667
 30
0.0
 10
-520.9419420288204
 20
166.4165818250597
 30
0.0
 10
-542.1981400596858
 20
139.364136488221
 30
0.0
 10
-559.6452825062752
 20
110.729483532856
 30
0.0
 10
-571.3716036474651
 20
82.47199614046765
 30
0.0
 10
-581.9062333602101
 20
44.93605973911613
 30
0.0
 10
-587.4048310695582
 20
0.0000000000002463
 30
0.0
 10
-581.9062333602102
 20
-44.93605973911618
 30
0.0
 10
-571.3716036474652
 20
-82.47199614046775
 30
0.0
 10
-559.6452825062746
 20
-110.7294835328567
 30
0.0
 10
-542.198140059685
 20
-139.3641364882211
 30
0.0
 10
-520.9419420288197
 20
-166.4165818250599
 30
0.0
 10
-495.2204484716084
 20
-190.9875430266697
 30
0.0
 10
-460.3643974913436
 20
-214.7080822653272
 30
0.0
 10
-420.5359307558959
 20
-233.006609523937
 30
0.0
 10
-389.6510431050078
 20
-240.4959836230618
 30
0.0
 10
-369.9468795812314
 20
-243.1817835745782
 30
0.0
 10
-366.8051746538252
 20
-243.5484346488346
 30
0.0
 10
-355.8245880077228
 20
-244.6143090348129
 30
0.0
 10
-347.9315465469564
 20
-244.9999999999995
 30
0.0
 10
-321.4095218647684
 20
-244.9999999999997
 30
0.0
 10
-302.8190437295361
 20
-244.9999999999995
 30
0.0
 10
-279.9027312050407
 20
-244.9999999999995
 30
0.0
 10
-275.5768968157773
 20
-244.9999999999995
 30
0.0
 10
-180.8340416176763
 20
-244.9999999999994
 30
0.0
 10
0.0000000000007164
 20
-244.9999999999994
 30
0.0
 10
180.8340416176768
 20
-244.9999999999992
 30
0.0
 10
275.5768968157785
 20
-244.9999999999996
 30
0.0
 10
279.9027312050422
 20
-244.9999999999996
 30
0.0
 10
302.8190437295372
 20
-244.9999999999997
 30
0.0
 10
321.4095218647685
 20
-244.9999999999994
 30
0.0
 10
347.9315465469577
 20
-244.9999999999998
 30
0.0
 10
355.8245880077245
 20
-244.614309034813
 30
0.0
 10
366.8051746538268
 20
-243.5484346488346
 30
0.0
 10
369.9468795812324
 20
-243.1817835745782
 30
0.0
 10
389.6510431050084
 20
-240.4959836230619
 30
0.0
 10
420.5359307558965
 20
-233.0066095239371
 30
0.0
 10
460.3643974913442
 20
-214.7080822653268
 30
0.0
 10
495.2204484716092
 20
-190.9875430266694
 30
0.0
 10
520.94194202882
 20
-166.4165818250591
 30
0.0
 10
542.1981400596853
 20
-139.3641364882205
 30
0.0
 10
559.6452825062745
 20
-110.729483532856
 30
0.0
 10
571.3716036474652
 20
-82.4719961404671
 30
0.0
 10
581.9062333602102
 20
-44.93605973911578
 30
0.0
 10
587.4048310695582
 20
0.0000000000005135
 30
0.0
 10
581.9062333602105
 20
44.9360597391164
 30
0.0
 10
571.3716036474653
 20
82.47199614046804
 30
0.0
 10
559.645282506275
 20
110.7294835328564
 30
0.0
 10
542.1981400596858
 20
139.3641364882211
 30
0.0
 10
520.9419420288202
 20
166.4165818250596
 30
0.0
 10
495.2204484716088
 20
190.9875430266701
 30
0.0
 10
460.3643974913448
 20
214.7080822653273
 30
0.0
 10
420.535930755897
 20
233.0066095239377
 30
0.0
 10
389.6510431050085
 20
240.4959836230626
 30
0.0
 10
369.9468795812321
 20
243.181783574579
 30
0.0
 10
366.8051746538264
 20
243.5484346488354
 30
0.0
 10
355.824588007724
 20
244.6143090348137
 30
0.0
 10
347.9315465469572
 20
245.0000000000004
 30
0.0
 10
321.4095218647688
 20
245.0000000000005
 30
0.0
 10
302.8190437295374
 20
245.0000000000004
 30
0.0
 10
279.902731205043
 20
245.0000000000004
 30
0.0
 10
275.5768968157795
 20
245.0000000000004
 30
0.0
 10
198.9174457794452
 20
245.0
 30
0.0
 10
122.0629780919323
 20
245.0000000000002
 30
0.0
 10
40.68765936397742
 20
245.0000000000004
 30
0.0
 10
27.1768693435285
 20
244.746198349179
 30
0.0
 10
10.87074773741096
 20
244.9999999999769
 30
0.0
 10
0.9145228282635455
 20
244.9999999999887
 30
0.0
  0
SPLINE
  5
B7
330
AC
100
AcDbEntity
  8
0
  6
Continuous
 62
     7
370
    25
100
AcDbSpline
210
0.0
220
0.0
230
1.0
 70
    11
 71
     3
 72
    89
 73
    85
 74
     0
 42
0.000000001
 43
0.00000001
 40
0.0
 40
0.0
 40
0.0
 40
0.0
 40
0.0092912373824026
 40
0.013936856073604
 40
0.0185824747648051
 40
0.0929123738240255
 40
0.0929123738240255
 40
0.0973575937425829
 40
0.0973575937425829
 40
0.1164611368433874
 40
0.1164611368433874
 40
0.1246115803238423
 40
0.1246115803238423
 40
0.1278934392747961
 40
0.1278934392747961
 40
0.1452749158826837
 40
0.1609740912289248
 40
0.1736787968712915
 40
0.1889467196373979
 40
0.1976374579413418
 40
0.2092978130915985
 40
0.2238187289706709
 40
0.2296489065457991
 40
0.2500000000008616
 40
0.2703510934542002
 40
0.276181271029329
 40
0.2907021869084008
 40
0.3023625420586581
 40
0.3110532803626014
 40
0.3263212031287085
 40
0.3390259087710744
 40
0.3547250841173162
 40
0.3721065607252032
 40
0.3721065607252032
 40
0.3753884196761575
 40
0.3753884196761575
 40
0.3835388631566118
 40
0.3835388631566118
 40
0.402642406257417
 40
0.402642406257417
 40
0.4070876261759744
 40
0.4070876261759744
 40
0.4999999999999998
 40
0.5929123738240252
 40
0.5929123738240252
 40
0.5973575937425828
 40
0.5973575937425828
 40
0.6164611368433874
 40
0.6164611368433874
 40
0.6246115803238425
 40
0.6246115803238425
 40
0.6278934392747961
 40
0.6278934392747961
 40
0.6452749158826834
 40
0.660974091228925
 40
0.6736787968712914
 40
0.6889467196373982
 40
0.6976374579413416
 40
0.7092978130915988
 40
0.7238187289706707
 40
0.7296489065457994
 40
0.7500000000008614
 40
0.7703510934542006
 40
0.7761812710293289
 40
0.7907021869084012
 40
0.802362542058658
 40
0.8110532803626018
 40
0.8263212031287084
 40
0.839025908771075
 40
0.8547250841173162
 40
0.8721065607252039
 40
0.8721065607252039
 40
0.8753884196761577
 40
0.8753884196761577
 40
0.8835388631566126
 40
0.8835388631566126
 40
0.902642406257417
 40
0.902642406257417
 40
0.9070876261759744
 40
0.9070876261759744
 40
0.9814175252351949
 40
0.9860631439263962
 40
0.9907087626175974
 40
1.0
 40
1.0
 40
1.0
 40
1.0
 10
0.9986041738154188
 20
424.99999999998
 30
0.0
 10
-13.33333333333338
 20
425.0000000000005
 30
0.0
 10
-33.33333333333359
 20
425.0000000000005
 30
0.0
 10
-60.00000000000035
 20
425.0000000000005
 30
0.0
 10
-180.0000000000006
 20
425.0000000000003
 30
0.0
 10
-293.3333333333345
 20
424.9999999999989
 30
0.0
 10
-406.3790856346384
 20
425.0000000000006
 30
0.0
 10
-412.7438131894287
 20
424.8561805147671
 30
0.0
 10
-446.3612600062473
 20
423.3429199510207
 30
0.0
 10
-473.2842284811327
 20
419.4958006171232
 30
0.0
 10
-510.6847639037812
 20
410.4950837233955
 30
0.0
 10
-521.7400992848186
 20
407.3559712817504
 30
0.0
 10
-537.031622901625
 20
402.3372870168551
 30
0.0
 10
-541.3965089715163
 20
400.8253672235912
 30
0.0
 10
-568.7130856997586
 20
390.8606250323385
 30
0.0
 10
-611.0397994137318
 20
371.1316464450969
 30
0.0
 10
-664.8112131361974
 20
334.2355470356208
 30
0.0
 10
-710.6945376964641
 20
292.0581068523072
 30
0.0
 10
-743.8293671786072
 20
251.5287510798322
 30
0.0
 10
-770.9554763522508
 20
208.9159367753499
 30
0.0
 10
-793.0164686813038
 20
164.9796029018211
 30
0.0
 10
-807.8274177207858
 20
122.3485374766985
 30
0.0
 10
-821.1216964896362
 20
66.26489767396276
 30
0.0
 10
-828.014663310072
 20
0.0000000000012186
 30
0.0
 10
-821.1216964896366
 20
-66.26489767396124
 30
0.0
 10
-807.8274177207859
 20
-122.3485374766969
 30
0.0
 10
-793.0164686813039
 20
-164.9796029018201
 30
0.0
 10
-770.9554763522516
 20
-208.9159367753481
 30
0.0
 10
-743.8293671786078
 20
-251.5287510798311
 30
0.0
 10
-710.6945376964652
 20
-292.0581068523051
 30
0.0
 10
-664.8112131361979
 20
-334.2355470356194
 30
0.0
 10
-611.039799413733
 20
-371.1316464450953
 30
0.0
 10
-568.7130856997602
 20
-390.8606250323371
 30
0.0
 10
-541.396508971518
 20
-400.8253672235898
 30
0.0
 10
-537.0316229016261
 20
-402.337287016854
 30
0.0
 10
-521.74009928482
 20
-407.355971281749
 30
0.0
 10
-510.6847639037827
 20
-410.4950837233937
 30
0.0
 10
-473.2842284811349
 20
-419.4958006171221
 30
0.0
 10
-446.3612600062478
 20
-423.3429199510201
 30
0.0
 10
-412.7438131894284
 20
-424.8561805147661
 30
0.0
 10
-406.3790856346382
 20
-424.9999999999996
 30
0.0
 10
-266.666666666667
 20
-425.0000000000003
 30
0.0
 10
-0.0000000000001023
 20
-424.9999999999995
 30
0.0
 10
266.666666666667
 20
-425.0000000000007
 30
0.0
 10
406.3790856346388
 20
-424.9999999999996
 30
0.0
 10
412.7438131894295
 20
-424.8561805147662
 30
0.0
 10
446.3612600062489
 20
-423.3429199510201
 30
0.0
 10
473.284228481135
 20
-419.4958006171231
 30
0.0
 10
510.6847639037827
 20
-410.4950837233937
 30
0.0
 10
521.7400992848205
 20
-407.3559712817486
 30
0.0
 10
537.0316229016271
 20
-402.3372870168537
 30
0.0
 10
541.396508971518
 20
-400.8253672235899
 30
0.0
 10
568.7130856997596
 20
-390.8606250323373
 30
0.0
 10
611.0397994137327
 20
-371.1316464450955
 30
0.0
 10
664.8112131361986
 20
-334.2355470356194
 30
0.0
 10
710.6945376964653
 20
-292.0581068523052
 30
0.0
 10
743.8293671786081
 20
-251.528751079831
 30
0.0
 10
770.9554763522518
 20
-208.9159367753482
 30
0.0
 10
793.0164686813042
 20
-164.97960290182
 30
0.0
 10
807.8274177207862
 20
-122.3485374766968
 30
0.0
 10
821.1216964896367
 20
-66.26489767396137
 30
0.0
 10
828.0146633100721
 20
0.0000000000009671
 30
0.0
 10
821.1216964896369
 20
66.26489767396268
 30
0.0
 10
807.8274177207863
 20
122.3485374766987
 30
0.0
 10
793.0164686813046
 20
164.9796029018212
 30
0.0
 10
770.9554763522514
 20
208.9159367753499
 30
0.0
 10
743.8293671786072
 20
251.5287510798325
 30
0.0
 10
710.6945376964642
 20
292.058106852307
 30
0.0
 10
664.811213136198
 20
334.2355470356208
 30
0.0
 10
611.0397994137315
 20
371.1316464450969
 30
0.0
 10
568.7130856997587
 20
390.8606250323388
 30
0.0
 10
541.3965089715161
 20
400.8253672235913
 30
0.0
 10
537.0316229016249
 20
402.3372870168552
 30
0.0
 10
521.7400992848186
 20
407.3559712817502
 30
0.0
 10
510.68476390378
 20
410.4950837233948
 30
0.0
 10
473.2842284811349
 20
419.495800617125
 30
0.0
 10
446.3612600062472
 20
423.342919951021
 30
0.0
 10
412.7438131894289
 20
424.8561805147669
 30
0.0
 10
406.3790856346386
 20
425.0000000000003
 30
0.0
 10
293.3333333333326
 20
425.0000000000003
 30
0.0
 10
179.9999999999998
 20
425.0000000000006
 30
0.0
 10
59.99999999999995
 20
425.0000000000005
 30
0.0
 10
38.32635420241211
 20
424.5597318302081
 30
0.0
 10
15.33054168096422
 20
424.9999999999598
 30
0.0
 10
0.9986041738154188
 20
424.99999999998
 30
0.0
  0
SPLINE
  5
B8
330
AC
100
AcDbEntity
  8
0
  6
Continuous
 62
     7
370
    25
100
AcDbSpline
210
0.0
220
0.0
230
1.0
 70
     8
 71
     3
 72
    35
 73
    31
 74
     0
 42
0.000000001
 43
0.00000001
 40
0.0
 40
0.0
 40
0.0
 40
0.0
 40
0.1249999999999999
 40
0.1249999999999999
 40
0.2499999999999999
 40
0.2499999999999999
 40
0.3749999999999998
 40
0.3749999999999998
 40
0.4999999999999998
 40
0.4999999999999998
 40
0.6249999999999998
 40
0.6249999999999998
 40
0.7499999999999997
 40
0.7499999999999997
 40
0.8749999999999996
 40
0.8749999999999996
 40
0.9374999999999996
 40
0.9374999999999996
 40
0.9687499999999994
 40
0.9687499999999994
 40
0.9843749999999994
 40
0.9921874999999993
 40
0.9960937499999992
 40
0.9980468749999992
 40
0.9990234374999992
 40
0.9995117187499993
 40
0.9997558593749996
 40
0.9998779296874998
 40
0.9998779296874998
 40
1.0
 40
1.0
 40
1.0
 40
1.0
 10
-289.5226543697027
 20
-169.6311683488244
 30
0.0
 10
-265.4004926466558
 20
-170.313960828985
 30
0.0
 10
-241.2777937207055
 20
-170.9898565849717
 30
0.0
 10
-193.0303796507461
 20
-172.2691648915681
 30
0.0
 10
-168.9055543049906
 20
-172.8721587390977
 30
0.0
 10
-120.6512682546261
 20
-173.918057328014
 30
0.0
 10
-96.52269898508634
 20
-174.3601478604045
 30
0.0
 10
-48.26242563160795
 20
-174.980679092978
 30
0.0
 10
-24.13053734181771
 20
-175.1581393619626
 30
0.0
 10
24.13794029590627
 20
-175.1581030187322
 30
0.0
 10
48.26936854348782
 20
-174.9806116255367
 30
0.0
 10
96.52803974492952
 20
-174.3600560919691
 30
0.0
 10
120.6553002040922
 20
-173.9179757231119
 30
0.0
 10
168.9072702472245
 20
-172.8721147520997
 30
0.0
 10
193.0320741850757
 20
-172.2691211750954
 30
0.0
 10
229.2170384139158
 20
-171.3096539321817
 30
0.0
 10
241.2783985767349
 20
-170.9805968191499
 30
0.0
 10
259.3701651764918
 20
-170.4791777692526
 30
0.0
 10
265.4007082024066
 20
-170.310726079931
 30
0.0
 10
274.4464720399129
 20
-170.0567335199996
 30
0.0
 10
278.969341249486
 20
-169.9294072814192
 30
0.0
 10
284.2460033664578
 20
-169.7804132144345
 30
0.0
 10
286.8843301964893
 20
-169.7058199501304
 30
0.0
 10
288.2034926073925
 20
-169.6685011719778
 30
0.0
 10
288.8630735683683
 20
-169.6498364825395
 30
0.0
 10
289.1928639885473
 20
-169.6405028420716
 30
0.0
 10
289.3577591836641
 20
-169.6358357015609
 30
0.0
 10
289.4284285498015
 20
-169.6338354302414
 30
0.0
 10
289.4755414598504
 20
-169.6325019009087
 30
0.0
 10
289.4990674108079
 20
-169.6305642955747
 30
0.0
 10
289.52265436971
 20
-169.631168348891
 30
0.0
  0
SPLINE
  5
B9
330
AC
100
AcDbEntity
  8
0
  6
Continuous
 62
     7
370
    25
100
AcDbSpline
210
0.0
220
0.0
230
1.0
 70
     8
 71
     3
 72
   132
 73
   128
 74
     0
 42
0.000000001
 43
0.00000001
 40
0.0
 40
0.0
 40
0.0
 40
0.0
 40
0.0019531250000001
 40
0.0019531250000001
 40
0.0039062500000001
 40
0.0078125000000002
 40
0.0078125000000002
 40
0.0156250000000005
 40
0.0156250000000005
 40
0.0312500000000009
 40
0.0312500000000009
 40
0.0625000000000018
 40
0.0625000000000018
 40
0.0664062500000018
 40
0.0664062500000018
 40
0.0703125000000018
 40
0.0703125000000018
 40
0.0781250000000016
 40
0.0781250000000016
 40
0.0937500000000012
 40
0.0937500000000012
 40
0.1250000000000004
 40
0.1250000000000004
 40
0.1328125000000002
 40
0.1328125000000002
 40
0.140625
 40
0.140625
 40
0.1562499999999999
 40
0.1562499999999999
 40
0.1874999999999999
 40
0.1874999999999999
 40
0.21875
 40
0.21875
 40
0.2265624999999999
 40
0.2265624999999999
 40
0.2343749999999998
 40
0.2343749999999998
 40
0.2499999999999996
 40
0.2499999999999996
 40
0.3124999999999987
 40
0.3124999999999987
 40
0.3203124999999987
 40
0.3203124999999987
 40
0.3281249999999986
 40
0.3281249999999986
 40
0.3437499999999986
 40
0.3437499999999986
 40
0.3749999999999988
 40
0.3749999999999988
 40
0.3906249999999989
 40
0.3906249999999989
 40
0.398437499999999
 40
0.398437499999999
 40
0.4062499999999991
 40
0.4062499999999991
 40
0.4374999999999993
 40
0.4374999999999993
 40
0.4687499999999996
 40
0.4687499999999996
 40
0.4843749999999997
 40
0.4843749999999997
 40
0.4921874999999998
 40
0.4921874999999998
 40
0.4999999999999998
 40
0.4999999999999998
 40
0.5312500000000001
 40
0.5312500000000001
 40
0.5625000000000002
 40
0.5625000000000002
 40
0.5781250000000004
 40
0.5781250000000004
 40
0.5859375000000004
 40
0.5859375000000004
 40
0.5937500000000004
 40
0.5937500000000004
 40
0.6250000000000003
 40
0.6250000000000003
 40
0.6562500000000001
 40
0.6562500000000001
 40
0.6718750000000001
 40
0.6718750000000001
 40
0.6796875000000001
 40
0.6796875000000001
 40
0.6875000000000001
 40
0.6875000000000001
 40
0.7500000000000002
 40
0.7500000000000002
 40
0.7656250000000004
 40
0.7656250000000004
 40
0.7734375000000004
 40
0.7734375000000004
 40
0.7812500000000004
 40
0.7812500000000004
 40
0.8125000000000008
 40
0.8125000000000008
 40
0.8437500000000011
 40
0.8437500000000011
 40
0.8750000000000013
 40
0.8750000000000013
 40
0.8828125000000014
 40
0.8828125000000014
 40
0.8906250000000017
 40
0.8906250000000017
 40
0.9062500000000017
 40
0.9062500000000017
 40
0.9218750000000017
 40
0.9218750000000017
 40
0.9296875000000017
 40
0.9296875000000017
 40
0.9335937500000017
 40
0.9335937500000017
 40
0.9375000000000016
 40
0.9375000000000016
 40
0.9687500000000004
 40
0.9687500000000004
 40
0.984375
 40
0.984375
 40
0.9921874999999998
 40
0.9921874999999998
 40
0.9960937499999997
 40
0.9980468749999997
 40
0.9990234374999998
 40
0.9995117187499998
 40
0.9997558593749998
 40
0.9998779296874999
 40
0.9998779296874999
 40
1.0
 40
1.0
 40
1.0
 40
1.0
 10
289.5226543697102
 20
-169.631168348891
 30
0.0
 10
289.9252207941749
 20
-169.6422409478531
 30
0.0
 10
290.3312449469507
 20
-169.6529453920549
 30
0.0
 10
291.1397144106008
 20
-169.6733514710155
 30
0.0
 10
292.3522978679027
 20
-169.7026005468429
 30
0.0
 10
293.5645247992033
 20
-169.7278672793232
 30
0.0
 10
295.9885174002845
 20
-169.7733350111871
 30
0.0
 10
297.6038977901424
 20
-169.7968977306994
 30
0.0
 10
302.4482950302253
 20
-169.849093456313
 30
0.0
 10
305.6755788049527
 20
-169.8594516821547
 30
0.0
 10
315.3511333543963
 20
-169.828982184997
 30
0.0
 10
321.7931520902142
 20
-169.7272984876114
 30
0.0
 10
329.032179426135
 20
-169.5445570563836
 30
0.0
 10
329.836400355309
 20
-169.5232885787831
 30
0.0
 10
331.4446138226385
 20
-169.4788810689328
 30
0.0
 10
332.2486662279836
 20
-169.4570983516103
 30
0.0
 10
334.6599803737047
 20
-169.3776094308812
 30
0.0
 10
336.2663432679424
 20
-169.3044993922446
 30
0.0
 10
341.0818701868364
 20
-169.0244798269636
 30
0.0
 10
344.2874732915413
 20
-168.7568813971965
 30
0.0
 10
353.8898054365147
 20
-167.7080821023187
 30
0.0
 10
360.2721270234366
 20
-166.6822051937108
 30
0.0
 10
368.2245578828579
 20
-164.9708280602721
 30
0.0
 10
369.8157949895686
 20
-164.6065210317778
 30
0.0
 10
372.9794151739632
 20
-163.8382647065657
 30
0.0
 10
374.5530865706519
 20
-163.4340966087643
 30
0.0
 10
379.249846558448
 20
-162.1618909008979
 30
0.0
 10
382.348703980203
 20
-161.2342095830642
 30
0.0
 10
391.5486098009973
 20
-158.2133297990166
 30
0.0
 10
397.5530153524673
 20
-155.8823339990141
 30
0.0
 10
409.3011899962916
 20
-150.5795841041422
 30
0.0
 10
415.0450436541354
 20
-147.6080415173422
 30
0.0
 10
422.0559816255385
 20
-143.478974933794
 30
0.0
 10
423.4515903281986
 20
-142.6311609186579
 30
0.0
 10
426.2159880021578
 20
-140.8994042760392
 30
0.0
 10
427.5833844924902
 20
-140.0164191162618
 30
0.0
 10
431.6415697132949
 20
-137.3166161576094
 30
0.0
 10
434.2883569249238
 20
-135.4489530326446
 30
0.0
 10
447.2324066346152
 20
-125.7757857082611
 30
0.0
 10
456.6690088511992
 20
-116.9763289470757
 30
0.0
 10
466.1747571468949
 20
-105.7945260639996
 30
0.0
 10
467.2167143272762
 20
-104.5328307700247
 30
0.0
 10
469.2574806468344
 20
-101.988775317273
 30
0.0
 10
470.2576153542031
 20
-100.7049449930005
 30
0.0
 10
473.1979032249538
 20
-96.81841608386081
 30
0.0
 10
475.0780105953801
 20
-94.18072065546596
 30
0.0
 10
480.4798908517644
 20
-86.12868065935382
 30
0.0
 10
483.7639410574873
 20
-80.57580751189484
 30
0.0
 10
488.199682569714
 20
-71.96074176105247
 30
0.0
 10
489.5964227388453
 20
-69.04135826193509
 30
0.0
 10
491.5658636427889
 20
-64.58904394468739
 30
0.0
 10
492.2013906824639
 20
-63.09272779098124
 30
0.0
 10
493.4299476891873
 20
-60.07532841443386
 30
0.0
 10
494.0233978850932
 20
-58.55311384587659
 30
0.0
 10
496.8782421847328
 20
-50.89126119632959
 30
0.0
 10
498.7714585806696
 20
-44.68647251791676
 30
0.0
 10
501.8111133462024
 20
-32.13294483196163
 30
0.0
 10
502.9590083907203
 20
-25.7844886437159
 30
0.0
 10
504.1194750614578
 20
-16.15359971834455
 30
0.0
 10
504.4123245898271
 20
-12.92519008779538
 30
0.0
 10
504.7063303903748
 20
-8.054573901790747
 30
0.0
 10
504.780092909795
 20
-6.426362808179303
 30
0.0
 10
504.8780624420382
 20
-3.160388029903056
 30
0.0
 10
504.9021439326395
 20
-1.522888996412719
 30
0.0
 10
504.8966194702796
 20
6.630445029487381
 30
0.0
 10
504.4936140024979
 20
13.0906962493497
 30
0.0
 10
502.9406046598717
 20
25.89423691727607
 30
0.0
 10
501.7904275239881
 20
32.2374992041169
 30
0.0
 10
499.50091845629
 20
41.66404234095542
 30
0.0
 10
498.6431924311283
 20
44.79141725416037
 30
0.0
 10
497.2109979657658
 20
49.45967928533214
 30
0.0
 10
496.7093285958093
 20
51.01196602550211
 30
0.0
 10
495.6566940274884
 20
54.10882027401906
 30
0.0
 10
495.1081487554289
 20
55.6462075335828
 30
0.0
 10
492.2588467739499
 20
63.27027567539992
 30
0.0
 10
489.6360114290276
 20
69.17773592911992
 30
0.0
 10
483.7344687396982
 20
80.62634552262539
 30
0.0
 10
480.4556841291393
 20
86.16745269453317
 30
0.0
 10
475.0569593530689
 20
94.21074244529059
 30
0.0
 10
473.1771148090251
 20
96.84700949694265
 30
0.0
 10
470.2356384420814
 20
100.7334277995799
 30
0.0
 10
469.234843581864
 20
102.0175602320347
 30
0.0
 10
467.1921559478046
 20
104.5628673204469
 30
0.0
 10
466.1509119205526
 20
105.823078248988
 30
0.0
 10
456.6574750588647
 20
116.9858271366958
 30
0.0
 10
447.2407507244866
 20
125.7649905638765
 30
0.0
 10
434.3364409827935
 20
135.4141483549203
 30
0.0
 10
431.6983532703716
 20
137.2770775483218
 30
0.0
 10
427.6544499750297
 20
139.969990041783
 30
0.0
 10
426.2920196813716
 20
140.8507135723586
 30
0.0
 10
423.5379864118611
 20
142.5780380126848
 30
0.0
 10
422.1453877592514
 20
143.4252245909544
 30
0.0
 10
415.1192817180898
 20
147.5685357647493
 30
0.0
 10
409.3699651254349
 20
150.5454733608485
 30
0.0
 10
397.6256973971265
 20
155.8525587763439
 30
0.0
 10
391.630658112084
 20
158.1824706177841
 30
0.0
 10
379.3993496101377
 20
162.2065136553066
 30
0.0
 10
373.163431525616
 20
163.9016137492961
 30
0.0
 10
365.2166009997899
 20
165.6196296509502
 30
0.0
 10
363.6176140339254
 20
165.943461486181
 30
0.0
 10
360.4198604900809
 20
166.5477282969306
 30
0.0
 10
358.8199431770333
 20
166.8284689859849
 30
0.0
 10
354.0171212691841
 20
167.6074105767819
 30
0.0
 10
350.8111486177147
 20
168.0423651191012
 30
0.0
 10
344.3912464316764
 20
168.7474568654208
 30
0.0
 10
341.1773114029012
 20
169.017423077774
 30
0.0
 10
336.3505420986617
 20
169.3003262710847
 30
0.0
 10
334.7406410197692
 20
169.3742870514165
 30
0.0
 10
332.3243329900353
 20
169.4549123747577
 30
0.0
 10
331.5186556940867
 20
169.4767775773019
 30
0.0
 10
329.9071852815911
 20
169.5213879026944
 30
0.0
 10
329.1013457963788
 20
169.5427545216189
 30
0.0
 10
321.8478434585112
 20
169.7263494383089
 30
0.0
 10
315.3936024207281
 20
169.8285823175464
 30
0.0
 10
305.7010104765394
 20
169.8595036994801
 30
0.0
 10
302.4682653779806
 20
169.8492331445336
 30
0.0
 10
297.6160655748116
 20
169.7970663146007
 30
0.0
 10
295.9981497945556
 20
169.7734956694499
 30
0.0
 10
293.570461660306
 20
169.727988582854
 30
0.0
 10
292.356413871297
 20
169.7026953019353
 30
0.0
 10
290.9396582044574
 20
169.668528105803
 30
0.0
 10
290.2311873749614
 20
169.6502514325845
 30
0.0
 10
289.8769285394623
 20
169.6408112123963
 30
0.0
 10
289.6997932447337
 20
169.6360151733724
 30
0.0
 10
289.6238768567159
 20
169.6339434081898
 30
0.0
 10
289.5732656507294
 20
169.6325585992449
 30
0.0
 10
289.547869085156
 20
169.6305087357183
 30
0.0
 10
289.5226543697041
 20
169.6311683488265
 30
0.0
  0
SPLINE
  5
BA
330
AC
100
AcDbEntity
  8
0
  6
Continuous
 62
     7
370
    25
100
AcDbSpline
210
0.0
220
0.0
230
1.0
 70
     8
 71
     3
 72
    24
 73
    20
 74
     0
 42
0.000000001
 43
0.00000001
 40
0.0
 40
0.0
 40
0.0
 40
0.0
 40
0.2500000000000001
 40
0.2500000000000001
 40
0.5000000000000001
 40
0.5000000000000001
 40
0.75
 40
0.75
 40
0.8125000000000001
 40
0.8125000000000001
 40
0.8437500000000001
 40
0.8437500000000001
 40
0.8750000000000001
 40
0.8750000000000001
 40
0.9062500000000001
 40
0.9062500000000001
 40
0.9375000000000001
 40
0.9375000000000001
 40
1.0
 40
1.0
 40
1.0
 40
1.0
 10
289.5226543697041
 20
169.6311683488265
 30
0.0
 10
265.467706946081
 20
170.3120582679711
 30
0.0
 10
241.4118398584847
 20
170.9860973343158
 30
0.0
 10
193.2986918788622
 20
172.2622501256253
 30
0.0
 10
169.2410960697716
 20
172.8639634716414
 30
0.0
 10
121.121672009385
 20
173.9087224002762
 30
0.0
 10
97.05923814696727
 20
174.3510000030094
 30
0.0
 10
66.97857977894056
 20
174.7404983549782
 30
0.0
 10
60.96237579860671
 20
174.8102287456217
 30
0.0
 10
51.93795109360241
 20
174.9014278807508
 30
0.0
 10
48.92979691189567
 20
174.9305686863235
 30
0.0
 10
42.91340696910143
 20
174.9787255303642
 30
0.0
 10
39.90516892946113
 20
174.9974448765246
 30
0.0
 10
33.88837938591616
 20
174.9931272608788
 30
0.0
 10
30.87986241840963
 20
174.97484224594
 30
0.0
 10
24.86316385882166
 20
174.9841676256409
 30
0.0
 10
21.8549603185871
 20
175.0085121123855
 30
0.0
 10
12.83037954394951
 20
175.0869056791928
 30
0.0
 10
6.814069448541413
 20
175.1515206810359
 30
0.0
 10
0.7972464164902437
 20
175.154896192935
 30
0.0
  0
SPLINE
  5
BB
330
AC
100
AcDbEntity
  8
0
  6
Continuous
 62
     7
370
    25
100
AcDbSpline
210
0.0
220
0.0
230
1.0
 70
     8
 71
     3
 72
    31
 73
    27
 74
     0
 42
0.000000001
 43
0.00000001
 40
0.0
 40
0.0
 40
0.0
 40
0.0
 40
0.0624999999999999
 40
0.0624999999999999
 40
0.1249999999999999
 40
0.1249999999999999
 40
0.2499999999999998
 40
0.2499999999999998
 40
0.4999999999999996
 40
0.4999999999999996
 40
0.7499999999999993
 40
0.7499999999999993
 40
0.8749999999999991
 40
0.8749999999999991
 40
0.937499999999999
 40
0.937499999999999
 40
0.9687499999999989
 40
0.9843749999999991
 40
0.992187499999999
 40
0.9960937499999992
 40
0.9980468749999993
 40
0.9990234374999993
 40
0.9995117187499993
 40
0.9997558593749997
 40
0.9997558593749997
 40
1.0
 40
1.0
 40
1.0
 40
1.0
 10
0.7972464164902745
 20
175.1548961929341
 30
0.0
 10
-5.252778917640947
 20
175.1582903317342
 30
0.0
 10
-11.30271372657209
 20
175.1491357246834
 30
0.0
 10
-23.40238956313734
 20
175.1075148743702
 30
0.0
 10
-29.45213745422739
 20
175.0764635962136
 30
0.0
 10
-47.60111368340946
 20
174.9536416794614
 30
0.0
 10
-59.70007983249369
 20
174.8324522377289
 30
0.0
 10
-95.99608828930076
 20
174.3690257472522
 30
0.0
 10
-120.1915895104537
 20
173.927095450909
 30
0.0
 10
-168.5768559881398
 20
172.8801470647885
 30
0.0
 10
-192.7673257301246
 20
172.2759232800769
 30
0.0
 10
-229.0514662843778
 20
171.3141490406512
 30
0.0
 10
-241.1459156720459
 20
170.9842394501177
 30
0.0
 10
-259.2873451488906
 20
170.4814875609734
 30
0.0
 10
-265.3344473144118
 20
170.312581712929
 30
0.0
 10
-274.4050553067308
 20
170.057898855361
 30
0.0
 10
-278.9403479584092
 20
169.9302251894391
 30
0.0
 10
-284.2315061133513
 20
169.7808229250669
 30
0.0
 10
-286.8770814244493
 20
169.7060249762509
 30
0.0
 10
-288.1998681860273
 20
169.668603725476
 30
0.0
 10
-288.8612613492092
 20
169.6498877691101
 30
0.0
 10
-289.1919578771288
 20
169.6405284877692
 30
0.0
 10
-289.3573061277624
 20
169.6358485249984
 30
0.0
 10
-289.4281696609026
 20
169.6338427580431
 30
0.0
 10
-289.475412015698
 20
169.6325055648648
 30
0.0
 10
-289.4990028865649
 20
169.630562643151
 30
0.0
 10
-289.5226543697076
 20
169.6311683488915
 30
0.0
  0
SPLINE
  5
BC
330
AC
100
AcDbEntity
  8
0
  6
Continuous
 62
     7
370
    25
100
AcDbSpline
210
0.0
220
0.0
230
1.0
 70
     8
 71
     3
 72
   131
 73
   127
 74
     0
 42
0.000000001
 43
0.00000001
 40
0.0
 40
0.0
 40
0.0
 40
0.0
 40
0.0078125000000002
 40
0.0078125000000002
 40
0.0156250000000005
 40
0.0156250000000005
 40
0.031250000000001
 40
0.031250000000001
 40
0.0625000000000019
 40
0.0625000000000019
 40
0.0664062500000018
 40
0.0664062500000018
 40
0.0703125000000017
 40
0.0703125000000017
 40
0.0781250000000016
 40
0.0781250000000016
 40
0.0859375000000014
 40
0.0859375000000014
 40
0.0937500000000012
 40
0.0937500000000012
 40
0.1250000000000002
 40
0.1250000000000002
 40
0.1562499999999993
 40
0.1562499999999993
 40
0.1718749999999986
 40
0.1718749999999986
 40
0.1796874999999985
 40
0.1796874999999985
 40
0.1874999999999983
 40
0.1874999999999983
 40
0.2187499999999982
 40
0.2187499999999982
 40
0.2499999999999981
 40
0.2499999999999981
 40
0.2656249999999981
 40
0.2656249999999981
 40
0.2734374999999983
 40
0.2734374999999983
 40
0.2812499999999983
 40
0.2812499999999983
 40
0.3124999999999981
 40
0.3124999999999981
 40
0.3437499999999979
 40
0.3437499999999979
 40
0.3593749999999977
 40
0.3593749999999977
 40
0.3671874999999977
 40
0.3671874999999977
 40
0.3749999999999977
 40
0.3749999999999977
 40
0.4062499999999973
 40
0.4062499999999973
 40
0.437499999999997
 40
0.437499999999997
 40
0.4453124999999969
 40
0.4453124999999969
 40
0.4531249999999969
 40
0.4531249999999969
 40
0.4687499999999968
 40
0.4687499999999968
 40
0.4999999999999966
 40
0.4999999999999966
 40
0.5312499999999962
 40
0.5312499999999962
 40
0.5390624999999962
 40
0.5390624999999962
 40
0.5468749999999961
 40
0.5468749999999961
 40
0.5624999999999958
 40
0.5624999999999958
 40
0.5937499999999953
 40
0.5937499999999953
 40
0.624999999999995
 40
0.624999999999995
 40
0.6328124999999949
 40
0.6328124999999949
 40
0.6406249999999948
 40
0.6406249999999948
 40
0.6562499999999948
 40
0.6562499999999948
 40
0.687499999999995
 40
0.687499999999995
 40
0.7187499999999951
 40
0.7187499999999951
 40
0.7265624999999953
 40
0.7265624999999953
 40
0.7343749999999954
 40
0.7343749999999954
 40
0.7499999999999957
 40
0.7499999999999957
 40
0.781249999999996
 40
0.781249999999996
 40
0.8124999999999964
 40
0.8124999999999964
 40
0.8281249999999967
 40
0.8281249999999967
 40
0.8359374999999968
 40
0.8359374999999968
 40
0.8437499999999969
 40
0.8437499999999969
 40
0.8749999999999971
 40
0.8749999999999971
 40
0.9062499999999972
 40
0.9062499999999972
 40
0.9218749999999976
 40
0.9218749999999976
 40
0.9296874999999978
 40
0.9296874999999978
 40
0.9335937499999979
 40
0.9335937499999979
 40
0.937499999999998
 40
0.937499999999998
 40
0.9687499999999989
 40
0.9687499999999989
 40
0.9843749999999996
 40
0.9843749999999996
 40
0.9921874999999999
 40
0.9921874999999999
 40
0.99609375
 40
0.998046875
 40
0.9990234375
 40
0.9995117187499999
 40
0.9997558593749999
 40
0.9998779296875
 40
0.9998779296875
 40
1.0
 40
1.0
 40
1.0
 40
1.0
 10
-289.5226543697076
 20
169.6311683488915
 30
0.0
 10
-291.1497454606269
 20
169.6759215216395
 30
0.0
 10
-292.7798305577285
 20
169.7132468898726
 30
0.0
 10
-296.036219016669
 20
169.7741291857655
 30
0.0
 10
-297.6641523095002
 20
169.7977295880613
 30
0.0
 10
-302.5471807022735
 20
169.8497809831524
 30
0.0
 10
-305.8015043854903
 20
169.8597006725381
 30
0.0
 10
-315.5614422310003
 20
169.826981821062
 30
0.0
 10
-322.0640330168421
 20
169.7225676819218
 30
0.0
 10
-329.3748940827344
 20
169.5355794688933
 30
0.0
 10
-330.1871485303377
 20
169.5138226207837
 30
0.0
 10
-331.8115301545138
 20
169.4684057625902
 30
0.0
 10
-332.6236514421538
 20
169.4459741663273
 30
0.0
 10
-335.0598962462653
 20
169.360805531948
 30
0.0
 10
-336.6838849804106
 20
169.2834418002139
 30
0.0
 10
-339.9315085592173
 20
169.08715077598
 30
0.0
 10
-341.5551480236873
 20
168.9681712298303
 30
0.0
 10
-344.789952681845
 20
168.689458910317
 30
0.0
 10
-346.4026356604184
 20
168.5296312356965
 30
0.0
 10
-354.4426243836972
 20
167.628941694618
 30
0.0
 10
-360.7998383825473
 20
166.5842417902577
 30
0.0
 10
-373.3646686093849
 20
163.8479124267831
 30
0.0
 10
-379.5724003014265
 20
162.1568206010745
 30
0.0
 10
-388.7681849475631
 20
159.1204219410015
 30
0.0
 10
-391.814072389416
 20
158.0246743533616
 30
0.0
 10
-396.3529560967287
 20
156.2518813751711
 30
0.0
 10
-397.8626730056421
 20
155.6386870165184
 30
0.0
 10
-400.8637106548495
 20
154.372069832032
 30
0.0
 10
-402.3524781677057
 20
153.7197865903535
 30
0.0
 10
-409.7380557046694
 20
150.3643148771458
 30
0.0
 10
-415.4605140960359
 20
147.3796489595505
 30
0.0
 10
-426.539961488704
 20
140.8208025762161
 30
0.0
 10
-431.8969850975703
 20
137.2466620640842
 30
0.0
 10
-439.6527409235459
 20
131.4345064165262
 30
0.0
 10
-442.1912937078483
 20
129.4218551888895
 30
0.0
 10
-445.9270557009631
 20
126.2867768871772
 30
0.0
 10
-447.1618321566959
 20
125.2210606936361
 30
0.0
 10
-449.5994616495557
 20
123.0563848356228
 30
0.0
 10
-450.8002039507494
 20
121.9591819123302
 30
0.0
 10
-456.714201183949
 20
116.3993702321537
 30
0.0
 10
-461.1571868400639
 20
111.7144113519934
 30
0.0
 10
-469.4833445462543
 20
101.884077960601
 30
0.0
 10
-473.3682584830844
 20
96.74016153095745
 30
0.0
 10
-478.7688727678805
 20
88.67347416325819
 30
0.0
 10
-480.497659990868
 20
85.92587023184709
 30
0.0
 10
-482.9794423019868
 20
81.71288948977873
 30
0.0
 10
-483.7879082093016
 20
80.29343823934697
 30
0.0
 10
-485.3568431942346
 20
77.44226339278396
 30
0.0
 10
-486.1186870985865
 20
76.00826121799072
 30
0.0
 10
-489.815416423592
 20
68.79640952579159
 30
0.0
 10
-492.4134644426031
 20
62.89327263035141
 30
0.0
 10
-496.8966812159468
 20
50.82183509290677
 30
0.0
 10
-498.781880797637
 20
44.65354550948481
 30
0.0
 10
-500.6864581979612
 20
36.77509102516574
 30
0.0
 10
-501.0447451465949
 20
35.19098358207701
 30
0.0
 10
-501.7156244750538
 20
32.00577331523544
 30
0.0
 10
-502.0286835077628
 20
30.40194589131997
 30
0.0
 10
-502.8942873254999
 20
25.58788916914509
 30
0.0
 10
-503.3734543342754
 20
22.37700393064258
 30
0.0
 10
-504.5227090622511
 20
12.73989038277546
 30
0.0
 10
-504.9061814248514
 20
6.309229518888546
 30
0.0
 10
-504.8958675766532
 20
-6.564114059744664
 30
0.0
 10
-504.5022997950475
 20
-13.00679338269372
 30
0.0
 10
-503.5264173060276
 20
-21.0676265044162
 30
0.0
 10
-503.3069134391208
 20
-22.68016936099439
 30
0.0
 10
-502.8187509261061
 20
-25.90601526814546
 30
0.0
 10
-502.5503710944419
 20
-27.51690549188788
 30
0.0
 10
-501.6772871332806
 20
-32.31814530659597
 30
0.0
 10
-501.0032955031565
 20
-35.48698652026636
 30
0.0
 10
-498.7108145480207
 20
-44.89939447493081
 30
0.0
 10
-496.8218824228774
 20
-51.04886517947554
 30
0.0
 10
-492.327393267588
 20
-63.0984626146592
 30
0.0
 10
-489.7218270780956
 20
-68.99858649648795
 30
0.0
 10
-486.0097712661922
 20
-76.21539813368588
 30
0.0
 10
-485.2445646044478
 20
-77.65082920193093
 30
0.0
 10
-483.6682142907582
 20
-80.50570864804287
 30
0.0
 10
-482.8579466742095
 20
-81.92337535170309
 30
0.0
 10
-480.3755367146043
 20
-86.12369232029172
 30
0.0
 10
-478.6468354410075
 20
-88.86293327613207
 30
0.0
 10
-473.2479422873034
 20
-96.90476700998002
 30
0.0
 10
-469.3661024768933
 20
-102.0324132865032
 30
0.0
 10
-461.0499369009012
 20
-111.8308525957484
 30
0.0
 10
-456.6138343050582
 20
-116.5001500644336
 30
0.0
 10
-450.7112805319314
 20
-122.0410954597367
 30
0.0
 10
-449.5129677337798
 20
-123.134559988754
 30
0.0
 10
-447.0804863184905
 20
-125.2918337527273
 30
0.0
 10
-445.8445210120809
 20
-126.3573546775751
 30
0.0
 10
-442.0981106956872
 20
-129.4972860991715
 30
0.0
 10
-439.5541715425019
 20
-131.5112253195633
 30
0.0
 10
-431.7878450682249
 20
-137.3225771776386
 30
0.0
 10
-426.4312157336848
 20
-140.8899680830161
 30
0.0
 10
-415.3701453100106
 20
-147.4282688855405
 30
0.0
 10
-409.6656523002937
 20
-150.399106622142
 30
0.0
 10
-400.8456160195943
 20
-154.4034365347079
 30
0.0
 10
-397.8616450306361
 20
-155.6627621239877
 30
0.0
 10
-393.3187925820098
 20
-157.4368903591801
 30
0.0
 10
-391.7912012696082
 20
-158.0098469718797
 30
0.0
 10
-388.7301810366698
 20
-159.1112118842414
 30
0.0
 10
-387.1955476669145
 20
-159.6401439831722
 30
0.0
 10
-379.502173523528
 20
-162.1781925894084
 30
0.0
 10
-373.2830139755015
 20
-163.8685635635065
 30
0.0
 10
-360.7216181673644
 20
-166.5983709505312
 30
0.0
 10
-354.3792802154029
 20
-167.6372214536374
 30
0.0
 10
-344.7745323045502
 20
-168.7114249254902
 30
0.0
 10
-341.5576966096518
 20
-168.9885578612008
 30
0.0
 10
-336.7094371936951
 20
-169.2820480235885
 30
0.0
 10
-335.0895169029849
 20
-169.3595140297224
 30
0.0
 10
-332.653863762522
 20
-169.4450424549656
 30
0.0
 10
-331.8408070815276
 20
-169.4675644634565
 30
0.0
 10
-330.2149120069694
 20
-169.5130683162382
 30
0.0
 10
-329.4019109995074
 20
-169.5348669205798
 30
0.0
 10
-322.0844239953803
 20
-169.722215404837
 30
0.0
 10
-315.5765985572887
 20
-169.8268390371571
 30
0.0
 10
-305.8099957658033
 20
-169.8597180800444
 30
0.0
 10
-302.5536495679833
 20
-169.8498261177417
 30
0.0
 10
-297.667926700036
 20
-169.7977817066915
 30
0.0
 10
-296.0391521521181
 20
-169.7741779860034
 30
0.0
 10
-293.595690453371
 20
-169.7285034344007
 30
0.0
 10
-292.3738846189629
 20
-169.7030972286925
 30
0.0
 10
-290.9483132244764
 20
-169.6687464676372
 30
0.0
 10
-290.2354947003562
 20
-169.6503649766094
 30
0.0
 10
-289.8790772296616
 20
-169.6408690791807
 30
0.0
 10
-289.700866441885
 20
-169.6360443833222
 30
0.0
 10
-289.6244899501433
 20
-169.633960161179
 30
0.0
 10
-289.5735721912373
 20
-169.6325670085947
 30
0.0
 10
-289.5481325495206
 20
-169.6305018435408
 30
0.0
 10
-289.5226543697029
 20
-169.6311683488244
 30
0.0
  0
SPLINE
  5
BD
330
AC
100
AcDbEntity
  8
0
  6
Continuous
 62
     7
370
    25
100
AcDbSpline
210
0.0
220
0.0
230
1.0
 70
    11
 71
     3
 72
   162
 73
   158
 74
     0
 42
0.000000001
 43
0.00000001
 40
0.0
 40
0.0
 40
0.0
 40
0.0
 40
0.0078125
 40
0.0078125
 40
0.015625
 40
0.015625
 40
0.0312499999999999
 40
0.0312499999999999
 40
0.0624999999999998
 40
0.0624999999999998
 40
0.0703124999999997
 40
0.0703124999999997
 40
0.0781249999999997
 40
0.0781249999999997
 40
0.0937499999999996
 40
0.0937499999999996
 40
0.1093749999999995
 40
0.1093749999999995
 40
0.1171874999999995
 40
0.1171874999999995
 40
0.1249999999999994
 40
0.1249999999999994
 40
0.1406249999999993
 40
0.1406249999999993
 40
0.1484374999999993
 40
0.1484374999999993
 40
0.1562499999999992
 40
0.1562499999999992
 40
0.1718749999999992
 40
0.1718749999999992
 40
0.1796874999999991
 40
0.1796874999999991
 40
0.1874999999999991
 40
0.1874999999999991
 40
0.218749999999999
 40
0.218749999999999
 40
0.226562499999999
 40
0.226562499999999
 40
0.234374999999999
 40
0.234374999999999
 40
0.249999999999999
 40
0.249999999999999
 40
0.2812499999999989
 40
0.2812499999999989
 40
0.3124999999999989
 40
0.3124999999999989
 40
0.3281249999999989
 40
0.3281249999999989
 40
0.3359374999999989
 40
0.3359374999999989
 40
0.343749999999999
 40
0.343749999999999
 40
0.351562499999999
 40
0.351562499999999
 40
0.3593749999999991
 40
0.3593749999999991
 40
0.3749999999999992
 40
0.3749999999999992
 40
0.3828124999999992
 40
0.3828124999999992
 40
0.3906249999999992
 40
0.3906249999999992
 40
0.4062499999999993
 40
0.4062499999999993
 40
0.4374999999999994
 40
0.4374999999999994
 40
0.4453124999999994
 40
0.4453124999999994
 40
0.4531249999999995
 40
0.4531249999999995
 40
0.4687499999999996
 40
0.4687499999999996
 40
0.4843749999999997
 40
0.4843749999999997
 40
0.4921874999999997
 40
0.4921874999999997
 40
0.4999999999999998
 40
0.4999999999999998
 40
0.5078124999999999
 40
0.5078124999999999
 40
0.515625
 40
0.515625
 40
0.5234375
 40
0.5234375
 40
0.5312500000000001
 40
0.5312500000000001
 40
0.5625000000000002
 40
0.5625000000000002
 40
0.5781250000000003
 40
0.5781250000000003
 40
0.5859375000000004
 40
0.5859375000000004
 40
0.5937500000000004
 40
0.5937500000000004
 40
0.6250000000000006
 40
0.6250000000000006
 40
0.6328125000000006
 40
0.6328125000000006
 40
0.6406250000000006
 40
0.6406250000000006
 40
0.6484375000000006
 40
0.6484375000000006
 40
0.6562500000000006
 40
0.6562500000000006
 40
0.6718750000000006
 40
0.6718750000000006
 40
0.6875000000000007
 40
0.6875000000000007
 40
0.6953125000000007
 40
0.6953125000000007
 40
0.7031250000000006
 40
0.7031250000000006
 40
0.7187500000000006
 40
0.7187500000000006
 40
0.7343750000000004
 40
0.7343750000000004
 40
0.7421875000000004
 40
0.7421875000000004
 40
0.7500000000000004
 40
0.7500000000000004
 40
0.7812500000000003
 40
0.7812500000000003
 40
0.7968750000000003
 40
0.7968750000000003
 40
0.8046875000000002
 40
0.8046875000000002
 40
0.8125000000000002
 40
0.8125000000000002
 40
0.8281250000000002
 40
0.8281250000000002
 40
0.8437500000000001
 40
0.8437500000000001
 40
0.8476562500000001
 40
0.8476562500000001
 40
0.8515625000000001
 40
0.8515625000000001
 40
0.8593750000000001
 40
0.8593750000000001
 40
0.875
 40
0.875
 40
0.890625
 40
0.890625
 40
0.8984375
 40
0.8984375
 40
0.90625
 40
0.90625
 40
0.9375
 40
0.9375
 40
0.9531249999999999
 40
0.9531249999999999
 40
0.9609374999999999
 40
0.9609374999999999
 40
0.9687499999999999
 40
0.9687499999999999
 40
0.9843749999999999
 40
0.9843749999999999
 40
1.0
 40
1.0
 40
1.0
 40
1.0
 10
0.0000001086346992
 20
-69.20418080277321
 30
0.0
 10
-1.146914260477158
 20
-69.204180798829
 30
0.0
 10
-2.292679888572809
 20
-69.17604097531634
 30
0.0
 10
-4.581919175076948
 20
-69.06361647970608
 30
0.0
 10
-5.727355011168885
 20
-68.97910364599481
 30
0.0
 10
-9.14206636660922
 20
-68.64293971291013
 30
0.0
 10
-11.3904989943637
 20
-68.30932983701403
 30
0.0
 10
-18.05421945561656
 20
-66.989914600654
 30
0.0
 10
-22.38868262563593
 20
-65.68847734775686
 30
0.0
 10
-27.66856593428489
 20
-63.52173935430608
 30
0.0
 10
-28.72021171253564
 20
-63.05982704294345
 30
0.0
 10
-30.78946256014147
 20
-62.08983903746441
 30
0.0
 10
-31.80848550934034
 20
-61.58134895455154
 30
0.0
 10
-34.8196070140171
 20
-59.98666721304968
 30
0.0
 10
-36.76586570699223
 20
-58.83142736325068
 30
0.0
 10
-40.53794546101336
 20
-56.33940439398316
 30
0.0
 10
-42.36376864666671
 20
-55.00262512414253
 30
0.0
 10
-45.01096623132297
 20
-52.85934283716121
 30
0.0
 10
-45.87808200203858
 20
-52.12185502569164
 30
0.0
 10
-47.581194932734
 20
-50.59989834113204
 30
0.0
 10
-48.41846811056828
 20
-49.81397749630678
 30
0.0
 10
-50.85684474440077
 20
-47.41022317122503
 30
0.0
 10
-52.39304018401002
 20
-45.73955140458742
 30
0.0
 10
-54.56633351826414
 20
-43.13351471172824
 30
0.0
 10
-55.26888669596319
 20
-42.24813027254647
 30
0.0
 10
-56.63023338355119
 20
-40.44392725292213
 30
0.0
 10
-57.29167406443925
 20
-39.52698554506535
 30
0.0
 10
-59.20099744200383
 20
-36.71846703509429
 30
0.0
 10
-60.38195762459373
 20
-34.77544953260838
 30
0.0
 10
-62.01445240845492
 20
-31.75449383770113
 30
0.0
 10
-62.53471871385027
 20
-30.73047349087761
 30
0.0
 10
-63.51719107004747
 20
-28.67050814641587
 30
0.0
 10
-63.98099534469095
 20
-27.63169380221854
 30
0.0
 10
-66.16563330763654
 20
-22.39437455314031
 30
0.0
 10
-67.48751688002987
 20
-18.06748780358087
 30
0.0
 10
-68.60666464679375
 20
-12.48742094936025
 30
0.0
 10
-68.80357067931861
 20
-11.36274932106061
 30
0.0
 10
-69.1424471491756
 20
-9.095740718280773
 30
0.0
 10
-69.28357421908272
 20
-7.958269200507105
 30
0.0
 10
-69.62085209491869
 20
-4.55452446410268
 30
0.0
 10
-69.73242038492506
 20
-2.288479827217834
 30
0.0
 10
-69.7349209675561
 20
4.500508638272608
 30
0.0
 10
-69.29707404809245
 20
9.014520042873643
 30
0.0
 10
-67.50368522674134
 20
18.01680502064551
 30
0.0
 10
-66.17855309669233
 20
22.35355502274128
 30
0.0
 10
-63.57055893613493
 20
28.62047986191203
 30
0.0
 10
-62.59705836904937
 20
30.66945210295664
 30
0.0
 10
-60.97524741659537
 20
33.68080445928879
 30
0.0
 10
-60.40637749328736
 20
34.67630434443966
 30
0.0
 10
-59.21878909136605
 20
36.63618396536998
 30
0.0
 10
-58.60251200070737
 20
37.59680575644357
 30
0.0
 10
-57.3252279529701
 20
39.47952365065968
 30
0.0
 10
-56.6623115139036
 20
40.39997296168744
 30
0.0
 10
-55.29952349656997
 20
42.20890320706462
 30
0.0
 10
-54.59707903607717
 20
43.09536018655014
 30
0.0
 10
-52.42711307945658
 20
45.70118480663674
 30
0.0
 10
-50.89712142699872
 20
47.36714498425419
 30
0.0
 10
-48.47625725698004
 20
49.75861547715724
 30
0.0
 10
-47.64828696934742
 20
50.53782996652084
 30
0.0
 10
-45.94965896426454
 20
52.05983706798142
 30
0.0
 10
-45.07652985733684
 20
52.80457751826832
 30
0.0
 10
-42.41335125041946
 20
54.96567480325898
 30
0.0
 10
-40.5807503808227
 20
56.30921378235757
 30
0.0
 10
-34.91647330369288
 20
60.05698160446332
 30
0.0
 10
-30.9198753625607
 20
62.18101466418643
 30
0.0
 10
-25.64087892580222
 20
64.35538905227884
 30
0.0
 10
-24.56812891337391
 20
64.76686218133851
 30
0.0
 10
-22.41486290866343
 20
65.53283059667048
 30
0.0
 10
-21.33270446446432
 20
65.88815398689098
 30
0.0
 10
-18.06993783219846
 20
66.87257901970698
 30
0.0
 10
-15.87307579753548
 20
67.42032359605366
 30
0.0
 10
-11.4365565676601
 20
68.30164332433334
 30
0.0
 10
-9.196886985208188
 20
68.63515533564035
 30
0.0
 10
-5.804848415333868
 20
68.97262298710588
 30
0.0
 10
-4.668804933464689
 20
69.05828625340712
 30
0.0
 10
-2.385318500437836
 20
69.17315415348654
 30
0.0
 10
-1.236492688949555
 20
69.20222496072816
 30
0.0
 10
1.053666637084252
 20
69.20141170617129
 30
0.0
 10
2.197341885506568
 20
69.17390164976239
 30
0.0
 10
4.481953653106881
 20
69.0651966601491
 30
0.0
 10
5.622870399076469
 20
68.98383057476904
 30
0.0
 10
7.901974642565301
 20
68.76786250960664
 30
0.0
 10
9.041329475861202
 20
68.63377674794168
 30
0.0
 10
11.31068455847099
 20
68.298193067649
 30
0.0
 10
12.44130114844033
 20
68.10087266373444
 30
0.0
 10
18.06429447129407
 20
66.98970030336562
 30
0.0
 10
22.40444078951601
 20
65.6804057729474
 30
0.0
 10
28.68480636311659
 20
63.10549341302835
 30
0.0
 10
30.73978987381594
 20
62.1449322650363
 30
0.0
 10
33.76328103921404
 20
60.54723885252854
 30
0.0
 10
34.76335068713819
 20
59.98723309867808
 30
0.0
 10
36.73354458593536
 20
58.81955085701831
 30
0.0
 10
37.7004806257268
 20
58.21391839092401
 30
0.0
 10
42.44617683451487
 20
55.0789423028446
 30
0.0
 10
45.96057173111482
 20
52.23229313031843
 30
0.0
 10
50.0033755854495
 20
48.25271151444058
 30
0.0
 10
50.79426336171053
 20
47.43553312146083
 30
0.0
 10
52.34007366452726
 20
45.75787643662493
 30
0.0
 10
53.09699881257506
 20
44.89493152227071
 30
0.0
 10
54.56249642390689
 20
43.13859770395134
 30
0.0
 10
55.27086989176195
 20
42.24575770115808
 30
0.0
 10
56.63965034154264
 20
40.43118897565558
 30
0.0
 10
57.30289965460247
 20
39.51106605351004
 30
0.0
 10
59.21162853572057
 20
36.70162811655314
 30
0.0
 10
60.38495144853991
 20
34.76863795171023
 30
0.0
 10
62.5384492658565
 20
30.78609128168788
 30
0.0
 10
63.51847112656584
 20
28.73643488082858
 30
0.0
 10
64.84063244918588
 20
25.57283291641521
 30
0.0
 10
65.25738140520562
 20
24.50101799956791
 30
0.0
 10
66.03240687692526
 20
22.35031933102341
 30
0.0
 10
66.39174228458673
 20
21.26921380509219
 30
0.0
 10
67.3868545612094
 20
18.00896672902556
 30
0.0
 10
67.93998636274526
 20
15.8129461140099
 30
0.0
 10
68.82916158002642
 20
11.37657669045964
 30
0.0
 10
69.16518303240318
 20
9.136223163541857
 30
0.0
 10
69.50399546230543
 20
5.741959221154293
 30
0.0
 10
69.58934738782901
 20
4.604905635461972
 30
0.0
 10
69.70384059651731
 20
2.319321726077562
 30
0.0
 10
69.73278617884684
 20
1.17024319305248
 30
0.0
 10
69.73511943012423
 20
-4.539610843391303
 30
0.0
 10
69.28919893094866
 20
-9.045872954157431
 30
0.0
 10
67.96308372309112
 20
-15.71481568901367
 30
0.0
 10
67.41071217929395
 20
-17.92261189073461
 30
0.0
 10
66.41078993146887
 20
-21.21071718463117
 30
0.0
 10
66.04956307050749
 20
-22.2999250281305
 30
0.0
 10
65.27789730218397
 20
-24.44673949099374
 30
0.0
 10
64.86666520161575
 20
-25.50703356821364
 30
0.0
 10
63.55776624389387
 20
-28.6490758372341
 30
0.0
 10
62.58513016185284
 20
-30.6921075389122
 30
0.0
 10
60.43971052998793
 20
-34.67467173321471
 30
0.0
 10
59.26711196201524
 20
-36.61430579907897
 30
0.0
 10
57.67063579877242
 20
-38.97107557704178
 30
0.0
 10
57.34477138050809
 20
-39.43902321195315
 30
0.0
 10
56.67958909275134
 20
-40.36793442559219
 30
0.0
 10
56.33931207107265
 20
-40.82839999173432
 30
0.0
 10
55.30471004910219
 20
-42.20262905380911
 30
0.0
 10
54.59458929515201
 20
-43.09867700537291
 30
0.0
 10
52.40735792161023
 20
-45.72424842156519
 30
0.0
 10
50.87227349635979
 20
-47.39302873237221
 30
0.0
 10
47.65195590834293
 20
-50.57155315331462
 30
0.0
 10
45.96671838588075
 20
-52.08129407019275
 30
0.0
 10
43.32547783264991
 20
-54.22596451724665
 30
0.0
 10
42.42613293519329
 20
-54.9208281985595
 30
0.0
 10
40.58902533078535
 20
-56.26993707342934
 30
0.0
 10
39.64987216793105
 20
-56.92509755834931
 30
0.0
 10
34.87110838335445
 20
-60.08713745883797
 30
0.0
 10
30.86294908562866
 20
-62.20601191956315
 30
0.0
 10
24.58271560169888
 20
-64.7904587941885
 30
0.0
 10
22.44431573605886
 20
-65.55224126048016
 30
0.0
 10
19.16754527212278
 20
-66.54167294594735
 30
0.0
 10
18.06135900985553
 20
-66.84647175894533
 30
0.0
 10
15.8371215267487
 20
-67.4008417339707
 30
0.0
 10
14.72139150623533
 20
-67.64997635249377
 30
0.0
 10
11.36351063618559
 20
-68.31434673872779
 30
0.0
 10
9.110693838895704
 20
-68.64674262606047
 30
0.0
 10
4.576747204652243
 20
-69.091654919699
 30
0.0
 10
2.293828846858438
 20
-69.20418081066163
 30
0.0
 10
0.0000001086347017
 20
-69.20418080277321
 30
0.0
  0
CIRCLE
  5
BE
330
AC
100
AcDbEntity
  8
0
  6
Continuous
 62
     7
370
    25
100
AcDbCircle
 10
0.0
 20
0.0
 30
0.0
 40
25.99999999999999
  0
CIRCLE
  5
BF
330
AC
100
AcDbEntity
  8
0
  6
Continuous
 62
     7
370
    25
100
AcDbCircle
 10
0.0
 20
0.0
 30
0.0
 40
60.0
  0
VIEWPORT
  5
E8
330
AC
100
AcDbEntity
  8
0
100
AcDbViewport
 10
0.0
 20
0.0
 30
0.0
 40
205.6
 41
156.0
 68
     1
 69
     1
 12
0.0
 22
0.0
 13
0.0
 23
0.0
 14
10.0
 24
10.0
 15
10.0
 25
10.0
 16
0.0
 26
0.0
 36
1.0
 17
0.0
 27
0.0
 37
0.0
 42
50.0
 43
0.0
 44
0.0
 45
1276.9844357977
 50
0.0
 51
0.0
 72
   100
 90
   557152
  1

281
     0
 71
     1
 74
     0
110
0.0
120
0.0
130
0.0
111
1.0
121
0.0
131
0.0
112
0.0
122
1.0
132
0.0
 79
     0
146
0.0
  0
ENDBLK
  5
AF
330
AC
100
AcDbEntity
  8
0
100
AcDbBlockEnd
  0
BLOCK
  5
C2
330
C0
100
AcDbEntity
  8
0
100
AcDbBlockBegin
  2
*Paper_Space5
 70
     0
 10
0.0
 20
0.0
 30
0.0
  3
*Paper_Space5
  1

  0
SPLINE
  5
C4
330
C0
100
AcDbEntity
  8
0
  6
Continuous
 62
     7
370
    25
100
AcDbSpline
210
0.0
220
0.0
230
1.0
 70
     8
 71
     3
 72
   169
 73
   165
 74
     0
 42
0.000000001
 43
0.00000001
 40
0.0
 40
0.0
 40
0.0
 40
0.0
 40
0.0063810295152109
 40
0.0120183610837879
 40
0.0169246744114673
 40
0.0207579129958686
 40
0.0238074431906716
 40
0.0271394318680189
 40
0.0314822971394097
 40
0.0356609918227606
 40
0.039345948806664
 40
0.0425448964020137
 40
0.0459564750505293
 40
0.0487627936439228
 40
0.0526644968313702
 40
0.0578289508916133
 40
0.0620161916605375
 40
0.0652384218917303
 40
0.0693107435425293
 40
0.0832792440965455
 40
0.0972771978384592
 40
0.1093871981098184
 40
0.1244889829368143
 40
0.1382049869245179
 40
0.1548674346197276
 40
0.1692171467879434
 40
0.185415009881837
 40
0.1993765951957863
 40
0.2164277452913389
 40
0.229511824912934
 40
0.2469867288326104
 40
0.2540853580393404
 40
0.260134397444444
 40
0.265977378052566
 40
0.2721248144351559
 40
0.2795061270708161
 40
0.2875588711654354
 40
0.295138407818393
 40
0.3016700138705469
 40
0.3075710558355212
 40
0.3119939198443725
 40
0.3164086676193272
 40
0.320989344734623
 40
0.3253076287098493
 40
0.3305291656652125
 40
0.3369095716762394
 40
0.3424691484653802
 40
0.3465484472993011
 40
0.3500028025742463
 40
0.3530282017082325
 40
0.356551846450374
 40
0.3610298273183264
 40
0.3661907411922331
 40
0.3706044895740712
 40
0.374615655910704
 40
0.3782983830298128
 40
0.3823567882916815
 40
0.3873766264273922
 40
0.3935454229369474
 40
0.3990955975550793
 40
0.4032491438508736
 40
0.4076124324783236
 40
0.4121022713772401
 40
0.4168527422439667
 40
0.4217943993142536
 40
0.426338969552587
 40
0.4300907169204559
 40
0.4340873164049227
 40
0.4392433188565714
 40
0.4445913402376573
 40
0.4489982173876495
 40
0.4526186369780926
 40
0.4560007878262923
 40
0.4592747137080061
 40
0.4635318797074947
 40
0.4691109497682818
 40
0.4742195566514782
 40
0.4781785889068504
 40
0.4814959274625476
 40
0.4854459274975275
 40
0.4899883795443626
 40
0.4944293395680293
 40
0.5060861860086939
 40
0.5185301474621666
 40
0.5302350269896631
 40
0.5437175092267758
 40
0.5546804011452992
 40
0.5667276367363097
 40
0.5815401448595822
 40
0.586393223184229
 40
0.5908448077577719
 40
0.5955477244532027
 40
0.6017692941178235
 40
0.6069262554213903
 40
0.610994540274484
 40
0.6145657555436081
 40
0.6193648893028058
 40
0.6262909290732757
 40
0.6323532446800132
 40
0.6373019274136091
 40
0.6414029869244252
 40
0.6450225480497025
 40
0.6482340699711918
 40
0.6512449050072303
 40
0.6552892284483592
 40
0.6601340645244016
 40
0.6643104719820017
 40
0.6675614347165797
 40
0.6706852178030253
 40
0.6746046829720055
 40
0.6794499156998203
 40
0.6841741149923067
 40
0.6882621770268035
 40
0.6917138369679815
 40
0.6966087567882716
 40
0.7013003827142431
 40
0.7060514711448427
 40
0.7117428884827074
 40
0.7182274021392954
 40
0.7223985651695425
 40
0.7261868537750542
 40
0.7303979103458907
 40
0.735226728141379
 40
0.7406502833978047
 40
0.74563217550719
 40
0.749614222088772
 40
0.7524174721459675
 40
0.7557107405711715
 40
0.7601747238424196
 40
0.7652775004801704
 40
0.7699406916498821
 40
0.7741330031251883
 40
0.7800659786732679
 40
0.7854353889103854
 40
0.7905722752938324
 40
0.7970382225980134
 40
0.8041612334367813
 40
0.8107363718470552
 40
0.8184050351689769
 40
0.8265190932317855
 40
0.8350013011634154
 40
0.8413218048238513
 40
0.8480235584433625
 40
0.856135383942919
 40
0.8639859649173509
 40
0.8712403808607705
 40
0.8779357020019846
 40
0.8853320388033618
 40
0.8949273375330378
 40
0.9033814329722966
 40
0.9103859839071344
 40
0.9189707560253388
 40
0.927475415686886
 40
0.9339439057826562
 40
0.9409867788802858
 40
0.949867025519647
 40
0.9553938065931965
 40
0.9599364545903023
 40
0.9641148377839972
 40
0.9690196310543145
 40
0.9746872479070837
 40
0.9816204864336308
 40
0.9900582100561649
 40
1.0
 40
1.0
 40
1.0
 40
1.0
 10
368.2508009800204
 20
-684.0437502485586
 30
0.0
 10
369.5826489398768
 20
-683.5679207766477
 30
0.0
 10
372.0911202848387
 20
-682.6717189342809
 30
0.0
 10
375.6663691883156
 20
-681.3400612191335
 30
0.0
 10
378.6454445159815
 20
-680.2021821781867
 30
0.0
 10
381.1065610288427
 20
-679.2398116567554
 30
0.0
 10
383.2311173334505
 20
-678.3945696223684
 30
0.0
 10
385.4582028581224
 20
-677.4941782922624
 30
0.0
 10
387.9151956158979
 20
-676.4817987832226
 30
0.0
 10
390.4373471338434
 20
-675.4207572174748
 30
0.0
 10
392.7166594526936
 20
-674.4436120472297
 30
0.0
 10
394.8323630900938
 20
-673.5217020317714
 30
0.0
 10
396.7627451263585
 20
-672.6674351285947
 30
0.0
 10
398.8318609303982
 20
-671.7385052532687
 30
0.0
 10
401.2530746058427
 20
-670.6346857047575
 30
0.0
 10
403.9466917001089
 20
-669.381267411006
 30
0.0
 10
406.4926960874787
 20
-668.1716054184749
 30
0.0
 10
408.8101091604411
 20
-667.0524688988885
 30
0.0
 10
413.0883707336724
 20
-664.9533574029905
 30
0.0
 10
419.4861516535769
 20
-661.6909249071092
 30
0.0
 10
427.3872293479683
 20
-657.421568909052
 30
0.0
 10
435.411070289896
 20
-652.852899803831
 30
0.0
 10
443.2742777115391
 20
-648.1316640785033
 30
0.0
 10
451.8834686372779
 20
-642.6738227810121
 30
0.0
 10
460.2122381510794
 20
-637.0915218749899
 30
0.0
 10
468.8475204318418
 20
-630.9743577442408
 30
0.0
 10
476.8412795011865
 20
-625.0010848289825
 30
0.0
 10
485.1575946883063
 20
-618.4557233084377
 30
0.0
 10
492.7660676024713
 20
-612.1416970678802
 30
0.0
 10
500.8046429539917
 20
-605.1194272961028
 30
0.0
 10
507.0178481964711
 20
-599.4020367112586
 30
0.0
 10
511.9709147168185
 20
-594.6486174100911
 30
0.0
 10
515.0091627001682
 20
-591.6663946760423
 30
0.0
 10
517.8660977869667
 20
-588.8041167174757
 30
0.0
 10
520.9019776224657
 20
-585.6987074103047
 30
0.0
 10
524.2431811030702
 20
-582.1993809427571
 30
0.0
 10
527.7552858026755
 20
-578.419882262567
 30
0.0
 10
531.0870876311396
 20
-574.7335521790443
 30
0.0
 10
534.0533811161802
 20
-571.3676139902815
 30
0.0
 10
536.5200497910873
 20
-568.5050317659908
 30
0.0
 10
538.6536404956033
 20
-565.9820224431821
 30
0.0
 10
540.5774961403177
 20
-563.6698153908185
 30
0.0
 10
542.4686869308945
 20
-561.3591182628237
 30
0.0
 10
544.4395719554191
 20
-558.909552661539
 30
0.0
 10
546.5647951334079
 20
-556.2236461353057
 30
0.0
 10
548.7137961888444
 20
-553.484032050516
 30
0.0
 10
550.7033072660972
 20
-550.9210340433896
 30
0.0
 10
552.3056427172179
 20
-548.8401876771709
 30
0.0
 10
553.5883966505241
 20
-547.1638378449323
 30
0.0
 10
554.8009909336836
 20
-545.570580619911
 30
0.0
 10
556.1323104014688
 20
-543.8117165301178
 30
0.0
 10
557.7151168946083
 20
-541.7065626549207
 30
0.0
 10
559.3972880077686
 20
-539.4511184308479
 30
0.0
 10
561.0164668691848
 20
-537.2626255299978
 30
0.0
 10
562.4535031556052
 20
-535.3065168935384
 30
0.0
 10
563.8423434029937
 20
-533.403739012605
 30
0.0
 10
565.3442879666395
 20
-531.3325474295259
 30
0.0
 10
567.1300451762767
 20
-528.8510575551785
 30
0.0
 10
569.0796602875187
 20
-526.116154470303
 30
0.0
 10
570.917890696215
 20
-523.5117841201068
 30
0.0
 10
572.5383598961428
 20
-521.1969462621629
 30
0.0
 10
574.0292523228369
 20
-519.05173691996
 30
0.0
 10
575.5813489077578
 20
-516.8015660210244
 30
0.0
 10
577.1913607552515
 20
-514.4489553268783
 30
0.0
 10
578.7991682218985
 20
-512.0800131965635
 30
0.0
 10
580.2866714465059
 20
-509.8704306922048
 30
0.0
 10
581.6616049951107
 20
-507.8134477025616
 30
0.0
 10
583.0978958664456
 20
-505.6502893981477
 30
0.0
 10
584.7036397023182
 20
-503.2127576883738
 30
0.0
 10
586.3455810697361
 20
-500.6975239956873
 30
0.0
 10
587.8104726258916
 20
-498.4344237980955
 30
0.0
 10
589.0539701364339
 20
-496.4998861900771
 30
0.0
 10
590.1693535146185
 20
-494.7540316218913
 30
0.0
 10
591.3492693453154
 20
-492.8963887170937
 30
0.0
 10
592.7578071240081
 20
-490.664138163864
 30
0.0
 10
594.3531021219354
 20
-488.1140346019523
 30
0.0
 10
595.9079663247991
 20
-485.6050978798728
 30
0.0
 10
597.2193205204487
 20
-483.4720659493038
 30
0.0
 10
598.406303354404
 20
-481.5287786024201
 30
0.0
 10
599.6449679164073
 20
-479.4876831772011
 30
0.0
 10
600.9930716097197
 20
-477.2493760000817
 30
0.0
 10
603.1326739036149
 20
-473.6682564112953
 30
0.0
 10
606.0619373981269
 20
-468.6939458501839
 30
0.0
 10
609.6759812400924
 20
-462.4215565331664
 30
0.0
 10
613.4180987536986
 20
-455.7822165104835
 30
0.0
 10
616.9482554401587
 20
-449.3719858282305
 30
0.0
 10
620.4543169943827
 20
-442.8592112049855
 30
0.0
 10
624.0253295066337
 20
-436.0809812943245
 30
0.0
 10
626.9651370315095
 20
-430.35687699458
 30
0.0
 10
629.1679358697322
 20
-425.986089124754
 30
0.0
 10
630.4384364362406
 20
-423.4424078786321
 30
0.0
 10
631.822795336465
 20
-420.6460424528167
 30
0.0
 10
633.2586088775472
 20
-417.7146961239037
 30
0.0
 10
634.6263225888782
 20
-414.8910544589174
 30
0.0
 10
635.7514647854149
 20
-412.5469674375495
 30
0.0
 10
636.8379130392811
 20
-410.2663028819187
 30
0.0
 10
638.1647403696587
 20
-407.4577657573591
 30
0.0
 10
639.6939236640218
 20
-404.1827399926019
 30
0.0
 10
641.220619608061
 20
-400.8699932667564
 30
0.0
 10
642.495428884101
 20
-398.0727457293774
 30
0.0
 10
643.5560365615014
 20
-395.7239315585392
 30
0.0
 10
644.4655490805156
 20
-393.6937304162174
 30
0.0
 10
645.2796416180596
 20
-391.8636967192613
 30
0.0
 10
646.1239175406859
 20
-389.9535719829868
 30
0.0
 10
647.0967882534326
 20
-387.7363469108368
 30
0.0
 10
648.1572570877206
 20
-385.2969778225171
 30
0.0
 10
649.1458661622831
 20
-383.0012866248651
 30
0.0
 10
649.990411019098
 20
-381.0247084811393
 30
0.0
 10
650.8091249658701
 20
-379.0956098158651
 30
0.0
 10
651.748460867068
 20
-376.8656769972476
 30
0.0
 10
652.8061461046062
 20
-374.3311958078363
 30
0.0
 10
653.8683161861776
 20
-371.7596869822549
 30
0.0
 10
654.8147646593953
 20
-369.4464274343878
 30
0.0
 10
655.7679085795735
 20
-367.0976505099367
 30
0.0
 10
656.7592494885548
 20
-364.6323910473844
 30
0.0
 10
657.8396194493171
 20
-361.91732686738
 30
0.0
 10
658.9699145073075
 20
-359.047018033554
 30
0.0
 10
660.2210073741593
 20
-355.832863081392
 30
0.0
 10
661.4154132124343
 20
-352.7222181893966
 30
0.0
 10
662.4598879255287
 20
-349.9691228909612
 30
0.0
 10
663.3328346653853
 20
-347.6472462587689
 30
0.0
 10
664.245444614106
 20
-345.1975863694786
 30
0.0
 10
665.2652249156955
 20
-342.4316615540317
 30
0.0
 10
666.3285691726
 20
-339.513132136427
 30
0.0
 10
667.322594616501
 20
-336.7515098361668
 30
0.0
 10
668.1282241391752
 20
-334.4895569409188
 30
0.0
 10
668.8131833271241
 20
-332.5508943375527
 30
0.0
 10
669.5256358295408
 20
-330.5197428772694
 30
0.0
 10
670.3861817662669
 20
-328.0435380484252
 30
0.0
 10
671.329023364121
 20
-325.299098124949
 30
0.0
 10
672.2443675698846
 20
-322.6029223750901
 30
0.0
 10
673.2048977024422
 20
-319.7428230888361
 30
0.0
 10
674.1998845281163
 20
-316.7428890299034
 30
0.0
 10
675.2424820228628
 20
-313.5548672823908
 30
0.0
 10
676.3059211875934
 20
-310.2598841842318
 30
0.0
 10
677.4633284308777
 20
-306.6205594826672
 30
0.0
 10
678.6905157492256
 20
-302.6939103355508
 30
0.0
 10
679.9696863516333
 20
-298.5273605206409
 30
0.0
 10
681.2854181036778
 20
-294.1605169178956
 30
0.0
 10
682.6857868966465
 20
-289.4136231083607
 30
0.0
 10
683.9812014800027
 20
-284.9223326673028
 30
0.0
 10
685.1742647026787
 20
-280.7004372893503
 30
0.0
 10
686.3260745119559
 20
-276.5495250581999
 30
0.0
 10
687.5377736523371
 20
-272.0899777330565
 30
0.0
 10
688.7526716060227
 20
-267.5144316367589
 30
0.0
 10
689.8697595717523
 20
-263.2129738084342
 30
0.0
 10
690.9423629891531
 20
-258.9960036974185
 30
0.0
 10
692.1081834326675
 20
-254.3136877888826
 30
0.0
 10
693.3304220042996
 20
-249.2745184595954
 30
0.0
 10
694.5023210143626
 20
-244.3035178646929
 30
0.0
 10
695.5992456371912
 20
-239.5335530581389
 30
0.0
 10
696.6727426091343
 20
-234.7447110280866
 30
0.0
 10
697.6946815869612
 20
-230.0536360702464
 30
0.0
 10
698.6298579221648
 20
-225.6490748686199
 30
0.0
 10
699.5561667786096
 20
-221.181744902418
 30
0.0
 10
700.4168116569736
 20
-216.911910967113
 30
0.0
 10
701.1590541259519
 20
-213.1318813087926
 30
0.0
 10
701.7074646278963
 20
-210.2863558065086
 30
0.0
 10
702.2239194404756
 20
-207.5623446811215
 30
0.0
 10
702.7738784090545
 20
-204.6108053927435
 30
0.0
 10
703.4142786207738
 20
-201.1031895057469
 30
0.0
 10
704.1648461406945
 20
-196.8857988754768
 30
0.0
 10
705.0433512076546
 20
-191.8071261718477
 30
0.0
 10
705.651646501964
 20
-188.1118501787693
 30
0.0
 10
705.9806837214753
 20
-186.1130128550817
 30
0.0
  0
SPLINE
  5
C5
330
C0
100
AcDbEntity
  8
0
  6
Continuous
 62
     7
370
    25
100
AcDbSpline
210
0.0
220
0.0
230
1.0
 70
     8
 71
     3
 72
   206
 73
   202
 74
     0
 42
0.000000001
 43
0.00000001
 40
0.0
 40
0.0
 40
0.0
 40
0.0
 40
0.0033701874913401
 40
0.0060944954271634
 40
0.0081721831959467
 40
0.0097068674367506
 40
0.0112060909687913
 40
0.0127375602836016
 40
0.0143012934069395
 40
0.01591411928413
 40
0.0196513160588159
 40
0.0237555008290699
 40
0.0271963435760604
 40
0.0290672650754982
 40
0.031239716240536
 40
0.0337203405203993
 40
0.0363380349275452
 40
0.0384683064457569
 40
0.0400300580691595
 40
0.0413175036657457
 40
0.0430809464779292
 40
0.0453706894335381
 40
0.0503779425795596
 40
0.0542865257385366
 40
0.0591782444007813
 40
0.0643055223135023
 40
0.0679302238851868
 40
0.0716163787616836
 40
0.0757436055574336
 40
0.080241530434085
 40
0.0859762394076409
 40
0.0931919510430789
 40
0.100151691622464
 40
0.1071832739323558
 40
0.1144598804140022
 40
0.1179400037416573
 40
0.1209298225598306
 40
0.1244703744152754
 40
0.1280220294398516
 40
0.1313749200847731
 40
0.1355414026575155
 40
0.1402089551449191
 40
0.1455248381929148
 40
0.1521530038733543
 40
0.1566651044376575
 40
0.1622919186419311
 40
0.1684295395692997
 40
0.174119428414351
 40
0.1787638363114942
 40
0.1824564192450032
 40
0.1857815954849384
 40
0.1893205575670993
 40
0.193145196121959
 40
0.1971826891177149
 40
0.2007689163173333
 40
0.2066238134233937
 40
0.2133488885285456
 40
0.220183514277937
 40
0.2266052138226084
 40
0.2335585887752618
 40
0.2400495528834492
 40
0.2470645197666238
 40
0.2520992145837954
 40
0.2566205526981688
 40
0.2620316982403438
 40
0.2671067381887965
 40
0.2720788171471245
 40
0.2775855329097039
 40
0.2830707345792992
 40
0.2862204590379124
 40
0.2890503257907353
 40
0.2925402541609964
 40
0.2964508785488814
 40
0.2996706255108326
 40
0.3023094723516753
 40
0.3054258296687359
 40
0.3091155351203666
 40
0.3126875950566244
 40
0.316414611990067
 40
0.3201631632193994
 40
0.3236646693585253
 40
0.3268456022618148
 40
0.3282776102249542
 40
0.3288019624392511
 40
0.3294608758333813
 40
0.3304919202431921
 40
0.3321314376221963
 40
0.3371019181621696
 40
0.3411014251056563
 40
0.3443764348315351
 40
0.3475750212627867
 40
0.3506883938899575
 40
0.3537359424004305
 40
0.356590185379754
 40
0.3596200353876183
 40
0.3633737910106147
 40
0.3674394086488947
 40
0.3712603468362207
 40
0.3743635552994947
 40
0.3770637601315103
 40
0.3796703416057581
 40
0.3825845298105614
 40
0.386159966264996
 40
0.3901389122611599
 40
0.3929124076118761
 40
0.3951244338319428
 40
0.397194550122919
 40
0.3992821484698375
 40
0.4016094653077864
 40
0.404266392886296
 40
0.4096451490628662
 40
0.4142369374003463
 40
0.4188144127443487
 40
0.4230243829135131
 40
0.4273113780034932
 40
0.4318665703756184
 40
0.4339833289722629
 40
0.4363401860453341
 40
0.4394727086735737
 40
0.4429948775074722
 40
0.4461839826412681
 40
0.4490296659638244
 40
0.4516157721424287
 40
0.4542215326243133
 40
0.4564991345161635
 40
0.4581317934967972
 40
0.4592125960024312
 40
0.4618990009551124
 40
0.4652334631521058
 40
0.4692177797814748
 40
0.4738536957013216
 40
0.4791430091253592
 40
0.4896902892104493
 40
0.5009446384434396
 40
0.5128987812606746
 40
0.5255522557457182
 40
0.5389045334851468
 40
0.5529550169032812
 40
0.567703036510655
 40
0.5782465419871797
 40
0.5891012144943832
 40
0.5997096129776905
 40
0.6098074315399833
 40
0.6193945288704011
 40
0.6284707967092252
 40
0.6370361588238265
 40
0.6450905701162666
 40
0.6550349512322359
 40
0.6640775068437342
 40
0.6723397165512865
 40
0.6800357493397782
 40
0.687390054543329
 40
0.694156971691178
 40
0.6996061669785958
 40
0.7053850064112291
 40
0.7107504730503095
 40
0.7162641939868494
 40
0.7221096047368175
 40
0.728187249045177
 40
0.734421005200345
 40
0.7453044732168899
 40
0.7567752253305383
 40
0.7688805014937775
 40
0.7816197122559796
 40
0.794992230562574
 40
0.808925892110825
 40
0.8423275019769908
 40
0.8762549340731045
 40
0.8855971426437492
 40
0.8941302807735608
 40
0.9018523690650643
 40
0.9087617371000388
 40
0.9148638436321443
 40
0.9201581227725342
 40
0.9245686828949158
 40
0.9280876001961573
 40
0.9293586519718385
 40
0.9312516895834118
 40
0.9338156727130188
 40
0.9366431017167001
 40
0.9396511014497443
 40
0.9427669710900232
 40
0.9459355239196032
 40
0.9492516760501859
 40
0.9528206979346037
 40
0.9563000527692973
 40
0.9584834818320744
 40
0.9604588250287505
 40
0.962268846036247
 40
0.9638202539815095
 40
0.9650755416881612
 40
0.9660387397927604
 40
0.9673351205170972
 40
0.9691701554745028
 40
0.9716567399137893
 40
0.9747913247527251
 40
0.9785694104581191
 40
0.9829856706683903
 40
0.9880340495354383
 40
0.9937078459933141
 40
1.0
 40
1.0
 40
1.0
 40
1.0
 10
-706.3426693535836
 20
142.781872891598
 30
0.0
 10
-706.1248821531707
 20
141.2981929869152
 30
0.0
 10
-705.7310455786711
 20
138.6151730013214
 30
0.0
 10
-705.1858029968699
 20
135.0184838404232
 30
0.0
 10
-704.7556584796455
 20
132.2300327440549
 30
0.0
 10
-704.4035940024039
 20
129.9807667896308
 30
0.0
 10
-704.0854778562913
 20
127.9719993510764
 30
0.0
 10
-703.7616112243958
 20
125.9506215109183
 30
0.0
 10
-703.425845685168
 20
123.8794573104656
 30
0.0
 10
-702.92690268141
 20
120.8382564705587
 30
0.0
 10
-702.2310828217686
 20
116.6802234451015
 30
0.0
 10
-701.3770704850743
 20
111.7198642905405
 30
0.0
 10
-700.6452925521016
 20
107.581394466175
 30
0.0
 10
-700.0529119759029
 20
104.2924097841627
 30
0.0
 10
-699.5294363531724
 20
101.4258874677478
 30
0.0
 10
-698.9369499070445
 20
98.23200713708971
 30
0.0
 10
-698.3380040737356
 20
95.05760587170728
 30
0.0
 10
-697.8071414369849
 20
92.28752927238862
 30
0.0
 10
-697.383241344464
 20
90.10190883891092
 30
0.0
 10
-696.9869725562656
 20
88.07737449394796
 30
0.0
 10
-696.523744979191
 20
85.73365108306427
 30
0.0
 10
-695.7279684844734
 20
81.75857590222027
 30
0.0
 10
-694.7217367894903
 20
76.8449834146138
 30
0.0
 10
-693.4484518479542
 20
70.79399640654141
 30
0.0
 10
-692.1306560269622
 20
64.69363356610539
 30
0.0
 10
-690.8026314438256
 20
58.72290613647305
 30
0.0
 10
-689.5622071287639
 20
53.28362398268386
 30
0.0
 10
-688.3985908936749
 20
48.2846681628363
 30
0.0
 10
-687.1197916866375
 20
42.90802356386117
 30
0.0
 10
-685.5942406696777
 20
36.64220718507302
 30
0.0
 10
-683.6914273602022
 20
29.03680507779635
 30
0.0
 10
-681.4492005326197
 20
20.37157518607344
 30
0.0
 10
-678.9778748909138
 20
11.15811508691739
 30
0.0
 10
-676.4171898315487
 20
1.93603434315634
 30
0.0
 10
-674.2048065551471
 20
-5.761252604005229
 30
0.0
 10
-672.453932666098
 20
-11.69968844259128
 30
0.0
 10
-671.160828915391
 20
-16.01975859184668
 30
0.0
 10
-669.8402010525973
 20
-20.36568719357851
 30
0.0
 10
-668.4512898225697
 20
-24.86272613575879
 30
0.0
 10
-666.9577651215619
 20
-29.62339233386416
 30
0.0
 10
-665.2880369641963
 20
-34.85667660781358
 30
0.0
 10
-663.3140369857371
 20
-40.92346031954646
 30
0.0
 10
-660.9506262185555
 20
-48.02972430495744
 30
0.0
 10
-658.5534536369476
 20
-55.05372569130379
 30
0.0
 10
-656.0568402169525
 20
-62.19686566071147
 30
0.0
 10
-653.5924774673845
 20
-69.09863821012135
 30
0.0
 10
-650.8868875701052
 20
-76.49280468182376
 30
0.0
 10
-648.2731823098879
 20
-83.46354811959219
 30
0.0
 10
-646.0114472604303
 20
-89.36985128795541
 30
0.0
 10
-644.1021236484713
 20
-94.27274884482078
 30
0.0
 10
-642.3531074000571
 20
-98.70127381701995
 30
0.0
 10
-640.5612822494497
 20
-103.1766469262144
 30
0.0
 10
-638.6263032114443
 20
-107.9397037940665
 30
0.0
 10
-636.6576525818256
 20
-112.7113822456995
 30
0.0
 10
-634.3102889031007
 20
-118.3169391042233
 30
0.0
 10
-631.4518430601537
 20
-125.0192351719442
 30
0.0
 10
-627.949620850031
 20
-133.0349025692019
 30
0.0
 10
-624.2676076463058
 20
-141.2473225197574
 30
0.0
 10
-620.4672381487726
 20
-149.5144107473558
 30
0.0
 10
-616.6560959112036
 20
-157.600282688428
 30
0.0
 10
-612.6521257036387
 20
-165.8861424517971
 30
0.0
 10
-608.9537785734161
 20
-173.3518724039207
 30
0.0
 10
-605.5904070188676
 20
-179.9936287965387
 30
0.0
 10
-602.5136247739853
 20
-185.9650257275567
 30
0.0
 10
-599.3863183297113
 20
-191.926770982081
 30
0.0
 10
-596.1192119990325
 20
-198.0389581089795
 30
0.0
 10
-592.7895703882338
 20
-204.157499551899
 30
0.0
 10
-589.3256656029341
 20
-210.4055948598782
 30
0.0
 10
-586.2118700887571
 20
-215.9142474237162
 30
0.0
 10
-583.6623229324493
 20
-220.3567408867684
 30
0.0
 10
-581.544798633015
 20
-224.0081062926032
 30
0.0
 10
-579.2374993536383
 20
-227.9431787223268
 30
0.0
 10
-576.8193367611038
 20
-232.0146220450561
 30
0.0
 10
-574.575888285107
 20
-235.7455082637593
 30
0.0
 10
-572.5026387226612
 20
-239.1586464287435
 30
0.0
 10
-570.3071134028406
 20
-242.7374805001784
 30
0.0
 10
-567.8746743403373
 20
-246.6564510241121
 30
0.0
 10
-565.2796957089956
 20
-250.7857015738474
 30
0.0
 10
-562.6475356942238
 20
-254.9223075830002
 30
0.0
 10
-560.0196442871545
 20
-259.0000759313661
 30
0.0
 10
-557.5347822697364
 20
-262.8089066783647
 30
0.0
 10
-555.6612383869797
 20
-265.6487696112456
 30
0.0
 10
-554.4066183629255
 20
-267.5370365769019
 30
0.0
 10
-553.7323856917537
 20
-268.5489387884199
 30
0.0
 10
-553.1572437623939
 20
-269.4106554519882
 30
0.0
 10
-552.3068648749198
 20
-270.6794627476253
 30
0.0
 10
-550.3103956691568
 20
-273.624319732786
 30
0.0
 10
-547.482068345571
 20
-277.6744678812599
 30
0.0
 10
-544.149997948679
 20
-282.2615151300828
 30
0.0
 10
-541.2657111542546
 20
-286.1097224566953
 30
0.0
 10
-538.5573777433073
 20
-289.624170794852
 30
0.0
 10
-535.8712074678438
 20
-293.0166562465512
 30
0.0
 10
-533.2411799960579
 20
-296.2522634768686
 30
0.0
 10
-530.5960834281057
 20
-299.4259210231492
 30
0.0
 10
-527.6999205074407
 20
-302.8154972920329
 30
0.0
 10
-524.3859580495309
 20
-306.5848780219185
 30
0.0
 10
-520.7646196837975
 20
-310.5710394763049
 30
0.0
 10
-517.2833133595758
 20
-314.2788268613631
 30
0.0
 10
-514.1878776448044
 20
-317.4818569402312
 30
0.0
 10
-511.4486287161965
 20
-320.2487951623253
 30
0.0
 10
-508.7402183088128
 20
-322.9250226020266
 30
0.0
 10
-505.7092019786881
 20
-325.8523215172354
 30
0.0
 10
-502.1746347904215
 20
-329.1755407934759
 30
0.0
 10
-498.6361730329898
 20
-332.4001691908117
 30
0.0
 10
-495.5244422760514
 20
-335.1578820303978
 30
0.0
 10
-493.0534986259404
 20
-337.3030367610352
 30
0.0
 10
-490.8049645291715
 20
-339.2208199004657
 30
0.0
 10
-488.4991143832113
 20
-341.1539437734012
 30
0.0
 10
-485.9630965490622
 20
-343.2413379013902
 30
0.0
 10
-482.2265482198775
 20
-346.2543680529393
 30
0.0
 10
-477.6030983486683
 20
-349.857036791046
 30
0.0
 10
-472.4059646581089
 20
-353.748558051328
 30
0.0
 10
-467.7637499565983
 20
-357.1382636042899
 30
0.0
 10
-463.1931264124162
 20
-360.3950266309295
 30
0.0
 10
-458.5949656696726
 20
-363.5981682022896
 30
0.0
 10
-454.7198284696605
 20
-366.237446266296
 30
0.0
 10
-451.444044250299
 20
-368.4319033514655
 30
0.0
 10
-448.6687636844059
 20
-370.2705745073422
 30
0.0
 10
-445.3771312480933
 20
-372.4227051651661
 30
0.0
 10
-441.7611745537961
 20
-374.7504460732852
 30
0.0
 10
-438.2333913699628
 20
-376.9872114842934
 30
0.0
 10
-435.0429539240063
 20
-378.9835285820346
 30
0.0
 10
-432.0517938155416
 20
-380.8336503453504
 30
0.0
 10
-429.2468279118803
 20
-382.5498843736701
 30
0.0
 10
-426.8018970649416
 20
-384.0310677471586
 30
0.0
 10
-424.9398886309265
 20
-385.1503311441816
 30
0.0
 10
-423.0265924153967
 20
-386.294468206817
 30
0.0
 10
-420.5688395130597
 20
-387.7506666327621
 30
0.0
 10
-417.1567370878971
 20
-389.7730533962622
 30
0.0
 10
-413.1347523039697
 20
-392.1567905550414
 30
0.0
 10
-408.4983284985182
 20
-394.905568220506
 30
0.0
 10
-401.7287879559919
 20
-398.9169436782773
 30
0.0
 10
-392.8074514150439
 20
-404.200314602721
 30
0.0
 10
-381.6662461478462
 20
-410.7922682773315
 30
0.0
 10
-369.8272977284091
 20
-417.7898509286982
 30
0.0
 10
-357.2861784544823
 20
-425.1938013034743
 30
0.0
 10
-344.0444144970703
 20
-433.0011016790189
 30
0.0
 10
-330.101086339005
 20
-441.2098802402557
 30
0.0
 10
-317.0784296816393
 20
-448.8639380165015
 30
0.0
 10
-305.106741881357
 20
-455.8893916592413
 30
0.0
 10
-294.5016005213116
 20
-462.1043927633826
 30
0.0
 10
-284.0371624854126
 20
-468.2281615600763
 30
0.0
 10
-273.9853178806642
 20
-474.1020299210287
 30
0.0
 10
-264.4343965413078
 20
-479.6752694000565
 30
0.0
 10
-255.3849002155552
 20
-484.9485762782764
 30
0.0
 10
-246.8373558958352
 20
-489.9226176599897
 30
0.0
 10
-237.9928005142593
 20
-495.0627810601333
 30
0.0
 10
-228.9790918840801
 20
-500.2933522015668
 30
0.0
 10
-219.8822155416561
 20
-505.5645874740304
 30
0.0
 10
-211.5229711700999
 20
-510.3983515798083
 30
0.0
 10
-203.7136203618915
 20
-514.916474721703
 30
0.0
 10
-196.4128848856597
 20
-519.1056624277913
 30
0.0
 10
-189.712390744497
 20
-522.8973335730069
 30
0.0
 10
-183.9498285952426
 20
-526.166021882899
 30
0.0
 10
-178.7389097433994
 20
-529.1685193563957
 30
0.0
 10
-173.357267759681
 20
-532.3544573289183
 30
0.0
 10
-167.7560716382339
 20
-535.6054319598729
 30
0.0
 10
-161.8108993197501
 20
-539.0145274025244
 30
0.0
 10
-155.6800389079914
 20
-542.5275641208323
 30
0.0
 10
-147.8695822807274
 20
-546.9981052563146
 30
0.0
 10
-138.3131600203452
 20
-552.4608455083029
 30
0.0
 10
-126.7965460823887
 20
-559.0331836268896
 30
0.0
 10
-114.655611725137
 20
-565.9502048170926
 30
0.0
 10
-101.8763601771102
 20
-573.2185912306434
 30
0.0
 10
-88.48115295017755
 20
-580.8244423959803
 30
0.0
 10
-68.1738025715593
 20
-592.3357006037908
 30
0.0
 10
-40.79248174049319
 20
-607.8150343243216
 30
0.0
 10
-14.75713590241021
 20
-622.4813884520573
 30
0.0
 10
2.961856674167984
 20
-632.4455792854014
 30
0.0
 10
11.80801028840867
 20
-637.4103426252036
 30
0.0
 10
19.87513701688298
 20
-641.9555601300577
 30
0.0
 10
27.29019969684943
 20
-645.9985198400406
 30
0.0
 10
33.9977526145156
 20
-649.5639550636823
 30
0.0
 10
39.93776432005578
 20
-652.653697682445
 30
0.0
 10
45.02228678134368
 20
-655.2540182016987
 30
0.0
 10
48.64883274215826
 20
-657.0854027318983
 30
0.0
 10
51.35004471571394
 20
-658.4401148163327
 30
0.0
 10
53.69926282844248
 20
-659.6131158474858
 30
0.0
 10
56.697875632716
 20
-661.1020974555327
 30
0.0
 10
60.18005434309595
 20
-662.81979071875
 30
0.0
 10
63.90565147535576
 20
-664.65203552652
 30
0.0
 10
67.81706215187499
 20
-666.51786372777
 30
0.0
 10
71.8891753460843
 20
-668.4048323516818
 30
0.0
 10
76.2064404180089
 20
-670.3440813455011
 30
0.0
 10
80.5974834853859
 20
-672.2496509659964
 30
0.0
 10
84.51386831594928
 20
-673.8882855996372
 30
0.0
 10
87.83581611280697
 20
-675.2434132950311
 30
0.0
 10
90.44114989202173
 20
-676.2869028905542
 30
0.0
 10
92.68319055594029
 20
-677.1714111555833
 30
0.0
 10
94.62700049825942
 20
-677.9245757089074
 30
0.0
 10
96.23567072343667
 20
-678.5383894905442
 30
0.0
 10
97.75685215152622
 20
-679.1117532917931
 30
0.0
 10
99.55307680963915
 20
-679.78038742856
 30
0.0
 10
102.021510415784
 20
-680.6841377931579
 30
0.0
 10
105.3113942314159
 20
-681.861089773362
 30
0.0
 10
109.4743186433248
 20
-683.3056027235855
 30
0.0
 10
114.513889009528
 20
-684.9883931729491
 30
0.0
 10
120.4311207076565
 20
-686.874582388635
 30
0.0
 10
127.2256134023422
 20
-688.9200115895713
 30
0.0
 10
134.8918867546227
 20
-691.0913893384383
 30
0.0
 10
140.3045005152285
 20
-692.4775513676872
 30
0.0
 10
143.1506596616584
 20
-693.2064483317927
 30
0.0
  0
SPLINE
  5
C6
330
C0
100
AcDbEntity
  8
0
  6
Continuous
 62
     7
370
    25
100
AcDbSpline
210
0.0
220
0.0
230
1.0
 70
    11
 71
     3
 72
    89
 73
    85
 74
     0
 42
0.000000001
 43
0.00000001
 40
0.0
 40
0.0
 40
0.0
 40
0.0
 40
0.0092912373824026
 40
0.013936856073604
 40
0.0185824747648051
 40
0.0929123738240255
 40
0.0929123738240255
 40
0.0973575937425829
 40
0.0973575937425829
 40
0.1164611368433874
 40
0.1164611368433874
 40
0.1246115803238423
 40
0.1246115803238423
 40
0.1278934392747961
 40
0.1278934392747961
 40
0.1452749158826837
 40
0.1609740912289248
 40
0.1736787968712915
 40
0.1889467196373979
 40
0.1976374579413418
 40
0.2092978130915985
 40
0.2238187289706709
 40
0.2296489065457991
 40
0.2500000000008616
 40
0.2703510934542002
 40
0.276181271029329
 40
0.2907021869084008
 40
0.3023625420586581
 40
0.3110532803626014
 40
0.3263212031287085
 40
0.3390259087710744
 40
0.3547250841173162
 40
0.3721065607252032
 40
0.3721065607252032
 40
0.3753884196761575
 40
0.3753884196761575
 40
0.3835388631566118
 40
0.3835388631566118
 40
0.402642406257417
 40
0.402642406257417
 40
0.4070876261759744
 40
0.4070876261759744
 40
0.4999999999999998
 40
0.5929123738240252
 40
0.5929123738240252
 40
0.5973575937425828
 40
0.5973575937425828
 40
0.6164611368433874
 40
0.6164611368433874
 40
0.6246115803238425
 40
0.6246115803238425
 40
0.6278934392747961
 40
0.6278934392747961
 40
0.6452749158826834
 40
0.660974091228925
 40
0.6736787968712914
 40
0.6889467196373982
 40
0.6976374579413416
 40
0.7092978130915988
 40
0.7238187289706707
 40
0.7296489065457994
 40
0.7500000000008614
 40
0.7703510934542006
 40
0.7761812710293289
 40
0.7907021869084012
 40
0.802362542058658
 40
0.8110532803626018
 40
0.8263212031287084
 40
0.839025908771075
 40
0.8547250841173162
 40
0.8721065607252039
 40
0.8721065607252039
 40
0.8753884196761577
 40
0.8753884196761577
 40
0.8835388631566126
 40
0.8835388631566126
 40
0.902642406257417
 40
0.902642406257417
 40
0.9070876261759744
 40
0.9070876261759744
 40
0.9814175252351949
 40
0.9860631439263962
 40
0.9907087626175974
 40
1.0
 40
1.0
 40
1.0
 40
1.0
 10
-299.8142622212428
 20
-173.8943580363185
 30
0.0
 10
-309.9484724201039
 20
-168.0440030168406
 30
0.0
 10
-324.090608043835
 20
-159.8799218986134
 30
0.0
 10
-342.9467888754763
 20
-148.9944804076439
 30
0.0
 10
-427.7996026178619
 20
-100.0099936982811
 30
0.0
 10
-507.9383711523364
 20
-53.74686736166004
 30
0.0
 10
-587.8737891889243
 20
-7.6011327687181
 30
0.0
 10
-592.272635470046
 20
-4.944317468890514
 30
0.0
 10
-614.9737232740692
 20
9.39617977089105
 30
0.0
 10
-631.2908126832996
 20
21.95665441518479
 30
0.0
 10
-651.3725169495667
 20
40.89783381009573
 30
0.0
 10
-656.9701318713956
 20
46.69206498273685
 30
0.0
 10
-664.234126239172
 20
54.98277421645029
 30
0.0
 10
-666.2514780398716
 20
57.38171020559382
 30
0.0
 10
-678.521077907004
 20
72.6000957982564
 30
0.0
 10
-694.5000896545732
 20
97.93148108799929
 30
0.0
 10
-706.4327388399423
 20
134.9423276878539
 30
0.0
 10
-709.053194813179
 20
170.889089022839
 30
0.0
 10
-703.824475129623
 20
200.9591082191794
 30
0.0
 10
-692.8737209133706
 20
229.4268196378421
 30
0.0
 10
-677.4055185664996
 20
256.3671958730406
 30
0.0
 10
-657.7337256168141
 20
279.815259157211
 30
0.0
 10
-627.4770782671144
 20
308.13560690882
 30
0.0
 10
-585.4947833484474
 20
337.9989439172462
 30
0.0
 10
-533.764361267332
 20
362.2348068989444
 30
0.0
 10
-484.7067645807551
 20
379.7015976228315
 30
0.0
 10
-444.0891266278171
 20
391.0578819673761
 30
0.0
 10
-397.4219697297918
 20
399.9874851102771
 30
0.0
 10
-348.1091040257585
 20
406.3092209573888
 30
0.0
 10
-296.0206591016371
 20
409.3276965806453
 30
0.0
 10
-233.7522951949773
 20
407.8149395472345
 30
0.0
 10
-169.6406818260617
 20
400.9263677998933
 30
0.0
 10
-125.7606809886471
 20
391.7018806667512
 30
0.0
 10
-99.39880756909386
 20
384.6187914312493
 30
0.0
 10
-95.2432782915394
 20
383.4541990257516
 30
0.0
 10
-80.88179257108014
 20
379.2607843365757
 30
0.0
 10
-70.84480226046297
 20
376.0293500252172
 30
0.0
 10
-38.03416209200539
 20
364.4364289145657
 30
0.0
 10
-16.27642434470805
 20
355.0167737016154
 30
0.0
 10
8.564737071969974
 20
341.9117146613773
 30
0.0
 10
13.16697481964246
 20
339.3723147559326
 30
0.0
 10
111.9585736878712
 20
282.3411386720205
 30
0.0
 10
300.5203820042831
 20
173.4867237623253
 30
0.0
 10
489.0821903206967
 20
64.63230885263091
 30
0.0
 10
587.8737891889245
 20
7.601132768717878
 30
0.0
 10
592.2726354700465
 20
4.944317468890152
 30
0.0
 10
614.9737232740706
 20
-9.396179770891605
 30
0.0
 10
631.2908126833016
 20
-21.95665441518546
 30
0.0
 10
651.3725169495672
 20
-40.89783381009668
 30
0.0
 10
656.9701318713963
 20
-46.69206498273798
 30
0.0
 10
664.2341262391731
 20
-54.98277421645126
 30
0.0
 10
666.2514780398725
 20
-57.38171020559466
 30
0.0
 10
678.5210779070044
 20
-72.60009579825696
 30
0.0
 10
694.5000896545735
 20
-97.93148108799987
 30
0.0
 10
706.432738839943
 20
-134.9423276878546
 30
0.0
 10
709.0531948131791
 20
-170.88908902284
 30
0.0
 10
703.8244751296236
 20
-200.9591082191801
 30
0.0
 10
692.8737209133706
 20
-229.4268196378428
 30
0.0
 10
677.4055185664998
 20
-256.3671958730409
 30
0.0
 10
657.7337256168139
 20
-279.8152591572115
 30
0.0
 10
627.4770782671143
 20
-308.1356069088204
 30
0.0
 10
585.4947833484466
 20
-337.9989439172468
 30
0.0
 10
533.7643612673319
 20
-362.2348068989448
 30
0.0
 10
484.7067645807549
 20
-379.7015976228321
 30
0.0
 10
444.0891266278173
 20
-391.0578819673764
 30
0.0
 10
397.421969729791
 20
-399.9874851102775
 30
0.0
 10
348.1091040257578
 20
-406.3092209573888
 30
0.0
 10
296.0206591016357
 20
-409.3276965806453
 30
0.0
 10
233.7522951949771
 20
-407.8149395472347
 30
0.0
 10
169.6406818260601
 20
-400.9263677998931
 30
0.0
 10
125.7606809886455
 20
-391.7018806667509
 30
0.0
 10
99.39880756909214
 20
-384.6187914312489
 30
0.0
 10
95.24327829153833
 20
-383.4541990257513
 30
0.0
 10
80.88179257107886
 20
-379.2607843365753
 30
0.0
 10
70.84480226046097
 20
-376.0293500252161
 30
0.0
 10
38.03416209200394
 20
-364.4364289145666
 30
0.0
 10
16.27642434470755
 20
-355.0167737016152
 30
0.0
 10
-8.564737071969642
 20
-341.9117146613775
 30
0.0
 10
-13.16697481964207
 20
-339.3723147559327
 30
0.0
 10
-93.10239285623015
 20
-293.2265801629892
 30
0.0
 10
-173.2411613907051
 20
-246.9634538263693
 30
0.0
 10
-258.0939751330905
 20
-197.9789671170066
 30
0.0
 10
-273.1082404411994
 20
-188.9519777434472
 30
0.0
 10
-289.6800520223817
 20
-179.7447130557964
 30
0.0
 10
-299.8142622212428
 20
-173.8943580363185
 30
0.0
  0
SPLINE
  5
C7
330
C0
100
AcDbEntity
  8
0
  6
Continuous
 62
     7
370
    25
100
AcDbSpline
210
0.0
220
0.0
230
1.0
 70
    11
 71
     3
 72
    89
 73
    85
 74
     0
 42
0.000000001
 43
0.00000001
 40
0.0
 40
0.0
 40
0.0
 40
0.0
 40
0.0092912373824026
 40
0.013936856073604
 40
0.0185824747648051
 40
0.0929123738240255
 40
0.0929123738240255
 40
0.0973575937425829
 40
0.0973575937425829
 40
0.1164611368433874
 40
0.1164611368433874
 40
0.1246115803238423
 40
0.1246115803238423
 40
0.1278934392747961
 40
0.1278934392747961
 40
0.1452749158826837
 40
0.1609740912289248
 40
0.1736787968712915
 40
0.1889467196373979
 40
0.1976374579413418
 40
0.2092978130915985
 40
0.2238187289706709
 40
0.2296489065457991
 40
0.2500000000008616
 40
0.2703510934542002
 40
0.276181271029329
 40
0.2907021869084008
 40
0.3023625420586581
 40
0.3110532803626014
 40
0.3263212031287085
 40
0.3390259087710744
 40
0.3547250841173162
 40
0.3721065607252032
 40
0.3721065607252032
 40
0.3753884196761575
 40
0.3753884196761575
 40
0.3835388631566118
 40
0.3835388631566118
 40
0.402642406257417
 40
0.402642406257417
 40
0.4070876261759744
 40
0.4070876261759744
 40
0.4999999999999998
 40
0.5929123738240252
 40
0.5929123738240252
 40
0.5973575937425828
 40
0.5973575937425828
 40
0.6164611368433874
 40
0.6164611368433874
 40
0.6246115803238425
 40
0.6246115803238425
 40
0.6278934392747961
 40
0.6278934392747961
 40
0.6452749158826834
 40
0.660974091228925
 40
0.6736787968712914
 40
0.6889467196373982
 40
0.6976374579413416
 40
0.7092978130915988
 40
0.7238187289706707
 40
0.7296489065457994
 40
0.7500000000008614
 40
0.7703510934542006
 40
0.7761812710293289
 40
0.7907021869084012
 40
0.802362542058658
 40
0.8110532803626018
 40
0.8263212031287084
 40
0.839025908771075
 40
0.8547250841173162
 40
0.8721065607252039
 40
0.8721065607252039
 40
0.8753884196761577
 40
0.8753884196761577
 40
0.8835388631566126
 40
0.8835388631566126
 40
0.902642406257417
 40
0.902642406257417
 40
0.9070876261759744
 40
0.9070876261759744
 40
0.9814175252351949
 40
0.9860631439263962
 40
0.9907087626175974
 40
1.0
 40
1.0
 40
1.0
 40
1.0
 10
-278.5640705269141
 20
-161.6388419829497
 30
0.0
 10
-288.2889063404056
 20
-156.0248137670689
 30
0.0
 10
-301.8157720297081
 20
-148.232492490215
 30
0.0
 10
-319.8804556138928
 20
-137.8579904886484
 30
0.0
 10
-401.2584301414669
 20
-91.21649783062566
 30
0.0
 10
-478.8154989680253
 20
-47.50138779396227
 30
0.0
 10
-556.8704363882945
 20
-3.969172929218001
 30
0.0
 10
-561.17271659244
 20
-1.463487759535614
 30
0.0
 10
-583.4134641413156
 20
12.05820425695386
 30
0.0
 10
-599.5356900047673
 20
23.89103394525283
 30
0.0
 10
-619.6078873766488
 20
41.72838261396952
 30
0.0
 10
-625.2369174542125
 20
47.18415862192219
 30
0.0
 10
-632.5940707560466
 20
54.99002966201025
 30
0.0
 10
-634.6438403763295
 20
57.24861312540888
 30
0.0
 10
-647.1535845859536
 20
71.57638253192857
 30
0.0
 10
-663.6068258596524
 20
95.52517914634942
 30
0.0
 10
-676.4225581199746
 20
130.7206273127749
 30
0.0
 10
-680.065893453066
 20
165.0494510611549
 30
0.0
 10
-675.8351134173281
 20
193.8676705410556
 30
0.0
 10
-665.927118703187
 20
221.2013535732427
 30
0.0
 10
-651.5439285071071
 20
247.0967916543141
 30
0.0
 10
-632.9541493321868
 20
269.6381414971252
 30
0.0
 10
-604.1622550749784
 20
296.8595096339935
 30
0.0
 10
-563.9733115012402
 20
325.5587126171465
 30
0.0
 10
-514.2590261057587
 20
348.7595389947427
 30
0.0
 10
-467.1043591823195
 20
365.3811874026005
 30
0.0
 10
-428.0565344648054
 20
376.1133180409439
 30
0.0
 10
-383.1982809562894
 20
384.4172374567416
 30
0.0
 10
-335.8484316157122
 20
390.1378042178524
 30
0.0
 10
-285.926770476094
 20
392.5811236079196
 30
0.0
 10
-226.4589049823689
 20
390.4791151542215
 30
0.0
 10
-165.4895685711448
 20
383.0821509567437
 30
0.0
 10
-124.0027092417501
 20
373.58495443492
 30
0.0
 10
-99.18244754957412
 20
366.363895500492
 30
0.0
 10
-95.26985989133519
 20
365.1806940002563
 30
0.0
 10
-81.74759411829908
 20
360.9338666334191
 30
0.0
 10
-72.2964359428973
 20
357.6845582103659
 30
0.0
 10
-41.39638606094931
 20
346.0979957439865
 30
0.0
 10
-20.89805712504078
 20
336.791436586236
 30
0.0
 10
2.525983266071619
 20
323.9528449873687
 30
0.0
 10
6.866660637450894
 20
321.4693260305094
 30
0.0
 10
100.0681321638611
 20
265.7827264029162
 30
0.0
 10
278.325527604537
 20
160.676109393319
 30
0.0
 10
460.4029097685141
 20
57.76588705461519
 30
0.0
 10
556.8704363882948
 20
3.958904688809911
 30
0.0
 10
561.1727165924409
 20
1.452950441240775
 30
0.0
 10
583.4134641413174
 20
-12.07017891264583
 30
0.0
 10
599.5356900047699
 20
-23.90421605032606
 30
0.0
 10
619.60788737665
 20
-41.74330558097522
 30
0.0
 10
625.2369174542137
 20
-47.19960453229793
 30
0.0
 10
632.5940707560478
 20
-55.00620923287042
 30
0.0
 10
634.6438403763306
 20
-57.26500332458981
 30
0.0
 10
647.1535845859546
 20
-71.59409808935635
 30
0.0
 10
663.6068258596532
 20
-95.5450096827058
 30
0.0
 10
676.4225581199761
 20
-130.7432589647094
 30
0.0
 10
680.0658934530668
 20
-165.0745712433025
 30
0.0
 10
675.8351134173292
 20
-193.8946748490072
 30
0.0
 10
665.9271187031877
 20
-221.229964203657
 30
0.0
 10
651.5439285071083
 20
-247.1267631947572
 30
0.0
 10
632.9541493321875
 20
-269.6690721381287
 30
0.0
 10
604.1622550749793
 20
-296.8913235659725
 30
0.0
 10
563.9733115012403
 20
-325.5910127306755
 30
0.0
 10
514.2590261057594
 20
-348.7913529267216
 30
0.0
 10
467.1043591823204
 20
-365.4121180436043
 30
0.0
 10
428.0565344648069
 20
-376.1432895813872
 30
0.0
 10
383.1982809562896
 20
-384.4458480871558
 30
0.0
 10
335.8484316157123
 20
-390.1648085258037
 30
0.0
 10
285.9267704760932
 20
-392.6062437900665
 30
0.0
 10
226.4589049823697
 20
-390.5017468061557
 30
0.0
 10
165.4895685711441
 20
-383.1019814930996
 30
0.0
 10
124.0027092417494
 20
-373.6026699923474
 30
0.0
 10
99.18244754957351
 20
-366.3802856996723
 30
0.0
 10
95.26985989133502
 20
-365.1968735711158
 30
0.0
 10
81.74759411829874
 20
-360.9493125437938
 30
0.0
 10
72.29643594289631
 20
-357.6994811773701
 30
0.0
 10
41.39638606094864
 20
-346.1111778490603
 30
0.0
 10
20.89805712504106
 20
-336.8034112419276
 30
0.0
 10
-2.525983266070619
 20
-323.9633823056637
 30
0.0
 10
-6.866660637449784
 20
-321.4795942709179
 30
0.0
 10
-82.27892922544946
 20
-276.4170768989678
 30
0.0
 10
-158.0073562114235
 20
-231.6423537620913
 30
0.0
 10
-238.8026775961495
 20
-184.6631954615041
 30
0.0
 10
-252.8879513702801
 20
-176.1273487815044
 30
0.0
 10
-268.8392347134227
 20
-167.2528701988304
 30
0.0
 10
-278.5640705269141
 20
-161.6388419829497
 30
0.0
  0
SPLINE
  5
C8
330
C0
100
AcDbEntity
  8
0
  6
Continuous
 62
     7
370
    25
100
AcDbSpline
210
0.0
220
0.0
230
1.0
 70
     8
 71
     3
 72
    22
 73
    18
 74
     0
 42
0.000000001
 43
0.00000001
 40
0.0
 40
0.0
 40
0.0
 40
0.0
 40
0.0411008630573129
 40
0.1122829203776121
 40
0.1833437176074008
 40
0.2503953094940158
 40
0.3176276491353238
 40
0.3850667068707312
 40
0.4526991925213993
 40
0.5204513891023028
 40
0.5923526306612991
 40
0.6642340114775291
 40
0.7360277513515112
 40
0.8076598923454793
 40
0.8790502935710188
 40
0.9502165606100019
 40
1.0
 40
1.0
 40
1.0
 40
1.0
 10
368.3327460275711
 20
-683.9199922886489
 30
0.0
 10
365.5978878312083
 20
-684.900992756985
 30
0.0
 10
358.1265638184239
 20
-687.5809753481769
 30
0.0
 10
345.2900631102921
 20
-691.3231229830112
 30
0.0
 10
330.2536195710264
 20
-695.1012124659162
 30
0.0
 10
315.0824514519392
 20
-698.2046220342944
 30
0.0
 10
299.8744620126041
 20
-700.6967288726504
 30
0.0
 10
284.3744585928777
 20
-702.6230672520915
 30
0.0
 10
268.65251270809
 20
-703.9759654287701
 30
0.0
 10
252.4630758251319
 20
-704.755568612303
 30
0.0
 10
235.8849303599238
 20
-704.9069778524331
 30
0.0
 10
219.0115243011772
 20
-704.3921070716536
 30
0.0
 10
202.2615122027163
 20
-703.2078110048994
 30
0.0
 10
185.7254095508394
 20
-701.3728685812014
 30
0.0
 10
169.5081691488483
 20
-698.8769628042106
 30
0.0
 10
155.1945974212846
 20
-696.1303784747088
 30
0.0
 10
146.4880909146012
 20
-693.9721890008987
 30
0.0
 10
142.9044539486975
 20
-693.0838685738902
 30
0.0
  0
VIEWPORT
  5
EA
330
C0
100
AcDbEntity
  8
0
100
AcDbViewport
 10
0.0
 20
0.0
 30
0.0
 40
205.6
 41
156.0
 68
     1
 69
     1
 12
0.0
 22
0.0
 13
0.0
 23
0.0
 14
10.0
 24
10.0
 15
10.0
 25
10.0
 16
0.0
 26
0.0
 36
1.0
 17
0.0
 27
0.0
 37
0.0
 42
50.0
 43
0.0
 44
0.0
 45
1276.9844357977
 50
0.0
 51
0.0
 72
   100
 90
   557152
  1

281
     0
 71
     1
 74
     0
110
0.0
120
0.0
130
0.0
111
1.0
121
0.0
131
0.0
112
0.0
122
1.0
132
0.0
 79
     0
146
0.0
  0
ENDBLK
  5
C3
330
C0
100
AcDbEntity
  8
0
100
AcDbBlockEnd
  0
BLOCK
  5
CB
330
C9
100
AcDbEntity
  8
0
100
AcDbBlockBegin
  2
*Paper_Space6
 70
     0
 10
0.0
 20
0.0
 30
0.0
  3
*Paper_Space6
  1

  0
SPLINE
  5
CD
330
C9
100
AcDbEntity
  8
0
  6
Continuous
 62
     7
370
    25
100
AcDbSpline
210
0.0
220
0.0
230
1.0
 70
     8
 71
     3
 72
    61
 73
    57
 74
     0
 42
0.000000001
 43
0.00000001
 40
0.0
 40
0.0
 40
0.0
 40
0.0
 40
0.0148102712812422
 40
0.0276822450196397
 40
0.0385854078411834
 40
0.0478193703543479
 40
0.0567185202547741
 40
0.0736770133722198
 40
0.0902253026455313
 40
0.1100363891458457
 40
0.129427281143377
 40
0.1478213817736094
 40
0.1722027644524358
 40
0.1977430134821046
 40
0.2244795986949664
 40
0.2526476247028308
 40
0.2829080034625642
 40
0.3147014671777565
 40
0.3480315646705564
 40
0.3829212072835642
 40
0.4193744457719069
 40
0.4573922065679873
 40
0.4978220032246726
 40
0.5104104992517852
 40
0.5222781236826272
 40
0.533012669838221
 40
0.5423728945407341
 40
0.5502579761651718
 40
0.5566299889836376
 40
0.562030545642585
 40
0.566784560818564
 40
0.5710458770980358
 40
0.57548513645977
 40
0.5790798596292385
 40
0.581712067480176
 40
0.5833249878231813
 40
0.5849378264101196
 40
0.5875749836181307
 40
0.5927448173939869
 40
0.5997765264234685
 40
0.6086567887732374
 40
0.6193859292893397
 40
0.6319642743755869
 40
0.6463923159376669
 40
0.6626707859537925
 40
0.6808006914961925
 40
0.6986187704717243
 40
0.7179253896418119
 40
0.7380736009082303
 40
0.7582830888128869
 40
0.7785412630554648
 40
0.8184312321605199
 40
0.8583755478578121
 40
0.9058680412901955
 40
0.9531359591605078
 40
1.0
 40
1.0
 40
1.0
 40
1.0
 10
-376.7706524959112
 20
-486.0037755287578
 30
0.0
 10
-374.444752638994
 20
-486.6368033310786
 30
0.0
 10
-370.0973555854454
 20
-487.8200112815154
 30
0.0
 10
-363.8761248702721
 20
-489.5150973503498
 30
0.0
 10
-358.4226126043013
 20
-491.00258588681
 30
0.0
 10
-353.4434877449256
 20
-492.3627301283331
 30
0.0
 10
-347.4588665324532
 20
-493.9981690296897
 30
0.0
 10
-340.236806024492
 20
-495.9732499013923
 30
0.0
 10
-331.1933524596586
 20
-498.4486679157071
 30
0.0
 10
-321.8089513631152
 20
-501.0198550857595
 30
0.0
 10
-312.1178201487401
 20
-503.677013672369
 30
0.0
 10
-301.5730838442931
 20
-506.569674660669
 30
0.0
 10
-289.9169784038284
 20
-509.7686121581045
 30
0.0
 10
-276.7866610006822
 20
-513.3731155427827
 30
0.0
 10
-262.9502097400519
 20
-517.171611559938
 30
0.0
 10
-248.2782400637965
 20
-521.1987758226016
 30
0.0
 10
-232.7081785489395
 20
-525.4706996080578
 30
0.0
 10
-216.222374069893
 20
-529.9908479820274
 30
0.0
 10
-198.9119582319021
 20
-534.7326768052977
 30
0.0
 10
-180.7743974207497
 20
-539.6949458092057
 30
0.0
 10
-161.8046872054598
 20
-544.877407744766
 30
0.0
 10
-141.8521095190703
 20
-550.3167949424537
 30
0.0
 10
-126.0342744609475
 20
-554.6243432219773
 30
0.0
 10
-114.7294790853821
 20
-557.6893991426073
 30
0.0
 10
-108.5709589644347
 20
-559.3309507913724
 30
0.0
 10
-102.9714171328053
 20
-560.8201398334476
 30
0.0
 10
-98.07032495855648
 20
-562.128405225339
 30
0.0
 10
-93.9393259165492
 20
-563.242715301002
 30
0.0
 10
-90.51145300041351
 20
-564.1855128621647
 30
0.0
 10
-87.63127207202571
 20
-564.9873653513356
 30
0.0
 10
-85.11240961185962
 20
-565.689565454731
 30
0.0
 10
-82.74993729157168
 20
-566.3444935632258
 30
0.0
 10
-80.57801559977636
 20
-566.9410467434054
 30
0.0
 10
-78.67575871497881
 20
-567.4607854482598
 30
0.0
 10
-77.26828468300288
 20
-567.8441600831392
 30
0.0
 10
-76.18037013694072
 20
-568.1405953251762
 30
0.0
 10
-75.08854587489903
 20
-568.4376592729036
 30
0.0
 10
-73.38648557038485
 20
-568.8992605429069
 30
0.0
 10
-70.72334356227064
 20
-569.6201721794318
 30
0.0
 10
-66.97050139567031
 20
-570.6352850057374
 30
0.0
 10
-62.24612289593422
 20
-571.9126297070143
 30
0.0
 10
-56.55562609688915
 20
-573.4503738227677
 30
0.0
 10
-49.89822616405844
 20
-575.2484261728354
 30
0.0
 10
-42.2741349243769
 20
-577.3063173783077
 30
0.0
 10
-33.68278146114871
 20
-579.623748768563
 30
0.0
 10
-24.50453604708951
 20
-582.0976673164886
 30
0.0
 10
-14.79987824137878
 20
-584.7115396932071
 30
0.0
 10
-4.753051775836681
 20
-587.4153589957805
 30
0.0
 10
5.733144013202879
 20
-590.2356896189341
 30
0.0
 10
16.447827738753
 20
-593.1173749210108
 30
0.0
 10
30.71588827684552
 20
-596.9550928771539
 30
0.0
 10
48.60922180043624
 20
-601.7700449529372
 30
0.0
 10
71.55831590482896
 20
-607.9518480812869
 30
0.0
 10
96.04698802261561
 20
-614.5587109269688
 30
0.0
 10
121.9987676967915
 20
-621.572459909082
 30
0.0
 10
139.4167711637259
 20
-626.2970579389721
 30
0.0
 10
148.0884065679492
 20
-628.6492214130749
 30
0.0
  0
SPLINE
  5
CE
330
C9
100
AcDbEntity
  8
0
  6
Continuous
 62
     7
370
    25
100
AcDbSpline
210
0.0
220
0.0
230
1.0
 70
     8
 71
     3
 72
    81
 73
    77
 74
     0
 42
0.000000001
 43
0.00000001
 40
0.0
 40
0.0
 40
0.0
 40
0.0
 40
0.0070689089615729
 40
0.0126801841457484
 40
0.0175170148440247
 40
0.0222416726764634
 40
0.026430487386811
 40
0.0310584445596982
 40
0.0359412038104992
 40
0.0420716468076087
 40
0.0496388655098684
 40
0.055816422819704
 40
0.0610354008563211
 40
0.0659335197752544
 40
0.0713415464198116
 40
0.0792435584462307
 40
0.0875177947746644
 40
0.0944992625969018
 40
0.1004563194449329
 40
0.1066585770873427
 40
0.1139942073475107
 40
0.1219446483461925
 40
0.129301001715266
 40
0.1421603818349143
 40
0.1570539299882441
 40
0.1755678574617371
 40
0.1877563093254641
 40
0.2038162954539996
 40
0.220169380741859
 40
0.2335577720696761
 40
0.2512957798322845
 40
0.2599409648688334
 40
0.2682118697010178
 40
0.2792406967981585
 40
0.2911595560944858
 40
0.2997645996607358
 40
0.3089889269969349
 40
0.3191830571476004
 40
0.3266748041750255
 40
0.3337935307266021
 40
0.3429899234477237
 40
0.3522004652496819
 40
0.360261461562667
 40
0.3686493663618335
 40
0.3871598116791913
 40
0.4060307474847433
 40
0.4232116572092106
 40
0.4407807172521333
 40
0.4565118537769043
 40
0.4737438328450935
 40
0.490320164160604
 40
0.5375233714147029
 40
0.5830272585658972
 40
0.6312954956144057
 40
0.6767706537994443
 40
0.7228922250206402
 40
0.7672302944263311
 40
0.7844353957613043
 40
0.8031855619069432
 40
0.8217532336529013
 40
0.8398945258512533
 40
0.8510512284551679
 40
0.8612091662321028
 40
0.8702353254386409
 40
0.8794603753786868
 40
0.8896218609318103
 40
0.9033886224124198
 40
0.9181354059742604
 40
0.9328887340261064
 40
0.9471857625784635
 40
0.954317189552012
 40
0.9611981661634893
 40
0.9686597916422425
 40
0.977614728595858
 40
0.9880620527580932
 40
1.0
 40
1.0
 40
1.0
 40
1.0
 10
468.7100620757582
 20
-619.3013926647002
 30
0.0
 10
470.0596255423288
 20
-618.6402120158305
 30
0.0
 10
472.4804677635991
 20
-617.4541884827999
 30
0.0
 10
475.8326496610399
 20
-615.7543294460656
 30
0.0
 10
478.713838147184
 20
-614.2640375506925
 30
0.0
 10
481.3191306484569
 20
-612.8891761668286
 30
0.0
 10
483.8723155452215
 20
-611.5175428286369
 30
0.0
 10
486.4456739205954
 20
-610.1105413094269
 30
0.0
 10
489.3708409761
 20
-608.4809741797989
 30
0.0
 10
492.8277556936623
 20
-606.5135325174147
 30
0.0
 10
496.5019208055886
 20
-604.36693380919
 30
0.0
 10
499.9840779748748
 20
-602.2792420508072
 30
0.0
 10
502.9592337434963
 20
-600.4574551108227
 30
0.0
 10
505.7793876412487
 20
-598.6983061180771
 30
0.0
 10
509.069307484566
 20
-596.6074945712658
 30
0.0
 10
512.942395313116
 20
-594.0867990693744
 30
0.0
 10
517.0617363359978
 20
-591.3284644696404
 30
0.0
 10
520.8050478260178
 20
-588.7547175060394
 30
0.0
 10
524.1578041501376
 20
-586.3977059788526
 30
0.0
 10
527.546597002746
 20
-583.9655902906004
 30
0.0
 10
531.2553865188896
 20
-581.2423199237041
 30
0.0
 10
535.1265172330061
 20
-578.3262222097012
 30
0.0
 10
539.8983322173042
 20
-574.639301415377
 30
0.0
 10
545.7733023523373
 20
-569.9466987095035
 30
0.0
 10
553.3735259096095
 20
-563.5961096573778
 30
0.0
 10
560.6967924516958
 20
-557.140214437674
 30
0.0
 10
568.0424146856942
 20
-550.338926852686
 30
0.0
 10
574.9003693508329
 20
-543.6963803351583
 30
0.0
 10
581.7648320528974
 20
-536.6948703329149
 30
0.0
 10
588.7073602683253
 20
-529.2712697066738
 30
0.0
 10
594.3662060033901
 20
-522.9123941877441
 30
0.0
 10
599.1811318318819
 20
-517.2665477418738
 30
0.0
 10
603.0025482402604
 20
-512.6605178740128
 30
0.0
 10
607.1843076128938
 20
-507.4586031861673
 30
0.0
 10
611.3137289781519
 20
-502.1218317244168
 30
0.0
 10
615.061939854694
 20
-497.1088458051435
 30
0.0
 10
618.4260942744904
 20
-492.5556520145894
 30
0.0
 10
621.5357787495437
 20
-488.2843616663673
 30
0.0
 10
624.3928822814644
 20
-484.3102759342061
 30
0.0
 10
627.1135228607169
 20
-480.4851995395468
 30
0.0
 10
630.0092155593419
 20
-476.3652803860333
 30
0.0
 10
632.9865605597415
 20
-472.0716129008112
 30
0.0
 10
635.8492957663381
 20
-467.8904470079356
 30
0.0
 10
639.7187988198148
 20
-462.1698183031141
 30
0.0
 10
644.7199988016966
 20
-454.6271050437316
 30
0.0
 10
650.5708458176503
 20
-445.5529056802175
 30
0.0
 10
656.2166601382881
 20
-436.5550416990289
 30
0.0
 10
661.4342646032359
 20
-428.0160945828624
 30
0.0
 10
666.5638945656161
 20
-419.40255974953
 30
0.0
 10
671.5013971562778
 20
-410.8953251609142
 30
0.0
 10
679.4158293807483
 20
-396.88924683215
 30
0.0
 10
689.6940853917438
 20
-377.7428896673789
 30
0.0
 10
702.1966028425245
 20
-352.5885846304457
 30
0.0
 10
713.7443380109298
 20
-327.3880815243963
 30
0.0
 10
724.5656291010796
 20
-301.6603624276272
 30
0.0
 10
734.309449968084
 20
-276.3472301201107
 30
0.0
 10
741.4271471358156
 20
-256.0559338293203
 30
0.0
 10
746.4258103517958
 20
-240.8179110791547
 30
0.0
 10
749.6994406294887
 20
-230.4227945081489
 30
0.0
 10
752.8989603707088
 20
-219.8079806074695
 30
0.0
 10
755.5499207869021
 20
-210.6114541806732
 30
0.0
 10
757.6625219151844
 20
-203.0080310204187
 30
0.0
 10
759.246538194844
 20
-197.1484369001124
 30
0.0
 10
760.6951518919717
 20
-191.6528771032595
 30
0.0
 10
762.1108345429135
 20
-186.1492448266588
 30
0.0
 10
763.7222315115501
 20
-179.7163823575862
 30
0.0
 10
765.5438329017212
 20
-172.1962382336018
 30
0.0
 10
767.5045925403476
 20
-163.7607463933299
 30
0.0
 10
769.4077414182278
 20
-155.2027434337901
 30
0.0
 10
770.9136199519983
 20
-148.1176967802679
 30
0.0
 10
772.0538362586888
 20
-142.5645473869307
 30
0.0
 10
772.899772741745
 20
-138.347843018877
 30
0.0
 10
773.7965190619631
 20
-133.7690196415626
 30
0.0
 10
774.8021212366516
 20
-128.4829652601657
 30
0.0
 10
775.9403838388262
 20
-122.3073418121898
 30
0.0
 10
776.7131508111322
 20
-117.8858965933147
 30
0.0
 10
777.1252633640302
 20
-115.5279631645449
 30
0.0
  0
SPLINE
  5
CF
330
C9
100
AcDbEntity
  8
0
  6
Continuous
 62
     7
370
    25
100
AcDbSpline
210
0.0
220
0.0
230
1.0
 70
     8
 71
     3
 72
   120
 73
   116
 74
     0
 42
0.000000001
 43
0.00000001
 40
0.0
 40
0.0
 40
0.0
 40
0.0
 40
0.0119402285236056
 40
0.0221381122527622
 40
0.0305897696291043
 40
0.037292100614804
 40
0.0422427197601853
 40
0.0457731111145559
 40
0.0492554087657849
 40
0.0528384863068573
 40
0.0586728006133968
 40
0.064935091775854
 40
0.072541991422238
 40
0.0816246443738685
 40
0.0922288941490825
 40
0.102006486790053
 40
0.1103372835594198
 40
0.1176792053410966
 40
0.1243180488713826
 40
0.130889868294997
 40
0.1384063255703632
 40
0.1495842340507422
 40
0.1593880451577588
 40
0.1689353356776259
 40
0.1789562953213744
 40
0.1903009337772523
 40
0.2025765431806577
 40
0.2167392213627599
 40
0.2304228885323714
 40
0.2435566833388851
 40
0.2556200416888023
 40
0.265163756076045
 40
0.2748759082078707
 40
0.2856256545704791
 40
0.2972478994858797
 40
0.309622197370282
 40
0.3212843711205938
 40
0.3319134133316182
 40
0.3435992233348276
 40
0.3661592336395241
 40
0.3837792133636227
 40
0.4029686041225836
 40
0.4246985270260817
 40
0.445195866188089
 40
0.4667530140858172
 40
0.4866422289732769
 40
0.5040175511517565
 40
0.5164696951436529
 40
0.529558420632862
 40
0.5432048742928304
 40
0.5514700953935555
 40
0.559760642585664
 40
0.5670482411004805
 40
0.573125282259225
 40
0.5812625835573527
 40
0.5917525322229517
 40
0.6035090529279162
 40
0.6146174298160567
 40
0.6252935223800211
 40
0.6428082558550078
 40
0.6611421699652963
 40
0.6686184212661871
 40
0.6761964360400019
 40
0.6827660260605314
 40
0.6879419299202456
 40
0.6925924480024188
 40
0.6997181288294959
 40
0.7083154643191352
 40
0.7153366898552747
 40
0.7212349371223363
 40
0.7254422773286034
 40
0.7301062632376496
 40
0.7360352267285107
 40
0.7427525951551358
 40
0.7489141641927659
 40
0.7566131746933621
 40
0.7630948639228775
 40
0.7696500566130106
 40
0.7774468321692874
 40
0.7868411081325379
 40
0.79446672312084
 40
0.8004355262729305
 40
0.8052360199137786
 40
0.8100178837374957
 40
0.814980972258743
 40
0.8222724252302602
 40
0.8307876321298886
 40
0.8405171229838837
 40
0.8496097863195097
 40
0.8573894145713465
 40
0.8638839779521448
 40
0.8703142755959515
 40
0.8757441840993884
 40
0.8817271108213759
 40
0.8887362776492589
 40
0.8964901032490289
 40
0.9038937251363806
 40
0.9103208786177122
 40
0.9165886747836358
 40
0.9228617855648571
 40
0.9305427548118789
 40
0.9397769274305584
 40
0.9456529386550486
 40
0.950225024861997
 40
0.9543670976171551
 40
0.9585168821747793
 40
0.9633506370513236
 40
0.9690048178575948
 40
0.9733216912088866
 40
0.977744202767773
 40
0.9813744500885659
 40
0.9841573091744171
 40
0.9875958777298534
 40
0.9928730982712584
 40
1.0
 40
1.0
 40
1.0
 40
1.0
 10
-777.2764005123918
 20
77.91534842423711
 30
0.0
 10
-776.8536909865422
 20
75.36344070526455
 30
0.0
 10
-776.0699546522609
 20
70.63200533703703
 30
0.0
 10
-774.9295980669029
 20
64.10165458865816
 30
0.0
 10
-773.9560954457221
 20
58.69335438829989
 30
0.0
 10
-773.163566933869
 20
54.40719936228014
 30
0.0
 10
-772.553500102759
 20
51.17174312889475
 30
0.0
 10
-772.0660616670218
 20
48.62298250334043
 30
0.0
 10
-771.6294561978693
 20
46.36619913530385
 30
0.0
 10
-771.0919192903172
 20
43.61948923185113
 30
0.0
 10
-770.4288318430185
 20
40.28215827740119
 30
0.0
 10
-769.5799214359283
 20
36.09059571800369
 30
0.0
 10
-768.5700939147225
 20
31.21076240011125
 30
0.0
 10
-767.3393634437591
 20
25.41247128604238
 30
0.0
 10
-765.9727464362946
 20
19.15928695781513
 30
0.0
 10
-764.6028843310994
 20
13.07316016131196
 30
0.0
 10
-763.3588287049005
 20
7.68529665655679
 30
0.0
 10
-762.2453235465473
 20
2.966073102072503
 30
0.0
 10
-761.2006554358547
 20
-1.378203464545646
 30
0.0
 10
-760.1288420420855
 20
-5.757391730398326
 30
0.0
 10
-758.7982580311483
 20
-11.09393975771408
 30
0.0
 10
-757.2624104298402
 20
-17.10670626011687
 30
0.0
 10
-755.5715935952427
 20
-23.5522258808514
 30
0.0
 10
-753.9121567745691
 20
-29.72777343209756
 30
0.0
 10
-752.1300855384293
 20
-36.20410230698559
 30
0.0
 10
-750.1402466579572
 20
-43.2540325623488
 30
0.0
 10
-747.846197812207
 20
-51.16091169481887
 30
0.0
 10
-745.3418004132169
 20
-59.53676951867878
 30
0.0
 10
-742.7098481606765
 20
-68.07094607363337
 30
0.0
 10
-740.1449470989572
 20
-76.14892639043133
 30
0.0
 10
-737.7964855579253
 20
-83.34961725498893
 30
0.0
 10
-735.6357506327462
 20
-89.82682610125175
 30
0.0
 10
-733.5285449574296
 20
-96.01965679444932
 30
0.0
 10
-731.2330918602948
 20
-102.6271640051233
 30
0.0
 10
-728.6968422468336
 20
-109.7663830774122
 30
0.0
 10
-726.0383913739449
 20
-117.0748757113749
 30
0.0
 10
-723.400386877597
 20
-124.1600499480219
 30
0.0
 10
-720.7665196665887
 20
-131.0849298444945
 30
0.0
 10
-717.2237635625498
 20
-140.2053429465485
 30
0.0
 10
-713.0141731696446
 20
-150.7034707646733
 30
0.0
 10
-708.0443083269956
 20
-162.6530802444523
 30
0.0
 10
-703.0087811538152
 20
-174.3704894756972
 30
0.0
 10
-697.563817977293
 20
-186.5961029546347
 30
0.0
 10
-691.7406258312872
 20
-199.2063745955191
 30
0.0
 10
-685.9229339849696
 20
-211.3670299771457
 30
0.0
 10
-680.243568834017
 20
-222.8381581278946
 30
0.0
 10
-675.3309882797918
 20
-232.4633524427584
 30
0.0
 10
-671.0116082677087
 20
-240.7251674415747
 30
0.0
 10
-667.004155982648
 20
-248.2355517562266
 30
0.0
 10
-663.3669856204671
 20
-254.909201175148
 30
0.0
 10
-660.1888912705335
 20
-260.6410197502092
 30
0.0
 10
-657.6560710029055
 20
-265.1504310493978
 30
0.0
 10
-655.3349004470555
 20
-269.2333379288901
 30
0.0
 10
-653.0128841377373
 20
-273.2757434762103
 30
0.0
 10
-650.3253430458786
 20
-277.9035843910939
 30
0.0
 10
-646.9857525878467
 20
-283.5728009708535
 30
0.0
 10
-643.2739149586205
 20
-289.7680535678379
 30
0.0
 10
-639.4961664888718
 20
-295.9651063809598
 30
0.0
 10
-635.0178210078441
 20
-303.1918207626142
 30
0.0
 10
-629.6510807273767
 20
-311.671558614379
 30
0.0
 10
-624.524107778842
 20
-319.5605523673496
 30
0.0
 10
-620.4597509923206
 20
-325.6928707602825
 30
0.0
 10
-617.7971772657035
 20
-329.6630257015185
 30
0.0
 10
-615.3755282538101
 20
-333.2356817722264
 30
0.0
 10
-613.2520825673352
 20
-336.2843112178832
 30
0.0
 10
-611.0473906787188
 20
-339.3900018729553
 30
0.0
 10
-608.3600799254453
 20
-343.089473077965
 30
0.0
 10
-605.2980816615778
 20
-347.1781234533682
 30
0.0
 10
-602.3454792713328
 20
-351.0032820847761
 30
0.0
 10
-599.9590011663942
 20
-354.018961802913
 30
0.0
 10
-597.8765119399352
 20
-356.5998434679569
 30
0.0
 10
-595.768969145958
 20
-359.1676764155492
 30
0.0
 10
-593.2741509102973
 20
-362.1463064415988
 30
0.0
 10
-590.5241477013124
 20
-365.351115450661
 30
0.0
 10
-587.4722971528336
 20
-368.8211848358618
 30
0.0
 10
-584.4103836455986
 20
-372.2117386702564
 30
0.0
 10
-581.2423634530429
 20
-375.6260882644443
 30
0.0
 10
-578.0179116167133
 20
-379.0158868513818
 30
0.0
 10
-574.2892833250602
 20
-382.8298532848928
 30
0.0
 10
-570.3272843606023
 20
-386.7516868865433
 30
0.0
 10
-566.5965843693904
 20
-390.3263077820789
 30
0.0
 10
-563.5734266711188
 20
-393.1484687160836
 30
0.0
 10
-560.9936723457513
 20
-395.507409069816
 30
0.0
 10
-558.5603742375796
 20
-397.6917854290193
 30
0.0
 10
-555.6866090046682
 20
-400.2235454678085
 30
0.0
 10
-552.1469454995583
 20
-403.2689421571732
 30
0.0
 10
-547.7376556157865
 20
-406.9478731510543
 30
0.0
 10
-542.9468680850435
 20
-410.8052865768698
 30
0.0
 10
-538.2172954354285
 20
-414.4752704439719
 30
0.0
 10
-534.0115433767522
 20
-417.6318783353437
 30
0.0
 10
-530.2420898958163
 20
-420.3818501942942
 30
0.0
 10
-526.872957723741
 20
-422.7770028417064
 30
0.0
 10
-523.5705233311081
 20
-425.0693953341566
 30
0.0
 10
-520.1353335009768
 20
-427.3994615505028
 30
0.0
 10
-516.2346163807397
 20
-429.9761444045445
 30
0.0
 10
-512.0280118610292
 20
-432.6718343110848
 30
0.0
 10
-507.8942344869962
 20
-435.2388326086588
 30
0.0
 10
-504.0140092355741
 20
-437.5795267832843
 30
0.0
 10
-500.3259295163361
 20
-439.7453596104472
 30
0.0
 10
-496.3636446579884
 20
-442.0106977032804
 30
0.0
 10
-491.7905823609603
 20
-444.5476573330554
 30
0.0
 10
-487.2554979785608
 20
-446.9722941976237
 30
0.0
 10
-483.3091874394557
 20
-449.0127006788869
 30
0.0
 10
-480.3697103104141
 20
-450.4973479881076
 30
0.0
 10
-477.7673939358924
 20
-451.7860385455394
 30
0.0
 10
-475.1018949684669
 20
-453.0812617984181
 30
0.0
 10
-472.1174114561705
 20
-454.5017696972718
 30
0.0
 10
-469.0850606098438
 20
-455.9102241038059
 30
0.0
 10
-466.124881790757
 20
-457.2532268403451
 30
0.0
 10
-463.5718058032956
 20
-458.3876664269232
 30
0.0
 10
-461.3281165307193
 20
-459.3654553490448
 30
0.0
 10
-459.2834366065921
 20
-460.242828551556
 30
0.0
 10
-456.8910847665902
 20
-461.2534121406828
 30
0.0
 10
-453.5845060197584
 20
-462.6232745876956
 30
0.0
 10
-450.980057948364
 20
-463.6590699147623
 30
0.0
 10
-449.483648524288
 20
-464.2541955791442
 30
0.0
  0
SPLINE
  5
D0
330
C9
100
AcDbEntity
  8
0
  6
Continuous
 62
     7
370
    25
100
AcDbSpline
210
0.0
220
0.0
230
1.0
 70
    11
 71
     3
 72
    89
 73
    85
 74
     0
 42
0.000000001
 43
0.00000001
 40
0.0
 40
0.0
 40
0.0
 40
0.0
 40
0.0092912373824026
 40
0.013936856073604
 40
0.0185824747648051
 40
0.0929123738240255
 40
0.0929123738240255
 40
0.0973575937425829
 40
0.0973575937425829
 40
0.1164611368433874
 40
0.1164611368433874
 40
0.1246115803238423
 40
0.1246115803238423
 40
0.1278934392747961
 40
0.1278934392747961
 40
0.1452749158826837
 40
0.1609740912289248
 40
0.1736787968712915
 40
0.1889467196373979
 40
0.1976374579413418
 40
0.2092978130915985
 40
0.2238187289706709
 40
0.2296489065457991
 40
0.2500000000008616
 40
0.2703510934542002
 40
0.276181271029329
 40
0.2907021869084008
 40
0.3023625420586581
 40
0.3110532803626014
 40
0.3263212031287085
 40
0.3390259087710744
 40
0.3547250841173162
 40
0.3721065607252032
 40
0.3721065607252032
 40
0.3753884196761575
 40
0.3753884196761575
 40
0.3835388631566118
 40
0.3835388631566118
 40
0.402642406257417
 40
0.402642406257417
 40
0.4070876261759744
 40
0.4070876261759744
 40
0.4999999999999998
 40
0.5929123738240252
 40
0.5929123738240252
 40
0.5973575937425828
 40
0.5973575937425828
 40
0.6164611368433874
 40
0.6164611368433874
 40
0.6246115803238425
 40
0.6246115803238425
 40
0.6278934392747961
 40
0.6278934392747961
 40
0.6452749158826834
 40
0.660974091228925
 40
0.6736787968712914
 40
0.6889467196373982
 40
0.6976374579413416
 40
0.7092978130915988
 40
0.7238187289706707
 40
0.7296489065457994
 40
0.7500000000008614
 40
0.7703510934542006
 40
0.7761812710293289
 40
0.7907021869084012
 40
0.802362542058658
 40
0.8110532803626018
 40
0.8263212031287084
 40
0.839025908771075
 40
0.8547250841173162
 40
0.8721065607252039
 40
0.8721065607252039
 40
0.8753884196761577
 40
0.8753884196761577
 40
0.8835388631566126
 40
0.8835388631566126
 40
0.902642406257417
 40
0.902642406257417
 40
0.9070876261759744
 40
0.9070876261759744
 40
0.9814175252351949
 40
0.9860631439263962
 40
0.9907087626175974
 40
1.0
 40
1.0
 40
1.0
 40
1.0
 10
-197.4623566675618
 20
-193.8313582774811
 30
0.0
 10
-210.1377819176421
 20
-190.3864492960305
 30
0.0
 10
-227.8261443511907
 20
-185.5791314023521
 30
0.0
 10
-251.410627595922
 20
-179.1693742107808
 30
0.0
 10
-357.5408021972127
 20
-150.3254668487101
 30
0.0
 10
-457.7748559873203
 20
-123.0839987845315
 30
0.0
 10
-557.7545679012513
 20
-95.91165539241244
 30
0.0
 10
-563.3165283996508
 20
-94.31628088840807
 30
0.0
 10
-592.342175841622
 20
-85.54648939086614
 30
0.0
 10
-614.3579041963668
 20
-77.32272847901214
 30
0.0
 10
-643.2350224132277
 20
-64.23300770770116
 30
0.0
 10
-651.54755206359
 20
-60.14578813726659
 30
0.0
 10
-662.7294558534296
 20
-54.18417149706592
 30
0.0
 10
-665.8842341967503
 20
-52.44630866828579
 30
0.0
 10
-685.3930104448651
 20
-41.34130544470166
 30
0.0
 10
-713.6200997495896
 20
-22.18067959227513
 30
0.0
 10
-743.9572730100444
 20
7.55063997250685
 30
0.0
 10
-764.853299883525
 20
37.79163021895596
 30
0.0
 10
-775.2434800809036
 20
64.21759974696754
 30
0.0
 10
-779.3470986594394
 20
90.14831196875376
 30
0.0
 10
-778.3533556321727
 20
115.4644179328938
 30
0.0
 10
-771.556705702851
 20
138.4432992206925
 30
0.0
 10
-757.1404306703023
 20
167.1853934956573
 30
0.0
 10
-732.3111732460567
 20
199.026485357931
 30
0.0
 10
-695.2893862855818
 20
227.553908946564
 30
0.0
 10
-657.3577091374276
 20
249.9050208006244
 30
0.0
 10
-624.3629157485882
 20
265.7638080544371
 30
0.0
 10
-584.3468899253205
 20
280.4744937010011
 30
0.0
 10
-540.4688634563144
 20
293.3648229211544
 30
0.0
 10
-492.2489563482967
 20
303.8618265818167
 30
0.0
 10
-431.9848957739634
 20
312.0452441102636
 30
0.0
 10
-367.2092435856937
 20
315.926935739406
 30
0.0
 10
-320.5673076110385
 20
314.7397647700541
 30
0.0
 10
-291.7575328978547
 20
312.7128211836663
 30
0.0
 10
-287.1915425626365
 20
312.3523445216808
 30
0.0
 10
-271.3252451629526
 20
310.9628396514134
 30
0.0
 10
-260.082696908893
 20
309.7354080620601
 30
0.0
 10
-222.804392549297
 20
304.8455025163263
 30
0.0
 10
-197.1977984869632
 20
300.1265366181545
 30
0.0
 10
-166.7596875902912
 20
292.7353527534686
 30
0.0
 10
-161.0634873106982
 20
291.2710003912198
 30
0.0
 10
-37.49929215203596
 20
257.688899807529
 30
0.0
 10
198.3455402952763
 20
193.5913278918161
 30
0.0
 10
434.1903727425897
 20
129.4937559761042
 30
0.0
 10
557.7545679012517
 20
95.91165539241234
 30
0.0
 10
563.3165283996514
 20
94.31628088840785
 30
0.0
 10
592.3421758416234
 20
85.54648939086587
 30
0.0
 10
614.3579041963692
 20
77.32272847901187
 30
0.0
 10
643.2350224132289
 20
64.23300770770044
 30
0.0
 10
651.5475520635914
 20
60.1457881372657
 30
0.0
 10
662.7294558534311
 20
54.1841714970652
 30
0.0
 10
665.8842341967515
 20
52.44630866828518
 30
0.0
 10
685.3930104448658
 20
41.34130544470124
 30
0.0
 10
713.6200997495902
 20
22.18067959227465
 30
0.0
 10
743.9572730100454
 20
-7.550639972507323
 30
0.0
 10
764.8532998835256
 20
-37.79163021895673
 30
0.0
 10
775.2434800809044
 20
-64.21759974696792
 30
0.0
 10
779.3470986594399
 20
-90.14831196875438
 30
0.0
 10
778.353355632173
 20
-115.464417932894
 30
0.0
 10
771.5567057028511
 20
-138.4432992206929
 30
0.0
 10
757.1404306703025
 20
-167.1853934956577
 30
0.0
 10
732.3111732460562
 20
-199.0264853579316
 30
0.0
 10
695.2893862855818
 20
-227.5539089465642
 30
0.0
 10
657.3577091374275
 20
-249.9050208006249
 30
0.0
 10
624.3629157485886
 20
-265.7638080544374
 30
0.0
 10
584.3468899253198
 20
-280.4744937010014
 30
0.0
 10
540.4688634563138
 20
-293.3648229211545
 30
0.0
 10
492.2489563482953
 20
-303.861826581817
 30
0.0
 10
431.9848957739633
 20
-312.0452441102638
 30
0.0
 10
367.2092435856922
 20
-315.926935739406
 30
0.0
 10
320.5673076110367
 20
-314.7397647700541
 30
0.0
 10
291.7575328978528
 20
-312.7128211836661
 30
0.0
 10
287.1915425626353
 20
-312.3523445216807
 30
0.0
 10
271.3252451629511
 20
-310.9628396514132
 30
0.0
 10
260.0826969088906
 20
-309.7354080620595
 30
0.0
 10
222.8043925492961
 20
-304.8455025163273
 30
0.0
 10
197.1977984869625
 20
-300.1265366181544
 30
0.0
 10
166.7596875902916
 20
-292.7353527534686
 30
0.0
 10
161.0634873106986
 20
-291.2710003912199
 30
0.0
 10
61.08377539676657
 20
-264.0986569990995
 30
0.0
 10
-39.15027839334078
 20
-236.857188934922
 30
0.0
 10
-145.2804529946312
 20
-208.0132815728514
 30
0.0
 10
-164.2435469761008
 20
-202.6031301929021
 30
0.0
 10
-184.7869314174816
 20
-197.2762672589317
 30
0.0
 10
-197.4623566675618
 20
-193.8313582774811
 30
0.0
  0
SPLINE
  5
D1
330
C9
100
AcDbEntity
  8
0
  6
Continuous
 62
     7
370
    25
100
AcDbSpline
210
0.0
220
0.0
230
1.0
 70
    11
 71
     3
 72
    89
 73
    85
 74
     0
 42
0.000000001
 43
0.00000001
 40
0.0
 40
0.0
 40
0.0
 40
0.0
 40
0.0092912373824026
 40
0.013936856073604
 40
0.0185824747648051
 40
0.0929123738240255
 40
0.0929123738240255
 40
0.0973575937425829
 40
0.0973575937425829
 40
0.1164611368433874
 40
0.1164611368433874
 40
0.1246115803238423
 40
0.1246115803238423
 40
0.1278934392747961
 40
0.1278934392747961
 40
0.1452749158826837
 40
0.1609740912289248
 40
0.1736787968712915
 40
0.1889467196373979
 40
0.1976374579413418
 40
0.2092978130915985
 40
0.2238187289706709
 40
0.2296489065457991
 40
0.2500000000008616
 40
0.2703510934542002
 40
0.276181271029329
 40
0.2907021869084008
 40
0.3023625420586581
 40
0.3110532803626014
 40
0.3263212031287085
 40
0.3390259087710744
 40
0.3547250841173162
 40
0.3721065607252032
 40
0.3721065607252032
 40
0.3753884196761575
 40
0.3753884196761575
 40
0.3835388631566118
 40
0.3835388631566118
 40
0.402642406257417
 40
0.402642406257417
 40
0.4070876261759744
 40
0.4070876261759744
 40
0.4999999999999998
 40
0.5929123738240252
 40
0.5929123738240252
 40
0.5973575937425828
 40
0.5973575937425828
 40
0.6164611368433874
 40
0.6164611368433874
 40
0.6246115803238425
 40
0.6246115803238425
 40
0.6278934392747961
 40
0.6278934392747961
 40
0.6452749158826834
 40
0.660974091228925
 40
0.6736787968712914
 40
0.6889467196373982
 40
0.6976374579413416
 40
0.7092978130915988
 40
0.7238187289706707
 40
0.7296489065457994
 40
0.7500000000008614
 40
0.7703510934542006
 40
0.7761812710293289
 40
0.7907021869084012
 40
0.802362542058658
 40
0.8110532803626018
 40
0.8263212031287084
 40
0.839025908771075
 40
0.8547250841173162
 40
0.8721065607252039
 40
0.8721065607252039
 40
0.8753884196761577
 40
0.8753884196761577
 40
0.8835388631566126
 40
0.8835388631566126
 40
0.902642406257417
 40
0.902642406257417
 40
0.9070876261759744
 40
0.9070876261759744
 40
0.9814175252351949
 40
0.9860631439263962
 40
0.9907087626175974
 40
1.0
 40
1.0
 40
1.0
 40
1.0
 10
-183.4309638196032
 20
-180.1524536757219
 30
0.0
 10
-195.5943615582688
 20
-176.8467028013272
 30
0.0
 10
-212.5047091227244
 20
-172.262664777483
 30
0.0
 10
-235.0716377861029
 20
-166.1680238618362
 30
0.0
 10
-336.6835351087261
 20
-138.79269925425
 30
0.0
 10
-433.1483779242681
 20
-113.330701478038
 30
0.0
 10
-529.9954900433069
 20
-88.10041201565788
 30
0.0
 10
-535.3879348102703
 20
-86.61919106841553
 30
0.0
 10
-563.5552001535717
 20
-78.47742836476021
 30
0.0
 10
-585.0127621317765
 20
-70.8443587960166
 30
0.0
 10
-613.3164578397161
 20
-58.69422645859798
 30
0.0
 10
-621.4859610303674
 20
-54.90032383802945
 30
0.0
 10
-632.5089829077773
 20
-49.36620924208887
 30
0.0
 10
-635.6229738589888
 20
-47.75292999648034
 30
0.0
 10
-654.9058266635321
 20
-37.44371754889936
 30
0.0
 10
-682.8791129357828
 20
-19.53391003023433
 30
0.0
 10
-713.1318187243984
 20
8.51541453152796
 30
0.0
 10
-734.1778896070468
 20
37.22148157330832
 30
0.0
 10
-744.8814700637614
 20
62.42846345701511
 30
0.0
 10
-749.4014966781949
 20
87.23378080212521
 30
0.0
 10
-748.9100501412645
 20
111.4940253417213
 30
0.0
 10
-742.6834532623405
 20
133.5353584359818
 30
0.0
 10
-729.1044991999537
 20
161.1178058933604
 30
0.0
 10
-705.3930609987353
 20
191.6937656415586
 30
0.0
 10
-669.7677433857182
 20
219.0322986204017
 30
0.0
 10
-633.2214393525283
 20
240.3736397251093
 30
0.0
 10
-601.4068171662931
 20
255.4617026459231
 30
0.0
 10
-562.7984992177219
 20
269.3640269028661
 30
0.0
 10
-520.4878976697916
 20
281.4434692164772
 30
0.0
 10
-474.0433297579195
 20
291.1207867796254
 30
0.0
 10
-416.1526810712834
 20
298.3761571972836
 30
0.0
 10
-354.118261946701
 20
301.3467591648883
 30
0.0
 10
-309.6226138110488
 20
299.5632833413224
 30
0.0
 10
-282.2147339281213
 20
297.1843464064644
 30
0.0
 10
-277.8712701280269
 20
296.7710703525977
 30
0.0
 10
-262.779231181205
 20
295.2084411578888
 30
0.0
 10
-252.0870968878401
 20
293.876703828401
 30
0.0
 10
-216.6369432856874
 20
288.7017334805307
 30
0.0
 10
-192.2911228722129
 20
283.8876926882651
 30
0.0
 10
-163.342876030899
 20
276.5081918687648
 30
0.0
 10
-157.9250888667576
 20
275.051705878075
 30
0.0
 10
-40.38806995293343
 20
241.7658252687281
 30
0.0
 10
183.696789163296
 20
179.2960055050026
 30
0.0
 10
410.3028520736008
 20
119.277689800177
 30
0.0
 10
529.9954900433073
 20
88.08963288522695
 30
0.0
 10
535.3879348102713
 20
86.60812947229226
 30
0.0
 10
563.5552001535738
 20
78.46485791739657
 30
0.0
 10
585.0127621317795
 20
70.8305208233663
 30
0.0
 10
613.3164578397177
 20
58.67856100849403
 30
0.0
 10
621.4859610303691
 20
54.88410942582786
 30
0.0
 10
632.5089829077791
 20
49.34922466657402
 30
0.0
 10
635.6229738589903
 20
47.73572431296139
 30
0.0
 10
654.9058266635334
 20
37.42512056474437
 30
0.0
 10
682.8791129357841
 20
19.51309283766733
 30
0.0
 10
713.1318187244002
 20
-8.539172207465667
 30
0.0
 10
734.1778896070482
 20
-37.24785159475838
 30
0.0
 10
744.8814700637629
 20
-62.45681134779655
 30
0.0
 10
749.401496678196
 20
-87.26381493696128
 30
0.0
 10
748.910050141266
 20
-111.5254880978327
 30
0.0
 10
742.6834532623417
 20
-133.5678280121154
 30
0.0
 10
729.104499199955
 20
-161.1512027080718
 30
0.0
 10
705.3930609987358
 20
-191.7276728274859
 30
0.0
 10
669.7677433857192
 20
-219.0656954351131
 30
0.0
 10
633.2214393525297
 20
-240.4061093012431
 30
0.0
 10
601.4068171662949
 20
-255.4931654020347
 30
0.0
 10
562.7984992177225
 20
-269.394061037702
 30
0.0
 10
520.4878976697918
 20
-281.4718171072587
 30
0.0
 10
474.0433297579189
 20
-291.1471568010751
 30
0.0
 10
416.1526810712842
 20
-298.3999148732212
 30
0.0
 10
354.1182619467004
 20
-301.3675763574551
 30
0.0
 10
309.6226138110482
 20
-299.5818803254774
 30
0.0
 10
282.2147339281208
 20
-297.2015520899831
 30
0.0
 10
277.8712701280269
 20
-296.7880549281123
 30
0.0
 10
262.7792311812048
 20
-295.2246555700898
 30
0.0
 10
252.0870968878388
 20
-293.892369278504
 30
0.0
 10
216.6369432856874
 20
-288.7155714531822
 30
0.0
 10
192.2911228722132
 20
-283.9002631356287
 30
0.0
 10
163.3428760309002
 20
-276.5192534648881
 30
0.0
 10
157.925088866759
 20
-275.0624850085063
 30
0.0
 10
62.82215653966106
 20
-248.1248653823446
 30
0.0
 10
-32.43576995473529
 20
-221.4807225821129
 30
0.0
 10
-133.6631121544998
 20
-193.7286882066543
 30
0.0
 10
-151.4873129387831
 20
-188.5958203935108
 30
0.0
 10
-171.2675660809377
 20
-183.4582045501166
 30
0.0
 10
-183.4309638196032
 20
-180.1524536757219
 30
0.0
  0
SPLINE
  5
D2
330
C9
100
AcDbEntity
  8
0
  6
Continuous
 62
     7
370
    25
100
AcDbSpline
210
0.0
220
0.0
230
1.0
 70
     8
 71
     3
 72
    13
 73
     9
 74
     0
 42
0.000000001
 43
0.00000001
 40
0.0
 40
0.0
 40
0.0
 40
0.0
 40
0.1382452584973621
 40
0.3054610363939297
 40
0.472676814290494
 40
0.6396057487426327
 40
0.8057146858283287
 40
1.0
 40
1.0
 40
1.0
 40
1.0
 10
-376.770652495911
 20
-486.0037755287577
 30
0.0
 10
-380.2147470197532
 20
-485.0679756708262
 30
0.0
 10
-387.8246766052339
 20
-483.0002707992948
 30
0.0
 10
-399.596408213765
 20
-479.7965162311388
 30
0.0
 10
-412.0996006201347
 20
-476.4159314608437
 30
0.0
 10
-424.5116244285932
 20
-472.9774846509825
 30
0.0
 10
-437.1357989908111
 20
-468.931265892224
 30
0.0
 10
-445.3086855890763
 20
-465.8273313061778
 30
0.0
 10
-449.714615580727
 20
-464.1540279609819
 30
0.0
  0
SPLINE
  5
D3
330
C9
100
AcDbEntity
  8
0
  6
Continuous
 62
     7
370
    25
100
AcDbSpline
210
0.0
220
0.0
230
1.0
 70
     8
 71
     3
 72
    30
 73
    26
 74
     0
 42
0.000000001
 43
0.00000001
 40
0.0
 40
0.0
 40
0.0
 40
0.0
 40
0.0101190541693019
 40
0.0581730147579012
 40
0.1035158012102257
 40
0.1489808160334535
 40
0.1945856213393956
 40
0.2403212298135967
 40
0.286137791282245
 40
0.334760091662221
 40
0.383368961467431
 40
0.4319185651998002
 40
0.4803588897442898
 40
0.5286357408441007
 40
0.5767610240501191
 40
0.6220762091306515
 40
0.6674063427459423
 40
0.7128094818386708
 40
0.7583364256317308
 40
0.8040386309739224
 40
0.850797246315961
 40
0.8978070942146562
 40
0.9448617154261328
 40
0.9919163366376096
 40
1.0
 40
1.0
 40
1.0
 40
1.0
 10
468.7501544170102
 20
-619.214409535455
 30
0.0
 10
467.9184892577536
 20
-619.6397707027052
 30
0.0
 10
463.1373635938716
 20
-622.0851120405307
 30
0.0
 10
453.8757705038926
 20
-626.0254506282929
 30
0.0
 10
441.0277755383054
 20
-631.009120538249
 30
0.0
 10
427.7580683233643
 20
-635.4388458246908
 30
0.0
 10
413.9394209360672
 20
-639.4409447249636
 30
0.0
 10
399.6100725870185
 20
-642.985293474997
 30
0.0
 10
384.5421818612168
 20
-646.1128209811584
 30
0.0
 10
368.7810959612524
 20
-648.7639289325126
 30
0.0
 10
352.3972007572909
 20
-650.8917269709101
 30
0.0
 10
335.7883625972089
 20
-652.4315390717016
 30
0.0
 10
319.0520442335352
 20
-653.3790432409485
 30
0.0
 10
302.2782479606145
 20
-653.7339188604996
 30
0.0
 10
285.8585870366516
 20
-653.5003709841825
 30
0.0
 10
269.8471905156748
 20
-652.7216935879181
 30
0.0
 10
254.2775697167145
 20
-651.4397819441431
 30
0.0
 10
238.8765482903624
 20
-649.6419996757492
 30
0.0
 10
223.6896737085199
 20
-647.3318647667953
 30
0.0
 10
208.6803669529703
 20
-644.4909508190691
 30
0.0
 10
193.890344466391
 20
-641.1269532227462
 30
0.0
 10
179.4915785495476
 20
-637.1759080193251
 30
0.0
 10
165.0300540538616
 20
-633.2558442591519
 30
0.0
 10
154.5641737620629
 20
-630.4091224391535
 30
0.0
 10
148.9164089266111
 20
-628.8742452839034
 30
0.0
 10
148.0884065679492
 20
-628.6492214130748
 30
0.0
  0
VIEWPORT
  5
EC
330
C9
100
AcDbEntity
  8
0
100
AcDbViewport
 10
0.0
 20
0.0
 30
0.0
 40
205.6
 41
156.0
 68
     1
 69
     1
 12
0.0
 22
0.0
 13
0.0
 23
0.0
 14
10.0
 24
10.0
 15
10.0
 25
10.0
 16
0.0
 26
0.0
 36
1.0
 17
0.0
 27
0.0
 37
0.0
 42
50.0
 43
0.0
 44
0.0
 45
1276.9844357977
 50
0.0
 51
0.0
 72
   100
 90
   557152
  1

281
     0
 71
     1
 74
     0
110
0.0
120
0.0
130
0.0
111
1.0
121
0.0
131
0.0
112
0.0
122
1.0
132
0.0
 79
     0
146
0.0
  0
ENDBLK
  5
CC
330
C9
100
AcDbEntity
  8
0
100
AcDbBlockEnd
  0
BLOCK
  5
D6
330
D4
100
AcDbEntity
  8
0
100
AcDbBlockBegin
  2
*Paper_Space7
 70
     0
 10
0.0
 20
0.0
 30
0.0
  3
*Paper_Space7
  1

  0
SPLINE
  5
D8
330
D4
100
AcDbEntity
  8
0
  6
Continuous
 62
     7
370
    25
100
AcDbSpline
210
0.0
220
0.0
230
1.0
 70
     8
 71
     3
 72
   109
 73
   105
 74
     0
 42
0.000000001
 43
0.00000001
 40
0.0
 40
0.0
 40
0.0
 40
0.0
 40
0.0084746505839496
 40
0.0154626438508815
 40
0.0209761067653517
 40
0.0250651453840233
 40
0.0371946410414556
 40
0.0549721950666443
 40
0.069948264276025
 40
0.0838118047728894
 40
0.0999530795868369
 40
0.116182707890744
 40
0.1305098235520653
 40
0.147503680155008
 40
0.1534312760645007
 40
0.1603243256595597
 40
0.1685061957116732
 40
0.1758053839877123
 40
0.1808108575600212
 40
0.1853012266232482
 40
0.1920066856857056
 40
0.2002250598345973
 40
0.2076842014116648
 40
0.2138345482804258
 40
0.2203283957084434
 40
0.2276604355657043
 40
0.2353437559994328
 40
0.2432512587358653
 40
0.2563862941033905
 40
0.2687132790269308
 40
0.2805076640153449
 40
0.2924085884535504
 40
0.3058257538035891
 40
0.3228280160642955
 40
0.3335217121325183
 40
0.3426399921126981
 40
0.3501840359207543
 40
0.3568906581755122
 40
0.3633158853530145
 40
0.3694594092765296
 40
0.3756388509160626
 40
0.3858073754798458
 40
0.3977842918216157
 40
0.4107844121237222
 40
0.4245110734866017
 40
0.4387474023390328
 40
0.4487786015031623
 40
0.4573893192991899
 40
0.4649320532447447
 40
0.4727455802594118
 40
0.4809708439383466
 40
0.4931547107225416
 40
0.5067438571744947
 40
0.520823469741181
 40
0.5336293499882576
 40
0.5452625239285273
 40
0.5570241185493156
 40
0.5714660505600342
 40
0.5871860175800977
 40
0.6044922278956719
 40
0.6232364466969166
 40
0.6364321363382032
 40
0.6491641689654596
 40
0.6606523192558192
 40
0.6708962674254063
 40
0.6799018195843993
 40
0.6879831946661631
 40
0.6938092258519971
 40
0.6991744662650972
 40
0.7040789254219655
 40
0.7085302975958719
 40
0.7136082794454461
 40
0.7200781532544461
 40
0.7300305218980082
 40
0.7415044722027276
 40
0.7528079741916449
 40
0.7638438800320447
 40
0.7746121086934841
 40
0.7846940490735375
 40
0.793042972767601
 40
0.7991304582270414
 40
0.8042380392085602
 40
0.8100678458962801
 40
0.8167530945522493
 40
0.8242933569593757
 40
0.8326881213682231
 40
0.844461788223312
 40
0.8572989456024543
 40
0.8711978533601074
 40
0.8798848173985324
 40
0.8889395187074032
 40
0.898089155834126
 40
0.9059798246842472
 40
0.9115436205412913
 40
0.9160694555564449
 40
0.9195675084085578
 40
0.9237125186800826
 40
0.9297323272745358
 40
0.9376256013868055
 40
0.9467821452923101
 40
0.9576005825452101
 40
0.9700784661243883
 40
0.9842128064451765
 40
1.0
 40
1.0
 40
1.0
 40
1.0
 10
539.8764447942978
 20
-564.9879721618009
 30
0.0
 10
541.252481324618
 20
-564.0031837362162
 30
0.0
 10
543.7631645183816
 20
-562.206362434565
 30
0.0
 10
547.1338851562682
 20
-559.7176055002557
 30
0.0
 10
549.7833921549793
 20
-557.7264762129244
 30
0.0
 10
553.2349063611757
 20
-555.0929242643523
 30
0.0
 10
558.5844204343219
 20
-550.9087350633475
 30
0.0
 10
565.5226108866009
 20
-545.2295684741074
 30
0.0
 10
572.5863228803222
 20
-539.1574987902729
 30
0.0
 10
579.2757822522202
 20
-533.1568276457601
 30
0.0
 10
586.0157992126166
 20
-526.837303403299
 30
0.0
 10
592.6697618264759
 20
-520.2944634518747
 30
0.0
 10
599.294656657439
 20
-513.4820746052658
 30
0.0
 10
604.3613363395018
 20
-508.0281138605878
 30
0.0
 10
608.3425088681336
 20
-503.5955053790423
 30
0.0
 10
611.117457207042
 20
-500.4468018730824
 30
0.0
 10
614.0363970224212
 20
-497.0598225645961
 30
0.0
 10
616.6736900492732
 20
-493.9282948513688
 30
0.0
 10
618.8124723211843
 20
-491.3415827101551
 30
0.0
 10
620.8579361748576
 20
-488.8322982253716
 30
0.0
 10
623.2841966474161
 20
-485.8054082095819
 30
0.0
 10
626.0432477715992
 20
-482.2851316007461
 30
0.0
 10
628.6941203554953
 20
-478.8212228505616
 30
0.0
 10
631.1033434701503
 20
-475.6065380135396
 30
0.0
 10
633.4671080958211
 20
-472.3900395656335
 30
0.0
 10
635.9766324421824
 20
-468.9007613961002
 30
0.0
 10
638.6085465727575
 20
-465.1528204450121
 30
0.0
 10
641.8549715698226
 20
-460.4172569054645
 30
0.0
 10
645.5188228217451
 20
-454.8662784951926
 30
0.0
 10
649.4555732674906
 20
-448.7385245729154
 30
0.0
 10
653.1588989729255
 20
-442.9014113290049
 30
0.0
 10
656.9420131064091
 20
-436.8446845286137
 30
0.0
 10
661.2104226248807
 20
-429.9011637647215
 30
0.0
 10
665.2959612152232
 20
-423.1239904671155
 30
0.0
 10
668.9088998925721
 20
-417.022799304658
 30
0.0
 10
671.5688241710706
 20
-412.4727222738881
 30
0.0
 10
673.8230437825208
 20
-408.5744239857461
 30
0.0
 10
675.8037172369422
 20
-405.1169697059873
 30
0.0
 10
677.6384646811604
 20
-401.8863809063031
 30
0.0
 10
679.4119968195616
 20
-398.7374703561672
 30
0.0
 10
681.526505035368
 20
-394.9522552415654
 30
0.0
 10
684.1673531928936
 20
-390.1728939537936
 30
0.0
 10
687.4077274782231
 20
-384.2204730212014
 30
0.0
 10
690.9305259572731
 20
-377.6385829129365
 30
0.0
 10
694.6071497940433
 20
-370.6422321721944
 30
0.0
 10
697.9669315686555
 20
-364.1236300359189
 30
0.0
 10
700.8361787351027
 20
-358.4611925380655
 30
0.0
 10
703.0976622268558
 20
-353.9389447729117
 30
0.0
 10
705.1484591359092
 20
-349.7905930926319
 30
0.0
 10
707.1486476901962
 20
-345.6998930058638
 30
0.0
 10
709.5205562119368
 20
-340.7926003295651
 30
0.0
 10
712.3437792099088
 20
-334.8644232085152
 30
0.0
 10
715.6029791487357
 20
-327.8903367512302
 30
0.0
 10
718.8585367448889
 20
-320.7796777591211
 30
0.0
 10
721.9059541388436
 20
-313.9879120758094
 30
0.0
 10
724.7259567186721
 20
-307.5851600832194
 30
0.0
 10
727.6295468995568
 20
-300.8729480651339
 30
0.0
 10
730.7924336338912
 20
-293.4105404074418
 30
0.0
 10
734.3022529144008
 20
-284.9296795396314
 30
0.0
 10
738.0453204000378
 20
-275.641491296848
 30
0.0
 10
741.5164291080107
 20
-266.7691215961642
 30
0.0
 10
744.5918383432148
 20
-258.6946246804966
 30
0.0
 10
747.1189142800591
 20
-251.91127095315
 30
0.0
 10
749.4048126660996
 20
-245.6451409701197
 30
0.0
 10
751.4098512050363
 20
-240.0428798889231
 30
0.0
 10
753.1659282289311
 20
-235.0513823460719
 30
0.0
 10
754.6182427997426
 20
-230.8592297587146
 30
0.0
 10
755.8261781366386
 20
-227.3280372684142
 30
0.0
 10
756.8257753290095
 20
-224.3756867916989
 30
0.0
 10
757.7322110610233
 20
-221.6729250817296
 30
0.0
 10
758.6139633579828
 20
-219.0207400354145
 30
0.0
 10
759.5832584185641
 20
-216.0790615641651
 30
0.0
 10
760.8730000639604
 20
-212.1219251364416
 30
0.0
 10
762.5230252798093
 20
-206.9793785816044
 30
0.0
 10
764.4232822208027
 20
-200.9327503048615
 30
0.0
 10
766.3470115082955
 20
-194.6724648069736
 30
0.0
 10
768.1926430621147
 20
-188.5301469341628
 30
0.0
 10
769.9343840193284
 20
-182.6029293763516
 30
0.0
 10
771.4979613150257
 20
-177.1652489095045
 30
0.0
 10
772.7876560134354
 20
-172.5916205478406
 30
0.0
 10
773.8010588921719
 20
-168.9415749072642
 30
0.0
 10
774.6737571021656
 20
-165.7597959495778
 30
0.0
 10
775.5669522396379
 20
-162.4639041708558
 30
0.0
 10
776.5703699745903
 20
-158.7094272662775
 30
0.0
 10
777.6854012599946
 20
-154.4699809445547
 30
0.0
 10
779.028419091011
 20
-149.2699978307043
 30
0.0
 10
780.5935954488566
 20
-143.0662725814638
 30
0.0
 10
782.3704325398851
 20
-135.8149636395117
 30
0.0
 10
783.9556763624759
 20
-129.131540335956
 30
0.0
 10
785.3345480127672
 20
-123.1518635352293
 30
0.0
 10
786.4816866874028
 20
-118.0631648571497
 30
0.0
 10
787.5701977269904
 20
-113.1186676834225
 30
0.0
 10
788.4930861681778
 20
-108.8304570947856
 30
0.0
 10
789.2145768911622
 20
-105.4164368224247
 30
0.0
 10
789.7526197502626
 20
-102.8349657644376
 30
0.0
 10
790.2293024841099
 20
-100.5222809040734
 30
0.0
 10
790.7588161531642
 20
-97.92562546066854
 30
0.0
 10
791.4490594572798
 20
-94.49168391433786
 30
0.0
 10
792.314149535507
 20
-90.10093735893426
 30
0.0
 10
793.3344404115699
 20
-84.79096557168594
 30
0.0
 10
794.4891103701821
 20
-78.59945399684685
 30
0.0
 10
795.7744721517145
 20
-71.44736929257591
 30
0.0
 10
797.1764327516916
 20
-63.33343376239786
 30
0.0
 10
798.1058383017744
 20
-57.59425628207676
 30
0.0
 10
798.5962110671244
 20
-54.56615263926312
 30
0.0
  0
SPLINE
  5
D9
330
D4
100
AcDbEntity
  8
0
  6
Continuous
 62
     7
370
    25
100
AcDbSpline
210
0.0
220
0.0
230
1.0
 70
     8
 71
     3
 72
   115
 73
   111
 74
     0
 42
0.000000001
 43
0.00000001
 40
0.0
 40
0.0
 40
0.0
 40
0.0
 40
0.0176170579887376
 40
0.0331360976195979
 40
0.0465507570809113
 40
0.0578558530994433
 40
0.0670472384353788
 40
0.0730897337720915
 40
0.0776606944311129
 40
0.0808155180234271
 40
0.0867073556034671
 40
0.0946110786121338
 40
0.1045286654844339
 40
0.1151335557617632
 40
0.1251738538790644
 40
0.1374665903858408
 40
0.148748603407556
 40
0.1583228045991022
 40
0.165210139935215
 40
0.1709893150940192
 40
0.1777093387447025
 40
0.1856162606217207
 40
0.1947110967786639
 40
0.2049701402134318
 40
0.217579930496281
 40
0.231313031205261
 40
0.2461706600971998
 40
0.2523155300498398
 40
0.2580540463504395
 40
0.2626366342462817
 40
0.2660598481336705
 40
0.26865609599449
 40
0.2719660477343452
 40
0.2786322513600994
 40
0.2873409684301349
 40
0.2971449424319767
 40
0.3062834430284504
 40
0.3192185656990174
 40
0.3304100300113587
 40
0.3413760109778549
 40
0.3516937319722329
 40
0.3616752156466681
 40
0.3712812810601732
 40
0.3803869784330355
 40
0.3895934298224611
 40
0.3996091693270161
 40
0.4108024576471606
 40
0.4241385873657981
 40
0.4308249557188908
 40
0.4379519128374312
 40
0.4455195705969612
 40
0.4528098684899433
 40
0.4587255702746758
 40
0.463185896458233
 40
0.4663084070025429
 40
0.4685407917935406
 40
0.4714750279993222
 40
0.4771282952538349
 40
0.4845012795521688
 40
0.4934904628458368
 40
0.5027370036776286
 40
0.5118211002514488
 40
0.5268265749331834
 40
0.5413660794083986
 40
0.5552565496517625
 40
0.5677158178102272
 40
0.5786544170893255
 40
0.5884569815052642
 40
0.5958543567572248
 40
0.6042196657962059
 40
0.6142045260676138
 40
0.6256895083364542
 40
0.6372035355088927
 40
0.6483097218823047
 40
0.6642040443205169
 40
0.6794751852085208
 40
0.6950238485970518
 40
0.7109082218233684
 40
0.7174069888705004
 40
0.7226943435788319
 40
0.7267701991143015
 40
0.7308579367790046
 40
0.7364010571396429
 40
0.7432648763158333
 40
0.7505454735358686
 40
0.7731355328357523
 40
0.791582547222018
 40
0.8121890634754035
 40
0.8323415888329142
 40
0.8517471760635488
 40
0.8727326071599601
 40
0.8792300405939503
 40
0.8852213683707078
 40
0.8902907870130846
 40
0.8952382853741604
 40
0.9013050207830778
 40
0.9080610355241611
 40
0.9149714620106776
 40
0.9208448730663226
 40
0.9276588450518045
 40
0.9358260246460067
 40
0.9462652182866889
 40
0.9545227330454069
 40
0.9623653301136753
 40
0.9656175443061767
 40
0.9699178900039886
 40
0.9754958296678594
 40
0.9823603669271586
 40
0.9905233620400289
 40
1.0
 40
1.0
 40
1.0
 40
1.0
 10
-798.623954542022
 20
39.81658571084762
 30
0.0
 10
-798.0741445376077
 20
36.34911033843002
 30
0.0
 10
-797.0400014933975
 20
29.8271018108181
 30
0.0
 10
-795.4832114161854
 20
20.67962325593831
 30
0.0
 10
-794.081583039329
 20
12.78113803767078
 30
0.0
 10
-792.855489495529
 20
6.131867084558429
 30
0.0
 10
-791.8677357644901
 20
0.9327988153121913
 30
0.0
 10
-791.1148302441142
 20
-2.944376698627599
 30
0.0
 10
-790.5837880864107
 20
-5.638486310034913
 30
0.0
 10
-790.0530416491114
 20
-8.302284231309326
 30
0.0
 10
-789.3843701518238
 20
-11.61676501960615
 30
0.0
 10
-788.4318569131233
 20
-16.25057035236338
 30
0.0
 10
-787.2636253575444
 20
-21.80049220614644
 30
0.0
 10
-785.9749253133455
 20
-27.76130315311018
 30
0.0
 10
-784.550679790078
 20
-34.17838173484606
 30
0.0
 10
-783.0580903659073
 20
-40.71948920388452
 30
0.0
 10
-781.5455409762674
 20
-47.16143881489368
 30
0.0
 10
-780.2495462578611
 20
-52.54645646898493
 30
0.0
 10
-779.1915698645621
 20
-56.85918632754866
 30
0.0
 10
-778.2565844787272
 20
-60.61564852555751
 30
0.0
 10
-777.2592182620026
 20
-64.56644727980765
 30
0.0
 10
-776.0817931596644
 20
-69.1548817516095
 30
0.0
 10
-774.704659631025
 20
-74.42203264625013
 30
0.0
 10
-773.0578819688618
 20
-80.58996562536686
 30
0.0
 10
-771.1288169724384
 20
-87.64200174403025
 30
0.0
 10
-768.901295880629
 20
-95.56552837269047
 30
0.0
 10
-766.9720485179249
 20
-102.2321250140358
 30
0.0
 10
-765.4578911009382
 20
-107.3564197360246
 30
0.0
 10
-764.515462269043
 20
-110.5089373500761
 30
0.0
 10
-763.7215245212803
 20
-113.138262060544
 30
0.0
 10
-763.1047484044121
 20
-115.1651713708048
 30
0.0
 10
-762.5591726686831
 20
-116.9477800199969
 30
0.0
 10
-761.8201927929525
 20
-119.3487481594097
 30
0.0
 10
-760.7123980122014
 20
-122.914118974263
 30
0.0
 10
-759.1997417317817
 20
-127.7127062371463
 30
0.0
 10
-757.5122875706153
 20
-132.9746391541873
 30
0.0
 10
-755.5358795062177
 20
-139.0316316891233
 30
0.0
 10
-753.4357172995876
 20
-145.3408958670701
 30
0.0
 10
-751.1767322765312
 20
-151.9832589132525
 30
0.0
 10
-749.049090884644
 20
-158.1191300942539
 30
0.0
 10
-746.9674665120259
 20
-164.0128683195623
 30
0.0
 10
-744.9461427893548
 20
-169.6376167775419
 30
0.0
 10
-742.9788871224957
 20
-175.0222758371732
 30
0.0
 10
-741.0373460165487
 20
-180.2542907358136
 30
0.0
 10
-739.0408902552782
 20
-185.5536709037698
 30
0.0
 10
-736.8677874885462
 20
-191.2322724681292
 30
0.0
 10
-734.362640162425
 20
-197.6676692021486
 30
0.0
 10
-732.0605577825545
 20
-203.4672149792546
 30
0.0
 10
-730.0309799091171
 20
-208.5004804290218
 30
0.0
 10
-728.4177622605472
 20
-212.4584131172383
 30
0.0
 10
-726.7427156760922
 20
-216.5216537357666
 30
0.0
 10
-725.1444121160949
 20
-220.3548185511574
 30
0.0
 10
-723.7734357516745
 20
-223.6098944666107
 30
0.0
 10
-722.7188890201323
 20
-226.0940880267713
 30
0.0
 10
-721.9483781386509
 20
-227.8988331432106
 30
0.0
 10
-721.2956093188541
 20
-229.4216548193247
 30
0.0
 10
-720.4409490606394
 20
-231.4077581936776
 30
0.0
 10
-719.1734861312702
 20
-234.3343256818588
 30
0.0
 10
-717.4109209378706
 20
-238.3648816352402
 30
0.0
 10
-715.3397031067318
 20
-243.0443906899558
 30
0.0
 10
-713.1052731838511
 20
-248.0256502869013
 30
0.0
 10
-710.3484035264823
 20
-254.0902445080633
 30
0.0
 10
-707.1075983529623
 20
-261.096747586527
 30
0.0
 10
-703.4000169666393
 20
-268.9453309520534
 30
0.0
 10
-699.8523554160668
 20
-276.3063318695866
 30
0.0
 10
-696.5686069804201
 20
-282.9955453572902
 30
0.0
 10
-693.606801426581
 20
-288.9321689787797
 30
0.0
 10
-691.0683905779506
 20
-293.9483732377745
 30
0.0
 10
-688.7413015048079
 20
-298.493529497121
 30
0.0
 10
-686.3784616560281
 20
-303.0596465843723
 30
0.0
 10
-683.6141692248706
 20
-308.336189969051
 30
0.0
 10
-680.5237515502375
 20
-314.1514684122628
 30
0.0
 10
-677.2905681110193
 20
-320.1435752487856
 30
0.0
 10
-673.5977764503554
 20
-326.8866551396101
 30
0.0
 10
-669.4905376496177
 20
-334.2558711278824
 30
0.0
 10
-664.8831506612838
 20
-342.3579413168164
 30
0.0
 10
-660.2085932085369
 20
-350.4178162229398
 30
0.0
 10
-656.3552836293472
 20
-356.930663663608
 30
0.0
 10
-653.5159544740837
 20
-361.6625776436553
 30
0.0
 10
-651.8780439414825
 20
-364.3721772802432
 30
0.0
 10
-650.4879118821659
 20
-366.6584079994666
 30
0.0
 10
-649.0496845720397
 20
-369.0120928346947
 30
0.0
 10
-647.2986065788401
 20
-371.858007447963
 30
0.0
 10
-645.2000533114206
 20
-375.2486952915805
 30
0.0
 10
-641.2154711479598
 20
-381.5327074401452
 30
0.0
 10
-635.7785464736933
 20
-389.6677726197328
 30
0.0
 10
-628.5199022218803
 20
-399.7885334329911
 30
0.0
 10
-621.2378881082612
 20
-409.2911670174593
 30
0.0
 10
-613.5169942999054
 20
-418.6997576825738
 30
0.0
 10
-605.4394780132496
 20
-427.9130977565977
 30
0.0
 10
-598.945063438238
 20
-434.8392381338137
 30
0.0
 10
-594.1974861336377
 20
-439.676756899417
 30
0.0
 10
-591.680892431398
 20
-442.1884926769329
 30
0.0
 10
-589.3654574222635
 20
-444.4574796993766
 30
0.0
 10
-587.0200952133109
 20
-446.7179570692951
 30
0.0
 10
-584.405866617106
 20
-449.1919953781435
 30
0.0
 10
-581.4737750713294
 20
-451.9085044386741
 30
0.0
 10
-578.540169755006
 20
-454.5655491503124
 30
0.0
 10
-575.5700012436582
 20
-457.1993157891864
 30
0.0
 10
-572.3803396645966
 20
-459.9688470647548
 30
0.0
 10
-568.451251285012
 20
-463.2967032987125
 30
0.0
 10
-564.2462447559964
 20
-466.7499482542663
 30
0.0
 10
-560.0408737404719
 20
-470.0977235560692
 30
0.0
 10
-556.9435902777266
 20
-472.4980643787704
 30
0.0
 10
-554.4636223516109
 20
-474.3847661056849
 30
0.0
 10
-552.3391310527733
 20
-475.9807139967147
 30
0.0
 10
-549.6146233524444
 20
-477.9941030213793
 30
0.0
 10
-546.2370111724346
 20
-480.4374259404357
 30
0.0
 10
-542.1891669239214
 20
-483.2986727576579
 30
0.0
 10
-539.2395451867158
 20
-485.3056827149006
 30
0.0
 10
-537.6549035330639
 20
-486.3839198113474
 30
0.0
  0
SPLINE
  5
DA
330
D4
100
AcDbEntity
  8
0
  6
Continuous
 62
     7
370
    25
100
AcDbSpline
210
0.0
220
0.0
230
1.0
 70
    11
 71
     3
 72
    89
 73
    85
 74
     0
 42
0.000000001
 43
0.00000001
 40
0.0
 40
0.0
 40
0.0
 40
0.0
 40
0.0092912373824026
 40
0.013936856073604
 40
0.0185824747648051
 40
0.0929123738240255
 40
0.0929123738240255
 40
0.0973575937425829
 40
0.0973575937425829
 40
0.1164611368433874
 40
0.1164611368433874
 40
0.1246115803238423
 40
0.1246115803238423
 40
0.1278934392747961
 40
0.1278934392747961
 40
0.1452749158826837
 40
0.1609740912289248
 40
0.1736787968712915
 40
0.1889467196373979
 40
0.1976374579413418
 40
0.2092978130915985
 40
0.2238187289706709
 40
0.2296489065457991
 40
0.2500000000008616
 40
0.2703510934542002
 40
0.276181271029329
 40
0.2907021869084008
 40
0.3023625420586581
 40
0.3110532803626014
 40
0.3263212031287085
 40
0.3390259087710744
 40
0.3547250841173162
 40
0.3721065607252032
 40
0.3721065607252032
 40
0.3753884196761575
 40
0.3753884196761575
 40
0.3835388631566118
 40
0.3835388631566118
 40
0.402642406257417
 40
0.402642406257417
 40
0.4070876261759744
 40
0.4070876261759744
 40
0.4999999999999998
 40
0.5929123738240252
 40
0.5929123738240252
 40
0.5973575937425828
 40
0.5973575937425828
 40
0.6164611368433874
 40
0.6164611368433874
 40
0.6246115803238425
 40
0.6246115803238425
 40
0.6278934392747961
 40
0.6278934392747961
 40
0.6452749158826834
 40
0.660974091228925
 40
0.6736787968712914
 40
0.6889467196373982
 40
0.6976374579413416
 40
0.7092978130915988
 40
0.7238187289706707
 40
0.7296489065457994
 40
0.7500000000008614
 40
0.7703510934542006
 40
0.7761812710293289
 40
0.7907021869084012
 40
0.802362542058658
 40
0.8110532803626018
 40
0.8263212031287084
 40
0.839025908771075
 40
0.8547250841173162
 40
0.8721065607252039
 40
0.8721065607252039
 40
0.8753884196761577
 40
0.8753884196761577
 40
0.8835388631566126
 40
0.8835388631566126
 40
0.902642406257417
 40
0.902642406257417
 40
0.9070876261759744
 40
0.9070876261759744
 40
0.9814175252351949
 40
0.9860631439263962
 40
0.9907087626175974
 40
1.0
 40
1.0
 40
1.0
 40
1.0
 10
-149.3260822967778
 20
-132.6347190514995
 30
0.0
 10
-162.7323822573258
 20
-130.9456840191541
 30
0.0
 10
-181.4406691918089
 20
-128.5886614163005
 30
0.0
 10
-206.3850517711194
 20
-125.4459646124956
 30
0.0
 10
-318.6347733780165
 20
-111.3038289953737
 30
0.0
 10
-424.6483993400858
 20
-97.94736757920269
 30
0.0
 10
-530.3930178789498
 20
-84.62479791266492
 30
0.0
 10
-536.2958274800651
 20
-83.82986397401801
 30
0.0
 10
-567.207051129712
 20
-79.3961679937033
 30
0.0
 10
-591.0310200133172
 20
-75.02371552626516
 30
0.0
 10
-622.8337834480095
 20
-67.80955358836732
 30
0.0
 10
-632.0652589243363
 20
-65.52787954854023
 30
0.0
 10
-644.5947966610044
 20
-62.16090645471451
 30
0.0
 10
-648.143229343506
 20
-61.17507587664084
 30
0.0
 10
-670.1724787311978
 20
-54.84873216929245
 30
0.0
 10
-702.7902467180725
 20
-43.70889125209892
 30
0.0
 10
-740.0440575148119
 20
-25.8674891363459
 30
0.0
 10
-768.052000603951
 20
-7.308959933487181
 30
0.0
 10
-784.7175043291732
 20
9.233264116081607
 30
0.0
 10
-795.0257510443898
 20
25.71698602030936
 30
0.0
 10
-800.1280799642966
 20
42.01645791101794
 30
0.0
 10
-798.9100964622302
 20
57.05451506224224
 30
0.0
 10
-791.5171945474426
 20
76.10840793141837
 30
0.0
 10
-774.5367953582008
 20
97.58246384580355
 30
0.0
 10
-744.6608360583011
 20
117.4318319005403
 30
0.0
 10
-712.3966159640477
 20
133.3522332150347
 30
0.0
 10
-683.4698840217177
 20
144.8993162006819
 30
0.0
 10
-647.2998754864907
 20
155.9989623352945
 30
0.0
 10
-606.8598188180435
 20
166.0889989945471
 30
0.0
 10
-561.5357327955575
 20
174.8212688410045
 30
0.0
 10
-503.7038357465484
 20
182.5649947356016
 30
0.0
 10
-440.3605428640212
 20
187.7323530982301
 30
0.0
 10
-393.7922803354244
 20
188.8956919225888
 30
0.0
 10
-364.7168941731387
 20
188.7834567518319
 30
0.0
 10
-360.0993727524545
 20
188.7404738173442
 30
0.0
 10
-344.0210893402594
 20
188.5032002314815
 30
0.0
 10
-332.5699261700477
 20
188.1791067337853
 30
0.0
 10
-294.4026947857207
 20
186.5778779366825
 30
0.0
 10
-267.858401733705
 20
184.6045258809984
 30
0.0
 10
-235.8771412779756
 20
181.1145136615658
 30
0.0
 10
-229.8726359436083
 20
180.4092669294481
 30
0.0
 10
-99.18363482543383
 20
163.9440004591052
 30
0.0
 10
150.2601909676705
 20
132.5170324210565
 30
0.0
 10
399.7040167607757
 20
101.0900643830085
 30
0.0
 10
530.39301787895
 20
84.62479791266486
 30
0.0
 10
536.2958274800658
 20
83.82986397401787
 30
0.0
 10
567.2070511297136
 20
79.39616799370319
 30
0.0
 10
591.0310200133197
 20
75.02371552626514
 30
0.0
 10
622.8337834480106
 20
67.80955358836694
 30
0.0
 10
632.0652589243379
 20
65.52787954853973
 30
0.0
 10
644.5947966610062
 20
62.16090645471406
 30
0.0
 10
648.1432293435074
 20
61.17507587664051
 30
0.0
 10
670.1724787311986
 20
54.84873216929221
 30
0.0
 10
702.7902467180731
 20
43.70889125209865
 30
0.0
 10
740.044057514813
 20
25.86748913634562
 30
0.0
 10
768.0520006039517
 20
7.308959933486681
 30
0.0
 10
784.7175043291741
 20
-9.23326411608183
 30
0.0
 10
795.0257510443904
 20
-25.71698602030975
 30
0.0
 10
800.128079964297
 20
-42.01645791101804
 30
0.0
 10
798.9100964622302
 20
-57.05451506224252
 30
0.0
 10
791.517194547443
 20
-76.1084079314186
 30
0.0
 10
774.5367953582005
 20
-97.58246384580399
 30
0.0
 10
744.660836058301
 20
-117.4318319005406
 30
0.0
 10
712.3966159640478
 20
-133.352233215035
 30
0.0
 10
683.4698840217184
 20
-144.8993162006821
 30
0.0
 10
647.2998754864901
 20
-155.9989623352947
 30
0.0
 10
606.8598188180428
 20
-166.0889989945472
 30
0.0
 10
561.535732795556
 20
-174.8212688410047
 30
0.0
 10
503.7038357465484
 20
-182.5649947356018
 30
0.0
 10
440.3605428640196
 20
-187.7323530982302
 30
0.0
 10
393.7922803354227
 20
-188.8956919225889
 30
0.0
 10
364.7168941731368
 20
-188.7834567518319
 30
0.0
 10
360.0993727524533
 20
-188.7404738173441
 30
0.0
 10
344.0210893402579
 20
-188.5032002314815
 30
0.0
 10
332.5699261700451
 20
-188.179106733785
 30
0.0
 10
294.4026947857199
 20
-186.5778779366831
 30
0.0
 10
267.8584017337043
 20
-184.6045258809984
 30
0.0
 10
235.877141277976
 20
-181.1145136615658
 30
0.0
 10
229.8726359436087
 20
-180.4092669294481
 30
0.0
 10
124.1280174047435
 20
-167.0866972629096
 30
0.0
 10
18.11439144267463
 20
-153.7302358467392
 30
0.0
 10
-94.13533016422215
 20
-139.5881002296174
 30
0.0
 10
-114.2535110849385
 20
-136.8965588572823
 30
0.0
 10
-135.9197823362298
 20
-134.323754083845
 30
0.0
 10
-149.3260822967778
 20
-132.6347190514995
 30
0.0
  0
SPLINE
  5
DB
330
D4
100
AcDbEntity
  8
0
  6
Continuous
 62
     7
370
    25
100
AcDbSpline
210
0.0
220
0.0
230
1.0
 70
    11
 71
     3
 72
    89
 73
    85
 74
     0
 42
0.000000001
 43
0.00000001
 40
0.0
 40
0.0
 40
0.0
 40
0.0
 40
0.0092912373824026
 40
0.013936856073604
 40
0.0185824747648051
 40
0.0929123738240255
 40
0.0929123738240255
 40
0.0973575937425829
 40
0.0973575937425829
 40
0.1164611368433874
 40
0.1164611368433874
 40
0.1246115803238423
 40
0.1246115803238423
 40
0.1278934392747961
 40
0.1278934392747961
 40
0.1452749158826837
 40
0.1609740912289248
 40
0.1736787968712915
 40
0.1889467196373979
 40
0.1976374579413418
 40
0.2092978130915985
 40
0.2238187289706709
 40
0.2296489065457991
 40
0.2500000000008616
 40
0.2703510934542002
 40
0.276181271029329
 40
0.2907021869084008
 40
0.3023625420586581
 40
0.3110532803626014
 40
0.3263212031287085
 40
0.3390259087710744
 40
0.3547250841173162
 40
0.3721065607252032
 40
0.3721065607252032
 40
0.3753884196761575
 40
0.3753884196761575
 40
0.3835388631566118
 40
0.3835388631566118
 40
0.402642406257417
 40
0.402642406257417
 40
0.4070876261759744
 40
0.4070876261759744
 40
0.4999999999999998
 40
0.5929123738240252
 40
0.5929123738240252
 40
0.5973575937425828
 40
0.5973575937425828
 40
0.6164611368433874
 40
0.6164611368433874
 40
0.6246115803238425
 40
0.6246115803238425
 40
0.6278934392747961
 40
0.6278934392747961
 40
0.6452749158826834
 40
0.660974091228925
 40
0.6736787968712914
 40
0.6889467196373982
 40
0.6976374579413416
 40
0.7092978130915988
 40
0.7238187289706707
 40
0.7296489065457994
 40
0.7500000000008614
 40
0.7703510934542006
 40
0.7761812710293289
 40
0.7907021869084012
 40
0.802362542058658
 40
0.8110532803626018
 40
0.8263212031287084
 40
0.839025908771075
 40
0.8547250841173162
 40
0.8721065607252039
 40
0.8721065607252039
 40
0.8753884196761577
 40
0.8753884196761577
 40
0.8835388631566126
 40
0.8835388631566126
 40
0.902642406257417
 40
0.902642406257417
 40
0.9070876261759744
 40
0.9070876261759744
 40
0.9814175252351949
 40
0.9860631439263962
 40
0.9907087626175974
 40
1.0
 40
1.0
 40
1.0
 40
1.0
 10
-138.6924635342772
 20
-123.2705587631229
 30
0.0
 10
-151.5572120854108
 20
-121.6497527955775
 30
0.0
 10
-169.439786039363
 20
-119.4040175489389
 30
0.0
 10
-193.2986926443934
 20
-116.421731765721
 30
0.0
 10
-300.7119085035058
 20
-103.0365080273897
 30
0.0
 10
-402.5578943451787
 20
-90.6681808947945
 30
0.0
 10
-504.7275769318782
 20
-78.46462702952387
 30
0.0
 10
-510.4347567244898
 20
-77.73607012938064
 30
0.0
 10
-540.3433516554181
 20
-73.67060938933312
 30
0.0
 10
-563.4715461064302
 20
-69.65475353769703
 30
0.0
 10
-594.4795554805744
 20
-63.02075422046821
 30
0.0
 10
-603.498630417008
 20
-60.9216737364619
 30
0.0
 10
-615.767789897916
 20
-57.82286617048549
 30
0.0
 10
-619.2458140353345
 20
-56.91541189180577
 30
0.0
 10
-640.8596626803977
 20
-51.09112924237743
 30
0.0
 10
-672.9250324526305
 20
-40.74461456371991
 30
0.0
 10
-709.6908669629537
 20
-23.98060420714232
 30
0.0
 10
-737.4788700099698
 20
-6.41462216381189
 30
0.0
 10
-754.162436866301
 20
9.331354535422332
 30
0.0
 10
-764.6134348483639
 20
25.07474972115026
 30
0.0
 10
-769.9604336046878
 20
40.67506326001008
 30
0.0
 10
-769.0827578393627
 20
55.0872438502702
 30
0.0
 10
-762.2419500130471
 20
73.36160777884277
 30
0.0
 10
-746.066564179411
 20
93.97690440389583
 30
0.0
 10
-717.2903355387539
 20
113.0052054230879
 30
0.0
 10
-686.1578627834468
 20
128.2201271233946
 30
0.0
 10
-658.2167366091649
 20
139.2237408720907
 30
0.0
 10
-623.2490160073374
 20
149.7464485530031
 30
0.0
 10
-584.1690960044823
 20
159.2513893581782
 30
0.0
 10
-540.4093085666844
 20
167.3843946935527
 30
0.0
 10
-484.7090404457544
 20
174.4347166221817
 30
0.0
 10
-423.8664038655044
 20
178.9044498137037
 30
0.0
 10
-379.2842250682958
 20
179.59672309804
 30
0.0
 10
-351.5151176833691
 20
179.2008684090556
 30
0.0
 10
-347.105684527186
 20
179.1148396745733
 30
0.0
 10
-331.7539688113845
 20
178.7345911752967
 30
0.0
 10
-320.8238298264708
 20
178.3209107619303
 30
0.0
 10
-284.4018941985365
 20
176.461545606143
 30
0.0
 10
-259.0856482117975
 20
174.3753698276617
 30
0.0
 10
-228.5854068598865
 20
170.8316921856274
 30
0.0
 10
-222.8590284836624
 20
170.1200668447391
 30
0.0
 10
-98.22129212430033
 20
153.5975888998842
 30
0.0
 10
139.1627735115384
 20
122.7325730710075
 30
0.0
 10
378.4568130262025
 20
93.54179266047835
 30
0.0
 10
504.7275769318786
 20
78.45277092906066
 30
0.0
 10
510.4347567244909
 20
77.72390334136736
 30
0.0
 10
540.3433516554202
 20
73.65678299695722
 30
0.0
 10
563.4715461064332
 20
69.63953297839504
 30
0.0
 10
594.4795554805761
 20
63.00352359584394
 30
0.0
 10
603.4986304170098
 20
60.90383930155624
 30
0.0
 10
615.767789897918
 20
57.80418462331277
 30
0.0
 10
619.2458140353361
 20
56.89648714517215
 30
0.0
 10
640.8596626803991
 20
51.07067418676176
 30
0.0
 10
672.925032452632
 20
40.72171747308578
 30
0.0
 10
709.6908669629557
 20
23.95447284204816
 30
0.0
 10
737.4788700099714
 20
6.385617447194958
 30
0.0
 10
754.1624368663026
 20
-9.362534735270323
 30
0.0
 10
764.6134348483652
 20
-25.10778464193741
 30
0.0
 10
769.9604336046893
 20
-40.70966953921745
 30
0.0
 10
769.0827578393639
 20
-55.12295754342039
 30
0.0
 10
762.2419500130486
 20
-73.3983413533093
 30
0.0
 10
746.0665641794117
 20
-94.01419934205008
 30
0.0
 10
717.2903355387551
 20
-113.0419389975544
 30
0.0
 10
686.1578627834485
 20
-128.2558408165449
 30
0.0
 10
658.2167366091668
 20
-139.2583471512983
 30
0.0
 10
623.249016007338
 20
-149.7794834737902
 30
0.0
 10
584.1690960044828
 20
-159.2825695580263
 30
0.0
 10
540.4093085666839
 20
-167.4133994101695
 30
0.0
 10
484.7090404457554
 20
-174.4608479872759
 30
0.0
 10
423.8664038655039
 20
-178.9273469043379
 30
0.0
 10
379.2842250682954
 20
-179.6171781536558
 30
0.0
 10
351.5151176833685
 20
-179.2197931556892
 30
0.0
 10
347.105684527186
 20
-179.133521221746
 30
0.0
 10
331.7539688113843
 20
-178.7524256102022
 30
0.0
 10
320.8238298264694
 20
-178.3381413865541
 30
0.0
 10
284.4018941985367
 20
-176.4767661654458
 30
0.0
 10
259.0856482117978
 20
-174.3891962200378
 30
0.0
 10
228.5854068598879
 20
-170.8438589736408
 30
0.0
 10
222.8590284836639
 20
-170.1319229452025
 30
0.0
 10
122.010680312797
 20
-156.7576091543714
 30
0.0
 10
21.07901539120949
 20
-143.5783536634709
 30
0.0
 10
-86.04287389654466
 20
-129.93469476237
 30
0.0
 10
-104.964219799305
 20
-127.3741560148191
 30
0.0
 10
-125.8277149831436
 20
-124.8913647306684
 30
0.0
 10
-138.6924635342772
 20
-123.2705587631229
 30
0.0
  0
SPLINE
  5
DC
330
D4
100
AcDbEntity
  8
0
  6
Continuous
 62
     7
370
    25
100
AcDbSpline
210
0.0
220
0.0
230
1.0
 70
     8
 71
     3
 72
    31
 73
    27
 74
     0
 42
0.000000001
 43
0.00000001
 40
0.0
 40
0.0
 40
0.0
 40
0.0
 40
0.0327876385481583
 40
0.0640511163438671
 40
0.095205319210391
 40
0.1263595220769149
 40
0.1575137249434389
 40
0.1886679278099629
 40
0.2198221306764868
 40
0.3911702464423683
 40
0.5625183622082491
 40
0.589444494685745
 40
0.6163706271632409
 40
0.6432967596407362
 40
0.6701767027891977
 40
0.6969246048228926
 40
0.7290124974506687
 40
0.760972168626741
 40
0.7928442746969755
 40
0.8246690909886256
 40
0.8564954120102344
 40
0.8883817261227461
 40
0.9185481844906892
 40
0.9488043861548019
 40
0.9791194765790854
 40
1.0
 40
1.0
 40
1.0
 40
1.0
 10
-85.76512290151207
 20
-566.7606508170646
 30
0.0
 10
-91.13002975185516
 20
-566.0847360864827
 30
0.0
 10
-101.6104512784197
 20
-564.7643270858945
 30
0.0
 10
-117.1885072840675
 20
-562.8016765216124
 30
0.0
 10
-132.4992908618831
 20
-560.8726990660207
 30
0.0
 10
-147.7921943997056
 20
-558.9459744783974
 30
0.0
 10
-163.0850973081305
 20
-557.0192492433072
 30
0.0
 10
-178.3780025655968
 20
-555.0925264246971
 30
0.0
 10
-216.6102437923426
 20
-550.2756968320384
 30
0.0
 10
-277.7822550895258
 20
-542.5692070291043
 30
0.0
 10
-338.2607926427046
 20
-534.9481792343597
 30
0.0
 10
-375.1107153906138
 20
-530.3070355615213
 30
0.0
 10
-388.3260095506994
 20
-528.6395895782952
 30
0.0
 10
-401.5439910886723
 20
-526.9836350611133
 30
0.0
 10
-414.6945448813186
 20
-525.2919915830507
 30
0.0
 10
-428.2938228440626
 20
-523.1787389787864
 30
0.0
 10
-442.2688005651891
 20
-520.6553815814663
 30
0.0
 10
-456.4453362527937
 20
-517.6553296594477
 30
0.0
 10
-469.93881932491
 20
-514.3498711802337
 30
0.0
 10
-482.7065698051147
 20
-510.7502176645591
 30
0.0
 10
-494.709739449931
 20
-506.8679588872764
 30
0.0
 10
-505.6904983934544
 20
-502.792258722191
 30
0.0
 10
-515.6708554972187
 20
-498.5557767378861
 30
0.0
 10
-524.6215524474541
 20
-494.1837578598186
 30
0.0
 10
-531.9933047112713
 20
-490.1126654088924
 30
0.0
 10
-535.9676164915217
 20
-487.4367052848978
 30
0.0
 10
-537.5885700064158
 20
-486.3452944423313
 30
0.0
  0
SPLINE
  5
DD
330
D4
100
AcDbEntity
  8
0
  6
Continuous
 62
     7
370
    25
100
AcDbSpline
210
0.0
220
0.0
230
1.0
 70
     8
 71
     3
 72
    46
 73
    42
 74
     0
 42
0.000000001
 43
0.00000001
 40
0.0
 40
0.0
 40
0.0
 40
0.0
 40
0.0212965745917069
 40
0.0451803452784419
 40
0.0689825483326463
 40
0.0927017921941841
 40
0.1163806298386811
 40
0.1387235224036785
 40
0.1611266436306783
 40
0.1835986473411175
 40
0.2061351049893103
 40
0.2287114526442552
 40
0.2526703426607541
 40
0.2766226146920657
 40
0.3005456830594248
 40
0.3244149035416974
 40
0.3482035716385199
 40
0.3719175538716744
 40
0.3942468457179502
 40
0.416583503532051
 40
0.4389561351727881
 40
0.4613897722200073
 40
0.483909770302121
 40
0.5069503198760575
 40
0.5301146655918152
 40
0.5533010735890408
 40
0.5764874815862664
 40
0.599673889583492
 40
0.6228602975807178
 40
0.6460467055779426
 40
0.7735719495626827
 40
0.9010971935474227
 40
0.9123194150180799
 40
0.923541636488737
 40
0.9346354443794355
 40
0.944838537507549
 40
0.9540906992920991
 40
0.9640092760747629
 40
0.9754248240299931
 40
0.987665898741167
 40
1.0
 40
1.0
 40
1.0
 40
1.0
 10
539.8629959418074
 20
-564.9529658287644
 30
0.0
 10
537.6782458573989
 20
-566.4547928231989
 30
0.0
 10
533.0433331987631
 20
-569.6408949761462
 30
0.0
 10
524.7191174291976
 20
-574.2864196182974
 30
0.0
 10
515.2357322638875
 20
-578.9057265240779
 30
0.0
 10
504.8311964874976
 20
-583.280831705353
 30
0.0
 10
493.7867892283732
 20
-587.3238889612658
 30
0.0
 10
482.1792172885256
 20
-591.039688389088
 30
0.0
 10
470.0920705090467
 20
-594.4364414413923
 30
0.0
 10
457.3382787653516
 20
-597.5761223410009
 30
0.0
 10
443.9727687063743
 20
-600.4442885300268
 30
0.0
 10
429.7727749897161
 20
-603.0748874047036
 30
0.0
 10
414.770727694706
 20
-605.4282439160904
 30
0.0
 10
399.0247063369331
 20
-607.4712077500757
 30
0.0
 10
382.9140951839592
 20
-609.1458520957033
 30
0.0
 10
366.5345301334911
 20
-610.4453673642314
 30
0.0
 10
349.9752531370575
 20
-611.3658342575507
 30
0.0
 10
333.6258703621895
 20
-611.8937836286319
 30
0.0
 10
317.5505067334316
 20
-612.0547849270812
 30
0.0
 10
301.7924909980294
 20
-611.8743603123221
 30
0.0
 10
286.0777114199669
 20
-611.3556736021189
 30
0.0
 10
270.4522112519786
 20
-610.4991029632719
 30
0.0
 10
254.8752598610695
 20
-609.2943270646948
 30
0.0
 10
239.3901101308615
 20
-607.7445574809442
 30
0.0
 10
224.1520004952554
 20
-605.8016458743741
 30
0.0
 10
208.8591448741025
 20
-603.8811308973675
 30
0.0
 10
193.5675286586341
 20
-601.9529056569813
 30
0.0
 10
178.2742807267155
 20
-600.0265825769706
 30
0.0
 10
162.9814682408702
 20
-598.0997517908052
 30
0.0
 10
124.7491618566513
 20
-593.2829964859983
 30
0.0
 10
63.57753437074688
 20
-585.5760976377047
 30
0.0
 10
5.036468080414108
 20
-578.2004488135543
 30
0.0
 10
-27.93519028721768
 20
-574.0465722895049
 30
0.0
 10
-35.30855502993844
 20
-573.1174438210036
 30
0.0
 10
-42.45864163798789
 20
-572.2172443280241
 30
0.0
 10
-49.16354055213827
 20
-571.3609483003999
 30
0.0
 10
-55.58495762915489
 20
-570.5157245178273
 30
0.0
 10
-62.30203233017394
 20
-569.6617969945304
 30
0.0
 10
-69.70318040780089
 20
-568.7491329592224
 30
0.0
 10
-77.6418833767443
 20
-567.7754333412975
 30
0.0
 10
-83.05055175922071
 20
-567.0997642148149
 30
0.0
 10
-85.76512290151207
 20
-566.7606508170646
 30
0.0
  0
VIEWPORT
  5
EE
330
D4
100
AcDbEntity
  8
0
100
AcDbViewport
 10
0.0
 20
0.0
 30
0.0
 40
205.6
 41
156.0
 68
     1
 69
     1
 12
0.0
 22
0.0
 13
0.0
 23
0.0
 14
10.0
 24
10.0
 15
10.0
 25
10.0
 16
0.0
 26
0.0
 36
1.0
 17
0.0
 27
0.0
 37
0.0
 42
50.0
 43
0.0
 44
0.0
 45
1276.9844357977
 50
0.0
 51
0.0
 72
   100
 90
   557152
  1

281
     0
 71
     1
 74
     0
110
0.0
120
0.0
130
0.0
111
1.0
121
0.0
131
0.0
112
0.0
122
1.0
132
0.0
 79
     0
146
0.0
  0
ENDBLK
  5
D7
330
D4
100
AcDbEntity
  8
0
100
AcDbBlockEnd
  0
ENDSEC
  0
SECTION
  2
ENTITIES
  0
SPLINE
  5
73
330
1F
100
AcDbEntity
  8
0
  6
Continuous
 62
     7
370
    25
100
AcDbSpline
210
0.0
220
0.0
230
1.0
 70
    11
 71
     3
 72
    89
 73
    85
 74
     0
 42
0.000000001
 43
0.00000001
 40
0.0
 40
0.0
 40
0.0
 40
0.0
 40
0.0092912373824026
 40
0.013936856073604
 40
0.0185824747648051
 40
0.0929123738240255
 40
0.0929123738240255
 40
0.0973575937425829
 40
0.0973575937425829
 40
0.1164611368433874
 40
0.1164611368433874
 40
0.1246115803238423
 40
0.1246115803238423
 40
0.1278934392747961
 40
0.1278934392747961
 40
0.1452749158826837
 40
0.1609740912289248
 40
0.1736787968712915
 40
0.1889467196373979
 40
0.1976374579413418
 40
0.2092978130915985
 40
0.2238187289706709
 40
0.2296489065457991
 40
0.2500000000008616
 40
0.2703510934542002
 40
0.276181271029329
 40
0.2907021869084008
 40
0.3023625420586581
 40
0.3110532803626014
 40
0.3263212031287085
 40
0.3390259087710744
 40
0.3547250841173162
 40
0.3721065607252032
 40
0.3721065607252032
 40
0.3753884196761575
 40
0.3753884196761575
 40
0.3835388631566118
 40
0.3835388631566118
 40
0.402642406257417
 40
0.402642406257417
 40
0.4070876261759744
 40
0.4070876261759744
 40
0.4999999999999998
 40
0.5929123738240252
 40
0.5929123738240252
 40
0.5973575937425828
 40
0.5973575937425828
 40
0.6164611368433874
 40
0.6164611368433874
 40
0.6246115803238425
 40
0.6246115803238425
 40
0.6278934392747961
 40
0.6278934392747961
 40
0.6452749158826834
 40
0.660974091228925
 40
0.6736787968712914
 40
0.6889467196373982
 40
0.6976374579413416
 40
0.7092978130915988
 40
0.7238187289706707
 40
0.7296489065457994
 40
0.7500000000008614
 40
0.7703510934542006
 40
0.7761812710293289
 40
0.7907021869084012
 40
0.802362542058658
 40
0.8110532803626018
 40
0.8263212031287084
 40
0.839025908771075
 40
0.8547250841173162
 40
0.8721065607252039
 40
0.8721065607252039
 40
0.8753884196761577
 40
0.8753884196761577
 40
0.8835388631566126
 40
0.8835388631566126
 40
0.902642406257417
 40
0.902642406257417
 40
0.9070876261759744
 40
0.9070876261759744
 40
0.9814175252351949
 40
0.9860631439263962
 40
0.9907087626175974
 40
1.0
 40
1.0
 40
1.0
 40
1.0
 10
0.9986041738154188
 20
-424.99999999998
 30
0.0
 10
-13.33333333333338
 20
-425.0000000000005
 30
0.0
 10
-33.33333333333359
 20
-425.0000000000005
 30
0.0
 10
-60.00000000000035
 20
-425.0000000000005
 30
0.0
 10
-180.0000000000006
 20
-425.0000000000003
 30
0.0
 10
-293.3333333333345
 20
-424.9999999999989
 30
0.0
 10
-406.3790856346384
 20
-425.0000000000006
 30
0.0
 10
-412.7438131894287
 20
-424.8561805147671
 30
0.0
 10
-446.3612600062473
 20
-423.3429199510207
 30
0.0
 10
-473.2842284811327
 20
-419.4958006171232
 30
0.0
 10
-510.6847639037812
 20
-410.4950837233955
 30
0.0
 10
-521.7400992848186
 20
-407.3559712817504
 30
0.0
 10
-537.031622901625
 20
-402.3372870168551
 30
0.0
 10
-541.3965089715163
 20
-400.8253672235912
 30
0.0
 10
-568.7130856997586
 20
-390.8606250323385
 30
0.0
 10
-611.0397994137318
 20
-371.1316464450969
 30
0.0
 10
-664.8112131361974
 20
-334.2355470356208
 30
0.0
 10
-710.6945376964641
 20
-292.0581068523072
 30
0.0
 10
-743.8293671786072
 20
-251.5287510798322
 30
0.0
 10
-770.9554763522508
 20
-208.9159367753499
 30
0.0
 10
-793.0164686813038
 20
-164.9796029018211
 30
0.0
 10
-807.8274177207858
 20
-122.3485374766985
 30
0.0
 10
-821.1216964896362
 20
-66.26489767396276
 30
0.0
 10
-828.014663310072
 20
-0.0000000000012186
 30
0.0
 10
-821.1216964896366
 20
66.26489767396124
 30
0.0
 10
-807.8274177207859
 20
122.3485374766969
 30
0.0
 10
-793.0164686813039
 20
164.9796029018201
 30
0.0
 10
-770.9554763522516
 20
208.9159367753481
 30
0.0
 10
-743.8293671786078
 20
251.5287510798311
 30
0.0
 10
-710.6945376964652
 20
292.0581068523051
 30
0.0
 10
-664.8112131361979
 20
334.2355470356194
 30
0.0
 10
-611.039799413733
 20
371.1316464450953
 30
0.0
 10
-568.7130856997602
 20
390.8606250323371
 30
0.0
 10
-541.396508971518
 20
400.8253672235898
 30
0.0
 10
-537.0316229016261
 20
402.337287016854
 30
0.0
 10
-521.74009928482
 20
407.355971281749
 30
0.0
 10
-510.6847639037827
 20
410.4950837233937
 30
0.0
 10
-473.2842284811349
 20
419.4958006171221
 30
0.0
 10
-446.3612600062478
 20
423.3429199510201
 30
0.0
 10
-412.7438131894284
 20
424.8561805147661
 30
0.0
 10
-406.3790856346382
 20
424.9999999999996
 30
0.0
 10
-266.666666666667
 20
425.0000000000003
 30
0.0
 10
-0.0000000000001023
 20
424.9999999999995
 30
0.0
 10
266.666666666667
 20
425.0000000000007
 30
0.0
 10
406.3790856346388
 20
424.9999999999996
 30
0.0
 10
412.7438131894295
 20
424.8561805147662
 30
0.0
 10
446.3612600062489
 20
423.3429199510201
 30
0.0
 10
473.284228481135
 20
419.4958006171231
 30
0.0
 10
510.6847639037827
 20
410.4950837233937
 30
0.0
 10
521.7400992848205
 20
407.3559712817486
 30
0.0
 10
537.0316229016271
 20
402.3372870168537
 30
0.0
 10
541.396508971518
 20
400.8253672235899
 30
0.0
 10
568.7130856997596
 20
390.8606250323373
 30
0.0
 10
611.0397994137327
 20
371.1316464450955
 30
0.0
 10
664.8112131361986
 20
334.2355470356194
 30
0.0
 10
710.6945376964653
 20
292.0581068523052
 30
0.0
 10
743.8293671786081
 20
251.528751079831
 30
0.0
 10
770.9554763522518
 20
208.9159367753482
 30
0.0
 10
793.0164686813042
 20
164.97960290182
 30
0.0
 10
807.8274177207862
 20
122.3485374766968
 30
0.0
 10
821.1216964896367
 20
66.26489767396137
 30
0.0
 10
828.0146633100721
 20
-0.0000000000009671
 30
0.0
 10
821.1216964896369
 20
-66.26489767396268
 30
0.0
 10
807.8274177207863
 20
-122.3485374766987
 30
0.0
 10
793.0164686813046
 20
-164.9796029018212
 30
0.0
 10
770.9554763522514
 20
-208.9159367753499
 30
0.0
 10
743.8293671786072
 20
-251.5287510798325
 30
0.0
 10
710.6945376964642
 20
-292.058106852307
 30
0.0
 10
664.811213136198
 20
-334.2355470356208
 30
0.0
 10
611.0397994137315
 20
-371.1316464450969
 30
0.0
 10
568.7130856997587
 20
-390.8606250323388
 30
0.0
 10
541.3965089715161
 20
-400.8253672235913
 30
0.0
 10
537.0316229016249
 20
-402.3372870168552
 30
0.0
 10
521.7400992848186
 20
-407.3559712817502
 30
0.0
 10
510.68476390378
 20
-410.4950837233948
 30
0.0
 10
473.2842284811349
 20
-419.495800617125
 30
0.0
 10
446.3612600062472
 20
-423.342919951021
 30
0.0
 10
412.7438131894289
 20
-424.8561805147669
 30
0.0
 10
406.3790856346386
 20
-425.0000000000003
 30
0.0
 10
293.3333333333326
 20
-425.0000000000003
 30
0.0
 10
179.9999999999998
 20
-425.0000000000006
 30
0.0
 10
59.99999999999995
 20
-425.0000000000005
 30
0.0
 10
38.32635420241211
 20
-424.5597318302081
 30
0.0
 10
15.33054168096422
 20
-424.9999999999598
 30
0.0
 10
0.9986041738154188
 20
-424.99999999998
 30
0.0
  0
SPLINE
  5
74
330
1F
100
AcDbEntity
  8
0
  6
Continuous
 62
     7
370
    25
100
AcDbSpline
210
0.0
220
0.0
230
1.0
 70
    11
 71
     3
 72
    89
 73
    85
 74
     0
 42
0.000000001
 43
0.00000001
 40
0.0
 40
0.0
 40
0.0
 40
0.0
 40
0.0092912373824026
 40
0.013936856073604
 40
0.0185824747648051
 40
0.0929123738240255
 40
0.0929123738240255
 40
0.0973575937425829
 40
0.0973575937425829
 40
0.1164611368433874
 40
0.1164611368433874
 40
0.1246115803238423
 40
0.1246115803238423
 40
0.1278934392747961
 40
0.1278934392747961
 40
0.1452749158826837
 40
0.1609740912289248
 40
0.1736787968712915
 40
0.1889467196373979
 40
0.1976374579413418
 40
0.2092978130915985
 40
0.2238187289706709
 40
0.2296489065457991
 40
0.2500000000008616
 40
0.2703510934542002
 40
0.276181271029329
 40
0.2907021869084008
 40
0.3023625420586581
 40
0.3110532803626014
 40
0.3263212031287085
 40
0.3390259087710744
 40
0.3547250841173162
 40
0.3721065607252032
 40
0.3721065607252032
 40
0.3753884196761575
 40
0.3753884196761575
 40
0.3835388631566118
 40
0.3835388631566118
 40
0.402642406257417
 40
0.402642406257417
 40
0.4070876261759744
 40
0.4070876261759744
 40
0.4999999999999998
 40
0.5929123738240252
 40
0.5929123738240252
 40
0.5973575937425828
 40
0.5973575937425828
 40
0.6164611368433874
 40
0.6164611368433874
 40
0.6246115803238425
 40
0.6246115803238425
 40
0.6278934392747961
 40
0.6278934392747961
 40
0.6452749158826834
 40
0.660974091228925
 40
0.6736787968712914
 40
0.6889467196373982
 40
0.6976374579413416
 40
0.7092978130915988
 40
0.7238187289706707
 40
0.7296489065457994
 40
0.7500000000008614
 40
0.7703510934542006
 40
0.7761812710293289
 40
0.7907021869084012
 40
0.802362542058658
 40
0.8110532803626018
 40
0.8263212031287084
 40
0.839025908771075
 40
0.8547250841173162
 40
0.8721065607252039
 40
0.8721065607252039
 40
0.8753884196761577
 40
0.8753884196761577
 40
0.8835388631566126
 40
0.8835388631566126
 40
0.902642406257417
 40
0.902642406257417
 40
0.9070876261759744
 40
0.9070876261759744
 40
0.9814175252351949
 40
0.9860631439263962
 40
0.9907087626175974
 40
1.0
 40
1.0
 40
1.0
 40
1.0
 10
1.013251861863316
 20
-394.9623383908804
 30
0.0
 10
-12.73974283570158
 20
-394.9623383926067
 30
0.0
 10
-31.84936170966813
 20
-394.982596432851
 30
0.0
 10
-57.33064663989236
 20
-395.0486320273595
 30
0.0
 10
-172.0044839068694
 20
-395.4606300157302
 30
0.0
 10
-280.3936974534711
 20
-396.7536750615512
 30
0.0
 10
-388.9113995116841
 20
-398.6223241132663
 30
0.0
 10
-395.022893422846
 20
-398.5951732159362
 30
0.0
 10
-427.3127746366613
 20
-397.7584588230569
 30
0.0
 10
-453.207417266105
 20
-394.6640866653491
 30
0.0
 10
-489.2502389516101
 20
-387.0076387297886
 30
0.0
 10
-499.9135423268534
 20
-384.304986033242
 30
0.0
 10
-514.6775211419318
 20
-379.9455931980751
 30
0.0
 10
-518.8935444054318
 20
-378.6283819313197
 30
0.0
 10
-545.2898447203318
 20
-369.9235315394886
 30
0.0
 10
-586.2596827594149
 20
-352.2220904546671
 30
0.0
 10
-638.4336051673868
 20
-318.1723504209856
 30
0.0
 10
-683.0599632408586
 20
-278.6984465878447
 30
0.0
 10
-715.3682951078044
 20
-240.4068882149411
 30
0.0
 10
-741.8436844143602
 20
-199.9194784077264
 30
0.0
 10
-763.3928083396751
 20
-158.0294518369236
 30
0.0
 10
-777.8588310726666
 20
-117.273511273239
 30
0.0
 10
-790.8432721463065
 20
-63.57118285464297
 30
0.0
 10
-797.5787059415845
 20
0.0000000000624681
 30
0.0
 10
-790.8432721463138
 20
63.57118285476832
 30
0.0
 10
-777.8588310726564
 20
117.2735112734246
 30
0.0
 10
-763.3928083396628
 20
158.0294518371066
 30
0.0
 10
-741.8436844143464
 20
199.9194784079041
 30
0.0
 10
-715.3682951077893
 20
240.406888215114
 30
0.0
 10
-683.0599632408436
 20
278.6984465880101
 30
0.0
 10
-638.433605167371
 20
318.1723504211425
 30
0.0
 10
-586.2596827594
 20
352.2220904548126
 30
0.0
 10
-545.2898447203182
 20
369.9235315396256
 30
0.0
 10
-518.8935444054189
 20
378.628381931451
 30
0.0
 10
-514.6775211419184
 20
379.9455931982056
 30
0.0
 10
-499.9135423268406
 20
384.3049860333689
 30
0.0
 10
-489.2502389515982
 20
387.0076387299131
 30
0.0
 10
-453.2074172660948
 20
394.6640866654658
 30
0.0
 10
-427.3127746366505
 20
397.7584588231682
 30
0.0
 10
-395.0228934228354
 20
398.5951732160395
 30
0.0
 10
-388.9113995116735
 20
398.6223241133682
 30
0.0
 10
-254.7951647416295
 20
396.3128744091037
 30
0.0
 10
0.0000167414482732
 20
393.611719151534
 30
0.0
 10
254.795164741635
 20
396.3128744090332
 30
0.0
 10
388.9113995116846
 20
398.6223241132654
 30
0.0
 10
395.0228934228472
 20
398.5951732159354
 30
0.0
 10
427.3127746366633
 20
397.7584588230566
 30
0.0
 10
453.2074172661078
 20
394.664086665349
 30
0.0
 10
489.2502389516121
 20
387.0076387297872
 30
0.0
 10
499.9135423268556
 20
384.3049860332404
 30
0.0
 10
514.677521141934
 20
379.945593198074
 30
0.0
 10
518.8935444054338
 20
378.6283819313185
 30
0.0
 10
545.2898447203332
 20
369.9235315394876
 30
0.0
 10
586.2596827594165
 20
352.2220904546658
 30
0.0
 10
638.433605167389
 20
318.1723504209843
 30
0.0
 10
683.0599632408607
 20
278.698446587843
 30
0.0
 10
715.3682951078063
 20
240.40688821494
 30
0.0
 10
741.8436844143619
 20
199.9194784077247
 30
0.0
 10
763.3928083396767
 20
158.0294518369226
 30
0.0
 10
777.8588310726683
 20
117.2735112732375
 30
0.0
 10
790.8432721463081
 20
63.57118285464169
 30
0.0
 10
797.5787059415858
 20
-0.0000000000644983
 30
0.0
 10
790.8432721463151
 20
-63.57118285476959
 30
0.0
 10
777.8588310726584
 20
-117.2735112734261
 30
0.0
 10
763.3928083396648
 20
-158.0294518371076
 30
0.0
 10
741.8436844143474
 20
-199.9194784079056
 30
0.0
 10
715.3682951077899
 20
-240.4068882151153
 30
0.0
 10
683.0599632408432
 20
-278.6984465880119
 30
0.0
 10
638.4336051673721
 20
-318.1723504211437
 30
0.0
 10
586.2596827593998
 20
-352.2220904548142
 30
0.0
 10
545.2898447203179
 20
-369.9235315396272
 30
0.0
 10
518.8935444054185
 20
-378.6283819314525
 30
0.0
 10
514.6775211419185
 20
-379.9455931982068
 30
0.0
 10
499.9135423268405
 20
-384.3049860333701
 30
0.0
 10
489.2502389515967
 20
-387.0076387299139
 30
0.0
 10
453.2074172660958
 20
-394.6640866654686
 30
0.0
 10
427.3127746366507
 20
-397.7584588231689
 30
0.0
 10
395.0228934228367
 20
-398.5951732160402
 30
0.0
 10
388.9113995116749
 20
-398.6223241133688
 30
0.0
 10
280.3936974534637
 20
-396.7536750616296
 30
0.0
 10
172.0044839068669
 20
-395.4606300157781
 30
0.0
 10
57.33064663989165
 20
-395.0486320273754
 30
0.0
 10
36.91561639857204
 20
-394.5531869871696
 30
0.0
 10
14.76624655942821
 20
-394.9623383891541
 30
0.0
 10
1.013251861863316
 20
-394.9623383908804
 30
0.0
  0
SPLINE
  5
75
330
1F
100
AcDbEntity
  8
0
  6
Continuous
 62
     7
370
    25
100
AcDbSpline
210
0.0
220
0.0
230
1.0
 70
    11
 71
     3
 72
   151
 73
   147
 74
     0
 42
0.000000001
 43
0.00000001
 40
0.0
 40
0.0
 40
0.0
 40
0.0
 40
0.0078125
 40
0.0078125
 40
0.015625
 40
0.015625
 40
0.0312500000000001
 40
0.0312500000000001
 40
0.0625000000000001
 40
0.0625000000000001
 40
0.0703125000000002
 40
0.0703125000000002
 40
0.0781250000000002
 40
0.0781250000000002
 40
0.0937500000000003
 40
0.0937500000000003
 40
0.1093750000000004
 40
0.1093750000000004
 40
0.1171875000000004
 40
0.1171875000000004
 40
0.1250000000000004
 40
0.1250000000000004
 40
0.1406250000000004
 40
0.1406250000000004
 40
0.1562500000000004
 40
0.1562500000000004
 40
0.1718750000000004
 40
0.1718750000000004
 40
0.1796875000000004
 40
0.1796875000000004
 40
0.1875000000000004
 40
0.1875000000000004
 40
0.2187500000000003
 40
0.2187500000000003
 40
0.2343750000000003
 40
0.2343750000000003
 40
0.2500000000000003
 40
0.2500000000000003
 40
0.2656250000000003
 40
0.2656250000000003
 40
0.2812500000000002
 40
0.2812500000000002
 40
0.3125000000000002
 40
0.3125000000000002
 40
0.3281250000000002
 40
0.3281250000000002
 40
0.3359375000000002
 40
0.3359375000000002
 40
0.3437500000000002
 40
0.3437500000000002
 40
0.3593750000000002
 40
0.3593750000000002
 40
0.3750000000000003
 40
0.3750000000000003
 40
0.3828125000000003
 40
0.3828125000000003
 40
0.3906250000000003
 40
0.3906250000000003
 40
0.4062500000000003
 40
0.4062500000000003
 40
0.4375000000000002
 40
0.4375000000000002
 40
0.4453125000000003
 40
0.4453125000000003
 40
0.4531250000000003
 40
0.4531250000000003
 40
0.4687500000000003
 40
0.4687500000000003
 40
0.4843750000000003
 40
0.4843750000000003
 40
0.4921875000000004
 40
0.4921875000000004
 40
0.5000000000000003
 40
0.5000000000000003
 40
0.5078125000000003
 40
0.5078125000000003
 40
0.5156250000000003
 40
0.5156250000000003
 40
0.5312500000000004
 40
0.5312500000000004
 40
0.5468750000000004
 40
0.5468750000000004
 40
0.5546875000000004
 40
0.5546875000000004
 40
0.5625000000000004
 40
0.5625000000000004
 40
0.5937500000000004
 40
0.5937500000000004
 40
0.6093750000000004
 40
0.6093750000000004
 40
0.6171875000000004
 40
0.6171875000000004
 40
0.6250000000000004
 40
0.6328125000000006
 40
0.6328125000000006
 40
0.6406250000000006
 40
0.6406250000000006
 40
0.6562500000000004
 40
0.6562500000000004
 40
0.6875000000000004
 40
0.6875000000000004
 40
0.6953125000000004
 40
0.6953125000000004
 40
0.7031250000000004
 40
0.7031250000000004
 40
0.7187500000000004
 40
0.7187500000000004
 40
0.7343750000000006
 40
0.7343750000000006
 40
0.7421875000000006
 40
0.7421875000000006
 40
0.7500000000000006
 40
0.7500000000000006
 40
0.7812500000000007
 40
0.7812500000000007
 40
0.7968750000000007
 40
0.7968750000000007
 40
0.8046875000000007
 40
0.8046875000000007
 40
0.8125000000000007
 40
0.8125000000000007
 40
0.8437500000000008
 40
0.8437500000000008
 40
0.8593750000000008
 40
0.8593750000000008
 40
0.8750000000000008
 40
0.8750000000000008
 40
0.8828125000000009
 40
0.8828125000000009
 40
0.8906250000000009
 40
0.8906250000000009
 40
0.9062500000000008
 40
0.9062500000000008
 40
0.9218750000000007
 40
0.9218750000000007
 40
0.9296875000000007
 40
0.9296875000000007
 40
0.9375000000000006
 40
0.9375000000000006
 40
0.9687500000000003
 40
0.9687500000000003
 40
0.9843750000000003
 40
0.9843750000000003
 40
0.9921875000000002
 40
0.9921875000000002
 40
1.0
 40
1.0
 40
1.0
 40
1.0
 10
0.0820564465680129
 20
-43.75604178065293
 30
0.0
 10
-0.641250364751593
 20
-43.75739619103165
 30
0.0
 10
-1.363894668707594
 20
-43.74087918141004
 30
0.0
 10
-2.807861761962202
 20
-43.67219083810399
 30
0.0
 10
-3.530308331825108
 20
-43.61987511058928
 30
0.0
 10
-5.682739267295818
 20
-43.41062240846015
 30
0.0
 10
-7.100380865229215
 20
-43.20162926221087
 30
0.0
 10
-11.30288259381986
 20
-42.37221510586245
 30
0.0
 10
-14.03779407509765
 20
-41.55127715637317
 30
0.0
 10
-17.37076813212109
 20
-40.18090391107955
 30
0.0
 10
-18.03383427555292
 20
-39.88898165037804
 30
0.0
 10
-19.33695730899253
 20
-39.27660842983413
 30
0.0
 10
-19.97876591105251
 20
-38.95549338801696
 30
0.0
 10
-21.87543701736637
 20
-37.94811997908877
 30
0.0
 10
-23.10161403020932
 20
-37.21793955339238
 30
0.0
 10
-25.47837988666315
 20
-35.64175565525451
 30
0.0
 10
-26.62897013658391
 20
-34.79575420291576
 30
0.0
 10
-28.29719622953379
 20
-33.43833331108665
 30
0.0
 10
-28.84360323276938
 20
-32.97103366087867
 30
0.0
 10
-29.91680293510377
 20
-32.00636111065694
 30
0.0
 10
-30.44282433660754
 20
-31.50952155332011
 30
0.0
 10
-31.97428991258284
 20
-29.9901747811683
 30
0.0
 10
-32.93901727792809
 20
-28.93383198553502
 30
0.0
 10
-34.75836359850535
 20
-26.73606683521977
 30
0.0
 10
-35.61370026153676
 20
-25.59505719593555
 30
0.0
 10
-37.21049602427328
 20
-23.22493495365276
 30
0.0
 10
-37.9529946427771
 20
-21.99662712625913
 30
0.0
 10
-38.98046253177025
 20
-20.08748326807563
 30
0.0
 10
-39.3068008549874
 20
-19.44306197636198
 30
0.0
 10
-39.92437722572538
 20
-18.14510415494638
 30
0.0
 10
-40.2161795894703
 20
-17.49052580988648
 30
0.0
 10
-41.59161154978241
 20
-14.19008435336163
 30
0.0
 10
-42.42692495593966
 20
-11.46237215688063
 30
0.0
 10
-43.27800705018276
 20
-7.238361639599425
 30
0.0
 10
-43.49429032139667
 20
-5.801756458271046
 30
0.0
 10
-43.78122640537104
 20
-2.943008673905393
 30
0.0
 10
-43.85366158494791
 20
-1.515077241317561
 30
0.0
 10
-43.8594326077224
 20
1.337960887958766
 30
0.0
 10
-43.79276352695437
 20
2.7630674819797
 30
0.0
 10
-43.51921871980998
 20
5.610433503972334
 30
0.0
 10
-43.31191539908613
 20
7.034904886751076
 30
0.0
 10
-42.47445530602236
 20
11.29008066114719
 30
0.0
 10
-41.6469030823987
 20
14.02597116650228
 30
0.0
 10
-40.01648972620971
 20
17.98397621718646
 30
0.0
 10
-39.40769543079575
 20
19.27882779002652
 30
0.0
 10
-38.39388149697517
 20
21.18338198534015
 30
0.0
 10
-38.0381841288594
 20
21.81350362624785
 30
0.0
 10
-37.2970869622448
 20
23.0529513846758
 30
0.0
 10
-36.91259321907344
 20
23.6609709558301
 30
0.0
 10
-35.71797145288017
 20
25.45047816183295
 30
0.0
 10
-34.86689422862756
 20
26.59758290149208
 30
0.0
 10
-33.05535023052656
 20
28.79970548243685
 30
0.0
 10
-32.09840168614207
 20
29.85782961480068
 30
0.0
 10
-30.58094330508743
 20
31.37624970754144
 30
0.0
 10
-30.06167985445134
 20
31.87111899556882
 30
0.0
 10
-28.99584911314522
 20
32.8379744881173
 30
0.0
 10
-28.44771787552508
 20
33.31122892974032
 30
0.0
 10
-26.77610655596497
 20
34.68364526615708
 30
0.0
 10
-25.62511061576458
 20
35.53706251277846
 30
0.0
 10
-22.06565687536015
 20
37.91842044440178
 30
0.0
 10
-19.55175985458188
 20
39.26919721165579
 30
0.0
 10
-16.22826257326341
 20
40.65375619353019
 30
0.0
 10
-15.55275925358272
 20
40.91586516544373
 30
0.0
 10
-14.19684829709015
 20
41.40390981235212
 30
0.0
 10
-13.51533621800581
 20
41.6304001277033
 30
0.0
 10
-11.46031272609399
 20
42.25818722554322
 30
0.0
 10
-10.0763383404179
 20
42.60792051386827
 30
0.0
 10
-7.280830052735656
 20
43.17161591339742
 30
0.0
 10
-5.869296179045283
 20
43.3855780067966
 30
0.0
 10
-3.731007045972427
 20
43.6031425828029
 30
0.0
 10
-3.014739870343197
 20
43.65840425407315
 30
0.0
 10
-1.575067079287057
 20
43.73376813188585
 30
0.0
 10
-0.8510593444108521
 20
43.75381616376204
 30
0.0
 10
0.594983908141073
 20
43.75803368453357
 30
0.0
 10
1.318978380449268
 20
43.7422077783207
 30
0.0
 10
2.758442834573835
 20
43.67528627492867
 30
0.0
 10
3.474779051684304
 20
43.62423723198452
 30
0.0
 10
5.613779683043091
 20
43.41925562134541
 30
0.0
 10
7.02645919637498
 20
43.21360894562368
 30
0.0
 10
9.825551670911748
 20
42.66624947091394
 30
0.0
 10
11.21196473828825
 20
42.324537378269
 30
0.0
 10
13.27160647332735
 20
41.70844463147328
 30
0.0
 10
13.95481827715292
 20
41.48579606959853
 30
0.0
 10
15.31445098592871
 20
41.00530017598603
 30
0.0
 10
15.99120637974102
 20
40.74718834874884
 30
0.0
 10
19.32078721799536
 20
39.38271066914213
 30
0.0
 10
21.84260361314783
 20
38.04681329998041
 30
0.0
 10
25.41772109357734
 20
35.68489159978607
 30
0.0
 10
26.57457540576573
 20
34.83747203432588
 30
0.0
 10
28.25587108906671
 20
33.47315443171253
 30
0.0
 10
28.8062393054131
 20
33.00348377959507
 30
0.0
 10
29.88009194206316
 20
32.04041921890698
 30
0.0
 10
30.92911236513307
 20
31.05199730209306
 30
0.0
 10
31.92855390829844
 20
30.01292898172552
 30
0.0
 10
32.90306144282629
 20
28.94838176650491
 30
0.0
 10
33.37870720428821
 20
28.40226800953965
 30
0.0
 10
34.75787263187505
 20
26.73748562367885
 30
0.0
 10
35.61668055714313
 20
25.59084491677373
 30
0.0
 10
38.00894506852818
 20
22.0393743529401
 30
0.0
 10
39.36469954871713
 20
19.52692470487819
 30
0.0
 10
40.75400269655373
 20
16.20162191122867
 30
0.0
 10
41.0166761739889
 20
15.52628236606883
 30
0.0
 10
41.50529864993237
 20
14.17174095437606
 30
0.0
 10
41.73202933665961
 20
13.49080985207305
 30
0.0
 10
42.36041636486184
 20
11.43723099841319
 30
0.0
 10
42.71039247002133
 20
10.05382370620937
 30
0.0
 10
43.27424791548312
 20
7.258676033591095
 30
0.0
 10
43.48812690751018
 20
5.846935584155576
 30
0.0
 10
43.70524330519654
 20
3.707736483502939
 30
0.0
 10
43.76030110331591
 20
2.991065660407829
 30
0.0
 10
43.83512251349354
 20
1.550376536436146
 30
0.0
 10
43.85474859059988
 20
0.8264503754281229
 30
0.0
 10
43.8635359366075
 20
-2.771110652756474
 30
0.0
 10
43.58944360209564
 20
-5.611474090477103
 30
0.0
 10
42.76571094850074
 20
-9.816709227010108
 30
0.0
 10
42.42187316427763
 20
-11.20916952982009
 30
0.0
 10
41.79874168055749
 20
-13.2834650376129
 30
0.0
 10
41.57351279930655
 20
-13.97077024793639
 30
0.0
 10
41.09219432581439
 20
-15.32573776640121
 30
0.0
 10
40.8356070447548
 20
-15.9950972382961
 30
0.0
 10
39.4742330964627
 20
-19.30188295254598
 30
0.0
 10
38.13661543122475
 20
-21.82055347311497
 30
0.0
 10
35.75068294786971
 20
-25.40481071076103
 30
0.0
 10
34.88794050895157
 20
-26.5710623218257
 30
0.0
 10
33.05640984552431
 20
-28.79934278320097
 30
0.0
 10
32.08940813155528
 20
-29.86804003777001
 30
0.0
 10
30.55756417279295
 20
-31.39902138525576
 30
0.0
 10
30.03296235056355
 20
-31.898024814788
 30
0.0
 10
28.96560856678902
 20
-32.86450315766405
 30
0.0
 10
28.42194111716637
 20
-33.33298315012356
 30
0.0
 10
26.761277597644
 20
-34.69460142270744
 30
0.0
 10
25.61489141717976
 20
-35.54431392552722
 30
0.0
 10
23.24458622817111
 20
-37.12926920040038
 30
0.0
 10
22.02066730313634
 20
-37.86451223355212
 30
0.0
 10
20.12567792147143
 20
-38.88016941710303
 30
0.0
 10
19.48414508206584
 20
-39.20416081757585
 30
0.0
 10
18.18095351572515
 20
-39.82246125979243
 30
0.0
 10
17.51932560681307
 20
-40.11661101835799
 30
0.0
 10
14.19743800128821
 20
-41.49685297215633
 30
0.0
 10
11.46758910278093
 20
-42.32818280972397
 30
0.0
 10
7.266401353868668
 20
-43.17412968726383
 30
0.0
 10
5.848094629918186
 20
-43.38860576997198
 30
0.0
 10
3.693042819765983
 20
-43.6063073456728
 30
0.0
 10
2.971111668040121
 20
-43.66136156380849
 30
0.0
 10
1.527818908730935
 20
-43.73547264273582
 30
0.0
 10
0.8053632578875967
 20
-43.75468737027421
 30
0.0
 10
0.0820564465680121
 20
-43.75604178065293
 30
0.0
  0
SPLINE
  5
76
330
1F
100
AcDbEntity
  8
0
  6
Continuous
 62
     7
370
    25
100
AcDbSpline
210
0.0
220
0.0
230
1.0
 70
    11
 71
     3
 72
   151
 73
   147
 74
     0
 42
0.000000001
 43
0.00000001
 40
0.0
 40
0.0
 40
0.0
 40
0.0
 40
0.0078125
 40
0.0078125
 40
0.015625
 40
0.015625
 40
0.03125
 40
0.03125
 40
0.0625000000000001
 40
0.0625000000000001
 40
0.0703125000000001
 40
0.0703125000000001
 40
0.078125
 40
0.078125
 40
0.0937500000000001
 40
0.0937500000000001
 40
0.1093750000000001
 40
0.1093750000000001
 40
0.1171875
 40
0.1171875
 40
0.125
 40
0.125
 40
0.1406249999999999
 40
0.1406249999999999
 40
0.1562499999999999
 40
0.1562499999999999
 40
0.1874999999999998
 40
0.1874999999999998
 40
0.1953124999999998
 40
0.1953124999999998
 40
0.2031249999999998
 40
0.2031249999999998
 40
0.2187499999999997
 40
0.2187499999999997
 40
0.2499999999999996
 40
0.2499999999999996
 40
0.2578124999999996
 40
0.2578124999999996
 40
0.2656249999999996
 40
0.2656249999999996
 40
0.2812499999999996
 40
0.2812499999999996
 40
0.2968749999999995
 40
0.2968749999999995
 40
0.3046874999999995
 40
0.3046874999999995
 40
0.3124999999999994
 40
0.3124999999999994
 40
0.3437499999999993
 40
0.3437499999999993
 40
0.3593749999999992
 40
0.3593749999999992
 40
0.3671874999999992
 40
0.3671874999999992
 40
0.3749999999999992
 40
0.3828124999999991
 40
0.3828124999999991
 40
0.3906249999999991
 40
0.3906249999999991
 40
0.406249999999999
 40
0.406249999999999
 40
0.4374999999999989
 40
0.4374999999999989
 40
0.4453124999999989
 40
0.4453124999999989
 40
0.4531249999999989
 40
0.4531249999999989
 40
0.4687499999999991
 40
0.4687499999999991
 40
0.4843749999999991
 40
0.4843749999999991
 40
0.4921874999999992
 40
0.4921874999999992
 40
0.4999999999999992
 40
0.4999999999999992
 40
0.5078124999999992
 40
0.5078124999999992
 40
0.5156249999999992
 40
0.5156249999999992
 40
0.5312499999999992
 40
0.5312499999999992
 40
0.5468749999999993
 40
0.5468749999999993
 40
0.5546874999999993
 40
0.5546874999999993
 40
0.5624999999999993
 40
0.5624999999999993
 40
0.5937499999999994
 40
0.5937499999999994
 40
0.6093749999999997
 40
0.6093749999999997
 40
0.6171874999999997
 40
0.6171874999999997
 40
0.6249999999999997
 40
0.6249999999999997
 40
0.6406249999999997
 40
0.6406249999999997
 40
0.6562499999999997
 40
0.6562499999999997
 40
0.6640624999999998
 40
0.6640624999999998
 40
0.6718749999999998
 40
0.6718749999999998
 40
0.6874999999999998
 40
0.6874999999999998
 40
0.7187499999999998
 40
0.7187499999999998
 40
0.7343749999999999
 40
0.7343749999999999
 40
0.7499999999999999
 40
0.7499999999999999
 40
0.7656249999999999
 40
0.7656249999999999
 40
0.7812499999999999
 40
0.7812499999999999
 40
0.8125
 40
0.8125
 40
0.8203125
 40
0.8203125
 40
0.828125
 40
0.828125
 40
0.84375
 40
0.84375
 40
0.8593750000000001
 40
0.8593750000000001
 40
0.8750000000000001
 40
0.8750000000000001
 40
0.8828125000000001
 40
0.8828125000000001
 40
0.8906250000000001
 40
0.8906250000000001
 40
0.9062500000000001
 40
0.9062500000000001
 40
0.9218750000000002
 40
0.9218750000000002
 40
0.9296875000000002
 40
0.9296875000000002
 40
0.9375000000000002
 40
0.9375000000000002
 40
0.9687500000000001
 40
0.9687500000000001
 40
0.9843750000000001
 40
0.9843750000000001
 40
0.9921875000000001
 40
0.9921875000000001
 40
1.0
 40
1.0
 40
1.0
 40
1.0
 10
0.0755445854302794
 20
-40.54958850356181
 30
0.0
 10
0.7442700136744892
 20
-40.54833278586598
 30
0.0
 10
1.412227689790841
 20
-40.53047553055963
 30
0.0
 10
2.746606581093713
 20
-40.46158632617153
 30
0.0
 10
3.414086866338358
 20
-40.41043729659377
 30
0.0
 10
5.406261601458234
 20
-40.20778857038369
 30
0.0
 10
6.717132445858319
 20
-40.00800374143306
 30
0.0
 10
10.59964577586634
 20
-39.22077739864969
 30
0.0
 10
13.12165371962545
 20
-38.44722712675562
 30
0.0
 10
16.18956789818024
 20
-37.16275551335682
 30
0.0
 10
16.80056969947998
 20
-36.88899708964028
 30
0.0
 10
18.00337123821517
 20
-36.31382846813228
 30
0.0
 10
18.59537509409625
 20
-36.01246157212309
 30
0.0
 10
20.34374981973806
 20
-35.06780972356736
 30
0.0
 10
21.47254926678791
 20
-34.3840698370737
 30
0.0
 10
23.65786924515058
 20
-32.91044432408915
 30
0.0
 10
24.7143892418225
 20
-32.12055776076571
 30
0.0
 10
26.24434899115062
 20
-30.85514831927517
 30
0.0
 10
26.74518079441478
 20
-30.41988995396351
 30
0.0
 10
27.72820866754337
 20
-29.52198547624281
 30
0.0
 10
28.21119920950431
 20
-29.05847942856665
 30
0.0
 10
29.62088726477869
 20
-27.63700736305565
 30
0.0
 10
30.51121789292313
 20
-26.64586882695592
 30
0.0
 10
32.19353032362229
 20
-24.57700174135102
 30
0.0
 10
32.9874121516614
 20
-23.49643160480731
 30
0.0
 10
35.18481045847835
 20
-20.17678177941577
 30
0.0
 10
36.41904275376248
 20
-17.84628980422497
 30
0.0
 10
37.67521138688652
 20
-14.78749160588683
 30
0.0
 10
37.91199213396757
 20
-14.16838492403806
 30
0.0
 10
38.35618495352785
 20
-12.91524389709606
 30
0.0
 10
38.56404909679403
 20
-12.27966073704382
 30
0.0
 10
39.13920573178704
 20
-10.36139468851649
 30
0.0
 10
39.45661871419092
 20
-9.073716900151474
 30
0.0
 10
40.21702854958598
 20
-5.185019387583783
 30
0.0
 10
40.46998744869401
 20
-2.558575633141476
 30
0.0
 10
40.46156559983073
 20
0.7679079095440299
 30
0.0
 10
40.44337768802209
 20
1.437273598285678
 30
0.0
 10
40.37415204029148
 20
2.769346322790573
 30
0.0
 10
40.32323993303933
 20
3.431996698389864
 30
0.0
 10
40.12252769415219
 20
5.409981416220237
 30
0.0
 10
39.92486444161212
 20
6.715372798589714
 30
0.0
 10
39.40388849239243
 20
9.300052555573815
 30
0.0
 10
39.08057470723411
 20
10.57934070069583
 30
0.0
 10
38.50019971966167
 20
12.47845188603493
 30
0.0
 10
38.2908127472929
 20
13.10817963388628
 30
0.0
 10
37.83963914607778
 20
14.36090334345331
 30
0.0
 10
37.59714555796108
 20
14.9854634441153
 30
0.0
 10
36.3148132267422
 20
18.06087355618839
 30
0.0
 10
35.06354188958829
 20
20.38546683845706
 30
0.0
 10
32.85956382250581
 20
23.67511825401778
 30
0.0
 10
32.0700289815432
 20
24.73857015360081
 30
0.0
 10
30.80149780242463
 20
26.28285354262189
 30
0.0
 10
30.36392212978416
 20
26.78957228560129
 30
0.0
 10
29.46718187897311
 20
27.77756467545454
 30
0.0
 10
28.5473239734407
 20
28.74209589816434
 30
0.0
 10
27.58140671747102
 20
29.65990115002943
 30
0.0
 10
26.59237537674528
 20
30.55426828429298
 30
0.0
 10
26.08538559721752
 20
30.99046722169801
 30
0.0
 10
24.53605648213864
 20
32.25816583834738
 30
0.0
 10
23.46963987857968
 20
33.04576895152741
 30
0.0
 10
20.17279578444198
 20
35.2412883312365
 30
0.0
 10
17.84569795584098
 20
36.48350405318993
 30
0.0
 10
14.77096785286464
 20
37.75244651465596
 30
0.0
 10
14.14587264084938
 20
37.99251111746052
 30
0.0
 10
12.88971692316511
 20
38.43945171898535
 30
0.0
 10
12.25846072936237
 20
38.64653346438138
 30
0.0
 10
10.3553279834705
 20
39.2195072210027
 30
0.0
 10
9.074109224456832
 20
39.53724169799481
 30
0.0
 10
6.487099192830757
 20
40.04609392927506
 30
0.0
 10
5.181307926859761
 20
40.23721154468249
 30
0.0
 10
3.203926944635463
 20
40.42758221346186
 30
0.0
 10
2.541678778728985
 20
40.4749596807543
 30
0.0
 10
1.210826407636014
 20
40.53697145283263
 30
0.0
 10
0.5414222147164854
 20
40.55156122932067
 30
0.0
 10
-0.7955456458595814
 20
40.54734698749751
 30
0.0
 10
-1.464940353970956
 20
40.52853805698228
 30
0.0
 10
-2.795868565652534
 20
40.4581002547098
 30
0.0
 10
-3.457993162272231
 20
40.40652108906301
 30
0.0
 10
-5.434532702112969
 20
40.2036032334966
 30
0.0
 10
-6.739136480432395
 20
40.00419797853083
 30
0.0
 10
-9.322562013390657
 20
39.47904753927732
 30
0.0
 10
-10.6013836376461
 20
39.15330189085189
 30
0.0
 10
-12.50002000523078
 20
38.56861699638018
 30
0.0
 10
-13.12962703575427
 20
38.35768259758076
 30
0.0
 10
-14.38218169215999
 20
37.90315762608372
 30
0.0
 10
-15.0060139366047
 20
37.65909904055006
 30
0.0
 10
-18.07428385636862
 20
36.37024725010089
 30
0.0
 10
-20.39338956556157
 20
35.1132666270108
 30
0.0
 10
-23.67473318518851
 20
32.89832024888556
 30
0.0
 10
-24.73539195773235
 20
32.10469581900122
 30
0.0
 10
-26.27525141083846
 20
30.82880393567822
 30
0.0
 10
-26.7799366070941
 20
30.38912574464515
 30
0.0
 10
-27.76099036508127
 20
29.49099048060073
 30
0.0
 10
-28.23882861262456
 20
29.03136031462535
 30
0.0
 10
-29.6349268602974
 20
27.62131133130591
 30
0.0
 10
-30.51583902833542
 20
26.63979841175523
 30
0.0
 10
-32.17935086047774
 20
24.59482453636784
 30
0.0
 10
-32.96240165903749
 20
23.53156979525522
 30
0.0
 10
-34.06206912338111
 20
21.87418554510676
 30
0.0
 10
-34.41612446670552
 20
21.31129182521002
 30
0.0
 10
-35.09869016358418
 20
20.16420229138562
 30
0.0
 10
-35.42635908945238
 20
19.58123575460525
 30
0.0
 10
-36.36057601914641
 20
17.81930073937051
 30
0.0
 10
-36.92187233300724
 20
16.62167442029547
 30
0.0
 10
-38.42533686169882
 20
12.96134763771509
 30
0.0
 10
-39.18883899219055
 20
10.43185684674615
 30
0.0
 10
-39.96130734762311
 20
6.49829819433302
 30
0.0
 10
-40.15251303874847
 20
5.181525114501643
 30
0.0
 10
-40.40471713850067
 20
2.549419247636314
 30
0.0
 10
-40.46610528215018
 20
1.232054718337458
 30
0.0
 10
-40.46046935709324
 20
-1.405277015306389
 30
0.0
 10
-40.39344864213077
 20
-2.725244148572992
 30
0.0
 10
-40.12826168701692
 20
-5.367836421881813
 30
0.0
 10
-39.92846426964927
 20
-6.695740996803236
 30
0.0
 10
-39.14250843093383
 20
-10.60034152199454
 30
0.0
 10
-38.3712509443
 20
-13.12211539756909
 30
0.0
 10
-37.10222900130972
 20
-16.17405896281912
 30
0.0
 10
-36.83304121792615
 20
-16.77938921243396
 30
0.0
 10
-36.26345333461585
 20
-17.97978508464193
 30
0.0
 10
-35.96253007605411
 20
-18.57581919086552
 30
0.0
 10
-35.01540613287673
 20
-20.34174321334361
 30
0.0
 10
-34.33115544527146
 20
-21.47844193470118
 30
0.0
 10
-32.86077891215871
 20
-23.6734870160005
 30
0.0
 10
-32.07464751808388
 20
-24.73182716805101
 30
0.0
 10
-30.40159169868022
 20
-26.77079306643263
 30
0.0
 10
-29.51419757885569
 20
-27.75121456767451
 30
0.0
 10
-28.10486355332925
 20
-29.16179312758016
 30
0.0
 10
-27.62072183959657
 20
-29.62311414783407
 30
0.0
 10
-26.63237365085164
 20
-30.5192380768289
 30
0.0
 10
-26.12905545562877
 20
-30.95336781325867
 30
0.0
 10
-24.59220744760131
 20
-32.21477421537514
 30
0.0
 10
-23.53184892974738
 20
-33.0011661506293
 30
0.0
 10
-21.34060994764149
 20
-34.46657847777705
 30
0.0
 10
-20.20972871307738
 20
-35.14559784516058
 30
0.0
 10
-18.45977507522231
 20
-36.0825425233953
 30
0.0
 10
-17.86750273158989
 20
-36.38123586558255
 30
0.0
 10
-16.66472607971809
 20
-36.95089885560964
 30
0.0
 10
-16.05254171863588
 20
-37.22251606968196
 30
0.0
 10
-12.97439642795099
 20
-38.49779513853227
 30
0.0
 10
-10.44774091294109
 20
-39.26167114943123
 30
0.0
 10
-6.5640968457113
 20
-40.03352686895875
 30
0.0
 10
-5.253827073737342
 20
-40.22803644083262
 30
0.0
 10
-3.264126924781542
 20
-40.42281230138344
 30
0.0
 10
-2.596223923348663
 20
-40.47151664507764
 30
0.0
 10
-1.26126772034968
 20
-40.53546515195582
 30
0.0
 10
-0.5931808428139197
 20
-40.55084422125764
 30
0.0
 10
0.07554458543028
 20
-40.54958850356181
 30
0.0
  0
CIRCLE
  5
77
330
1F
100
AcDbEntity
  8
0
  6
Continuous
 62
     7
370
    25
100
AcDbCircle
 10
0.0
 20
0.0
 30
0.0
 40
40.15162458087607
  0
CIRCLE
  5
78
330
1F
100
AcDbEntity
  8
0
  6
Continuous
 62
     7
370
    25
100
AcDbCircle
 10
0.0
 20
0.0
 30
0.0
 40
38.66731480957424
  0
CIRCLE
  5
79
330
1F
100
AcDbEntity
  8
0
  6
Continuous
 62
     7
370
    25
100
AcDbCircle
 10
0.0
 20
0.0
 30
0.0
 40
37.14428223268629
  0
CIRCLE
  5
7A
330
1F
100
AcDbEntity
  8
0
  6
Continuous
 62
     7
370
    25
100
AcDbCircle
 10
0.0
 20
0.0
 30
0.0
 40
25.99999999999999
  0
SPLINE
  5
7B
330
1B
100
AcDbEntity
 67
     1
  8
0
  6
Continuous
 62
     7
370
    25
100
AcDbSpline
210
0.0
220
0.0
230
1.0
 70
     8
 71
     3
 72
    45
 73
    41
 74
     0
 42
0.000000001
 43
0.00000001
 40
0.0
 40
0.0
 40
0.0
 40
0.0
 40
0.023584086375251
 40
0.0455284362061317
 40
0.0659326528949226
 40
0.0848701676959903
 40
0.1023923284420635
 40
0.1185354350844225
 40
0.1361199061052884
 40
0.1517762549347229
 40
0.1655127847714922
 40
0.1773269629830573
 40
0.1872093706580325
 40
0.194807433181327
 40
0.2028635269079608
 40
0.2120895618823351
 40
0.222504315212432
 40
0.2341322459519267
 40
0.2469837625074924
 40
0.2636382313903607
 40
0.2819219710174613
 40
0.3018388464202014
 40
0.3233925878925024
 40
0.3499737026494288
 40
0.3786925189747894
 40
0.4095527502995785
 40
0.4425570127381115
 40
0.4777062299668121
 40
0.5143143216318148
 40
0.5529865665714938
 40
0.5937168578109183
 40
0.6364962280864844
 40
0.6764139450903157
 40
0.7179442861060172
 40
0.7610732419388174
 40
0.8057837985604772
 40
0.8520559402989455
 40
0.8998673202705251
 40
0.9491920541699703
 40
1.0
 40
1.0
 40
1.0
 40
1.0
 10
585.0000000000002
 20
-520.0
 30
0.0
 10
588.4944783855699
 20
-517.0339965805276
 30
0.0
 10
595.2404737029068
 20
-511.3082077871009
 30
0.0
 10
604.6626631608656
 20
-502.620931978716
 30
0.0
 10
613.193686196874
 20
-494.3088525238772
 30
0.0
 10
620.8890683255645
 20
-486.3764645257172
 30
0.0
 10
627.8173277155094
 20
-478.8588376506934
 30
0.0
 10
634.3911036785504
 20
-471.376160819682
 30
0.0
 10
640.5533544474084
 20
-464.0179260081673
 30
0.0
 10
646.2493492931861
 20
-456.8828550130026
 30
0.0
 10
651.1146329991013
 20
-450.5219568482745
 30
0.0
 10
655.1990492795608
 20
-444.9780694977471
 30
0.0
 10
658.5058347965092
 20
-440.343915981462
 30
0.0
 10
661.3384807304441
 20
-436.2691798167572
 30
0.0
 10
664.0543259024333
 20
-432.2689343706921
 30
0.0
 10
667.0229957125695
 20
-427.7791675417523
 30
0.0
 10
670.3040668727443
 20
-422.664464442042
 30
0.0
 10
673.875434691366
 20
-416.8997835035851
 30
0.0
 10
677.9725312222034
 20
-410.0358907254289
 30
0.0
 10
682.6877094173739
 20
-402.0349300165187
 30
0.0
 10
688.0127597308366
 20
-392.8000775491288
 30
0.0
 10
693.7169735424391
 20
-382.6854599695121
 30
0.0
 10
700.0909143149602
 20
-371.0981393203907
 30
0.0
 10
707.1288386748992
 20
-357.9249272487457
 30
0.0
 10
714.8105403576617
 20
-343.0469374632344
 30
0.0
 10
722.8216466749824
 20
-326.9364216497525
 30
0.0
 10
731.1074551809545
 20
-309.5695830589981
 30
0.0
 10
739.5535383726808
 20
-291.0448239440415
 30
0.0
 10
748.0986438974189
 20
-271.3584489554603
 30
0.0
 10
756.6782309685543
 20
-250.5089701192617
 30
0.0
 10
765.2691366541015
 20
-228.3722980332661
 30
0.0
 10
773.4697820041894
 20
-205.8301100946641
 30
0.0
 10
781.2431562476012
 20
-182.9730898876503
 30
0.0
 10
788.5619689710475
 20
-159.8950304730996
 30
0.0
 10
795.6450900086247
 20
-135.7709796948079
 30
0.0
 10
802.426305594436
 20
-110.6045669548749
 30
0.0
 10
808.8410114218561
 20
-84.40388120708148
 30
0.0
 10
814.8053760292015
 20
-57.17903646756822
 30
0.0
 10
820.3152373540555
 20
-28.9573397564743
 30
0.0
 10
823.4230675746879
 20
-9.747295960084001
 30
0.0
 10
825.0000000000003
 20
0.0
 30
0.0
  0
SPLINE
  5
7C
330
1B
100
AcDbEntity
 67
     1
  8
0
  6
Continuous
 62
     7
370
    25
100
AcDbSpline
210
0.0
220
0.0
230
1.0
 70
     8
 71
     3
 72
    28
 73
    24
 74
     0
 42
0.000000001
 43
0.00000001
 40
0.0
 40
0.0
 40
0.0
 40
0.0
 40
0.0627205546903444
 40
0.1248503260613893
 40
0.1863459243410215
 40
0.2471673538484305
 40
0.3072752157157341
 40
0.3655791352898298
 40
0.4231263725349877
 40
0.479887181027898
 40
0.5358338017829208
 40
0.577660360676229
 40
0.6189948633750785
 40
0.6598287296713431
 40
0.7001539018408637
 40
0.7399627483025445
 40
0.779167523613375
 40
0.8172980599726692
 40
0.8545505516246081
 40
0.8912031342574114
 40
0.9275044911898609
 40
0.9636893845397867
 40
1.0
 40
1.0
 40
1.0
 40
1.0
 10
-825.0000000000002
 20
0.0
 30
0.0
 10
-823.0321163473845
 20
-12.02918559562374
 30
0.0
 10
-819.1148851160449
 20
-35.97425035599322
 30
0.0
 10
-811.8312107935071
 20
-71.45485063474827
 30
0.0
 10
-803.6021794538044
 20
-106.3443176627414
 30
0.0
 10
-794.3689887155854
 20
-140.5765251341421
 30
0.0
 10
-784.272805452939
 20
-173.9157425258689
 30
0.0
 10
-773.3792975434727
 20
-206.3322772271927
 30
0.0
 10
-761.758469853015
 20
-237.8025545982773
 30
0.0
 10
-749.3979312573864
 20
-268.4961348684778
 30
0.0
 10
-737.3854784726411
 20
-296.0229856053883
 30
0.0
 10
-725.9592936729837
 20
-320.5233053282334
 30
0.0
 10
-715.313645064066
 20
-342.141192885987
 30
0.0
 10
-704.3510203551647
 20
-363.2715356572483
 30
0.0
 10
-693.1029242051533
 20
-383.9150758640549
 30
0.0
 10
-681.5709747057992
 20
-404.0348352938993
 30
0.0
 10
-669.9383148877675
 20
-423.6086737596062
 30
0.0
 10
-657.4930945600184
 20
-442.08860453628
 30
0.0
 10
-644.3947325119238
 20
-459.4899933064075
 30
0.0
 10
-630.6368290193158
 20
-475.9156401303013
 30
0.0
 10
-616.1821736696552
 20
-491.4446532058927
 30
0.0
 10
-601.0514270798454
 20
-506.230583408037
 30
0.0
 10
-590.3566580024094
 20
-515.404891091057
 30
0.0
 10
-585.0000000000002
 20
-520.0
 30
0.0
  0
SPLINE
  5
7D
330
1B
100
AcDbEntity
 67
     1
  8
0
  6
Continuous
 62
     7
370
    25
100
AcDbSpline
210
0.0
220
0.0
230
1.0
 70
    24
 71
     3
 72
    29
 73
    25
 74
     0
 42
0.000000001
 43
0.00000001
 40
0.0
 40
0.0
 40
0.0
 40
0.0
 40
0.0092912373824026
 40
0.013936856073604
 40
0.0185824747648051
 40
0.0929123738240255
 40
0.0929123738240255
 40
0.0973575937425829
 40
0.0973575937425829
 40
0.1164611368433874
 40
0.1164611368433874
 40
0.1246115803238423
 40
0.1246115803238423
 40
0.1278934392747961
 40
0.1278934392747961
 40
0.1452749158826837
 40
0.1609740912289248
 40
0.1736787968712915
 40
0.1889467196373979
 40
0.1976374579413418
 40
0.2092978130915985
 40
0.2238187289706709
 40
0.2296489065457991
 40
0.2500000000008616
 40
0.2500000000008616
 40
0.2500000000008616
 40
0.2500000000008616
 10
0.9986041738154188
 20
0.0
 30
0.0
 10
-13.33333333333338
 20
0.0
 30
0.0
 10
-33.33333333333359
 20
0.0
 30
0.0
 10
-60.00000000000035
 20
0.0
 30
0.0
 10
-180.0000000000006
 20
0.0
 30
0.0
 10
-293.3333333333345
 20
0.0
 30
0.0
 10
-406.3790856346384
 20
0.0
 30
0.0
 10
-412.7438131894287
 20
0.0
 30
0.0
 10
-446.3612600062473
 20
0.0
 30
0.0
 10
-473.2842284811327
 20
0.0
 30
0.0
 10
-510.6847639037812
 20
0.0
 30
0.0
 10
-521.7400992848186
 20
0.0
 30
0.0
 10
-537.031622901625
 20
0.0
 30
0.0
 10
-541.3965089715163
 20
0.0
 30
0.0
 10
-568.7130856997586
 20
0.0
 30
0.0
 10
-611.0397994137318
 20
0.0
 30
0.0
 10
-664.8112131361974
 20
0.0
 30
0.0
 10
-710.6945376964641
 20
0.0
 30
0.0
 10
-743.8293671786072
 20
0.0
 30
0.0
 10
-770.9554763522508
 20
0.0
 30
0.0
 10
-793.0164686813038
 20
0.0
 30
0.0
 10
-807.8274177207858
 20
0.0
 30
0.0
 10
-821.1216964893547
 20
0.0
 30
0.0
 10
-824.9999999998724
 20
0.0
 30
0.0
 10
-825.0000000000002
 20
0.0
 30
0.0
  0
SPLINE
  5
7F
330
1B
100
AcDbEntity
 67
     1
  8
0
  6
Continuous
 62
     7
370
    25
100
AcDbSpline
210
0.0
220
0.0
230
1.0
 70
    24
 71
     3
 72
    29
 73
    25
 74
     0
 42
0.000000001
 43
0.00000001
 40
0.0
 40
0.0
 40
0.0
 40
0.0
 40
0.0092912373824026
 40
0.013936856073604
 40
0.0185824747648051
 40
0.0929123738240255
 40
0.0929123738240255
 40
0.0973575937425829
 40
0.0973575937425829
 40
0.1164611368433874
 40
0.1164611368433874
 40
0.1246115803238423
 40
0.1246115803238423
 40
0.1278934392747961
 40
0.1278934392747961
 40
0.1452749158826837
 40
0.1609740912289248
 40
0.1736787968712915
 40
0.1889467196373979
 40
0.1976374579413418
 40
0.2092978130915985
 40
0.2238187289706709
 40
0.2296489065457991
 40
0.2500000000008616
 40
0.2500000000008616
 40
0.2500000000008616
 40
0.2500000000008616
 10
0.9145228282635455
 20
-520.0
 30
0.0
 10
-9.041702080883864
 20
-520.0
 30
0.0
 10
-22.60425520220979
 20
-520.0
 30
0.0
 10
-40.68765936397756
 20
-520.0
 30
0.0
 10
-122.0629780919324
 20
-520.0
 30
0.0
 10
-198.9174457794455
 20
-520.0
 30
0.0
 10
-275.5768968157792
 20
-520.0
 30
0.0
 10
-279.9027312050425
 20
-520.0
 30
0.0
 10
-302.8190437295375
 20
-520.0
 30
0.0
 10
-321.4095218647692
 20
-520.0000000000005
 30
0.0
 10
-347.9315465469572
 20
-520.0
 30
0.0
 10
-355.8245880077242
 20
-520.0
 30
0.0
 10
-366.8051746538266
 20
-520.0
 30
0.0
 10
-369.9468795812323
 20
-520.0
 30
0.0
 10
-389.6510431050091
 20
-520.0
 30
0.0
 10
-420.5359307558969
 20
-520.0
 30
0.0
 10
-460.3643974913449
 20
-520.0
 30
0.0
 10
-495.2204484716091
 20
-520.0
 30
0.0
 10
-520.9419420288204
 20
-519.9999999999999
 30
0.0
 10
-542.1981400596858
 20
-519.9999999999999
 30
0.0
 10
-559.6452825062752
 20
-519.9999999999999
 30
0.0
 10
-571.3716036474651
 20
-519.9999999999999
 30
0.0
 10
-581.9062333599871
 20
-520.0
 30
0.0
 10
-584.9999999998981
 20
-520.0000000000001
 30
0.0
 10
-585.0
 20
-520.0
 30
0.0
  0
LINE
  5
81
330
1B
100
AcDbEntity
 67
     1
  8
0
  6
Continuous
 62
     7
370
    25
100
AcDbLine
 10
825.0
 20
0.0
 30
0.0
 11
0.9986041738
 21
0.0
 31
0.0
  0
LINE
  5
82
330
1B
100
AcDbEntity
 67
     1
  8
0
  6
Continuous
 62
     7
370
    25
100
AcDbLine
 10
585.0
 20
-520.0
 30
0.0
 11
0.9145228283
 21
-520.0
 31
0.0
  0
VIEWPORT
  5
DE
330
1B
100
AcDbEntity
 67
     1
  8
0
100
AcDbViewport
 10
0.0
 20
0.0
 30
0.0
 40
205.6
 41
156.0
 68
     1
 69
     1
 12
0.0
 22
0.0
 13
0.0
 23
0.0
 14
10.0
 24
10.0
 15
10.0
 25
10.0
 16
0.0
 26
0.0
 36
1.0
 17
0.0
 27
0.0
 37
0.0
 42
50.0
 43
0.0
 44
0.0
 45
1276.9844357977
 50
0.0
 51
0.0
 72
   100
 90
   557152
  1

281
     0
 71
     1
 74
     0
110
0.0
120
0.0
130
0.0
111
1.0
121
0.0
131
0.0
112
0.0
122
1.0
132
0.0
 79
     0
146
0.0
  0
ENDSEC
  0
SECTION
  2
OBJECTS
  0
DICTIONARY
  5
C
330
0
100
AcDbDictionary
281
     1
  3
ACAD_GROUP
350
D
  3
ACAD_LAYOUT
350
1A
  3
ACAD_MLINESTYLE
350
17
  3
ACAD_PLOTSETTINGS
350
19
  3
ACAD_PLOTSTYLENAME
350
E
  3
ACAD_SCALELIST
350
47
  0
DICTIONARY
  5
D
102
{ACAD_REACTORS
330
C
102
}
330
C
100
AcDbDictionary
281
     1
  0
DICTIONARY
  5
1A
102
{ACAD_REACTORS
330
C
102
}
330
C
100
AcDbDictionary
281
     1
  3
_Dimetrisch
350
D5
  3
_Isometrisch
350
C1
  3
_Links
350
A1
  3
_Normal auf
350
8D
  3
_Rechts
350
26
  3
_Rückseite
350
99
  3
_Trimetrisch
350
CA
  3
_Unten
350
AD
  3
_Vorderseite
350
1E
  3
Model
350
22
  0
DICTIONARY
  5
17
102
{ACAD_REACTORS
330
C
102
}
330
C
100
AcDbDictionary
281
     1
  3
Standard
350
18
  0
DICTIONARY
  5
19
102
{ACAD_REACTORS
330
C
102
}
330
C
100
AcDbDictionary
281
     1
  0
ACDBDICTIONARYWDFLT
  5
E
102
{ACAD_REACTORS
330
C
102
}
330
C
100
AcDbDictionary
281
     1
  3
Normal
350
F
100
AcDbDictionaryWithDefault
340
F
  0
DICTIONARY
  5
47
102
{ACAD_REACTORS
330
C
102
}
330
C
100
AcDbDictionary
281
     1
  3
A0
350
48
  3
A1
350
49
  3
A2
350
4A
  3
A3
350
4B
  3
A4
350
4C
  3
A5
350
4D
  3
A6
350
4E
  3
A7
350
4F
  3
A8
350
50
  3
A9
350
51
  3
B0
350
52
  3
B1
350
53
  3
B2
350
54
  3
B3
350
55
  3
B4
350
56
  3
B5
350
57
  3
B6
350
58
  3
B7
350
59
  3
B8
350
5A
  3
B9
350
5B
  3
C0
350
5C
  3
C1
350
5D
  3
C2
350
5E
  3
C3
350
5F
  3
C4
350
60
  3
C5
350
61
  3
C6
350
62
  3
C7
350
63
  3
C8
350
64
  3
C9
350
65
  3
D0
350
66
  3
D1
350
67
  3
D2
350
68
  0
LAYOUT
  5
D5
102
{ACAD_REACTORS
330
1A
102
}
330
1A
100
AcDbPlotSettings
  1

  2
none_device
  4
ISO_A4_(210.00_x_297.00_MM)
  6

 40
7.5
 41
20.0
 42
7.5
 43
20.0
 44
210.0
 45
297.0
 46
0.0
 47
0.0
 48
0.0
 49
0.0
140
0.0
141
0.0
142
1.0
143
6.420233463
 70
   688
 72
     1
 73
     1
 74
     1
  7

 75
     0
147
0.1557575758
148
825.0
149
520.0
100
AcDbLayout
  1
_Dimetrisch
 70
     1
 71
     9
 10
0.0
 20
0.0
 11
0.0
 21
0.0
 12
0.0
 22
0.0
 32
0.0
 14
0.0
 24
0.0
 34
0.0
 15
0.0
 25
0.0
 35
0.0
146
0.0
 13
0.0
 23
0.0
 33
0.0
 16
1.0
 26
0.0
 36
0.0
 17
0.0
 27
1.0
 37
0.0
 76
     0
330
D4
331
EE
  0
LAYOUT
  5
C1
102
{ACAD_REACTORS
330
1A
102
}
330
1A
100
AcDbPlotSettings
  1

  2
none_device
  4
ISO_A4_(210.00_x_297.00_MM)
  6

 40
7.5
 41
20.0
 42
7.5
 43
20.0
 44
210.0
 45
297.0
 46
0.0
 47
0.0
 48
0.0
 49
0.0
140
0.0
141
0.0
142
1.0
143
6.420233463
 70
   688
 72
     1
 73
     1
 74
     1
  7

 75
     0
147
0.1557575758
148
825.0
149
520.0
100
AcDbLayout
  1
_Isometrisch
 70
     1
 71
     7
 10
0.0
 20
0.0
 11
0.0
 21
0.0
 12
0.0
 22
0.0
 32
0.0
 14
0.0
 24
0.0
 34
0.0
 15
0.0
 25
0.0
 35
0.0
146
0.0
 13
0.0
 23
0.0
 33
0.0
 16
1.0
 26
0.0
 36
0.0
 17
0.0
 27
1.0
 37
0.0
 76
     0
330
C0
331
EA
  0
LAYOUT
  5
A1
102
{ACAD_REACTORS
330
1A
102
}
330
1A
100
AcDbPlotSettings
  1

  2
none_device
  4
ISO_A4_(210.00_x_297.00_MM)
  6

 40
7.5
 41
20.0
 42
7.5
 43
20.0
 44
210.0
 45
297.0
 46
0.0
 47
0.0
 48
0.0
 49
0.0
140
0.0
141
0.0
142
1.0
143
6.420233463
 70
   688
 72
     1
 73
     1
 74
     1
  7

 75
     0
147
0.1557575758
148
825.0
149
520.0
100
AcDbLayout
  1
_Links
 70
     1
 71
     5
 10
0.0
 20
0.0
 11
0.0
 21
0.0
 12
0.0
 22
0.0
 32
0.0
 14
0.0
 24
0.0
 34
0.0
 15
0.0
 25
0.0
 35
0.0
146
0.0
 13
0.0
 23
0.0
 33
0.0
 16
1.0
 26
0.0
 36
0.0
 17
0.0
 27
1.0
 37
0.0
 76
     0
330
A0
331
E6
  0
LAYOUT
  5
8D
102
{ACAD_REACTORS
330
1A
102
}
330
1A
100
AcDbPlotSettings
  1

  2
none_device
  4
ISO_A4_(210.00_x_297.00_MM)
  6

 40
7.5
 41
20.0
 42
7.5
 43
20.0
 44
210.0
 45
297.0
 46
0.0
 47
0.0
 48
0.0
 49
0.0
140
0.0
141
0.0
142
1.0
143
6.420233463
 70
   688
 72
     1
 73
     1
 74
     1
  7

 75
     0
147
0.1557575758
148
825.0
149
520.0
100
AcDbLayout
  1
_Normal auf
 70
     1
 71
     3
 10
0.0
 20
0.0
 11
0.0
 21
0.0
 12
0.0
 22
0.0
 32
0.0
 14
0.0
 24
0.0
 34
0.0
 15
0.0
 25
0.0
 35
0.0
146
0.0
 13
0.0
 23
0.0
 33
0.0
 16
1.0
 26
0.0
 36
0.0
 17
0.0
 27
1.0
 37
0.0
 76
     0
330
8C
331
E2
  0
LAYOUT
  5
26
102
{ACAD_REACTORS
330
1A
102
}
330
1A
100
AcDbPlotSettings
  1

  2
none_device
  4
ISO_A4_(210.00_x_297.00_MM)
  6

 40
7.5
 41
20.0
 42
7.5
 43
20.0
 44
210.0
 45
297.0
 46
0.0
 47
0.0
 48
0.0
 49
0.0
140
0.0
141
0.0
142
1.0
143
6.420233463
 70
   688
 72
     1
 73
     1
 74
     1
  7

 75
     0
147
0.1557575758
148
825.0
149
520.0
100
AcDbLayout
  1
_Rechts
 70
     1
 71
     2
 10
0.0
 20
0.0
 11
0.0
 21
0.0
 12
0.0
 22
0.0
 32
0.0
 14
0.0
 24
0.0
 34
0.0
 15
0.0
 25
0.0
 35
0.0
146
0.0
 13
0.0
 23
0.0
 33
0.0
 16
1.0
 26
0.0
 36
0.0
 17
0.0
 27
1.0
 37
0.0
 76
     0
330
23
331
E0
  0
LAYOUT
  5
99
102
{ACAD_REACTORS
330
1A
102
}
330
1A
100
AcDbPlotSettings
  1

  2
none_device
  4
ISO_A4_(210.00_x_297.00_MM)
  6

 40
7.5
 41
20.0
 42
7.5
 43
20.0
 44
210.0
 45
297.0
 46
0.0
 47
0.0
 48
0.0
 49
0.0
140
0.0
141
0.0
142
1.0
143
6.420233463
 70
   688
 72
     1
 73
     1
 74
     1
  7

 75
     0
147
0.1557575758
148
825.0
149
520.0
100
AcDbLayout
  1
_Rückseite
 70
     1
 71
     4
 10
0.0
 20
0.0
 11
0.0
 21
0.0
 12
0.0
 22
0.0
 32
0.0
 14
0.0
 24
0.0
 34
0.0
 15
0.0
 25
0.0
 35
0.0
146
0.0
 13
0.0
 23
0.0
 33
0.0
 16
1.0
 26
0.0
 36
0.0
 17
0.0
 27
1.0
 37
0.0
 76
     0
330
98
331
E4
  0
LAYOUT
  5
CA
102
{ACAD_REACTORS
330
1A
102
}
330
1A
100
AcDbPlotSettings
  1

  2
none_device
  4
ISO_A4_(210.00_x_297.00_MM)
  6

 40
7.5
 41
20.0
 42
7.5
 43
20.0
 44
210.0
 45
297.0
 46
0.0
 47
0.0
 48
0.0
 49
0.0
140
0.0
141
0.0
142
1.0
143
6.420233463
 70
   688
 72
     1
 73
     1
 74
     1
  7

 75
     0
147
0.1557575758
148
825.0
149
520.0
100
AcDbLayout
  1
_Trimetrisch
 70
     1
 71
     8
 10
0.0
 20
0.0
 11
0.0
 21
0.0
 12
0.0
 22
0.0
 32
0.0
 14
0.0
 24
0.0
 34
0.0
 15
0.0
 25
0.0
 35
0.0
146
0.0
 13
0.0
 23
0.0
 33
0.0
 16
1.0
 26
0.0
 36
0.0
 17
0.0
 27
1.0
 37
0.0
 76
     0
330
C9
331
EC
  0
LAYOUT
  5
AD
102
{ACAD_REACTORS
330
1A
102
}
330
1A
100
AcDbPlotSettings
  1

  2
none_device
  4
ISO_A4_(210.00_x_297.00_MM)
  6

 40
7.5
 41
20.0
 42
7.5
 43
20.0
 44
210.0
 45
297.0
 46
0.0
 47
0.0
 48
0.0
 49
0.0
140
0.0
141
0.0
142
1.0
143
6.420233463
 70
   688
 72
     1
 73
     1
 74
     1
  7

 75
     0
147
0.1557575758
148
825.0
149
520.0
100
AcDbLayout
  1
_Unten
 70
     1
 71
     6
 10
0.0
 20
0.0
 11
0.0
 21
0.0
 12
0.0
 22
0.0
 32
0.0
 14
0.0
 24
0.0
 34
0.0
 15
0.0
 25
0.0
 35
0.0
146
0.0
 13
0.0
 23
0.0
 33
0.0
 16
1.0
 26
0.0
 36
0.0
 17
0.0
 27
1.0
 37
0.0
 76
     0
330
AC
331
E8
  0
LAYOUT
  5
1E
102
{ACAD_REACTORS
330
1A
102
}
330
1A
100
AcDbPlotSettings
  1

  2
none_device
  4
ISO_A4_(210.00_x_297.00_MM)
  6

 40
7.5
 41
20.0
 42
7.5
 43
20.0
 44
210.0
 45
297.0
 46
0.0
 47
0.0
 48
0.0
 49
0.0
140
0.0
141
0.0
142
1.0
143
6.420233463
 70
   688
 72
     1
 73
     1
 74
     1
  7

 75
     0
147
0.1557575758
148
825.0
149
520.0
100
AcDbLayout
  1
_Vorderseite
 70
     1
 71
     1
 10
-953.4046692607
 20
-568.1517509728
 11
953.4046692607
 21
780.0972762646
 12
0.0
 22
0.0
 32
0.0
 14
-825.0
 24
-520.0
 34
0.0
 15
825.0
 25
0.0
 35
0.0
146
0.0
 13
0.0
 23
0.0
 33
0.0
 16
1.0
 26
0.0
 36
0.0
 17
0.0
 27
1.0
 37
0.0
 76
     0
330
1B
331
DE
  0
LAYOUT
  5
22
102
{ACAD_REACTORS
330
1A
102
}
330
1A
100
AcDbPlotSettings
  1

  2
none_device
  4
ANSI_A_(11.00_x_8.50_Inches)
  6

 40
6.35
 41
19.05
 42
6.35000508
 43
19.05000254
 44
279.4
 45
215.9
 46
133.34999746
 47
88.89999873
 48
0.0
 49
0.0
140
0.0
141
0.0
142
0.0066
143
1.0
 70
  1696
 72
     0
 73
     0
 74
     0
  7

 75
     0
147
0.0179189148
148
-1300.4909072572
149
0.0
100
AcDbLayout
  1
Model
 70
     1
 71
     0
 10
0.0
 20
0.0
 11
420.0
 21
297.0
 12
0.0
 22
0.0
 32
0.0
 14
-825.0
 24
-425.0
 34
0.0
 15
825.0
 25
425.0
 35
0.0
146
0.0
 13
0.0
 23
0.0
 33
0.0
 16
1.0
 26
0.0
 36
0.0
 17
0.0
 27
1.0
 37
0.0
 76
     0
330
1F
331
29
  0
MLINESTYLE
  5
18
102
{ACAD_REACTORS
330
17
102
}
330
17
100
AcDbMlineStyle
  2
Standard
 70
     0
  3

 62
   256
 51
90.0
 52
90.0
 71
     2
 49
0.5
 62
   256
  6
BYLAYER
 49
-0.5
 62
   256
  6
BYLAYER
  0
ACDBPLACEHOLDER
  5
F
102
{ACAD_REACTORS
330
E
102
}
330
E
  0
SCALE
  5
48
102
{ACAD_REACTORS
330
47
102
}
330
47
100
AcDbScale
 70
     0
300
1:1
140
1.0
141
1.0
290
     1
  0
SCALE
  5
49
102
{ACAD_REACTORS
330
47
102
}
330
47
100
AcDbScale
 70
     0
300
1:2
140
1.0
141
2.0
290
     0
  0
SCALE
  5
4A
102
{ACAD_REACTORS
330
47
102
}
330
47
100
AcDbScale
 70
     0
300
1:4
140
1.0
141
4.0
290
     0
  0
SCALE
  5
4B
102
{ACAD_REACTORS
330
47
102
}
330
47
100
AcDbScale
 70
     0
300
1:5
140
1.0
141
5.0
290
     0
  0
SCALE
  5
4C
102
{ACAD_REACTORS
330
47
102
}
330
47
100
AcDbScale
 70
     0
300
1:8
140
1.0
141
8.0
290
     0
  0
SCALE
  5
4D
102
{ACAD_REACTORS
330
47
102
}
330
47
100
AcDbScale
 70
     0
300
1:10
140
1.0
141
10.0
290
     0
  0
SCALE
  5
4E
102
{ACAD_REACTORS
330
47
102
}
330
47
100
AcDbScale
 70
     0
300
1:16
140
1.0
141
16.0
290
     0
  0
SCALE
  5
4F
102
{ACAD_REACTORS
330
47
102
}
330
47
100
AcDbScale
 70
     0
300
1:20
140
1.0
141
20.0
290
     0
  0
SCALE
  5
50
102
{ACAD_REACTORS
330
47
102
}
330
47
100
AcDbScale
 70
     0
300
1:30
140
1.0
141
30.0
290
     0
  0
SCALE
  5
51
102
{ACAD_REACTORS
330
47
102
}
330
47
100
AcDbScale
 70
     0
300
1:40
140
1.0
141
40.0
290
     0
  0
SCALE
  5
52
102
{ACAD_REACTORS
330
47
102
}
330
47
100
AcDbScale
 70
     0
300
1:50
140
1.0
141
50.0
290
     0
  0
SCALE
  5
53
102
{ACAD_REACTORS
330
47
102
}
330
47
100
AcDbScale
 70
     0
300
1:100
140
1.0
141
100.0
290
     0
  0
SCALE
  5
54
102
{ACAD_REACTORS
330
47
102
}
330
47
100
AcDbScale
 70
     0
300
2:1
140
2.0
141
1.0
290
     0
  0
SCALE
  5
55
102
{ACAD_REACTORS
330
47
102
}
330
47
100
AcDbScale
 70
     0
300
4:1
140
4.0
141
1.0
290
     0
  0
SCALE
  5
56
102
{ACAD_REACTORS
330
47
102
}
330
47
100
AcDbScale
 70
     0
300
8:1
140
8.0
141
1.0
290
     0
  0
SCALE
  5
57
102
{ACAD_REACTORS
330
47
102
}
330
47
100
AcDbScale
 70
     0
300
10:1
140
10.0
141
1.0
290
     0
  0
SCALE
  5
58
102
{ACAD_REACTORS
330
47
102
}
330
47
100
AcDbScale
 70
     0
300
100:1
140
100.0
141
1.0
290
     0
  0
SCALE
  5
59
102
{ACAD_REACTORS
330
47
102
}
330
47
100
AcDbScale
 70
     0
300
1/128" = 1'-0"
140
0.0078125
141
12.0
290
     0
  0
SCALE
  5
5A
102
{ACAD_REACTORS
330
47
102
}
330
47
100
AcDbScale
 70
     0
300
1/64" = 1'-0"
140
0.015625
141
12.0
290
     0
  0
SCALE
  5
5B
102
{ACAD_REACTORS
330
47
102
}
330
47
100
AcDbScale
 70
     0
300
1/32" = 1'-0"
140
0.03125
141
12.0
290
     0
  0
SCALE
  5
5C
102
{ACAD_REACTORS
330
47
102
}
330
47
100
AcDbScale
 70
     0
300
1/16" = 1'-0"
140
0.0625
141
12.0
290
     0
  0
SCALE
  5
5D
102
{ACAD_REACTORS
330
47
102
}
330
47
100
AcDbScale
 70
     0
300
3/32" = 1'-0"
140
0.09375
141
12.0
290
     0
  0
SCALE
  5
5E
102
{ACAD_REACTORS
330
47
102
}
330
47
100
AcDbScale
 70
     0
300
1/8" = 1'-0"
140
0.125
141
12.0
290
     0
  0
SCALE
  5
5F
102
{ACAD_REACTORS
330
47
102
}
330
47
100
AcDbScale
 70
     0
300
3/16" = 1'-0"
140
0.1875
141
12.0
290
     0
  0
SCALE
  5
60
102
{ACAD_REACTORS
330
47
102
}
330
47
100
AcDbScale
 70
     0
300
1/4" = 1'-0"
140
0.25
141
12.0
290
     0
  0
SCALE
  5
61
102
{ACAD_REACTORS
330
47
102
}
330
47
100
AcDbScale
 70
     0
300
3/8" = 1'-0"
140
0.375
141
12.0
290
     0
  0
SCALE
  5
62
102
{ACAD_REACTORS
330
47
102
}
330
47
100
AcDbScale
 70
     0
300
1/2" = 1'-0"
140
0.5
141
12.0
290
     0
  0
SCALE
  5
63
102
{ACAD_REACTORS
330
47
102
}
330
47
100
AcDbScale
 70
     0
300
3/4" = 1'-0"
140
0.75
141
12.0
290
     0
  0
SCALE
  5
64
102
{ACAD_REACTORS
330
47
102
}
330
47
100
AcDbScale
 70
     0
300
1" = 1'-0"
140
1.0
141
12.0
290
     0
  0
SCALE
  5
65
102
{ACAD_REACTORS
330
47
102
}
330
47
100
AcDbScale
 70
     0
300
1-1/2" = 1'-0"
140
1.5
141
12.0
290
     0
  0
SCALE
  5
66
102
{ACAD_REACTORS
330
47
102
}
330
47
100
AcDbScale
 70
     0
300
3" = 1'-0"
140
3.0
141
12.0
290
     0
  0
SCALE
  5
67
102
{ACAD_REACTORS
330
47
102
}
330
47
100
AcDbScale
 70
     0
300
6" = 1'-0"
140
6.0
141
12.0
290
     0
  0
SCALE
  5
68
102
{ACAD_REACTORS
330
47
102
}
330
47
100
AcDbScale
 70
     0
300
1'-0" = 1'-0"
140
12.0
141
12.0
290
     0
  0
ENDSEC
  0
EOF
