  0
SECTION
  2
HEADER
  9
$ACADVER
  1
AC1027
  9
$ACADMAINTVER
 70
   105
  9
$DWGCODEPAGE
  3
ANSI_1252
  9
$REQUIREDVERSIONS
160
                 0
  9
$INSBASE
 10
0.0
 20
0.0
 30
0.0
  9
$EXTMIN
 10
-225.0
 20
0.0
 30
0.0
  9
$EXTMAX
 10
225.0
 20
145.0
 30
0.0
  9
$LIMMIN
 10
0.0
 20
0.0
  9
$LIMMAX
 10
420.0
 20
297.0
  9
$ORTHOMODE
 70
     0
  9
$REGENMODE
 70
     1
  9
$FILLMODE
 70
     1
  9
$QTEXTMODE
 70
     0
  9
$MIRRTEXT
 70
     1
  9
$LTSCALE
 40
1.0
  9
$ATTMODE
 70
     1
  9
$TEXTSIZE
 40
3.5
  9
$TRACEWID
 40
1.0
  9
$TEXTSTYLE
  7
STANDARD
  9
$CLAYER
  8
0
  9
$CELTYPE
  6
ByLayer
  9
$CECOLOR
 62
   256
  9
$CELTSCALE
 40
1.0
  9
$DISPSILH
 70
     0
  9
$DIMSCALE
 40
1.0
  9
$DIMASZ
 40
8.0
  9
$DIMEXO
 40
1.0
  9
$DIMDLI
 40
3.75
  9
$DIMRND
 40
0.0
  9
$DIMDLE
 40
0.0
  9
$DIMEXE
 40
1.0
  9
$DIMTP
 40
0.0
  9
$DIMTM
 40
0.0
  9
$DIMTXT
 40
16.9333333333
  9
$DIMCEN
 40
2.5
  9
$DIMTSZ
 40
0.0
  9
$DIMTOL
 70
     0
  9
$DIMLIM
 70
     0
  9
$DIMTIH
 70
     1
  9
$DIMTOH
 70
     1
  9
$DIMSE1
 70
     0
  9
$DIMSE2
 70
     0
  9
$DIMTAD
 70
     1
  9
$DIMZIN
 70
     0
  9
$DIMBLK
  1

  9
$DIMASO
 70
     1
  9
$DIMSHO
 70
     1
  9
$DIMPOST
  1

  9
$DIMAPOST
  1

  9
$DIMALT
 70
     0
  9
$DIMALTD
 70
     3
  9
$DIMALTF
 40
0.0393700787
  9
$DIMLFAC
 40
1.0
  9
$DIMTOFL
 70
     1
  9
$DIMTVP
 40
0.0
  9
$DIMTIX
 70
     0
  9
$DIMSOXD
 70
     0
  9
$DIMSAH
 70
     0
  9
$DIMBLK1
  1

  9
$DIMBLK2
  1

  9
$DIMSTYLE
  2
ISO-25
  9
$DIMCLRD
 70
     0
  9
$DIMCLRE
 70
     0
  9
$DIMCLRT
 70
     0
  9
$DIMTFAC
 40
1.0
  9
$DIMGAP
 40
1.524
  9
$DIMJUST
 70
     0
  9
$DIMSD1
 70
     0
  9
$DIMSD2
 70
     0
  9
$DIMTOLJ
 70
     0
  9
$DIMTZIN
 70
     0
  9
$DIMALTZ
 70
     0
  9
$DIMALTTZ
 70
     0
  9
$DIMUPT
 70
     0
  9
$DIMDEC
 70
     3
  9
$DIMTDEC
 70
     3
  9
$DIMALTU
 70
     2
  9
$DIMALTTD
 70
     3
  9
$DIMTXSTY
  7
STANDARD
  9
$DIMAUNIT
 70
     0
  9
$DIMADEC
 70
     2
  9
$DIMALTRND
 40
0.0
  9
$DIMAZIN
 70
     0
  9
$DIMDSEP
 70
    44
  9
$DIMATFIT
 70
     3
  9
$DIMFRAC
 70
     0
  9
$DIMLDRBLK
  1

  9
$DIMLUNIT
 70
     2
  9
$DIMLWD
 70
    -2
  9
$DIMLWE
 70
    -2
  9
$DIMTMOVE
 70
     0
  9
$DIMFXL
 40
1.0
  9
$DIMFXLON
 70
     0
  9
$DIMJOGANG
 40
0.7853981634
  9
$DIMTFILL
 70
     0
  9
$DIMTFILLCLR
 70
     0
  9
$DIMARCSYM
 70
     0
  9
$DIMLTYPE
  6

  9
$DIMLTEX1
  6

  9
$DIMLTEX2
  6

  9
$DIMTXTDIRECTION
 70
     0
  9
$LUNITS
 70
     2
  9
$LUPREC
 70
     2
  9
$SKETCHINC
 40
1.0
  9
$FILLETRAD
 40
10.0
  9
$AUNITS
 70
     0
  9
$AUPREC
 70
     2
  9
$MENU
  1
.
  9
$ELEVATION
 40
0.0
  9
$PELEVATION
 40
0.0
  9
$THICKNESS
 40
0.0
  9
$LIMCHECK
 70
     0
  9
$CHAMFERA
 40
0.0
  9
$CHAMFERB
 40
0.0
  9
$CHAMFERC
 40
0.0
  9
$CHAMFERD
 40
0.0
  9
$SKPOLY
 70
     0
  9
$TDCREATE
 40
2458299.474993438
  9
$TDUCREATE
 40
2458299.391660104
  9
$TDUPDATE
 40
2458299.475019815
  9
$TDUUPDATE
 40
2458299.391686481
  9
$TDINDWG
 40
0.0000000116
  9
$TDUSRTIMER
 40
0.0000000116
  9
$USRTIMER
 70
     1
  9
$ANGBASE
 50
0.0
  9
$ANGDIR
 70
     0
  9
$PDMODE
 70
     0
  9
$PDSIZE
 40
-1.0
  9
$PLINEWID
 40
0.0
  9
$SPLFRAME
 70
     0
  9
$SPLINETYPE
 70
     6
  9
$SPLINESEGS
 70
     8
  9
$HANDSEED
  5
126
  9
$SURFTAB1
 70
     6
  9
$SURFTAB2
 70
     6
  9
$SURFTYPE
 70
     6
  9
$SURFU
 70
     6
  9
$SURFV
 70
     6
  9
$UCSBASE
  2

  9
$UCSNAME
  2

  9
$UCSORG
 10
0.0
 20
0.0
 30
0.0
  9
$UCSXDIR
 10
1.0
 20
0.0
 30
0.0
  9
$UCSYDIR
 10
0.0
 20
1.0
 30
0.0
  9
$UCSORTHOREF
  2

  9
$UCSORTHOVIEW
 70
     0
  9
$UCSORGTOP
 10
0.0
 20
0.0
 30
0.0
  9
$UCSORGBOTTOM
 10
0.0
 20
0.0
 30
0.0
  9
$UCSORGLEFT
 10
0.0
 20
0.0
 30
0.0
  9
$UCSORGRIGHT
 10
0.0
 20
0.0
 30
0.0
  9
$UCSORGFRONT
 10
0.0
 20
0.0
 30
0.0
  9
$UCSORGBACK
 10
0.0
 20
0.0
 30
0.0
  9
$PUCSBASE
  2

  9
$PUCSNAME
  2

  9
$PUCSORG
 10
0.0
 20
0.0
 30
0.0
  9
$PUCSXDIR
 10
1.0
 20
0.0
 30
0.0
  9
$PUCSYDIR
 10
0.0
 20
1.0
 30
0.0
  9
$PUCSORTHOREF
  2

  9
$PUCSORTHOVIEW
 70
     0
  9
$PUCSORGTOP
 10
0.0
 20
0.0
 30
0.0
  9
$PUCSORGBOTTOM
 10
0.0
 20
0.0
 30
0.0
  9
$PUCSORGLEFT
 10
0.0
 20
0.0
 30
0.0
  9
$PUCSORGRIGHT
 10
0.0
 20
0.0
 30
0.0
  9
$PUCSORGFRONT
 10
0.0
 20
0.0
 30
0.0
  9
$PUCSORGBACK
 10
0.0
 20
0.0
 30
0.0
  9
$USERI1
 70
     0
  9
$USERI2
 70
     0
  9
$USERI3
 70
     0
  9
$USERI4
 70
     0
  9
$USERI5
 70
     0
  9
$USERR1
 40
0.0
  9
$USERR2
 40
0.0
  9
$USERR3
 40
0.0
  9
$USERR4
 40
0.0
  9
$USERR5
 40
0.0
  9
$WORLDVIEW
 70
     1
  9
$SHADEDGE
 70
     3
  9
$SHADEDIF
 70
    70
  9
$TILEMODE
 70
     1
  9
$MAXACTVP
 70
    64
  9
$PINSBASE
 10
0.0
 20
0.0
 30
0.0
  9
$PLIMCHECK
 70
     0
  9
$PEXTMIN
 10
-225.0
 20
-225.0
 30
0.0
  9
$PEXTMAX
 10
225.0
 20
225.0
 30
0.0
  9
$PLIMMIN
 10
-271.1538461538
 20
-242.3076923077
  9
$PLIMMAX
 10
414.2307692308
 20
242.3076923077
  9
$UNITMODE
 70
     0
  9
$VISRETAIN
 70
     1
  9
$PLINEGEN
 70
     0
  9
$PSLTSCALE
 70
     1
  9
$TREEDEPTH
 70
  3020
  9
$CMLSTYLE
  2
Standard
  9
$CMLJUST
 70
     0
  9
$CMLSCALE
 40
20.0
  9
$PROXYGRAPHICS
 70
     1
  9
$MEASUREMENT
 70
     1
  9
$CELWEIGHT
370
    -1
  9
$ENDCAPS
280
     0
  9
$JOINSTYLE
280
     0
  9
$LWDISPLAY
290
     1
  9
$INSUNITS
 70
     4
  9
$HYPERLINKBASE
  1

  9
$STYLESHEET
  1

  9
$XEDIT
290
     1
  9
$CEPSNTYPE
380
     0
  9
$PSTYLEMODE
290
     1
  9
$FINGERPRINTGUID
  2
{3CE151A2-B9AD-489F-9EA7-635DB8394B2C}
  9
$VERSIONGUID
  2
{FAEB1C32-E019-11D5-929B-00C0DF256EC4}
  9
$EXTNAMES
290
     1
  9
$PSVPSCALE
 40
0.0
  9
$OLESTARTUP
290
     0
  9
$SORTENTS
280
   127
  9
$INDEXCTL
280
     0
  9
$HIDETEXT
280
     1
  9
$XCLIPFRAME
280
     2
  9
$HALOGAP
280
     0
  9
$OBSCOLOR
 70
   257
  9
$OBSLTYPE
280
     0
  9
$INTERSECTIONDISPLAY
280
     0
  9
$INTERSECTIONCOLOR
 70
   257
  9
$DIMASSOC
280
     2
  9
$PROJECTNAME
  1

  9
$CAMERADISPLAY
290
     0
  9
$LENSLENGTH
 40
50.0
  9
$CAMERAHEIGHT
 40
0.0
  9
$STEPSPERSEC
 40
2.0
  9
$STEPSIZE
 40
6.0
  9
$3DDWFPREC
 40
2.0
  9
$PSOLWIDTH
 40
5.0
  9
$PSOLHEIGHT
 40
80.0
  9
$LOFTANG1
 40
1.5707963268
  9
$LOFTANG2
 40
1.5707963268
  9
$LOFTMAG1
 40
0.0
  9
$LOFTMAG2
 40
0.0
  9
$LOFTPARAM
 70
     7
  9
$LOFTNORMALS
280
     1
  9
$LATITUDE
 40
37.795
  9
$LONGITUDE
 40
-122.394
  9
$NORTHDIRECTION
 40
0.0
  9
$TIMEZONE
 70
 -8000
  9
$LIGHTGLYPHDISPLAY
280
     1
  9
$TILEMODELIGHTSYNCH
280
     1
  9
$CMATERIAL
347
44
  9
$SOLIDHIST
280
     0
  9
$SHOWHIST
280
     1
  9
$DWFFRAME
280
     2
  9
$DGNFRAME
280
     2
  9
$REALWORLDSCALE
290
     1
  9
$INTERFERECOLOR
 62
   256
  9
$CSHADOW
280
     0
  9
$SHADOWPLANELOCATION
 40
0.0
  0
ENDSEC
  0
SECTION
  2
CLASSES
  0
CLASS
  1
ACDBDICTIONARYWDFLT
  2
AcDbDictionaryWithDefault
  3
ObjectDBX Classes
 90
        0
 91
        4
280
     0
281
     0
  0
CLASS
  1
VISUALSTYLE
  2
AcDbVisualStyle
  3
ObjectDBX Classes
 90
     4095
 91
        4
280
     0
281
     0
  0
CLASS
  1
MATERIAL
  2
AcDbMaterial
  3
ObjectDBX Classes
 90
     1153
 91
        4
280
     0
281
     0
  0
CLASS
  1
SCALE
  2
AcDbScale
  3
ObjectDBX Classes
 90
     1153
 91
        4
280
     0
281
     0
  0
CLASS
  1
TABLESTYLE
  2
AcDbTableStyle
  3
ObjectDBX Classes
 90
     4095
 91
        4
280
     0
281
     0
  0
CLASS
  1
MLEADERSTYLE
  2
AcDbMLeaderStyle
  3
ACDB_MLEADERSTYLE_CLASS
 90
     4095
 91
        4
280
     0
281
     0
  0
CLASS
  1
SUN
  2
AcDbSun
  3
SCENEOE
 90
     1153
 91
        4
280
     0
281
     0
  0
CLASS
  1
DICTIONARYVAR
  2
AcDbDictionaryVar
  3
ObjectDBX Classes
 90
        0
 91
        4
280
     0
281
     0
  0
CLASS
  1
CELLSTYLEMAP
  2
AcDbCellStyleMap
  3
ObjectDBX Classes
 90
     1152
 91
        4
280
     0
281
     0
  0
ENDSEC
  0
SECTION
  2
TABLES
  0
TABLE
  2
VPORT
  5
8
330
0
100
AcDbSymbolTable
 70
     1
  0
VPORT
  5
29
330
8
100
AcDbSymbolTableRecord
100
AcDbViewportTableRecord
  2
*Active
 70
     0
 10
0.0
 20
0.0
 11
1.0
 21
1.0
 12
0.0
 22
72.5
 13
0.0
 23
0.0
 14
10.0
 24
10.0
 15
10.0
 25
10.0
 16
0.0
 26
0.0
 36
1.0
 17
0.0
 27
0.0
 37
0.0
 40
147.9
 41
3.1034482759
 42
50.0
 43
0.0
 44
0.0
 50
0.0
 51
0.0
 71
     0
 72
   100
 73
     1
 74
     3
 75
     0
 76
     0
 77
     0
 78
     0
281
     0
 65
     1
110
0.0
120
0.0
130
0.0
111
1.0
121
0.0
131
0.0
112
0.0
122
1.0
132
0.0
 79
     0
146
0.0
348
2F
 60
     3
 61
     5
292
     1
282
     1
141
0.0
142
0.0
 63
   250
361
6D
  0
ENDTAB
  0
TABLE
  2
LTYPE
  5
5
330
0
100
AcDbSymbolTable
 70
     6
  0
LTYPE
  5
14
330
5
100
AcDbSymbolTableRecord
100
AcDbLinetypeTableRecord
  2
ByBlock
 70
     0
  3

 72
    65
 73
     0
 40
0.0
  0
LTYPE
  5
15
330
5
100
AcDbSymbolTableRecord
100
AcDbLinetypeTableRecord
  2
ByLayer
 70
     0
  3

 72
    65
 73
     0
 40
0.0
  0
LTYPE
  5
16
330
5
100
AcDbSymbolTableRecord
100
AcDbLinetypeTableRecord
  2
Continuous
 70
     0
  3
Solid line
 72
    65
 73
     0
 40
0.0
  0
LTYPE
  5
6E
330
5
100
AcDbSymbolTableRecord
100
AcDbLinetypeTableRecord
  2
HIDDEN
 70
     0
  3
Hidden __ __ __ __ __ __ __ __ __ __ __ __ __ __
 72
    65
 73
     2
 40
1.905
 49
1.27
 74
     0
 49
-0.635
 74
     0
  0
LTYPE
  5
6F
330
5
100
AcDbSymbolTableRecord
100
AcDbLinetypeTableRecord
  2
PHANTOM
 70
     0
  3
Phantom ______  __  __  ______  __  __  ______
 72
    65
 73
     6
 40
12.7
 49
6.35
 74
     0
 49
-1.27
 74
     0
 49
1.27
 74
     0
 49
-1.27
 74
     0
 49
1.27
 74
     0
 49
-1.27
 74
     0
  0
LTYPE
  5
70
330
5
100
AcDbSymbolTableRecord
100
AcDbLinetypeTableRecord
  2
CENTER
 70
     0
  3
Center ____ _ ____ _ ____ _ ____ _ ____ _ ____
 72
    65
 73
     4
 40
10.16
 49
6.35
 74
     0
 49
-1.27
 74
     0
 49
1.27
 74
     0
 49
-1.27
 74
     0
  0
LTYPE
  5
71
330
5
100
AcDbSymbolTableRecord
100
AcDbLinetypeTableRecord
  2
CENTERX2
 70
     0
  3
Center (2x) ________  __  ________  __  _____
 72
    65
 73
     4
 40
20.32
 49
12.7
 74
     0
 49
-2.54
 74
     0
 49
2.54
 74
     0
 49
-2.54
 74
     0
  0
LTYPE
  5
72
330
5
100
AcDbSymbolTableRecord
100
AcDbLinetypeTableRecord
  2
DOT2
 70
     0
  3
Dot (.5x) ........................................
 72
    65
 73
     2
 40
0.635
 49
0.0
 74
     0
 49
-0.635
 74
     0
  0
ENDTAB
  0
TABLE
  2
LAYER
  5
2
330
0
100
AcDbSymbolTable
 70
     1
  0
LAYER
  5
10
330
2
100
AcDbSymbolTableRecord
100
AcDbLayerTableRecord
  2
0
 70
     0
 62
     7
  6
Continuous
370
    -3
390
F
347
46
348
0
  0
ENDTAB
  0
TABLE
  2
STYLE
  5
3
330
0
100
AcDbSymbolTable
 70
     1
  0
STYLE
  5
11
330
3
100
AcDbSymbolTableRecord
100
AcDbTextStyleTableRecord
  2
STANDARD
 70
     0
 40
0.0
 41
1.0
 50
0.0
 71
     0
 42
3.5
  3
GOTHIC.TTF
  4

1001
ACAD
1000
CENTURY GOTHIC
1071
       34
  0
ENDTAB
  0
TABLE
  2
VIEW
  5
6
330
0
100
AcDbSymbolTable
 70
     0
  0
ENDTAB
  0
TABLE
  2
UCS
  5
7
330
0
100
AcDbSymbolTable
 70
     0
  0
ENDTAB
  0
TABLE
  2
APPID
  5
9
330
0
100
AcDbSymbolTable
 70
     1
  0
APPID
  5
12
330
9
100
AcDbSymbolTableRecord
100
AcDbRegAppTableRecord
  2
ACAD
 70
     0
  0
ENDTAB
  0
TABLE
  2
DIMSTYLE
  5
A
330
0
100
AcDbSymbolTable
 70
     1
100
AcDbDimStyleTable
  0
DIMSTYLE
105
27
330
A
100
AcDbSymbolTableRecord
100
AcDbDimStyleTableRecord
  2
ISO-25
 70
     0
 41
2.5
 42
0.625
 43
3.75
 44
1.25
 73
     0
 74
     0
 77
     1
 78
     8
140
2.5
141
2.5
143
0.0393700787
147
0.625
171
     3
172
     1
178
     0
271
     2
272
     2
274
     3
278
    44
283
     0
284
     8
340
11
  0
ENDTAB
  0
TABLE
  2
BLOCK_RECORD
  5
1
330
0
100
AcDbSymbolTable
 70
    11
  0
BLOCK_RECORD
  5
1F
330
1
100
AcDbSymbolTableRecord
100
AcDbBlockTableRecord
  2
*Model_Space
340
22
 70
     0
280
     1
281
     0
  0
BLOCK_RECORD
  5
1B
330
1
100
AcDbSymbolTableRecord
100
AcDbBlockTableRecord
  2
*Paper_Space
340
1E
 70
     0
280
     1
281
     0
  0
BLOCK_RECORD
  5
23
330
1
100
AcDbSymbolTableRecord
100
AcDbBlockTableRecord
  2
*Paper_Space0
340
26
 70
     0
280
     1
281
     0
  0
BLOCK_RECORD
  5
87
330
1
100
AcDbSymbolTableRecord
100
AcDbBlockTableRecord
  2
*Paper_Space1
340
88
 70
     0
280
     1
281
     0
  0
BLOCK_RECORD
  5
93
330
1
100
AcDbSymbolTableRecord
100
AcDbBlockTableRecord
  2
*Paper_Space2
340
94
 70
     0
280
     1
281
     0
  0
BLOCK_RECORD
  5
9F
330
1
100
AcDbSymbolTableRecord
100
AcDbBlockTableRecord
  2
*Paper_Space3
340
A0
 70
     0
280
     1
281
     0
  0
BLOCK_RECORD
  5
AB
330
1
100
AcDbSymbolTableRecord
100
AcDbBlockTableRecord
  2
*Paper_Space4
340
AC
 70
     0
280
     1
281
     0
  0
BLOCK_RECORD
  5
B9
330
1
100
AcDbSymbolTableRecord
100
AcDbBlockTableRecord
  2
*Paper_Space5
340
BA
 70
     0
280
     1
281
     0
  0
BLOCK_RECORD
  5
C5
330
1
100
AcDbSymbolTableRecord
100
AcDbBlockTableRecord
  2
*Paper_Space6
340
C6
 70
     0
280
     1
281
     0
  0
BLOCK_RECORD
  5
D1
330
1
100
AcDbSymbolTableRecord
100
AcDbBlockTableRecord
  2
*Paper_Space7
340
D2
 70
     0
280
     1
281
     0
  0
BLOCK_RECORD
  5
D8
330
1
100
AcDbSymbolTableRecord
100
AcDbBlockTableRecord
  2
*Paper_Space8
340
D9
 70
     0
280
     1
281
     0
  0
BLOCK_RECORD
  5
EA
330
1
100
AcDbSymbolTableRecord
100
AcDbBlockTableRecord
  2
*Paper_Space9
340
EB
 70
     0
280
     1
281
     0
  0
BLOCK_RECORD
  5
FA
330
1
100
AcDbSymbolTableRecord
100
AcDbBlockTableRecord
  2
*Paper_Space10
340
FB
 70
     0
280
     1
281
     0
  0
ENDTAB
  0
ENDSEC
  0
SECTION
  2
BLOCKS
  0
BLOCK
  5
20
330
1F
100
AcDbEntity
  8
0
100
AcDbBlockBegin
  2
*Model_Space
 70
     0
 10
0.0
 20
0.0
 30
0.0
  3
*Model_Space
  1

  0
ENDBLK
  5
21
330
1F
100
AcDbEntity
  8
0
100
AcDbBlockEnd
  0
BLOCK
  5
1C
330
1B
100
AcDbEntity
 67
     1
  8
0
100
AcDbBlockBegin
  2
*Paper_Space
 70
     0
 10
0.0
 20
0.0
 30
0.0
  3
*Paper_Space
  1

  0
ENDBLK
  5
1D
330
1B
100
AcDbEntity
 67
     1
  8
0
100
AcDbBlockEnd
  0
BLOCK
  5
24
330
23
100
AcDbEntity
  8
0
100
AcDbBlockBegin
  2
*Paper_Space0
 70
     0
 10
0.0
 20
0.0
 30
0.0
  3
*Paper_Space0
  1

  0
LINE
  5
83
330
23
100
AcDbEntity
  8
0
  6
Continuous
 62
     7
370
    25
100
AcDbLine
 10
-225.0
 20
145.0
 30
0.0
 11
-187.5
 21
0.0
 31
0.0
  0
LINE
  5
84
330
23
100
AcDbEntity
  8
0
  6
Continuous
 62
     7
370
    25
100
AcDbLine
 10
187.5
 20
0.0
 30
0.0
 11
225.0
 21
145.0
 31
0.0
  0
LINE
  5
85
330
23
100
AcDbEntity
  8
0
  6
Continuous
 62
     7
370
    25
100
AcDbLine
 10
187.5
 20
0.0
 30
0.0
 11
-187.5
 21
0.0
 31
0.0
  0
LINE
  5
86
330
23
100
AcDbEntity
  8
0
  6
Continuous
 62
     7
370
    25
100
AcDbLine
 10
225.0
 20
145.0
 30
0.0
 11
-225.0
 21
145.0
 31
0.0
  0
VIEWPORT
  5
107
330
23
100
AcDbEntity
  8
0
100
AcDbViewport
 10
0.0
 20
0.0
 30
0.0
 40
205.6
 41
156.0
 68
     1
 69
     1
 12
0.0
 22
72.5
 13
0.0
 23
0.0
 14
10.0
 24
10.0
 15
10.0
 25
10.0
 16
0.0
 26
0.0
 36
1.0
 17
0.0
 27
0.0
 37
0.0
 42
50.0
 43
0.0
 44
0.0
 45
348.2684824903
 50
0.0
 51
0.0
 72
   100
 90
   557152
  1

281
     0
 71
     1
 74
     0
110
0.0
120
0.0
130
0.0
111
1.0
121
0.0
131
0.0
112
0.0
122
1.0
132
0.0
 79
     0
146
0.0
170
     0
 61
     5
348
2F
292
     1
282
     1
141
0.0
142
0.0
 63
   256
361
108
  0
ENDBLK
  5
25
330
23
100
AcDbEntity
  8
0
100
AcDbBlockEnd
  0
BLOCK
  5
89
330
87
100
AcDbEntity
  8
0
100
AcDbBlockBegin
  2
*Paper_Space1
 70
     0
 10
0.0
 20
0.0
 30
0.0
  3
*Paper_Space1
  1

  0
LINE
  5
8F
330
87
100
AcDbEntity
  8
0
  6
Continuous
 62
     7
370
    25
100
AcDbLine
 10
-225.0
 20
145.0
 30
0.0
 11
-187.5
 21
0.0
 31
0.0
  0
LINE
  5
90
330
87
100
AcDbEntity
  8
0
  6
Continuous
 62
     7
370
    25
100
AcDbLine
 10
187.5
 20
0.0
 30
0.0
 11
225.0
 21
145.0
 31
0.0
  0
LINE
  5
91
330
87
100
AcDbEntity
  8
0
  6
Continuous
 62
     7
370
    25
100
AcDbLine
 10
187.5
 20
0.0
 30
0.0
 11
-187.5
 21
0.0
 31
0.0
  0
LINE
  5
92
330
87
100
AcDbEntity
  8
0
  6
Continuous
 62
     7
370
    25
100
AcDbLine
 10
225.0
 20
145.0
 30
0.0
 11
-225.0
 21
145.0
 31
0.0
  0
VIEWPORT
  5
109
330
87
100
AcDbEntity
  8
0
100
AcDbViewport
 10
0.0
 20
0.0
 30
0.0
 40
205.6
 41
156.0
 68
     1
 69
     1
 12
0.0
 22
72.5
 13
0.0
 23
0.0
 14
10.0
 24
10.0
 15
10.0
 25
10.0
 16
0.0
 26
0.0
 36
1.0
 17
0.0
 27
0.0
 37
0.0
 42
50.0
 43
0.0
 44
0.0
 45
348.2684824903
 50
0.0
 51
0.0
 72
   100
 90
   557152
  1

281
     0
 71
     1
 74
     0
110
0.0
120
0.0
130
0.0
111
1.0
121
0.0
131
0.0
112
0.0
122
1.0
132
0.0
 79
     0
146
0.0
170
     0
 61
     5
348
2F
292
     1
282
     1
141
0.0
142
0.0
 63
   256
361
10A
  0
ENDBLK
  5
8A
330
87
100
AcDbEntity
  8
0
100
AcDbBlockEnd
  0
BLOCK
  5
95
330
93
100
AcDbEntity
  8
0
100
AcDbBlockBegin
  2
*Paper_Space2
 70
     0
 10
0.0
 20
0.0
 30
0.0
  3
*Paper_Space2
  1

  0
LINE
  5
9B
330
93
100
AcDbEntity
  8
0
  6
Continuous
 62
     7
370
    25
100
AcDbLine
 10
-225.0
 20
145.0
 30
0.0
 11
-187.5
 21
0.0
 31
0.0
  0
LINE
  5
9C
330
93
100
AcDbEntity
  8
0
  6
Continuous
 62
     7
370
    25
100
AcDbLine
 10
187.5
 20
0.0
 30
0.0
 11
225.0
 21
145.0
 31
0.0
  0
LINE
  5
9D
330
93
100
AcDbEntity
  8
0
  6
Continuous
 62
     7
370
    25
100
AcDbLine
 10
187.5
 20
0.0
 30
0.0
 11
-187.5
 21
0.0
 31
0.0
  0
LINE
  5
9E
330
93
100
AcDbEntity
  8
0
  6
Continuous
 62
     7
370
    25
100
AcDbLine
 10
225.0
 20
145.0
 30
0.0
 11
-225.0
 21
145.0
 31
0.0
  0
VIEWPORT
  5
10B
330
93
100
AcDbEntity
  8
0
100
AcDbViewport
 10
0.0
 20
0.0
 30
0.0
 40
205.6
 41
156.0
 68
     1
 69
     1
 12
0.0
 22
72.5
 13
0.0
 23
0.0
 14
10.0
 24
10.0
 15
10.0
 25
10.0
 16
0.0
 26
0.0
 36
1.0
 17
0.0
 27
0.0
 37
0.0
 42
50.0
 43
0.0
 44
0.0
 45
348.2684824903
 50
0.0
 51
0.0
 72
   100
 90
   557152
  1

281
     0
 71
     1
 74
     0
110
0.0
120
0.0
130
0.0
111
1.0
121
0.0
131
0.0
112
0.0
122
1.0
132
0.0
 79
     0
146
0.0
170
     0
 61
     5
348
2F
292
     1
282
     1
141
0.0
142
0.0
 63
   256
361
10C
  0
ENDBLK
  5
96
330
93
100
AcDbEntity
  8
0
100
AcDbBlockEnd
  0
BLOCK
  5
A1
330
9F
100
AcDbEntity
  8
0
100
AcDbBlockBegin
  2
*Paper_Space3
 70
     0
 10
0.0
 20
0.0
 30
0.0
  3
*Paper_Space3
  1

  0
LINE
  5
A7
330
9F
100
AcDbEntity
  8
0
  6
Continuous
 62
     7
370
    25
100
AcDbLine
 10
-225.0
 20
145.0
 30
0.0
 11
-187.5
 21
0.0
 31
0.0
  0
LINE
  5
A8
330
9F
100
AcDbEntity
  8
0
  6
Continuous
 62
     7
370
    25
100
AcDbLine
 10
187.5
 20
0.0
 30
0.0
 11
225.0
 21
145.0
 31
0.0
  0
LINE
  5
A9
330
9F
100
AcDbEntity
  8
0
  6
Continuous
 62
     7
370
    25
100
AcDbLine
 10
187.5
 20
0.0
 30
0.0
 11
-187.5
 21
0.0
 31
0.0
  0
LINE
  5
AA
330
9F
100
AcDbEntity
  8
0
  6
Continuous
 62
     7
370
    25
100
AcDbLine
 10
225.0
 20
145.0
 30
0.0
 11
-225.0
 21
145.0
 31
0.0
  0
VIEWPORT
  5
10D
330
9F
100
AcDbEntity
  8
0
100
AcDbViewport
 10
0.0
 20
0.0
 30
0.0
 40
205.6
 41
156.0
 68
     1
 69
     1
 12
0.0
 22
72.5
 13
0.0
 23
0.0
 14
10.0
 24
10.0
 15
10.0
 25
10.0
 16
0.0
 26
0.0
 36
1.0
 17
0.0
 27
0.0
 37
0.0
 42
50.0
 43
0.0
 44
0.0
 45
348.2684824903
 50
0.0
 51
0.0
 72
   100
 90
   557152
  1

281
     0
 71
     1
 74
     0
110
0.0
120
0.0
130
0.0
111
1.0
121
0.0
131
0.0
112
0.0
122
1.0
132
0.0
 79
     0
146
0.0
170
     0
 61
     5
348
2F
292
     1
282
     1
141
0.0
142
0.0
 63
   256
361
10E
  0
ENDBLK
  5
A2
330
9F
100
AcDbEntity
  8
0
100
AcDbBlockEnd
  0
BLOCK
  5
AD
330
AB
100
AcDbEntity
  8
0
100
AcDbBlockBegin
  2
*Paper_Space4
 70
     0
 10
0.0
 20
0.0
 30
0.0
  3
*Paper_Space4
  1

  0
LINE
  5
B5
330
AB
100
AcDbEntity
  8
0
  6
Continuous
 62
     7
370
    25
100
AcDbLine
 10
-225.0
 20
145.0
 30
0.0
 11
-187.5
 21
0.0
 31
0.0
  0
LINE
  5
B6
330
AB
100
AcDbEntity
  8
0
  6
Continuous
 62
     7
370
    25
100
AcDbLine
 10
187.5
 20
0.0
 30
0.0
 11
225.0
 21
145.0
 31
0.0
  0
LINE
  5
B7
330
AB
100
AcDbEntity
  8
0
  6
Continuous
 62
     7
370
    25
100
AcDbLine
 10
187.5
 20
0.0
 30
0.0
 11
-187.5
 21
0.0
 31
0.0
  0
LINE
  5
B8
330
AB
100
AcDbEntity
  8
0
  6
Continuous
 62
     7
370
    25
100
AcDbLine
 10
225.0
 20
145.0
 30
0.0
 11
-225.0
 21
145.0
 31
0.0
  0
VIEWPORT
  5
10F
330
AB
100
AcDbEntity
  8
0
100
AcDbViewport
 10
0.0
 20
0.0
 30
0.0
 40
205.6
 41
156.0
 68
     1
 69
     1
 12
0.0
 22
72.5
 13
0.0
 23
0.0
 14
10.0
 24
10.0
 15
10.0
 25
10.0
 16
0.0
 26
0.0
 36
1.0
 17
0.0
 27
0.0
 37
0.0
 42
50.0
 43
0.0
 44
0.0
 45
348.2684824903
 50
0.0
 51
0.0
 72
   100
 90
   557152
  1

281
     0
 71
     1
 74
     0
110
0.0
120
0.0
130
0.0
111
1.0
121
0.0
131
0.0
112
0.0
122
1.0
132
0.0
 79
     0
146
0.0
170
     0
 61
     5
348
2F
292
     1
282
     1
141
0.0
142
0.0
 63
   256
361
110
  0
ENDBLK
  5
AE
330
AB
100
AcDbEntity
  8
0
100
AcDbBlockEnd
  0
BLOCK
  5
BB
330
B9
100
AcDbEntity
  8
0
100
AcDbBlockBegin
  2
*Paper_Space5
 70
     0
 10
0.0
 20
0.0
 30
0.0
  3
*Paper_Space5
  1

  0
LINE
  5
C1
330
B9
100
AcDbEntity
  8
0
  6
Continuous
 62
     7
370
    25
100
AcDbLine
 10
-225.0
 20
145.0
 30
0.0
 11
-187.5
 21
0.0
 31
0.0
  0
LINE
  5
C2
330
B9
100
AcDbEntity
  8
0
  6
Continuous
 62
     7
370
    25
100
AcDbLine
 10
187.5
 20
0.0
 30
0.0
 11
225.0
 21
145.0
 31
0.0
  0
LINE
  5
C3
330
B9
100
AcDbEntity
  8
0
  6
Continuous
 62
     7
370
    25
100
AcDbLine
 10
187.5
 20
0.0
 30
0.0
 11
-187.5
 21
0.0
 31
0.0
  0
LINE
  5
C4
330
B9
100
AcDbEntity
  8
0
  6
Continuous
 62
     7
370
    25
100
AcDbLine
 10
225.0
 20
145.0
 30
0.0
 11
-225.0
 21
145.0
 31
0.0
  0
VIEWPORT
  5
111
330
B9
100
AcDbEntity
  8
0
100
AcDbViewport
 10
0.0
 20
0.0
 30
0.0
 40
205.6
 41
156.0
 68
     1
 69
     1
 12
0.0
 22
72.5
 13
0.0
 23
0.0
 14
10.0
 24
10.0
 15
10.0
 25
10.0
 16
0.0
 26
0.0
 36
1.0
 17
0.0
 27
0.0
 37
0.0
 42
50.0
 43
0.0
 44
0.0
 45
348.2684824903
 50
0.0
 51
0.0
 72
   100
 90
   557152
  1

281
     0
 71
     1
 74
     0
110
0.0
120
0.0
130
0.0
111
1.0
121
0.0
131
0.0
112
0.0
122
1.0
132
0.0
 79
     0
146
0.0
170
     0
 61
     5
348
2F
292
     1
282
     1
141
0.0
142
0.0
 63
   256
361
112
  0
ENDBLK
  5
BC
330
B9
100
AcDbEntity
  8
0
100
AcDbBlockEnd
  0
BLOCK
  5
C7
330
C5
100
AcDbEntity
  8
0
100
AcDbBlockBegin
  2
*Paper_Space6
 70
     0
 10
0.0
 20
0.0
 30
0.0
  3
*Paper_Space6
  1

  0
LINE
  5
CD
330
C5
100
AcDbEntity
  8
0
  6
Continuous
 62
     7
370
    25
100
AcDbLine
 10
-225.0
 20
145.0
 30
0.0
 11
-187.5
 21
0.0
 31
0.0
  0
LINE
  5
CE
330
C5
100
AcDbEntity
  8
0
  6
Continuous
 62
     7
370
    25
100
AcDbLine
 10
187.5
 20
0.0
 30
0.0
 11
225.0
 21
145.0
 31
0.0
  0
LINE
  5
CF
330
C5
100
AcDbEntity
  8
0
  6
Continuous
 62
     7
370
    25
100
AcDbLine
 10
187.5
 20
0.0
 30
0.0
 11
-187.5
 21
0.0
 31
0.0
  0
LINE
  5
D0
330
C5
100
AcDbEntity
  8
0
  6
Continuous
 62
     7
370
    25
100
AcDbLine
 10
225.0
 20
145.0
 30
0.0
 11
-225.0
 21
145.0
 31
0.0
  0
VIEWPORT
  5
113
330
C5
100
AcDbEntity
  8
0
100
AcDbViewport
 10
0.0
 20
0.0
 30
0.0
 40
205.6
 41
156.0
 68
     1
 69
     1
 12
0.0
 22
72.5
 13
0.0
 23
0.0
 14
10.0
 24
10.0
 15
10.0
 25
10.0
 16
0.0
 26
0.0
 36
1.0
 17
0.0
 27
0.0
 37
0.0
 42
50.0
 43
0.0
 44
0.0
 45
348.2684824903
 50
0.0
 51
0.0
 72
   100
 90
   557152
  1

281
     0
 71
     1
 74
     0
110
0.0
120
0.0
130
0.0
111
1.0
121
0.0
131
0.0
112
0.0
122
1.0
132
0.0
 79
     0
146
0.0
170
     0
 61
     5
348
2F
292
     1
282
     1
141
0.0
142
0.0
 63
   256
361
114
  0
ENDBLK
  5
C8
330
C5
100
AcDbEntity
  8
0
100
AcDbBlockEnd
  0
BLOCK
  5
D3
330
D1
100
AcDbEntity
  8
0
100
AcDbBlockBegin
  2
*Paper_Space7
 70
     0
 10
0.0
 20
0.0
 30
0.0
  3
*Paper_Space7
  1

  0
CIRCLE
  5
D5
330
D1
100
AcDbEntity
  8
0
  6
Continuous
 62
     7
370
    25
100
AcDbCircle
 10
0.0
 20
0.0
 30
0.0
 40
187.4999999999999
  0
CIRCLE
  5
D6
330
D1
100
AcDbEntity
  8
0
  6
Continuous
 62
     7
370
    25
100
AcDbCircle
 10
0.0
 20
0.0
 30
0.0
 40
22.99999999999999
  0
CIRCLE
  5
D7
330
D1
100
AcDbEntity
  8
0
  6
Continuous
 62
     7
370
    25
100
AcDbCircle
 10
0.0
 20
0.0
 30
0.0
 40
225.0000000000002
  0
VIEWPORT
  5
115
330
D1
100
AcDbEntity
  8
0
100
AcDbViewport
 10
0.0
 20
0.0
 30
0.0
 40
205.6
 41
156.0
 68
     1
 69
     1
 12
0.0
 22
72.5
 13
0.0
 23
0.0
 14
10.0
 24
10.0
 15
10.0
 25
10.0
 16
0.0
 26
0.0
 36
1.0
 17
0.0
 27
0.0
 37
0.0
 42
50.0
 43
0.0
 44
0.0
 45
348.2684824903
 50
0.0
 51
0.0
 72
   100
 90
   557152
  1

281
     0
 71
     1
 74
     0
110
0.0
120
0.0
130
0.0
111
1.0
121
0.0
131
0.0
112
0.0
122
1.0
132
0.0
 79
     0
146
0.0
170
     0
 61
     5
348
2F
292
     1
282
     1
141
0.0
142
0.0
 63
   256
361
116
  0
ENDBLK
  5
D4
330
D1
100
AcDbEntity
  8
0
100
AcDbBlockEnd
  0
BLOCK
  5
DA
330
D8
100
AcDbEntity
  8
0
100
AcDbBlockBegin
  2
*Paper_Space8
 70
     0
 10
0.0
 20
0.0
 30
0.0
  3
*Paper_Space8
  1

  0
LWPOLYLINE
  5
DE
330
D8
100
AcDbEntity
  8
0
  6
Continuous
 62
     7
370
    25
100
AcDbPolyline
 90
      154
 70
   128
 43
0.0
 10
148.4924240492
 20
204.1212694648
 10
154.4635888752
 20
200.5296412633
 10
160.174293147
 20
196.7995212389
 10
165.6149073254
 20
192.9371992177
 10
170.7762573039
 20
188.9491879485
 10
175.649639879
 20
184.8422121205
 10
180.226837425
 20
180.6231970239
 10
184.5001317516
 20
176.2992568726
 10
188.4623171177
 20
171.8776828081
 10
192.1067123825
 20
167.3659306042
 10
195.427172271
 20
162.7716080961
 10
198.4180977369
 20
158.1024623507
 10
201.074445403
 20
153.3663666041
 10
203.3917360663
 20
148.5713069851
 10
205.3660622506
 20
143.7253690489
 10
206.9940947952
 20
138.8367241433
 10
208.273088469
 20
133.9136156294
 10
209.2008865993
 20
128.9643449819
 10
209.7759247085
 20
123.9972577908
 10
209.9972331523
 20
119.0207296887
 10
209.8644387547
 20
114.0431522279
 10
209.377765437
 20
109.07291873
 10
208.5380338405
 20
104.118410133
 10
207.3466599427
 20
99.1879808594
 10
205.8056526694
 20
94.2899447281
 10
203.9176105076
 20
89.4325609362
 10
201.6857171235
 20
84.6240201316
 10
199.1137359941
 20
79.872430602
 10
196.2060040616
 20
75.1858046021
 10
192.9674244197
 20
70.5720448436
 10
189.4034580465
 20
66.0389311694
 10
185.5201145954
 20
61.5941074344
 10
181.323942262
 20
57.245068617
 10
176.8220167421
 20
52.9991481806
 10
172.0219293007
 20
48.8635057075
 10
166.931773971
 20
44.8451148265
 10
161.5601339064
 20
40.9507514538
 10
155.9160669073
 20
37.1869823668
 10
150.0090901475
 20
33.5601541319
 10
143.849164126
 20
30.0763824018
 10
137.4466758717
 20
26.7415416038
 10
130.8124214282
 20
23.5612550339
 10
123.9575876492
 20
20.5408853747
 10
116.8937333353
 20
17.6855256528
 10
109.6327697428
 20
14.9999906506
 10
102.186940499
 20
12.4888087876
 10
94.5688009564
 20
10.1562144846
 10
86.7911970217
 20
8.0061410232
 10
78.8672434946
 20
6.0422139137
 10
70.8103019532
 20
4.2677447814
 10
62.6339582238
 20
2.6857257828
 10
54.3519994715
 20
1.2988245599
 10
45.9783909524
 20
0.1093797417
 10
37.5272524648
 20
-0.8806029987
 10
29.0128345399
 20
-1.6694543263
 10
20.4494944126
 20
-2.2558440595
 10
11.8516718115
 20
-2.6387834124
 10
3.2338646107
 20
-2.8176266627
 10
-5.3893956175
 20
-2.7920722402
 10
-14.0035681054
 20
-2.5621632355
 10
-22.5941274096
 20
-2.128287327
 10
-31.1465879036
 20
-1.4911761279
 10
-39.6465282043
 20
-0.6519039516
 10
-48.0796154895
 20
0.3881139991
 10
-56.4316296662
 20
1.6271240185
 10
-64.6884873491
 20
3.0630368557
 10
-72.8362656083
 20
4.6934312365
 10
-80.8612254463
 20
6.5155579474
 10
-88.7498349655
 20
8.5263444705
 10
-96.4887921857
 20
10.7224001647
 10
-104.0650474741
 20
13.1000219834
 10
-111.4658255505
 20
15.6552007183
 10
-118.6786470287
 20
18.3836277601
 10
-125.6913494602
 20
21.2807023635
 10
-132.4921078421
 20
24.3415394054
 10
-139.0694545572
 20
27.5609776219
 10
-145.4122987112
 20
30.9335883121
 10
-151.5099448338
 20
34.4536844914
 10
-157.3521109142
 20
38.1153304811
 10
-162.9289457388
 20
41.9123519179
 10
-168.2310455025
 20
45.8383461646
 10
-173.2494696656
 20
49.8866931068
 10
-177.9757560297
 20
54.0505663157
 10
-182.4019350068
 20
58.322944559
 10
-186.5205430577
 20
62.6966236407
 10
-190.3246352777
 20
67.1642285482
 10
-193.8077971066
 20
71.7182258891
 10
-196.9641551456
 20
76.3509365936
 10
-199.7883870611
 20
81.0545488634
 10
-202.2757305591
 20
85.8211313442
 10
-204.4219914157
 20
90.6426464995
 10
-206.2235505497
 20
95.5109641642
 10
-207.6773701248
 20
100.4178752533
 10
-208.7809986723
 20
105.3551056046
 10
-209.5325752248
 20
110.3143299308
 10
-209.9308324541
 20
115.2871858579
 10
-209.9750988086
 20
120.2652880257
 10
-209.6652996451
 20
125.2402422279
 10
-209.0019573551
 20
130.2036595662
 10
-207.9861904838
 20
135.1471705961
 10
-206.6197118439
 20
140.0624394397
 10
-204.9048256275
 20
144.9411778417
 10
-202.8444235207
 20
149.7751591456
 10
-200.4419798276
 20
154.5562321653
 10
-197.7015456118
 20
159.2763349301
 10
-194.6277418653
 20
163.9275082789
 10
-191.2257517165
 20
168.5019092813
 10
-187.5013116905
 20
172.9918244623
 10
-183.4607020357
 20
177.3896828091
 10
-179.1107361341
 20
181.6880685379
 10
-174.4587490123
 20
185.8797335977
 10
-169.5125849729
 20
189.9576098931
 10
-164.2805843674
 20
193.9148212021
 10
-158.7715695325
 20
197.7446947712
 10
-152.9948299135
 20
201.4407725671
 10
-146.9601064001
 20
204.9968221667
 10
-140.6775749015
 20
208.4068472657
 10
-134.1578291869
 20
211.6650977905
 10
-127.4118630226
 20
214.7660795935
 10
-120.4510516337
 20
217.704563718
 10
-113.2871325228
 20
220.4755952148
 10
-105.9321856783
 20
223.0745014982
 10
-98.3986132042
 20
225.496900224
 10
-90.6991184083
 20
227.7387066802
 10
-82.8466843803
 20
229.7961406737
 10
-74.8545521006
 20
231.6657329056
 10
-66.7361981122
 20
233.3443308203
 10
-58.5053117964
 20
234.829103922
 10
-50.1757722897
 20
236.1175485473
 10
-41.7616250799
 20
237.2074920872
 10
-33.2770583227
 20
238.0970966503
 10
-24.7363789172
 20
238.784862162
 10
-16.1539883808
 20
239.2696288941
 10
-7.5443585656
 20
239.5505794203
 10
1.0779927448
 20
239.6272399942
 10
9.6985263156
 20
239.499481349
 10
18.302705977
 20
239.1675189146
 10
26.8760231356
 20
238.6319124547
 10
35.4040212392
 20
237.893565123
 10
43.8723201538
 20
236.9537219401
 10
52.2666404116
 20
235.8139676943
 10
60.5728272898
 20
234.476224269
 10
68.7768746781
 20
232.9427474023
 10
76.8649486967
 20
231.2161228831
 10
84.8234110231
 20
229.299262191
 10
92.6388418895
 20
227.1953975867
 10
100.2980627113
 20
224.9080766618
 10
107.7881583096
 20
222.4411563569
 10
115.0964986887
 20
219.7987964578
 10
122.2107603334
 20
216.9854525809
 10
129.1189469892
 20
214.0058686606
 10
135.8094098907
 20
210.8650689492
 10
142.2708674037
 20
207.5683495457
 10
148.4924240492
 20
204.1212694648
  0
LWPOLYLINE
  5
DF
330
D8
100
AcDbEntity
  8
0
  6
Continuous
 62
     7
370
    25
100
AcDbPolyline
 90
      160
 70
   128
 43
0.0
 10
159.099025767
 20
210.2443303035
 10
165.2602809649
 20
206.544106897
 10
171.1635018517
 20
202.7062544603
 10
176.7994712487
 20
198.7367653445
 10
182.1593892587
 20
194.6418374357
 10
187.234887006
 20
190.4278644776
 10
192.0180397034
 20
186.1014260888
 10
196.5013790256
 20
181.6692774893
 10
200.6779047707
 20
177.1383389529
 10
204.5410957893
 20
172.5156850024
 10
208.0849201674
 20
167.8085333632
 10
211.3038446438
 20
163.0242336937
 10
214.19284325
 20
158.17025611
 10
216.7474051577
 20
153.2541795218
 10
218.9635417218
 20
148.2836797993
 10
220.8377927079
 20
143.2665177876
 10
222.3672316958
 20
138.2105271896
 10
223.549470648
 20
133.1236023346
 10
224.3826636387
 20
128.0136858518
 10
224.8655097359
 20
122.8887562692
 10
224.9972550328
 20
117.756815556
 10
224.7776938248
 20
112.6258766284
 10
224.2071689306
 20
107.5039508385
 10
223.2865711571
 20
102.3990354654
 10
222.0173379084
 20
97.3191012284
 10
220.4014509416
 20
92.2720798419
 10
218.4414332725
 20
87.2658516306
 10
216.1403452358
 20
82.3082332256
 10
213.5017797074
 20
77.4069653595
 10
210.5298564942
 20
72.5697007803
 10
207.2292159015
 20
67.8039923024
 10
203.6050114878
 20
63.1172810139
 10
199.6629020179
 20
58.5168846581
 10
195.409042628
 20
54.0099862079
 10
190.8500752145
 20
49.60362265
 10
185.9931180638
 20
45.3046739983
 10
180.845754738
 20
41.1198525506
 10
175.4160222338
 20
37.0556924089
 10
169.712398434
 20
33.1185392768
 10
163.7437888702
 20
29.3145405516
 10
157.5195128176
 20
25.6496357258
 10
151.0492887444
 20
22.129547113
 10
144.3432191374
 20
18.7597709139
 10
137.4117747284
 20
15.545568634
 10
130.2657781449
 20
12.4919588686
 10
122.9163870123
 20
9.6037094668
 10
115.3750765324
 20
6.8853300872
 10
107.6536215663
 20
4.3410651566
 10
99.7640782495
 20
1.9748872426
 10
91.7187651671
 20
-0.2095091488
 10
83.5302441207
 20
-2.2087133421
 10
75.2113005136
 20
-4.0196038171
 10
66.7749233889
 20
-5.6393530834
 10
58.2342851481
 20
-7.0654320947
 10
49.6027209838
 20
-8.295614198
 10
40.8937080588
 20
-9.3279786099
 10
32.1208444631
 20
-10.160913416
 10
23.2978279818
 20
-10.7931180875
 10
14.4384347077
 20
-11.2236055117
 10
5.5564975317
 20
-11.4517035337
 10
-3.3341154556
 20
-11.4770560055
 10
-12.2195226174
 20
-11.2996233422
 10
-21.0858504451
 20
-10.9196825839
 10
-29.9192552204
 20
-10.3378269629
 10
-38.7059446303
 20
-9.5549649778
 10
-47.4321993024
 20
-8.5723189745
 10
-56.0843942258
 20
-7.3914232383
 10
-64.6490200252
 20
-6.0141215975
 10
-73.1127040542
 20
-4.4425645452
 10
-81.4622312747
 20
-2.6792058812
 10
-89.6845648913
 20
-0.7267988808
 10
-97.766866706
 20
1.4116080044
 10
-105.696517164
 20
3.7326759058
 10
-113.4611350573
 20
6.2327807513
 10
-121.0485968569
 20
8.9080189242
 10
-128.4470556419
 20
11.7542133575
 10
-135.644959597
 20
14.7669200564
 10
-142.6310700498
 20
17.9414350372
 10
-149.394479018
 20
21.2728016715
 10
-155.9246262414
 20
24.7558184258
 10
-162.2113156703
 20
28.3850469828
 10
-168.2447313854
 20
32.1548207329
 10
-174.0154529243
 20
36.0592536221
 10
-179.5144699904
 20
40.0922493417
 10
-184.7331965212
 20
44.2475108478
 10
-189.6634840948
 20
48.5185501927
 10
-194.2976346524
 20
52.8986986556
 10
-198.628412518
 20
57.3811171544
 10
-202.649055696
 20
61.958806925
 10
-206.3532864295
 20
66.6246204479
 10
-209.7353210018
 20
71.3712726095
 10
-212.7898787675
 20
76.1913520756
 10
-215.5121903972
 20
81.0773328645
 10
-217.8980053243
 20
86.0215860971
 10
-219.9435983823
 20
91.016391909
 10
-221.6457756202
 20
96.0539515037
 10
-223.0018792904
 20
101.1263993299
 10
-224.009791998
 20
106.2258153626
 10
-224.667940007
 20
111.3442374689
 10
-224.9752956974
 20
116.4736738403
 10
-224.9313791697
 20
121.6061154707
 10
-224.5362589944
 20
126.7335486619
 10
-223.7905521047
 20
131.8479675356
 10
-222.6954228335
 20
136.9413865338
 10
-221.252581095
 20
142.0058528874
 10
-219.4642797154
 20
147.0334590334
 10
-217.333310915
 20
152.0163549615
 10
-214.8630019487
 20
156.9467604713
 10
-212.0572099106
 20
161.8169773199
 10
-208.9203157119
 20
166.6194012418
 10
-205.4572172405
 20
171.3465338221
 10
-201.6733217137
 20
175.9909942044
 10
-197.5745372351
 20
180.5455306152
 10
-193.1672635701
 20
185.0030316865
 10
-188.4583821533
 20
189.3565375596
 10
-183.4552453442
 20
193.5992507517
 10
-178.165664947
 20
197.72454677
 10
-172.5979000134
 20
201.7259844544
 10
-166.7606439476
 20
205.5973160348
 10
-160.6630109319
 20
209.3324968867
 10
-154.3145216966
 20
212.9256949685
 10
-147.7250886538
 20
216.371299928
 10
-140.9050004211
 20
219.6639318619
 10
-133.8649057567
 20
222.7984497165
 10
-126.6157969327
 20
225.7699593142
 10
-119.1689925719
 20
228.5738209954
 10
-111.5361199755
 20
231.205656863
 10
-103.7290969679
 20
233.6613576177
 10
-95.7601132887
 20
235.9370889744
 10
-87.64161156
 20
238.0292976485
 10
-79.3862678586
 20
239.9347169047
 10
-71.0069719237
 20
241.6503716569
 10
-62.5168070311
 20
243.173583114
 10
-53.9290295655
 20
244.501972962
 10
-45.257048322
 20
245.6334670779
 10
-36.5144035699
 20
246.5662987679
 10
-27.7147459111
 20
247.2990115261
 10
-18.8718149666
 20
247.8304613085
 10
-9.9994179232
 20
248.1598183194
 10
-1.1114079757
 20
248.2865683069
 10
7.7783373034
 20
248.2105133658
 10
16.6559376322
 20
247.9317722471
 10
25.5075316915
 20
247.4507801718
 10
34.319298768
 20
246.7682881519
 10
43.0774803335
 20
245.8853618178
 10
51.768401527
 20
244.8033797541
 10
60.3784925068
 20
243.5240313474
 10
68.8943096379
 20
242.0493141483
 10
77.3025564827
 20
240.3815307527
 10
85.590104562
 20
238.5232852064
 10
93.7440138532
 20
236.4774789391
 10
101.7515529948
 20
234.2473062346
 10
109.600219165
 20
231.8362492428
 10
117.2777576034
 20
229.2480725429
 10
124.7721807449
 20
226.4868172657
 10
132.0717869376
 20
223.5567947835
 10
139.1651787128
 20
220.4625799785
 10
146.0412805814
 20
217.2090041
 10
152.6893563265
 20
213.8011472203
 10
159.099025767
 20
210.2443303035
  0
LWPOLYLINE
  5
E0
330
D8
100
AcDbEntity
  8
0
  6
Continuous
 62
     7
370
    25
100
AcDbPolyline
 90
       66
 70
   128
 43
0.0
 10
184.3391580079
 20
-19.7911608295
 10
183.3319911287
 20
-22.695785969
 10
181.4568420703
 20
-27.2591349489
 10
179.2410267509
 20
-31.7713077511
 10
176.6887051324
 20
-36.2238332428
 10
173.8046689318
 20
-40.6083522725
 10
170.5943326258
 20
-44.9166333639
 10
167.0637232853
 20
-49.1405881694
 10
163.2194692605
 20
-53.2722866552
 10
159.0687877367
 20
-57.3039719891
 10
154.6194711846
 20
-61.2280751032
 10
149.8798727313
 20
-65.0372289039
 10
144.8588904775
 20
-68.7242821029
 10
139.5659507929
 20
-72.2823126431
 10
134.0109906187
 20
-75.704640694
 10
128.204438812
 20
-78.9848411922
 10
122.1571965674
 20
-82.116755904
 10
115.8806169501
 20
-85.0945049868
 10
109.3864835827
 20
-87.9124980279
 10
102.6869885218
 20
-90.5654445397
 10
95.7947093696
 20
-93.0483638924
 10
88.72258566
 20
-95.3565946643
 10
81.4838945662
 20
-97.4858033933
 10
74.0922259744
 20
-99.4319927126
 10
66.5614569701
 20
-101.191508855
 10
58.9057257852
 20
-102.7610485128
 10
51.1394052552
 20
-104.1376650393
 10
43.2770758351
 20
-105.3187739808
 10
35.3334982272
 20
-106.3021579288
 10
27.3235856682
 20
-107.0859706825
 10
19.2623759322
 20
-107.6687407154
 10
11.165003098
 20
-108.0493739378
 10
3.0466691371
 20
-108.2271557504
 10
-5.0773846268
 20
-108.2017523866
 10
-13.1919061315
 20
-107.9732115384
 10
-21.2816612109
 20
-107.5419622675
 10
-29.331462195
 20
-106.9088141992
 10
-37.3261964237
 20
-106.074956003
 10
-45.2508546187
 20
-105.0419531604
 10
-53.0905590623
 20
-103.8117450264
 10
-60.8305915286
 20
-102.3866411882
 10
-68.4564209154
 20
-100.7693171293
 10
-75.9537305248
 20
-98.9628092067
 10
-83.3084449414
 20
-96.9705089502
 10
-90.5067564573
 20
-94.7961566954
 10
-97.5351509948
 20
-92.4438345615
 10
-104.3804334776
 20
-89.9179587874
 10
-111.0297526031
 20
-87.2232714411
 10
-117.4706249692
 20
-84.3648315164
 10
-123.6909585113
 20
-81.3480054357
 10
-129.679075203
 20
-78.1784569746
 10
-135.4237329809
 20
-74.8621366293
 10
-140.9141468503
 20
-71.4052704447
 10
-146.1400091328
 20
-67.8143483258
 10
-151.091508818
 20
-64.0961118536
 10
-155.7593499827
 20
-60.2575416288
 10
-160.1347692427
 20
-56.3058441657
 10
-164.2095522057
 20
-52.2484383635
 10
-167.9760488923
 20
-48.0929415776
 10
-171.4271880985
 20
-43.847155319
 10
-174.5564906712
 20
-39.5190506078
 10
-177.3580816717
 20
-35.1167530084
 10
-179.8267014057
 20
-30.6485273744
 10
-181.9577152975
 20
-26.1227623327
 10
-183.7471225912
 20
-21.5479545343
 10
-184.3391580079
 20
-19.7911608295
  0
LWPOLYLINE
  5
E1
330
D8
100
AcDbEntity
  8
0
  6
Continuous
 62
     7
370
    25
100
AcDbPolyline
 90
       21
 70
   128
 43
0.0
 10
24.6904264356
 20
30.5842960251
 10
27.0616368538
 20
29.0691653972
 10
29.1551582578
 20
27.4233220692
 10
30.9495082847
 20
25.6636546208
 10
32.4262744753
 20
23.8082196212
 10
33.57030321
 20
21.8760563444
 10
34.3698552059
 20
19.8869914002
 10
34.8167259775
 20
17.8614352865
 10
34.9063300261
 20
15.8201729501
 10
34.6377478927
 20
13.7841505049
 10
34.0137355937
 20
11.7742602963
 10
33.0406963395
 20
9.8111265176
 10
31.7286148296
 20
7.914893578
 10
30.0909547959
 20
6.1050193935
 10
28.1445208465
 20
4.4000757223
 10
25.9092860275
 20
2.8175575937
 10
23.4081868731
 20
1.3737037851
 10
20.6668880449
 20
0.0833301905
 10
17.7135189787
 20
-1.0403222109
 10
14.5783852375
 20
-1.9857232249
 10
11.8015907243
 20
-2.6404142009
  0
LWPOLYLINE
  5
E2
330
D8
100
AcDbEntity
  8
0
  6
Continuous
 62
     7
370
    25
100
AcDbPolyline
 90
       38
 70
   128
 43
0.0
 10
-11.8015907243
 20
-2.6404142009
 10
-12.9526460151
 20
-2.3884735656
 10
-16.1667019541
 20
-1.5359545901
 10
-19.2148656541
 20
-0.5000983684
 10
-22.0658588306
 20
0.7084658131
 10
-24.6904264356
 20
2.0773364503
 10
-27.0616368538
 20
3.5924670782
 10
-29.1551582578
 20
5.2383104062
 10
-30.9495082847
 20
6.9979778546
 10
-32.4262744753
 20
8.8534128542
 10
-33.57030321
 20
10.785576131
 10
-34.3698552059
 20
12.7746410753
 10
-34.8167259775
 20
14.8001971889
 10
-34.9063300261
 20
16.8414595253
 10
-34.6377478927
 20
18.8774819705
 10
-34.0137355937
 20
20.8873721792
 10
-33.0406963395
 20
22.8505059578
 10
-31.7286148296
 20
24.7467388974
 10
-30.0909547959
 20
26.5566130819
 10
-28.1445208465
 20
28.2615567531
 10
-25.9092860275
 20
29.8440748817
 10
-23.4081868731
 20
31.2879286903
 10
-20.6668880449
 20
32.5783022849
 10
-17.7135189787
 20
33.7019546863
 10
-14.5783852375
 20
34.6473557003
 10
-11.2936575361
 20
35.4048042332
 10
-7.8930416256
 20
35.9665278381
 10
-4.411432427
 20
36.3267624705
 10
-0.8845559621
 20
36.4818116358
 10
2.6513972439
 20
36.4300843196
 10
6.1601435264
 20
36.1721113142
 10
9.6056784002
 20
35.7105397718
 10
12.9526460151
 20
35.050106041
 10
16.1667019541
 20
34.1975870656
 10
19.2148656541
 20
33.1617308438
 10
22.0658588306
 20
31.9531666624
 10
24.6904264356
 20
30.5842960251
 10
24.6904264356
 20
30.5842960251
  0
LWPOLYLINE
  5
E3
330
D8
100
AcDbEntity
  8
0
  6
Continuous
 62
     7
370
    25
100
AcDbPolyline
 90
       15
 70
   128
 43
0.0
 10
16.2634559673
 20
17.5541014048
 10
18.1735652846
 20
16.3033534655
 10
19.7970666211
 20
14.9242652667
 10
21.1083563907
 20
13.4385858532
 10
22.0867547706
 20
11.8697452767
 10
22.7168318337
 20
10.2424850904
 10
22.9886508884
 20
8.5824681594
 10
22.8979251859
 20
6.9158739425
 10
22.4460855246
 20
5.268985626
 10
21.6402576859
 20
3.6677756224
 10
20.4931500563
 20
2.1374959701
 10
19.0228532083
 20
0.7022800932
 10
17.2525546015
 20
-0.6152377964
 10
15.2101729024
 20
-1.7942796547
 10
15.1249855841
 20
-1.8374206889
  0
LWPOLYLINE
  5
E4
330
D8
100
AcDbEntity
  8
0
  6
Continuous
 62
     7
370
    25
100
AcDbPolyline
 90
       28
 70
   128
 43
0.0
 10
-15.1249855841
 20
-1.8374206889
 10
-16.2634559673
 20
-1.2232851671
 10
-18.1735652846
 20
0.0274627722
 10
-19.7970666211
 20
1.406550971
 10
-21.1083563907
 20
2.8922303845
 10
-22.0867547706
 20
4.461070961
 10
-22.7168318337
 20
6.0883311473
 10
-22.9886508884
 20
7.7483480783
 10
-22.8979251859
 20
9.4149422952
 10
-22.4460855246
 20
11.0618306117
 10
-21.6402576859
 20
12.6630406153
 10
-20.4931500563
 20
14.1933202676
 10
-19.0228532083
 20
15.6285361445
 10
-17.2525546015
 20
16.9460540341
 10
-15.2101729024
 20
18.1250958924
 10
-12.9279176906
 20
19.1470675248
 10
-10.441781494
 20
19.9958518283
 10
-7.7909721656
 20
20.6580629673
 10
-5.0172945521
 20
21.1232574766
 10
-2.1644912063
 20
21.3840989609
 10
0.7224474588
 20
21.4364737942
 10
3.5979926959
 20
21.279555994
 10
6.4167954389
 20
20.9158202478
 10
9.1344014846
 20
20.3510028855
 10
11.7079525623
 20
19.5940114146
 10
14.096862234
 20
18.6567840425
 10
16.2634559673
 20
17.5541014048
 10
16.2634559673
 20
17.5541014048
  0
LWPOLYLINE
  5
E6
330
D8
100
AcDbEntity
  8
0
  6
Continuous
 62
     7
370
    25
100
AcDbPolyline
 90
       18
 70
   128
 43
0.0
 10
-21.8856972598
 20
4.0827040594
 10
-21.6402576859
 20
4.4976324964
 10
-20.4931500563
 20
6.0279121488
 10
-19.0228532083
 20
7.4631280256
 10
-17.2525546015
 20
8.7806459153
 10
-15.2101729024
 20
9.9596877735
 10
-12.9279176906
 20
10.981659406
 10
-10.441781494
 20
11.8304437094
 10
-7.7909721656
 20
12.4926548485
 10
-5.0172945521
 20
12.9578493578
 10
-2.1644912063
 20
13.2186908421
 10
0.7224474588
 20
13.2710656753
 10
3.5979926959
 20
13.1141478751
 10
6.4167954389
 20
12.7504121289
 10
9.1344014846
 20
12.1855947667
 10
11.7079525623
 20
11.4286032957
 10
14.096862234
 20
10.4913759236
 10
16.2634559673
 20
9.388693286
  0
LINE
  5
E7
330
D8
100
AcDbEntity
  8
0
  6
Continuous
 62
     7
370
    25
100
AcDbLine
 10
-221.2069896095
 20
94.649024728
 30
0.0
 11
-184.3391580079
 21
-19.7911608295
 31
0.0
  0
LINE
  5
E8
330
D8
100
AcDbEntity
  8
0
  6
Continuous
 62
     7
370
    25
100
AcDbLine
 10
184.3391580079
 20
-19.7911608295
 30
0.0
 11
221.2069896095
 21
94.649024728
 31
0.0
  0
ARC
  5
E9
330
D8
100
AcDbEntity
  8
0
  6
Continuous
 62
     7
370
    25
100
AcDbCircle
 10
9.4080639407
 20
-3.5069656794
 30
0.0
 40
14.60460269880687
100
AcDbArc
 50
31.3105585043
 51
62.0046813932
  0
VIEWPORT
  5
117
330
D8
100
AcDbEntity
  8
0
100
AcDbViewport
 10
0.0
 20
0.0
 30
0.0
 40
205.6
 41
156.0
 68
     1
 69
     1
 12
0.0
 22
72.5
 13
0.0
 23
0.0
 14
10.0
 24
10.0
 15
10.0
 25
10.0
 16
0.0
 26
0.0
 36
1.0
 17
0.0
 27
0.0
 37
0.0
 42
50.0
 43
0.0
 44
0.0
 45
348.2684824903
 50
0.0
 51
0.0
 72
   100
 90
   557152
  1

281
     0
 71
     1
 74
     0
110
0.0
120
0.0
130
0.0
111
1.0
121
0.0
131
0.0
112
0.0
122
1.0
132
0.0
 79
     0
146
0.0
170
     0
 61
     5
348
2F
292
     1
282
     1
141
0.0
142
0.0
 63
   256
361
118
  0
ENDBLK
  5
DB
330
D8
100
AcDbEntity
  8
0
100
AcDbBlockEnd
  0
BLOCK
  5
EC
330
EA
100
AcDbEntity
  8
0
100
AcDbBlockBegin
  2
*Paper_Space9
 70
     0
 10
0.0
 20
0.0
 30
0.0
  3
*Paper_Space9
  1

  0
LWPOLYLINE
  5
F0
330
EA
100
AcDbEntity
  8
0
  6
Continuous
 62
     7
370
    25
100
AcDbPolyline
 90
      154
 70
   128
 43
0.0
 10
98.0060316753
 20
219.9461500307
 10
105.5484618982
 20
217.7931724217
 10
112.9129135367
 20
215.4825260612
 10
120.0869684594
 20
213.0181072216
 10
127.0585295867
 20
210.4040714707
 10
133.8158412895
 20
207.6448266641
 10
140.3475092115
 20
204.7450255127
 10
146.642519483
 20
201.7095577373
 10
152.6902572927
 20
198.5435418232
 10
158.4805247863
 20
195.2523163895
 10
164.0035582631
 20
191.8414311868
 10
169.2500446392
 20
188.3166377392
 10
174.2111371516
 20
184.6838796459
 10
178.878470276
 20
180.9492825589
 10
183.244173833
 20
177.1191438535
 10
187.3008862587
 20
173.1999220103
 10
191.0417670182
 20
169.1982257238
 10
194.4605081403
 20
165.1208027592
 10
197.5513448541
 20
160.9745285741
 10
200.3090653096
 20
156.7663947248
 10
202.7290193663
 20
152.5034970768
 10
204.8071264342
 20
148.1930238401
 10
206.5398823547
 20
143.8422434476
 10
207.9243653093
 20
139.4584922992
 10
208.9582407465
 20
135.0491623912
 10
209.6397653185
 20
130.6216888513
 10
209.9677898207
 20
126.1835374014
 10
209.9417611294
 20
121.7421917689
 10
209.5617231351
 20
117.3051410673
 10
208.8283166677
 20
112.8798671679
 10
207.7427784165
 20
108.4738320835
 10
206.3069388444
 20
104.094465386
 10
204.523219102
 20
99.7491516784
 10
202.394626944
 20
95.4452181427
 10
199.9247516586
 20
91.1899221844
 10
197.1177580141
 20
86.9904391951
 10
193.9783792369
 20
82.8538504533
 10
190.5119090297
 20
78.7871311833
 10
186.7241926455
 20
74.7971387937
 10
182.6216170311
 20
70.8906013145
 10
178.211100057
 20
67.0741060515
 10
173.5000788526
 20
63.3540884791
 10
168.4964972654
 20
59.7368213885
 10
163.2087924659
 20
56.2284043104
 10
157.6458807205
 20
52.8347532296
 10
151.817142357
 20
49.5615906096
 10
145.7324059468
 20
46.414435743
 10
139.4019317321
 20
43.3985954449
 10
132.8363943244
 20
40.5191551043
 10
126.0468647051
 20
37.780970109
 10
119.0447915571
 20
35.1886576583
 10
111.8419819597
 20
32.7465889774
 10
104.4505814795
 20
30.4588819467
 10
96.8830536896
 20
28.3293941577
 10
89.152159154
 20
26.3617164086
 10
81.2709339097
 20
24.5591666492
 10
73.2526674854
 20
22.9247843861
 10
65.1108804923
 20
21.4613255576
 10
56.8593018249
 20
20.1712578864
 10
48.5118455118
 20
19.0567567183
 10
40.0825872526
 20
18.1197013545
 10
31.5857406836
 20
17.3616718824
 10
23.0356334105
 20
16.783946511
 10
14.4466828481
 20
16.387499416
 10
5.8333719103
 20
16.1729990971
 10
-2.7897754122
 20
16.1408072501
 10
-11.4082185422
 20
16.2909781578
 10
-20.0074248349
 20
16.6232585982
 10
-28.5728940833
 20
17.1370882712
 10
-37.0901829683
 20
17.8316007437
 10
-45.5449294141
 20
18.7056249107
 10
-53.9228768057
 20
19.7576869696
 10
-62.2098980282
 20
20.9860129058
 10
-70.3920192894
 20
22.3885314839
 10
-78.4554436817
 20
23.9628777403
 10
-86.3865744474
 20
25.7063969711
 10
-94.1720379059
 20
27.6161492084
 10
-101.7987060045
 20
29.6889141778
 10
-109.2537184555
 20
31.9211967289
 10
-116.5245044214
 20
34.3092327281
 10
-123.5988037122
 20
36.8489954066
 10
-130.464687459
 20
39.5362021498
 10
-137.1105782284
 20
42.3663217195
 10
-143.5252695453
 20
45.3345818936
 10
-149.6979447889
 20
48.4359775141
 10
-155.6181954323
 20
51.6652789263
 10
-161.2760385937
 20
55.0170407976
 10
-166.6619338696
 20
58.4856112991
 10
-171.766799422
 20
62.0651416363
 10
-176.5820272928
 20
65.7495959113
 10
-181.0994979186
 20
69.5327613006
 10
-185.3115938218
 20
73.4082585316
 10
-189.2112124559
 20
77.3695526393
 10
-192.7917781818
 20
81.4099639855
 10
-196.0472533555
 20
85.5226795228
 10
-198.9721485095
 20
89.7007642824
 10
-201.5615316089
 20
93.9371730681
 10
-203.8110363679
 20
98.2247623364
 10
-205.7168696127
 20
102.5563022418
 10
-207.2758176773
 20
106.9244888282
 10
-208.4852518225
 20
111.3219563447
 10
-209.3431326688
 20
115.7412896663
 10
-209.848013635
 20
120.1750367973
 10
-209.9990433777
 20
124.615721437
 10
-209.7959672263
 20
129.0558555865
 10
-209.2391276134
 20
133.4879521752
 10
-208.3294634964
 20
137.9045376855
 10
-207.0685087749
 20
142.2981647552
 10
-205.4583897037
 20
146.6614247351
 10
-203.501821308
 20
150.9869601818
 10
-201.2021028045
 20
155.2674772639
 10
-198.5631120389
 20
159.4957580614
 10
-195.5892989468
 20
163.6646727363
 10
-192.2856780496
 20
167.7671915552
 10
-188.6578199997
 20
171.7963967434
 10
-184.7118421863
 20
175.7454941495
 10
-180.4543984208
 20
179.6078247018
 10
-175.8926677165
 20
183.3768756373
 10
-171.0343421832
 20
187.0462914835
 10
-165.887614057
 20
190.6098847751
 10
-160.4611618858
 20
194.0616464876
 10
-154.7641358954
 20
197.39575617
 10
-148.8061425606
 20
200.606591759
 10
-142.597228406
 20
203.6887390595
 10
-136.1478630653
 20
206.637000874
 10
-129.4689216277
 20
209.4464057659
 10
-122.5716662992
 20
212.1122164431
 10
-115.4677274127
 20
214.6299377458
 10
-108.1690838162
 20
216.9953242262
 10
-100.6880426739
 20
219.2043873076
 10
-93.0372187137
 20
221.25340201
 10
-85.2295129555
 20
223.138913231
 10
-77.2780909575
 20
224.8577415721
 10
-69.196360616
 20
226.4069887
 10
-60.9979495566
 20
227.7840422334
 10
-52.6966821551
 20
228.9865801486
 10
-44.3065562262
 20
230.0125746947
 10
-35.8417194204
 20
230.8602958127
 10
-27.3164453673
 20
231.5283140531
 10
-18.7451096077
 20
232.0155029859
 10
-10.1421653527
 20
232.3210411004
 10
-1.5221191126
 20
232.4444131903
 10
7.1004937648
 20
232.3854112223
 10
15.7111336033
 20
232.144134687
 10
24.2952809164
 20
231.7209904313
 10
32.8384608896
 20
231.1166919722
 10
41.326267789
 20
230.3322582934
 10
49.7443892519
 20
229.3690121277
 10
58.0786304211
 20
228.228577726
 10
66.3149378806
 20
226.9128781187
 10
74.4394233529
 20
225.424131873
 10
82.4383871174
 20
223.7648493518
 10
90.2983411118
 20
221.9378284809
 10
98.0060316753
 20
219.9461500307
  0
LWPOLYLINE
  5
F1
330
EA
100
AcDbEntity
  8
0
  6
Continuous
 62
     7
370
    25
100
AcDbPolyline
 90
      160
 70
   128
 43
0.0
 10
105.0064625093
 20
226.7787851328
 10
112.7860652989
 20
224.5621634315
 10
120.389566036
 20
222.1889774924
 10
127.805092757
 20
219.6629327637
 10
135.0210669969
 20
216.9879733643
 10
142.0262218687
 20
214.1682759258
 10
148.8096196545
 20
211.208243071
 10
155.3606688841
 20
208.1124965399
 10
161.6691408716
 20
204.8858699732
 10
167.7251856869
 20
201.5334013652
 10
173.5193475349
 20
198.0603251977
 10
179.0425795198
 20
194.4720642668
 10
184.2862577704
 20
190.7742212162
 10
189.2421949055
 20
186.9725697886
 10
193.9026528177
 20
183.0730458116
 10
198.2603547552
 20
179.0817379289
 10
202.3084966836
 20
175.004878094
 10
206.0407579099
 20
170.8488318396
 10
209.4513109513
 20
166.6200883385
 10
212.534830634
 20
162.3252502717
 10
215.286502408
 20
157.9710235191
 10
217.7020298646
 20
153.5642066889
 10
219.7776414443
 20
149.1116805023
 10
221.5100963261
 20
144.6203970506
 10
222.8966894873
 20
140.0973689396
 10
223.9352559273
 20
135.5496583409
 10
224.6241740479
 20
130.9843659646
 10
224.9623681852
 20
126.408619973
 10
224.9493102892
 20
121.8295648502
 10
224.5850207483
 20
117.2543502471
 10
223.8700683574
 20
112.6901198184
 10
222.8055694296
 20
108.144000068
 10
221.3931860539
 20
103.6230892223
 10
219.635123499
 20
99.1344461468
 10
217.5341267711
 20
94.6850793249
 10
215.0934763271
 20
90.2819359147
 10
212.3169829529
 20
85.9318909019
 10
209.2089818134
 20
81.6417363656
 10
205.7743256834
 20
77.4181708726
 10
202.0183773707
 20
73.2677890192
 10
197.9470013428
 20
69.197071134
 10
193.56655457
 20
65.2123731596
 10
188.8838765999
 20
61.319916729
 10
183.9062788785
 20
57.5257794509
 10
178.6415333335
 20
53.8358854201
 10
173.0978602403
 20
50.2559959682
 10
167.2839153862
 20
46.7917006677
 10
161.2087765561
 20
43.4484086043
 10
154.881929358
 20
40.2313399319
 10
148.3132524129
 20
37.1455177211
 10
141.5130019299
 20
34.1957601172
 10
134.491795693
 20
31.3866728164
 10
127.2605964823
 20
28.7226418751
 10
119.8306949569
 20
26.2078268614
 10
112.213692026
 20
23.8461543604
 10
104.4214807357
 20
21.6413118433
 10
96.4662276988
 20
19.5967419101
 10
88.3603540985
 20
17.7156369139
 10
80.1165162943
 20
16.000933977
 10
71.7475860604
 20
14.4553104043
 10
63.2666304877
 20
13.0811795037
 10
54.6868915818
 20
11.8806868174
 10
46.0217655863
 20
10.8557067723
 10
37.2847820671
 20
10.0078397529
 10
28.4895827865
 20
9.3384096031
 10
19.6499004044
 20
8.8484615585
 10
10.7795370354
 20
8.5387606148
 10
1.8923426989
 20
8.4097903333
 10
-6.997806306
 20
8.4617520858
 10
-15.8770290672
 20
8.6945647402
 10
-24.7314617321
 20
9.1078647871
 10
-33.5472791554
 20
9.7010069076
 10
-42.3107164845
 20
10.4730649807
 10
-51.0080906525
 20
11.4228335293
 10
-59.6258217419
 20
12.5488296027
 10
-68.1504541887
 20
13.8492950915
 10
-76.5686777912
 20
15.3221994733
 10
-84.8673484926
 20
16.9652429828
 10
-93.0335089037
 20
18.7758602026
 10
-101.0544085343
 20
20.7512240688
 10
-108.9175237019
 20
22.8882502851
 10
-116.6105770856
 20
25.183602139
 10
-124.1215568956
 20
27.6336957108
 10
-131.4387356287
 20
30.2347054705
 10
-138.5506883788
 20
32.9825702498
 10
-145.4463106759
 20
35.8729995843
 10
-152.1148358245
 20
38.9014804116
 10
-158.545851714
 20
42.0632841184
 10
-164.7293170766
 20
45.3534739236
 10
-170.6555771651
 20
48.7669125862
 10
-176.3153788279
 20
52.2982704272
 10
-181.6998849566
 20
55.9420336503
 10
-186.800688284
 20
59.6925129519
 10
-191.6098245112
 20
63.5438524037
 10
-196.1197847429
 20
67.4900385964
 10
-200.3235272115
 20
71.5249100287
 10
-204.2144882722
 20
75.6421667277
 10
-207.7865926513
 20
79.835380086
 10
-211.0342629316
 20
84.0980028985
 10
-213.9524282616
 20
88.4233795859
 10
-216.5365322726
 20
92.8047565858
 10
-218.7825401929
 20
97.2352928982
 10
-220.6869451477
 20
101.7080707665
 10
-222.2467736348
 20
106.216106479
 10
-223.4595901672
 20
110.7523612732
 10
-224.3235010757
 20
115.3097523257
 10
-224.8371574661
 20
119.8811638113
 10
-224.9997573249
 20
124.4594580136
 10
-224.8110467718
 20
129.0374864697
 10
-224.2713204557
 20
133.6081011317
 10
-223.3814210954
 20
138.1641655272
 10
-222.142738163
 20
142.6985659027
 10
-220.5572057149
 20
147.2042223301
 10
-218.6272993718
 20
151.6740997618
 10
-216.3560324534
 20
156.1012190149
 10
-213.7469512732
 20
160.478667668
 10
-210.804129602
 20
164.7996108549
 10
-207.5321623063
 20
169.0573019355
 10
-203.9361581748
 20
173.2450930308
 10
-200.0217319409
 20
177.356445402
 10
-195.7949955166
 20
181.3849396605
 10
-191.2625484491
 20
185.3242857907
 10
-186.4314676164
 20
189.1683329712
 10
-181.3092961778
 20
192.9110791788
 10
-175.9040317959
 20
196.5466805593
 10
-170.2241141494
 20
200.069460553
 10
-164.2784117555
 20
203.473918757
 10
-158.0762081227
 20
206.7547395139
 10
-151.6271872556
 20
209.9068002116
 10
-144.9414185349
 20
212.9251792815
 10
-138.0293409947
 20
215.805163883
 10
-130.9017470237
 20
218.542257262
 10
-123.5697655136
 20
221.1321857721
 10
-116.0448444833
 20
223.5709055473
 10
-108.3387332036
 20
225.8546088163
 10
-100.4634638527
 20
227.9797298474
 10
-92.4313327287
 20
229.9429505165
 10
-84.2548810509
 20
231.7412054876
 10
-75.9468753779
 20
233.3716869989
 10
-67.5202876746
 20
234.8318492471
 10
-58.9882750571
 20
236.1194123622
 10
-50.3641592505
 20
237.2323659672
 10
-41.6614057878
 20
238.1689723173
 10
-32.8936029855
 20
238.9277690127
 10
-24.0744407268
 20
239.5075712825
 10
-15.2176890867
 20
239.9074738343
 10
-6.3371768316
 20
240.1268522677
 10
2.5532301729
 20
240.1653640494
 10
11.4396506116
 20
240.0229490477
 10
20.3082093938
 20
239.6998296268
 10
29.1450593178
 20
239.1965102994
 10
37.9364026913
 20
238.5137769387
 10
46.6685128754
 20
237.6526955519
 10
55.3277557165
 20
236.6146106153
 10
63.9006108349
 20
235.4011429754
 10
72.3736927349
 20
234.0141873178
 10
80.733771705
 20
232.4559092092
 10
88.9677944742
 20
230.7287417158
 10
97.0629045935
 20
228.8353816046
 10
105.0064625093
 20
226.7787851328
  0
LWPOLYLINE
  5
F2
330
EA
100
AcDbEntity
  8
0
  6
Continuous
 62
     7
370
    25
100
AcDbPolyline
 90
       67
 70
   128
 43
0.0
 10
185.2223281905
 20
-15.0064378697
 10
184.7528295237
 20
-16.4702861702
 10
183.1941218486
 20
-20.5768102967
 10
181.2914863513
 20
-24.644703612
 10
179.0484950311
 20
-28.6663290712
 10
176.4693588699
 20
-32.634136493
 10
173.5589199263
 20
-36.5406767333
 10
170.3226422454
 20
-40.3786156712
 10
166.7666016004
 20
-44.1407479772
 10
162.8974740859
 20
-47.820010641
 10
158.7225235847
 20
-51.4094962315
 10
154.24958813
 20
-54.9024658645
 10
149.4870651909
 20
-58.2923618545
 10
144.4438959064
 20
-61.5728200259
 10
139.1295483
 20
-64.7376816613
 10
133.5539995041
 20
-67.7810050638
 10
127.7277170289
 20
-70.6970767115
 10
121.6616391109
 20
-73.4804219847
 10
115.3671541777
 20
-76.1258154435
 10
108.856079467
 20
-78.628290638
 10
102.1406388413
 20
-80.9831494325
 10
95.2334398386
 20
-83.1859708257
 10
88.1474500033
 20
-85.2326192506
 10
80.8959725411
 20
-87.1192523387
 10
73.492621343
 20
-88.8423281334
 10
65.9512954274
 20
-90.39861174
 10
58.2861528458
 20
-91.7851813986
 10
50.5115841025
 20
-92.9994339696
 10
42.6421851378
 20
-94.0390898206
 10
34.6927299261
 20
-94.9021971065
 10
26.678142739
 20
-95.5871354334
 10
18.6134701264
 20
-96.0926189012
 10
10.5138526686
 20
-96.4176985176
 10
2.3944965509
 20
-96.5617639795
 10
-5.7293549839
 20
-96.5245448191
 10
-13.8424502533
 20
-96.3061109114
 10
-21.9295577687
 20
-95.9068723433
 10
-29.9754948308
 20
-95.3275786435
 10
-37.9651560335
 20
-94.5693173754
 10
-45.8835416225
 20
-93.6335120953
 10
-53.7157856565
 20
-92.5219196798
 10
-61.4471839155
 20
-91.2366270275
 10
-69.0632215073
 20
-89.7800471411
 10
-76.5496001169
 20
-88.1549145971
 10
-83.8922648508
 20
-86.3642804121
 10
-91.0774306232
 20
-84.4115063146
 10
-98.0916080361
 20
-82.300258434
 10
-104.9216287043
 20
-80.0345004176
 10
-111.5546699777
 20
-77.6184859893
 10
-117.9782790143
 20
-75.0567509638
 10
-124.1803961593
 20
-72.3541047308
 10
-130.1493775859
 20
-69.5156212264
 10
-135.8740171552
 20
-66.5466294066
 10
-141.3435674544
 20
-63.4527032435
 10
-146.5477599744
 20
-60.23965126
 10
-151.4768243876
 20
-56.9135056257
 10
-156.1215068905
 20
-53.4805108313
 10
-160.473087577
 20
-49.9471119658
 10
-164.523396809
 20
-46.3199426166
 10
-168.2648305543
 20
-42.6058124149
 10
-171.6903646619
 20
-38.8116942522
 10
-174.7935680494
 20
-34.944711189
 10
-177.5686147767
 20
-31.0121230817
 10
-180.0102949835
 20
-27.0213129538
 10
-182.1140246704
 20
-22.9797731342
 10
-183.8758543047
 20
-18.8950911917
 10
-185.2223281905
 20
-15.0064378697
  0
LWPOLYLINE
  5
F3
330
EA
100
AcDbEntity
  8
0
  6
Continuous
 62
     7
370
    25
100
AcDbPolyline
 90
       12
 70
   128
 43
0.0
 10
16.2958530094
 20
33.0485981237
 10
19.3364941822
 20
32.1178892338
 10
22.1787167583
 20
31.0335212667
 10
24.7933556877
 20
29.8066213051
 10
27.1535812371
 20
28.4497790029
 10
29.2351742983
 20
26.9769173981
 10
31.0167749097
 20
25.403150044
 10
32.4801014381
 20
23.7446259232
 10
33.6101381732
 20
22.0183637376
 10
34.3952894088
 20
20.2420772732
 10
34.8274984308
 20
18.4339936329
 10
34.9044460261
 20
17.63572962
  0
LWPOLYLINE
  5
F4
330
EA
100
AcDbEntity
  8
0
  6
Continuous
 62
     7
370
    25
100
AcDbPolyline
 90
       22
 70
   128
 43
0.0
 10
-34.9044460261
 20
17.63572962
 10
-34.9023301898
 20
17.6740258267
 10
-34.6190168106
 20
19.4899077651
 10
-33.980465472
 20
21.2817108046
 10
-32.9932285747
 20
23.0310486212
 10
-31.6674365052
 20
24.7199706418
 10
-30.0166936843
 20
26.3311462408
 10
-28.0579389671
 20
27.8480425765
 10
-25.8112718277
 20
29.2550942396
 10
-23.2997461111
 20
30.5378629761
 10
-20.5491334698
 20
31.683185843
 10
-17.5876589117
 20
32.6793102776
 10
-14.4457111732
 20
33.5160146954
 10
-11.1555308899
 20
34.1847133767
 10
-7.7508797639
 20
34.6785445683
 10
-4.2666941228
 20
34.9924408937
 10
-0.7387264263
 20
35.123181352
 10
2.796821603
 20
35.0694243692
 10
6.3036704579
 20
34.8317215645
 10
9.7458351237
 20
34.4125120906
 10
13.087994333
 20
33.8160976037
 10
16.2958530094
 20
33.0485981237
  0
LWPOLYLINE
  5
F6
330
EA
100
AcDbEntity
  8
0
  6
Continuous
 62
     7
370
    25
100
AcDbPolyline
 90
       12
 70
   128
 43
0.0
 10
-17.1053441936
 20
16.4906610223
 10
-16.0290406616
 20
17.0669892235
 10
-13.8353328325
 20
18.0346979301
 10
-11.4234335398
 20
18.8531690807
 10
-8.8313798762
 20
19.5094948964
 10
-6.1000500763
 20
19.9933247269
 10
-3.2725188427
 20
20.2970282869
 10
-0.393378032
 20
20.4158159897
 10
2.4919665852
 20
20.3478144823
 10
5.3380114008
 20
20.0940961891
 10
8.0998725878
 20
19.6586623992
 10
10.7339939454
 20
19.0483801635
  0
LINE
  5
F7
330
EA
100
AcDbEntity
  8
0
  6
Continuous
 62
     7
370
    25
100
AcDbLine
 10
-222.2667938286
 20
106.2815331582
 30
0.0
 11
-185.2223281905
 21
-15.0064378697
 31
0.0
  0
LINE
  5
F8
330
EA
100
AcDbEntity
  8
0
  6
Continuous
 62
     7
370
    25
100
AcDbLine
 10
185.2223281905
 20
-15.0064378697
 30
0.0
 11
222.2667938286
 21
106.2815331582
 31
0.0
  0
ARC
  5
F9
330
EA
100
AcDbEntity
  8
0
  6
Continuous
 62
     7
370
    25
100
AcDbCircle
 10
3.9082046455
 20
-7.1693185919
 30
0.0
 40
27.09168004382762
100
AcDbArc
 50
60.8479552729
 51
75.4069782705
  0
VIEWPORT
  5
119
330
EA
100
AcDbEntity
  8
0
100
AcDbViewport
 10
0.0
 20
0.0
 30
0.0
 40
205.6
 41
156.0
 68
     1
 69
     1
 12
0.0
 22
72.5
 13
0.0
 23
0.0
 14
10.0
 24
10.0
 15
10.0
 25
10.0
 16
0.0
 26
0.0
 36
1.0
 17
0.0
 27
0.0
 37
0.0
 42
50.0
 43
0.0
 44
0.0
 45
348.2684824903
 50
0.0
 51
0.0
 72
   100
 90
   557152
  1

281
     0
 71
     1
 74
     0
110
0.0
120
0.0
130
0.0
111
1.0
121
0.0
131
0.0
112
0.0
122
1.0
132
0.0
 79
     0
146
0.0
170
     0
 61
     5
348
2F
292
     1
282
     1
141
0.0
142
0.0
 63
   256
361
11A
  0
ENDBLK
  5
ED
330
EA
100
AcDbEntity
  8
0
100
AcDbBlockEnd
  0
BLOCK
  5
FC
330
FA
100
AcDbEntity
  8
0
100
AcDbBlockBegin
  2
*Paper_Space10
 70
     0
 10
0.0
 20
0.0
 30
0.0
  3
*Paper_Space10
  1

  0
LWPOLYLINE
  5
100
330
FA
100
AcDbEntity
  8
0
  6
Continuous
 62
     7
370
    25
100
AcDbPolyline
 90
      154
 70
   128
 43
0.0
 10
74.2462120076
 20
202.1863152886
 10
82.2483412576
 20
201.1150489594
 10
90.1117811978
 20
199.9351766135
 10
97.8232722895
 20
198.6486877825
 10
105.3698112141
 20
197.2577517778
 10
112.7386727999
 20
195.764714032
 10
119.9174314791
 20
194.1720921446
 10
126.8939822407
 20
192.4825716363
 10
133.6565610417
 20
190.6990014209
 10
140.1937646446
 20
188.8243890013
 10
146.494569845
 20
186.8618953981
 10
152.5483520602
 20
184.8148298196
 10
158.3449032437
 20
182.6866440813
 10
163.8744490989
 20
180.4809267858
 10
169.1276655606
 20
178.2013972716
 10
174.0956945175
 20
175.851899341
 10
178.7701587489
 20
173.4363947791
 10
183.1431760505
 20
170.958956673
 10
187.2073725259
 20
168.4237625438
 10
190.9558950204
 20
165.8350873023
 10
194.3824226772
 20
163.1972960407
 10
197.4811775954
 20
160.5148366716
 10
200.2469345732
 20
157.7922324285
 10
202.6750299187
 20
155.034074238
 10
204.7613693138
 20
152.2450129789
 10
206.5024347184
 20
149.4297516392
 10
207.8952903022
 20
146.5930373865
 10
208.9375873957
 20
143.7396535629
 10
209.6275684502
 20
140.8744116188
 10
209.9640700015
 20
138.0021430004
 10
209.9465246319
 20
135.1276910025
 10
209.5749619268
 20
132.2559026012
 10
208.8500084251
 20
129.3916202816
 10
207.7728865624
 20
126.5396738716
 10
206.3454126097
 20
123.704872398
 10
204.569993611
 20
120.8919959774
 10
202.4496233246
 20
118.1057877558
 10
199.9878771743
 20
115.3509459105
 10
197.188906221
 20
112.6321157282
 10
194.057430163
 20
109.9538817715
 10
190.5987293773
 20
107.3207601488
 10
186.8186360159
 20
104.7371908989
 10
182.7235241714
 20
102.2075305039
 10
178.3202991286
 20
99.7360445435
 10
173.6163857213
 20
97.3269005023
 10
168.6197158114
 20
94.984160742
 10
163.3387149149
 20
92.7117756518
 10
157.7822879939
 20
90.5135769871
 10
151.9598044412
 20
88.3932714082
 10
145.8810822813
 20
86.3544342299
 10
139.5563716149
 20
84.4005033929
 10
132.996337335
 20
82.5347736666
 10
126.2120411434
 20
80.7603910934
 10
119.2149228982
 20
79.0803476838
 10
112.0167813238
 20
77.497476371
 10
104.6297541152
 20
76.0144462341
 10
97.0662974714
 20
74.6337579974
 10
89.3391650913
 20
73.3577398137
 10
81.4613866683
 20
72.1885433382
 10
73.4462459188
 20
71.1281401007
 10
65.3072581834
 20
70.1783181811
 10
57.0581476367
 20
69.3406791938
 10
48.7128241451
 20
68.6166355877
 10
40.285359812
 20
68.0074082642
 10
31.7899652487
 20
67.5140245183
 10
23.2409656124
 20
67.1373163066
 10
14.6527764504
 20
66.8779188444
 10
6.0398793926
 20
66.7362695346
 10
-2.5832022684
 20
66.7126072298
 10
-11.2019280659
 20
66.8069718301
 10
-19.8017648785
 20
67.0192042155
 10
-28.3682114359
 20
67.348946514
 10
-36.8868227713
 20
67.7956427057
 10
-45.3432345788
 20
68.3585395596
 10
-53.7231874351
 20
69.0366879043
 10
-62.0125508439
 20
69.8289442283
 10
-70.1973470633
 20
70.7339726083
 10
-78.2637746752
 20
71.7502469616
 10
-86.1982318578
 20
72.8760536198
 10
-93.9873393215
 20
74.1094942181
 10
-101.6179628688
 20
75.4484888966
 10
-109.0772355424
 20
76.8907798076
 10
-116.352579321
 20
78.433934922
 10
-123.4317263291
 20
80.0753521315
 10
-130.3027395234
 20
81.8122636351
 10
-136.9540328213
 20
83.6417406073
 10
-143.3743906375
 20
85.5606981358
 10
-149.5529867965
 20
87.5659004243
 10
-155.4794027872
 20
89.6539662481
 10
-161.1436453317
 20
91.8213746557
 10
-166.5361632357
 20
94.0644709064
 10
-171.6478634939
 20
96.3794726323
 10
-176.4701266235
 20
98.7624762169
 10
-180.9948211978
 20
101.209463377
 10
-185.2143175582
 20
103.7163079387
 10
-189.1215006794
 20
106.278782795
 10
-192.7097821666
 20
108.8925670336
 10
-195.9731113655
 20
111.5532532229
 10
-198.9059855648
 20
114.2563548441
 10
-201.5034592752
 20
116.9973138565
 10
-203.7611525684
 20
119.7715083829
 10
-205.6752584627
 20
122.5742605038
 10
-207.2425493426
 20
125.4008441452
 10
-208.460382401
 20
128.2464930476
 10
-209.3267040961
 20
131.1064088031
 10
-209.8400536133
 20
133.9757689469
 10
-209.9995653293
 20
136.8497350885
 10
-209.8049702713
 20
139.723461071
 10
-209.2565965704
 20
142.5921011422
 10
-208.355368909
 20
145.450818126
 10
-207.1028069605
 20
148.2947915788
 10
-205.501022828
 20
151.119225918
 10
-203.5527174817
 20
153.9193585085
 10
-201.2611762053
 20
156.6904676931
 10
-198.6302630557
 20
159.427880755
 10
-195.6644143477
 20
162.1269817963
 10
-192.3686311731
 20
164.7832195222
 10
-188.748470968
 20
167.392114915
 10
-184.8100381414
 20
169.9492687867
 10
-180.5599737821
 20
172.4503691976
 10
-176.00544446
 20
174.8911987265
 10
-171.1541301419
 20
177.2676415826
 10
-166.0142112413
 20
179.5756905457
 10
-160.5943548241
 20
181.8114537231
 10
-154.9036999944
 20
183.9711611123
 10
-148.9518424836
 20
186.051170958
 10
-142.7488184699
 20
188.0479758932
 10
-136.3050876551
 20
189.9582088529
 10
-129.631515627
 20
191.7786487523
 10
-122.7393555379
 20
193.5062259178
 10
-115.6402291287
 20
195.1380272635
 10
-108.3461071326
 20
196.6713012033
 10
-100.8692890895
 20
198.1034622904
 10
-93.2223826059
 20
199.4320955771
 10
-85.4182820961
 20
200.6549606873
 10
-77.470147039
 20
201.7699955937
 10
-69.3913797884
 20
202.7753200951
 10
-61.1956029735
 20
203.6692389872
 10
-52.8966365281
 20
204.4502449203
 10
-44.508474387
 20
205.1170209418
 10
-36.0452608893
 20
205.6684427165
 10
-27.5212669273
 20
206.1035804225
 10
-18.9508658834
 20
206.4217003193
 10
-10.3485093924
 20
206.6222659846
 10
-1.7287029735
 20
206.7049392195
 10
6.8940184296
 20
206.6695806181
 10
15.5051149581
 20
206.5162498031
 10
24.0900663552
 20
206.2452053248
 10
32.6343964506
 20
205.8569042257
 10
41.1236975709
 20
205.3520012691
 10
49.543654834
 20
204.7313478357
 10
57.8800702871
 20
203.9959904876
 10
66.1188868478
 20
203.1471692037
 10
74.2462120076
 20
202.1863152886
  0
LWPOLYLINE
  5
101
330
FA
100
AcDbEntity
  8
0
  6
Continuous
 62
     7
370
    25
100
AcDbPolyline
 90
      160
 70
   128
 43
0.0
 10
79.5495128652
 20
206.8633870211
 10
87.8022943908
 20
205.7610397761
 10
95.9179830564
 20
204.5508733308
 10
103.8839071776
 20
203.2347772165
 10
111.6876289095
 20
201.814806361
 10
119.3169636669
 20
200.2931778803
 10
126.7599991494
 20
198.6722676166
 10
134.0051139406
 20
196.9546064289
 10
141.0409956537
 20
195.1428762413
 10
147.8566585946
 20
193.2399058552
 10
154.4414609148
 20
191.2486665332
 10
160.7851212271
 20
189.172267359
 10
166.8777346589
 20
187.0139503835
 10
172.7097883176
 20
184.7770855624
 10
178.2721761438
 20
182.4651654946
 10
183.5562131291
 20
180.0817999689
 10
188.553648877
 20
177.6307103275
 10
193.2566804849
 20
175.115723656
 10
197.6579647271
 20
172.5407668076
 10
201.7506295208
 20
169.9098602716
 10
205.5282846558
 20
167.2271118965
 10
208.985031772
 20
164.4967104751
 10
212.115473569
 20
161.7229192054
 10
214.9147222337
 20
158.910069033
 10
217.3784070716
 20
156.0625518897
 10
219.5026813312
 20
153.1848138353
 10
221.2842282104
 20
150.2813481163
 10
222.7202660353
 20
147.3566881498
 10
223.8085526032
 20
144.415400445
 10
224.547388684
 20
141.4620774736
 10
224.9356206727
 20
138.5013304989
 10
224.9726423912
 20
135.5377823757
 10
224.6583960344
 20
132.5760603327
 10
223.9933722608
 20
129.6207887472
 10
222.978609426
 20
126.6765819251
 10
221.6156919618
 20
123.7480368958
 10
219.9067479019
 20
120.8397262346
 10
217.8544455597
 20
117.9561909236
 10
215.4619893616
 20
115.1019332607
 10
212.733114844
 20
112.2814098304
 10
209.6720828205
 20
109.4990245454
 10
206.2836727293
 20
106.7591217699
 10
202.5731751704
 20
104.0659795369
 10
198.5463836454
 20
101.4238028683
 10
194.2095855112
 20
98.8367172092
 10
189.5695521633
 20
96.3087619869
 10
184.633528463
 20
93.8438843033
 10
179.4092214253
 20
91.4459327724
 10
173.9047881854
 20
89.1186515108
 10
168.1288232626
 20
86.8656742919
 10
162.0903451403
 20
84.6905188722
 10
155.7987821854
 20
82.5965814988
 10
149.2639579266
 20
80.5871316061
 10
142.4960757161
 20
78.6653067118
 10
135.5057027987
 20
76.8341075172
 10
128.3037538118
 20
75.0963932225
 10
120.901473744
 20
73.4548770624
 10
113.3104203768
 20
71.9121220694
 10
105.5424462389
 20
70.4705370722
 10
97.6096800999
 20
69.1323729349
 10
89.5245080323
 20
67.8997190417
 10
81.2995540727
 20
66.7745000355
 10
72.9476605102
 20
65.7584728122
 10
64.4818678352
 20
64.8532237776
 10
55.9153943781
 20
64.0601663707
 10
47.2616156702
 20
63.3805388564
 10
38.5340435597
 20
62.8154023924
 10
29.7463051145
 20
62.3656393723
 10
20.9121213449
 20
62.0319520476
 10
12.0452857803
 20
61.8148614315
 10
3.1596429318
 20
61.7147064852
 10
-5.7309333241
 20
61.7316435886
 10
-14.6125614079
 20
61.8656462967
 10
-23.4713737117
 20
62.11650538
 10
-32.2935382516
 20
62.4838291519
 10
-41.065280265
 20
62.9670440799
 10
-49.7729037181
 20
63.5653956812
 10
-58.4028126904
 20
64.2779497009
 10
-66.9415326035
 20
65.1035935704
 10
-75.3757312598
 20
66.0410381449
 10
-83.6922396595
 20
67.0888197159
 10
-91.8780725618
 20
68.2453022969
 10
-99.9204487604
 20
69.5086801775
 10
-107.8068110395
 20
70.8769807434
 10
-115.5248457806
 20
72.3480675554
 10
-123.0625021886
 20
73.9196436862
 10
-130.4080111079
 20
75.5892553062
 10
-137.5499033982
 20
77.3542955151
 10
-144.4770278425
 20
79.2120084121
 10
-151.1785685582
 20
81.1594933991
 10
-157.6440618852
 20
83.1937097094
 10
-163.863412723
 20
85.3114811556
 10
-169.8269102935
 20
87.5095010892
 10
-175.5252433034
 20
89.7843375629
 10
-180.9495144819
 20
92.1324386896
 10
-186.0912544735
 20
94.550138188
 10
-190.9424350616
 20
97.0336611076
 10
-195.4954817037
 20
99.5791297219
 10
-199.7432853577
 20
102.1825695839
 10
-203.6792135826
 20
104.8399157314
 10
-207.2971208937
 20
107.5470190338
 10
-210.5913583582
 20
110.2996526706
 10
-213.5567824153
 20
113.0935187312
 10
-216.1887629073
 20
115.9242549253
 10
-218.4831903092
 20
118.7874413944
 10
-220.436482145
 20
121.6786076128
 10
-222.0455885813
 20
124.5932393675
 10
-223.3079971894
 20
127.5267858071
 10
-224.2217368682
 20
130.4746665471
 10
-224.7853809216
 20
133.4322788215
 10
-224.9980492862
 20
136.39500467
 10
-224.8594099059
 20
139.3582181478
 10
-224.3696792493
 20
142.3172925489
 10
-223.5296219729
 20
145.2676076297
 10
-222.3405497263
 20
148.2045568236
 10
-220.8043191048
 20
151.123554433
 10
-218.92332875
 20
154.0200427896
 10
-216.7005156052
 20
156.8894993707
 10
-214.1393503291
 20
159.7274438605
 10
-211.2438318773
 20
162.5294451456
 10
-208.0184812583
 20
165.2911282335
 10
-204.468334474
 20
168.0081810839
 10
-200.5989346573
 20
170.6763613414
 10
-196.4163234166
 20
173.2915029592
 10
-191.927031403
 20
175.8495227042
 10
-187.1380681129
 20
178.346426532
 10
-182.0569109442
 20
180.7783158239
 10
-176.6914935204
 20
183.1413934734
 10
-171.050193304
 20
185.4319698151
 10
-165.1418185157
 20
187.6464683862
 10
-158.9755943812
 20
189.7814315098
 10
-152.5611487277
 20
191.8335256947
 10
-145.9084969506
 20
193.7995468392
 10
-139.0280263758
 20
195.6764252348
 10
-131.9304800415
 20
197.4612303585
 10
-124.6269399236
 20
199.1511754492
 10
-117.1288096332
 20
200.7436218582
 10
-109.4477966106
 20
202.2360831693
 10
-101.5958938458
 20
203.6262290815
 10
-93.5853611529
 20
204.9118890469
 10
-85.4287060278
 20
206.0910556602
 10
-77.1386641193
 20
207.1618877925
 10
-68.7281793437
 20
208.1227134667
 10
-60.2103836745
 20
208.9720324675
 10
-51.5985766386
 20
209.7085186841
 10
-42.9062045505
 20
210.3310221807
 10
-34.1468395171
 20
210.8385709921
 10
-25.3341582474
 20
211.2303726409
 10
-16.4819206969
 20
211.5058153754
 10
-7.6039485838
 20
211.6644691246
 10
1.2858961924
 20
211.7060861693
 10
10.1737331944
 20
211.6306015296
 10
19.0456851197
 20
211.4381330656
 10
27.8878994685
 20
211.1289812942
 10
36.6865701727
 20
210.703628919
 10
45.4279591527
 20
210.1627400773
 10
54.098417767
 20
209.5071593029
 10
62.6844081238
 20
208.7379102072
 10
71.1725242185
 20
207.8561938815
 10
79.5495128652
 20
206.8633870211
  0
LWPOLYLINE
  5
102
330
FA
100
AcDbEntity
  8
0
  6
Continuous
 62
     7
370
    25
100
AcDbPolyline
 90
       70
 70
   128
 43
0.0
 10
186.7145502277
 20
-5.7147638537
 10
185.8223351476
 20
-8.3420604968
 10
184.5638011647
 20
-11.0174271
 10
182.9587679297
 20
-13.672109635
 10
181.010248725
 20
-16.3011242127
 10
178.7219016916
 20
-18.899535133
 10
176.0980229622
 20
-21.4624641509
 10
173.1435385947
 20
-23.9850996348
 10
169.8639953249
 20
-26.4627056004
 10
166.2655501527
 20
-28.8906306013
 10
162.3549587828
 20
-31.2643164619
 10
158.1395629419
 20
-33.5793068351
 10
153.6272765953
 20
-35.8312555683
 10
148.826571089
 20
-38.0159348632
 10
143.7464592462
 20
-40.1292432125
 10
138.3964784458
 20
-42.1672131008
 10
132.786672718
 20
-44.1260184524
 10
126.9275738867
 20
-46.001981815
 10
120.8301817978
 20
-47.7915812634
 10
114.505943668
 20
-49.4914570116
 10
107.9667325934
 20
-51.0984177206
 10
101.2248252595
 20
-52.6094464894
 10
94.292878893
 20
-54.0217065196
 10
87.1839074989
 20
-55.3325464403
 10
79.9112574281
 20
-56.5395052867
 10
72.4885823212
 20
-57.6403171196
 10
64.9298174753
 20
-58.6329152798
 10
57.2491536814
 20
-59.5154362681
 10
49.4610105833
 20
-60.2862232433
 10
41.5800096059
 20
-60.9438291337
 10
33.6209465051
 20
-61.4870193527
 10
25.5987635902
 20
-61.9147741175
 10
17.5285216714
 20
-62.2262903633
 10
9.4253717847
 20
-62.4209832509
 10
1.3045267473
 20
-62.4984872646
 10
-6.8187674027
 20
-62.4586568988
 10
-14.9292600294
 20
-62.3015669308
 10
-23.0117245304
 20
-62.0275122808
 10
-31.050986923
 20
-61.6370074575
 10
-39.031954332
 20
-61.1307855931
 10
-46.9396433252
 20
-60.5097970661
 10
-54.7592080427
 20
-59.7752077177
 10
-62.4759680688
 20
-58.9283966626
 10
-70.0754359928
 20
-57.9709537
 10
-77.5433446077
 20
-56.9046763292
 10
-84.8656736955
 20
-55.7315663744
 10
-92.0286763484
 20
-54.453826227
 10
-99.0189047774
 20
-53.0738547107
 10
-105.8232355588
 20
-51.5942425777
 10
-112.4288942728
 20
-50.0177676452
 10
-118.8234794853
 20
-48.3473895802
 10
-124.9949860306
 20
-46.586244343
 10
-130.9318275501
 20
-44.7376382998
 10
-136.6228582443
 20
-42.8050420152
 10
-142.0573937975
 20
-40.7920837369
 10
-147.2252314371
 20
-38.7025425835
 10
-152.1166690879
 20
-36.5403414505
 10
-156.722523587
 20
-34.3095396444
 10
-161.0341479236
 20
-32.0143252625
 10
-165.0434474736
 20
-29.6590073301
 10
-168.742895196
 20
-27.2480077104
 10
-172.1255457643
 20
-24.7858528034
 10
-175.1850486054
 20
-22.2771650475
 10
-177.9156598226
 20
-19.726654242
 10
-180.3122529784
 20
-17.1391087043
 10
-182.3703287198
 20
-14.5193862808
 10
-184.0860232245
 20
-11.8724052267
 10
-185.4561154553
 20
-9.2031349723
 10
-186.4780332073
 20
-6.5165867936
 10
-186.7145502277
 20
-5.7147638537
  0
LINE
  5
103
330
FA
100
AcDbEntity
  8
0
  6
Continuous
 62
     7
370
    25
100
AcDbLine
 10
-224.0574602732
 20
129.849594409
 30
0.0
 11
-186.7145502277
 21
-5.7147638537
 31
0.0
  0
LINE
  5
104
330
FA
100
AcDbEntity
  8
0
  6
Continuous
 62
     7
370
    25
100
AcDbLine
 10
186.7145502277
 20
-5.7147638537
 30
0.0
 11
224.0574602732
 21
129.849594409
 31
0.0
  0
VIEWPORT
  5
11B
330
FA
100
AcDbEntity
  8
0
100
AcDbViewport
 10
0.0
 20
0.0
 30
0.0
 40
205.6
 41
156.0
 68
     1
 69
     1
 12
0.0
 22
72.5
 13
0.0
 23
0.0
 14
10.0
 24
10.0
 15
10.0
 25
10.0
 16
0.0
 26
0.0
 36
1.0
 17
0.0
 27
0.0
 37
0.0
 42
50.0
 43
0.0
 44
0.0
 45
348.2684824903
 50
0.0
 51
0.0
 72
   100
 90
   557152
  1

281
     0
 71
     1
 74
     0
110
0.0
120
0.0
130
0.0
111
1.0
121
0.0
131
0.0
112
0.0
122
1.0
132
0.0
 79
     0
146
0.0
170
     0
 61
     5
348
2F
292
     1
282
     1
141
0.0
142
0.0
 63
   256
361
11C
  0
ENDBLK
  5
FD
330
FA
100
AcDbEntity
  8
0
100
AcDbBlockEnd
  0
ENDSEC
  0
SECTION
  2
ENTITIES
  0
LINE
  5
77
330
1F
100
AcDbEntity
  8
0
  6
Continuous
 62
     7
370
    25
100
AcDbLine
 10
-225.0
 20
145.0
 30
0.0
 11
-187.5
 21
0.0
 31
0.0
  0
LINE
  5
78
330
1F
100
AcDbEntity
  8
0
  6
Continuous
 62
     7
370
    25
100
AcDbLine
 10
187.5
 20
0.0
 30
0.0
 11
225.0
 21
145.0
 31
0.0
  0
LINE
  5
79
330
1F
100
AcDbEntity
  8
0
  6
Continuous
 62
     7
370
    25
100
AcDbLine
 10
187.5
 20
0.0
 30
0.0
 11
-187.5
 21
0.0
 31
0.0
  0
LINE
  5
7A
330
1F
100
AcDbEntity
  8
0
  6
Continuous
 62
     7
370
    25
100
AcDbLine
 10
225.0
 20
145.0
 30
0.0
 11
-225.0
 21
145.0
 31
0.0
  0
CIRCLE
  5
7B
330
1B
100
AcDbEntity
 67
     1
  8
0
  6
Continuous
 62
     7
370
    25
100
AcDbCircle
 10
0.0
 20
0.0
 30
0.0
 40
34.917535925942
  0
CIRCLE
  5
7C
330
1B
100
AcDbEntity
 67
     1
  8
0
  6
Continuous
 62
     7
370
    25
100
AcDbCircle
 10
0.0
 20
0.0
 30
0.0
 40
210.0
  0
CIRCLE
  5
7D
330
1B
100
AcDbEntity
 67
     1
  8
0
  6
Continuous
 62
     7
370
    25
100
AcDbCircle
 10
0.0
 20
0.0
 30
0.0
 40
225.0000000000002
  0
CIRCLE
  5
7E
330
1B
100
AcDbEntity
 67
     1
  8
0
  6
Continuous
 62
     7
370
    25
100
AcDbCircle
 10
0.0
 20
0.0
 30
0.0
 40
22.99999999999999
  0
VIEWPORT
  5
105
330
1B
100
AcDbEntity
 67
     1
  8
0
100
AcDbViewport
 10
0.0
 20
0.0
 30
0.0
 40
205.6
 41
156.0
 68
     1
 69
     1
 12
0.0
 22
72.5
 13
0.0
 23
0.0
 14
10.0
 24
10.0
 15
10.0
 25
10.0
 16
0.0
 26
0.0
 36
1.0
 17
0.0
 27
0.0
 37
0.0
 42
50.0
 43
0.0
 44
0.0
 45
348.2684824903
 50
0.0
 51
0.0
 72
   100
 90
   557152
  1

281
     0
 71
     1
 74
     0
110
0.0
120
0.0
130
0.0
111
1.0
121
0.0
131
0.0
112
0.0
122
1.0
132
0.0
 79
     0
146
0.0
170
     0
 61
     5
348
2F
292
     1
282
     1
141
0.0
142
0.0
 63
   256
361
106
  0
ENDSEC
  0
SECTION
  2
OBJECTS
  0
DICTIONARY
  5
C
330
0
100
AcDbDictionary
281
     1
  3
ACAD_DETAILVIEWSTYLE
350
124
  3
ACAD_GROUP
350
D
  3
ACAD_LAYOUT
350
1A
  3
ACAD_MATERIAL
350
43
  3
ACAD_MLEADERSTYLE
350
6B
  3
ACAD_MLINESTYLE
350
17
  3
ACAD_PLOTSETTINGS
350
19
  3
ACAD_PLOTSTYLENAME
350
E
  3
ACAD_SCALELIST
350
47
  3
ACAD_SECTIONVIEWSTYLE
350
125
  3
ACAD_TABLESTYLE
350
69
  3
ACAD_VISUALSTYLE
350
2A
  3
ACDB_RECOMPOSE_DATA
350
121
  3
AcDbVariableDictionary
350
11D
  0
SUN
  5
6D
330
29
100
AcDbSun
 90
        1
290
     0
 63
     7
421
 16777215
 40
1.0
291
     1
 91
  2455826
 92
 54000000
292
     0
 70
     2
 71
   256
280
     1
  0
SUN
  5
108
330
107
100
AcDbSun
 90
        1
290
     0
 63
     7
421
 16777215
 40
1.0
291
     1
 91
  2455826
 92
 54000000
292
     0
 70
     2
 71
   256
280
     1
  0
SUN
  5
10A
330
109
100
AcDbSun
 90
        1
290
     0
 63
     7
421
 16777215
 40
1.0
291
     1
 91
  2455826
 92
 54000000
292
     0
 70
     2
 71
   256
280
     1
  0
SUN
  5
10C
330
10B
100
AcDbSun
 90
        1
290
     0
 63
     7
421
 16777215
 40
1.0
291
     1
 91
  2455826
 92
 54000000
292
     0
 70
     2
 71
   256
280
     1
  0
SUN
  5
10E
330
10D
100
AcDbSun
 90
        1
290
     0
 63
     7
421
 16777215
 40
1.0
291
     1
 91
  2455826
 92
 54000000
292
     0
 70
     2
 71
   256
280
     1
  0
SUN
  5
110
330
10F
100
AcDbSun
 90
        1
290
     0
 63
     7
421
 16777215
 40
1.0
291
     1
 91
  2455826
 92
 54000000
292
     0
 70
     2
 71
   256
280
     1
  0
SUN
  5
112
330
111
100
AcDbSun
 90
        1
290
     0
 63
     7
421
 16777215
 40
1.0
291
     1
 91
  2455826
 92
 54000000
292
     0
 70
     2
 71
   256
280
     1
  0
SUN
  5
114
330
113
100
AcDbSun
 90
        1
290
     0
 63
     7
421
 16777215
 40
1.0
291
     1
 91
  2455826
 92
 54000000
292
     0
 70
     2
 71
   256
280
     1
  0
SUN
  5
116
330
115
100
AcDbSun
 90
        1
290
     0
 63
     7
421
 16777215
 40
1.0
291
     1
 91
  2455826
 92
 54000000
292
     0
 70
     2
 71
   256
280
     1
  0
SUN
  5
118
330
117
100
AcDbSun
 90
        1
290
     0
 63
     7
421
 16777215
 40
1.0
291
     1
 91
  2455826
 92
 54000000
292
     0
 70
     2
 71
   256
280
     1
  0
SUN
  5
11A
330
119
100
AcDbSun
 90
        1
290
     0
 63
     7
421
 16777215
 40
1.0
291
     1
 91
  2455826
 92
 54000000
292
     0
 70
     2
 71
   256
280
     1
  0
SUN
  5
11C
330
11B
100
AcDbSun
 90
        1
290
     0
 63
     7
421
 16777215
 40
1.0
291
     1
 91
  2455826
 92
 54000000
292
     0
 70
     2
 71
   256
280
     1
  0
SUN
  5
106
330
105
100
AcDbSun
 90
        1
290
     0
 63
     7
421
 16777215
 40
1.0
291
     1
 91
  2455826
 92
 54000000
292
     0
 70
     2
 71
   256
280
     1
  0
DICTIONARY
  5
124
102
{ACAD_REACTORS
330
C
102
}
330
C
100
AcDbDictionary
281
     1
  0
DICTIONARY
  5
D
102
{ACAD_REACTORS
330
C
102
}
330
C
100
AcDbDictionary
281
     1
  0
DICTIONARY
  5
1A
102
{ACAD_REACTORS
330
C
102
}
330
C
100
AcDbDictionary
281
     1
  3
_Dimetrisch
350
FB
  3
_Isometrisch
350
D9
  3
_Links
350
BA
  3
_Normal auf
350
A0
  3
_Oben
350
1E
  3
_Rechts
350
C6
  3
_Rückseite
350
AC
  3
_Trimetrisch
350
EB
  3
_Unten
350
D2
  3
Beschriftungsansicht  1
350
26
  3
Beschriftungsansicht  2
350
88
  3
Beschriftungsansicht  3
350
94
  3
Model
350
22
  0
DICTIONARY
  5
43
102
{ACAD_REACTORS
330
C
102
}
330
C
100
AcDbDictionary
281
     1
  3
ByBlock
350
45
  3
ByLayer
350
44
  3
Global
350
46
  0
DICTIONARY
  5
6B
102
{ACAD_REACTORS
330
C
102
}
330
C
100
AcDbDictionary
281
     1
  3
Standard
350
6C
  0
DICTIONARY
  5
17
102
{ACAD_REACTORS
330
C
102
}
330
C
100
AcDbDictionary
281
     1
  3
Standard
350
18
  0
DICTIONARY
  5
19
102
{ACAD_REACTORS
330
C
102
}
330
C
100
AcDbDictionary
281
     1
  0
ACDBDICTIONARYWDFLT
  5
E
102
{ACAD_REACTORS
330
C
102
}
330
C
100
AcDbDictionary
281
     1
  3
Normal
350
F
100
AcDbDictionaryWithDefault
340
F
  0
DICTIONARY
  5
47
102
{ACAD_REACTORS
330
C
102
}
330
C
100
AcDbDictionary
281
     1
  3
A0
350
48
  3
A1
350
49
  3
A2
350
4A
  3
A3
350
4B
  3
A4
350
4C
  3
A5
350
4D
  3
A6
350
4E
  3
A7
350
4F
  3
A8
350
50
  3
A9
350
51
  3
B0
350
52
  3
B1
350
53
  3
B2
350
54
  3
B3
350
55
  3
B4
350
56
  3
B5
350
57
  3
B6
350
58
  3
B7
350
59
  3
B8
350
5A
  3
B9
350
5B
  3
C0
350
5C
  3
C1
350
5D
  3
C2
350
5E
  3
C3
350
5F
  3
C4
350
60
  3
C5
350
61
  3
C6
350
62
  3
C7
350
63
  3
C8
350
64
  3
C9
350
65
  3
D0
350
66
  3
D1
350
67
  3
D2
350
68
  0
DICTIONARY
  5
125
102
{ACAD_REACTORS
330
C
102
}
330
C
100
AcDbDictionary
281
     1
  0
DICTIONARY
  5
69
102
{ACAD_REACTORS
330
C
102
}
330
C
100
AcDbDictionary
281
     1
  3
Standard
350
6A
  0
DICTIONARY
  5
2A
102
{ACAD_REACTORS
330
C
102
}
330
C
100
AcDbDictionary
281
     1
  3
2dWireframe
350
2F
  3
Basic
350
32
  3
Brighten
350
36
  3
ColorChange
350
3A
  3
Conceptual
350
34
  3
Dim
350
35
  3
EdgeColorOff
350
3D
  3
Facepattern
350
39
  3
Flat
350
2B
  3
FlatWithEdges
350
2C
  3
Gouraud
350
2D
  3
GouraudWithEdges
350
2E
  3
Hidden
350
31
  3
JitterOff
350
3B
  3
Linepattern
350
38
  3
OverhangOff
350
3C
  3
Realistic
350
33
  3
Shaded
350
42
  3
Shaded with edges
350
41
  3
Shades of Gray
350
3E
  3
Sketchy
350
3F
  3
Thicken
350
37
  3
Wireframe
350
30
  3
X-Ray
350
40
  0
XRECORD
  5
121
102
{ACAD_REACTORS
330
C
102
}
330
C
100
AcDbXrecord
280
     1
 90
        1
330
6A
  0
DICTIONARY
  5
11D
102
{ACAD_REACTORS
330
C
102
}
330
C
100
AcDbDictionary
281
     1
  3
CANNOSCALE
350
11E
  3
CMLEADERSTYLE
350
123
  3
CTABLESTYLE
350
122
  0
LAYOUT
  5
FB
102
{ACAD_REACTORS
330
1A
102
}
330
1A
100
AcDbPlotSettings
  1

  2
none_device
  4
ISO_A4_(210.00_x_297.00_MM)
  6

 40
7.5
 41
20.0
 42
7.5
 43
20.0
 44
210.0
 45
297.0
 46
0.0
 47
0.0
 48
0.0
 49
0.0
140
0.0
141
0.0
142
1.0
143
2.3076923077
 70
   688
 72
     1
 73
     1
 74
     1
  7

 75
     0
 76
     0
 77
     2
 78
   300
147
0.4333333333
148
225.0
149
225.0
100
AcDbLayout
  1
_Dimetrisch
 70
     1
 71
    12
 10
0.0
 20
0.0
 11
0.0
 21
0.0
 12
0.0
 22
0.0
 32
0.0
 14
0.0
 24
0.0
 34
0.0
 15
0.0
 25
0.0
 35
0.0
146
0.0
 13
0.0
 23
0.0
 33
0.0
 16
1.0
 26
0.0
 36
0.0
 17
0.0
 27
1.0
 37
0.0
 76
     0
330
FA
331
11B
  0
LAYOUT
  5
D9
102
{ACAD_REACTORS
330
1A
102
}
330
1A
100
AcDbPlotSettings
  1

  2
none_device
  4
ISO_A4_(210.00_x_297.00_MM)
  6

 40
7.5
 41
20.0
 42
7.5
 43
20.0
 44
210.0
 45
297.0
 46
0.0
 47
0.0
 48
0.0
 49
0.0
140
0.0
141
0.0
142
1.0
143
2.3076923077
 70
   688
 72
     1
 73
     1
 74
     1
  7

 75
     0
 76
     0
 77
     2
 78
   300
147
0.4333333333
148
225.0
149
225.0
100
AcDbLayout
  1
_Isometrisch
 70
     1
 71
    10
 10
0.0
 20
0.0
 11
0.0
 21
0.0
 12
0.0
 22
0.0
 32
0.0
 14
0.0
 24
0.0
 34
0.0
 15
0.0
 25
0.0
 35
0.0
146
0.0
 13
0.0
 23
0.0
 33
0.0
 16
1.0
 26
0.0
 36
0.0
 17
0.0
 27
1.0
 37
0.0
 76
     0
330
D8
331
117
  0
LAYOUT
  5
BA
102
{ACAD_REACTORS
330
1A
102
}
330
1A
100
AcDbPlotSettings
  1

  2
none_device
  4
ISO_A4_(210.00_x_297.00_MM)
  6

 40
7.5
 41
20.0
 42
7.5
 43
20.0
 44
210.0
 45
297.0
 46
0.0
 47
0.0
 48
0.0
 49
0.0
140
0.0
141
0.0
142
1.0
143
2.3076923077
 70
   688
 72
     1
 73
     1
 74
     1
  7

 75
     0
 76
     0
 77
     2
 78
   300
147
0.4333333333
148
225.0
149
225.0
100
AcDbLayout
  1
_Links
 70
     1
 71
     7
 10
0.0
 20
0.0
 11
0.0
 21
0.0
 12
0.0
 22
0.0
 32
0.0
 14
0.0
 24
0.0
 34
0.0
 15
0.0
 25
0.0
 35
0.0
146
0.0
 13
0.0
 23
0.0
 33
0.0
 16
1.0
 26
0.0
 36
0.0
 17
0.0
 27
1.0
 37
0.0
 76
     0
330
B9
331
111
  0
LAYOUT
  5
A0
102
{ACAD_REACTORS
330
1A
102
}
330
1A
100
AcDbPlotSettings
  1

  2
none_device
  4
ISO_A4_(210.00_x_297.00_MM)
  6

 40
7.5
 41
20.0
 42
7.5
 43
20.0
 44
210.0
 45
297.0
 46
0.0
 47
0.0
 48
0.0
 49
0.0
140
0.0
141
0.0
142
1.0
143
2.3076923077
 70
   688
 72
     1
 73
     1
 74
     1
  7

 75
     0
 76
     0
 77
     2
 78
   300
147
0.4333333333
148
225.0
149
225.0
100
AcDbLayout
  1
_Normal auf
 70
     1
 71
     5
 10
0.0
 20
0.0
 11
0.0
 21
0.0
 12
0.0
 22
0.0
 32
0.0
 14
0.0
 24
0.0
 34
0.0
 15
0.0
 25
0.0
 35
0.0
146
0.0
 13
0.0
 23
0.0
 33
0.0
 16
1.0
 26
0.0
 36
0.0
 17
0.0
 27
1.0
 37
0.0
 76
     0
330
9F
331
10D
  0
LAYOUT
  5
1E
102
{ACAD_REACTORS
330
1A
102
}
330
1A
100
AcDbPlotSettings
  1

  2
none_device
  4
ISO_A4_(210.00_x_297.00_MM)
  6

 40
7.5
 41
20.0
 42
7.5
 43
20.0
 44
210.0
 45
297.0
 46
0.0
 47
0.0
 48
0.0
 49
0.0
140
0.0
141
0.0
142
1.0
143
2.3076923077
 70
   688
 72
     1
 73
     1
 74
     1
  7

 75
     0
 76
     0
 77
     2
 78
   300
147
0.4333333333
148
225.0
149
225.0
100
AcDbLayout
  1
_Oben
 70
     1
 71
     1
 10
-271.1538461538
 20
-242.3076923077
 11
414.2307692308
 21
242.3076923077
 12
0.0
 22
0.0
 32
0.0
 14
-225.0
 24
-225.0
 34
0.0
 15
225.0
 25
225.0
 35
0.0
146
0.0
 13
0.0
 23
0.0
 33
0.0
 16
1.0
 26
0.0
 36
0.0
 17
0.0
 27
1.0
 37
0.0
 76
     0
330
1B
331
105
  0
LAYOUT
  5
C6
102
{ACAD_REACTORS
330
1A
102
}
330
1A
100
AcDbPlotSettings
  1

  2
none_device
  4
ISO_A4_(210.00_x_297.00_MM)
  6

 40
7.5
 41
20.0
 42
7.5
 43
20.0
 44
210.0
 45
297.0
 46
0.0
 47
0.0
 48
0.0
 49
0.0
140
0.0
141
0.0
142
1.0
143
2.3076923077
 70
   688
 72
     1
 73
     1
 74
     1
  7

 75
     0
 76
     0
 77
     2
 78
   300
147
0.4333333333
148
225.0
149
225.0
100
AcDbLayout
  1
_Rechts
 70
     1
 71
     8
 10
0.0
 20
0.0
 11
0.0
 21
0.0
 12
0.0
 22
0.0
 32
0.0
 14
0.0
 24
0.0
 34
0.0
 15
0.0
 25
0.0
 35
0.0
146
0.0
 13
0.0
 23
0.0
 33
0.0
 16
1.0
 26
0.0
 36
0.0
 17
0.0
 27
1.0
 37
0.0
 76
     0
330
C5
331
113
  0
LAYOUT
  5
AC
102
{ACAD_REACTORS
330
1A
102
}
330
1A
100
AcDbPlotSettings
  1

  2
none_device
  4
ISO_A4_(210.00_x_297.00_MM)
  6

 40
7.5
 41
20.0
 42
7.5
 43
20.0
 44
210.0
 45
297.0
 46
0.0
 47
0.0
 48
0.0
 49
0.0
140
0.0
141
0.0
142
1.0
143
2.3076923077
 70
   688
 72
     1
 73
     1
 74
     1
  7

 75
     0
 76
     0
 77
     2
 78
   300
147
0.4333333333
148
225.0
149
225.0
100
AcDbLayout
  1
_Rückseite
 70
     1
 71
     6
 10
0.0
 20
0.0
 11
0.0
 21
0.0
 12
0.0
 22
0.0
 32
0.0
 14
0.0
 24
0.0
 34
0.0
 15
0.0
 25
0.0
 35
0.0
146
0.0
 13
0.0
 23
0.0
 33
0.0
 16
1.0
 26
0.0
 36
0.0
 17
0.0
 27
1.0
 37
0.0
 76
     0
330
AB
331
10F
  0
LAYOUT
  5
EB
102
{ACAD_REACTORS
330
1A
102
}
330
1A
100
AcDbPlotSettings
  1

  2
none_device
  4
ISO_A4_(210.00_x_297.00_MM)
  6

 40
7.5
 41
20.0
 42
7.5
 43
20.0
 44
210.0
 45
297.0
 46
0.0
 47
0.0
 48
0.0
 49
0.0
140
0.0
141
0.0
142
1.0
143
2.3076923077
 70
   688
 72
     1
 73
     1
 74
     1
  7

 75
     0
 76
     0
 77
     2
 78
   300
147
0.4333333333
148
225.0
149
225.0
100
AcDbLayout
  1
_Trimetrisch
 70
     1
 71
    11
 10
0.0
 20
0.0
 11
0.0
 21
0.0
 12
0.0
 22
0.0
 32
0.0
 14
0.0
 24
0.0
 34
0.0
 15
0.0
 25
0.0
 35
0.0
146
0.0
 13
0.0
 23
0.0
 33
0.0
 16
1.0
 26
0.0
 36
0.0
 17
0.0
 27
1.0
 37
0.0
 76
     0
330
EA
331
119
  0
LAYOUT
  5
D2
102
{ACAD_REACTORS
330
1A
102
}
330
1A
100
AcDbPlotSettings
  1

  2
none_device
  4
ISO_A4_(210.00_x_297.00_MM)
  6

 40
7.5
 41
20.0
 42
7.5
 43
20.0
 44
210.0
 45
297.0
 46
0.0
 47
0.0
 48
0.0
 49
0.0
140
0.0
141
0.0
142
1.0
143
2.3076923077
 70
   688
 72
     1
 73
     1
 74
     1
  7

 75
     0
 76
     0
 77
     2
 78
   300
147
0.4333333333
148
225.0
149
225.0
100
AcDbLayout
  1
_Unten
 70
     1
 71
     9
 10
0.0
 20
0.0
 11
0.0
 21
0.0
 12
0.0
 22
0.0
 32
0.0
 14
0.0
 24
0.0
 34
0.0
 15
0.0
 25
0.0
 35
0.0
146
0.0
 13
0.0
 23
0.0
 33
0.0
 16
1.0
 26
0.0
 36
0.0
 17
0.0
 27
1.0
 37
0.0
 76
     0
330
D1
331
115
  0
LAYOUT
  5
26
102
{ACAD_REACTORS
330
1A
102
}
330
1A
100
AcDbPlotSettings
  1

  2
none_device
  4
ISO_A4_(210.00_x_297.00_MM)
  6

 40
7.5
 41
20.0
 42
7.5
 43
20.0
 44
210.0
 45
297.0
 46
0.0
 47
0.0
 48
0.0
 49
0.0
140
0.0
141
0.0
142
1.0
143
2.3076923077
 70
   688
 72
     1
 73
     1
 74
     1
  7

 75
     0
 76
     0
 77
     2
 78
   300
147
0.4333333333
148
225.0
149
225.0
100
AcDbLayout
  1
Beschriftungsansicht  1
 70
     1
 71
     2
 10
0.0
 20
0.0
 11
0.0
 21
0.0
 12
0.0
 22
0.0
 32
0.0
 14
0.0
 24
0.0
 34
0.0
 15
0.0
 25
0.0
 35
0.0
146
0.0
 13
0.0
 23
0.0
 33
0.0
 16
1.0
 26
0.0
 36
0.0
 17
0.0
 27
1.0
 37
0.0
 76
     0
330
23
331
107
  0
LAYOUT
  5
88
102
{ACAD_REACTORS
330
1A
102
}
330
1A
100
AcDbPlotSettings
  1

  2
none_device
  4
ISO_A4_(210.00_x_297.00_MM)
  6

 40
7.5
 41
20.0
 42
7.5
 43
20.0
 44
210.0
 45
297.0
 46
0.0
 47
0.0
 48
0.0
 49
0.0
140
0.0
141
0.0
142
1.0
143
2.3076923077
 70
   688
 72
     1
 73
     1
 74
     1
  7

 75
     0
 76
     0
 77
     2
 78
   300
147
0.4333333333
148
225.0
149
225.0
100
AcDbLayout
  1
Beschriftungsansicht  2
 70
     1
 71
     3
 10
0.0
 20
0.0
 11
0.0
 21
0.0
 12
0.0
 22
0.0
 32
0.0
 14
0.0
 24
0.0
 34
0.0
 15
0.0
 25
0.0
 35
0.0
146
0.0
 13
0.0
 23
0.0
 33
0.0
 16
1.0
 26
0.0
 36
0.0
 17
0.0
 27
1.0
 37
0.0
 76
     0
330
87
331
109
  0
LAYOUT
  5
94
102
{ACAD_REACTORS
330
1A
102
}
330
1A
100
AcDbPlotSettings
  1

  2
none_device
  4
ISO_A4_(210.00_x_297.00_MM)
  6

 40
7.5
 41
20.0
 42
7.5
 43
20.0
 44
210.0
 45
297.0
 46
0.0
 47
0.0
 48
0.0
 49
0.0
140
0.0
141
0.0
142
1.0
143
2.3076923077
 70
   688
 72
     1
 73
     1
 74
     1
  7

 75
     0
 76
     0
 77
     2
 78
   300
147
0.4333333333
148
225.0
149
225.0
100
AcDbLayout
  1
Beschriftungsansicht  3
 70
     1
 71
     4
 10
0.0
 20
0.0
 11
0.0
 21
0.0
 12
0.0
 22
0.0
 32
0.0
 14
0.0
 24
0.0
 34
0.0
 15
0.0
 25
0.0
 35
0.0
146
0.0
 13
0.0
 23
0.0
 33
0.0
 16
1.0
 26
0.0
 36
0.0
 17
0.0
 27
1.0
 37
0.0
 76
     0
330
93
331
10B
  0
LAYOUT
  5
22
102
{ACAD_REACTORS
330
1A
102
}
330
1A
100
AcDbPlotSettings
  1

  2
none_device
  4
ANSI_A_(11.00_x_8.50_Inches)
  6

 40
6.35
 41
19.05
 42
6.35000508
 43
19.05000254
 44
279.4
 45
215.9
 46
133.34999746
 47
44.33569873
 48
0.0
 49
0.0
140
0.0
141
0.0
142
0.0242
143
1.0
 70
  1696
 72
     0
 73
     0
 74
     0
  7

 75
     0
 76
     0
 77
     2
 78
   300
147
0.0179189148
148
-1300.4909072572
149
0.0
100
AcDbLayout
  1
Model
 70
     1
 71
     0
 10
0.0
 20
0.0
 11
420.0
 21
297.0
 12
0.0
 22
0.0
 32
0.0
 14
-225.0
 24
0.0
 34
0.0
 15
225.0
 25
145.0
 35
0.0
146
0.0
 13
0.0
 23
0.0
 33
0.0
 16
1.0
 26
0.0
 36
0.0
 17
0.0
 27
1.0
 37
0.0
 76
     0
330
1F
331
29
  0
MATERIAL
  5
45
102
{ACAD_REACTORS
330
43
102
}
330
43
100
AcDbMaterial
  1
ByBlock
 72
     1
 94
      127
  0
MATERIAL
  5
44
102
{ACAD_REACTORS
330
43
102
}
330
43
100
AcDbMaterial
  1
ByLayer
 72
     1
 94
      127
  0
MATERIAL
  5
46
102
{ACAD_REACTORS
330
43
102
}
330
43
100
AcDbMaterial
  1
Global
 72
     1
 94
      127
  0
MLEADERSTYLE
  5
6C
102
{ACAD_REACTORS
330
6B
102
}
330
6B
100
AcDbMLeaderStyle
179
     2
170
     2
171
     1
172
     0
 90
        2
 40
0.0
 41
0.0
173
     1
 91
-1056964608
340
14
 92
       -2
290
     1
 42
2.0
291
     1
 43
8.0
  3
Standard
341
0
 44
4.0
300

342
11
174
     1
178
     6
175
     1
176
     0
 93
-1056964608
 45
4.0
292
     0
297
     0
 46
4.0
343
0
 94
-1056964608
 47
1.0
 49
1.0
140
1.0
293
     1
141
0.0
294
     1
177
     0
142
1.0
295
     0
296
     0
143
3.75
271
     0
272
     9
273
     9
298
     0
  0
MLINESTYLE
  5
18
102
{ACAD_REACTORS
330
17
102
}
330
17
100
AcDbMlineStyle
  2
Standard
 70
     0
  3

 62
   256
 51
90.0
 52
90.0
 71
     2
 49
0.5
 62
   256
  6
BYLAYER
 49
-0.5
 62
   256
  6
BYLAYER
  0
ACDBPLACEHOLDER
  5
F
102
{ACAD_REACTORS
330
E
102
}
330
E
  0
SCALE
  5
48
102
{ACAD_REACTORS
330
47
102
}
330
47
100
AcDbScale
 70
     0
300
1:1
140
1.0
141
1.0
290
     1
  0
SCALE
  5
49
102
{ACAD_REACTORS
330
47
102
}
330
47
100
AcDbScale
 70
     0
300
1:2
140
1.0
141
2.0
290
     0
  0
SCALE
  5
4A
102
{ACAD_REACTORS
330
47
102
}
330
47
100
AcDbScale
 70
     0
300
1:4
140
1.0
141
4.0
290
     0
  0
SCALE
  5
4B
102
{ACAD_REACTORS
330
47
102
}
330
47
100
AcDbScale
 70
     0
300
1:5
140
1.0
141
5.0
290
     0
  0
SCALE
  5
4C
102
{ACAD_REACTORS
330
47
102
}
330
47
100
AcDbScale
 70
     0
300
1:8
140
1.0
141
8.0
290
     0
  0
SCALE
  5
4D
102
{ACAD_REACTORS
330
47
102
}
330
47
100
AcDbScale
 70
     0
300
1:10
140
1.0
141
10.0
290
     0
  0
SCALE
  5
4E
102
{ACAD_REACTORS
330
47
102
}
330
47
100
AcDbScale
 70
     0
300
1:16
140
1.0
141
16.0
290
     0
  0
SCALE
  5
4F
102
{ACAD_REACTORS
330
47
102
}
330
47
100
AcDbScale
 70
     0
300
1:20
140
1.0
141
20.0
290
     0
  0
SCALE
  5
50
102
{ACAD_REACTORS
330
47
102
}
330
47
100
AcDbScale
 70
     0
300
1:30
140
1.0
141
30.0
290
     0
  0
SCALE
  5
51
102
{ACAD_REACTORS
330
47
102
}
330
47
100
AcDbScale
 70
     0
300
1:40
140
1.0
141
40.0
290
     0
  0
SCALE
  5
52
102
{ACAD_REACTORS
330
47
102
}
330
47
100
AcDbScale
 70
     0
300
1:50
140
1.0
141
50.0
290
     0
  0
SCALE
  5
53
102
{ACAD_REACTORS
330
47
102
}
330
47
100
AcDbScale
 70
     0
300
1:100
140
1.0
141
100.0
290
     0
  0
SCALE
  5
54
102
{ACAD_REACTORS
330
47
102
}
330
47
100
AcDbScale
 70
     0
300
2:1
140
2.0
141
1.0
290
     0
  0
SCALE
  5
55
102
{ACAD_REACTORS
330
47
102
}
330
47
100
AcDbScale
 70
     0
300
4:1
140
4.0
141
1.0
290
     0
  0
SCALE
  5
56
102
{ACAD_REACTORS
330
47
102
}
330
47
100
AcDbScale
 70
     0
300
8:1
140
8.0
141
1.0
290
     0
  0
SCALE
  5
57
102
{ACAD_REACTORS
330
47
102
}
330
47
100
AcDbScale
 70
     0
300
10:1
140
10.0
141
1.0
290
     0
  0
SCALE
  5
58
102
{ACAD_REACTORS
330
47
102
}
330
47
100
AcDbScale
 70
     0
300
100:1
140
100.0
141
1.0
290
     0
  0
SCALE
  5
59
102
{ACAD_REACTORS
330
47
102
}
330
47
100
AcDbScale
 70
     0
300
1/128" = 1'-0"
140
0.0078125
141
12.0
290
     0
  0
SCALE
  5
5A
102
{ACAD_REACTORS
330
47
102
}
330
47
100
AcDbScale
 70
     0
300
1/64" = 1'-0"
140
0.015625
141
12.0
290
     0
  0
SCALE
  5
5B
102
{ACAD_REACTORS
330
47
102
}
330
47
100
AcDbScale
 70
     0
300
1/32" = 1'-0"
140
0.03125
141
12.0
290
     0
  0
SCALE
  5
5C
102
{ACAD_REACTORS
330
47
102
}
330
47
100
AcDbScale
 70
     0
300
1/16" = 1'-0"
140
0.0625
141
12.0
290
     0
  0
SCALE
  5
5D
102
{ACAD_REACTORS
330
47
102
}
330
47
100
AcDbScale
 70
     0
300
3/32" = 1'-0"
140
0.09375
141
12.0
290
     0
  0
SCALE
  5
5E
102
{ACAD_REACTORS
330
47
102
}
330
47
100
AcDbScale
 70
     0
300
1/8" = 1'-0"
140
0.125
141
12.0
290
     0
  0
SCALE
  5
5F
102
{ACAD_REACTORS
330
47
102
}
330
47
100
AcDbScale
 70
     0
300
3/16" = 1'-0"
140
0.1875
141
12.0
290
     0
  0
SCALE
  5
60
102
{ACAD_REACTORS
330
47
102
}
330
47
100
AcDbScale
 70
     0
300
1/4" = 1'-0"
140
0.25
141
12.0
290
     0
  0
SCALE
  5
61
102
{ACAD_REACTORS
330
47
102
}
330
47
100
AcDbScale
 70
     0
300
3/8" = 1'-0"
140
0.375
141
12.0
290
     0
  0
SCALE
  5
62
102
{ACAD_REACTORS
330
47
102
}
330
47
100
AcDbScale
 70
     0
300
1/2" = 1'-0"
140
0.5
141
12.0
290
     0
  0
SCALE
  5
63
102
{ACAD_REACTORS
330
47
102
}
330
47
100
AcDbScale
 70
     0
300
3/4" = 1'-0"
140
0.75
141
12.0
290
     0
  0
SCALE
  5
64
102
{ACAD_REACTORS
330
47
102
}
330
47
100
AcDbScale
 70
     0
300
1" = 1'-0"
140
1.0
141
12.0
290
     0
  0
SCALE
  5
65
102
{ACAD_REACTORS
330
47
102
}
330
47
100
AcDbScale
 70
     0
300
1-1/2" = 1'-0"
140
1.5
141
12.0
290
     0
  0
SCALE
  5
66
102
{ACAD_REACTORS
330
47
102
}
330
47
100
AcDbScale
 70
     0
300
3" = 1'-0"
140
3.0
141
12.0
290
     0
  0
SCALE
  5
67
102
{ACAD_REACTORS
330
47
102
}
330
47
100
AcDbScale
 70
     0
300
6" = 1'-0"
140
6.0
141
12.0
290
     0
  0
SCALE
  5
68
102
{ACAD_REACTORS
330
47
102
}
330
47
100
AcDbScale
 70
     0
300
1'-0" = 1'-0"
140
12.0
141
12.0
290
     0
  0
TABLESTYLE
  5
6A
102
{ACAD_REACTORS
330
69
102
}
102
{ACAD_XDICTIONARY
360
11F
102
}
330
69
100
AcDbTableStyle
  3
Standard
 70
     0
 71
     0
 40
0.06
 41
0.06
280
     0
281
     0
  7
STANDARD
140
4.5
170
     2
 62
     0
 63
   257
283
     0
 90
        4
 91
        0
  1

274
    -2
284
     1
 64
     0
275
    -2
285
     1
 65
     0
276
    -2
286
     1
 66
     0
277
    -2
287
     1
 67
     0
278
    -2
288
     1
 68
     0
279
    -2
289
     1
 69
     0
  7
STANDARD
140
6.0
170
     5
 62
     0
 63
   257
283
     0
 90
        4
 91
        0
  1

274
    -2
284
     1
 64
     0
275
    -2
285
     1
 65
     0
276
    -2
286
     1
 66
     0
277
    -2
287
     1
 67
     0
278
    -2
288
     1
 68
     0
279
    -2
289
     1
 69
     0
  7
STANDARD
140
4.5
170
     5
 62
     0
 63
   257
283
     0
 90
        4
 91
        0
  1

274
    -2
284
     1
 64
     0
275
    -2
285
     1
 65
     0
276
    -2
286
     1
 66
     0
277
    -2
287
     1
 67
     0
278
    -2
288
     1
 68
     0
279
    -2
289
     1
 69
     0
  0
VISUALSTYLE
  5
2F
102
{ACAD_REACTORS
330
2A
102
}
330
2A
100
AcDbVisualStyle
  2
2dWireframe
 70
     4
177
     3
291
     0
 70
    58
 90
        0
176
     1
 90
        2
176
     1
 90
        0
176
     1
 90
        0
176
     1
 40
0.6
176
     1
 40
30.0
176
     1
 62
     7
420
 16777215
176
     1
 90
        1
176
     1
 90
        4
176
     1
 62
     7
176
     1
 62
   257
176
     1
 90
        1
176
     1
 90
        1
176
     1
 40
1.0
176
     1
 90
        0
176
     1
 62
   257
176
     1
 40
1.0
176
     1
 90
        1
176
     1
 90
        6
176
     1
 90
        2
176
     1
 62
     7
176
     1
 90
        5
176
     1
 90
        0
176
     1
 90
        0
176
     1
290
     0
176
     1
 90
        1
176
     1
 40
0.0
176
     1
 90
        0
176
     1
290
     1
176
     1
290
     1
176
     1
290
     0
176
     1
290
     0
176
     1
290
     0
176
     1
290
     0
176
     1
290
     0
176
     1
290
     0
176
     1
290
     0
176
     1
 90
       50
176
     1
 40
0.0
176
     1
 40
1.0
176
     1
 90
        0
176
     1
 62
    18
420
        0
176
     1
 90
       50
176
     1
 90
        3
176
     1
 62
     5
420
      255
176
     1
290
     0
176
     1
 90
       50
176
     1
 90
       50
176
     1
 90
       50
176
     1
290
     0
176
     1
 90
       50
176
     1
 62
   256
176
     0
 40
1.0
176
     0
 90
        2
176
     1
  1
strokes_ogs.tif
176
     1
290
     0
176
     1
 40
1.0
176
     1
 40
1.0
176
     1
  0
VISUALSTYLE
  5
32
102
{ACAD_REACTORS
330
2A
102
}
330
2A
100
AcDbVisualStyle
  2
Basic
 70
     7
177
     3
291
     1
 70
    58
 90
        1
176
     1
 90
        0
176
     1
 90
        1
176
     1
 90
        0
176
     1
 40
0.6
176
     1
 40
30.0
176
     1
 62
     7
420
 16777215
176
     1
 90
        0
176
     1
 90
        4
176
     1
 62
     7
176
     1
 62
   257
176
     1
 90
        1
176
     1
 90
        1
176
     1
 40
1.0
176
     1
 90
        8
176
     1
 62
     7
176
     1
 40
1.0
176
     1
 90
        1
176
     1
 90
        6
176
     1
 90
        2
176
     1
 62
     7
176
     1
 90
        5
176
     1
 90
        0
176
     1
 90
        0
176
     1
290
     0
176
     1
 90
        1
176
     1
 40
0.0
176
     1
 90
        0
176
     1
290
     0
176
     1
290
     1
176
     1
290
     1
176
     1
290
     0
176
     1
290
     0
176
     1
290
     0
176
     1
290
     0
176
     1
290
     0
176
     1
290
     0
176
     1
 90
       50
176
     1
 40
0.0
176
     1
 40
1.0
176
     1
 90
        0
176
     1
 62
    18
420
        0
176
     1
 90
       50
176
     1
 90
        3
176
     1
 62
     5
420
      255
176
     1
290
     0
176
     1
 90
       50
176
     1
 90
       50
176
     1
 90
       50
176
     1
290
     0
176
     1
 90
       50
176
     1
 62
   256
176
     0
 40
1.0
176
     0
 90
        2
176
     1
  1
strokes_ogs.tif
176
     1
290
     0
176
     1
 40
1.0
176
     1
 40
1.0
176
     1
  0
VISUALSTYLE
  5
36
102
{ACAD_REACTORS
330
2A
102
}
330
2A
100
AcDbVisualStyle
  2
Brighten
 70
    12
177
     3
291
     1
 70
    58
 90
        2
176
     1
 90
        2
176
     1
 90
        0
176
     1
 90
        0
176
     1
 40
0.6
176
     1
 40
30.0
176
     1
 62
     7
420
 16777215
176
     1
 90
        1
176
     1
 90
        4
176
     1
 62
     7
176
     1
 62
   257
176
     1
 90
        1
176
     1
 90
        1
176
     1
 40
1.0
176
     1
 90
        8
176
     1
 62
     7
176
     1
 40
1.0
176
     1
 90
        1
176
     1
 90
        6
176
     1
 90
        2
176
     1
 62
     7
176
     1
 90
        5
176
     1
 90
        0
176
     1
 90
        0
176
     1
290
     0
176
     1
 90
        1
176
     1
 40
50.0
176
     1
 90
        0
176
     1
290
     0
176
     1
290
     1
176
     1
290
     1
176
     1
290
     0
176
     1
290
     0
176
     1
290
     0
176
     1
290
     0
176
     1
290
     0
176
     1
290
     0
176
     1
 90
       50
176
     1
 40
0.0
176
     1
 40
1.0
176
     1
 90
        0
176
     1
 62
    18
420
        0
176
     1
 90
       50
176
     1
 90
        3
176
     1
 62
     5
420
      255
176
     1
290
     0
176
     1
 90
       50
176
     1
 90
       50
176
     1
 90
       50
176
     1
290
     0
176
     1
 90
       50
176
     1
 62
   256
176
     0
 40
1.0
176
     0
 90
        2
176
     1
  1
strokes_ogs.tif
176
     1
290
     0
176
     1
 40
1.0
176
     1
 40
1.0
176
     1
  0
VISUALSTYLE
  5
3A
102
{ACAD_REACTORS
330
2A
102
}
330
2A
100
AcDbVisualStyle
  2
ColorChange
 70
    16
177
     3
291
     1
 70
    58
 90
        2
176
     1
 90
        2
176
     1
 90
        3
176
     1
 90
        0
176
     1
 40
0.6
176
     1
 40
30.0
176
     1
 62
     8
420
  8421504
176
     1
 90
        1
176
     1
 90
        4
176
     1
 62
     7
176
     1
 62
   257
176
     1
 90
        1
176
     1
 90
        1
176
     1
 40
1.0
176
     1
 90
        8
176
     1
 62
     8
420
  8421504
176
     1
 40
1.0
176
     1
 90
        1
176
     1
 90
        6
176
     1
 90
        2
176
     1
 62
     7
176
     1
 90
        5
176
     1
 90
        0
176
     1
 90
        0
176
     1
290
     0
176
     1
 90
        1
176
     1
 40
0.0
176
     1
 90
        0
176
     1
290
     0
176
     1
290
     1
176
     1
290
     1
176
     1
290
     0
176
     1
290
     0
176
     1
290
     0
176
     1
290
     0
176
     1
290
     0
176
     1
290
     0
176
     1
 90
       50
176
     1
 40
0.0
176
     1
 40
1.0
176
     1
 90
        0
176
     1
 62
    18
420
        0
176
     1
 90
       50
176
     1
 90
        3
176
     1
 62
     5
420
      255
176
     1
290
     0
176
     1
 90
       50
176
     1
 90
       50
176
     1
 90
       50
176
     1
290
     0
176
     1
 90
       50
176
     1
 62
   256
176
     0
 40
1.0
176
     0
 90
        2
176
     1
  1
strokes_ogs.tif
176
     1
290
     0
176
     1
 40
1.0
176
     1
 40
1.0
176
     1
  0
VISUALSTYLE
  5
34
102
{ACAD_REACTORS
330
2A
102
}
330
2A
100
AcDbVisualStyle
  2
Conceptual
 70
     9
177
     3
291
     0
 70
    58
 90
        3
176
     1
 90
        2
176
     1
 90
        0
176
     1
 90
        0
176
     1
 40
0.6
176
     1
 40
30.0
176
     1
 62
     7
420
 16777215
176
     1
 90
        2
176
     1
 90
        2
176
     1
 62
     7
176
     1
 62
   257
176
     1
 90
        1
176
     1
 90
        1
176
     1
 40
179.0
176
     1
 90
        8
176
     1
 62
     7
176
     1
 40
1.0
176
     1
 90
        1
176
     1
 90
        6
176
     1
 90
        2
176
     1
 62
     7
176
     1
 90
        3
176
     1
 90
        0
176
     1
 90
        0
176
     1
290
     0
176
     1
 90
        1
176
     1
 40
0.0
176
     1
 90
        0
176
     1
290
     0
176
     1
290
     1
176
     1
290
     1
176
     1
290
     0
176
     1
290
     0
176
     1
290
     0
176
     1
290
     0
176
     1
290
     0
176
     1
290
     0
176
     1
 90
       50
176
     1
 40
0.0
176
     1
 40
1.0
176
     1
 90
        0
176
     1
 62
    18
420
        0
176
     1
 90
       50
176
     1
 90
        3
176
     1
 62
     5
420
      255
176
     1
290
     0
176
     1
 90
       50
176
     1
 90
       50
176
     1
 90
       50
176
     1
290
     0
176
     1
 90
       50
176
     1
 62
   256
176
     0
 40
1.0
176
     0
 90
        2
176
     1
  1
strokes_ogs.tif
176
     1
290
     0
176
     1
 40
1.0
176
     1
 40
1.0
176
     1
  0
VISUALSTYLE
  5
35
102
{ACAD_REACTORS
330
2A
102
}
330
2A
100
AcDbVisualStyle
  2
Dim
 70
    11
177
     3
291
     1
 70
    58
 90
        2
176
     1
 90
        2
176
     1
 90
        0
176
     1
 90
        0
176
     1
 40
0.6
176
     1
 40
30.0
176
     1
 62
     7
420
 16777215
176
     1
 90
        1
176
     1
 90
        4
176
     1
 62
     7
176
     1
 62
   257
176
     1
 90
        1
176
     1
 90
        1
176
     1
 40
1.0
176
     1
 90
        8
176
     1
 62
     7
176
     1
 40
1.0
176
     1
 90
        1
176
     1
 90
        6
176
     1
 90
        2
176
     1
 62
     7
176
     1
 90
        5
176
     1
 90
        0
176
     1
 90
        0
176
     1
290
     0
176
     1
 90
        1
176
     1
 40
-50.0
176
     1
 90
        0
176
     1
290
     0
176
     1
290
     1
176
     1
290
     1
176
     1
290
     0
176
     1
290
     0
176
     1
290
     0
176
     1
290
     0
176
     1
290
     0
176
     1
290
     0
176
     1
 90
       50
176
     1
 40
0.0
176
     1
 40
1.0
176
     1
 90
        0
176
     1
 62
    18
420
        0
176
     1
 90
       50
176
     1
 90
        3
176
     1
 62
     5
420
      255
176
     1
290
     0
176
     1
 90
       50
176
     1
 90
       50
176
     1
 90
       50
176
     1
290
     0
176
     1
 90
       50
176
     1
 62
   256
176
     0
 40
1.0
176
     0
 90
        2
176
     1
  1
strokes_ogs.tif
176
     1
290
     0
176
     1
 40
1.0
176
     1
 40
1.0
176
     1
  0
VISUALSTYLE
  5
3D
102
{ACAD_REACTORS
330
2A
102
}
330
2A
100
AcDbVisualStyle
  2
EdgeColorOff
 70
    22
177
     3
291
     1
 70
    58
 90
        2
176
     0
 90
        2
176
     0
 90
        0
176
     0
 90
        0
176
     0
 40
0.6
176
     0
 40
30.0
176
     0
 62
     7
420
 16777215
176
     0
 90
        1
176
     0
 90
        4
176
     0
 62
     7
176
     0
 62
   257
176
     0
 90
        1
176
     0
 90
        1
176
     0
 40
1.0
176
     0
 90
        8
176
     2
 62
     7
176
     0
 40
1.0
176
     0
 90
        1
176
     0
 90
        6
176
     0
 90
        2
176
     0
 62
     7
176
     0
 90
        5
176
     0
 90
        0
176
     0
 90
        0
176
     0
290
     0
176
     0
 90
        1
176
     0
 40
0.0
176
     0
 90
        0
176
     0
290
     0
176
     0
290
     1
176
     0
290
     1
176
     0
290
     0
176
     0
290
     0
176
     0
290
     0
176
     0
290
     0
176
     0
290
     0
176
     0
290
     0
176
     0
 90
       50
176
     0
 40
0.0
176
     0
 40
1.0
176
     0
 90
        0
176
     0
 62
    18
420
        0
176
     0
 90
       50
176
     0
 90
        3
176
     0
 62
     5
420
      255
176
     0
290
     0
176
     0
 90
       50
176
     0
 90
       50
176
     0
 90
       50
176
     0
290
     0
176
     0
 90
       50
176
     0
 62
   256
176
     0
 40
1.0
176
     0
 90
        2
176
     0
  1
strokes_ogs.tif
176
     0
290
     0
176
     0
 40
1.0
176
     0
 40
1.0
176
     0
  0
VISUALSTYLE
  5
39
102
{ACAD_REACTORS
330
2A
102
}
330
2A
100
AcDbVisualStyle
  2
Facepattern
 70
    15
177
     3
291
     1
 70
    58
 90
        2
176
     1
 90
        2
176
     1
 90
        0
176
     1
 90
        0
176
     1
 40
0.6
176
     1
 40
30.0
176
     1
 62
     7
420
 16777215
176
     1
 90
        1
176
     1
 90
        4
176
     1
 62
     7
176
     1
 62
   257
176
     1
 90
        1
176
     1
 90
        1
176
     1
 40
1.0
176
     1
 90
        8
176
     1
 62
     7
176
     1
 40
1.0
176
     1
 90
        1
176
     1
 90
        6
176
     1
 90
        2
176
     1
 62
     7
176
     1
 90
        5
176
     1
 90
        0
176
     1
 90
        0
176
     1
290
     0
176
     1
 90
        1
176
     1
 40
0.0
176
     1
 90
        0
176
     1
290
     0
176
     1
290
     1
176
     1
290
     1
176
     1
290
     0
176
     1
290
     0
176
     1
290
     0
176
     1
290
     0
176
     1
290
     0
176
     1
290
     0
176
     1
 90
       50
176
     1
 40
0.0
176
     1
 40
1.0
176
     1
 90
        0
176
     1
 62
    18
420
        0
176
     1
 90
       50
176
     1
 90
        3
176
     1
 62
     5
420
      255
176
     1
290
     0
176
     1
 90
       50
176
     1
 90
       50
176
     1
 90
       50
176
     1
290
     0
176
     1
 90
       50
176
     1
 62
   256
176
     0
 40
1.0
176
     0
 90
        2
176
     1
  1
strokes_ogs.tif
176
     1
290
     0
176
     1
 40
1.0
176
     1
 40
1.0
176
     1
  0
VISUALSTYLE
  5
2B
102
{ACAD_REACTORS
330
2A
102
}
330
2A
100
AcDbVisualStyle
  2
Flat
 70
     0
177
     3
291
     1
 70
    58
 90
        2
176
     1
 90
        1
176
     1
 90
        1
176
     1
 90
        2
176
     1
 40
0.6
176
     1
 40
30.0
176
     1
 62
     7
420
 16777215
176
     1
 90
        0
176
     1
 90
        0
176
     1
 62
     7
176
     1
 62
   257
176
     1
 90
        1
176
     1
 90
        1
176
     1
 40
1.0
176
     1
 90
        8
176
     1
 62
     7
176
     1
 40
1.0
176
     1
 90
        1
176
     1
 90
        6
176
     1
 90
        2
176
     1
 62
     7
176
     1
 90
        5
176
     1
 90
        0
176
     1
 90
        0
176
     1
290
     0
176
     1
 90
       13
176
     1
 40
0.0
176
     1
 90
        0
176
     1
290
     0
176
     1
290
     1
176
     1
290
     1
176
     1
290
     0
176
     1
290
     0
176
     1
290
     0
176
     1
290
     0
176
     1
290
     0
176
     1
290
     0
176
     1
 90
       50
176
     1
 40
0.0
176
     1
 40
1.0
176
     1
 90
        0
176
     1
 62
    18
420
        0
176
     1
 90
       50
176
     1
 90
        3
176
     1
 62
     5
420
      255
176
     1
290
     0
176
     1
 90
       50
176
     1
 90
       50
176
     1
 90
       50
176
     1
290
     0
176
     1
 90
       50
176
     1
 62
   256
176
     0
 40
1.0
176
     0
 90
        2
176
     1
  1
strokes_ogs.tif
176
     1
290
     0
176
     1
 40
1.0
176
     1
 40
1.0
176
     1
  0
VISUALSTYLE
  5
2C
102
{ACAD_REACTORS
330
2A
102
}
330
2A
100
AcDbVisualStyle
  2
FlatWithEdges
 70
     1
177
     3
291
     1
 70
    58
 90
        2
176
     1
 90
        1
176
     1
 90
        1
176
     1
 90
        2
176
     1
 40
0.6
176
     1
 40
30.0
176
     1
 62
     7
420
 16777215
176
     1
 90
        1
176
     1
 90
        0
176
     1
 62
     7
176
     1
 62
   257
176
     1
 90
        1
176
     1
 90
        1
176
     1
 40
1.0
176
     1
 90
        0
176
     1
 62
   257
176
     1
 40
1.0
176
     1
 90
        1
176
     1
 90
        6
176
     1
 90
        2
176
     1
 62
     7
176
     1
 90
        5
176
     1
 90
        0
176
     1
 90
        0
176
     1
290
     0
176
     1
 90
       13
176
     1
 40
0.0
176
     1
 90
        0
176
     1
290
     0
176
     1
290
     1
176
     1
290
     1
176
     1
290
     0
176
     1
290
     0
176
     1
290
     0
176
     1
290
     0
176
     1
290
     0
176
     1
290
     0
176
     1
 90
       50
176
     1
 40
0.0
176
     1
 40
1.0
176
     1
 90
        0
176
     1
 62
    18
420
        0
176
     1
 90
       50
176
     1
 90
        3
176
     1
 62
     5
420
      255
176
     1
290
     0
176
     1
 90
       50
176
     1
 90
       50
176
     1
 90
       50
176
     1
290
     0
176
     1
 90
       50
176
     1
 62
   256
176
     0
 40
1.0
176
     0
 90
        2
176
     1
  1
strokes_ogs.tif
176
     1
290
     0
176
     1
 40
1.0
176
     1
 40
1.0
176
     1
  0
VISUALSTYLE
  5
2D
102
{ACAD_REACTORS
330
2A
102
}
330
2A
100
AcDbVisualStyle
  2
Gouraud
 70
     2
177
     3
291
     1
 70
    58
 90
        2
176
     1
 90
        2
176
     1
 90
        1
176
     1
 90
        2
176
     1
 40
0.6
176
     1
 40
30.0
176
     1
 62
     7
420
 16777215
176
     1
 90
        0
176
     1
 90
        0
176
     1
 62
     7
176
     1
 62
   257
176
     1
 90
        1
176
     1
 90
        1
176
     1
 40
1.0
176
     1
 90
        0
176
     1
 62
     7
176
     1
 40
1.0
176
     1
 90
        1
176
     1
 90
        6
176
     1
 90
        2
176
     1
 62
     7
176
     1
 90
        5
176
     1
 90
        0
176
     1
 90
        0
176
     1
290
     0
176
     1
 90
       13
176
     1
 40
0.0
176
     1
 90
        0
176
     1
290
     0
176
     1
290
     1
176
     1
290
     1
176
     1
290
     0
176
     1
290
     0
176
     1
290
     0
176
     1
290
     0
176
     1
290
     0
176
     1
290
     0
176
     1
 90
       50
176
     1
 40
0.0
176
     1
 40
1.0
176
     1
 90
        0
176
     1
 62
    18
420
        0
176
     1
 90
       50
176
     1
 90
        3
176
     1
 62
     5
420
      255
176
     1
290
     0
176
     1
 90
       50
176
     1
 90
       50
176
     1
 90
       50
176
     1
290
     0
176
     1
 90
       50
176
     1
 62
   256
176
     0
 40
1.0
176
     0
 90
        2
176
     1
  1
strokes_ogs.tif
176
     1
290
     0
176
     1
 40
1.0
176
     1
 40
1.0
176
     1
  0
VISUALSTYLE
  5
2E
102
{ACAD_REACTORS
330
2A
102
}
330
2A
100
AcDbVisualStyle
  2
GouraudWithEdges
 70
     3
177
     3
291
     1
 70
    58
 90
        2
176
     1
 90
        2
176
     1
 90
        1
176
     1
 90
        2
176
     1
 40
0.6
176
     1
 40
30.0
176
     1
 62
     7
420
 16777215
176
     1
 90
        1
176
     1
 90
        0
176
     1
 62
     7
176
     1
 62
   257
176
     1
 90
        1
176
     1
 90
        1
176
     1
 40
1.0
176
     1
 90
        0
176
     1
 62
   257
176
     1
 40
1.0
176
     1
 90
        1
176
     1
 90
        6
176
     1
 90
        2
176
     1
 62
     7
176
     1
 90
        5
176
     1
 90
        0
176
     1
 90
        0
176
     1
290
     0
176
     1
 90
       13
176
     1
 40
0.0
176
     1
 90
        0
176
     1
290
     0
176
     1
290
     1
176
     1
290
     1
176
     1
290
     0
176
     1
290
     0
176
     1
290
     0
176
     1
290
     0
176
     1
290
     0
176
     1
290
     0
176
     1
 90
       50
176
     1
 40
0.0
176
     1
 40
1.0
176
     1
 90
        0
176
     1
 62
    18
420
        0
176
     1
 90
       50
176
     1
 90
        3
176
     1
 62
     5
420
      255
176
     1
290
     0
176
     1
 90
       50
176
     1
 90
       50
176
     1
 90
       50
176
     1
290
     0
176
     1
 90
       50
176
     1
 62
   256
176
     0
 40
1.0
176
     0
 90
        2
176
     1
  1
strokes_ogs.tif
176
     1
290
     0
176
     1
 40
1.0
176
     1
 40
1.0
176
     1
  0
VISUALSTYLE
  5
31
102
{ACAD_REACTORS
330
2A
102
}
330
2A
100
AcDbVisualStyle
  2
Hidden
 70
     6
177
     3
291
     0
 70
    58
 90
        1
176
     1
 90
        2
176
     1
 90
        2
176
     1
 90
        0
176
     1
 40
0.6
176
     1
 40
30.0
176
     1
 62
     7
420
 16777215
176
     1
 90
        2
176
     1
 90
        2
176
     1
 62
     7
176
     1
 62
   257
176
     1
 90
        2
176
     1
 90
        1
176
     1
 40
40.0
176
     1
 90
        0
176
     1
 62
   257
176
     1
 40
1.0
176
     1
 90
        1
176
     1
 90
        6
176
     1
 90
        2
176
     1
 62
     7
176
     1
 90
        3
176
     1
 90
        0
176
     1
 90
        0
176
     1
290
     0
176
     1
 90
        1
176
     1
 40
0.0
176
     1
 90
        0
176
     1
290
     0
176
     1
290
     1
176
     1
290
     1
176
     1
290
     0
176
     1
290
     0
176
     1
290
     0
176
     1
290
     0
176
     1
290
     0
176
     1
290
     0
176
     1
 90
       50
176
     1
 40
0.0
176
     1
 40
1.0
176
     1
 90
        0
176
     1
 62
    18
420
        0
176
     1
 90
       50
176
     1
 90
        3
176
     1
 62
     5
420
      255
176
     1
290
     0
176
     1
 90
       50
176
     1
 90
       50
176
     1
 90
       50
176
     1
290
     0
176
     1
 90
       50
176
     1
 62
   256
176
     0
 40
1.0
176
     0
 90
        2
176
     1
  1
strokes_ogs.tif
176
     1
290
     0
176
     1
 40
1.0
176
     1
 40
1.0
176
     1
  0
VISUALSTYLE
  5
3B
102
{ACAD_REACTORS
330
2A
102
}
330
2A
100
AcDbVisualStyle
  2
JitterOff
 70
    20
177
     3
291
     1
 70
    58
 90
        2
176
     0
 90
        2
176
     0
 90
        0
176
     0
 90
        0
176
     0
 40
0.6
176
     0
 40
30.0
176
     0
 62
     7
420
 16777215
176
     0
 90
        1
176
     0
 90
        4
176
     0
 62
     7
176
     0
 62
   257
176
     0
 90
        1
176
     0
 90
        1
176
     0
 40
1.0
176
     0
 90
       10
176
     2
 62
     7
176
     0
 40
1.0
176
     0
 90
        1
176
     0
 90
        6
176
     0
 90
        2
176
     0
 62
     7
176
     0
 90
        5
176
     0
 90
        0
176
     0
 90
        0
176
     0
290
     0
176
     0
 90
        1
176
     0
 40
0.0
176
     0
 90
        0
176
     0
290
     0
176
     0
290
     1
176
     0
290
     1
176
     0
290
     0
176
     0
290
     0
176
     0
290
     0
176
     0
290
     0
176
     0
290
     0
176
     0
290
     0
176
     0
 90
       50
176
     0
 40
0.0
176
     0
 40
1.0
176
     0
 90
        0
176
     0
 62
    18
420
        0
176
     0
 90
       50
176
     0
 90
        3
176
     0
 62
     5
420
      255
176
     0
290
     0
176
     0
 90
       50
176
     0
 90
       50
176
     0
 90
       50
176
     0
290
     0
176
     0
 90
       50
176
     0
 62
   256
176
     0
 40
1.0
176
     0
 90
        2
176
     0
  1
strokes_ogs.tif
176
     0
290
     0
176
     0
 40
1.0
176
     0
 40
1.0
176
     0
  0
VISUALSTYLE
  5
38
102
{ACAD_REACTORS
330
2A
102
}
330
2A
100
AcDbVisualStyle
  2
Linepattern
 70
    14
177
     3
291
     1
 70
    58
 90
        2
176
     1
 90
        2
176
     1
 90
        0
176
     1
 90
        0
176
     1
 40
0.6
176
     1
 40
30.0
176
     1
 62
     7
420
 16777215
176
     1
 90
        1
176
     1
 90
        4
176
     1
 62
     7
176
     1
 62
   257
176
     1
 90
        7
176
     1
 90
        7
176
     1
 40
1.0
176
     1
 90
        8
176
     1
 62
     7
176
     1
 40
1.0
176
     1
 90
        1
176
     1
 90
        6
176
     1
 90
        2
176
     1
 62
     7
176
     1
 90
        5
176
     1
 90
        0
176
     1
 90
        0
176
     1
290
     0
176
     1
 90
        1
176
     1
 40
0.0
176
     1
 90
        0
176
     1
290
     0
176
     1
290
     1
176
     1
290
     1
176
     1
290
     0
176
     1
290
     0
176
     1
290
     0
176
     1
290
     0
176
     1
290
     0
176
     1
290
     0
176
     1
 90
       50
176
     1
 40
0.0
176
     1
 40
1.0
176
     1
 90
        0
176
     1
 62
    18
420
        0
176
     1
 90
       50
176
     1
 90
        3
176
     1
 62
     5
420
      255
176
     1
290
     0
176
     1
 90
       50
176
     1
 90
       50
176
     1
 90
       50
176
     1
290
     0
176
     1
 90
       50
176
     1
 62
   256
176
     0
 40
1.0
176
     0
 90
        2
176
     1
  1
strokes_ogs.tif
176
     1
290
     0
176
     1
 40
1.0
176
     1
 40
1.0
176
     1
  0
VISUALSTYLE
  5
3C
102
{ACAD_REACTORS
330
2A
102
}
330
2A
100
AcDbVisualStyle
  2
OverhangOff
 70
    21
177
     3
291
     1
 70
    58
 90
        2
176
     0
 90
        2
176
     0
 90
        0
176
     0
 90
        0
176
     0
 40
0.6
176
     0
 40
30.0
176
     0
 62
     7
420
 16777215
176
     0
 90
        1
176
     0
 90
        4
176
     0
 62
     7
176
     0
 62
   257
176
     0
 90
        1
176
     0
 90
        1
176
     0
 40
1.0
176
     0
 90
        9
176
     2
 62
     7
176
     0
 40
1.0
176
     0
 90
        1
176
     0
 90
        6
176
     0
 90
        2
176
     0
 62
     7
176
     0
 90
        5
176
     0
 90
        0
176
     0
 90
        0
176
     0
290
     0
176
     0
 90
        1
176
     0
 40
0.0
176
     0
 90
        0
176
     0
290
     0
176
     0
290
     1
176
     0
290
     1
176
     0
290
     0
176
     0
290
     0
176
     0
290
     0
176
     0
290
     0
176
     0
290
     0
176
     0
290
     0
176
     0
 90
       50
176
     0
 40
0.0
176
     0
 40
1.0
176
     0
 90
        0
176
     0
 62
    18
420
        0
176
     0
 90
       50
176
     0
 90
        3
176
     0
 62
     5
420
      255
176
     0
290
     0
176
     0
 90
       50
176
     0
 90
       50
176
     0
 90
       50
176
     0
290
     0
176
     0
 90
       50
176
     0
 62
   256
176
     0
 40
1.0
176
     0
 90
        2
176
     0
  1
strokes_ogs.tif
176
     0
290
     0
176
     0
 40
1.0
176
     0
 40
1.0
176
     0
  0
VISUALSTYLE
  5
33
102
{ACAD_REACTORS
330
2A
102
}
330
2A
100
AcDbVisualStyle
  2
Realistic
 70
     8
177
     3
291
     0
 70
    58
 90
        2
176
     1
 90
        3
176
     1
 90
        0
176
     1
 90
        2
176
     1
 40
0.6
176
     1
 40
30.0
176
     1
 62
     7
420
 16777215
176
     1
 90
        0
176
     1
 90
        0
176
     1
 62
     7
176
     1
 62
   257
176
     1
 90
        1
176
     1
 90
        1
176
     1
 40
1.0
176
     1
 90
        8
176
     1
 62
   257
176
     1
 40
1.0
176
     1
 90
        1
176
     1
 90
        6
176
     1
 90
        2
176
     1
 62
     7
176
     1
 90
        3
176
     1
 90
        0
176
     1
 90
        0
176
     1
290
     0
176
     1
 90
       13
176
     1
 40
0.0
176
     1
 90
        0
176
     1
290
     0
176
     1
290
     1
176
     1
290
     1
176
     1
290
     0
176
     1
290
     0
176
     1
290
     0
176
     1
290
     0
176
     1
290
     0
176
     1
290
     0
176
     1
 90
       50
176
     1
 40
0.0
176
     1
 40
1.0
176
     1
 90
        0
176
     1
 62
    18
420
        0
176
     1
 90
       50
176
     1
 90
        3
176
     1
 62
     5
420
      255
176
     1
290
     0
176
     1
 90
       50
176
     1
 90
       50
176
     1
 90
       50
176
     1
290
     0
176
     1
 90
       50
176
     1
 62
   256
176
     0
 40
1.0
176
     0
 90
        2
176
     1
  1
strokes_ogs.tif
176
     1
290
     0
176
     1
 40
1.0
176
     1
 40
1.0
176
     1
  0
VISUALSTYLE
  5
42
102
{ACAD_REACTORS
330
2A
102
}
330
2A
100
AcDbVisualStyle
  2
Shaded
 70
    27
177
     3
291
     0
 70
    58
 90
        2
176
     1
 90
        2
176
     1
 90
        1
176
     1
 90
        2
176
     1
 40
0.6
176
     1
 40
30.0
176
     1
 62
     7
420
 16777215
176
     1
 90
        0
176
     1
 90
        4
176
     1
 62
     7
176
     1
 62
   257
176
     1
 90
        1
176
     1
 90
        1
176
     1
 40
1.0
176
     1
 90
        8
176
     1
 62
   257
176
     1
 40
1.0
176
     1
 90
        1
176
     1
 90
        6
176
     1
 90
        2
176
     1
 62
     8
420
  7895160
176
     1
 90
        3
176
     1
 90
        0
176
     1
 90
        0
176
     1
290
     0
176
     1
 90
        5
176
     1
 40
0.0
176
     1
 90
        0
176
     1
290
     0
176
     1
290
     1
176
     1
290
     1
176
     1
290
     0
176
     1
290
     0
176
     1
290
     0
176
     1
290
     0
176
     1
290
     0
176
     1
290
     0
176
     1
 90
       50
176
     1
 40
0.0
176
     1
 40
1.0
176
     1
 90
        0
176
     1
 62
    18
420
        0
176
     1
 90
       50
176
     1
 90
        3
176
     1
 62
     5
420
      255
176
     1
290
     0
176
     1
 90
       50
176
     1
 90
       50
176
     1
 90
       50
176
     1
290
     0
176
     1
 90
       50
176
     1
 62
   256
176
     0
 40
1.0
176
     0
 90
        2
176
     1
  1
strokes_ogs.tif
176
     1
290
     0
176
     1
 40
1.0
176
     1
 40
1.0
176
     1
  0
VISUALSTYLE
  5
41
102
{ACAD_REACTORS
330
2A
102
}
330
2A
100
AcDbVisualStyle
  2
Shaded with edges
 70
    26
177
     3
291
     0
 70
    58
 90
        2
176
     1
 90
        2
176
     1
 90
        1
176
     1
 90
        2
176
     1
 40
0.6
176
     1
 40
30.0
176
     1
 62
     7
420
 16777215
176
     1
 90
        1
176
     1
 90
       10
176
     1
 62
     7
176
     1
 62
   257
176
     1
 90
        2
176
     1
 90
        1
176
     1
 40
1.0
176
     1
 90
        8
176
     1
 62
   257
176
     1
 40
1.0
176
     1
 90
        1
176
     1
 90
        6
176
     1
 90
        2
176
     1
 62
     7
176
     1
 90
        3
176
     1
 90
        0
176
     1
 90
        0
176
     1
290
     0
176
     1
 90
        5
176
     1
 40
0.0
176
     1
 90
        0
176
     1
290
     0
176
     1
290
     1
176
     1
290
     1
176
     1
290
     0
176
     1
290
     0
176
     1
290
     0
176
     1
290
     0
176
     1
290
     0
176
     1
290
     0
176
     1
 90
       50
176
     1
 40
0.0
176
     1
 40
1.0
176
     1
 90
        0
176
     1
 62
    18
420
        0
176
     1
 90
       50
176
     1
 90
        3
176
     1
 62
     5
420
      255
176
     1
290
     0
176
     1
 90
       50
176
     1
 90
       50
176
     1
 90
       50
176
     1
290
     0
176
     1
 90
       50
176
     1
 62
   256
176
     0
 40
1.0
176
     0
 90
        2
176
     1
  1
strokes_ogs.tif
176
     1
290
     0
176
     1
 40
1.0
176
     1
 40
1.0
176
     1
  0
VISUALSTYLE
  5
3E
102
{ACAD_REACTORS
330
2A
102
}
330
2A
100
AcDbVisualStyle
  2
Shades of Gray
 70
    23
177
     3
291
     0
 70
    58
 90
        2
176
     1
 90
        2
176
     1
 90
        3
176
     1
 90
        0
176
     1
 40
0.6
176
     1
 40
30.0
176
     1
 62
     7
420
 16777215
176
     1
 90
        2
176
     1
 90
        2
176
     1
 62
     7
176
     1
 62
     7
176
     1
 90
        1
176
     1
 90
        1
176
     1
 40
40.0
176
     1
 90
        8
176
     1
 62
     7
176
     1
 40
1.0
176
     1
 90
        1
176
     1
 90
        6
176
     1
 90
        2
176
     1
 62
     7
176
     1
 90
        3
176
     1
 90
        0
176
     1
 90
        0
176
     1
290
     0
176
     1
 90
        1
176
     1
 40
0.0
176
     1
 90
        0
176
     1
290
     0
176
     1
290
     1
176
     1
290
     1
176
     1
290
     0
176
     1
290
     0
176
     1
290
     0
176
     1
290
     0
176
     1
290
     0
176
     1
290
     0
176
     1
 90
       50
176
     1
 40
0.0
176
     1
 40
1.0
176
     1
 90
        0
176
     1
 62
    18
420
        0
176
     1
 90
       50
176
     1
 90
        3
176
     1
 62
     5
420
      255
176
     1
290
     0
176
     1
 90
       50
176
     1
 90
       50
176
     1
 90
       50
176
     1
290
     0
176
     1
 90
       50
176
     1
 62
   256
176
     0
 40
1.0
176
     0
 90
        2
176
     1
  1
strokes_ogs.tif
176
     1
290
     0
176
     1
 40
1.0
176
     1
 40
1.0
176
     1
  0
VISUALSTYLE
  5
3F
102
{ACAD_REACTORS
330
2A
102
}
330
2A
100
AcDbVisualStyle
  2
Sketchy
 70
    24
177
     3
291
     0
 70
    58
 90
        1
176
     1
 90
        2
176
     1
 90
        2
176
     1
 90
        0
176
     1
 40
0.6
176
     1
 40
30.0
176
     1
 62
     7
420
 16777215
176
     1
 90
        2
176
     1
 90
        2
176
     1
 62
     7
176
     1
 62
     7
176
     1
 90
        1
176
     1
 90
        1
176
     1
 40
40.0
176
     1
 90
       11
176
     1
 62
     7
176
     1
 40
1.0
176
     1
 90
        1
176
     1
 90
        6
176
     1
 90
        2
176
     1
 62
     7
176
     1
 90
        6
176
     1
 90
        0
176
     1
 90
        0
176
     1
290
     0
176
     1
 90
        1
176
     1
 40
0.0
176
     1
 90
        0
176
     1
290
     0
176
     1
290
     1
176
     1
290
     1
176
     1
290
     0
176
     1
290
     0
176
     1
290
     0
176
     1
290
     0
176
     1
290
     0
176
     1
290
     0
176
     1
 90
       50
176
     1
 40
0.0
176
     1
 40
1.0
176
     1
 90
        0
176
     1
 62
    18
420
        0
176
     1
 90
       50
176
     1
 90
        3
176
     1
 62
     5
420
      255
176
     1
290
     0
176
     1
 90
       50
176
     1
 90
       50
176
     1
 90
       50
176
     1
290
     0
176
     1
 90
       50
176
     1
 62
   256
176
     0
 40
1.0
176
     0
 90
        2
176
     1
  1
strokes_ogs.tif
176
     1
290
     0
176
     1
 40
1.0
176
     1
 40
1.0
176
     1
  0
VISUALSTYLE
  5
37
102
{ACAD_REACTORS
330
2A
102
}
330
2A
100
AcDbVisualStyle
  2
Thicken
 70
    13
177
     3
291
     1
 70
    58
 90
        2
176
     1
 90
        2
176
     1
 90
        0
176
     1
 90
        0
176
     1
 40
0.6
176
     1
 40
30.0
176
     1
 62
     7
420
 16777215
176
     1
 90
        1
176
     1
 90
        4
176
     1
 62
     7
176
     1
 62
   257
176
     1
 90
        1
176
     1
 90
        1
176
     1
 40
1.0
176
     1
 90
       12
176
     1
 62
     7
176
     1
 40
1.0
176
     1
 90
        1
176
     1
 90
        6
176
     1
 90
        2
176
     1
 62
     7
176
     1
 90
        5
176
     1
 90
        0
176
     1
 90
        0
176
     1
290
     0
176
     1
 90
        1
176
     1
 40
0.0
176
     1
 90
        0
176
     1
290
     0
176
     1
290
     1
176
     1
290
     1
176
     1
290
     0
176
     1
290
     0
176
     1
290
     0
176
     1
290
     0
176
     1
290
     0
176
     1
290
     0
176
     1
 90
       50
176
     1
 40
0.0
176
     1
 40
1.0
176
     1
 90
        0
176
     1
 62
    18
420
        0
176
     1
 90
       50
176
     1
 90
        3
176
     1
 62
     5
420
      255
176
     1
290
     0
176
     1
 90
       50
176
     1
 90
       50
176
     1
 90
       50
176
     1
290
     0
176
     1
 90
       50
176
     1
 62
   256
176
     0
 40
1.0
176
     0
 90
        2
176
     1
  1
strokes_ogs.tif
176
     1
290
     0
176
     1
 40
1.0
176
     1
 40
1.0
176
     1
  0
VISUALSTYLE
  5
30
102
{ACAD_REACTORS
330
2A
102
}
330
2A
100
AcDbVisualStyle
  2
Wireframe
 70
     5
177
     3
291
     0
 70
    58
 90
        0
176
     1
 90
        2
176
     1
 90
        0
176
     1
 90
        0
176
     1
 40
0.6
176
     1
 40
30.0
176
     1
 62
     7
420
 16777215
176
     1
 90
        1
176
     1
 90
        4
176
     1
 62
     7
176
     1
 62
   257
176
     1
 90
        1
176
     1
 90
        1
176
     1
 40
1.0
176
     1
 90
        0
176
     1
 62
   257
176
     1
 40
1.0
176
     1
 90
        1
176
     1
 90
        6
176
     1
 90
        2
176
     1
 62
     7
176
     1
 90
        3
176
     1
 90
        0
176
     1
 90
        0
176
     1
290
     0
176
     1
 90
        1
176
     1
 40
0.0
176
     1
 90
        0
176
     1
290
     0
176
     1
290
     1
176
     1
290
     1
176
     1
290
     0
176
     1
290
     0
176
     1
290
     0
176
     1
290
     0
176
     1
290
     0
176
     1
290
     0
176
     1
 90
       50
176
     1
 40
0.0
176
     1
 40
1.0
176
     1
 90
        0
176
     1
 62
    18
420
        0
176
     1
 90
       50
176
     1
 90
        3
176
     1
 62
     5
420
      255
176
     1
290
     0
176
     1
 90
       50
176
     1
 90
       50
176
     1
 90
       50
176
     1
290
     0
176
     1
 90
       50
176
     1
 62
   256
176
     0
 40
1.0
176
     0
 90
        2
176
     1
  1
strokes_ogs.tif
176
     1
290
     0
176
     1
 40
1.0
176
     1
 40
1.0
176
     1
  0
VISUALSTYLE
  5
40
102
{ACAD_REACTORS
330
2A
102
}
330
2A
100
AcDbVisualStyle
  2
X-Ray
 70
    25
177
     3
291
     0
 70
    58
 90
        2
176
     1
 90
        2
176
     1
 90
        1
176
     1
 90
        1
176
     1
 40
0.5
176
     1
 40
30.0
176
     1
 62
     7
420
 16777215
176
     1
 90
        1
176
     1
 90
        0
176
     1
 62
     7
176
     1
 62
   257
176
     1
 90
        1
176
     1
 90
        1
176
     1
 40
1.0
176
     1
 90
        8
176
     1
 62
     7
176
     1
 40
1.0
176
     1
 90
        1
176
     1
 90
        6
176
     1
 90
        2
176
     1
 62
     7
176
     1
 90
        3
176
     1
 90
        0
176
     1
 90
        0
176
     1
290
     0
176
     1
 90
       13
176
     1
 40
0.0
176
     1
 90
        0
176
     1
290
     0
176
     1
290
     1
176
     1
290
     1
176
     1
290
     0
176
     1
290
     0
176
     1
290
     0
176
     1
290
     0
176
     1
290
     0
176
     1
290
     0
176
     1
 90
       50
176
     1
 40
0.0
176
     1
 40
1.0
176
     1
 90
        0
176
     1
 62
    18
420
        0
176
     1
 90
       50
176
     1
 90
        3
176
     1
 62
     5
420
      255
176
     1
290
     0
176
     1
 90
       50
176
     1
 90
       50
176
     1
 90
       50
176
     1
290
     0
176
     1
 90
       50
176
     1
 62
   256
176
     0
 40
1.0
176
     0
 90
        2
176
     1
  1
strokes_ogs.tif
176
     1
290
     0
176
     1
 40
1.0
176
     1
 40
1.0
176
     1
  0
DICTIONARYVAR
  5
11E
102
{ACAD_REACTORS
330
11D
102
}
330
11D
100
DictionaryVariables
280
     0
  1
1:1
  0
DICTIONARYVAR
  5
123
102
{ACAD_REACTORS
330
11D
102
}
330
11D
100
DictionaryVariables
280
     0
  1
Standard
  0
DICTIONARYVAR
  5
122
102
{ACAD_REACTORS
330
11D
102
}
330
11D
100
DictionaryVariables
280
     0
  1
Standard
  0
DICTIONARY
  5
11F
330
6A
100
AcDbDictionary
280
     1
281
     1
  3
ACAD_ROUNDTRIP_2008_TABLESTYLE_CELLSTYLEMAP
360
120
  0
CELLSTYLEMAP
  5
120
102
{ACAD_REACTORS
330
11F
102
}
330
11F
100
AcDbCellStyleMap
 90
        3
300
CELLSTYLE
  1
TABLEFORMAT_BEGIN
 90
        5
170
     1
 91
        0
 92
    32768
 62
   257
 93
        1
300
CONTENTFORMAT
  1
CONTENTFORMAT_BEGIN
 90
        0
 91
        0
 92
        4
 93
        0
300

 40
0.0
140
1.0
 94
        5
 62
     0
340
11
144
6.0
309
CONTENTFORMAT_END
171
     1
301
MARGIN
  1
CELLMARGIN_BEGIN
 40
1.5
 40
1.5
 40
1.5
 40
1.5
 40
1.5
 40
1.5
309
CELLMARGIN_END
 94
        6
 95
        1
302
GRIDFORMAT
  1
GRIDFORMAT_BEGIN
 90
        0
 91
        1
 62
     0
 92
       -2
340
14
 93
        0
 40
0.045
309
GRIDFORMAT_END
 95
        2
302
GRIDFORMAT
  1
GRIDFORMAT_BEGIN
 90
        0
 91
        1
 62
     0
 92
       -2
340
14
 93
        0
 40
0.045
309
GRIDFORMAT_END
 95
        4
302
GRIDFORMAT
  1
GRIDFORMAT_BEGIN
 90
        0
 91
        1
 62
     0
 92
       -2
340
14
 93
        0
 40
0.045
309
GRIDFORMAT_END
 95
        8
302
GRIDFORMAT
  1
GRIDFORMAT_BEGIN
 90
        0
 91
        1
 62
     0
 92
       -2
340
14
 93
        0
 40
0.045
309
GRIDFORMAT_END
 95
       16
302
GRIDFORMAT
  1
GRIDFORMAT_BEGIN
 90
        0
 91
        1
 62
     0
 92
       -2
340
14
 93
        0
 40
0.045
309
GRIDFORMAT_END
 95
       32
302
GRIDFORMAT
  1
GRIDFORMAT_BEGIN
 90
        0
 91
        1
 62
     0
 92
       -2
340
14
 93
        0
 40
0.045
309
GRIDFORMAT_END
309
TABLEFORMAT_END
  1
CELLSTYLE_BEGIN
 90
        1
 91
        1
300
_TITLE
309
CELLSTYLE_END
300
CELLSTYLE
  1
TABLEFORMAT_BEGIN
 90
        5
170
     1
 91
        0
 92
        0
 62
   257
 93
        1
300
CONTENTFORMAT
  1
CONTENTFORMAT_BEGIN
 90
        0
 91
        0
 92
        4
 93
        0
300

 40
0.0
140
1.0
 94
        5
 62
     0
340
11
144
4.5
309
CONTENTFORMAT_END
171
     1
301
MARGIN
  1
CELLMARGIN_BEGIN
 40
1.5
 40
1.5
 40
1.5
 40
1.5
 40
1.5
 40
1.5
309
CELLMARGIN_END
 94
        6
 95
        1
302
GRIDFORMAT
  1
GRIDFORMAT_BEGIN
 90
        0
 91
        1
 62
     0
 92
       -2
340
14
 93
        0
 40
0.045
309
GRIDFORMAT_END
 95
        2
302
GRIDFORMAT
  1
GRIDFORMAT_BEGIN
 90
        0
 91
        1
 62
     0
 92
       -2
340
14
 93
        0
 40
0.045
309
GRIDFORMAT_END
 95
        4
302
GRIDFORMAT
  1
GRIDFORMAT_BEGIN
 90
        0
 91
        1
 62
     0
 92
       -2
340
14
 93
        0
 40
0.045
309
GRIDFORMAT_END
 95
        8
302
GRIDFORMAT
  1
GRIDFORMAT_BEGIN
 90
        0
 91
        1
 62
     0
 92
       -2
340
14
 93
        0
 40
0.045
309
GRIDFORMAT_END
 95
       16
302
GRIDFORMAT
  1
GRIDFORMAT_BEGIN
 90
        0
 91
        1
 62
     0
 92
       -2
340
14
 93
        0
 40
0.045
309
GRIDFORMAT_END
 95
       32
302
GRIDFORMAT
  1
GRIDFORMAT_BEGIN
 90
        0
 91
        1
 62
     0
 92
       -2
340
14
 93
        0
 40
0.045
309
GRIDFORMAT_END
309
TABLEFORMAT_END
  1
CELLSTYLE_BEGIN
 90
        2
 91
        1
300
_HEADER
309
CELLSTYLE_END
300
CELLSTYLE
  1
TABLEFORMAT_BEGIN
 90
        5
170
     1
 91
        0
 92
        0
 62
   257
 93
        1
300
CONTENTFORMAT
  1
CONTENTFORMAT_BEGIN
 90
        0
 91
        0
 92
        4
 93
        0
300

 40
0.0
140
1.0
 94
        2
 62
     0
340
11
144
4.5
309
CONTENTFORMAT_END
171
     1
301
MARGIN
  1
CELLMARGIN_BEGIN
 40
1.5
 40
1.5
 40
1.5
 40
1.5
 40
1.5
 40
1.5
309
CELLMARGIN_END
 94
        6
 95
        1
302
GRIDFORMAT
  1
GRIDFORMAT_BEGIN
 90
        0
 91
        1
 62
     0
 92
       -2
340
14
 93
        0
 40
0.045
309
GRIDFORMAT_END
 95
        2
302
GRIDFORMAT
  1
GRIDFORMAT_BEGIN
 90
        0
 91
        1
 62
     0
 92
       -2
340
14
 93
        0
 40
0.045
309
GRIDFORMAT_END
 95
        4
302
GRIDFORMAT
  1
GRIDFORMAT_BEGIN
 90
        0
 91
        1
 62
     0
 92
       -2
340
14
 93
        0
 40
0.045
309
GRIDFORMAT_END
 95
        8
302
GRIDFORMAT
  1
GRIDFORMAT_BEGIN
 90
        0
 91
        1
 62
     0
 92
       -2
340
14
 93
        0
 40
0.045
309
GRIDFORMAT_END
 95
       16
302
GRIDFORMAT
  1
GRIDFORMAT_BEGIN
 90
        0
 91
        1
 62
     0
 92
       -2
340
14
 93
        0
 40
0.045
309
GRIDFORMAT_END
 95
       32
302
GRIDFORMAT
  1
GRIDFORMAT_BEGIN
 90
        0
 91
        1
 62
     0
 92
       -2
340
14
 93
        0
 40
0.045
309
GRIDFORMAT_END
309
TABLEFORMAT_END
  1
CELLSTYLE_BEGIN
 90
        3
 91
        2
300
_DATA
309
CELLSTYLE_END
  0
ENDSEC
  0
EOF
