  0
SECTION
  2
HEADER
  9
$ACADVER
  1
AC1015
  9
$ACADMAINTVER
 70
     6
  9
$DWGCODEPAGE
  3
ANSI_1252
  9
$INSBASE
 10
0.0
 20
0.0
 30
0.0
  9
$EXTMIN
 10
-175.0
 20
0.0
 30
0.0
  9
$EXTMAX
 10
175.0
 20
145.0
 30
0.0
  9
$LIMMIN
 10
0.0
 20
0.0
  9
$LIMMAX
 10
420.0
 20
297.0
  9
$ORTHOMODE
 70
     0
  9
$REGENMODE
 70
     1
  9
$FILLMODE
 70
     1
  9
$QTEXTMODE
 70
     0
  9
$MIRRTEXT
 70
     1
  9
$LTSCALE
 40
1.0
  9
$ATTMODE
 70
     1
  9
$TEXTSIZE
 40
3.5
  9
$TRACEWID
 40
1.0
  9
$TEXTSTYLE
  7
STANDARD
  9
$CLAYER
  8
0
  9
$CELTYPE
  6
ByLayer
  9
$CECOLOR
 62
   256
  9
$CELTSCALE
 40
1.0
  9
$DISPSILH
 70
     0
  9
$DIMSCALE
 40
1.0
  9
$DIMASZ
 40
3.302
  9
$DIMEXO
 40
1.0
  9
$DIMDLI
 40
3.75
  9
$DIMRND
 40
0.0
  9
$DIMDLE
 40
0.0
  9
$DIMEXE
 40
1.0
  9
$DIMTP
 40
0.0
  9
$DIMTM
 40
0.0
  9
$DIMTXT
 40
3.5
  9
$DIMCEN
 40
2.5
  9
$DIMTSZ
 40
0.0
  9
$DIMTOL
 70
     0
  9
$DIMLIM
 70
     0
  9
$DIMTIH
 70
     1
  9
$DIMTOH
 70
     1
  9
$DIMSE1
 70
     0
  9
$DIMSE2
 70
     0
  9
$DIMTAD
 70
     1
  9
$DIMZIN
 70
     0
  9
$DIMBLK
  1

  9
$DIMASO
 70
     1
  9
$DIMSHO
 70
     1
  9
$DIMPOST
  1

  9
$DIMAPOST
  1

  9
$DIMALT
 70
     0
  9
$DIMALTD
 70
     3
  9
$DIMALTF
 40
0.0393700787
  9
$DIMLFAC
 40
1.0
  9
$DIMTOFL
 70
     1
  9
$DIMTVP
 40
0.0
  9
$DIMTIX
 70
     0
  9
$DIMSOXD
 70
     0
  9
$DIMSAH
 70
     0
  9
$DIMBLK1
  1

  9
$DIMBLK2
  1

  9
$DIMSTYLE
  2
ISO-25
  9
$DIMCLRD
 70
     0
  9
$DIMCLRE
 70
     0
  9
$DIMCLRT
 70
     0
  9
$DIMTFAC
 40
1.0
  9
$DIMGAP
 40
1.524
  9
$DIMJUST
 70
     0
  9
$DIMSD1
 70
     0
  9
$DIMSD2
 70
     0
  9
$DIMTOLJ
 70
     0
  9
$DIMTZIN
 70
     0
  9
$DIMALTZ
 70
     0
  9
$DIMALTTZ
 70
     0
  9
$DIMUPT
 70
     0
  9
$DIMDEC
 70
     1
  9
$DIMTDEC
 70
     1
  9
$DIMALTU
 70
     2
  9
$DIMALTTD
 70
     3
  9
$DIMTXSTY
  7
STANDARD
  9
$DIMAUNIT
 70
     0
  9
$DIMADEC
 70
     0
  9
$DIMALTRND
 40
0.0
  9
$DIMAZIN
 70
     0
  9
$DIMDSEP
 70
    44
  9
$DIMATFIT
 70
     3
  9
$DIMFRAC
 70
     0
  9
$DIMLDRBLK
  1

  9
$DIMLUNIT
 70
     2
  9
$DIMLWD
 70
    -2
  9
$DIMLWE
 70
    -2
  9
$DIMTMOVE
 70
     0
  9
$LUNITS
 70
     2
  9
$LUPREC
 70
     1
  9
$SKETCHINC
 40
1.0
  9
$FILLETRAD
 40
10.0
  9
$AUNITS
 70
     0
  9
$AUPREC
 70
     0
  9
$MENU
  1
.
  9
$ELEVATION
 40
0.0
  9
$PELEVATION
 40
0.0
  9
$THICKNESS
 40
0.0
  9
$LIMCHECK
 70
     0
  9
$CHAMFERA
 40
0.0
  9
$CHAMFERB
 40
0.0
  9
$CHAMFERC
 40
0.0
  9
$CHAMFERD
 40
0.0
  9
$SKPOLY
 70
     0
  9
$TDCREATE
 40
2458382.632573796
  9
$TDUCREATE
 40
2458382.549240463
  9
$TDUPDATE
 40
2458382.632600741
  9
$TDUUPDATE
 40
2458382.549267408
  9
$TDINDWG
 40
0.0000000116
  9
$TDUSRTIMER
 40
0.0000000116
  9
$USRTIMER
 70
     1
  9
$ANGBASE
 50
0.0
  9
$ANGDIR
 70
     0
  9
$PDMODE
 70
     0
  9
$PDSIZE
 40
-1.0
  9
$PLINEWID
 40
0.0
  9
$SPLFRAME
 70
     0
  9
$SPLINETYPE
 70
     6
  9
$SPLINESEGS
 70
     8
  9
$HANDSEED
  5
F9
  9
$SURFTAB1
 70
     6
  9
$SURFTAB2
 70
     6
  9
$SURFTYPE
 70
     6
  9
$SURFU
 70
     6
  9
$SURFV
 70
     6
  9
$UCSBASE
  2

  9
$UCSNAME
  2

  9
$UCSORG
 10
0.0
 20
0.0
 30
0.0
  9
$UCSXDIR
 10
1.0
 20
0.0
 30
0.0
  9
$UCSYDIR
 10
0.0
 20
1.0
 30
0.0
  9
$UCSORTHOREF
  2

  9
$UCSORTHOVIEW
 70
     0
  9
$UCSORGTOP
 10
0.0
 20
0.0
 30
0.0
  9
$UCSORGBOTTOM
 10
0.0
 20
0.0
 30
0.0
  9
$UCSORGLEFT
 10
0.0
 20
0.0
 30
0.0
  9
$UCSORGRIGHT
 10
0.0
 20
0.0
 30
0.0
  9
$UCSORGFRONT
 10
0.0
 20
0.0
 30
0.0
  9
$UCSORGBACK
 10
0.0
 20
0.0
 30
0.0
  9
$PUCSBASE
  2

  9
$PUCSNAME
  2

  9
$PUCSORG
 10
0.0
 20
0.0
 30
0.0
  9
$PUCSXDIR
 10
1.0
 20
0.0
 30
0.0
  9
$PUCSYDIR
 10
0.0
 20
1.0
 30
0.0
  9
$PUCSORTHOREF
  2

  9
$PUCSORTHOVIEW
 70
     0
  9
$PUCSORGTOP
 10
0.0
 20
0.0
 30
0.0
  9
$PUCSORGBOTTOM
 10
0.0
 20
0.0
 30
0.0
  9
$PUCSORGLEFT
 10
0.0
 20
0.0
 30
0.0
  9
$PUCSORGRIGHT
 10
0.0
 20
0.0
 30
0.0
  9
$PUCSORGFRONT
 10
0.0
 20
0.0
 30
0.0
  9
$PUCSORGBACK
 10
0.0
 20
0.0
 30
0.0
  9
$USERI1
 70
     0
  9
$USERI2
 70
     0
  9
$USERI3
 70
     0
  9
$USERI4
 70
     0
  9
$USERI5
 70
     0
  9
$USERR1
 40
0.0
  9
$USERR2
 40
0.0
  9
$USERR3
 40
0.0
  9
$USERR4
 40
0.0
  9
$USERR5
 40
0.0
  9
$WORLDVIEW
 70
     1
  9
$SHADEDGE
 70
     3
  9
$SHADEDIF
 70
    70
  9
$TILEMODE
 70
     1
  9
$MAXACTVP
 70
    64
  9
$PINSBASE
 10
0.0
 20
0.0
 30
0.0
  9
$PLIMCHECK
 70
     0
  9
$PEXTMIN
 10
-175.0
 20
-175.0
 30
0.0
  9
$PEXTMAX
 10
175.0
 20
175.0
 30
0.0
  9
$PLIMMIN
 10
-210.8974358974
 20
-188.4615384615
  9
$PLIMMAX
 10
322.1794871795
 20
188.4615384615
  9
$UNITMODE
 70
     0
  9
$VISRETAIN
 70
     1
  9
$PLINEGEN
 70
     0
  9
$PSLTSCALE
 70
     1
  9
$TREEDEPTH
 70
  3020
  9
$CMLSTYLE
  2
Standard
  9
$CMLJUST
 70
     0
  9
$CMLSCALE
 40
20.0
  9
$PROXYGRAPHICS
 70
     1
  9
$MEASUREMENT
 70
     1
  9
$CELWEIGHT
370
    -1
  9
$ENDCAPS
280
     0
  9
$JOINSTYLE
280
     0
  9
$LWDISPLAY
290
     1
  9
$INSUNITS
 70
     4
  9
$HYPERLINKBASE
  1

  9
$STYLESHEET
  1

  9
$XEDIT
290
     1
  9
$CEPSNTYPE
380
     0
  9
$PSTYLEMODE
290
     1
  9
$FINGERPRINTGUID
  2
{BD7FA9D1-D6A0-40F0-84EC-187E6E7BD3EF}
  9
$VERSIONGUID
  2
{FAEB1C32-E019-11D5-929B-00C0DF256EC4}
  9
$EXTNAMES
290
     1
  9
$PSVPSCALE
 40
0.0
  9
$OLESTARTUP
290
     0
  0
ENDSEC
  0
SECTION
  2
CLASSES
  0
CLASS
  1
ACDBDICTIONARYWDFLT
  2
AcDbDictionaryWithDefault
  3
ObjectDBX Classes
 90
        0
280
     0
281
     0
  0
CLASS
  1
VISUALSTYLE
  2
AcDbVisualStyle
  3
ObjectDBX Classes
 90
     4095
280
     0
281
     0
  0
CLASS
  1
MATERIAL
  2
AcDbMaterial
  3
ObjectDBX Classes
 90
     1153
280
     0
281
     0
  0
CLASS
  1
SCALE
  2
AcDbScale
  3
ObjectDBX Classes
 90
     1153
280
     0
281
     0
  0
CLASS
  1
TABLESTYLE
  2
AcDbTableStyle
  3
ObjectDBX Classes
 90
     4095
280
     0
281
     0
  0
CLASS
  1
MLEADERSTYLE
  2
AcDbMLeaderStyle
  3
ACDB_MLEADERSTYLE_CLASS
 90
     4095
280
     0
281
     0
  0
CLASS
  1
SUN
  2
AcDbSun
  3
SCENEOE
 90
     1153
280
     0
281
     0
  0
CLASS
  1
ACDBPLACEHOLDER
  2
AcDbPlaceHolder
  3
ObjectDBX Classes
 90
        0
280
     0
281
     0
  0
CLASS
  1
LAYOUT
  2
AcDbLayout
  3
ObjectDBX Classes
 90
        0
280
     0
281
     0
  0
ENDSEC
  0
SECTION
  2
TABLES
  0
TABLE
  2
VPORT
  5
8
330
0
100
AcDbSymbolTable
 70
     1
  0
VPORT
  5
29
330
8
100
AcDbSymbolTableRecord
100
AcDbViewportTableRecord
  2
*Active
 70
     0
 10
0.0
 20
0.0
 11
1.0
 21
1.0
 12
0.0
 22
72.5
 13
0.0
 23
0.0
 14
10.0
 24
10.0
 15
10.0
 25
10.0
 16
0.0
 26
0.0
 36
1.0
 17
0.0
 27
0.0
 37
0.0
 40
147.9
 41
2.4137931034
 42
50.0
 43
0.0
 44
0.0
 50
0.0
 51
0.0
 71
     0
 72
   100
 73
     1
 74
     3
 75
     0
 76
     0
 77
     0
 78
     0
281
     0
 65
     1
110
0.0
120
0.0
130
0.0
111
1.0
121
0.0
131
0.0
112
0.0
122
1.0
132
0.0
 79
     0
146
0.0
  0
ENDTAB
  0
TABLE
  2
LTYPE
  5
5
330
0
100
AcDbSymbolTable
 70
     6
  0
LTYPE
  5
14
330
5
100
AcDbSymbolTableRecord
100
AcDbLinetypeTableRecord
  2
ByBlock
 70
     0
  3

 72
    65
 73
     0
 40
0.0
  0
LTYPE
  5
15
330
5
100
AcDbSymbolTableRecord
100
AcDbLinetypeTableRecord
  2
ByLayer
 70
     0
  3

 72
    65
 73
     0
 40
0.0
  0
LTYPE
  5
16
330
5
100
AcDbSymbolTableRecord
100
AcDbLinetypeTableRecord
  2
Continuous
 70
     0
  3
Solid line
 72
    65
 73
     0
 40
0.0
  0
LTYPE
  5
6E
330
5
100
AcDbSymbolTableRecord
100
AcDbLinetypeTableRecord
  2
HIDDEN
 70
     0
  3
Hidden __ __ __ __ __ __ __ __ __ __ __ __ __ __
 72
    65
 73
     2
 40
1.905
 49
1.27
 74
     0
 49
-0.635
 74
     0
  0
LTYPE
  5
6F
330
5
100
AcDbSymbolTableRecord
100
AcDbLinetypeTableRecord
  2
PHANTOM
 70
     0
  3
Phantom ______  __  __  ______  __  __  ______
 72
    65
 73
     6
 40
12.7
 49
6.35
 74
     0
 49
-1.27
 74
     0
 49
1.27
 74
     0
 49
-1.27
 74
     0
 49
1.27
 74
     0
 49
-1.27
 74
     0
  0
LTYPE
  5
70
330
5
100
AcDbSymbolTableRecord
100
AcDbLinetypeTableRecord
  2
CENTER
 70
     0
  3
Center ____ _ ____ _ ____ _ ____ _ ____ _ ____
 72
    65
 73
     4
 40
10.16
 49
6.35
 74
     0
 49
-1.27
 74
     0
 49
1.27
 74
     0
 49
-1.27
 74
     0
  0
LTYPE
  5
71
330
5
100
AcDbSymbolTableRecord
100
AcDbLinetypeTableRecord
  2
CENTERX2
 70
     0
  3
Center (2x) ________  __  ________  __  _____
 72
    65
 73
     4
 40
20.32
 49
12.7
 74
     0
 49
-2.54
 74
     0
 49
2.54
 74
     0
 49
-2.54
 74
     0
  0
LTYPE
  5
72
330
5
100
AcDbSymbolTableRecord
100
AcDbLinetypeTableRecord
  2
DOT2
 70
     0
  3
Dot (.5x) ........................................
 72
    65
 73
     2
 40
0.635
 49
0.0
 74
     0
 49
-0.635
 74
     0
  0
ENDTAB
  0
TABLE
  2
LAYER
  5
2
330
0
100
AcDbSymbolTable
 70
     1
  0
LAYER
  5
10
330
2
100
AcDbSymbolTableRecord
100
AcDbLayerTableRecord
  2
0
 70
     0
 62
     7
  6
Continuous
370
    -3
390
F
  0
ENDTAB
  0
TABLE
  2
STYLE
  5
3
330
0
100
AcDbSymbolTable
 70
     1
  0
STYLE
  5
11
330
3
100
AcDbSymbolTableRecord
100
AcDbTextStyleTableRecord
  2
STANDARD
 70
     0
 40
0.0
 41
1.0
 50
0.0
 71
     0
 42
3.5
  3
GOTHIC.TTF
  4

1001
ACAD
1000
CENTURY GOTHIC
1071
       34
  0
ENDTAB
  0
TABLE
  2
VIEW
  5
6
330
0
100
AcDbSymbolTable
 70
     0
  0
ENDTAB
  0
TABLE
  2
UCS
  5
7
330
0
100
AcDbSymbolTable
 70
     0
  0
ENDTAB
  0
TABLE
  2
APPID
  5
9
330
0
100
AcDbSymbolTable
 70
     1
  0
APPID
  5
12
330
9
100
AcDbSymbolTableRecord
100
AcDbRegAppTableRecord
  2
ACAD
 70
     0
  0
ENDTAB
  0
TABLE
  2
DIMSTYLE
  5
A
330
0
100
AcDbSymbolTable
 70
     1
100
AcDbDimStyleTable
  0
DIMSTYLE
105
27
330
A
100
AcDbSymbolTableRecord
100
AcDbDimStyleTableRecord
  2
ISO-25
 70
     0
 41
2.5
 42
0.625
 43
3.75
 44
1.25
 73
     0
 74
     0
 77
     1
 78
     8
140
2.5
141
2.5
143
0.0393700787
147
0.625
171
     3
172
     1
178
     0
271
     2
272
     2
274
     3
278
    44
283
     0
284
     8
340
11
  0
ENDTAB
  0
TABLE
  2
BLOCK_RECORD
  5
1
330
0
100
AcDbSymbolTable
 70
     8
  0
BLOCK_RECORD
  5
1F
330
1
100
AcDbSymbolTableRecord
100
AcDbBlockTableRecord
  2
*Model_Space
340
22
  0
BLOCK_RECORD
  5
1B
330
1
100
AcDbSymbolTableRecord
100
AcDbBlockTableRecord
  2
*Paper_Space
340
1E
  0
BLOCK_RECORD
  5
23
330
1
100
AcDbSymbolTableRecord
100
AcDbBlockTableRecord
  2
*Paper_Space0
340
26
  0
BLOCK_RECORD
  5
87
330
1
100
AcDbSymbolTableRecord
100
AcDbBlockTableRecord
  2
*Paper_Space1
340
88
  0
BLOCK_RECORD
  5
95
330
1
100
AcDbSymbolTableRecord
100
AcDbBlockTableRecord
  2
*Paper_Space2
340
96
  0
BLOCK_RECORD
  5
A1
330
1
100
AcDbSymbolTableRecord
100
AcDbBlockTableRecord
  2
*Paper_Space3
340
A2
  0
BLOCK_RECORD
  5
AD
330
1
100
AcDbSymbolTableRecord
100
AcDbBlockTableRecord
  2
*Paper_Space4
340
AE
  0
BLOCK_RECORD
  5
B4
330
1
100
AcDbSymbolTableRecord
100
AcDbBlockTableRecord
  2
*Paper_Space5
340
B5
  0
BLOCK_RECORD
  5
C9
330
1
100
AcDbSymbolTableRecord
100
AcDbBlockTableRecord
  2
*Paper_Space6
340
CA
  0
BLOCK_RECORD
  5
D9
330
1
100
AcDbSymbolTableRecord
100
AcDbBlockTableRecord
  2
*Paper_Space7
340
DA
  0
ENDTAB
  0
ENDSEC
  0
SECTION
  2
BLOCKS
  0
BLOCK
  5
20
330
1F
100
AcDbEntity
  8
0
100
AcDbBlockBegin
  2
*Model_Space
 70
     0
 10
0.0
 20
0.0
 30
0.0
  3
*Model_Space
  1

  0
ENDBLK
  5
21
330
1F
100
AcDbEntity
  8
0
100
AcDbBlockEnd
  0
BLOCK
  5
1C
330
1B
100
AcDbEntity
 67
     1
  8
0
100
AcDbBlockBegin
  2
*Paper_Space
 70
     0
 10
0.0
 20
0.0
 30
0.0
  3
*Paper_Space
  1

  0
ENDBLK
  5
1D
330
1B
100
AcDbEntity
 67
     1
  8
0
100
AcDbBlockEnd
  0
BLOCK
  5
24
330
23
100
AcDbEntity
  8
0
100
AcDbBlockBegin
  2
*Paper_Space0
 70
     0
 10
0.0
 20
0.0
 30
0.0
  3
*Paper_Space0
  1

  0
LINE
  5
83
330
23
100
AcDbEntity
  8
0
  6
Continuous
 62
     7
370
    25
100
AcDbLine
 10
-175.0
 20
145.0
 30
0.0
 11
-132.5
 21
0.0
 31
0.0
  0
LINE
  5
84
330
23
100
AcDbEntity
  8
0
  6
Continuous
 62
     7
370
    25
100
AcDbLine
 10
132.5
 20
0.0
 30
0.0
 11
175.0
 21
145.0
 31
0.0
  0
LINE
  5
85
330
23
100
AcDbEntity
  8
0
  6
Continuous
 62
     7
370
    25
100
AcDbLine
 10
175.0
 20
145.0
 30
0.0
 11
-175.0
 21
145.0
 31
0.0
  0
LINE
  5
86
330
23
100
AcDbEntity
  8
0
  6
Continuous
 62
     7
370
    25
100
AcDbLine
 10
132.5
 20
0.0
 30
0.0
 11
-132.5
 21
0.0
 31
0.0
  0
VIEWPORT
  5
E9
330
23
100
AcDbEntity
  8
0
100
AcDbViewport
 10
0.0
 20
0.0
 30
0.0
 40
205.6
 41
156.0
 68
     1
 69
     1
 12
0.0
 22
72.5
 13
0.0
 23
0.0
 14
10.0
 24
10.0
 15
10.0
 25
10.0
 16
0.0
 26
0.0
 36
1.0
 17
0.0
 27
0.0
 37
0.0
 42
50.0
 43
0.0
 44
0.0
 45
270.8754863813
 50
0.0
 51
0.0
 72
   100
 90
   557152
  1

281
     0
 71
     1
 74
     0
110
0.0
120
0.0
130
0.0
111
1.0
121
0.0
131
0.0
112
0.0
122
1.0
132
0.0
 79
     0
146
0.0
  0
ENDBLK
  5
25
330
23
100
AcDbEntity
  8
0
100
AcDbBlockEnd
  0
BLOCK
  5
89
330
87
100
AcDbEntity
  8
0
100
AcDbBlockBegin
  2
*Paper_Space1
 70
     0
 10
0.0
 20
0.0
 30
0.0
  3
*Paper_Space1
  1

  0
LINE
  5
91
330
87
100
AcDbEntity
  8
0
  6
Continuous
 62
     7
370
    25
100
AcDbLine
 10
-175.0
 20
145.0
 30
0.0
 11
-132.5
 21
0.0
 31
0.0
  0
LINE
  5
92
330
87
100
AcDbEntity
  8
0
  6
Continuous
 62
     7
370
    25
100
AcDbLine
 10
132.5
 20
0.0
 30
0.0
 11
175.0
 21
145.0
 31
0.0
  0
LINE
  5
93
330
87
100
AcDbEntity
  8
0
  6
Continuous
 62
     7
370
    25
100
AcDbLine
 10
175.0
 20
145.0
 30
0.0
 11
-175.0
 21
145.0
 31
0.0
  0
LINE
  5
94
330
87
100
AcDbEntity
  8
0
  6
Continuous
 62
     7
370
    25
100
AcDbLine
 10
132.5
 20
0.0
 30
0.0
 11
-132.5
 21
0.0
 31
0.0
  0
VIEWPORT
  5
EB
330
87
100
AcDbEntity
  8
0
100
AcDbViewport
 10
0.0
 20
0.0
 30
0.0
 40
205.6
 41
156.0
 68
     1
 69
     1
 12
0.0
 22
72.5
 13
0.0
 23
0.0
 14
10.0
 24
10.0
 15
10.0
 25
10.0
 16
0.0
 26
0.0
 36
1.0
 17
0.0
 27
0.0
 37
0.0
 42
50.0
 43
0.0
 44
0.0
 45
270.8754863813
 50
0.0
 51
0.0
 72
   100
 90
   557152
  1

281
     0
 71
     1
 74
     0
110
0.0
120
0.0
130
0.0
111
1.0
121
0.0
131
0.0
112
0.0
122
1.0
132
0.0
 79
     0
146
0.0
  0
ENDBLK
  5
8A
330
87
100
AcDbEntity
  8
0
100
AcDbBlockEnd
  0
BLOCK
  5
97
330
95
100
AcDbEntity
  8
0
100
AcDbBlockBegin
  2
*Paper_Space2
 70
     0
 10
0.0
 20
0.0
 30
0.0
  3
*Paper_Space2
  1

  0
LINE
  5
9D
330
95
100
AcDbEntity
  8
0
  6
Continuous
 62
     7
370
    25
100
AcDbLine
 10
-175.0
 20
145.0
 30
0.0
 11
-132.5
 21
0.0
 31
0.0
  0
LINE
  5
9E
330
95
100
AcDbEntity
  8
0
  6
Continuous
 62
     7
370
    25
100
AcDbLine
 10
132.5
 20
0.0
 30
0.0
 11
175.0
 21
145.0
 31
0.0
  0
LINE
  5
9F
330
95
100
AcDbEntity
  8
0
  6
Continuous
 62
     7
370
    25
100
AcDbLine
 10
175.0
 20
145.0
 30
0.0
 11
-175.0
 21
145.0
 31
0.0
  0
LINE
  5
A0
330
95
100
AcDbEntity
  8
0
  6
Continuous
 62
     7
370
    25
100
AcDbLine
 10
132.5
 20
0.0
 30
0.0
 11
-132.5
 21
0.0
 31
0.0
  0
VIEWPORT
  5
ED
330
95
100
AcDbEntity
  8
0
100
AcDbViewport
 10
0.0
 20
0.0
 30
0.0
 40
205.6
 41
156.0
 68
     1
 69
     1
 12
0.0
 22
72.5
 13
0.0
 23
0.0
 14
10.0
 24
10.0
 15
10.0
 25
10.0
 16
0.0
 26
0.0
 36
1.0
 17
0.0
 27
0.0
 37
0.0
 42
50.0
 43
0.0
 44
0.0
 45
270.8754863813
 50
0.0
 51
0.0
 72
   100
 90
   557152
  1

281
     0
 71
     1
 74
     0
110
0.0
120
0.0
130
0.0
111
1.0
121
0.0
131
0.0
112
0.0
122
1.0
132
0.0
 79
     0
146
0.0
  0
ENDBLK
  5
98
330
95
100
AcDbEntity
  8
0
100
AcDbBlockEnd
  0
BLOCK
  5
A3
330
A1
100
AcDbEntity
  8
0
100
AcDbBlockBegin
  2
*Paper_Space3
 70
     0
 10
0.0
 20
0.0
 30
0.0
  3
*Paper_Space3
  1

  0
LINE
  5
A9
330
A1
100
AcDbEntity
  8
0
  6
Continuous
 62
     7
370
    25
100
AcDbLine
 10
-175.0
 20
145.0
 30
0.0
 11
-132.5
 21
0.0
 31
0.0
  0
LINE
  5
AA
330
A1
100
AcDbEntity
  8
0
  6
Continuous
 62
     7
370
    25
100
AcDbLine
 10
132.5
 20
0.0
 30
0.0
 11
175.0
 21
145.0
 31
0.0
  0
LINE
  5
AB
330
A1
100
AcDbEntity
  8
0
  6
Continuous
 62
     7
370
    25
100
AcDbLine
 10
175.0
 20
145.0
 30
0.0
 11
-175.0
 21
145.0
 31
0.0
  0
LINE
  5
AC
330
A1
100
AcDbEntity
  8
0
  6
Continuous
 62
     7
370
    25
100
AcDbLine
 10
132.5
 20
0.0
 30
0.0
 11
-132.5
 21
0.0
 31
0.0
  0
VIEWPORT
  5
EF
330
A1
100
AcDbEntity
  8
0
100
AcDbViewport
 10
0.0
 20
0.0
 30
0.0
 40
205.6
 41
156.0
 68
     1
 69
     1
 12
0.0
 22
72.5
 13
0.0
 23
0.0
 14
10.0
 24
10.0
 15
10.0
 25
10.0
 16
0.0
 26
0.0
 36
1.0
 17
0.0
 27
0.0
 37
0.0
 42
50.0
 43
0.0
 44
0.0
 45
270.8754863813
 50
0.0
 51
0.0
 72
   100
 90
   557152
  1

281
     0
 71
     1
 74
     0
110
0.0
120
0.0
130
0.0
111
1.0
121
0.0
131
0.0
112
0.0
122
1.0
132
0.0
 79
     0
146
0.0
  0
ENDBLK
  5
A4
330
A1
100
AcDbEntity
  8
0
100
AcDbBlockEnd
  0
BLOCK
  5
AF
330
AD
100
AcDbEntity
  8
0
100
AcDbBlockBegin
  2
*Paper_Space4
 70
     0
 10
0.0
 20
0.0
 30
0.0
  3
*Paper_Space4
  1

  0
CIRCLE
  5
B1
330
AD
100
AcDbEntity
  8
0
  6
Continuous
 62
     7
370
    25
100
AcDbCircle
 10
0.0
 20
0.0
 30
0.0
 40
132.4999999999999
  0
CIRCLE
  5
B2
330
AD
100
AcDbEntity
  8
0
  6
Continuous
 62
     7
370
    25
100
AcDbCircle
 10
0.0
 20
0.0
 30
0.0
 40
23.0
  0
CIRCLE
  5
B3
330
AD
100
AcDbEntity
  8
0
  6
Continuous
 62
     7
370
    25
100
AcDbCircle
 10
0.0
 20
0.0
 30
0.0
 40
174.9999999999999
  0
VIEWPORT
  5
F1
330
AD
100
AcDbEntity
  8
0
100
AcDbViewport
 10
0.0
 20
0.0
 30
0.0
 40
205.6
 41
156.0
 68
     1
 69
     1
 12
0.0
 22
72.5
 13
0.0
 23
0.0
 14
10.0
 24
10.0
 15
10.0
 25
10.0
 16
0.0
 26
0.0
 36
1.0
 17
0.0
 27
0.0
 37
0.0
 42
50.0
 43
0.0
 44
0.0
 45
270.8754863813
 50
0.0
 51
0.0
 72
   100
 90
   557152
  1

281
     0
 71
     1
 74
     0
110
0.0
120
0.0
130
0.0
111
1.0
121
0.0
131
0.0
112
0.0
122
1.0
132
0.0
 79
     0
146
0.0
  0
ENDBLK
  5
B0
330
AD
100
AcDbEntity
  8
0
100
AcDbBlockEnd
  0
BLOCK
  5
B6
330
B4
100
AcDbEntity
  8
0
100
AcDbBlockBegin
  2
*Paper_Space5
 70
     0
 10
0.0
 20
0.0
 30
0.0
  3
*Paper_Space5
  1

  0
SPLINE
  5
B8
330
B4
100
AcDbEntity
  8
0
  6
Continuous
 62
     7
370
    25
100
AcDbSpline
210
0.0
220
0.0
230
1.0
 70
     8
 71
     3
 72
    67
 73
    63
 74
     0
 42
0.000000001
 43
0.00000001
 40
0.0
 40
0.0
 40
0.0
 40
0.0
 40
0.0141535151814344
 40
0.031670154399432
 40
0.0488110644381043
 40
0.0656923776327506
 40
0.0823983438730643
 40
0.0989910939860799
 40
0.1155168882320757
 40
0.1320102855699187
 40
0.1484970336264078
 40
0.1649903012199381
 40
0.1815054454859906
 40
0.1980534548184755
 40
0.2146418636600081
 40
0.2312755038569684
 40
0.2479570918188355
 40
0.2646876913351359
 40
0.2814670803473634
 40
0.2982940423319575
 40
0.3151665977780509
 40
0.3320821876424303
 40
0.3490378180841217
 40
0.3660301738799975
 40
0.3830557064850326
 40
0.400110701588298
 40
0.4171913301395984
 40
0.4342936861226509
 40
0.4514138137898977
 40
0.4685477266240157
 40
0.4856914199331022
 40
0.5028408787068188
 40
0.5199920821492625
 40
0.5371401115253208
 40
0.5542804955519332
 40
0.5714092108823406
 40
0.5885222398942531
 40
0.6056155774817119
 40
0.6226852423159792
 40
0.6397272940544853
 40
0.6567378583207982
 40
0.6737131616082102
 40
0.6906495786695404
 40
0.7075436954585499
 40
0.7243923912996126
 40
0.7411929447035295
 40
0.7579431681492822
 40
0.7746415782585239
 40
0.7912876091691686
 40
0.8078818786707459
 40
0.8244265189598983
 40
0.84092558696727
 40
0.8573855735064324
 40
0.8738160366575041
 40
0.8902303938795028
 40
0.9066443505411921
 40
0.9230762386534902
 40
0.9395554486542332
 40
0.9561204613689409
 40
0.9728214470602267
 40
0.9897238134906442
 40
1.0
 40
1.0
 40
1.0
 40
1.0
 10
144.4165163239362
 20
73.84842582157346
 30
0.0
 10
144.0153704898573
 20
73.17271542914236
 30
0.0
 10
143.1177595190765
 20
71.66073397554104
 30
0.0
 10
141.3905140567514
 20
69.21747628738127
 30
0.0
 10
139.3071606825919
 20
66.57576131027893
 30
0.0
 10
136.9588664895784
 20
63.91803343608743
 30
0.0
 10
134.351765602918
 20
61.25345232142121
 30
0.0
 10
131.4801187624911
 20
58.58865108710829
 30
0.0
 10
128.3433333570976
 20
55.93301435788586
 30
0.0
 10
124.9414821035515
 20
53.2965180005065
 30
0.0
 10
121.2768710132089
 20
50.6900646271802
 30
0.0
 10
117.3532379399536
 20
48.12466966411854
 30
0.0
 10
113.1757218944151
 20
45.61127765107513
 30
0.0
 10
108.7501698729835
 20
43.16032842427703
 30
0.0
 10
104.0836373148162
 20
40.78204020061504
 30
0.0
 10
99.18429986908056
 20
38.48630839061984
 30
0.0
 10
94.06136209535896
 20
36.28262635578296
 30
0.0
 10
88.7249669639797
 20
34.18002502547616
 30
0.0
 10
83.18610815943269
 20
32.18702762328584
 30
0.0
 10
77.4565459688765
 20
30.31161633170055
 30
0.0
 10
71.54872745229457
 20
28.56120842130831
 30
0.0
 10
65.47571125622098
 20
26.94263981020458
 30
0.0
 10
59.25109722159726
 20
25.46215438364823
 30
0.0
 10
52.88896074720554
 20
24.12539769193467
 30
0.0
 10
46.40379172747041
 20
22.93741388444691
 30
0.0
 10
39.81043777579127
 20
21.90264493898873
 30
0.0
 10
33.12405136874757
 20
21.02493141570637
 30
0.0
 10
26.36004049646656
 20
20.30751410879851
 30
0.0
 10
19.53402237397123
 20
19.75303609054795
 30
0.0
 10
12.6617797544852
 20
19.36354474387112
 30
0.0
 10
5.7592193740887
 20
19.14049346487538
 30
0.0
 10
-1.157667920946945
 20
19.08474278676093
 30
0.0
 10
-8.072725649285836
 20
19.19655879591901
 30
0.0
 10
-14.96973131606437
 20
19.47559901886924
 30
0.0
 10
-21.83249890532701
 20
19.92090702505875
 30
0.0
 10
-28.6450387253307
 20
20.53092538314678
 30
0.0
 10
-35.39153509473025
 20
21.30349952962833
 30
0.0
 10
-42.0563265321154
 20
22.23587126952633
 30
0.0
 10
-48.62394754712945
 20
23.32467387193495
 30
0.0
 10
-55.0791727927636
 20
24.56592652889123
 30
0.0
 10
-61.40706412950156
 20
25.95502844019886
 30
0.0
 10
-67.59302119372673
 20
27.4867528844895
 30
0.0
 10
-73.62283608028864
 20
29.15524175642507
 30
0.0
 10
-79.48275275791494
 20
30.95400119744589
 30
0.0
 10
-85.15953182735302
 20
32.87589912825979
 30
0.0
 10
-90.6405211975008
 20
34.91316571114354
 30
0.0
 10
-95.91373318723143
 20
37.05739803703456
 30
0.0
 10
-100.9679284383015
 20
39.29957065084135
 30
0.0
 10
-105.7927068728874
 20
41.63005392287232
 30
0.0
 10
-110.3786055894408
 20
44.03864270720175
 30
0.0
 10
-114.7172035764024
 20
46.51459841235081
 30
0.0
 10
-118.8012314388802
 20
49.04670786292613
 30
0.0
 10
-122.624688289837
 20
51.62336486036511
 30
0.0
 10
-126.1829502373447
 20
54.23267536601755
 30
0.0
 10
-129.4727452662821
 20
56.86247437878081
 30
0.0
 10
-132.4920108115864
 20
59.50028137653928
 30
0.0
 10
-135.240792348323
 20
62.13389069759589
 30
0.0
 10
-137.7198649847118
 20
64.75124149948103
 30
0.0
 10
-139.9369049045202
 20
67.34317561229494
 30
0.0
 10
-141.8835284278341
 20
69.89555976445824
 30
0.0
 10
-143.3847236834263
 20
72.07736531550991
 30
0.0
 10
-144.1318099098344
 20
73.3663263101757
 30
0.0
 10
-144.4142825425073
 20
73.85368130710368
 30
0.0
  0
LWPOLYLINE
  5
BD
330
B4
100
AcDbEntity
  8
0
  6
Continuous
 62
     7
370
    25
100
AcDbPolyline
 90
      141
 70
   128
 43
0.0
 10
123.7436867076
 20
189.8341275079
 10
129.1708245603
 20
186.5572455011
 10
134.3378295627
 20
183.143100686
 10
139.2342960543
 20
179.5985686957
 10
143.8503632034
 20
175.9307877461
 10
148.1767348649
 20
172.1471442598
 10
152.2046983022
 20
168.2552579912
 10
155.926141733
 20
164.2629666815
 10
159.3335706653
 20
160.1783102739
 10
162.4201229908
 20
156.0095147229
 10
165.179582804
 20
151.764975428
 10
167.6063929199
 20
147.4532403263
 10
169.6956660659
 20
143.0829926786
 10
171.4431947241
 20
138.663033582
 10
172.8454596041
 20
134.202264246
 10
173.8996367313
 20
129.7096680662
 10
174.6036031331
 20
125.1942925336
 10
174.9559411149
 20
120.6652310136
 10
174.9559411149
 20
116.1316044333
 10
174.6036031331
 20
111.6025429132
 10
173.8996367313
 20
107.0871673806
 10
172.8454596041
 20
102.5945712009
 10
171.4431947241
 20
98.1338018649
 10
169.6956660659
 20
93.7138427683
 10
167.6063929199
 20
89.3435951206
 10
165.179582804
 20
85.0318600189
 10
162.4201229908
 20
80.7873207239
 10
159.3335706653
 20
76.6185251729
 10
155.926141733
 20
72.5338687654
 10
152.2046983022
 20
68.5415774556
 10
148.1767348649
 20
64.6496911871
 10
143.8503632034
 20
60.8660477008
 10
139.2342960543
 20
57.1982667511
 10
134.3378295627
 20
53.6537347609
 10
129.1708245603
 20
50.2395899457
 10
123.7436867076
 20
46.9627079389
 10
118.0673455381
 20
43.8296879448
 10
112.1532324474
 20
40.8468394487
 10
106.0132576721
 20
38.0201695104
 10
99.6597863045
 20
35.3553706671
 10
93.1056133902
 20
32.8578094689
 10
86.3639381613
 20
30.5325156719
 10
79.4483374544
 20
28.3841721081
 10
72.3727383691
 20
26.4171052556
 10
65.1513902203
 20
24.6352765254
 10
57.7988358422
 20
23.0422742833
 10
50.3298823006
 20
21.6413066238
 10
42.7595710741
 20
20.4351949094
 10
35.1031477621
 20
19.4263680885
 10
27.376031382
 20
18.6168578042
 10
19.5937833181
 20
18.0082943023
 10
11.7720759821
 20
17.6019031488
 10
3.9266612518
 20
17.3985027614
 10
-3.9266612518
 20
17.3985027614
 10
-11.7720759821
 20
17.6019031488
 10
-19.5937833181
 20
18.0082943023
 10
-27.376031382
 20
18.6168578042
 10
-35.1031477621
 20
19.4263680885
 10
-42.7595710741
 20
20.4351949094
 10
-50.3298823006
 20
21.6413066238
 10
-57.7988358422
 20
23.0422742833
 10
-65.1513902203
 20
24.6352765254
 10
-72.3727383691
 20
26.4171052556
 10
-79.4483374544
 20
28.3841721081
 10
-86.3639381613
 20
30.5325156719
 10
-93.1056133902
 20
32.8578094689
 10
-99.6597863045
 20
35.3553706671
 10
-106.0132576721
 20
38.0201695104
 10
-112.1532324474
 20
40.8468394487
 10
-118.0673455381
 20
43.8296879448
 10
-123.7436867076
 20
46.9627079389
 10
-129.1708245603
 20
50.2395899457
 10
-134.3378295627
 20
53.6537347609
 10
-139.2342960543
 20
57.1982667511
 10
-143.8503632034
 20
60.8660477008
 10
-148.1767348649
 20
64.6496911871
 10
-152.2046983022
 20
68.5415774556
 10
-155.926141733
 20
72.5338687654
 10
-159.3335706653
 20
76.6185251729
 10
-162.4201229908
 20
80.7873207239
 10
-165.179582804
 20
85.0318600189
 10
-167.6063929199
 20
89.3435951206
 10
-169.6956660659
 20
93.7138427683
 10
-171.4431947241
 20
98.1338018649
 10
-172.8454596041
 20
102.5945712009
 10
-173.8996367313
 20
107.0871673806
 10
-174.6036031331
 20
111.6025429132
 10
-174.9559411149
 20
116.1316044333
 10
-174.9559411149
 20
120.6652310136
 10
-174.6036031331
 20
125.1942925336
 10
-173.8996367313
 20
129.7096680662
 10
-172.8454596041
 20
134.202264246
 10
-171.4431947241
 20
138.663033582
 10
-169.6956660659
 20
143.0829926786
 10
-167.6063929199
 20
147.4532403263
 10
-165.179582804
 20
151.764975428
 10
-162.4201229908
 20
156.0095147229
 10
-159.3335706653
 20
160.1783102739
 10
-155.926141733
 20
164.2629666815
 10
-152.2046983022
 20
168.2552579912
 10
-148.1767348649
 20
172.1471442598
 10
-143.8503632034
 20
175.9307877461
 10
-139.2342960543
 20
179.5985686957
 10
-134.3378295626
 20
183.143100686
 10
-129.1708245603
 20
186.5572455011
 10
-123.7436867076
 20
189.8341275079
 10
-118.0673455381
 20
192.967147502
 10
-112.1532324474
 20
195.9499959982
 10
-106.0132576721
 20
198.7766659365
 10
-99.6597863045
 20
201.4414647798
 10
-93.1056133902
 20
203.9390259779
 10
-86.3639381613
 20
206.264319775
 10
-79.4483374544
 20
208.4126633388
 10
-72.3727383691
 20
210.3797301912
 10
-65.1513902203
 20
212.1615589215
 10
-57.7988358422
 20
213.7545611636
 10
-50.3298823006
 20
215.1555288231
 10
-42.7595710741
 20
216.3616405375
 10
-35.1031477621
 20
217.3704673583
 10
-27.376031382
 20
218.1799776427
 10
-19.5937833181
 20
218.7885411446
 10
-11.7720759821
 20
219.194932298
 10
-3.9266612518
 20
219.3983326854
 10
3.9266612518
 20
219.3983326854
 10
11.7720759821
 20
219.194932298
 10
19.5937833181
 20
218.7885411446
 10
27.376031382
 20
218.1799776427
 10
35.1031477621
 20
217.3704673583
 10
42.7595710741
 20
216.3616405375
 10
50.3298823006
 20
215.1555288231
 10
57.7988358422
 20
213.7545611636
 10
65.1513902203
 20
212.1615589215
 10
72.3727383691
 20
210.3797301912
 10
79.4483374544
 20
208.4126633388
 10
86.3639381613
 20
206.264319775
 10
93.1056133902
 20
203.9390259779
 10
99.6597863045
 20
201.4414647798
 10
106.0132576721
 20
198.7766659365
 10
112.1532324474
 20
195.9499959982
 10
118.0673455381
 20
192.967147502
 10
123.7436867076
 20
189.8341275079
  0
LWPOLYLINE
  5
BE
330
B4
100
AcDbEntity
  8
0
  6
Continuous
 62
     7
370
    25
100
AcDbPolyline
 90
       55
 70
   128
 43
0.0
 10
129.6239546161
 20
-15.8505208066
 10
128.5550070069
 20
-18.5259908466
 10
126.7325275318
 20
-22.3218315034
 10
124.5739761763
 20
-26.0584786758
 10
122.0850770306
 20
-29.7260234472
 10
119.2724302078
 20
-33.3147401483
 10
116.1434943416
 20
-36.8151121475
 10
112.7065668076
 20
-40.2178570876
 10
108.9707617195
 20
-43.5139515005
 10
104.9459857611
 20
-46.6946547366
 10
100.6429119145
 20
-49.7515321427
 10
96.0729511581
 20
-52.6764774293
 10
91.2482222061
 20
-55.4617341673
 10
86.1815193726
 20
-58.0999163568
 10
80.8862786425
 20
-60.5840280126
 10
75.3765420423
 20
-62.9074817173
 10
69.6669204031
 20
-65.0641160894
 10
63.772554615
 20
-67.0482121221
 10
57.7090754763
 20
-68.8545083495
 10
51.4925622439
 20
-70.4782147988
 10
45.1394999932
 20
-71.9150256922
 10
38.6667359032
 20
-73.1611308656
 10
32.0914345807
 20
-74.2132258722
 10
25.4310325428
 20
-75.068520745
 10
18.7031919783
 20
-75.7247473958
 10
11.9257539109
 20
-76.1801656296
 10
5.1166908881
 20
-76.433567759
 10
-1.7059406792
 20
-76.4842818071
 10
-8.5240483984
 20
-76.3321732894
 10
-15.3195518737
 20
-75.9776455704
 10
-22.0744306514
 20
-75.4216387938
 10
-28.7707720073
 20
-74.6656273896
 10
-35.390818448
 20
-73.7116161642
 10
-41.9170148003
 20
-72.5621349839
 10
-48.3320547648
 20
-71.220232066
 10
-54.6189268087
 20
-69.689465896
 10
-60.7609592775
 20
-67.9738957904
 10
-66.7418646053
 20
-66.0780711329
 10
-72.5457825063
 20
-64.0070193095
 10
-78.1573220337
 20
-61.7662323775
 10
-83.5616023933
 20
-59.3616525009
 10
-88.7442924052
 20
-56.7996561932
 10
-93.6916485072
 20
-54.0870374083
 10
-98.3905512003
 20
-51.2309895233
 10
-102.8285398392
 20
-48.2390862638
 10
-106.9938456759
 20
-45.1192616196
 10
-110.8754230682
 20
-41.8797888045
 10
-114.4629787705
 20
-38.5292583183
 10
-117.74699923
 20
-35.0765551654
 10
-120.718775815
 20
-31.530835294
 10
-123.370427908
 20
-27.9015013156
 10
-125.6949238045
 20
-24.1981775715
 10
-127.6860993593
 20
-20.4306846107
 10
-129.3386743326
 20
-16.609013147
 10
-129.6239546161
 20
-15.8505208066
  0
LWPOLYLINE
  5
BF
330
B4
100
AcDbEntity
  8
0
  6
Continuous
 62
     7
370
    25
100
AcDbPolyline
 90
       12
 70
   128
 43
0.0
 10
21.9203102168
 20
39.6001725255
 10
24.1261134594
 20
38.1834108513
 10
26.0585581961
 20
36.639323086
 10
27.6957490561
 20
34.985404361
 10
29.0191360126
 20
33.2403942363
 10
30.0137245626
 20
31.4240643739
 10
30.6682456204
 20
29.5569945169
 10
30.9752832009
 20
27.6603393127
 10
30.9313584457
 20
25.7555886229
 10
30.5369690398
 20
23.8643240337
 10
29.7965835726
 20
22.0079743287
 10
28.9582359145
 20
20.5585144041
  0
LWPOLYLINE
  5
C0
330
B4
100
AcDbEntity
  8
0
  6
Continuous
 62
     7
370
    25
100
AcDbPolyline
 90
       27
 70
   128
 43
0.0
 10
-28.9534827437
 20
20.5513374351
 10
-29.5583234271
 20
21.5518193009
 10
-30.3840485348
 20
23.3961331146
 10
-30.8655102318
 20
25.2806666026
 10
-30.9972533645
 20
27.1840672475
 10
-30.7777852308
 20
29.0847687595
 10
-30.2095924922
 20
30.961235431
 10
-29.2991129996
 20
32.7922061447
 10
-28.0566628493
 20
34.5569352708
 10
-26.4963194981
 20
36.2354277233
 10
-24.6357622596
 20
37.8086655118
 10
-22.4960719907
 20
39.2588232237
 10
-20.1014922372
 20
40.5694699927
 10
-17.4791545445
 20
41.725755667
 10
-14.6587710465
 20
42.7145790681
 10
-11.6722978152
 20
43.5247364316
 10
-8.5535727856
 20
44.1470483508
 10
-5.3379323586
 20
44.5744637832
 10
-2.0618110249
 20
44.8021399411
 10
1.2376714514
 20
44.8274971625
 10
4.5231306157
 20
44.6502481401
 10
7.7573409028
 20
44.2724011761
 10
10.9036574178
 20
43.6982374276
 10
13.9264311373
 20
42.9342623993
 10
16.7914128273
 20
41.9891322335
 10
19.4661411005
 20
40.8735556327
 10
21.9203102168
 20
39.6001725255
  0
LWPOLYLINE
  5
C1
330
B4
100
AcDbEntity
  8
0
  6
Continuous
 62
     7
370
    25
100
AcDbPolyline
 90
        8
 70
   128
 43
0.0
 10
16.2634559673
 20
29.8022135831
 10
18.1735652846
 20
28.5514656438
 10
19.7970666211
 20
27.172377445
 10
21.1083563907
 20
25.6866980315
 10
22.0867547706
 20
24.117857455
 10
22.7168318337
 20
22.4905972687
 10
22.9886508884
 20
20.8305803377
 10
22.9910730188
 20
20.0436227974
  0
LWPOLYLINE
  5
C2
330
B4
100
AcDbEntity
  8
0
  6
Continuous
 62
     7
370
    25
100
AcDbPolyline
 90
       20
 70
   128
 43
0.0
 10
-22.9907219023
 20
20.0364199808
 10
-22.8979251859
 20
21.6630544735
 10
-22.4460855246
 20
23.30994279
 10
-21.6402576859
 20
24.9111527936
 10
-20.4931500563
 20
26.4414324459
 10
-19.0228532083
 20
27.8766483228
 10
-17.2525546015
 20
29.1941662124
 10
-15.2101729024
 20
30.3732080707
 10
-12.9279176906
 20
31.3951797031
 10
-10.441781494
 20
32.2439640066
 10
-7.7909721656
 20
32.9061751456
 10
-5.0172945521
 20
33.3713696549
 10
-2.1644912063
 20
33.6322111392
 10
0.7224474588
 20
33.6845859724
 10
3.5979926959
 20
33.5276681722
 10
6.4167954389
 20
33.163932426
 10
9.1344014846
 20
32.5991150638
 10
11.7079525623
 20
31.8421235928
 10
14.096862234
 20
30.9048962208
 10
16.2634559673
 20
29.8022135831
  0
LWPOLYLINE
  5
C3
330
B4
100
AcDbEntity
  8
0
  6
Continuous
 62
    60
370
    25
100
AcDbPolyline
 90
       25
 70
   128
 43
0.0
 10
107.822407586
 20
164.3121524726
 10
112.867940223
 20
161.2562640184
 10
117.6538729806
 20
158.0642397437
 10
122.16919806
 20
154.7434214065
 10
126.403530069
 20
151.3014469955
 10
130.3471299081
 20
147.7462331621
 10
133.9909271714
 20
144.0859570121
 10
137.3265410084
 20
140.3290372979
 10
140.3462994004
 20
136.4841150551
 10
143.0432568063
 20
132.5600337283
 10
145.4112101377
 20
128.5658188302
 10
147.444713026
 20
124.510657183
 10
149.1390883494
 20
120.4038757886
 10
150.4904389904
 20
116.2549203756
 10
151.4956567992
 20
112.0733336746
 10
152.1524297425
 20
107.8687334689
 10
152.4592472217
 20
103.6507904737
 10
152.4154035467
 20
99.4292060931
 10
152.0209995593
 20
95.2136901065
 10
151.2769424013
 20
91.0139383357
 10
150.184943428
 20
86.8396103443
 10
148.7475142721
 20
82.7003072206
 10
146.9679610668
 20
78.6055494943
 10
144.8503768413
 20
74.5647552394
 10
144.454920645
 20
73.8801194165
  0
LWPOLYLINE
  5
C4
330
B4
100
AcDbEntity
  8
0
  6
Continuous
 62
    60
370
    25
100
AcDbPolyline
 90
       57
 70
   128
 43
0.0
 10
-144.4613515385
 20
73.8911050804
 10
-146.4700783713
 20
77.5899265233
 10
-148.3345535984
 20
81.672071846
 10
-149.8578545987
 20
85.8011275405
 10
-151.0364777311
 20
89.9675966463
 10
-151.8677121248
 20
94.1618961509
 10
-152.3496459139
 20
98.3743790312
 10
-152.4811706353
 20
102.5953564415
 10
-152.2619837779
 20
106.8151199985
 10
-151.6925894785
 20
111.0239641108
 10
-150.7742973623
 20
115.212208302
 10
-149.5092195305
 20
119.3702194763
 10
-147.9002657027
 20
123.4884340748
 10
-145.9511365242
 20
127.5573800718
 10
-143.6663150547
 20
131.5676987613
 10
-141.0510564567
 20
135.5101662817
 10
-138.1113759088
 20
139.3757148314
 10
-134.8540347704
 20
143.1554535249
 10
-131.2865250307
 20
146.840688842
 10
-127.4170520762
 20
150.4229446234
 10
-123.2545158188
 20
153.893981566
 10
-118.8084902253
 20
157.2458161736
 10
-114.089201297
 20
160.4707391192
 10
-109.1075035497
 20
163.5613329767
 10
-103.8748550478
 20
166.5104892812
 10
-98.4032910506
 20
169.3114248787
 10
-92.7053963306
 20
171.9576975275
 10
-86.7942762283
 20
174.4432207158
 10
-80.6835265093
 20
176.7622776605
 10
-74.3872020937
 20
178.9095344564
 10
-67.9197847296
 20
180.880052344
 10
-61.2961496841
 20
182.669299069
 10
-54.53153153
 20
184.2731593067
 10
-47.641489106
 20
185.6879441272
 10
-40.6418697303
 20
186.9103994798
 10
-33.5487727518
 20
187.9377136783
 10
-26.3785125209
 20
188.767523867
 10
-19.1475808659
 20
189.3979214558
 10
-11.8726091614
 20
189.8274565102
 10
-4.5703300753
 20
190.0551410858
 10
2.7424609165
 20
190.0804515006
 10
10.0489441602
 20
189.90332954
 10
17.3323145104
 20
189.5241825902
 10
24.5758199817
 20
188.9438827012
 10
31.7628002796
 20
188.1637645815
 10
38.876725119
 20
187.1856225276
 10
45.9012322447
 20
186.0117062977
 10
52.8201650654
 20
184.6447159367
 10
59.6176098138
 20
183.0877955662
 10
66.2779321491
 20
181.3445261531
 10
72.7858131166
 20
179.4189172727
 10
79.1262843815
 20
177.3153978873
 10
85.2847626567
 20
175.0388061588
 10
91.2470832447
 20
172.5943783211
 10
96.9995326173
 20
169.9877366367
 10
102.5288799564
 20
167.2248764649
 10
107.822407586
 20
164.3121524726
  0
LINE
  5
C5
330
B4
100
AcDbEntity
  8
0
  6
Continuous
 62
     7
370
    25
100
AcDbLine
 10
-171.2014494929
 20
97.4637676015
 30
0.0
 11
-129.6239546161
 21
-15.8505208066
 31
0.0
  0
LINE
  5
C6
330
B4
100
AcDbEntity
  8
0
  6
Continuous
 62
     7
370
    25
100
AcDbLine
 10
129.6239546161
 20
-15.8505208066
 30
0.0
 11
171.2014494929
 21
97.4637676015
 31
0.0
  0
LINE
  5
C7
330
B4
100
AcDbEntity
  8
0
  6
Continuous
 62
     7
370
    25
100
AcDbLine
 10
144.454920645
 20
73.8801194165
 30
0.0
 11
144.3908286692
 21
73.7708930822
 31
0.0
  0
LINE
  5
C8
330
B4
100
AcDbEntity
  8
0
  6
Continuous
 62
     7
370
    25
100
AcDbLine
 10
-144.3913382286
 20
73.7717596261
 30
0.0
 11
-144.4613515385
 21
73.8911050804
 31
0.0
  0
VIEWPORT
  5
F3
330
B4
100
AcDbEntity
  8
0
100
AcDbViewport
 10
0.0
 20
0.0
 30
0.0
 40
205.6
 41
156.0
 68
     1
 69
     1
 12
0.0
 22
72.5
 13
0.0
 23
0.0
 14
10.0
 24
10.0
 15
10.0
 25
10.0
 16
0.0
 26
0.0
 36
1.0
 17
0.0
 27
0.0
 37
0.0
 42
50.0
 43
0.0
 44
0.0
 45
270.8754863813
 50
0.0
 51
0.0
 72
   100
 90
   557152
  1

281
     0
 71
     1
 74
     0
110
0.0
120
0.0
130
0.0
111
1.0
121
0.0
131
0.0
112
0.0
122
1.0
132
0.0
 79
     0
146
0.0
  0
ENDBLK
  5
B7
330
B4
100
AcDbEntity
  8
0
100
AcDbBlockEnd
  0
BLOCK
  5
CB
330
C9
100
AcDbEntity
  8
0
100
AcDbBlockBegin
  2
*Paper_Space6
 70
     0
 10
0.0
 20
0.0
 30
0.0
  3
*Paper_Space6
  1

  0
SPLINE
  5
CD
330
C9
100
AcDbEntity
  8
0
  6
Continuous
 62
     7
370
    25
100
AcDbSpline
210
0.0
220
0.0
230
1.0
 70
     8
 71
     3
 72
    70
 73
    66
 74
     0
 42
0.000000001
 43
0.00000001
 40
0.0
 40
0.0
 40
0.0
 40
0.0
 40
0.0155642098058942
 40
0.0319587516129455
 40
0.0479044771498823
 40
0.0635656891456594
 40
0.0790527847901511
 40
0.0944425816843372
 40
0.1097896361976112
 40
0.1251316057562322
 40
0.140489168119786
 40
0.1558844193470698
 40
0.17133261707145
 40
0.1868438519803353
 40
0.2024242924477773
 40
0.218077124206168
 40
0.2338032711085756
 40
0.249601953583576
 40
0.2654711235997134
 40
0.2814078038143401
 40
0.2974083513365219
 40
0.3134686616382204
 40
0.3295843247068835
 40
0.34575074301889
 40
0.3619632190112738
 40
0.3782170182473778
 40
0.3945074132921436
 40
0.4108297123595073
 40
0.4271792760187385
 40
0.4435515246142939
 40
0.4599419385408905
 40
0.4763460531029221
 40
0.4927594493613441
 40
0.5091777421196833
 40
0.5255964839183923
 40
0.5420099436997038
 40
0.5584137457651707
 40
0.5748034858499848
 40
0.5911747179049754
 40
0.6075229435734576
 40
0.6238436051782089
 40
0.640132083509721
 40
0.6563837020046389
 40
0.6725937392838063
 40
0.6887574524946478
 40
0.704870114488164
 40
0.7209270685737402
 40
0.7369238054572457
 40
0.7528560680065928
 40
0.7687199907416228
 40
0.7845122824656814
 40
0.8002304623287317
 40
0.8158731619719105
 40
0.8314405094767918
 40
0.8469346150102324
 40
0.8623601839663679
 40
0.877725292176947
 40
0.8930423713299751
 40
0.9083294745362167
 40
0.923611480516446
 40
0.938911221454701
 40
0.9542714271869159
 40
0.9697498720122196
 40
0.9854248537973626
 40
1.0
 40
1.0
 40
1.0
 40
1.0
 10
146.7038588294158
 20
85.741281817753
 30
0.0
 10
146.3854975940175
 20
85.1808998002932
 30
0.0
 10
145.731790931606
 20
84.03024005413795
 30
0.0
 10
144.4147165529072
 20
82.11233513753845
 30
0.0
 10
142.8346655909209
 20
80.07613512143993
 30
0.0
 10
140.9946291184336
 20
77.97018011100404
 30
0.0
 10
138.8929871925061
 20
75.80773344053594
 30
0.0
 10
136.5212101049957
 20
73.59825794020732
 30
0.0
 10
133.8753786926473
 20
71.35399755892729
 30
0.0
 10
130.9534752937091
 20
69.08777872992646
 30
0.0
 10
127.755641816095
 20
66.81267943252124
 30
0.0
 10
124.2836855632155
 20
64.54156083208042
 30
0.0
 10
120.5404232160887
 20
62.28665733229629
 30
0.0
 10
116.5302233352572
 20
60.05993761267091
 30
0.0
 10
112.2588922716292
 20
57.87299439821836
 30
0.0
 10
107.7335526934459
 20
55.73695890438613
 30
0.0
 10
102.9625248081842
 20
53.66243870218786
 30
0.0
 10
97.95521054979578
 20
51.65947322106886
 30
0.0
 10
92.72198289193983
 20
49.73750361331994
 30
0.0
 10
87.27408138532344
 20
47.90535396926515
 30
0.0
 10
81.62351475074706
 20
46.1712214614674
 30
0.0
 10
75.78297092449044
 20
44.54267334784723
 30
0.0
 10
69.76573463498309
 20
43.02664909317627
 30
0.0
 10
63.5856123234021
 20
41.62946614790664
 30
0.0
 10
57.25686402478019
 20
40.3568281733884
 30
0.0
 10
50.79414168950045
 20
39.21383472271138
 30
0.0
 10
44.21243334058707
 20
38.20499157862785
 30
0.0
 10
37.52701241968136
 20
37.3342211146747
 30
0.0
 10
30.75339166402893
 20
36.60487218387397
 30
0.0
 10
23.90728086896242
 20
36.01972915282914
 30
0.0
 10
17.0045479160556
 20
35.58101978993061
 30
0.0
 10
10.06118248290486
 20
35.29042178707585
 30
0.0
 10
3.09326187731225
 20
35.14906774849151
 30
0.0
 10
-3.883069868505423
 20
35.15754850349102
 30
0.0
 10
-10.85145125536974
 20
35.3159091607651
 30
0.0
 10
-17.79553019965813
 20
35.62363449253096
 30
0.0
 10
-24.69901164340261
 20
36.07964814942085
 30
0.0
 10
-31.54586908513444
 20
36.68233189286137
 30
0.0
 10
-38.32018285558193
 20
37.42951531502072
 30
0.0
 10
-45.00617350782739
 20
38.31846799757773
 30
0.0
 10
-51.58823727834791
 20
39.34588973244241
 30
0.0
 10
-58.05098416847987
 20
40.50789885863987
 30
0.0
 10
-64.37927933588558
 20
41.80001882020375
 30
0.0
 10
-70.55828854773512
 20
43.21716311949461
 30
0.0
 10
-76.57352852712796
 20
44.75361893507164
 30
0.0
 10
-82.41092309938483
 20
46.40302979927589
 30
0.0
 10
-88.05686611259519
 20
48.15837789454847
 30
0.0
 10
-93.49829215647777
 20
50.01196673634707
 30
0.0
 10
-98.72275612298418
 20
51.95540527149993
 30
0.0
 10
-103.7185226273362
 20
53.97959474234985
 30
0.0
 10
-108.4746662164093
 20
56.07472005332156
 30
0.0
 10
-112.9811831308414
 20
58.23024784712042
 30
0.0
 10
-117.2291150657435
 20
60.43493401575888
 30
0.0
 10
-121.2106851274397
 20
62.67684411258763
 30
0.0
 10
-124.9194450294812
 20
64.94339049589765
 30
0.0
 10
-128.3504340400334
 20
67.22139232821331
 30
0.0
 10
-131.500341110914
 20
69.4971603916509
 30
0.0
 10
-134.3676907848622
 20
71.75662949222273
 30
0.0
 10
-136.9529344855535
 20
73.98546925864147
 30
0.0
 10
-139.2582569936672
 20
76.16889452661965
 30
0.0
 10
-141.2876903901904
 20
78.29190926500554
 30
0.0
 10
-143.0501891418399
 20
80.3415978153645
 30
0.0
 10
-144.5492769917844
 20
82.30124464287215
 30
0.0
 10
-145.7854780809779
 20
84.12096037839694
 30
0.0
 10
-146.4030352777675
 20
85.20925563165882
 30
0.0
 10
-146.700587289294
 20
85.73361911317323
 30
0.0
  0
LWPOLYLINE
  5
D0
330
C9
100
AcDbEntity
  8
0
  6
Continuous
 62
     7
370
    25
100
AcDbPolyline
 90
      141
 70
   128
 43
0.0
 10
81.6716930628
 20
204.0033347926
 10
88.5333271753
 20
202.0358723819
 10
95.2166669491
 20
199.9118386378
 10
101.7082530274
 20
197.6355110815
 10
107.9950122197
 20
195.2114739339
 10
114.0642838297
 20
192.6446088831
 10
119.9038451519
 20
189.9400852538
 10
125.5019360872
 20
187.1033495965
 10
130.8472828253
 20
184.1401147195
 10
135.9291205493
 20
181.0563481833
 10
140.7372151144
 20
177.8582602835
 10
145.2618836578
 20
174.5522915433
 10
149.4940140994
 20
171.145099744
 10
153.4250834917
 20
167.6435465163
 10
157.047175184
 20
164.0546835224
 10
160.3529947658
 20
160.3857382548
 10
163.3358847563
 20
156.6440994811
 10
165.9898380121
 20
152.8373023636
 10
168.3095098244
 20
148.9730132853
 10
170.2902286831
 20
145.05901441
 10
171.9280056839
 20
141.1031880106
 10
173.2195425618
 20
137.113500595
 10
174.1622383336
 20
133.0979868628
 10
174.7541945353
 20
129.0647335241
 10
174.994219046
 20
125.0218630144
 10
174.8818284881
 20
120.977517137
 10
174.4172492015
 20
116.9398406661
 10
173.6014167869
 20
112.9169649449
 10
172.4359742222
 20
108.9169915097
 10
170.9232685536
 20
104.9479757745
 10
169.0663461691
 20
101.0179108091
 10
166.8689466632
 20
97.134711241
 10
164.3354953061
 20
93.3061973176
 10
161.4710941316
 20
89.5400791562
 10
158.2815116626
 20
85.8439412178
 10
154.7731712935
 20
82.2252270321
 10
150.9531383552
 20
78.6912242081
 10
146.8291058854
 20
75.249049757
 10
142.4093791367
 20
71.9056357601
 10
137.7028588507
 20
68.6677154083
 10
132.7190233329
 20
65.5418094422
 10
127.4679093646
 20
62.5342130204
 10
121.9600919906
 20
59.650983042
 10
116.2066632222
 20
56.8979259482
 10
110.2192096991
 20
54.2805860299
 10
104.0097893559
 20
51.8042342611
 10
97.5909071388
 20
49.4738576849
 10
90.9754898225
 20
47.2941493695
 10
84.1768599769
 20
45.2694989573
 10
77.2087091377
 20
43.403983825
 10
70.0850702335
 20
41.7013608716
 10
62.820289325
 20
40.1650589532
 10
55.4289967141
 20
38.7981719774
 10
47.9260774804
 20
37.6034526728
 10
40.3266415048
 20
36.5833070449
 10
32.6459930399
 20
35.7397895313
 10
24.8995998897
 20
35.074598864
 10
17.1030622591
 20
34.5890746485
 10
9.2720813371
 20
34.2841946659
 10
1.4224276773
 20
34.160572904
 10
-6.4300905625
 20
34.2184583205
 10
-14.2696594557
 20
34.457734342
 10
-22.0804911538
 20
34.8779190982
 10
-29.8468556812
 20
35.4781663932
 10
-37.5531126134
 20
36.2572674086
 10
-45.1837425744
 20
37.2136531388
 10
-52.7233784911
 20
38.3453975501
 10
-60.15683654
 20
39.65022146
 10
-67.469146726
 20
41.1254971266
 10
-74.6455830295
 20
42.7682535413
 10
-81.6716930628
 20
44.5751824111
 10
-88.5333271753
 20
46.5426448217
 10
-95.2166669491
 20
48.6666785658
 10
-101.7082530274
 20
50.9430061221
 10
-107.9950122197
 20
53.3670432697
 10
-114.0642838297
 20
55.9339083205
 10
-119.9038451519
 20
58.6384319499
 10
-125.5019360872
 20
61.4751676071
 10
-130.8472828253
 20
64.4384024841
 10
-135.9291205493
 20
67.5221690203
 10
-140.7372151144
 20
70.7202569202
 10
-145.2618836578
 20
74.0262256603
 10
-149.4940140994
 20
77.4334174596
 10
-153.4250834917
 20
80.9349706874
 10
-157.047175184
 20
84.5238336812
 10
-160.3529947658
 20
88.1927789488
 10
-163.3358847563
 20
91.9344177226
 10
-165.9898380121
 20
95.74121484
 10
-168.3095098244
 20
99.6055039183
 10
-170.2902286831
 20
103.5195027936
 10
-171.9280056839
 20
107.475329193
 10
-173.2195425618
 20
111.4650166086
 10
-174.1622383336
 20
115.4805303408
 10
-174.7541945353
 20
119.5137836795
 10
-174.994219046
 20
123.5566541892
 10
-174.8818284881
 20
127.6010000666
 10
-174.4172492015
 20
131.6386765375
 10
-173.6014167869
 20
135.6615522587
 10
-172.4359742222
 20
139.661525694
 10
-170.9232685536
 20
143.6305414291
 10
-169.0663461691
 20
147.5606063946
 10
-166.8689466632
 20
151.4438059626
 10
-164.3354953061
 20
155.2723198861
 10
-161.4710941316
 20
159.0384380474
 10
-158.2815116626
 20
162.7345759859
 10
-154.7731712935
 20
166.3532901715
 10
-150.9531383552
 20
169.8872929955
 10
-146.8291058854
 20
173.3294674466
 10
-142.4093791367
 20
176.6728814435
 10
-137.7028588507
 20
179.9108017953
 10
-132.7190233329
 20
183.0367077614
 10
-127.4679093646
 20
186.0443041832
 10
-121.9600919906
 20
188.9275341616
 10
-116.2066632222
 20
191.6805912554
 10
-110.2192096991
 20
194.2979311737
 10
-104.0097893559
 20
196.7742829425
 10
-97.5909071388
 20
199.1046595187
 10
-90.9754898225
 20
201.2843678342
 10
-84.1768599769
 20
203.3090182463
 10
-77.2087091377
 20
205.1745333786
 10
-70.0850702335
 20
206.877156332
 10
-62.820289325
 20
208.4134582504
 10
-55.4289967141
 20
209.7803452262
 10
-47.9260774804
 20
210.9750645308
 10
-40.3266415048
 20
211.9952101587
 10
-32.6459930399
 20
212.8387276724
 10
-24.8995998897
 20
213.5039183396
 10
-17.1030622591
 20
213.9894425552
 10
-9.2720813371
 20
214.2943225377
 10
-1.4224276773
 20
214.4179442996
 10
6.4300905625
 20
214.3600588831
 10
14.2696594557
 20
214.1207828617
 10
22.0804911538
 20
213.7005981054
 10
29.8468556812
 20
213.1003508104
 10
37.5531126134
 20
212.321249795
 10
45.1837425744
 20
211.3648640648
 10
52.7233784911
 20
210.2331196535
 10
60.15683654
 20
208.9282957436
 10
67.469146726
 20
207.453020077
 10
74.6455830295
 20
205.8102636623
 10
81.6716930628
 20
204.0033347926
  0
LWPOLYLINE
  5
D1
330
C9
100
AcDbEntity
  8
0
  6
Continuous
 62
     7
370
    25
100
AcDbPolyline
 90
       56
 70
   128
 43
0.0
 10
130.4289879579
 20
-12.0184893517
 10
129.7981401438
 20
-13.7109753796
 10
128.2556088745
 20
-17.1342012818
 10
126.372966787
 20
-20.5119903624
 10
124.1552063095
 20
-23.835385332
 10
121.6082085443
 20
-27.0955731446
 10
118.7387276714
 20
-30.2839083682
 10
115.5543730384
 20
-33.3919361109
 10
112.0635889813
 20
-36.4114144419
 10
108.2756324318
 20
-39.3343362475
 10
104.2005483698
 20
-42.1529504644
 10
99.8491431856
 20
-44.8597826346
 10
95.2329560236
 20
-47.4476547256
 10
90.3642281821
 20
-49.909704166
 10
85.2558706523
 20
-52.2394020431
 10
79.9214298799
 20
-54.4305704171
 10
74.3750518429
 20
-56.4773987033
 10
68.6314445388
 20
-58.3744590811
 10
62.7058389817
 20
-60.1167208873
 10
56.6139488121
 20
-61.6995639569
 10
50.3719286278
 20
-63.1187908747
 10
43.9963311442
 20
-64.3706381058
 10
37.5040632995
 20
-65.4517859766
 10
30.912341421
 20
-66.3593674772
 10
24.2386455702
 20
-67.0909758647
 10
17.5006731887
 20
-67.6446710451
 10
10.7162921681
 20
-68.0189847184
 10
3.903493467
 20
-68.2129242719
 10
-2.919656597
 20
-68.2259754129
 10
-9.7350642565
 20
-68.058103532
 10
-16.5246562758
 20
-67.7097537953
 10
-23.2704278772
 20
-67.1818499638
 10
-29.9544904872
 20
-66.4757919434
 10
-36.5591191733
 20
-65.5934520731
 10
-43.0667996476
 20
-64.5371701596
 10
-49.4602747114
 20
-63.3097472727
 10
-55.7225900181
 20
-61.9144383172
 10
-61.8371390332
 20
-60.3549434016
 10
-67.7877070721
 20
-58.6353980261
 10
-73.5585142981
 20
-56.7603621158
 10
-79.1342575676
 20
-54.7348079291
 10
-84.5001510121
 20
-52.5641068714
 10
-89.6419652466
 20
-50.2540152517
 10
-94.5460651042
 20
-47.8106590176
 10
-99.1994457937
 20
-45.2405175108
 10
-103.589767386
 20
-42.5504062844
 10
-107.7053875374
 20
-39.7474590299
 10
-111.5353923633
 20
-36.8391086593
 10
-115.0696253793
 20
-33.8330675952
 10
-118.2987144349
 20
-30.7373073179
 10
-121.2140965662
 20
-27.5600372273
 10
-123.8080407041
 20
-24.3096828724
 10
-126.073668175
 20
-20.9948636086
 10
-128.0049709421
 20
-17.6243697409
 10
-129.5968275376
 20
-14.2071392129
 10
-130.4289879579
 20
-12.0184893517
  0
LWPOLYLINE
  5
D3
330
C9
100
AcDbEntity
  8
0
  6
Continuous
 62
     7
370
    25
100
AcDbPolyline
 90
       16
 70
   128
 43
0.0
 10
-26.7900266912
 20
36.320033072
 10
-26.1752466562
 20
36.8407508107
 10
-24.2615378902
 20
38.2252582991
 10
-22.0729362055
 20
39.4971559216
 10
-19.6342393336
 20
40.6420325701
 10
-16.9730786847
 20
41.6469163346
 10
-14.1196062722
 20
42.5004214805
 10
-11.1061530787
 20
43.1928774535
 10
-7.966862733
 20
43.7164384508
 10
-4.7373046492
 20
44.065172317
 10
-1.4540710107
 20
44.2351277581
 10
1.8456378333
 20
44.224379111
 10
5.1244348632
 20
44.0330481622
 10
8.3451699984
 20
43.6633027677
 10
11.471351023
 20
43.1193322908
 10
14.4675570568
 20
42.4073001341
  0
LWPOLYLINE
  5
D4
330
C9
100
AcDbEntity
  8
0
  6
Continuous
 62
    60
370
    25
100
AcDbPolyline
 90
       30
 70
   128
 43
0.0
 10
71.1635382131
 20
176.6037075029
 10
77.5475203652
 20
174.7665582257
 10
83.7531407353
 20
172.7738792965
 10
89.7661261979
 20
170.6302539409
 10
95.5726466936
 20
168.3406125657
 10
101.1593470393
 20
165.9102214196
 10
106.513377645
 20
163.3446704801
 10
111.6224240689
 20
160.6498605965
 10
116.4747353405
 20
157.8319899179
 10
121.0591509883
 20
154.8975396372
 10
125.3651267094
 20
151.853259084
 10
129.3827586217
 20
148.7061502013
 10
133.1028060431
 20
145.4634514402
 10
136.5167127452
 20
142.1326211118
 10
139.6166266333
 20
138.7213202327
 10
142.395417806
 20
135.2373949042
 10
144.8466949547
 20
131.6888582661
 10
146.9648200633
 20
128.0838720665
 10
148.7449213762
 20
124.4307278891
 10
150.1829046033
 20
120.7378280826
 10
151.2754623372
 20
117.0136664349
 10
152.02008166
 20
113.2668086372
 10
152.4150499234
 20
109.5058725824
 10
152.4594586878
 20
105.739508544
 10
152.1532058116
 20
101.9763792799
 10
151.4969956862
 20
98.2251401081
 10
150.4923376159
 20
94.4944189989
 10
149.1415423466
 20
90.7927967304
 10
147.4477167505
 20
87.1287871524
 10
146.7299555749
 20
85.7754734737
  0
LWPOLYLINE
  5
D5
330
C9
100
AcDbEntity
  8
0
  6
Continuous
 62
    60
370
    25
100
AcDbPolyline
 90
       50
 70
   128
 43
0.0
 10
-146.7210005371
 20
85.7591702848
 10
-147.8973979283
 20
88.0290282266
 10
-149.506903004
 20
91.7031066827
 10
-150.7725374118
 20
95.4127040873
 10
-151.691390152
 20
99.1492882474
 10
-152.2613478338
 20
102.9042648997
 10
-152.4810995362
 20
106.6689974776
 10
-152.3501398235
 20
110.4348269756
 10
-151.868769907
 20
114.1930918651
 10
-151.038096953
 20
117.9351480165
 10
-149.860031536
 20
121.6523885805
 10
-148.3372832441
 20
125.336263785
 10
-146.4733544472
 20
128.9783005988
 10
-144.2725322412
 20
132.5701222205
 10
-141.7398785879
 20
136.1034673453
 10
-138.8812186716
 20
139.5702091663
 10
-135.703127502
 20
142.962374066
 10
-132.2129147903
 20
146.2721599566
 10
-128.4186081379
 20
149.4919542245
 10
-124.3289345715
 20
152.6143512395
 10
-119.9533004714
 20
155.6321693887
 10
-115.3017699363
 20
158.5384675934
 10
-110.3850416354
 20
161.3265612747
 10
-105.2144242014
 20
163.9900377278
 10
-99.8018102202
 20
166.5227708714
 10
-94.1596488772
 20
168.9189353383
 10
-88.3009173244
 20
171.1730198733
 10
-82.2390908321
 20
173.2798400097
 10
-75.9881117956
 20
175.2345499938
 10
-69.5623576668
 20
177.0326539299
 10
-62.9766078862
 20
178.6700161214
 10
-56.2460098894
 20
180.1428705827
 10
-49.3860442674
 20
181.4478297015
 10
-42.412489161
 20
182.5818920298
 10
-35.3413839704
 20
183.542449188
 10
-28.1889924641
 20
184.3272918639
 10
-20.9717653719
 20
184.9346148942
 10
-13.7063025472
 20
185.3630214164
 10
-6.4093147875
 20
185.6115260817
 10
0.9024146017
 20
185.6795573216
 10
8.2120684083
 20
185.5669586619
 10
15.5028341945
 20
185.2739890832
 10
22.7579429652
 20
184.801322425
 10
29.9607077378
 20
184.1500458356
 10
37.0945619225
 20
183.3216572721
 10
44.143097426
 20
182.3180620547
 10
51.0901023909
 20
181.1415684847
 10
57.9195984831
 20
179.7948825348
 10
64.6158776427
 20
178.281101626
 10
71.1635382131
 20
176.6037075029
  0
LINE
  5
D6
330
C9
100
AcDbEntity
  8
0
  6
Continuous
 62
     7
370
    25
100
AcDbLine
 10
-172.2647010764
 20
108.4157820996
 30
0.0
 11
-130.4289879579
 21
-12.0184893517
 31
0.0
  0
LINE
  5
D7
330
C9
100
AcDbEntity
  8
0
  6
Continuous
 62
     7
370
    25
100
AcDbLine
 10
130.4289879579
 20
-12.0184893517
 30
0.0
 11
172.2647010764
 21
108.4157820996
 31
0.0
  0
ARC
  5
D8
330
C9
100
AcDbEntity
  8
0
  6
Continuous
 62
     7
370
    25
100
AcDbCircle
 10
7.5675572346
 20
12.9230042686
 30
0.0
 40
30.28091313402981
100
AcDbArc
 50
50.6023159331
 51
76.8285152558
  0
VIEWPORT
  5
F5
330
C9
100
AcDbEntity
  8
0
100
AcDbViewport
 10
0.0
 20
0.0
 30
0.0
 40
205.6
 41
156.0
 68
     1
 69
     1
 12
0.0
 22
72.5
 13
0.0
 23
0.0
 14
10.0
 24
10.0
 15
10.0
 25
10.0
 16
0.0
 26
0.0
 36
1.0
 17
0.0
 27
0.0
 37
0.0
 42
50.0
 43
0.0
 44
0.0
 45
270.8754863813
 50
0.0
 51
0.0
 72
   100
 90
   557152
  1

281
     0
 71
     1
 74
     0
110
0.0
120
0.0
130
0.0
111
1.0
121
0.0
131
0.0
112
0.0
122
1.0
132
0.0
 79
     0
146
0.0
  0
ENDBLK
  5
CC
330
C9
100
AcDbEntity
  8
0
100
AcDbBlockEnd
  0
BLOCK
  5
DB
330
D9
100
AcDbEntity
  8
0
100
AcDbBlockBegin
  2
*Paper_Space7
 70
     0
 10
0.0
 20
0.0
 30
0.0
  3
*Paper_Space7
  1

  0
SPLINE
  5
DD
330
D9
100
AcDbEntity
  8
0
  6
Continuous
 62
     7
370
    25
100
AcDbSpline
210
0.0
220
0.0
230
1.0
 70
     8
 71
     3
 72
    34
 73
    30
 74
     0
 42
0.000000001
 43
0.00000001
 40
0.0
 40
0.0
 40
0.0
 40
0.0
 40
0.01565719279658
 40
0.0489089221647843
 40
0.0820732433094583
 40
0.1153403766540014
 40
0.1488895160837821
 40
0.1828588595070021
 40
0.2173415059136254
 40
0.2523955112204214
 40
0.2880514806256574
 40
0.3243186938417158
 40
0.3611901963126165
 40
0.3986470620935229
 40
0.4366619351537644
 40
0.4752019205641165
 40
0.5142308900001656
 40
0.5537112687170389
 40
0.5936053747384396
 40
0.6338763819049554
 40
0.674488975864803
 40
0.7154097665743397
 40
0.7566075133882814
 40
0.7980532103849087
 40
0.839720071046922
 40
0.8815834434198251
 40
0.9236206797698215
 40
0.9658109787320838
 40
1.0
 40
1.0
 40
1.0
 40
1.0
 10
150.9967201992256
 20
110.5544349818143
 30
0.0
 10
151.0018575727887
 20
110.5613374831494
 30
0.0
 10
151.0179053667319
 20
110.5828990686091
 30
0.0
 10
150.8329787944756
 20
110.3568229495528
 30
0.0
 10
150.4169131042214
 20
109.9221692226007
 30
0.0
 10
149.7409057762271
 20
109.2881460020429
 30
0.0
 10
148.8017133955712
 20
108.4956757718415
 30
0.0
 10
147.5814417371365
 20
107.5607326629722
 30
0.0
 10
146.0691522321381
 20
106.5038170212431
 30
0.0
 10
144.2553120650017
 20
105.3427387362154
 30
0.0
 10
142.1334301845108
 20
104.0949115914161
 30
0.0
 10
139.699605910873
 20
102.7768374489401
 30
0.0
 10
136.9525510116148
 20
101.4042563515084
 30
0.0
 10
133.8933964345623
 20
99.99206534572359
 30
0.0
 10
130.5254943203867
 20
98.55428788635042
 30
0.0
 10
126.8541816632601
 20
97.1040375118701
 30
0.0
 10
122.8865375336945
 20
95.65350191000675
 30
0.0
 10
118.6311439333165
 20
94.2139436178247
 30
0.0
 10
114.0978611923914
 20
92.79571756280468
 30
0.0
 10
109.2976249559456
 20
91.40830121261112
 30
0.0
 10
104.2422643077621
 20
90.06033677736738
 30
0.0
 10
98.94435591587855
 20
88.75967072727732
 30
0.0
 10
93.417059882018
 20
87.51342969054572
 30
0.0
 10
87.6741365214446
 20
86.3279712258026
 30
0.0
 10
81.72938333385495
 20
85.20930644777138
 30
0.0
 10
75.59834200053936
 20
84.16173973669483
 30
0.0
 10
69.29154878464898
 20
83.19319594499424
 30
0.0
 10
63.25435954163472
 20
82.35312894557612
 30
0.0
 10
59.26888388068973
 20
81.87851915748206
 30
0.0
 10
57.48489952832605
 20
81.66607364094422
 30
0.0
  0
SPLINE
  5
DE
330
D9
100
AcDbEntity
  8
0
  6
Continuous
 62
     7
370
    25
100
AcDbSpline
210
0.0
220
0.0
230
1.0
 70
     8
 71
     3
 72
    34
 73
    30
 74
     0
 42
0.000000001
 43
0.00000001
 40
0.0
 40
0.0
 40
0.0
 40
0.0
 40
0.04092215501396
 40
0.0829592413593595
 40
0.1248710683295912
 40
0.1666397239802717
 40
0.208245762328091
 40
0.2496680279828117
 40
0.2908834883027531
 40
0.3318670835958754
 40
0.3725916105580512
 40
0.4130276601664932
 40
0.4531436388179672
 40
0.4929059107142788
 40
0.5322791102672821
 40
0.5712266852437153
 40
0.6097117436776622
 40
0.6476982888385827
 40
0.6851529346432915
 40
0.7220471960354876
 40
0.7583604418439219
 40
0.7940835788734809
 40
0.82922350557752
 40
0.8638083382183898
 40
0.8978933907733605
 40
0.9315679197445005
 40
0.9649627890518768
 40
0.9982595602303725
 40
1.0
 40
1.0
 40
1.0
 40
1.0
 10
-56.25619782967094
 20
81.51727934806127
 30
0.0
 10
-58.40974815185481
 20
81.77241495209145
 30
0.0
 10
-62.77552265460596
 20
82.28963737468587
 30
0.0
 10
-69.19700283884171
 20
83.17869700091507
 30
0.0
 10
-75.53538209770343
 20
84.15150210912306
 30
0.0
 10
-81.70206271612965
 20
85.20415473568038
 30
0.0
 10
-87.68506937806366
 20
86.32989598067033
 30
0.0
 10
-93.46903396636289
 20
87.52436848228078
 30
0.0
 10
-99.0397997204559
 20
88.78182961052427
 30
0.0
 10
-104.383254512297
 20
90.0960904549796
 30
0.0
 10
-109.4857172586451
 20
91.46018662476344
 30
0.0
 10
-114.3339312311707
 20
92.866377321415
 30
0.0
 10
-118.9151874291422
 20
94.30604845950879
 30
0.0
 10
-123.2174448600118
 20
95.76963415000964
 30
0.0
 10
-127.2294895551343
 20
97.24652888671636
 30
0.0
 10
-130.9411278522662
 20
98.72500212369916
 30
0.0
 10
-134.3434210137846
 20
100.1921181300714
 30
0.0
 10
-137.4289643045577
 20
101.6336694803839
 30
0.0
 10
-140.1922091383632
 20
103.0341294892256
 30
0.0
 10
-142.6298326025802
 20
104.3766446533119
 30
0.0
 10
-144.7411163990647
 20
105.6430349532722
 30
0.0
 10
-146.5284240440755
 20
106.813960569992
 30
0.0
 10
-147.9973711629327
 20
107.8687041558902
 30
0.0
 10
-149.1580540322146
 20
108.7865720505114
 30
0.0
 10
-150.0222335298223
 20
109.5425587855303
 30
0.0
 10
-150.6150091592593
 20
110.1240336138841
 30
0.0
 10
-150.9329915904747
 20
110.4701627046234
 30
0.0
 10
-151.0469538430932
 20
110.6246383669251
 30
0.0
 10
-151.0174948006754
 20
110.5818739860902
 30
0.0
 10
-151.0160314510647
 20
110.5797497065853
 30
0.0
  0
LWPOLYLINE
  5
E1
330
D9
100
AcDbEntity
  8
0
  6
Continuous
 62
     7
370
    25
100
AcDbPolyline
 90
      141
 70
   128
 43
0.0
 10
61.8718433396
 20
191.2731479127
 10
69.1538035557
 20
190.2929138278
 10
76.2964972146
 20
189.2047654701
 10
83.2855398819
 20
188.0108942257
 10
90.1068565557
 20
186.7137043924
 10
96.7467100121
 20
185.3158083379
 10
103.1917284697
 20
183.8200212387
 10
109.4289325193
 20
182.229355411
 10
115.4457612619
 20
180.5470142442
 10
121.2300976051
 20
178.7763857494
 10
126.7702926654
 20
176.9210357367
 10
132.0551892272
 20
174.9847006343
 10
137.0741442121
 20
172.9712799633
 10
141.8170501127
 20
170.884828485
 10
146.2743553478
 20
168.7295480349
 10
150.4370834979
 20
166.5097790611
 10
154.2968513823
 20
164.2299918829
 10
157.8458859422
 20
161.8947776883
 10
161.0770398945
 20
159.5088392878
 10
163.9838061249
 20
157.076981644
 10
166.5603307932
 20
154.6041021943
 10
168.8014251215
 20
152.095180989
 10
170.7025758442
 20
149.5552706615
 10
172.2599542967
 20
146.9894862532
 10
173.4704241261
 20
144.4029949123
 10
174.3315476071
 20
141.8010054882
 10
174.8415905518
 20
139.1887580414
 10
174.9995258015
 20
136.5715132906
 10
174.8050352956
 20
133.9545420183
 10
174.2585107122
 20
131.3431144565
 10
173.361052679
 20
128.7424896727
 10
172.114468557
 20
126.1579049792
 10
170.5212688007
 20
123.5945653855
 10
168.5846619026
 20
121.0576331165
 10
166.308547931
 20
118.5522172161
 10
163.6975106767
 20
116.0833632585
 10
160.7568084212
 20
113.656043187
 10
157.4923633475
 20
111.2751453013
 10
153.9107496135
 20
108.9454644128
 10
150.0191801126
 20
106.6716921887
 10
145.8254919479
 20
104.4584077038
 10
141.3381306493
 20
102.3100682184
 10
136.5661331651
 20
100.2310002024
 10
131.5191096634
 20
98.225390622
 10
126.2072241777
 20
96.297278508
 10
120.6411741386
 20
94.4505468217
 10
114.8321688299
 20
92.6889146349
 10
108.7919068154
 20
91.0159296403
 10
102.5325523789
 20
89.4349610071
 10
96.0667110272
 20
87.9491925958
 10
89.4074041042
 20
86.5616165461
 10
82.568042568
 20
85.2750272516
 10
75.5623999825
 20
84.0920157319
 10
68.4045847794
 20
83.0149644148
 10
61.109011846
 20
82.0460423382
 10
53.6903734953
 20
81.1872007823
 10
46.1636098777
 20
80.4401693397
 10
38.5438788933
 20
79.8064524323
 10
30.8465256664
 20
79.2873262816
 10
23.0870516419
 20
78.8838363385
 10
15.2810833679
 20
78.5967951782
 10
7.4443410256
 20
78.4267808634
 10
-0.4073932287
 20
78.3741357802
 10
-8.2583070474
 20
78.4389659488
 10
-16.0925897346
 20
78.6211408099
 10
-23.8944640878
 20
78.9202934876
 10
-31.6482181703
 20
79.3358215281
 10
-39.3382369532
 20
79.8668881134
 10
-46.9490337621
 20
80.512423746
 10
-54.4652814651
 20
81.271128403
 10
-61.8718433396
 20
82.1414741542
 10
-69.1538035557
 20
83.1217082391
 10
-76.2964972146
 20
84.2098565968
 10
-83.2855398819
 20
85.4037278412
 10
-90.1068565557
 20
86.7009176745
 10
-96.7467100121
 20
88.0988137291
 10
-103.1917284697
 20
89.5946008283
 10
-109.4289325193
 20
91.1852666559
 10
-115.4457612619
 20
92.8676078228
 10
-121.2300976051
 20
94.6382363176
 10
-126.7702926654
 20
96.4935863302
 10
-132.0551892272
 20
98.4299214326
 10
-137.0741442121
 20
100.4433421036
 10
-141.8170501127
 20
102.529793582
 10
-146.2743553478
 20
104.685074032
 10
-150.4370834979
 20
106.9048430058
 10
-154.2968513823
 20
109.184630184
 10
-157.8458859422
 20
111.5198443786
 10
-161.0770398945
 20
113.9057827791
 10
-163.9838061249
 20
116.337640423
 10
-166.5603307932
 20
118.8105198726
 10
-168.8014251215
 20
121.3194410779
 10
-170.7025758442
 20
123.8593514054
 10
-172.2599542967
 20
126.4251358138
 10
-173.4704241261
 20
129.0116271547
 10
-174.3315476071
 20
131.6136165787
 10
-174.8415905518
 20
134.2258640255
 10
-174.9995258015
 20
136.8431087763
 10
-174.8050352956
 20
139.4600800486
 10
-174.2585107122
 20
142.0715076104
 10
-173.361052679
 20
144.6721323942
 10
-172.114468557
 20
147.2567170877
 10
-170.5212688007
 20
149.8200566814
 10
-168.5846619026
 20
152.3569889504
 10
-166.308547931
 20
154.8624048508
 10
-163.6975106767
 20
157.3312588084
 10
-160.7568084212
 20
159.7585788799
 10
-157.4923633475
 20
162.1394767656
 10
-153.9107496135
 20
164.4691576542
 10
-150.0191801126
 20
166.7429298782
 10
-145.8254919479
 20
168.9562143631
 10
-141.3381306493
 20
171.1045538485
 10
-136.5661331651
 20
173.1836218646
 10
-131.5191096634
 20
175.1892314449
 10
-126.2072241777
 20
177.1173435589
 10
-120.6411741386
 20
178.9640752452
 10
-114.8321688299
 20
180.725707432
 10
-108.7919068154
 20
182.3986924266
 10
-102.5325523789
 20
183.9796610598
 10
-96.0667110272
 20
185.4654294711
 10
-89.4074041042
 20
186.8530055208
 10
-82.568042568
 20
188.1395948153
 10
-75.5623999825
 20
189.322606335
 10
-68.4045847794
 20
190.3996576522
 10
-61.109011846
 20
191.3685797288
 10
-53.6903734953
 20
192.2274212846
 10
-46.1636098777
 20
192.9744527273
 10
-38.5438788933
 20
193.6081696347
 10
-30.8465256664
 20
194.1272957854
 10
-23.0870516419
 20
194.5307857284
 10
-15.2810833679
 20
194.8178268887
 10
-7.4443410256
 20
194.9878412035
 10
0.4073932287
 20
195.0404862868
 10
8.2583070474
 20
194.9756561181
 10
16.0925897346
 20
194.793481257
 10
23.8944640878
 20
194.4943285794
 10
31.6482181703
 20
194.0788005388
 10
39.3382369532
 20
193.5477339535
 10
46.9490337621
 20
192.902198321
 10
54.4652814651
 20
192.1434936639
 10
61.8718433396
 20
191.2731479127
  0
LWPOLYLINE
  5
E2
330
D9
100
AcDbEntity
  8
0
  6
Continuous
 62
     7
370
    25
100
AcDbPolyline
 90
       59
 70
   128
 43
0.0
 10
131.7866405571
 20
-4.576890873
 10
131.3886348254
 20
-5.7084405205
 10
130.3328350762
 20
-7.9554460782
 10
128.9314160783
 20
-10.1813552231
 10
127.1880941429
 20
-12.3802652442
 10
125.1074922464
 20
-14.5463450274
 10
122.695127771
 20
-16.6738505187
 10
119.9573978736
 20
-18.7571399558
 10
116.9015625217
 20
-20.7906888297
 10
113.5357252414
 20
-22.7691045344
 10
109.8688116281
 20
-24.687140667
 10
105.9105456773
 20
-26.5397109406
 10
101.671423999
 20
-28.3219026718
 10
97.1626879816
 20
-30.0289898086
 10
92.3962939826
 20
-31.6564454627
 10
87.384881622
 20
-33.1999539143
 10
82.1417402646
 20
-34.6554220564
 10
76.6807737785
 20
-36.0189902492
 10
71.0164636652
 20
-37.2870425551
 10
65.1638306569
 20
-38.4562163271
 10
59.1383948842
 20
-39.5234111267
 10
52.9561347195
 20
-40.4857969451
 10
46.6334444055
 20
-41.3408217082
 10
40.1870905802
 20
-42.0862180439
 10
33.634167815
 20
-42.7200092951
 10
26.9920532833
 20
-43.2405147615
 10
20.2783606786
 20
-43.646354156
 10
13.5108935068
 20
-43.9364512657
 10
6.7075978742
 20
-44.110036805
 10
-0.113485102
 20
-44.1666504563
 10
-6.9342671362
 20
-44.1061420905
 10
-13.7366607405
 20
-43.9286721648
 10
-20.50262719
 20
-43.6347112975
 10
-27.2142243579
 20
-43.2250390201
 10
-33.8536542951
 20
-42.7007417097
 10
-40.403310427
 20
-42.0632097087
 10
-46.8458242429
 20
-41.3141336372
 10
-53.1641113543
 20
-40.4554999103
 10
-59.3414167998
 20
-39.4895854703
 10
-65.3613594757
 20
-38.4189517486
 10
-71.2079755762
 20
-37.2464378735
 10
-76.8657609266
 20
-35.975153141
 10
-82.3197120971
 20
-34.6084687695
 10
-87.5553661897
 20
-33.1500089604
 10
-92.558839191
 20
-31.6036412869
 10
-97.31686279
 20
-29.9734664381
 10
-101.8168195635
 20
-28.2638073447
 10
-106.0467764351
 20
-26.4791977151
 10
-109.9955163196
 20
-24.6243700134
 10
-113.6525678686
 20
-22.704242909
 10
-117.008233239
 20
-20.7239082341
 10
-120.0536138094
 20
-18.68861748
 10
-122.7806337779
 20
-16.603767872
 10
-125.1820615779
 20
-14.4748880565
 10
-127.2515290545
 20
-12.3076234399
 10
-128.983548352
 20
-10.1077212186
 10
-130.3735264666
 20
-7.8810151376
 10
-131.4177774262
 20
-5.6334100213
 10
-131.7866405571
 20
-4.576890873
  0
LWPOLYLINE
  5
E3
330
D9
100
AcDbEntity
  8
0
  6
Continuous
 62
    60
370
    25
100
AcDbPolyline
 90
       30
 70
   128
 43
0.0
 10
53.9112037806
 20
165.396342897
 10
60.6878505966
 20
164.4800767854
 10
67.3249134115
 20
163.4565626025
 10
73.807126768
 20
162.3281544636
 10
80.1195813678
 20
161.0974477436
 10
86.2477583629
 20
159.7672731074
 10
92.17756275
 20
158.3406899993
 10
97.8953557889
 20
156.8209796061
 10
103.3879863724
 20
155.2116373106
 10
108.6428212741
 20
153.5163646514
 10
113.6477742054
 20
151.7390608101
 10
118.3913336141
 20
149.8838136424
 10
122.8625891616
 20
147.9548902764
 10
127.0512568168
 20
145.9567272974
 10
130.9477025099
 20
143.8939205445
 10
134.542964291
 20
141.7712145392
 10
137.8287729428
 20
139.5934915735
 10
140.797571
 20
137.3657604798
 10
143.4425301319
 20
135.0931451112
 10
145.7575668479
 20
132.7808725557
 10
147.7373564893
 20
130.4342611144
 10
149.3773454764
 20
128.0587080687
 10
150.6737617821
 20
125.6596772668
 10
151.6236236072
 20
123.2426865565
 10
152.2247462393
 20
120.8132950938
 10
152.4757470768
 20
118.3770905569
 10
152.37604881
 20
115.9396762943
 10
151.9258807479
 20
113.5066584369
 10
151.1262782915
 20
111.0836330039
 10
150.698133727
 20
110.0950168689
  0
LWPOLYLINE
  5
E4
330
D9
100
AcDbEntity
  8
0
  6
Continuous
 62
    60
370
    25
100
AcDbPolyline
 90
       45
 70
   128
 43
0.0
 10
-150.7050219056
 20
110.1099019936
 10
-151.1921672988
 20
111.2491801308
 10
-151.9678825807
 20
113.6730681951
 10
-152.3940668628
 20
116.1065659359
 10
-152.4697399076
 20
118.5440762304
 10
-152.1947276647
 20
120.9799927268
 10
-151.5696626709
 20
123.4087127391
 10
-150.5959825959
 20
125.8246501335
 10
-149.275926935
 20
128.2222481766
 10
-147.6125318586
 20
130.5959923159
 10
-145.6096232286
 20
132.940422864
 10
-143.271807799
 20
135.2501475554
 10
-140.6044626202
 20
137.5198539494
 10
-137.6137226718
 20
139.7443216484
 10
-134.3064667512
 20
141.9184343055
 10
-130.6903016533
 20
144.0371913919
 10
-126.7735446735
 20
146.0957196985
 10
-122.5652044784
 20
148.0892845441
 10
-118.0749603854
 20
150.0133006657
 10
-113.3131400998
 20
151.8633427646
 10
-108.2906959607
 20
153.6351556846
 10
-103.0191797507
 20
155.3246641994
 10
-97.510716126
 20
156.9279823851
 10
-91.7779747294
 20
158.4414225585
 10
-85.8341410499
 20
159.8615037588
 10
-79.6928860954
 20
161.1849597536
 10
-73.368334949
 20
162.4087465518
 10
-66.8750342812
 20
163.5300494046
 10
-60.2279188915
 20
164.5462892794
 10
-53.4422773582
 20
165.4551287919
 10
-46.5337168745
 20
166.2544775822
 10
-39.5181273508
 20
166.9424971224
 10
-32.4116448678
 20
167.5176049455
 10
-25.230614563
 20
167.9784782852
 10
-17.9915530361
 20
168.3240571178
 10
-10.7111103607
 20
168.5535466012
 10
-3.4060317882
 20
168.666418902
 10
3.9068807665
 20
168.6624144105
 10
11.2108073703
 20
168.541542337
 10
18.4889487578
 20
168.3040806912
 10
25.7245649708
 20
167.9505756424
 10
32.9010138599
 20
167.4818402637
 10
40.0017893628
 20
166.8989526614
 10
47.0105594684
 20
166.2032534957
 10
53.9112037806
 20
165.396342897
  0
LINE
  5
E5
330
D9
100
AcDbEntity
  8
0
  6
Continuous
 62
     7
370
    25
100
AcDbLine
 10
-174.0578271509
 20
130.6623608238
 30
0.0
 11
-131.7866405571
 21
-4.576890873
 31
0.0
  0
LINE
  5
E6
330
D9
100
AcDbEntity
  8
0
  6
Continuous
 62
     7
370
    25
100
AcDbLine
 10
131.7866405571
 20
-4.576890873
 30
0.0
 11
174.0578271509
 21
130.6623608238
 31
0.0
  0
VIEWPORT
  5
F7
330
D9
100
AcDbEntity
  8
0
100
AcDbViewport
 10
0.0
 20
0.0
 30
0.0
 40
205.6
 41
156.0
 68
     1
 69
     1
 12
0.0
 22
72.5
 13
0.0
 23
0.0
 14
10.0
 24
10.0
 15
10.0
 25
10.0
 16
0.0
 26
0.0
 36
1.0
 17
0.0
 27
0.0
 37
0.0
 42
50.0
 43
0.0
 44
0.0
 45
270.8754863813
 50
0.0
 51
0.0
 72
   100
 90
   557152
  1

281
     0
 71
     1
 74
     0
110
0.0
120
0.0
130
0.0
111
1.0
121
0.0
131
0.0
112
0.0
122
1.0
132
0.0
 79
     0
146
0.0
  0
ENDBLK
  5
DC
330
D9
100
AcDbEntity
  8
0
100
AcDbBlockEnd
  0
ENDSEC
  0
SECTION
  2
ENTITIES
  0
LINE
  5
77
330
1F
100
AcDbEntity
  8
0
  6
Continuous
 62
     7
370
    25
100
AcDbLine
 10
-175.0
 20
145.0
 30
0.0
 11
-132.5
 21
0.0
 31
0.0
  0
LINE
  5
78
330
1F
100
AcDbEntity
  8
0
  6
Continuous
 62
     7
370
    25
100
AcDbLine
 10
132.5
 20
0.0
 30
0.0
 11
175.0
 21
145.0
 31
0.0
  0
LINE
  5
79
330
1F
100
AcDbEntity
  8
0
  6
Continuous
 62
     7
370
    25
100
AcDbLine
 10
175.0
 20
145.0
 30
0.0
 11
-175.0
 21
145.0
 31
0.0
  0
LINE
  5
7A
330
1F
100
AcDbEntity
  8
0
  6
Continuous
 62
     7
370
    25
100
AcDbLine
 10
132.5
 20
0.0
 30
0.0
 11
-132.5
 21
0.0
 31
0.0
  0
CIRCLE
  5
7B
330
1B
100
AcDbEntity
 67
     1
  8
0
  6
Continuous
 62
     7
370
    25
100
AcDbCircle
 10
0.0
 20
0.0
 30
0.0
 40
152.4839111358808
  0
CIRCLE
  5
7C
330
1B
100
AcDbEntity
 67
     1
  8
0
  6
Continuous
 62
     7
370
    25
100
AcDbCircle
 10
0.0
 20
0.0
 30
0.0
 40
174.9999999999999
  0
CIRCLE
  5
7D
330
1B
100
AcDbEntity
 67
     1
  8
0
  6
Continuous
 62
     7
370
    25
100
AcDbCircle
 10
0.0
 20
0.0
 30
0.0
 40
31.00000000000001
  0
CIRCLE
  5
7E
330
1B
100
AcDbEntity
 67
     1
  8
0
  6
Continuous
 62
     7
370
    25
100
AcDbCircle
 10
0.0
 20
0.0
 30
0.0
 40
22.99999999999999
  0
VIEWPORT
  5
E7
330
1B
100
AcDbEntity
 67
     1
  8
0
100
AcDbViewport
 10
0.0
 20
0.0
 30
0.0
 40
205.6
 41
156.0
 68
     1
 69
     1
 12
0.0
 22
72.5
 13
0.0
 23
0.0
 14
10.0
 24
10.0
 15
10.0
 25
10.0
 16
0.0
 26
0.0
 36
1.0
 17
0.0
 27
0.0
 37
0.0
 42
50.0
 43
0.0
 44
0.0
 45
270.8754863813
 50
0.0
 51
0.0
 72
   100
 90
   557152
  1

281
     0
 71
     1
 74
     0
110
0.0
120
0.0
130
0.0
111
1.0
121
0.0
131
0.0
112
0.0
122
1.0
132
0.0
 79
     0
146
0.0
  0
ENDSEC
  0
SECTION
  2
OBJECTS
  0
DICTIONARY
  5
C
330
0
100
AcDbDictionary
281
     1
  3
ACAD_GROUP
350
D
  3
ACAD_LAYOUT
350
1A
  3
ACAD_MLINESTYLE
350
17
  3
ACAD_PLOTSETTINGS
350
19
  3
ACAD_PLOTSTYLENAME
350
E
  3
ACAD_SCALELIST
350
47
  0
DICTIONARY
  5
D
102
{ACAD_REACTORS
330
C
102
}
330
C
100
AcDbDictionary
281
     1
  0
DICTIONARY
  5
1A
102
{ACAD_REACTORS
330
C
102
}
330
C
100
AcDbDictionary
281
     1
  3
_Dimetrisch
350
DA
  3
_Isometrisch
350
B5
  3
_Links
350
96
  3
_Normal auf
350
26
  3
_Oben
350
1E
  3
_Rechts
350
A2
  3
_Rückseite
350
88
  3
_Trimetrisch
350
CA
  3
_Unten
350
AE
  3
Model
350
22
  0
DICTIONARY
  5
17
102
{ACAD_REACTORS
330
C
102
}
330
C
100
AcDbDictionary
281
     1
  3
Standard
350
18
  0
DICTIONARY
  5
19
102
{ACAD_REACTORS
330
C
102
}
330
C
100
AcDbDictionary
281
     1
  0
ACDBDICTIONARYWDFLT
  5
E
102
{ACAD_REACTORS
330
C
102
}
330
C
100
AcDbDictionary
281
     1
  3
Normal
350
F
100
AcDbDictionaryWithDefault
340
F
  0
DICTIONARY
  5
47
102
{ACAD_REACTORS
330
C
102
}
330
C
100
AcDbDictionary
281
     1
  3
A0
350
48
  3
A1
350
49
  3
A2
350
4A
  3
A3
350
4B
  3
A4
350
4C
  3
A5
350
4D
  3
A6
350
4E
  3
A7
350
4F
  3
A8
350
50
  3
A9
350
51
  3
B0
350
52
  3
B1
350
53
  3
B2
350
54
  3
B3
350
55
  3
B4
350
56
  3
B5
350
57
  3
B6
350
58
  3
B7
350
59
  3
B8
350
5A
  3
B9
350
5B
  3
C0
350
5C
  3
C1
350
5D
  3
C2
350
5E
  3
C3
350
5F
  3
C4
350
60
  3
C5
350
61
  3
C6
350
62
  3
C7
350
63
  3
C8
350
64
  3
C9
350
65
  3
D0
350
66
  3
D1
350
67
  3
D2
350
68
  0
LAYOUT
  5
DA
102
{ACAD_REACTORS
330
1A
102
}
330
1A
100
AcDbPlotSettings
  1

  2
none_device
  4
ISO_A4_(210.00_x_297.00_MM)
  6

 40
7.5
 41
20.0
 42
7.5
 43
20.0
 44
210.0
 45
297.0
 46
0.0
 47
0.0
 48
0.0
 49
0.0
140
0.0
141
0.0
142
1.0
143
1.7948717949
 70
   688
 72
     1
 73
     1
 74
     1
  7

 75
     0
147
0.5571428571
148
175.0
149
175.0
100
AcDbLayout
  1
_Dimetrisch
 70
     1
 71
     9
 10
0.0
 20
0.0
 11
0.0
 21
0.0
 12
0.0
 22
0.0
 32
0.0
 14
0.0
 24
0.0
 34
0.0
 15
0.0
 25
0.0
 35
0.0
146
0.0
 13
0.0
 23
0.0
 33
0.0
 16
1.0
 26
0.0
 36
0.0
 17
0.0
 27
1.0
 37
0.0
 76
     0
330
D9
331
F7
  0
LAYOUT
  5
B5
102
{ACAD_REACTORS
330
1A
102
}
330
1A
100
AcDbPlotSettings
  1

  2
none_device
  4
ISO_A4_(210.00_x_297.00_MM)
  6

 40
7.5
 41
20.0
 42
7.5
 43
20.0
 44
210.0
 45
297.0
 46
0.0
 47
0.0
 48
0.0
 49
0.0
140
0.0
141
0.0
142
1.0
143
1.7948717949
 70
   688
 72
     1
 73
     1
 74
     1
  7

 75
     0
147
0.5571428571
148
175.0
149
175.0
100
AcDbLayout
  1
_Isometrisch
 70
     1
 71
     7
 10
0.0
 20
0.0
 11
0.0
 21
0.0
 12
0.0
 22
0.0
 32
0.0
 14
0.0
 24
0.0
 34
0.0
 15
0.0
 25
0.0
 35
0.0
146
0.0
 13
0.0
 23
0.0
 33
0.0
 16
1.0
 26
0.0
 36
0.0
 17
0.0
 27
1.0
 37
0.0
 76
     0
330
B4
331
F3
  0
LAYOUT
  5
96
102
{ACAD_REACTORS
330
1A
102
}
330
1A
100
AcDbPlotSettings
  1

  2
none_device
  4
ISO_A4_(210.00_x_297.00_MM)
  6

 40
7.5
 41
20.0
 42
7.5
 43
20.0
 44
210.0
 45
297.0
 46
0.0
 47
0.0
 48
0.0
 49
0.0
140
0.0
141
0.0
142
1.0
143
1.7948717949
 70
   688
 72
     1
 73
     1
 74
     1
  7

 75
     0
147
0.5571428571
148
175.0
149
175.0
100
AcDbLayout
  1
_Links
 70
     1
 71
     4
 10
0.0
 20
0.0
 11
0.0
 21
0.0
 12
0.0
 22
0.0
 32
0.0
 14
0.0
 24
0.0
 34
0.0
 15
0.0
 25
0.0
 35
0.0
146
0.0
 13
0.0
 23
0.0
 33
0.0
 16
1.0
 26
0.0
 36
0.0
 17
0.0
 27
1.0
 37
0.0
 76
     0
330
95
331
ED
  0
LAYOUT
  5
26
102
{ACAD_REACTORS
330
1A
102
}
330
1A
100
AcDbPlotSettings
  1

  2
none_device
  4
ISO_A4_(210.00_x_297.00_MM)
  6

 40
7.5
 41
20.0
 42
7.5
 43
20.0
 44
210.0
 45
297.0
 46
0.0
 47
0.0
 48
0.0
 49
0.0
140
0.0
141
0.0
142
1.0
143
1.7948717949
 70
   688
 72
     1
 73
     1
 74
     1
  7

 75
     0
147
0.5571428571
148
175.0
149
175.0
100
AcDbLayout
  1
_Normal auf
 70
     1
 71
     2
 10
0.0
 20
0.0
 11
0.0
 21
0.0
 12
0.0
 22
0.0
 32
0.0
 14
0.0
 24
0.0
 34
0.0
 15
0.0
 25
0.0
 35
0.0
146
0.0
 13
0.0
 23
0.0
 33
0.0
 16
1.0
 26
0.0
 36
0.0
 17
0.0
 27
1.0
 37
0.0
 76
     0
330
23
331
E9
  0
LAYOUT
  5
1E
102
{ACAD_REACTORS
330
1A
102
}
330
1A
100
AcDbPlotSettings
  1

  2
none_device
  4
ISO_A4_(210.00_x_297.00_MM)
  6

 40
7.5
 41
20.0
 42
7.5
 43
20.0
 44
210.0
 45
297.0
 46
0.0
 47
0.0
 48
0.0
 49
0.0
140
0.0
141
0.0
142
1.0
143
1.7948717949
 70
   688
 72
     1
 73
     1
 74
     1
  7

 75
     0
147
0.5571428571
148
175.0
149
175.0
100
AcDbLayout
  1
_Oben
 70
     1
 71
     1
 10
-210.8974358974
 20
-188.4615384615
 11
322.1794871795
 21
188.4615384615
 12
0.0
 22
0.0
 32
0.0
 14
-175.0
 24
-175.0
 34
0.0
 15
175.0
 25
175.0
 35
0.0
146
0.0
 13
0.0
 23
0.0
 33
0.0
 16
1.0
 26
0.0
 36
0.0
 17
0.0
 27
1.0
 37
0.0
 76
     0
330
1B
331
E7
  0
LAYOUT
  5
A2
102
{ACAD_REACTORS
330
1A
102
}
330
1A
100
AcDbPlotSettings
  1

  2
none_device
  4
ISO_A4_(210.00_x_297.00_MM)
  6

 40
7.5
 41
20.0
 42
7.5
 43
20.0
 44
210.0
 45
297.0
 46
0.0
 47
0.0
 48
0.0
 49
0.0
140
0.0
141
0.0
142
1.0
143
1.7948717949
 70
   688
 72
     1
 73
     1
 74
     1
  7

 75
     0
147
0.5571428571
148
175.0
149
175.0
100
AcDbLayout
  1
_Rechts
 70
     1
 71
     5
 10
0.0
 20
0.0
 11
0.0
 21
0.0
 12
0.0
 22
0.0
 32
0.0
 14
0.0
 24
0.0
 34
0.0
 15
0.0
 25
0.0
 35
0.0
146
0.0
 13
0.0
 23
0.0
 33
0.0
 16
1.0
 26
0.0
 36
0.0
 17
0.0
 27
1.0
 37
0.0
 76
     0
330
A1
331
EF
  0
LAYOUT
  5
88
102
{ACAD_REACTORS
330
1A
102
}
330
1A
100
AcDbPlotSettings
  1

  2
none_device
  4
ISO_A4_(210.00_x_297.00_MM)
  6

 40
7.5
 41
20.0
 42
7.5
 43
20.0
 44
210.0
 45
297.0
 46
0.0
 47
0.0
 48
0.0
 49
0.0
140
0.0
141
0.0
142
1.0
143
1.7948717949
 70
   688
 72
     1
 73
     1
 74
     1
  7

 75
     0
147
0.5571428571
148
175.0
149
175.0
100
AcDbLayout
  1
_Rückseite
 70
     1
 71
     3
 10
0.0
 20
0.0
 11
0.0
 21
0.0
 12
0.0
 22
0.0
 32
0.0
 14
0.0
 24
0.0
 34
0.0
 15
0.0
 25
0.0
 35
0.0
146
0.0
 13
0.0
 23
0.0
 33
0.0
 16
1.0
 26
0.0
 36
0.0
 17
0.0
 27
1.0
 37
0.0
 76
     0
330
87
331
EB
  0
LAYOUT
  5
CA
102
{ACAD_REACTORS
330
1A
102
}
330
1A
100
AcDbPlotSettings
  1

  2
none_device
  4
ISO_A4_(210.00_x_297.00_MM)
  6

 40
7.5
 41
20.0
 42
7.5
 43
20.0
 44
210.0
 45
297.0
 46
0.0
 47
0.0
 48
0.0
 49
0.0
140
0.0
141
0.0
142
1.0
143
1.7948717949
 70
   688
 72
     1
 73
     1
 74
     1
  7

 75
     0
147
0.5571428571
148
175.0
149
175.0
100
AcDbLayout
  1
_Trimetrisch
 70
     1
 71
     8
 10
0.0
 20
0.0
 11
0.0
 21
0.0
 12
0.0
 22
0.0
 32
0.0
 14
0.0
 24
0.0
 34
0.0
 15
0.0
 25
0.0
 35
0.0
146
0.0
 13
0.0
 23
0.0
 33
0.0
 16
1.0
 26
0.0
 36
0.0
 17
0.0
 27
1.0
 37
0.0
 76
     0
330
C9
331
F5
  0
LAYOUT
  5
AE
102
{ACAD_REACTORS
330
1A
102
}
330
1A
100
AcDbPlotSettings
  1

  2
none_device
  4
ISO_A4_(210.00_x_297.00_MM)
  6

 40
7.5
 41
20.0
 42
7.5
 43
20.0
 44
210.0
 45
297.0
 46
0.0
 47
0.0
 48
0.0
 49
0.0
140
0.0
141
0.0
142
1.0
143
1.7948717949
 70
   688
 72
     1
 73
     1
 74
     1
  7

 75
     0
147
0.5571428571
148
175.0
149
175.0
100
AcDbLayout
  1
_Unten
 70
     1
 71
     6
 10
0.0
 20
0.0
 11
0.0
 21
0.0
 12
0.0
 22
0.0
 32
0.0
 14
0.0
 24
0.0
 34
0.0
 15
0.0
 25
0.0
 35
0.0
146
0.0
 13
0.0
 23
0.0
 33
0.0
 16
1.0
 26
0.0
 36
0.0
 17
0.0
 27
1.0
 37
0.0
 76
     0
330
AD
331
F1
  0
LAYOUT
  5
22
102
{ACAD_REACTORS
330
1A
102
}
330
1A
100
AcDbPlotSettings
  1

  2
none_device
  4
ANSI_A_(11.00_x_8.50_Inches)
  6

 40
6.35
 41
19.05
 42
6.35000508
 43
19.05000254
 44
279.4
 45
215.9
 46
133.34999746
 47
31.6030415871
 48
0.0
 49
0.0
140
0.0
141
0.0
142
0.0311142857
143
1.0
 70
  1696
 72
     0
 73
     0
 74
     0
  7

 75
     0
147
0.0179189148
148
-1300.4909072572
149
0.0
100
AcDbLayout
  1
Model
 70
     1
 71
     0
 10
0.0
 20
0.0
 11
420.0
 21
297.0
 12
0.0
 22
0.0
 32
0.0
 14
-175.0
 24
0.0
 34
0.0
 15
175.0
 25
145.0
 35
0.0
146
0.0
 13
0.0
 23
0.0
 33
0.0
 16
1.0
 26
0.0
 36
0.0
 17
0.0
 27
1.0
 37
0.0
 76
     0
330
1F
331
29
  0
MLINESTYLE
  5
18
102
{ACAD_REACTORS
330
17
102
}
330
17
100
AcDbMlineStyle
  2
Standard
 70
     0
  3

 62
   256
 51
90.0
 52
90.0
 71
     2
 49
0.5
 62
   256
  6
BYLAYER
 49
-0.5
 62
   256
  6
BYLAYER
  0
ACDBPLACEHOLDER
  5
F
102
{ACAD_REACTORS
330
E
102
}
330
E
  0
SCALE
  5
48
102
{ACAD_REACTORS
330
47
102
}
330
47
100
AcDbScale
 70
     0
300
1:1
140
1.0
141
1.0
290
     1
  0
SCALE
  5
49
102
{ACAD_REACTORS
330
47
102
}
330
47
100
AcDbScale
 70
     0
300
1:2
140
1.0
141
2.0
290
     0
  0
SCALE
  5
4A
102
{ACAD_REACTORS
330
47
102
}
330
47
100
AcDbScale
 70
     0
300
1:4
140
1.0
141
4.0
290
     0
  0
SCALE
  5
4B
102
{ACAD_REACTORS
330
47
102
}
330
47
100
AcDbScale
 70
     0
300
1:5
140
1.0
141
5.0
290
     0
  0
SCALE
  5
4C
102
{ACAD_REACTORS
330
47
102
}
330
47
100
AcDbScale
 70
     0
300
1:8
140
1.0
141
8.0
290
     0
  0
SCALE
  5
4D
102
{ACAD_REACTORS
330
47
102
}
330
47
100
AcDbScale
 70
     0
300
1:10
140
1.0
141
10.0
290
     0
  0
SCALE
  5
4E
102
{ACAD_REACTORS
330
47
102
}
330
47
100
AcDbScale
 70
     0
300
1:16
140
1.0
141
16.0
290
     0
  0
SCALE
  5
4F
102
{ACAD_REACTORS
330
47
102
}
330
47
100
AcDbScale
 70
     0
300
1:20
140
1.0
141
20.0
290
     0
  0
SCALE
  5
50
102
{ACAD_REACTORS
330
47
102
}
330
47
100
AcDbScale
 70
     0
300
1:30
140
1.0
141
30.0
290
     0
  0
SCALE
  5
51
102
{ACAD_REACTORS
330
47
102
}
330
47
100
AcDbScale
 70
     0
300
1:40
140
1.0
141
40.0
290
     0
  0
SCALE
  5
52
102
{ACAD_REACTORS
330
47
102
}
330
47
100
AcDbScale
 70
     0
300
1:50
140
1.0
141
50.0
290
     0
  0
SCALE
  5
53
102
{ACAD_REACTORS
330
47
102
}
330
47
100
AcDbScale
 70
     0
300
1:100
140
1.0
141
100.0
290
     0
  0
SCALE
  5
54
102
{ACAD_REACTORS
330
47
102
}
330
47
100
AcDbScale
 70
     0
300
2:1
140
2.0
141
1.0
290
     0
  0
SCALE
  5
55
102
{ACAD_REACTORS
330
47
102
}
330
47
100
AcDbScale
 70
     0
300
4:1
140
4.0
141
1.0
290
     0
  0
SCALE
  5
56
102
{ACAD_REACTORS
330
47
102
}
330
47
100
AcDbScale
 70
     0
300
8:1
140
8.0
141
1.0
290
     0
  0
SCALE
  5
57
102
{ACAD_REACTORS
330
47
102
}
330
47
100
AcDbScale
 70
     0
300
10:1
140
10.0
141
1.0
290
     0
  0
SCALE
  5
58
102
{ACAD_REACTORS
330
47
102
}
330
47
100
AcDbScale
 70
     0
300
100:1
140
100.0
141
1.0
290
     0
  0
SCALE
  5
59
102
{ACAD_REACTORS
330
47
102
}
330
47
100
AcDbScale
 70
     0
300
1/128" = 1'-0"
140
0.0078125
141
12.0
290
     0
  0
SCALE
  5
5A
102
{ACAD_REACTORS
330
47
102
}
330
47
100
AcDbScale
 70
     0
300
1/64" = 1'-0"
140
0.015625
141
12.0
290
     0
  0
SCALE
  5
5B
102
{ACAD_REACTORS
330
47
102
}
330
47
100
AcDbScale
 70
     0
300
1/32" = 1'-0"
140
0.03125
141
12.0
290
     0
  0
SCALE
  5
5C
102
{ACAD_REACTORS
330
47
102
}
330
47
100
AcDbScale
 70
     0
300
1/16" = 1'-0"
140
0.0625
141
12.0
290
     0
  0
SCALE
  5
5D
102
{ACAD_REACTORS
330
47
102
}
330
47
100
AcDbScale
 70
     0
300
3/32" = 1'-0"
140
0.09375
141
12.0
290
     0
  0
SCALE
  5
5E
102
{ACAD_REACTORS
330
47
102
}
330
47
100
AcDbScale
 70
     0
300
1/8" = 1'-0"
140
0.125
141
12.0
290
     0
  0
SCALE
  5
5F
102
{ACAD_REACTORS
330
47
102
}
330
47
100
AcDbScale
 70
     0
300
3/16" = 1'-0"
140
0.1875
141
12.0
290
     0
  0
SCALE
  5
60
102
{ACAD_REACTORS
330
47
102
}
330
47
100
AcDbScale
 70
     0
300
1/4" = 1'-0"
140
0.25
141
12.0
290
     0
  0
SCALE
  5
61
102
{ACAD_REACTORS
330
47
102
}
330
47
100
AcDbScale
 70
     0
300
3/8" = 1'-0"
140
0.375
141
12.0
290
     0
  0
SCALE
  5
62
102
{ACAD_REACTORS
330
47
102
}
330
47
100
AcDbScale
 70
     0
300
1/2" = 1'-0"
140
0.5
141
12.0
290
     0
  0
SCALE
  5
63
102
{ACAD_REACTORS
330
47
102
}
330
47
100
AcDbScale
 70
     0
300
3/4" = 1'-0"
140
0.75
141
12.0
290
     0
  0
SCALE
  5
64
102
{ACAD_REACTORS
330
47
102
}
330
47
100
AcDbScale
 70
     0
300
1" = 1'-0"
140
1.0
141
12.0
290
     0
  0
SCALE
  5
65
102
{ACAD_REACTORS
330
47
102
}
330
47
100
AcDbScale
 70
     0
300
1-1/2" = 1'-0"
140
1.5
141
12.0
290
     0
  0
SCALE
  5
66
102
{ACAD_REACTORS
330
47
102
}
330
47
100
AcDbScale
 70
     0
300
3" = 1'-0"
140
3.0
141
12.0
290
     0
  0
SCALE
  5
67
102
{ACAD_REACTORS
330
47
102
}
330
47
100
AcDbScale
 70
     0
300
6" = 1'-0"
140
6.0
141
12.0
290
     0
  0
SCALE
  5
68
102
{ACAD_REACTORS
330
47
102
}
330
47
100
AcDbScale
 70
     0
300
1'-0" = 1'-0"
140
12.0
141
12.0
290
     0
  0
ENDSEC
  0
EOF
