  0
SECTION
  2
HEADER
  9
$ACADVER
  1
AC1015
  9
$ACADMAINTVER
 70
     6
  9
$DWGCODEPAGE
  3
ANSI_1252
  9
$INSBASE
 10
0.0
 20
0.0
 30
0.0
  9
$EXTMIN
 10
-175.0
 20
0.0
 30
0.0
  9
$EXTMAX
 10
175.0
 20
145.0
 30
0.0
  9
$LIMMIN
 10
0.0
 20
0.0
  9
$LIMMAX
 10
420.0
 20
297.0
  9
$ORTHOMODE
 70
     0
  9
$REGENMODE
 70
     1
  9
$FILLMODE
 70
     1
  9
$QTEXTMODE
 70
     0
  9
$MIRRTEXT
 70
     1
  9
$LTSCALE
 40
1.0
  9
$ATTMODE
 70
     1
  9
$TEXTSIZE
 40
3.5
  9
$TRACEWID
 40
1.0
  9
$TEXTSTYLE
  7
STANDARD
  9
$CLAYER
  8
0
  9
$CELTYPE
  6
ByLayer
  9
$CECOLOR
 62
   256
  9
$CELTSCALE
 40
1.0
  9
$DISPSILH
 70
     0
  9
$DIMSCALE
 40
1.0
  9
$DIMASZ
 40
3.302
  9
$DIMEXO
 40
1.0
  9
$DIMDLI
 40
3.75
  9
$DIMRND
 40
0.0
  9
$DIMDLE
 40
0.0
  9
$DIMEXE
 40
1.0
  9
$DIMTP
 40
0.0
  9
$DIMTM
 40
0.0
  9
$DIMTXT
 40
3.5
  9
$DIMCEN
 40
2.5
  9
$DIMTSZ
 40
0.0
  9
$DIMTOL
 70
     0
  9
$DIMLIM
 70
     0
  9
$DIMTIH
 70
     1
  9
$DIMTOH
 70
     1
  9
$DIMSE1
 70
     0
  9
$DIMSE2
 70
     0
  9
$DIMTAD
 70
     1
  9
$DIMZIN
 70
     0
  9
$DIMBLK
  1

  9
$DIMASO
 70
     1
  9
$DIMSHO
 70
     1
  9
$DIMPOST
  1

  9
$DIMAPOST
  1

  9
$DIMALT
 70
     0
  9
$DIMALTD
 70
     3
  9
$DIMALTF
 40
0.0393700787
  9
$DIMLFAC
 40
1.0
  9
$DIMTOFL
 70
     1
  9
$DIMTVP
 40
0.0
  9
$DIMTIX
 70
     0
  9
$DIMSOXD
 70
     0
  9
$DIMSAH
 70
     0
  9
$DIMBLK1
  1

  9
$DIMBLK2
  1

  9
$DIMSTYLE
  2
ISO-25
  9
$DIMCLRD
 70
     0
  9
$DIMCLRE
 70
     0
  9
$DIMCLRT
 70
     0
  9
$DIMTFAC
 40
1.0
  9
$DIMGAP
 40
1.524
  9
$DIMJUST
 70
     0
  9
$DIMSD1
 70
     0
  9
$DIMSD2
 70
     0
  9
$DIMTOLJ
 70
     0
  9
$DIMTZIN
 70
     0
  9
$DIMALTZ
 70
     0
  9
$DIMALTTZ
 70
     0
  9
$DIMUPT
 70
     0
  9
$DIMDEC
 70
     1
  9
$DIMTDEC
 70
     1
  9
$DIMALTU
 70
     2
  9
$DIMALTTD
 70
     3
  9
$DIMTXSTY
  7
STANDARD
  9
$DIMAUNIT
 70
     0
  9
$DIMADEC
 70
     0
  9
$DIMALTRND
 40
0.0
  9
$DIMAZIN
 70
     0
  9
$DIMDSEP
 70
    44
  9
$DIMATFIT
 70
     3
  9
$DIMFRAC
 70
     0
  9
$DIMLDRBLK
  1

  9
$DIMLUNIT
 70
     2
  9
$DIMLWD
 70
    -2
  9
$DIMLWE
 70
    -2
  9
$DIMTMOVE
 70
     0
  9
$LUNITS
 70
     2
  9
$LUPREC
 70
     1
  9
$SKETCHINC
 40
1.0
  9
$FILLETRAD
 40
10.0
  9
$AUNITS
 70
     0
  9
$AUPREC
 70
     0
  9
$MENU
  1
.
  9
$ELEVATION
 40
0.0
  9
$PELEVATION
 40
0.0
  9
$THICKNESS
 40
0.0
  9
$LIMCHECK
 70
     0
  9
$CHAMFERA
 40
0.0
  9
$CHAMFERB
 40
0.0
  9
$CHAMFERC
 40
0.0
  9
$CHAMFERD
 40
0.0
  9
$SKPOLY
 70
     0
  9
$TDCREATE
 40
2458376.431957431
  9
$TDUCREATE
 40
2458376.348624097
  9
$TDUPDATE
 40
2458376.431983773
  9
$TDUUPDATE
 40
2458376.34865044
  9
$TDINDWG
 40
0.0000000116
  9
$TDUSRTIMER
 40
0.0000000116
  9
$USRTIMER
 70
     1
  9
$ANGBASE
 50
0.0
  9
$ANGDIR
 70
     0
  9
$PDMODE
 70
     0
  9
$PDSIZE
 40
-1.0
  9
$PLINEWID
 40
0.0
  9
$SPLFRAME
 70
     0
  9
$SPLINETYPE
 70
     6
  9
$SPLINESEGS
 70
     8
  9
$HANDSEED
  5
F0
  9
$SURFTAB1
 70
     6
  9
$SURFTAB2
 70
     6
  9
$SURFTYPE
 70
     6
  9
$SURFU
 70
     6
  9
$SURFV
 70
     6
  9
$UCSBASE
  2

  9
$UCSNAME
  2

  9
$UCSORG
 10
0.0
 20
0.0
 30
0.0
  9
$UCSXDIR
 10
1.0
 20
0.0
 30
0.0
  9
$UCSYDIR
 10
0.0
 20
1.0
 30
0.0
  9
$UCSORTHOREF
  2

  9
$UCSORTHOVIEW
 70
     0
  9
$UCSORGTOP
 10
0.0
 20
0.0
 30
0.0
  9
$UCSORGBOTTOM
 10
0.0
 20
0.0
 30
0.0
  9
$UCSORGLEFT
 10
0.0
 20
0.0
 30
0.0
  9
$UCSORGRIGHT
 10
0.0
 20
0.0
 30
0.0
  9
$UCSORGFRONT
 10
0.0
 20
0.0
 30
0.0
  9
$UCSORGBACK
 10
0.0
 20
0.0
 30
0.0
  9
$PUCSBASE
  2

  9
$PUCSNAME
  2

  9
$PUCSORG
 10
0.0
 20
0.0
 30
0.0
  9
$PUCSXDIR
 10
1.0
 20
0.0
 30
0.0
  9
$PUCSYDIR
 10
0.0
 20
1.0
 30
0.0
  9
$PUCSORTHOREF
  2

  9
$PUCSORTHOVIEW
 70
     0
  9
$PUCSORGTOP
 10
0.0
 20
0.0
 30
0.0
  9
$PUCSORGBOTTOM
 10
0.0
 20
0.0
 30
0.0
  9
$PUCSORGLEFT
 10
0.0
 20
0.0
 30
0.0
  9
$PUCSORGRIGHT
 10
0.0
 20
0.0
 30
0.0
  9
$PUCSORGFRONT
 10
0.0
 20
0.0
 30
0.0
  9
$PUCSORGBACK
 10
0.0
 20
0.0
 30
0.0
  9
$USERI1
 70
     0
  9
$USERI2
 70
     0
  9
$USERI3
 70
     0
  9
$USERI4
 70
     0
  9
$USERI5
 70
     0
  9
$USERR1
 40
0.0
  9
$USERR2
 40
0.0
  9
$USERR3
 40
0.0
  9
$USERR4
 40
0.0
  9
$USERR5
 40
0.0
  9
$WORLDVIEW
 70
     1
  9
$SHADEDGE
 70
     3
  9
$SHADEDIF
 70
    70
  9
$TILEMODE
 70
     1
  9
$MAXACTVP
 70
    64
  9
$PINSBASE
 10
0.0
 20
0.0
 30
0.0
  9
$PLIMCHECK
 70
     0
  9
$PEXTMIN
 10
-175.0
 20
-175.0
 30
0.0
  9
$PEXTMAX
 10
175.0
 20
175.0
 30
0.0
  9
$PLIMMIN
 10
-210.8974358974
 20
-188.4615384615
  9
$PLIMMAX
 10
322.1794871795
 20
188.4615384615
  9
$UNITMODE
 70
     0
  9
$VISRETAIN
 70
     1
  9
$PLINEGEN
 70
     0
  9
$PSLTSCALE
 70
     1
  9
$TREEDEPTH
 70
  3020
  9
$CMLSTYLE
  2
Standard
  9
$CMLJUST
 70
     0
  9
$CMLSCALE
 40
20.0
  9
$PROXYGRAPHICS
 70
     1
  9
$MEASUREMENT
 70
     1
  9
$CELWEIGHT
370
    -1
  9
$ENDCAPS
280
     0
  9
$JOINSTYLE
280
     0
  9
$LWDISPLAY
290
     1
  9
$INSUNITS
 70
     4
  9
$HYPERLINKBASE
  1

  9
$STYLESHEET
  1

  9
$XEDIT
290
     1
  9
$CEPSNTYPE
380
     0
  9
$PSTYLEMODE
290
     1
  9
$FINGERPRINTGUID
  2
{E1B136BE-CDEE-43D5-A769-1FE82FD1F39B}
  9
$VERSIONGUID
  2
{FAEB1C32-E019-11D5-929B-00C0DF256EC4}
  9
$EXTNAMES
290
     1
  9
$PSVPSCALE
 40
0.0
  9
$OLESTARTUP
290
     0
  0
ENDSEC
  0
SECTION
  2
CLASSES
  0
CLASS
  1
ACDBDICTIONARYWDFLT
  2
AcDbDictionaryWithDefault
  3
ObjectDBX Classes
 90
        0
280
     0
281
     0
  0
CLASS
  1
VISUALSTYLE
  2
AcDbVisualStyle
  3
ObjectDBX Classes
 90
     4095
280
     0
281
     0
  0
CLASS
  1
MATERIAL
  2
AcDbMaterial
  3
ObjectDBX Classes
 90
     1153
280
     0
281
     0
  0
CLASS
  1
SCALE
  2
AcDbScale
  3
ObjectDBX Classes
 90
     1153
280
     0
281
     0
  0
CLASS
  1
TABLESTYLE
  2
AcDbTableStyle
  3
ObjectDBX Classes
 90
     4095
280
     0
281
     0
  0
CLASS
  1
MLEADERSTYLE
  2
AcDbMLeaderStyle
  3
ACDB_MLEADERSTYLE_CLASS
 90
     4095
280
     0
281
     0
  0
CLASS
  1
SUN
  2
AcDbSun
  3
SCENEOE
 90
     1153
280
     0
281
     0
  0
CLASS
  1
ACDBPLACEHOLDER
  2
AcDbPlaceHolder
  3
ObjectDBX Classes
 90
        0
280
     0
281
     0
  0
CLASS
  1
LAYOUT
  2
AcDbLayout
  3
ObjectDBX Classes
 90
        0
280
     0
281
     0
  0
ENDSEC
  0
SECTION
  2
TABLES
  0
TABLE
  2
VPORT
  5
8
330
0
100
AcDbSymbolTable
 70
     1
  0
VPORT
  5
29
330
8
100
AcDbSymbolTableRecord
100
AcDbViewportTableRecord
  2
*Active
 70
     0
 10
0.0
 20
0.0
 11
1.0
 21
1.0
 12
0.0
 22
72.5
 13
0.0
 23
0.0
 14
10.0
 24
10.0
 15
10.0
 25
10.0
 16
0.0
 26
0.0
 36
1.0
 17
0.0
 27
0.0
 37
0.0
 40
147.9
 41
2.4137931034
 42
50.0
 43
0.0
 44
0.0
 50
0.0
 51
0.0
 71
     0
 72
   100
 73
     1
 74
     3
 75
     0
 76
     0
 77
     0
 78
     0
281
     0
 65
     1
110
0.0
120
0.0
130
0.0
111
1.0
121
0.0
131
0.0
112
0.0
122
1.0
132
0.0
 79
     0
146
0.0
  0
ENDTAB
  0
TABLE
  2
LTYPE
  5
5
330
0
100
AcDbSymbolTable
 70
     6
  0
LTYPE
  5
14
330
5
100
AcDbSymbolTableRecord
100
AcDbLinetypeTableRecord
  2
ByBlock
 70
     0
  3

 72
    65
 73
     0
 40
0.0
  0
LTYPE
  5
15
330
5
100
AcDbSymbolTableRecord
100
AcDbLinetypeTableRecord
  2
ByLayer
 70
     0
  3

 72
    65
 73
     0
 40
0.0
  0
LTYPE
  5
16
330
5
100
AcDbSymbolTableRecord
100
AcDbLinetypeTableRecord
  2
Continuous
 70
     0
  3
Solid line
 72
    65
 73
     0
 40
0.0
  0
LTYPE
  5
6E
330
5
100
AcDbSymbolTableRecord
100
AcDbLinetypeTableRecord
  2
HIDDEN
 70
     0
  3
Hidden __ __ __ __ __ __ __ __ __ __ __ __ __ __
 72
    65
 73
     2
 40
1.905
 49
1.27
 74
     0
 49
-0.635
 74
     0
  0
LTYPE
  5
6F
330
5
100
AcDbSymbolTableRecord
100
AcDbLinetypeTableRecord
  2
PHANTOM
 70
     0
  3
Phantom ______  __  __  ______  __  __  ______
 72
    65
 73
     6
 40
12.7
 49
6.35
 74
     0
 49
-1.27
 74
     0
 49
1.27
 74
     0
 49
-1.27
 74
     0
 49
1.27
 74
     0
 49
-1.27
 74
     0
  0
LTYPE
  5
70
330
5
100
AcDbSymbolTableRecord
100
AcDbLinetypeTableRecord
  2
CENTER
 70
     0
  3
Center ____ _ ____ _ ____ _ ____ _ ____ _ ____
 72
    65
 73
     4
 40
10.16
 49
6.35
 74
     0
 49
-1.27
 74
     0
 49
1.27
 74
     0
 49
-1.27
 74
     0
  0
LTYPE
  5
71
330
5
100
AcDbSymbolTableRecord
100
AcDbLinetypeTableRecord
  2
CENTERX2
 70
     0
  3
Center (2x) ________  __  ________  __  _____
 72
    65
 73
     4
 40
20.32
 49
12.7
 74
     0
 49
-2.54
 74
     0
 49
2.54
 74
     0
 49
-2.54
 74
     0
  0
LTYPE
  5
72
330
5
100
AcDbSymbolTableRecord
100
AcDbLinetypeTableRecord
  2
DOT2
 70
     0
  3
Dot (.5x) ........................................
 72
    65
 73
     2
 40
0.635
 49
0.0
 74
     0
 49
-0.635
 74
     0
  0
ENDTAB
  0
TABLE
  2
LAYER
  5
2
330
0
100
AcDbSymbolTable
 70
     1
  0
LAYER
  5
10
330
2
100
AcDbSymbolTableRecord
100
AcDbLayerTableRecord
  2
0
 70
     0
 62
     7
  6
Continuous
370
    -3
390
F
  0
ENDTAB
  0
TABLE
  2
STYLE
  5
3
330
0
100
AcDbSymbolTable
 70
     1
  0
STYLE
  5
11
330
3
100
AcDbSymbolTableRecord
100
AcDbTextStyleTableRecord
  2
STANDARD
 70
     0
 40
0.0
 41
1.0
 50
0.0
 71
     0
 42
3.5
  3
GOTHIC.TTF
  4

1001
ACAD
1000
CENTURY GOTHIC
1071
       34
  0
ENDTAB
  0
TABLE
  2
VIEW
  5
6
330
0
100
AcDbSymbolTable
 70
     0
  0
ENDTAB
  0
TABLE
  2
UCS
  5
7
330
0
100
AcDbSymbolTable
 70
     0
  0
ENDTAB
  0
TABLE
  2
APPID
  5
9
330
0
100
AcDbSymbolTable
 70
     1
  0
APPID
  5
12
330
9
100
AcDbSymbolTableRecord
100
AcDbRegAppTableRecord
  2
ACAD
 70
     0
  0
ENDTAB
  0
TABLE
  2
DIMSTYLE
  5
A
330
0
100
AcDbSymbolTable
 70
     1
100
AcDbDimStyleTable
  0
DIMSTYLE
105
27
330
A
100
AcDbSymbolTableRecord
100
AcDbDimStyleTableRecord
  2
ISO-25
 70
     0
 41
2.5
 42
0.625
 43
3.75
 44
1.25
 73
     0
 74
     0
 77
     1
 78
     8
140
2.5
141
2.5
143
0.0393700787
147
0.625
171
     3
172
     1
178
     0
271
     2
272
     2
274
     3
278
    44
283
     0
284
     8
340
11
  0
ENDTAB
  0
TABLE
  2
BLOCK_RECORD
  5
1
330
0
100
AcDbSymbolTable
 70
     8
  0
BLOCK_RECORD
  5
1F
330
1
100
AcDbSymbolTableRecord
100
AcDbBlockTableRecord
  2
*Model_Space
340
22
  0
BLOCK_RECORD
  5
1B
330
1
100
AcDbSymbolTableRecord
100
AcDbBlockTableRecord
  2
*Paper_Space
340
1E
  0
BLOCK_RECORD
  5
23
330
1
100
AcDbSymbolTableRecord
100
AcDbBlockTableRecord
  2
*Paper_Space0
340
26
  0
BLOCK_RECORD
  5
87
330
1
100
AcDbSymbolTableRecord
100
AcDbBlockTableRecord
  2
*Paper_Space1
340
88
  0
BLOCK_RECORD
  5
95
330
1
100
AcDbSymbolTableRecord
100
AcDbBlockTableRecord
  2
*Paper_Space2
340
96
  0
BLOCK_RECORD
  5
A1
330
1
100
AcDbSymbolTableRecord
100
AcDbBlockTableRecord
  2
*Paper_Space3
340
A2
  0
BLOCK_RECORD
  5
AD
330
1
100
AcDbSymbolTableRecord
100
AcDbBlockTableRecord
  2
*Paper_Space4
340
AE
  0
BLOCK_RECORD
  5
B4
330
1
100
AcDbSymbolTableRecord
100
AcDbBlockTableRecord
  2
*Paper_Space5
340
B5
  0
BLOCK_RECORD
  5
C4
330
1
100
AcDbSymbolTableRecord
100
AcDbBlockTableRecord
  2
*Paper_Space6
340
C5
  0
BLOCK_RECORD
  5
D3
330
1
100
AcDbSymbolTableRecord
100
AcDbBlockTableRecord
  2
*Paper_Space7
340
D4
  0
ENDTAB
  0
ENDSEC
  0
SECTION
  2
BLOCKS
  0
BLOCK
  5
20
330
1F
100
AcDbEntity
  8
0
100
AcDbBlockBegin
  2
*Model_Space
 70
     0
 10
0.0
 20
0.0
 30
0.0
  3
*Model_Space
  1

  0
ENDBLK
  5
21
330
1F
100
AcDbEntity
  8
0
100
AcDbBlockEnd
  0
BLOCK
  5
1C
330
1B
100
AcDbEntity
 67
     1
  8
0
100
AcDbBlockBegin
  2
*Paper_Space
 70
     0
 10
0.0
 20
0.0
 30
0.0
  3
*Paper_Space
  1

  0
ENDBLK
  5
1D
330
1B
100
AcDbEntity
 67
     1
  8
0
100
AcDbBlockEnd
  0
BLOCK
  5
24
330
23
100
AcDbEntity
  8
0
100
AcDbBlockBegin
  2
*Paper_Space0
 70
     0
 10
0.0
 20
0.0
 30
0.0
  3
*Paper_Space0
  1

  0
LINE
  5
83
330
23
100
AcDbEntity
  8
0
  6
Continuous
 62
     7
370
    25
100
AcDbLine
 10
-175.0
 20
145.0
 30
0.0
 11
-132.5
 21
0.0
 31
0.0
  0
LINE
  5
84
330
23
100
AcDbEntity
  8
0
  6
Continuous
 62
     7
370
    25
100
AcDbLine
 10
132.5
 20
0.0
 30
0.0
 11
175.0
 21
145.0
 31
0.0
  0
LINE
  5
85
330
23
100
AcDbEntity
  8
0
  6
Continuous
 62
     7
370
    25
100
AcDbLine
 10
132.5
 20
0.0
 30
0.0
 11
-132.5
 21
0.0
 31
0.0
  0
LINE
  5
86
330
23
100
AcDbEntity
  8
0
  6
Continuous
 62
     7
370
    25
100
AcDbLine
 10
175.0
 20
145.0
 30
0.0
 11
-175.0
 21
145.0
 31
0.0
  0
VIEWPORT
  5
E0
330
23
100
AcDbEntity
  8
0
100
AcDbViewport
 10
0.0
 20
0.0
 30
0.0
 40
205.6
 41
156.0
 68
     1
 69
     1
 12
0.0
 22
72.5
 13
0.0
 23
0.0
 14
10.0
 24
10.0
 15
10.0
 25
10.0
 16
0.0
 26
0.0
 36
1.0
 17
0.0
 27
0.0
 37
0.0
 42
50.0
 43
0.0
 44
0.0
 45
270.8754863813
 50
0.0
 51
0.0
 72
   100
 90
   557152
  1

281
     0
 71
     1
 74
     0
110
0.0
120
0.0
130
0.0
111
1.0
121
0.0
131
0.0
112
0.0
122
1.0
132
0.0
 79
     0
146
0.0
  0
ENDBLK
  5
25
330
23
100
AcDbEntity
  8
0
100
AcDbBlockEnd
  0
BLOCK
  5
89
330
87
100
AcDbEntity
  8
0
100
AcDbBlockBegin
  2
*Paper_Space1
 70
     0
 10
0.0
 20
0.0
 30
0.0
  3
*Paper_Space1
  1

  0
LINE
  5
91
330
87
100
AcDbEntity
  8
0
  6
Continuous
 62
     7
370
    25
100
AcDbLine
 10
-175.0
 20
145.0
 30
0.0
 11
-132.5
 21
0.0
 31
0.0
  0
LINE
  5
92
330
87
100
AcDbEntity
  8
0
  6
Continuous
 62
     7
370
    25
100
AcDbLine
 10
132.5
 20
0.0
 30
0.0
 11
175.0
 21
145.0
 31
0.0
  0
LINE
  5
93
330
87
100
AcDbEntity
  8
0
  6
Continuous
 62
     7
370
    25
100
AcDbLine
 10
132.5
 20
0.0
 30
0.0
 11
-132.5
 21
0.0
 31
0.0
  0
LINE
  5
94
330
87
100
AcDbEntity
  8
0
  6
Continuous
 62
     7
370
    25
100
AcDbLine
 10
175.0
 20
145.0
 30
0.0
 11
-175.0
 21
145.0
 31
0.0
  0
VIEWPORT
  5
E2
330
87
100
AcDbEntity
  8
0
100
AcDbViewport
 10
0.0
 20
0.0
 30
0.0
 40
205.6
 41
156.0
 68
     1
 69
     1
 12
0.0
 22
72.5
 13
0.0
 23
0.0
 14
10.0
 24
10.0
 15
10.0
 25
10.0
 16
0.0
 26
0.0
 36
1.0
 17
0.0
 27
0.0
 37
0.0
 42
50.0
 43
0.0
 44
0.0
 45
270.8754863813
 50
0.0
 51
0.0
 72
   100
 90
   557152
  1

281
     0
 71
     1
 74
     0
110
0.0
120
0.0
130
0.0
111
1.0
121
0.0
131
0.0
112
0.0
122
1.0
132
0.0
 79
     0
146
0.0
  0
ENDBLK
  5
8A
330
87
100
AcDbEntity
  8
0
100
AcDbBlockEnd
  0
BLOCK
  5
97
330
95
100
AcDbEntity
  8
0
100
AcDbBlockBegin
  2
*Paper_Space2
 70
     0
 10
0.0
 20
0.0
 30
0.0
  3
*Paper_Space2
  1

  0
LINE
  5
9D
330
95
100
AcDbEntity
  8
0
  6
Continuous
 62
     7
370
    25
100
AcDbLine
 10
-175.0
 20
145.0
 30
0.0
 11
-132.5
 21
0.0
 31
0.0
  0
LINE
  5
9E
330
95
100
AcDbEntity
  8
0
  6
Continuous
 62
     7
370
    25
100
AcDbLine
 10
132.5
 20
0.0
 30
0.0
 11
175.0
 21
145.0
 31
0.0
  0
LINE
  5
9F
330
95
100
AcDbEntity
  8
0
  6
Continuous
 62
     7
370
    25
100
AcDbLine
 10
132.5
 20
0.0
 30
0.0
 11
-132.5
 21
0.0
 31
0.0
  0
LINE
  5
A0
330
95
100
AcDbEntity
  8
0
  6
Continuous
 62
     7
370
    25
100
AcDbLine
 10
175.0
 20
145.0
 30
0.0
 11
-175.0
 21
145.0
 31
0.0
  0
VIEWPORT
  5
E4
330
95
100
AcDbEntity
  8
0
100
AcDbViewport
 10
0.0
 20
0.0
 30
0.0
 40
205.6
 41
156.0
 68
     1
 69
     1
 12
0.0
 22
72.5
 13
0.0
 23
0.0
 14
10.0
 24
10.0
 15
10.0
 25
10.0
 16
0.0
 26
0.0
 36
1.0
 17
0.0
 27
0.0
 37
0.0
 42
50.0
 43
0.0
 44
0.0
 45
270.8754863813
 50
0.0
 51
0.0
 72
   100
 90
   557152
  1

281
     0
 71
     1
 74
     0
110
0.0
120
0.0
130
0.0
111
1.0
121
0.0
131
0.0
112
0.0
122
1.0
132
0.0
 79
     0
146
0.0
  0
ENDBLK
  5
98
330
95
100
AcDbEntity
  8
0
100
AcDbBlockEnd
  0
BLOCK
  5
A3
330
A1
100
AcDbEntity
  8
0
100
AcDbBlockBegin
  2
*Paper_Space3
 70
     0
 10
0.0
 20
0.0
 30
0.0
  3
*Paper_Space3
  1

  0
LINE
  5
A9
330
A1
100
AcDbEntity
  8
0
  6
Continuous
 62
     7
370
    25
100
AcDbLine
 10
-175.0
 20
145.0
 30
0.0
 11
-132.5
 21
0.0
 31
0.0
  0
LINE
  5
AA
330
A1
100
AcDbEntity
  8
0
  6
Continuous
 62
     7
370
    25
100
AcDbLine
 10
132.5
 20
0.0
 30
0.0
 11
175.0
 21
145.0
 31
0.0
  0
LINE
  5
AB
330
A1
100
AcDbEntity
  8
0
  6
Continuous
 62
     7
370
    25
100
AcDbLine
 10
132.5
 20
0.0
 30
0.0
 11
-132.5
 21
0.0
 31
0.0
  0
LINE
  5
AC
330
A1
100
AcDbEntity
  8
0
  6
Continuous
 62
     7
370
    25
100
AcDbLine
 10
175.0
 20
145.0
 30
0.0
 11
-175.0
 21
145.0
 31
0.0
  0
VIEWPORT
  5
E6
330
A1
100
AcDbEntity
  8
0
100
AcDbViewport
 10
0.0
 20
0.0
 30
0.0
 40
205.6
 41
156.0
 68
     1
 69
     1
 12
0.0
 22
72.5
 13
0.0
 23
0.0
 14
10.0
 24
10.0
 15
10.0
 25
10.0
 16
0.0
 26
0.0
 36
1.0
 17
0.0
 27
0.0
 37
0.0
 42
50.0
 43
0.0
 44
0.0
 45
270.8754863813
 50
0.0
 51
0.0
 72
   100
 90
   557152
  1

281
     0
 71
     1
 74
     0
110
0.0
120
0.0
130
0.0
111
1.0
121
0.0
131
0.0
112
0.0
122
1.0
132
0.0
 79
     0
146
0.0
  0
ENDBLK
  5
A4
330
A1
100
AcDbEntity
  8
0
100
AcDbBlockEnd
  0
BLOCK
  5
AF
330
AD
100
AcDbEntity
  8
0
100
AcDbBlockBegin
  2
*Paper_Space4
 70
     0
 10
0.0
 20
0.0
 30
0.0
  3
*Paper_Space4
  1

  0
CIRCLE
  5
B1
330
AD
100
AcDbEntity
  8
0
  6
Continuous
 62
     7
370
    25
100
AcDbCircle
 10
0.0
 20
0.0
 30
0.0
 40
132.4999999999999
  0
CIRCLE
  5
B2
330
AD
100
AcDbEntity
  8
0
  6
Continuous
 62
     7
370
    25
100
AcDbCircle
 10
0.0
 20
0.0
 30
0.0
 40
23.0
  0
CIRCLE
  5
B3
330
AD
100
AcDbEntity
  8
0
  6
Continuous
 62
     7
370
    25
100
AcDbCircle
 10
0.0
 20
0.0
 30
0.0
 40
174.9999999999999
  0
VIEWPORT
  5
E8
330
AD
100
AcDbEntity
  8
0
100
AcDbViewport
 10
0.0
 20
0.0
 30
0.0
 40
205.6
 41
156.0
 68
     1
 69
     1
 12
0.0
 22
72.5
 13
0.0
 23
0.0
 14
10.0
 24
10.0
 15
10.0
 25
10.0
 16
0.0
 26
0.0
 36
1.0
 17
0.0
 27
0.0
 37
0.0
 42
50.0
 43
0.0
 44
0.0
 45
270.8754863813
 50
0.0
 51
0.0
 72
   100
 90
   557152
  1

281
     0
 71
     1
 74
     0
110
0.0
120
0.0
130
0.0
111
1.0
121
0.0
131
0.0
112
0.0
122
1.0
132
0.0
 79
     0
146
0.0
  0
ENDBLK
  5
B0
330
AD
100
AcDbEntity
  8
0
100
AcDbBlockEnd
  0
BLOCK
  5
B6
330
B4
100
AcDbEntity
  8
0
100
AcDbBlockBegin
  2
*Paper_Space5
 70
     0
 10
0.0
 20
0.0
 30
0.0
  3
*Paper_Space5
  1

  0
LWPOLYLINE
  5
BA
330
B4
100
AcDbEntity
  8
0
  6
Continuous
 62
     7
370
    25
100
AcDbPolyline
 90
      135
 70
   128
 43
0.0
 10
113.1370849898
 20
183.7110666693
 10
118.3157261992
 20
180.5779293567
 10
123.2342837644
 20
177.3081079829
 10
127.8819456286
 20
173.9087903247
 10
132.2484952223
 20
170.3874488203
 10
136.3243339217
 20
166.7518241424
 10
140.1005021489
 20
163.0099081831
 10
143.5686990666
 20
159.1699264859
 10
146.7213008252
 20
155.2403201638
 10
149.5513773219
 20
151.2297273443
 10
152.0527074343
 20
147.146964181
 10
154.219792696
 20
143.0010054734
 10
156.0478693833
 20
138.8009649384
 10
157.5329189867
 20
134.5560751766
 10
158.6716770452
 20
130.2756673772
 10
159.4616403211
 20
125.9691508052
 10
159.901072304
 20
121.6459921189
 10
159.9890070268
 20
117.3156945593
 10
159.7252511899
 20
112.9877770602
 10
159.110384586
 20
108.6717533235
 10
158.1457588253
 20
104.3771109061
 10
156.8334943645
 20
100.1132903641
 10
155.1764758458
 20
95.8896645005
 10
153.1783457554
 20
91.7155177614
 10
150.843496417
 20
87.6000258275
 10
148.1770603361
 20
83.5522354431
 10
145.184898918
 20
79.5810445299
 10
141.8735895827
 20
75.6951826275
 10
138.2504113069
 20
71.9031917037
 10
134.3233286228
 20
68.2134073774
 10
130.1009741104
 20
64.6339405955
 10
125.5926294212
 20
61.1726598027
 10
120.8082048754
 20
57.8371736454
 10
115.7582176764
 20
54.6348142462
 10
110.4537687921
 20
51.5726210859
 10
104.9065185524
 20
48.6573255298
 10
99.1286610172
 20
45.8953360301
 10
93.1328971714
 20
43.2927240392
 10
86.9324070051
 20
40.8552106631
 10
80.5408205413
 20
38.5881540852
 10
73.9721878743
 20
36.4965377879
 10
67.2409482844
 20
34.5849595977
 10
60.3618984968
 20
32.8576215784
 10
53.3501601562
 20
31.3183207939
 10
46.221146585
 20
29.9704409612
 10
38.9905289022
 20
28.8169450129
 10
31.6742015749
 20
27.8603685834
 10
24.2882474784
 20
27.1028144351
 10
16.8489025426
 20
26.5459478367
 10
9.3725200624
 20
26.1909929017
 10
1.8755347489
 20
26.0387298981
 10
-5.625573397
 20
26.0894935331
 10
-13.1143153116
 20
26.343172217
 10
-20.574229115
 20
26.7992083093
 10
-27.9889162976
 20
27.4565993434
 10
-35.3420777678
 20
28.3139002314
 10
-42.6175496808
 20
29.3692264396
 10
-49.7993389704
 20
30.6202581323
 10
-56.8716585051
 20
32.06424527
 10
-63.8189617916
 20
33.6980136558
 10
-70.6259771495
 20
35.5179719122
 10
-77.2777412818
 20
37.5201193758
 10
-83.7596321673
 20
39.7000548922
 10
-90.057401203
 20
42.0529864898
 10
-96.1572045259
 20
44.5737419144
 10
-102.0456334444
 20
47.2567799986
 10
-107.7097439137
 20
50.0962028422
 10
-113.1370849898
 20
53.0857687776
 10
-118.3157261992
 20
56.2189060902
 10
-123.2342837644
 20
59.488727464
 10
-127.8819456286
 20
62.8880451221
 10
-132.2484952223
 20
66.4093866266
 10
-136.3243339217
 20
70.0450113044
 10
-140.1005021489
 20
73.7869272637
 10
-143.5686990666
 20
77.626908961
 10
-146.7213008252
 20
81.5565152831
 10
-149.5513773219
 20
85.5671081025
 10
-152.0527074343
 20
89.6498712658
 10
-154.219792696
 20
93.7958299735
 10
-156.0478693833
 20
97.9958705085
 10
-157.5329189867
 20
102.2407602702
 10
-158.6716770452
 20
106.5211680697
 10
-159.4616403211
 20
110.8276846416
 10
-159.901072304
 20
115.1508433279
 10
-159.9890070267
 20
119.4811408876
 10
-159.7252511899
 20
123.8090583867
 10
-159.110384586
 20
128.1250821234
 10
-158.1457588253
 20
132.4197245408
 10
-156.8334943645
 20
136.6835450828
 10
-155.1764758458
 20
140.9071709464
 10
-153.1783457554
 20
145.0813176854
 10
-150.843496417
 20
149.1968096194
 10
-148.1770603361
 20
153.2446000038
 10
-145.184898918
 20
157.215790917
 10
-141.8735895827
 20
161.1016528194
 10
-138.2504113069
 20
164.8936437432
 10
-134.3233286228
 20
168.5834280695
 10
-130.1009741104
 20
172.1628948514
 10
-125.5926294212
 20
175.6241756442
 10
-120.8082048754
 20
178.9596618014
 10
-115.7582176764
 20
182.1620212007
 10
-110.4537687921
 20
185.2242143609
 10
-104.9065185524
 20
188.1395099171
 10
-99.1286610172
 20
190.9014994168
 10
-93.1328971714
 20
193.5041114077
 10
-86.9324070051
 20
195.9416247838
 10
-80.5408205413
 20
198.2086813617
 10
-73.9721878743
 20
200.300297659
 10
-67.2409482844
 20
202.2118758492
 10
-60.3618984968
 20
203.9392138684
 10
-53.3501601562
 20
205.478514653
 10
-46.2211465849
 20
206.8263944856
 10
-38.9905289022
 20
207.979890434
 10
-31.6742015749
 20
208.9364668635
 10
-24.2882474784
 20
209.6940210117
 10
-16.8489025426
 20
210.2508876101
 10
-9.3725200624
 20
210.6058425451
 10
-1.8755347489
 20
210.7581055487
 10
5.625573397
 20
210.7073419138
 10
13.1143153116
 20
210.4536632298
 10
20.574229115
 20
209.9976271376
 10
27.9889162976
 20
209.3402361034
 10
35.3420777678
 20
208.4829352155
 10
42.6175496808
 20
207.4276090072
 10
49.7993389704
 20
206.1765773146
 10
56.8716585051
 20
204.7325901768
 10
63.8189617916
 20
203.098821791
 10
70.6259771495
 20
201.2788635347
 10
77.2777412818
 20
199.276716071
 10
83.7596321673
 20
197.0967805547
 10
90.057401203
 20
194.743848957
 10
96.1572045259
 20
192.2230935324
 10
102.0456334444
 20
189.5400554483
 10
107.7097439137
 20
186.7006326047
 10
113.1370849898
 20
183.7110666693
  0
LWPOLYLINE
  5
BB
330
B4
100
AcDbEntity
  8
0
  6
Continuous
 62
     7
370
    25
100
AcDbPolyline
 90
      141
 70
   128
 43
0.0
 10
123.7436867076
 20
189.8341275079
 10
129.1708245603
 20
186.5572455011
 10
134.3378295627
 20
183.143100686
 10
139.2342960543
 20
179.5985686957
 10
143.8503632034
 20
175.9307877461
 10
148.1767348649
 20
172.1471442598
 10
152.2046983022
 20
168.2552579912
 10
155.926141733
 20
164.2629666815
 10
159.3335706653
 20
160.1783102739
 10
162.4201229908
 20
156.0095147229
 10
165.179582804
 20
151.764975428
 10
167.6063929199
 20
147.4532403263
 10
169.6956660659
 20
143.0829926786
 10
171.4431947241
 20
138.663033582
 10
172.8454596041
 20
134.202264246
 10
173.8996367313
 20
129.7096680662
 10
174.6036031331
 20
125.1942925336
 10
174.9559411149
 20
120.6652310136
 10
174.9559411149
 20
116.1316044333
 10
174.6036031331
 20
111.6025429132
 10
173.8996367313
 20
107.0871673806
 10
172.8454596041
 20
102.5945712009
 10
171.4431947241
 20
98.1338018649
 10
169.6956660659
 20
93.7138427683
 10
167.6063929199
 20
89.3435951206
 10
165.179582804
 20
85.0318600189
 10
162.4201229908
 20
80.7873207239
 10
159.3335706653
 20
76.6185251729
 10
155.926141733
 20
72.5338687654
 10
152.2046983022
 20
68.5415774556
 10
148.1767348649
 20
64.6496911871
 10
143.8503632034
 20
60.8660477008
 10
139.2342960543
 20
57.1982667511
 10
134.3378295627
 20
53.6537347609
 10
129.1708245603
 20
50.2395899457
 10
123.7436867076
 20
46.9627079389
 10
118.0673455381
 20
43.8296879448
 10
112.1532324474
 20
40.8468394487
 10
106.0132576721
 20
38.0201695104
 10
99.6597863045
 20
35.3553706671
 10
93.1056133902
 20
32.8578094689
 10
86.3639381613
 20
30.5325156719
 10
79.4483374544
 20
28.3841721081
 10
72.3727383691
 20
26.4171052556
 10
65.1513902203
 20
24.6352765254
 10
57.7988358422
 20
23.0422742833
 10
50.3298823006
 20
21.6413066238
 10
42.7595710741
 20
20.4351949094
 10
35.1031477621
 20
19.4263680885
 10
27.376031382
 20
18.6168578042
 10
19.5937833181
 20
18.0082943023
 10
11.7720759821
 20
17.6019031488
 10
3.9266612518
 20
17.3985027614
 10
-3.9266612518
 20
17.3985027614
 10
-11.7720759821
 20
17.6019031488
 10
-19.5937833181
 20
18.0082943023
 10
-27.376031382
 20
18.6168578042
 10
-35.1031477621
 20
19.4263680885
 10
-42.7595710741
 20
20.4351949094
 10
-50.3298823006
 20
21.6413066238
 10
-57.7988358422
 20
23.0422742833
 10
-65.1513902203
 20
24.6352765254
 10
-72.3727383691
 20
26.4171052556
 10
-79.4483374544
 20
28.3841721081
 10
-86.3639381613
 20
30.5325156719
 10
-93.1056133902
 20
32.8578094689
 10
-99.6597863045
 20
35.3553706671
 10
-106.0132576721
 20
38.0201695104
 10
-112.1532324474
 20
40.8468394487
 10
-118.0673455381
 20
43.8296879448
 10
-123.7436867076
 20
46.9627079389
 10
-129.1708245603
 20
50.2395899457
 10
-134.3378295627
 20
53.6537347609
 10
-139.2342960543
 20
57.1982667511
 10
-143.8503632034
 20
60.8660477008
 10
-148.1767348649
 20
64.6496911871
 10
-152.2046983022
 20
68.5415774556
 10
-155.926141733
 20
72.5338687654
 10
-159.3335706653
 20
76.6185251729
 10
-162.4201229908
 20
80.7873207239
 10
-165.179582804
 20
85.0318600189
 10
-167.6063929199
 20
89.3435951206
 10
-169.6956660659
 20
93.7138427683
 10
-171.4431947241
 20
98.1338018649
 10
-172.8454596041
 20
102.5945712009
 10
-173.8996367313
 20
107.0871673806
 10
-174.6036031331
 20
111.6025429132
 10
-174.9559411149
 20
116.1316044333
 10
-174.9559411149
 20
120.6652310136
 10
-174.6036031331
 20
125.1942925336
 10
-173.8996367313
 20
129.7096680662
 10
-172.8454596041
 20
134.202264246
 10
-171.4431947241
 20
138.663033582
 10
-169.6956660659
 20
143.0829926786
 10
-167.6063929199
 20
147.4532403263
 10
-165.179582804
 20
151.764975428
 10
-162.4201229908
 20
156.0095147229
 10
-159.3335706653
 20
160.1783102739
 10
-155.926141733
 20
164.2629666815
 10
-152.2046983022
 20
168.2552579912
 10
-148.1767348649
 20
172.1471442598
 10
-143.8503632034
 20
175.9307877461
 10
-139.2342960543
 20
179.5985686957
 10
-134.3378295626
 20
183.143100686
 10
-129.1708245603
 20
186.5572455011
 10
-123.7436867076
 20
189.8341275079
 10
-118.0673455381
 20
192.967147502
 10
-112.1532324474
 20
195.9499959982
 10
-106.0132576721
 20
198.7766659365
 10
-99.6597863045
 20
201.4414647798
 10
-93.1056133902
 20
203.9390259779
 10
-86.3639381613
 20
206.264319775
 10
-79.4483374544
 20
208.4126633388
 10
-72.3727383691
 20
210.3797301912
 10
-65.1513902203
 20
212.1615589215
 10
-57.7988358422
 20
213.7545611636
 10
-50.3298823006
 20
215.1555288231
 10
-42.7595710741
 20
216.3616405375
 10
-35.1031477621
 20
217.3704673583
 10
-27.376031382
 20
218.1799776427
 10
-19.5937833181
 20
218.7885411446
 10
-11.7720759821
 20
219.194932298
 10
-3.9266612518
 20
219.3983326854
 10
3.9266612518
 20
219.3983326854
 10
11.7720759821
 20
219.194932298
 10
19.5937833181
 20
218.7885411446
 10
27.376031382
 20
218.1799776427
 10
35.1031477621
 20
217.3704673583
 10
42.7595710741
 20
216.3616405375
 10
50.3298823006
 20
215.1555288231
 10
57.7988358422
 20
213.7545611636
 10
65.1513902203
 20
212.1615589215
 10
72.3727383691
 20
210.3797301912
 10
79.4483374544
 20
208.4126633388
 10
86.3639381613
 20
206.264319775
 10
93.1056133902
 20
203.9390259779
 10
99.6597863045
 20
201.4414647798
 10
106.0132576721
 20
198.7766659365
 10
112.1532324474
 20
195.9499959982
 10
118.0673455381
 20
192.967147502
 10
123.7436867076
 20
189.8341275079
  0
LWPOLYLINE
  5
BC
330
B4
100
AcDbEntity
  8
0
  6
Continuous
 62
     7
370
    25
100
AcDbPolyline
 90
       55
 70
   128
 43
0.0
 10
129.6239546161
 20
-15.8505208066
 10
128.5550070069
 20
-18.5259908466
 10
126.7325275318
 20
-22.3218315034
 10
124.5739761763
 20
-26.0584786758
 10
122.0850770306
 20
-29.7260234472
 10
119.2724302078
 20
-33.3147401483
 10
116.1434943416
 20
-36.8151121475
 10
112.7065668076
 20
-40.2178570876
 10
108.9707617195
 20
-43.5139515005
 10
104.9459857611
 20
-46.6946547366
 10
100.6429119145
 20
-49.7515321427
 10
96.0729511581
 20
-52.6764774293
 10
91.2482222061
 20
-55.4617341673
 10
86.1815193726
 20
-58.0999163568
 10
80.8862786425
 20
-60.5840280126
 10
75.3765420423
 20
-62.9074817173
 10
69.6669204031
 20
-65.0641160894
 10
63.772554615
 20
-67.0482121221
 10
57.7090754763
 20
-68.8545083495
 10
51.4925622439
 20
-70.4782147988
 10
45.1394999932
 20
-71.9150256922
 10
38.6667359032
 20
-73.1611308656
 10
32.0914345807
 20
-74.2132258722
 10
25.4310325428
 20
-75.068520745
 10
18.7031919783
 20
-75.7247473958
 10
11.9257539109
 20
-76.1801656296
 10
5.1166908881
 20
-76.433567759
 10
-1.7059406792
 20
-76.4842818071
 10
-8.5240483984
 20
-76.3321732894
 10
-15.3195518737
 20
-75.9776455704
 10
-22.0744306514
 20
-75.4216387938
 10
-28.7707720073
 20
-74.6656273896
 10
-35.390818448
 20
-73.7116161642
 10
-41.9170148003
 20
-72.5621349839
 10
-48.3320547648
 20
-71.220232066
 10
-54.6189268087
 20
-69.689465896
 10
-60.7609592775
 20
-67.9738957904
 10
-66.7418646053
 20
-66.0780711329
 10
-72.5457825063
 20
-64.0070193095
 10
-78.1573220337
 20
-61.7662323775
 10
-83.5616023933
 20
-59.3616525009
 10
-88.7442924052
 20
-56.7996561932
 10
-93.6916485072
 20
-54.0870374083
 10
-98.3905512003
 20
-51.2309895233
 10
-102.8285398392
 20
-48.2390862638
 10
-106.9938456759
 20
-45.1192616196
 10
-110.8754230682
 20
-41.8797888045
 10
-114.4629787705
 20
-38.5292583183
 10
-117.74699923
 20
-35.0765551654
 10
-120.718775815
 20
-31.530835294
 10
-123.370427908
 20
-27.9015013156
 10
-125.6949238045
 20
-24.1981775715
 10
-127.6860993593
 20
-20.4306846107
 10
-129.3386743326
 20
-16.609013147
 10
-129.6239546161
 20
-15.8505208066
  0
LWPOLYLINE
  5
BD
330
B4
100
AcDbEntity
  8
0
  6
Continuous
 62
     7
370
    25
100
AcDbPolyline
 90
        8
 70
   128
 43
0.0
 10
21.9203102168
 20
39.6001725255
 10
24.1261134594
 20
38.1834108513
 10
26.0585581961
 20
36.639323086
 10
27.6957490561
 20
34.985404361
 10
29.0191360126
 20
33.2403942363
 10
30.0137245626
 20
31.4240643739
 10
30.6682456204
 20
29.5569945169
 10
30.9664025744
 20
27.7788054683
  0
LWPOLYLINE
  5
BE
330
B4
100
AcDbEntity
  8
0
  6
Continuous
 62
     7
370
    25
100
AcDbPolyline
 90
       23
 70
   128
 43
0.0
 10
-30.9664025744
 20
27.7788054683
 10
-30.7777852308
 20
29.0847687595
 10
-30.2095924922
 20
30.961235431
 10
-29.2991129996
 20
32.7922061447
 10
-28.0566628493
 20
34.5569352708
 10
-26.4963194981
 20
36.2354277233
 10
-24.6357622596
 20
37.8086655118
 10
-22.4960719907
 20
39.2588232237
 10
-20.1014922372
 20
40.5694699927
 10
-17.4791545445
 20
41.725755667
 10
-14.6587710465
 20
42.7145790681
 10
-11.6722978152
 20
43.5247364316
 10
-8.5535727856
 20
44.1470483508
 10
-5.3379323586
 20
44.5744637832
 10
-2.0618110249
 20
44.8021399411
 10
1.2376714514
 20
44.8274971625
 10
4.5231306157
 20
44.6502481401
 10
7.7573409028
 20
44.2724011761
 10
10.9036574178
 20
43.6982374276
 10
13.9264311373
 20
42.9342623993
 10
16.7914128273
 20
41.9891322335
 10
19.4661411005
 20
40.8735556327
 10
21.9203102168
 20
39.6001725255
  0
LWPOLYLINE
  5
C0
330
B4
100
AcDbEntity
  8
0
  6
Continuous
 62
     7
370
    25
100
AcDbPolyline
 90
       16
 70
   128
 43
0.0
 10
-20.1922150196
 20
26.7708827834
 10
-19.0228532083
 20
27.8766483228
 10
-17.2525546015
 20
29.1941662124
 10
-15.2101729024
 20
30.3732080707
 10
-12.9279176906
 20
31.3951797031
 10
-10.441781494
 20
32.2439640066
 10
-7.7909721656
 20
32.9061751456
 10
-5.0172945521
 20
33.3713696549
 10
-2.1644912063
 20
33.6322111392
 10
0.7224474588
 20
33.6845859724
 10
3.5979926959
 20
33.5276681722
 10
6.4167954389
 20
33.163932426
 10
9.1344014846
 20
32.5991150638
 10
11.7079525623
 20
31.8421235928
 10
14.096862234
 20
30.9048962208
 10
16.2634559673
 20
29.8022135831
  0
LINE
  5
C1
330
B4
100
AcDbEntity
  8
0
  6
Continuous
 62
     7
370
    25
100
AcDbLine
 10
-171.2014494929
 20
97.4637676015
 30
0.0
 11
-129.6239546161
 21
-15.8505208066
 31
0.0
  0
LINE
  5
C2
330
B4
100
AcDbEntity
  8
0
  6
Continuous
 62
     7
370
    25
100
AcDbLine
 10
129.6239546161
 20
-15.8505208066
 30
0.0
 11
171.2014494929
 21
97.4637676015
 31
0.0
  0
ARC
  5
C3
330
B4
100
AcDbEntity
  8
0
  6
Continuous
 62
     7
370
    25
100
AcDbCircle
 10
8.071058256
 20
15.1228477654
 30
0.0
 40
16.81068591904584
100
AcDbArc
 50
43.8596877733
 51
60.8345791204
  0
VIEWPORT
  5
EA
330
B4
100
AcDbEntity
  8
0
100
AcDbViewport
 10
0.0
 20
0.0
 30
0.0
 40
205.6
 41
156.0
 68
     1
 69
     1
 12
0.0
 22
72.5
 13
0.0
 23
0.0
 14
10.0
 24
10.0
 15
10.0
 25
10.0
 16
0.0
 26
0.0
 36
1.0
 17
0.0
 27
0.0
 37
0.0
 42
50.0
 43
0.0
 44
0.0
 45
270.8754863813
 50
0.0
 51
0.0
 72
   100
 90
   557152
  1

281
     0
 71
     1
 74
     0
110
0.0
120
0.0
130
0.0
111
1.0
121
0.0
131
0.0
112
0.0
122
1.0
132
0.0
 79
     0
146
0.0
  0
ENDBLK
  5
B7
330
B4
100
AcDbEntity
  8
0
100
AcDbBlockEnd
  0
BLOCK
  5
C6
330
C4
100
AcDbEntity
  8
0
100
AcDbBlockBegin
  2
*Paper_Space6
 70
     0
 10
0.0
 20
0.0
 30
0.0
  3
*Paper_Space6
  1

  0
LWPOLYLINE
  5
CA
330
C4
100
AcDbEntity
  8
0
  6
Continuous
 62
     7
370
    25
100
AcDbPolyline
 90
      135
 70
   128
 43
0.0
 10
74.6712622288
 20
197.1706996905
 10
81.2219389419
 20
195.2879561493
 10
87.5940722057
 20
193.2491420622
 10
93.7736546884
 20
191.058739185
 10
99.7471023266
 20
188.7215624986
 10
105.5012841858
 20
186.2427496246
 10
111.0235513256
 20
183.6277495316
 10
116.3017646043
 20
180.8823105574
 10
121.3243213637
 20
178.0124677727
 10
126.0801809338
 20
175.0245297148
 10
130.5588889032
 20
171.9250645199
 10
134.7506000998
 20
168.7208854853
 10
138.6461002326
 20
165.4190360919
 10
142.236826147
 20
162.0267745213
 10
145.514884648
 20
158.5515577005
 10
148.4730698517
 20
155.0010249104
 10
151.104879025
 20
151.3829809926
 10
153.40452688
 20
147.7053791929
 10
155.3669582919
 20
143.9763036782
 10
156.9878594103
 20
140.2039517658
 10
158.2636671429
 20
136.3966159038
 10
159.1915769874
 20
132.5626654428
 10
159.7695491966
 20
128.7105282381
 10
159.996313262
 20
124.8486721231
 10
159.8713707072
 20
120.9855862958
 10
159.3949961828
 20
117.1297626572
 10
158.5682368636
 20
113.2896771446
 10
157.3929101459
 20
109.4737710992
 10
155.871599653
 20
105.6904327107
 10
154.0076495554
 20
101.947978578
 10
151.8051572201
 20
98.2546354274
 10
149.2689642031
 20
94.6185220289
 10
146.4046456072
 20
91.0476313488
 10
143.2184978262
 20
87.5498129797
 10
139.7175247045
 20
84.1327558857
 10
135.9094221408
 20
80.8039714997
 10
131.802561171
 20
77.5707772123
 10
127.4059695669
 20
74.4402802862
 10
122.7293119909
 20
71.4193622332
 10
117.7828687513
 20
68.5146636866
 10
112.577513204
 20
65.7325698044
 10
107.1246878502
 20
63.0791962326
 10
101.4363791833
 20
60.5603756622
 10
95.5250913404
 20
58.1816450075
 10
89.4038186151
 20
55.9482332347
 10
83.0860168932
 20
53.8650498677
 10
76.5855740742
 20
51.9366741955
 10
69.9167795421
 20
50.1673452064
 10
63.0942927547
 20
48.5609522695
 10
56.1331110185
 20
47.1210265851
 10
49.0485365217
 20
45.8507334225
 10
41.8561426968
 20
44.7528651615
 10
34.5717399863
 20
43.8298351551
 10
27.2113410882
 20
43.0836724233
 10
19.7911257568
 20
42.516017194
 10
12.3274052357
 20
42.1281172963
 10
4.8365864025
 20
41.9208254186
 10
-2.6648642973
 20
41.8945972333
 10
-10.160457047
 20
42.0494903957
 10
-17.6337149071
 20
42.385164417
 10
-25.0682100347
 20
42.9008814128
 10
-32.4475997961
 20
43.5955077253
 10
-39.7556626912
 20
44.4675164151
 10
-46.9763340115
 20
45.5149906178
 10
-54.0937411545
 20
46.7356277578
 10
-61.0922385145
 20
48.1267446097
 10
-67.9564418755
 20
49.6852831968
 10
-74.6712622288
 20
51.4078175131
 10
-81.2219389419
 20
53.2905610543
 10
-87.5940722057
 20
55.3293751414
 10
-93.7736546884
 20
57.5197780186
 10
-99.7471023266
 20
59.856954705
 10
-105.5012841858
 20
62.335767579
 10
-111.0235513256
 20
64.950767672
 10
-116.3017646043
 20
67.6962066462
 10
-121.3243213637
 20
70.5660494309
 10
-126.0801809338
 20
73.5539874889
 10
-130.5588889032
 20
76.6534526837
 10
-134.7506000998
 20
79.8576317183
 10
-138.6461002326
 20
83.1594811117
 10
-142.236826147
 20
86.5517426823
 10
-145.514884648
 20
90.0269595031
 10
-148.4730698517
 20
93.5774922932
 10
-151.104879025
 20
97.195536211
 10
-153.40452688
 20
100.8731380107
 10
-155.3669582919
 20
104.6022135254
 10
-156.9878594103
 20
108.3745654378
 10
-158.2636671429
 20
112.1819012998
 10
-159.1915769874
 20
116.0158517608
 10
-159.7695491966
 20
119.8679889655
 10
-159.996313262
 20
123.7298450805
 10
-159.8713707072
 20
127.5929309078
 10
-159.3949961828
 20
131.4487545464
 10
-158.5682368636
 20
135.2888400591
 10
-157.3929101459
 20
139.1047461045
 10
-155.871599653
 20
142.888084493
 10
-154.0076495554
 20
146.6305386257
 10
-151.8051572201
 20
150.3238817762
 10
-149.2689642031
 20
153.9599951747
 10
-146.4046456072
 20
157.5308858548
 10
-143.2184978262
 20
161.0287042239
 10
-139.7175247045
 20
164.445761318
 10
-135.9094221408
 20
167.7745457039
 10
-131.802561171
 20
171.0077399913
 10
-127.4059695669
 20
174.1382369174
 10
-122.7293119909
 20
177.1591549704
 10
-117.7828687513
 20
180.063853517
 10
-112.577513204
 20
182.8459473993
 10
-107.1246878502
 20
185.4993209711
 10
-101.4363791833
 20
188.0181415414
 10
-95.5250913404
 20
190.3968721961
 10
-89.4038186151
 20
192.6302839689
 10
-83.0860168932
 20
194.713467336
 10
-76.5855740742
 20
196.6418430082
 10
-69.9167795421
 20
198.4111719973
 10
-63.0942927547
 20
200.0175649341
 10
-56.1331110185
 20
201.4574906185
 10
-49.0485365217
 20
202.7277837811
 10
-41.8561426968
 20
203.8256520421
 10
-34.5717399863
 20
204.7486820485
 10
-27.2113410882
 20
205.4948447803
 10
-19.7911257568
 20
206.0625000097
 10
-12.3274052357
 20
206.4503999073
 10
-4.8365864025
 20
206.657691785
 10
2.6648642973
 20
206.6839199703
 10
10.160457047
 20
206.5290268079
 10
17.6337149071
 20
206.1933527867
 10
25.0682100347
 20
205.6776357908
 10
32.4475997961
 20
204.9830094783
 10
39.7556626912
 20
204.1110007886
 10
46.9763340115
 20
203.0635265859
 10
54.0937411545
 20
201.8428894459
 10
61.0922385145
 20
200.4517725939
 10
67.9564418755
 20
198.8932340068
 10
74.6712622288
 20
197.1706996905
  0
LWPOLYLINE
  5
CB
330
C4
100
AcDbEntity
  8
0
  6
Continuous
 62
     7
370
    25
100
AcDbPolyline
 90
      141
 70
   128
 43
0.0
 10
81.6716930628
 20
204.0033347926
 10
88.5333271753
 20
202.0358723819
 10
95.2166669491
 20
199.9118386378
 10
101.7082530274
 20
197.6355110815
 10
107.9950122197
 20
195.2114739339
 10
114.0642838297
 20
192.6446088831
 10
119.9038451519
 20
189.9400852538
 10
125.5019360872
 20
187.1033495965
 10
130.8472828253
 20
184.1401147195
 10
135.9291205493
 20
181.0563481833
 10
140.7372151144
 20
177.8582602835
 10
145.2618836578
 20
174.5522915433
 10
149.4940140994
 20
171.145099744
 10
153.4250834917
 20
167.6435465163
 10
157.047175184
 20
164.0546835224
 10
160.3529947658
 20
160.3857382548
 10
163.3358847563
 20
156.6440994811
 10
165.9898380121
 20
152.8373023636
 10
168.3095098244
 20
148.9730132853
 10
170.2902286831
 20
145.05901441
 10
171.9280056839
 20
141.1031880106
 10
173.2195425618
 20
137.113500595
 10
174.1622383336
 20
133.0979868628
 10
174.7541945353
 20
129.0647335241
 10
174.994219046
 20
125.0218630144
 10
174.8818284881
 20
120.977517137
 10
174.4172492015
 20
116.9398406661
 10
173.6014167869
 20
112.9169649449
 10
172.4359742222
 20
108.9169915097
 10
170.9232685536
 20
104.9479757745
 10
169.0663461691
 20
101.0179108091
 10
166.8689466632
 20
97.134711241
 10
164.3354953061
 20
93.3061973176
 10
161.4710941316
 20
89.5400791562
 10
158.2815116626
 20
85.8439412178
 10
154.7731712935
 20
82.2252270321
 10
150.9531383552
 20
78.6912242081
 10
146.8291058854
 20
75.249049757
 10
142.4093791367
 20
71.9056357601
 10
137.7028588507
 20
68.6677154083
 10
132.7190233329
 20
65.5418094422
 10
127.4679093646
 20
62.5342130204
 10
121.9600919906
 20
59.650983042
 10
116.2066632222
 20
56.8979259482
 10
110.2192096991
 20
54.2805860299
 10
104.0097893559
 20
51.8042342611
 10
97.5909071388
 20
49.4738576849
 10
90.9754898225
 20
47.2941493695
 10
84.1768599769
 20
45.2694989573
 10
77.2087091377
 20
43.403983825
 10
70.0850702335
 20
41.7013608716
 10
62.820289325
 20
40.1650589532
 10
55.4289967141
 20
38.7981719774
 10
47.9260774804
 20
37.6034526728
 10
40.3266415048
 20
36.5833070449
 10
32.6459930399
 20
35.7397895313
 10
24.8995998897
 20
35.074598864
 10
17.1030622591
 20
34.5890746485
 10
9.2720813371
 20
34.2841946659
 10
1.4224276773
 20
34.160572904
 10
-6.4300905625
 20
34.2184583205
 10
-14.2696594557
 20
34.457734342
 10
-22.0804911538
 20
34.8779190982
 10
-29.8468556812
 20
35.4781663932
 10
-37.5531126134
 20
36.2572674086
 10
-45.1837425744
 20
37.2136531388
 10
-52.7233784911
 20
38.3453975501
 10
-60.15683654
 20
39.65022146
 10
-67.469146726
 20
41.1254971266
 10
-74.6455830295
 20
42.7682535413
 10
-81.6716930628
 20
44.5751824111
 10
-88.5333271753
 20
46.5426448217
 10
-95.2166669491
 20
48.6666785658
 10
-101.7082530274
 20
50.9430061221
 10
-107.9950122197
 20
53.3670432697
 10
-114.0642838297
 20
55.9339083205
 10
-119.9038451519
 20
58.6384319499
 10
-125.5019360872
 20
61.4751676071
 10
-130.8472828253
 20
64.4384024841
 10
-135.9291205493
 20
67.5221690203
 10
-140.7372151144
 20
70.7202569202
 10
-145.2618836578
 20
74.0262256603
 10
-149.4940140994
 20
77.4334174596
 10
-153.4250834917
 20
80.9349706874
 10
-157.047175184
 20
84.5238336812
 10
-160.3529947658
 20
88.1927789488
 10
-163.3358847563
 20
91.9344177226
 10
-165.9898380121
 20
95.74121484
 10
-168.3095098244
 20
99.6055039183
 10
-170.2902286831
 20
103.5195027936
 10
-171.9280056839
 20
107.475329193
 10
-173.2195425618
 20
111.4650166086
 10
-174.1622383336
 20
115.4805303408
 10
-174.7541945353
 20
119.5137836795
 10
-174.994219046
 20
123.5566541892
 10
-174.8818284881
 20
127.6010000666
 10
-174.4172492015
 20
131.6386765375
 10
-173.6014167869
 20
135.6615522587
 10
-172.4359742222
 20
139.661525694
 10
-170.9232685536
 20
143.6305414291
 10
-169.0663461691
 20
147.5606063946
 10
-166.8689466632
 20
151.4438059626
 10
-164.3354953061
 20
155.2723198861
 10
-161.4710941316
 20
159.0384380474
 10
-158.2815116626
 20
162.7345759859
 10
-154.7731712935
 20
166.3532901715
 10
-150.9531383552
 20
169.8872929955
 10
-146.8291058854
 20
173.3294674466
 10
-142.4093791367
 20
176.6728814435
 10
-137.7028588507
 20
179.9108017953
 10
-132.7190233329
 20
183.0367077614
 10
-127.4679093646
 20
186.0443041832
 10
-121.9600919906
 20
188.9275341616
 10
-116.2066632222
 20
191.6805912554
 10
-110.2192096991
 20
194.2979311737
 10
-104.0097893559
 20
196.7742829425
 10
-97.5909071388
 20
199.1046595187
 10
-90.9754898225
 20
201.2843678342
 10
-84.1768599769
 20
203.3090182463
 10
-77.2087091377
 20
205.1745333786
 10
-70.0850702335
 20
206.877156332
 10
-62.820289325
 20
208.4134582504
 10
-55.4289967141
 20
209.7803452262
 10
-47.9260774804
 20
210.9750645308
 10
-40.3266415048
 20
211.9952101587
 10
-32.6459930399
 20
212.8387276724
 10
-24.8995998897
 20
213.5039183396
 10
-17.1030622591
 20
213.9894425552
 10
-9.2720813371
 20
214.2943225377
 10
-1.4224276773
 20
214.4179442996
 10
6.4300905625
 20
214.3600588831
 10
14.2696594557
 20
214.1207828617
 10
22.0804911538
 20
213.7005981054
 10
29.8468556812
 20
213.1003508104
 10
37.5531126134
 20
212.321249795
 10
45.1837425744
 20
211.3648640648
 10
52.7233784911
 20
210.2331196535
 10
60.15683654
 20
208.9282957436
 10
67.469146726
 20
207.453020077
 10
74.6455830295
 20
205.8102636623
 10
81.6716930628
 20
204.0033347926
  0
LWPOLYLINE
  5
CC
330
C4
100
AcDbEntity
  8
0
  6
Continuous
 62
     7
370
    25
100
AcDbPolyline
 90
       56
 70
   128
 43
0.0
 10
130.4289879579
 20
-12.0184893517
 10
129.7981401438
 20
-13.7109753796
 10
128.2556088745
 20
-17.1342012818
 10
126.372966787
 20
-20.5119903624
 10
124.1552063095
 20
-23.835385332
 10
121.6082085443
 20
-27.0955731446
 10
118.7387276714
 20
-30.2839083682
 10
115.5543730384
 20
-33.3919361109
 10
112.0635889813
 20
-36.4114144419
 10
108.2756324318
 20
-39.3343362475
 10
104.2005483698
 20
-42.1529504644
 10
99.8491431856
 20
-44.8597826346
 10
95.2329560236
 20
-47.4476547256
 10
90.3642281821
 20
-49.909704166
 10
85.2558706523
 20
-52.2394020431
 10
79.9214298799
 20
-54.4305704171
 10
74.3750518429
 20
-56.4773987033
 10
68.6314445388
 20
-58.3744590811
 10
62.7058389817
 20
-60.1167208873
 10
56.6139488121
 20
-61.6995639569
 10
50.3719286278
 20
-63.1187908747
 10
43.9963311442
 20
-64.3706381058
 10
37.5040632995
 20
-65.4517859766
 10
30.912341421
 20
-66.3593674772
 10
24.2386455702
 20
-67.0909758647
 10
17.5006731887
 20
-67.6446710451
 10
10.7162921681
 20
-68.0189847184
 10
3.903493467
 20
-68.2129242719
 10
-2.919656597
 20
-68.2259754129
 10
-9.7350642565
 20
-68.058103532
 10
-16.5246562758
 20
-67.7097537953
 10
-23.2704278772
 20
-67.1818499638
 10
-29.9544904872
 20
-66.4757919434
 10
-36.5591191733
 20
-65.5934520731
 10
-43.0667996476
 20
-64.5371701596
 10
-49.4602747114
 20
-63.3097472727
 10
-55.7225900181
 20
-61.9144383172
 10
-61.8371390332
 20
-60.3549434016
 10
-67.7877070721
 20
-58.6353980261
 10
-73.5585142981
 20
-56.7603621158
 10
-79.1342575676
 20
-54.7348079291
 10
-84.5001510121
 20
-52.5641068714
 10
-89.6419652466
 20
-50.2540152517
 10
-94.5460651042
 20
-47.8106590176
 10
-99.1994457937
 20
-45.2405175108
 10
-103.589767386
 20
-42.5504062844
 10
-107.7053875374
 20
-39.7474590299
 10
-111.5353923633
 20
-36.8391086593
 10
-115.0696253793
 20
-33.8330675952
 10
-118.2987144349
 20
-30.7373073179
 10
-121.2140965662
 20
-27.5600372273
 10
-123.8080407041
 20
-24.3096828724
 10
-126.073668175
 20
-20.9948636086
 10
-128.0049709421
 20
-17.6243697409
 10
-129.5968275376
 20
-14.2071392129
 10
-130.4289879579
 20
-12.0184893517
  0
LINE
  5
CF
330
C4
100
AcDbEntity
  8
0
  6
Continuous
 62
     7
370
    25
100
AcDbLine
 10
-172.2647010764
 20
108.4157820996
 30
0.0
 11
-130.4289879579
 21
-12.0184893517
 31
0.0
  0
LINE
  5
D0
330
C4
100
AcDbEntity
  8
0
  6
Continuous
 62
     7
370
    25
100
AcDbLine
 10
130.4289879579
 20
-12.0184893517
 30
0.0
 11
172.2647010764
 21
108.4157820996
 31
0.0
  0
LINE
  5
D1
330
C4
100
AcDbEntity
  8
0
  6
Continuous
 62
     7
370
    25
100
AcDbLine
 10
14.4675570568
 20
42.4073001341
 30
0.0
 11
15.0390983853
 21
42.2480006911
 31
0.0
  0
ARC
  5
D2
330
C4
100
AcDbEntity
  8
0
  6
Continuous
 62
     7
370
    25
100
AcDbCircle
 10
0.0101697778
 20
-12.4886910048
 30
0.0
 40
56.76782442596211
100
AcDbArc
 50
75.2456283544
 51
105.3730183171
  0
VIEWPORT
  5
EC
330
C4
100
AcDbEntity
  8
0
100
AcDbViewport
 10
0.0
 20
0.0
 30
0.0
 40
205.6
 41
156.0
 68
     1
 69
     1
 12
0.0
 22
72.5
 13
0.0
 23
0.0
 14
10.0
 24
10.0
 15
10.0
 25
10.0
 16
0.0
 26
0.0
 36
1.0
 17
0.0
 27
0.0
 37
0.0
 42
50.0
 43
0.0
 44
0.0
 45
270.8754863813
 50
0.0
 51
0.0
 72
   100
 90
   557152
  1

281
     0
 71
     1
 74
     0
110
0.0
120
0.0
130
0.0
111
1.0
121
0.0
131
0.0
112
0.0
122
1.0
132
0.0
 79
     0
146
0.0
  0
ENDBLK
  5
C7
330
C4
100
AcDbEntity
  8
0
100
AcDbBlockEnd
  0
BLOCK
  5
D5
330
D3
100
AcDbEntity
  8
0
100
AcDbBlockBegin
  2
*Paper_Space7
 70
     0
 10
0.0
 20
0.0
 30
0.0
  3
*Paper_Space7
  1

  0
LWPOLYLINE
  5
D9
330
D3
100
AcDbEntity
  8
0
  6
Continuous
 62
     7
370
    25
100
AcDbPolyline
 90
      135
 70
   128
 43
0.0
 10
56.5685424819
 20
186.5960761802
 10
63.5215653997
 20
185.657411157
 10
70.3349541307
 20
184.6111431901
 10
76.9937313679
 20
183.4595722036
 10
83.4832596736
 20
182.2052296005
 10
89.7892736564
 20
180.850872698
 10
95.8979113288
 20
179.3994786666
 10
101.7957445795
 20
177.8542379853
 10
107.4698086911
 20
176.2185474286
 10
112.9076308391
 20
174.4960025991
 10
118.0972575104
 20
172.6903900244
 10
123.0272807791
 20
170.8056788326
 10
127.6868633843
 20
168.8460120282
 10
132.0657625521
 20
166.8156973839
 10
136.1543525117
 20
164.7191979721
 10
139.9436456552
 20
162.5611223534
 10
143.4253122937
 20
160.3462144463
 10
146.5916989684
 20
158.0793430993
 10
149.4358452741
 20
155.7654913875
 10
151.9514991601
 20
153.409745659
 10
154.1331306732
 20
151.0172843544
 10
155.9759441137
 20
148.5933666227
 10
157.4758885778
 20
146.1433207612
 10
158.6296668621
 20
143.6725325025
 10
159.4347427114
 20
141.1864331753
 10
159.8893463944
 20
138.6904877655
 10
159.9924785934
 20
136.1901829029
 10
159.7439126016
 20
133.6910148001
 10
159.1441948208
 20
131.1984771711
 10
158.194643561
 20
128.7180491545
 10
156.8973461419
 20
126.2551832694
 10
155.2551543047
 20
123.8152934295
 10
153.2716779436
 20
121.4037430423
 10
150.9512771701
 20
119.0258332188
 10
148.2990527285
 20
116.686791121
 10
145.320834784
 20
114.3917584709
 10
142.0231701058
 20
112.1457802485
 10
138.4133076766
 20
109.9537936013
 10
134.4991827576
 20
107.8206169917
 10
130.2893994446
 20
105.7509396048
 10
125.7932117552
 20
103.7493110408
 10
121.0205032856
 20
101.8201313135
 10
115.9817654848
 20
99.9676411788
 10
110.6880745922
 20
98.195912812
 10
105.1510672891
 20
96.5088408566
 10
99.3829151194
 20
94.9101338628
 10
93.3962977333
 20
93.4033061357
 10
87.2043750151
 20
91.9916700095
 10
80.8207581548
 20
90.6783285668
 10
74.2594797276
 20
89.4661688173
 10
67.5349628476
 20
88.3578553509
 10
60.6619894622
 20
87.3558244814
 10
53.6556678586
 20
86.46227889
 10
46.5313994522
 20
85.6791827839
 10
39.3048449312
 20
85.0082575782
 10
31.9918898307
 20
84.4509781122
 10
24.6086096133
 20
84.0085694071
 10
17.1712343311
 20
83.6820039732
 10
9.6961129493
 20
83.4719996722
 10
2.1996774068
 20
83.3790181392
 10
-5.301593504
 20
83.4032637678
 10
-12.7912103616
 20
83.5446832607
 10
-20.2527093629
 20
83.8029657472
 10
-27.6696885135
 20
84.1775434665
 10
-35.0258436837
 20
84.6675930153
 10
-42.3050044478
 20
85.2720371585
 10
-49.4911696308
 20
85.9895471965
 10
-56.5685424819
 20
86.8185458867
 10
-63.5215653997
 20
87.75721091
 10
-70.3349541307
 20
88.8034788769
 10
-76.9937313679
 20
89.9550498633
 10
-83.4832596736
 20
91.2093924664
 10
-89.7892736564
 20
92.5637493689
 10
-95.8979113288
 20
94.0151434003
 10
-101.7957445795
 20
95.5603840816
 10
-107.4698086911
 20
97.1960746384
 10
-112.9076308391
 20
98.9186194678
 10
-118.0972575104
 20
100.7242320426
 10
-123.0272807791
 20
102.6089432343
 10
-127.6868633843
 20
104.5686100387
 10
-132.0657625521
 20
106.598924683
 10
-136.1543525117
 20
108.6954240949
 10
-139.9436456552
 20
110.8534997136
 10
-143.4253122937
 20
113.0684076206
 10
-146.5916989684
 20
115.3352789676
 10
-149.4358452741
 20
117.6491306795
 10
-151.9514991601
 20
120.0048764079
 10
-154.1331306732
 20
122.3973377126
 10
-155.9759441137
 20
124.8212554442
 10
-157.4758885778
 20
127.2713013057
 10
-158.6296668621
 20
129.7420895645
 10
-159.4347427114
 20
132.2281888917
 10
-159.8893463944
 20
134.7241343014
 10
-159.9924785934
 20
137.224439164
 10
-159.7439126016
 20
139.7236072668
 10
-159.1441948208
 20
142.2161448958
 10
-158.194643561
 20
144.6965729124
 10
-156.8973461419
 20
147.1594387975
 10
-155.2551543047
 20
149.5993286374
 10
-153.2716779436
 20
152.0108790246
 10
-150.9512771701
 20
154.3887888481
 10
-148.2990527285
 20
156.727830946
 10
-145.320834784
 20
159.022863596
 10
-142.0231701058
 20
161.2688418184
 10
-138.4133076766
 20
163.4608284656
 10
-134.4991827576
 20
165.5940050753
 10
-130.2893994446
 20
167.6636824621
 10
-125.7932117552
 20
169.6653110262
 10
-121.0205032856
 20
171.5944907534
 10
-115.9817654848
 20
173.4469808881
 10
-110.6880745922
 20
175.2187092549
 10
-105.1510672891
 20
176.9057812103
 10
-99.3829151194
 20
178.5044882041
 10
-93.3962977333
 20
180.0113159312
 10
-87.2043750151
 20
181.4229520574
 10
-80.8207581548
 20
182.7362935001
 10
-74.2594797276
 20
183.9484532497
 10
-67.5349628476
 20
185.056766716
 10
-60.6619894622
 20
186.0587975855
 10
-53.6556678586
 20
186.9523431769
 10
-46.5313994522
 20
187.735439283
 10
-39.3048449312
 20
188.4063644887
 10
-31.9918898307
 20
188.9636439547
 10
-24.6086096133
 20
189.4060526598
 10
-17.1712343311
 20
189.7326180937
 10
-9.6961129493
 20
189.9426223947
 10
-2.1996774068
 20
190.0356039277
 10
5.301593504
 20
190.0113582992
 10
12.7912103616
 20
189.8699388063
 10
20.2527093629
 20
189.6116563197
 10
27.6696885135
 20
189.2370786004
 10
35.0258436837
 20
188.7470290516
 10
42.3050044478
 20
188.1425849084
 10
49.4911696308
 20
187.4250748704
 10
56.5685424819
 20
186.5960761802
  0
LWPOLYLINE
  5
DA
330
D3
100
AcDbEntity
  8
0
  6
Continuous
 62
     7
370
    25
100
AcDbPolyline
 90
      141
 70
   128
 43
0.0
 10
61.8718433396
 20
191.2731479127
 10
69.1538035557
 20
190.2929138278
 10
76.2964972146
 20
189.2047654701
 10
83.2855398819
 20
188.0108942257
 10
90.1068565557
 20
186.7137043924
 10
96.7467100121
 20
185.3158083379
 10
103.1917284697
 20
183.8200212387
 10
109.4289325193
 20
182.229355411
 10
115.4457612619
 20
180.5470142442
 10
121.2300976051
 20
178.7763857494
 10
126.7702926654
 20
176.9210357367
 10
132.0551892272
 20
174.9847006343
 10
137.0741442121
 20
172.9712799633
 10
141.8170501127
 20
170.884828485
 10
146.2743553478
 20
168.7295480349
 10
150.4370834979
 20
166.5097790611
 10
154.2968513823
 20
164.2299918829
 10
157.8458859422
 20
161.8947776883
 10
161.0770398945
 20
159.5088392878
 10
163.9838061249
 20
157.076981644
 10
166.5603307932
 20
154.6041021943
 10
168.8014251215
 20
152.095180989
 10
170.7025758442
 20
149.5552706615
 10
172.2599542967
 20
146.9894862532
 10
173.4704241261
 20
144.4029949123
 10
174.3315476071
 20
141.8010054882
 10
174.8415905518
 20
139.1887580414
 10
174.9995258015
 20
136.5715132906
 10
174.8050352956
 20
133.9545420183
 10
174.2585107122
 20
131.3431144565
 10
173.361052679
 20
128.7424896727
 10
172.114468557
 20
126.1579049792
 10
170.5212688007
 20
123.5945653855
 10
168.5846619026
 20
121.0576331165
 10
166.308547931
 20
118.5522172161
 10
163.6975106767
 20
116.0833632585
 10
160.7568084212
 20
113.656043187
 10
157.4923633475
 20
111.2751453013
 10
153.9107496135
 20
108.9454644128
 10
150.0191801126
 20
106.6716921887
 10
145.8254919479
 20
104.4584077038
 10
141.3381306493
 20
102.3100682184
 10
136.5661331651
 20
100.2310002024
 10
131.5191096634
 20
98.225390622
 10
126.2072241777
 20
96.297278508
 10
120.6411741386
 20
94.4505468217
 10
114.8321688299
 20
92.6889146349
 10
108.7919068154
 20
91.0159296403
 10
102.5325523789
 20
89.4349610071
 10
96.0667110272
 20
87.9491925958
 10
89.4074041042
 20
86.5616165461
 10
82.568042568
 20
85.2750272516
 10
75.5623999825
 20
84.0920157319
 10
68.4045847794
 20
83.0149644148
 10
61.109011846
 20
82.0460423382
 10
53.6903734953
 20
81.1872007823
 10
46.1636098777
 20
80.4401693397
 10
38.5438788933
 20
79.8064524323
 10
30.8465256664
 20
79.2873262816
 10
23.0870516419
 20
78.8838363385
 10
15.2810833679
 20
78.5967951782
 10
7.4443410256
 20
78.4267808634
 10
-0.4073932287
 20
78.3741357802
 10
-8.2583070474
 20
78.4389659488
 10
-16.0925897346
 20
78.6211408099
 10
-23.8944640878
 20
78.9202934876
 10
-31.6482181703
 20
79.3358215281
 10
-39.3382369532
 20
79.8668881134
 10
-46.9490337621
 20
80.512423746
 10
-54.4652814651
 20
81.271128403
 10
-61.8718433396
 20
82.1414741542
 10
-69.1538035557
 20
83.1217082391
 10
-76.2964972146
 20
84.2098565968
 10
-83.2855398819
 20
85.4037278412
 10
-90.1068565557
 20
86.7009176745
 10
-96.7467100121
 20
88.0988137291
 10
-103.1917284697
 20
89.5946008283
 10
-109.4289325193
 20
91.1852666559
 10
-115.4457612619
 20
92.8676078228
 10
-121.2300976051
 20
94.6382363176
 10
-126.7702926654
 20
96.4935863302
 10
-132.0551892272
 20
98.4299214326
 10
-137.0741442121
 20
100.4433421036
 10
-141.8170501127
 20
102.529793582
 10
-146.2743553478
 20
104.685074032
 10
-150.4370834979
 20
106.9048430058
 10
-154.2968513823
 20
109.184630184
 10
-157.8458859422
 20
111.5198443786
 10
-161.0770398945
 20
113.9057827791
 10
-163.9838061249
 20
116.337640423
 10
-166.5603307932
 20
118.8105198726
 10
-168.8014251215
 20
121.3194410779
 10
-170.7025758442
 20
123.8593514054
 10
-172.2599542967
 20
126.4251358138
 10
-173.4704241261
 20
129.0116271547
 10
-174.3315476071
 20
131.6136165787
 10
-174.8415905518
 20
134.2258640255
 10
-174.9995258015
 20
136.8431087763
 10
-174.8050352956
 20
139.4600800486
 10
-174.2585107122
 20
142.0715076104
 10
-173.361052679
 20
144.6721323942
 10
-172.114468557
 20
147.2567170877
 10
-170.5212688007
 20
149.8200566814
 10
-168.5846619026
 20
152.3569889504
 10
-166.308547931
 20
154.8624048508
 10
-163.6975106767
 20
157.3312588084
 10
-160.7568084212
 20
159.7585788799
 10
-157.4923633475
 20
162.1394767656
 10
-153.9107496135
 20
164.4691576542
 10
-150.0191801126
 20
166.7429298782
 10
-145.8254919479
 20
168.9562143631
 10
-141.3381306493
 20
171.1045538485
 10
-136.5661331651
 20
173.1836218646
 10
-131.5191096634
 20
175.1892314449
 10
-126.2072241777
 20
177.1173435589
 10
-120.6411741386
 20
178.9640752452
 10
-114.8321688299
 20
180.725707432
 10
-108.7919068154
 20
182.3986924266
 10
-102.5325523789
 20
183.9796610598
 10
-96.0667110272
 20
185.4654294711
 10
-89.4074041042
 20
186.8530055208
 10
-82.568042568
 20
188.1395948153
 10
-75.5623999825
 20
189.322606335
 10
-68.4045847794
 20
190.3996576522
 10
-61.109011846
 20
191.3685797288
 10
-53.6903734953
 20
192.2274212846
 10
-46.1636098777
 20
192.9744527273
 10
-38.5438788933
 20
193.6081696347
 10
-30.8465256664
 20
194.1272957854
 10
-23.0870516419
 20
194.5307857284
 10
-15.2810833679
 20
194.8178268887
 10
-7.4443410256
 20
194.9878412035
 10
0.4073932287
 20
195.0404862868
 10
8.2583070474
 20
194.9756561181
 10
16.0925897346
 20
194.793481257
 10
23.8944640878
 20
194.4943285794
 10
31.6482181703
 20
194.0788005388
 10
39.3382369532
 20
193.5477339535
 10
46.9490337621
 20
192.902198321
 10
54.4652814651
 20
192.1434936639
 10
61.8718433396
 20
191.2731479127
  0
LWPOLYLINE
  5
DB
330
D3
100
AcDbEntity
  8
0
  6
Continuous
 62
     7
370
    25
100
AcDbPolyline
 90
       59
 70
   128
 43
0.0
 10
131.7866405571
 20
-4.576890873
 10
131.3886348254
 20
-5.7084405205
 10
130.3328350762
 20
-7.9554460782
 10
128.9314160783
 20
-10.1813552231
 10
127.1880941429
 20
-12.3802652442
 10
125.1074922464
 20
-14.5463450274
 10
122.695127771
 20
-16.6738505187
 10
119.9573978736
 20
-18.7571399558
 10
116.9015625217
 20
-20.7906888297
 10
113.5357252414
 20
-22.7691045344
 10
109.8688116281
 20
-24.687140667
 10
105.9105456773
 20
-26.5397109406
 10
101.671423999
 20
-28.3219026718
 10
97.1626879816
 20
-30.0289898086
 10
92.3962939826
 20
-31.6564454627
 10
87.384881622
 20
-33.1999539143
 10
82.1417402646
 20
-34.6554220564
 10
76.6807737785
 20
-36.0189902492
 10
71.0164636652
 20
-37.2870425551
 10
65.1638306569
 20
-38.4562163271
 10
59.1383948842
 20
-39.5234111267
 10
52.9561347195
 20
-40.4857969451
 10
46.6334444055
 20
-41.3408217082
 10
40.1870905802
 20
-42.0862180439
 10
33.634167815
 20
-42.7200092951
 10
26.9920532833
 20
-43.2405147615
 10
20.2783606786
 20
-43.646354156
 10
13.5108935068
 20
-43.9364512657
 10
6.7075978742
 20
-44.110036805
 10
-0.113485102
 20
-44.1666504563
 10
-6.9342671362
 20
-44.1061420905
 10
-13.7366607405
 20
-43.9286721648
 10
-20.50262719
 20
-43.6347112975
 10
-27.2142243579
 20
-43.2250390201
 10
-33.8536542951
 20
-42.7007417097
 10
-40.403310427
 20
-42.0632097087
 10
-46.8458242429
 20
-41.3141336372
 10
-53.1641113543
 20
-40.4554999103
 10
-59.3414167998
 20
-39.4895854703
 10
-65.3613594757
 20
-38.4189517486
 10
-71.2079755762
 20
-37.2464378735
 10
-76.8657609266
 20
-35.975153141
 10
-82.3197120971
 20
-34.6084687695
 10
-87.5553661897
 20
-33.1500089604
 10
-92.558839191
 20
-31.6036412869
 10
-97.31686279
 20
-29.9734664381
 10
-101.8168195635
 20
-28.2638073447
 10
-106.0467764351
 20
-26.4791977151
 10
-109.9955163196
 20
-24.6243700134
 10
-113.6525678686
 20
-22.704242909
 10
-117.008233239
 20
-20.7239082341
 10
-120.0536138094
 20
-18.68861748
 10
-122.7806337779
 20
-16.603767872
 10
-125.1820615779
 20
-14.4748880565
 10
-127.2515290545
 20
-12.3076234399
 10
-128.983548352
 20
-10.1077212186
 10
-130.3735264666
 20
-7.8810151376
 10
-131.4177774262
 20
-5.6334100213
 10
-131.7866405571
 20
-4.576890873
  0
LINE
  5
DC
330
D3
100
AcDbEntity
  8
0
  6
Continuous
 62
     7
370
    25
100
AcDbLine
 10
-174.0578271509
 20
130.6623608238
 30
0.0
 11
-131.7866405571
 21
-4.576890873
 31
0.0
  0
LINE
  5
DD
330
D3
100
AcDbEntity
  8
0
  6
Continuous
 62
     7
370
    25
100
AcDbLine
 10
131.7866405571
 20
-4.576890873
 30
0.0
 11
174.0578271509
 21
130.6623608238
 31
0.0
  0
VIEWPORT
  5
EE
330
D3
100
AcDbEntity
  8
0
100
AcDbViewport
 10
0.0
 20
0.0
 30
0.0
 40
205.6
 41
156.0
 68
     1
 69
     1
 12
0.0
 22
72.5
 13
0.0
 23
0.0
 14
10.0
 24
10.0
 15
10.0
 25
10.0
 16
0.0
 26
0.0
 36
1.0
 17
0.0
 27
0.0
 37
0.0
 42
50.0
 43
0.0
 44
0.0
 45
270.8754863813
 50
0.0
 51
0.0
 72
   100
 90
   557152
  1

281
     0
 71
     1
 74
     0
110
0.0
120
0.0
130
0.0
111
1.0
121
0.0
131
0.0
112
0.0
122
1.0
132
0.0
 79
     0
146
0.0
  0
ENDBLK
  5
D6
330
D3
100
AcDbEntity
  8
0
100
AcDbBlockEnd
  0
ENDSEC
  0
SECTION
  2
ENTITIES
  0
LINE
  5
77
330
1F
100
AcDbEntity
  8
0
  6
Continuous
 62
     7
370
    25
100
AcDbLine
 10
-175.0
 20
145.0
 30
0.0
 11
-132.5
 21
0.0
 31
0.0
  0
LINE
  5
78
330
1F
100
AcDbEntity
  8
0
  6
Continuous
 62
     7
370
    25
100
AcDbLine
 10
132.5
 20
0.0
 30
0.0
 11
175.0
 21
145.0
 31
0.0
  0
LINE
  5
79
330
1F
100
AcDbEntity
  8
0
  6
Continuous
 62
     7
370
    25
100
AcDbLine
 10
132.5
 20
0.0
 30
0.0
 11
-132.5
 21
0.0
 31
0.0
  0
LINE
  5
7A
330
1F
100
AcDbEntity
  8
0
  6
Continuous
 62
     7
370
    25
100
AcDbLine
 10
175.0
 20
145.0
 30
0.0
 11
-175.0
 21
145.0
 31
0.0
  0
CIRCLE
  5
7B
330
1B
100
AcDbEntity
 67
     1
  8
0
  6
Continuous
 62
     7
370
    25
100
AcDbCircle
 10
0.0
 20
0.0
 30
0.0
 40
31.00000000000001
  0
CIRCLE
  5
7C
330
1B
100
AcDbEntity
 67
     1
  8
0
  6
Continuous
 62
     7
370
    25
100
AcDbCircle
 10
0.0
 20
0.0
 30
0.0
 40
159.9999999999999
  0
CIRCLE
  5
7D
330
1B
100
AcDbEntity
 67
     1
  8
0
  6
Continuous
 62
     7
370
    25
100
AcDbCircle
 10
0.0
 20
0.0
 30
0.0
 40
174.9999999999999
  0
CIRCLE
  5
7E
330
1B
100
AcDbEntity
 67
     1
  8
0
  6
Continuous
 62
     7
370
    25
100
AcDbCircle
 10
0.0
 20
0.0
 30
0.0
 40
22.99999999999999
  0
VIEWPORT
  5
DE
330
1B
100
AcDbEntity
 67
     1
  8
0
100
AcDbViewport
 10
0.0
 20
0.0
 30
0.0
 40
205.6
 41
156.0
 68
     1
 69
     1
 12
0.0
 22
72.5
 13
0.0
 23
0.0
 14
10.0
 24
10.0
 15
10.0
 25
10.0
 16
0.0
 26
0.0
 36
1.0
 17
0.0
 27
0.0
 37
0.0
 42
50.0
 43
0.0
 44
0.0
 45
270.8754863813
 50
0.0
 51
0.0
 72
   100
 90
   557152
  1

281
     0
 71
     1
 74
     0
110
0.0
120
0.0
130
0.0
111
1.0
121
0.0
131
0.0
112
0.0
122
1.0
132
0.0
 79
     0
146
0.0
  0
ENDSEC
  0
SECTION
  2
OBJECTS
  0
DICTIONARY
  5
C
330
0
100
AcDbDictionary
281
     1
  3
ACAD_GROUP
350
D
  3
ACAD_LAYOUT
350
1A
  3
ACAD_MLINESTYLE
350
17
  3
ACAD_PLOTSETTINGS
350
19
  3
ACAD_PLOTSTYLENAME
350
E
  3
ACAD_SCALELIST
350
47
  0
DICTIONARY
  5
D
102
{ACAD_REACTORS
330
C
102
}
330
C
100
AcDbDictionary
281
     1
  0
DICTIONARY
  5
1A
102
{ACAD_REACTORS
330
C
102
}
330
C
100
AcDbDictionary
281
     1
  3
_Dimetrisch
350
D4
  3
_Isometrisch
350
B5
  3
_Links
350
96
  3
_Normal auf
350
26
  3
_Oben
350
1E
  3
_Rechts
350
A2
  3
_Rückseite
350
88
  3
_Trimetrisch
350
C5
  3
_Unten
350
AE
  3
Model
350
22
  0
DICTIONARY
  5
17
102
{ACAD_REACTORS
330
C
102
}
330
C
100
AcDbDictionary
281
     1
  3
Standard
350
18
  0
DICTIONARY
  5
19
102
{ACAD_REACTORS
330
C
102
}
330
C
100
AcDbDictionary
281
     1
  0
ACDBDICTIONARYWDFLT
  5
E
102
{ACAD_REACTORS
330
C
102
}
330
C
100
AcDbDictionary
281
     1
  3
Normal
350
F
100
AcDbDictionaryWithDefault
340
F
  0
DICTIONARY
  5
47
102
{ACAD_REACTORS
330
C
102
}
330
C
100
AcDbDictionary
281
     1
  3
A0
350
48
  3
A1
350
49
  3
A2
350
4A
  3
A3
350
4B
  3
A4
350
4C
  3
A5
350
4D
  3
A6
350
4E
  3
A7
350
4F
  3
A8
350
50
  3
A9
350
51
  3
B0
350
52
  3
B1
350
53
  3
B2
350
54
  3
B3
350
55
  3
B4
350
56
  3
B5
350
57
  3
B6
350
58
  3
B7
350
59
  3
B8
350
5A
  3
B9
350
5B
  3
C0
350
5C
  3
C1
350
5D
  3
C2
350
5E
  3
C3
350
5F
  3
C4
350
60
  3
C5
350
61
  3
C6
350
62
  3
C7
350
63
  3
C8
350
64
  3
C9
350
65
  3
D0
350
66
  3
D1
350
67
  3
D2
350
68
  0
LAYOUT
  5
D4
102
{ACAD_REACTORS
330
1A
102
}
330
1A
100
AcDbPlotSettings
  1

  2
none_device
  4
ISO_A4_(210.00_x_297.00_MM)
  6

 40
7.5
 41
20.0
 42
7.5
 43
20.0
 44
210.0
 45
297.0
 46
0.0
 47
0.0
 48
0.0
 49
0.0
140
0.0
141
0.0
142
1.0
143
1.7948717949
 70
   688
 72
     1
 73
     1
 74
     1
  7

 75
     0
147
0.5571428571
148
175.0
149
175.0
100
AcDbLayout
  1
_Dimetrisch
 70
     1
 71
     9
 10
0.0
 20
0.0
 11
0.0
 21
0.0
 12
0.0
 22
0.0
 32
0.0
 14
0.0
 24
0.0
 34
0.0
 15
0.0
 25
0.0
 35
0.0
146
0.0
 13
0.0
 23
0.0
 33
0.0
 16
1.0
 26
0.0
 36
0.0
 17
0.0
 27
1.0
 37
0.0
 76
     0
330
D3
331
EE
  0
LAYOUT
  5
B5
102
{ACAD_REACTORS
330
1A
102
}
330
1A
100
AcDbPlotSettings
  1

  2
none_device
  4
ISO_A4_(210.00_x_297.00_MM)
  6

 40
7.5
 41
20.0
 42
7.5
 43
20.0
 44
210.0
 45
297.0
 46
0.0
 47
0.0
 48
0.0
 49
0.0
140
0.0
141
0.0
142
1.0
143
1.7948717949
 70
   688
 72
     1
 73
     1
 74
     1
  7

 75
     0
147
0.5571428571
148
175.0
149
175.0
100
AcDbLayout
  1
_Isometrisch
 70
     1
 71
     7
 10
0.0
 20
0.0
 11
0.0
 21
0.0
 12
0.0
 22
0.0
 32
0.0
 14
0.0
 24
0.0
 34
0.0
 15
0.0
 25
0.0
 35
0.0
146
0.0
 13
0.0
 23
0.0
 33
0.0
 16
1.0
 26
0.0
 36
0.0
 17
0.0
 27
1.0
 37
0.0
 76
     0
330
B4
331
EA
  0
LAYOUT
  5
96
102
{ACAD_REACTORS
330
1A
102
}
330
1A
100
AcDbPlotSettings
  1

  2
none_device
  4
ISO_A4_(210.00_x_297.00_MM)
  6

 40
7.5
 41
20.0
 42
7.5
 43
20.0
 44
210.0
 45
297.0
 46
0.0
 47
0.0
 48
0.0
 49
0.0
140
0.0
141
0.0
142
1.0
143
1.7948717949
 70
   688
 72
     1
 73
     1
 74
     1
  7

 75
     0
147
0.5571428571
148
175.0
149
175.0
100
AcDbLayout
  1
_Links
 70
     1
 71
     4
 10
0.0
 20
0.0
 11
0.0
 21
0.0
 12
0.0
 22
0.0
 32
0.0
 14
0.0
 24
0.0
 34
0.0
 15
0.0
 25
0.0
 35
0.0
146
0.0
 13
0.0
 23
0.0
 33
0.0
 16
1.0
 26
0.0
 36
0.0
 17
0.0
 27
1.0
 37
0.0
 76
     0
330
95
331
E4
  0
LAYOUT
  5
26
102
{ACAD_REACTORS
330
1A
102
}
330
1A
100
AcDbPlotSettings
  1

  2
none_device
  4
ISO_A4_(210.00_x_297.00_MM)
  6

 40
7.5
 41
20.0
 42
7.5
 43
20.0
 44
210.0
 45
297.0
 46
0.0
 47
0.0
 48
0.0
 49
0.0
140
0.0
141
0.0
142
1.0
143
1.7948717949
 70
   688
 72
     1
 73
     1
 74
     1
  7

 75
     0
147
0.5571428571
148
175.0
149
175.0
100
AcDbLayout
  1
_Normal auf
 70
     1
 71
     2
 10
0.0
 20
0.0
 11
0.0
 21
0.0
 12
0.0
 22
0.0
 32
0.0
 14
0.0
 24
0.0
 34
0.0
 15
0.0
 25
0.0
 35
0.0
146
0.0
 13
0.0
 23
0.0
 33
0.0
 16
1.0
 26
0.0
 36
0.0
 17
0.0
 27
1.0
 37
0.0
 76
     0
330
23
331
E0
  0
LAYOUT
  5
1E
102
{ACAD_REACTORS
330
1A
102
}
330
1A
100
AcDbPlotSettings
  1

  2
none_device
  4
ISO_A4_(210.00_x_297.00_MM)
  6

 40
7.5
 41
20.0
 42
7.5
 43
20.0
 44
210.0
 45
297.0
 46
0.0
 47
0.0
 48
0.0
 49
0.0
140
0.0
141
0.0
142
1.0
143
1.7948717949
 70
   688
 72
     1
 73
     1
 74
     1
  7

 75
     0
147
0.5571428571
148
175.0
149
175.0
100
AcDbLayout
  1
_Oben
 70
     1
 71
     1
 10
-210.8974358974
 20
-188.4615384615
 11
322.1794871795
 21
188.4615384615
 12
0.0
 22
0.0
 32
0.0
 14
-175.0
 24
-175.0
 34
0.0
 15
175.0
 25
175.0
 35
0.0
146
0.0
 13
0.0
 23
0.0
 33
0.0
 16
1.0
 26
0.0
 36
0.0
 17
0.0
 27
1.0
 37
0.0
 76
     0
330
1B
331
DE
  0
LAYOUT
  5
A2
102
{ACAD_REACTORS
330
1A
102
}
330
1A
100
AcDbPlotSettings
  1

  2
none_device
  4
ISO_A4_(210.00_x_297.00_MM)
  6

 40
7.5
 41
20.0
 42
7.5
 43
20.0
 44
210.0
 45
297.0
 46
0.0
 47
0.0
 48
0.0
 49
0.0
140
0.0
141
0.0
142
1.0
143
1.7948717949
 70
   688
 72
     1
 73
     1
 74
     1
  7

 75
     0
147
0.5571428571
148
175.0
149
175.0
100
AcDbLayout
  1
_Rechts
 70
     1
 71
     5
 10
0.0
 20
0.0
 11
0.0
 21
0.0
 12
0.0
 22
0.0
 32
0.0
 14
0.0
 24
0.0
 34
0.0
 15
0.0
 25
0.0
 35
0.0
146
0.0
 13
0.0
 23
0.0
 33
0.0
 16
1.0
 26
0.0
 36
0.0
 17
0.0
 27
1.0
 37
0.0
 76
     0
330
A1
331
E6
  0
LAYOUT
  5
88
102
{ACAD_REACTORS
330
1A
102
}
330
1A
100
AcDbPlotSettings
  1

  2
none_device
  4
ISO_A4_(210.00_x_297.00_MM)
  6

 40
7.5
 41
20.0
 42
7.5
 43
20.0
 44
210.0
 45
297.0
 46
0.0
 47
0.0
 48
0.0
 49
0.0
140
0.0
141
0.0
142
1.0
143
1.7948717949
 70
   688
 72
     1
 73
     1
 74
     1
  7

 75
     0
147
0.5571428571
148
175.0
149
175.0
100
AcDbLayout
  1
_Rückseite
 70
     1
 71
     3
 10
0.0
 20
0.0
 11
0.0
 21
0.0
 12
0.0
 22
0.0
 32
0.0
 14
0.0
 24
0.0
 34
0.0
 15
0.0
 25
0.0
 35
0.0
146
0.0
 13
0.0
 23
0.0
 33
0.0
 16
1.0
 26
0.0
 36
0.0
 17
0.0
 27
1.0
 37
0.0
 76
     0
330
87
331
E2
  0
LAYOUT
  5
C5
102
{ACAD_REACTORS
330
1A
102
}
330
1A
100
AcDbPlotSettings
  1

  2
none_device
  4
ISO_A4_(210.00_x_297.00_MM)
  6

 40
7.5
 41
20.0
 42
7.5
 43
20.0
 44
210.0
 45
297.0
 46
0.0
 47
0.0
 48
0.0
 49
0.0
140
0.0
141
0.0
142
1.0
143
1.7948717949
 70
   688
 72
     1
 73
     1
 74
     1
  7

 75
     0
147
0.5571428571
148
175.0
149
175.0
100
AcDbLayout
  1
_Trimetrisch
 70
     1
 71
     8
 10
0.0
 20
0.0
 11
0.0
 21
0.0
 12
0.0
 22
0.0
 32
0.0
 14
0.0
 24
0.0
 34
0.0
 15
0.0
 25
0.0
 35
0.0
146
0.0
 13
0.0
 23
0.0
 33
0.0
 16
1.0
 26
0.0
 36
0.0
 17
0.0
 27
1.0
 37
0.0
 76
     0
330
C4
331
EC
  0
LAYOUT
  5
AE
102
{ACAD_REACTORS
330
1A
102
}
330
1A
100
AcDbPlotSettings
  1

  2
none_device
  4
ISO_A4_(210.00_x_297.00_MM)
  6

 40
7.5
 41
20.0
 42
7.5
 43
20.0
 44
210.0
 45
297.0
 46
0.0
 47
0.0
 48
0.0
 49
0.0
140
0.0
141
0.0
142
1.0
143
1.7948717949
 70
   688
 72
     1
 73
     1
 74
     1
  7

 75
     0
147
0.5571428571
148
175.0
149
175.0
100
AcDbLayout
  1
_Unten
 70
     1
 71
     6
 10
0.0
 20
0.0
 11
0.0
 21
0.0
 12
0.0
 22
0.0
 32
0.0
 14
0.0
 24
0.0
 34
0.0
 15
0.0
 25
0.0
 35
0.0
146
0.0
 13
0.0
 23
0.0
 33
0.0
 16
1.0
 26
0.0
 36
0.0
 17
0.0
 27
1.0
 37
0.0
 76
     0
330
AD
331
E8
  0
LAYOUT
  5
22
102
{ACAD_REACTORS
330
1A
102
}
330
1A
100
AcDbPlotSettings
  1

  2
none_device
  4
ANSI_A_(11.00_x_8.50_Inches)
  6

 40
6.35
 41
19.05
 42
6.35000508
 43
19.05000254
 44
279.4
 45
215.9
 46
133.34999746
 47
31.6030415871
 48
0.0
 49
0.0
140
0.0
141
0.0
142
0.0311142857
143
1.0
 70
  1696
 72
     0
 73
     0
 74
     0
  7

 75
     0
147
0.0179189148
148
-1300.4909072572
149
0.0
100
AcDbLayout
  1
Model
 70
     1
 71
     0
 10
0.0
 20
0.0
 11
420.0
 21
297.0
 12
0.0
 22
0.0
 32
0.0
 14
-175.0
 24
0.0
 34
0.0
 15
175.0
 25
145.0
 35
0.0
146
0.0
 13
0.0
 23
0.0
 33
0.0
 16
1.0
 26
0.0
 36
0.0
 17
0.0
 27
1.0
 37
0.0
 76
     0
330
1F
331
29
  0
MLINESTYLE
  5
18
102
{ACAD_REACTORS
330
17
102
}
330
17
100
AcDbMlineStyle
  2
Standard
 70
     0
  3

 62
   256
 51
90.0
 52
90.0
 71
     2
 49
0.5
 62
   256
  6
BYLAYER
 49
-0.5
 62
   256
  6
BYLAYER
  0
ACDBPLACEHOLDER
  5
F
102
{ACAD_REACTORS
330
E
102
}
330
E
  0
SCALE
  5
48
102
{ACAD_REACTORS
330
47
102
}
330
47
100
AcDbScale
 70
     0
300
1:1
140
1.0
141
1.0
290
     1
  0
SCALE
  5
49
102
{ACAD_REACTORS
330
47
102
}
330
47
100
AcDbScale
 70
     0
300
1:2
140
1.0
141
2.0
290
     0
  0
SCALE
  5
4A
102
{ACAD_REACTORS
330
47
102
}
330
47
100
AcDbScale
 70
     0
300
1:4
140
1.0
141
4.0
290
     0
  0
SCALE
  5
4B
102
{ACAD_REACTORS
330
47
102
}
330
47
100
AcDbScale
 70
     0
300
1:5
140
1.0
141
5.0
290
     0
  0
SCALE
  5
4C
102
{ACAD_REACTORS
330
47
102
}
330
47
100
AcDbScale
 70
     0
300
1:8
140
1.0
141
8.0
290
     0
  0
SCALE
  5
4D
102
{ACAD_REACTORS
330
47
102
}
330
47
100
AcDbScale
 70
     0
300
1:10
140
1.0
141
10.0
290
     0
  0
SCALE
  5
4E
102
{ACAD_REACTORS
330
47
102
}
330
47
100
AcDbScale
 70
     0
300
1:16
140
1.0
141
16.0
290
     0
  0
SCALE
  5
4F
102
{ACAD_REACTORS
330
47
102
}
330
47
100
AcDbScale
 70
     0
300
1:20
140
1.0
141
20.0
290
     0
  0
SCALE
  5
50
102
{ACAD_REACTORS
330
47
102
}
330
47
100
AcDbScale
 70
     0
300
1:30
140
1.0
141
30.0
290
     0
  0
SCALE
  5
51
102
{ACAD_REACTORS
330
47
102
}
330
47
100
AcDbScale
 70
     0
300
1:40
140
1.0
141
40.0
290
     0
  0
SCALE
  5
52
102
{ACAD_REACTORS
330
47
102
}
330
47
100
AcDbScale
 70
     0
300
1:50
140
1.0
141
50.0
290
     0
  0
SCALE
  5
53
102
{ACAD_REACTORS
330
47
102
}
330
47
100
AcDbScale
 70
     0
300
1:100
140
1.0
141
100.0
290
     0
  0
SCALE
  5
54
102
{ACAD_REACTORS
330
47
102
}
330
47
100
AcDbScale
 70
     0
300
2:1
140
2.0
141
1.0
290
     0
  0
SCALE
  5
55
102
{ACAD_REACTORS
330
47
102
}
330
47
100
AcDbScale
 70
     0
300
4:1
140
4.0
141
1.0
290
     0
  0
SCALE
  5
56
102
{ACAD_REACTORS
330
47
102
}
330
47
100
AcDbScale
 70
     0
300
8:1
140
8.0
141
1.0
290
     0
  0
SCALE
  5
57
102
{ACAD_REACTORS
330
47
102
}
330
47
100
AcDbScale
 70
     0
300
10:1
140
10.0
141
1.0
290
     0
  0
SCALE
  5
58
102
{ACAD_REACTORS
330
47
102
}
330
47
100
AcDbScale
 70
     0
300
100:1
140
100.0
141
1.0
290
     0
  0
SCALE
  5
59
102
{ACAD_REACTORS
330
47
102
}
330
47
100
AcDbScale
 70
     0
300
1/128" = 1'-0"
140
0.0078125
141
12.0
290
     0
  0
SCALE
  5
5A
102
{ACAD_REACTORS
330
47
102
}
330
47
100
AcDbScale
 70
     0
300
1/64" = 1'-0"
140
0.015625
141
12.0
290
     0
  0
SCALE
  5
5B
102
{ACAD_REACTORS
330
47
102
}
330
47
100
AcDbScale
 70
     0
300
1/32" = 1'-0"
140
0.03125
141
12.0
290
     0
  0
SCALE
  5
5C
102
{ACAD_REACTORS
330
47
102
}
330
47
100
AcDbScale
 70
     0
300
1/16" = 1'-0"
140
0.0625
141
12.0
290
     0
  0
SCALE
  5
5D
102
{ACAD_REACTORS
330
47
102
}
330
47
100
AcDbScale
 70
     0
300
3/32" = 1'-0"
140
0.09375
141
12.0
290
     0
  0
SCALE
  5
5E
102
{ACAD_REACTORS
330
47
102
}
330
47
100
AcDbScale
 70
     0
300
1/8" = 1'-0"
140
0.125
141
12.0
290
     0
  0
SCALE
  5
5F
102
{ACAD_REACTORS
330
47
102
}
330
47
100
AcDbScale
 70
     0
300
3/16" = 1'-0"
140
0.1875
141
12.0
290
     0
  0
SCALE
  5
60
102
{ACAD_REACTORS
330
47
102
}
330
47
100
AcDbScale
 70
     0
300
1/4" = 1'-0"
140
0.25
141
12.0
290
     0
  0
SCALE
  5
61
102
{ACAD_REACTORS
330
47
102
}
330
47
100
AcDbScale
 70
     0
300
3/8" = 1'-0"
140
0.375
141
12.0
290
     0
  0
SCALE
  5
62
102
{ACAD_REACTORS
330
47
102
}
330
47
100
AcDbScale
 70
     0
300
1/2" = 1'-0"
140
0.5
141
12.0
290
     0
  0
SCALE
  5
63
102
{ACAD_REACTORS
330
47
102
}
330
47
100
AcDbScale
 70
     0
300
3/4" = 1'-0"
140
0.75
141
12.0
290
     0
  0
SCALE
  5
64
102
{ACAD_REACTORS
330
47
102
}
330
47
100
AcDbScale
 70
     0
300
1" = 1'-0"
140
1.0
141
12.0
290
     0
  0
SCALE
  5
65
102
{ACAD_REACTORS
330
47
102
}
330
47
100
AcDbScale
 70
     0
300
1-1/2" = 1'-0"
140
1.5
141
12.0
290
     0
  0
SCALE
  5
66
102
{ACAD_REACTORS
330
47
102
}
330
47
100
AcDbScale
 70
     0
300
3" = 1'-0"
140
3.0
141
12.0
290
     0
  0
SCALE
  5
67
102
{ACAD_REACTORS
330
47
102
}
330
47
100
AcDbScale
 70
     0
300
6" = 1'-0"
140
6.0
141
12.0
290
     0
  0
SCALE
  5
68
102
{ACAD_REACTORS
330
47
102
}
330
47
100
AcDbScale
 70
     0
300
1'-0" = 1'-0"
140
12.0
141
12.0
290
     0
  0
ENDSEC
  0
EOF
