  0
SECTION
  2
HEADER
  9
$ACADVER
  1
AC1021
  9
$ACADMAINTVER
 70
    25
  9
$DWGCODEPAGE
  3
ANSI_1252
  9
$INSBASE
 10
0.0
 20
0.0
 30
0.0
  9
$EXTMIN
 10
-244.9931935261
 20
-247.0903075884
 30
0.0
  9
$EXTMAX
 10
244.9934237867
 20
138.5236310889
 30
0.0
  9
$LIMMIN
 10
0.0
 20
0.0
  9
$LIMMAX
 10
420.0
 20
297.0
  9
$ORTHOMODE
 70
     0
  9
$REGENMODE
 70
     1
  9
$FILLMODE
 70
     1
  9
$QTEXTMODE
 70
     0
  9
$MIRRTEXT
 70
     1
  9
$LTSCALE
 40
1.0
  9
$ATTMODE
 70
     1
  9
$TEXTSIZE
 40
3.5
  9
$TRACEWID
 40
1.0
  9
$TEXTSTYLE
  7
Standard
  9
$CLAYER
  8
0
  9
$CELTYPE
  6
ByLayer
  9
$CECOLOR
 62
   256
  9
$CELTSCALE
 40
1.0
  9
$DISPSILH
 70
     0
  9
$DIMSCALE
 40
1.0
  9
$DIMASZ
 40
7.4083333333
  9
$DIMEXO
 40
1.0
  9
$DIMDLI
 40
3.75
  9
$DIMRND
 40
0.0
  9
$DIMDLE
 40
0.0
  9
$DIMEXE
 40
1.0
  9
$DIMTP
 40
0.0
  9
$DIMTM
 40
0.0
  9
$DIMTXT
 40
9.8777777778
  9
$DIMCEN
 40
2.5
  9
$DIMTSZ
 40
0.0
  9
$DIMTOL
 70
     0
  9
$DIMLIM
 70
     0
  9
$DIMTIH
 70
     1
  9
$DIMTOH
 70
     1
  9
$DIMSE1
 70
     0
  9
$DIMSE2
 70
     0
  9
$DIMTAD
 70
     1
  9
$DIMZIN
 70
     0
  9
$DIMBLK
  1

  9
$DIMASO
 70
     1
  9
$DIMSHO
 70
     1
  9
$DIMPOST
  1

  9
$DIMAPOST
  1

  9
$DIMALT
 70
     0
  9
$DIMALTD
 70
     3
  9
$DIMALTF
 40
0.0393700787
  9
$DIMLFAC
 40
1.0
  9
$DIMTOFL
 70
     1
  9
$DIMTVP
 40
0.0
  9
$DIMTIX
 70
     0
  9
$DIMSOXD
 70
     0
  9
$DIMSAH
 70
     0
  9
$DIMBLK1
  1

  9
$DIMBLK2
  1

  9
$DIMSTYLE
  2
ISO-25
  9
$DIMCLRD
 70
     0
  9
$DIMCLRE
 70
     0
  9
$DIMCLRT
 70
     0
  9
$DIMTFAC
 40
1.0
  9
$DIMGAP
 40
1.524
  9
$DIMJUST
 70
     0
  9
$DIMSD1
 70
     0
  9
$DIMSD2
 70
     0
  9
$DIMTOLJ
 70
     0
  9
$DIMTZIN
 70
     0
  9
$DIMALTZ
 70
     0
  9
$DIMALTTZ
 70
     0
  9
$DIMUPT
 70
     0
  9
$DIMDEC
 70
     2
  9
$DIMTDEC
 70
     2
  9
$DIMALTU
 70
     2
  9
$DIMALTTD
 70
     3
  9
$DIMTXSTY
  7
Standard
  9
$DIMAUNIT
 70
     0
  9
$DIMADEC
 70
     2
  9
$DIMALTRND
 40
0.0
  9
$DIMAZIN
 70
     0
  9
$DIMDSEP
 70
    44
  9
$DIMATFIT
 70
     3
  9
$DIMFRAC
 70
     0
  9
$DIMLDRBLK
  1

  9
$DIMLUNIT
 70
     2
  9
$DIMLWD
 70
    -2
  9
$DIMLWE
 70
    -2
  9
$DIMTMOVE
 70
     0
  9
$DIMFXL
 40
1.0
  9
$DIMFXLON
 70
     0
  9
$DIMJOGANG
 40
0.7853981634
  9
$DIMTFILL
 70
     0
  9
$DIMTFILLCLR
 70
     0
  9
$DIMARCSYM
 70
     0
  9
$DIMLTYPE
  6

  9
$DIMLTEX1
  6

  9
$DIMLTEX2
  6

  9
$LUNITS
 70
     2
  9
$LUPREC
 70
     2
  9
$SKETCHINC
 40
1.0
  9
$FILLETRAD
 40
10.0
  9
$AUNITS
 70
     0
  9
$AUPREC
 70
     2
  9
$MENU
  1
.
  9
$ELEVATION
 40
0.0
  9
$PELEVATION
 40
0.0
  9
$THICKNESS
 40
0.0
  9
$LIMCHECK
 70
     0
  9
$CHAMFERA
 40
0.0
  9
$CHAMFERB
 40
0.0
  9
$CHAMFERC
 40
0.0
  9
$CHAMFERD
 40
0.0
  9
$SKPOLY
 70
     0
  9
$TDCREATE
 40
2458221.629164687
  9
$TDUCREATE
 40
2458221.545831354
  9
$TDUPDATE
 40
2458221.629191586
  9
$TDUUPDATE
 40
2458221.545858252
  9
$TDINDWG
 40
0.0000000116
  9
$TDUSRTIMER
 40
0.0000000116
  9
$USRTIMER
 70
     1
  9
$ANGBASE
 50
0.0
  9
$ANGDIR
 70
     0
  9
$PDMODE
 70
     0
  9
$PDSIZE
 40
-1.0
  9
$PLINEWID
 40
0.0
  9
$SPLFRAME
 70
     0
  9
$SPLINETYPE
 70
     6
  9
$SPLINESEGS
 70
     8
  9
$HANDSEED
  5
13A
  9
$SURFTAB1
 70
     6
  9
$SURFTAB2
 70
     6
  9
$SURFTYPE
 70
     6
  9
$SURFU
 70
     6
  9
$SURFV
 70
     6
  9
$UCSBASE
  2

  9
$UCSNAME
  2

  9
$UCSORG
 10
0.0
 20
0.0
 30
0.0
  9
$UCSXDIR
 10
1.0
 20
0.0
 30
0.0
  9
$UCSYDIR
 10
0.0
 20
1.0
 30
0.0
  9
$UCSORTHOREF
  2

  9
$UCSORTHOVIEW
 70
     0
  9
$UCSORGTOP
 10
0.0
 20
0.0
 30
0.0
  9
$UCSORGBOTTOM
 10
0.0
 20
0.0
 30
0.0
  9
$UCSORGLEFT
 10
0.0
 20
0.0
 30
0.0
  9
$UCSORGRIGHT
 10
0.0
 20
0.0
 30
0.0
  9
$UCSORGFRONT
 10
0.0
 20
0.0
 30
0.0
  9
$UCSORGBACK
 10
0.0
 20
0.0
 30
0.0
  9
$PUCSBASE
  2

  9
$PUCSNAME
  2

  9
$PUCSORG
 10
0.0
 20
0.0
 30
0.0
  9
$PUCSXDIR
 10
1.0
 20
0.0
 30
0.0
  9
$PUCSYDIR
 10
0.0
 20
1.0
 30
0.0
  9
$PUCSORTHOREF
  2

  9
$PUCSORTHOVIEW
 70
     0
  9
$PUCSORGTOP
 10
0.0
 20
0.0
 30
0.0
  9
$PUCSORGBOTTOM
 10
0.0
 20
0.0
 30
0.0
  9
$PUCSORGLEFT
 10
0.0
 20
0.0
 30
0.0
  9
$PUCSORGRIGHT
 10
0.0
 20
0.0
 30
0.0
  9
$PUCSORGFRONT
 10
0.0
 20
0.0
 30
0.0
  9
$PUCSORGBACK
 10
0.0
 20
0.0
 30
0.0
  9
$USERI1
 70
     0
  9
$USERI2
 70
     0
  9
$USERI3
 70
     0
  9
$USERI4
 70
     0
  9
$USERI5
 70
     0
  9
$USERR1
 40
0.0
  9
$USERR2
 40
0.0
  9
$USERR3
 40
0.0
  9
$USERR4
 40
0.0
  9
$USERR5
 40
0.0
  9
$WORLDVIEW
 70
     1
  9
$SHADEDGE
 70
     3
  9
$SHADEDIF
 70
    70
  9
$TILEMODE
 70
     1
  9
$MAXACTVP
 70
    64
  9
$PINSBASE
 10
0.0
 20
0.0
 30
0.0
  9
$PLIMCHECK
 70
     0
  9
$PEXTMIN
 10
-245.0
 20
-245.0
 30
0.0
  9
$PEXTMAX
 10
245.0
 20
245.0
 30
0.0
  9
$PLIMMIN
 10
-295.2564102564
 20
-263.8461538462
  9
$PLIMMAX
 10
451.0512820512
 20
263.8461538462
  9
$UNITMODE
 70
     0
  9
$VISRETAIN
 70
     1
  9
$PLINEGEN
 70
     0
  9
$PSLTSCALE
 70
     1
  9
$TREEDEPTH
 70
  3020
  9
$CMLSTYLE
  2
Standard
  9
$CMLJUST
 70
     0
  9
$CMLSCALE
 40
20.0
  9
$PROXYGRAPHICS
 70
     1
  9
$MEASUREMENT
 70
     1
  9
$CELWEIGHT
370
    -1
  9
$ENDCAPS
280
     0
  9
$JOINSTYLE
280
     0
  9
$LWDISPLAY
290
     1
  9
$INSUNITS
 70
     4
  9
$HYPERLINKBASE
  1

  9
$STYLESHEET
  1

  9
$XEDIT
290
     1
  9
$CEPSNTYPE
380
     0
  9
$PSTYLEMODE
290
     1
  9
$FINGERPRINTGUID
  2
{B1B300F0-5B7F-47B6-99ED-FBC1F3033397}
  9
$VERSIONGUID
  2
{FAEB1C32-E019-11D5-929B-00C0DF256EC4}
  9
$EXTNAMES
290
     1
  9
$PSVPSCALE
 40
0.0
  9
$OLESTARTUP
290
     0
  9
$SORTENTS
280
   127
  9
$INDEXCTL
280
     0
  9
$HIDETEXT
280
     1
  9
$XCLIPFRAME
290
     0
  9
$HALOGAP
280
     0
  9
$OBSCOLOR
 70
   257
  9
$OBSLTYPE
280
     0
  9
$INTERSECTIONDISPLAY
280
     0
  9
$INTERSECTIONCOLOR
 70
   257
  9
$DIMASSOC
280
     2
  9
$PROJECTNAME
  1

  9
$CAMERADISPLAY
290
     0
  9
$LENSLENGTH
 40
50.0
  9
$CAMERAHEIGHT
 40
0.0
  9
$STEPSPERSEC
 40
2.0
  9
$STEPSIZE
 40
6.0
  9
$3DDWFPREC
 40
2.0
  9
$PSOLWIDTH
 40
5.0
  9
$PSOLHEIGHT
 40
80.0
  9
$LOFTANG1
 40
1.5707963268
  9
$LOFTANG2
 40
1.5707963268
  9
$LOFTMAG1
 40
0.0
  9
$LOFTMAG2
 40
0.0
  9
$LOFTPARAM
 70
     7
  9
$LOFTNORMALS
280
     1
  9
$LATITUDE
 40
37.795
  9
$LONGITUDE
 40
-122.394
  9
$NORTHDIRECTION
 40
0.0
  9
$TIMEZONE
 70
 -8000
  9
$LIGHTGLYPHDISPLAY
280
     1
  9
$TILEMODELIGHTSYNCH
280
     1
  9
$CMATERIAL
347
44
  9
$SOLIDHIST
280
     0
  9
$SHOWHIST
280
     1
  9
$DWFFRAME
280
     2
  9
$DGNFRAME
280
     2
  9
$REALWORLDSCALE
290
     1
  9
$INTERFERECOLOR
 62
   256
  9
$CSHADOW
280
     0
  9
$SHADOWPLANELOCATION
 40
0.0
  0
ENDSEC
  0
SECTION
  2
CLASSES
  0
CLASS
  1
ACDBDICTIONARYWDFLT
  2
AcDbDictionaryWithDefault
  3
ObjectDBX Classes
 90
        0
 91
        4
280
     0
281
     0
  0
CLASS
  1
VISUALSTYLE
  2
AcDbVisualStyle
  3
ObjectDBX Classes
 90
     4095
 91
        4
280
     0
281
     0
  0
CLASS
  1
MATERIAL
  2
AcDbMaterial
  3
ObjectDBX Classes
 90
     1153
 91
        4
280
     0
281
     0
  0
CLASS
  1
SCALE
  2
AcDbScale
  3
ObjectDBX Classes
 90
     1153
 91
        4
280
     0
281
     0
  0
CLASS
  1
TABLESTYLE
  2
AcDbTableStyle
  3
ObjectDBX Classes
 90
     4095
 91
        4
280
     0
281
     0
  0
CLASS
  1
MLEADERSTYLE
  2
AcDbMLeaderStyle
  3
ACDB_MLEADERSTYLE_CLASS
 90
     4095
 91
        4
280
     0
281
     0
  0
CLASS
  1
SUN
  2
AcDbSun
  3
SCENEOE
 90
     1153
 91
        4
280
     0
281
     0
  0
CLASS
  1
DICTIONARYVAR
  2
AcDbDictionaryVar
  3
ObjectDBX Classes
 90
        0
 91
        4
280
     0
281
     0
  0
CLASS
  1
CELLSTYLEMAP
  2
AcDbCellStyleMap
  3
ObjectDBX Classes
 90
     1152
 91
        4
280
     0
281
     0
  0
ENDSEC
  0
SECTION
  2
TABLES
  0
TABLE
  2
VPORT
  5
8
330
0
100
AcDbSymbolTable
 70
     1
  0
VPORT
  5
29
330
8
100
AcDbSymbolTableRecord
100
AcDbViewportTableRecord
  2
*Active
 70
     0
 10
0.0
 20
0.0
 11
1.0
 21
1.0
 12
0.0001151303
 22
-54.2833382498
 13
0.0
 23
0.0
 14
10.0
 24
10.0
 15
10.0
 25
10.0
 16
0.0
 26
0.0
 36
1.0
 17
0.0
 27
0.0
 37
0.0
 40
393.3262174508
 41
1.2706662498
 42
50.0
 43
0.0
 44
0.0
 50
0.0
 51
0.0
 71
     0
 72
   100
 73
     1
 74
     3
 75
     0
 76
     0
 77
     0
 78
     0
281
     0
 65
     1
110
0.0
120
0.0
130
0.0
111
1.0
121
0.0
131
0.0
112
0.0
122
1.0
132
0.0
 79
     0
146
0.0
348
2F
 60
     3
 61
     5
292
     1
282
     1
141
0.0
142
0.0
 63
   250
361
6D
  0
ENDTAB
  0
TABLE
  2
LTYPE
  5
5
330
0
100
AcDbSymbolTable
 70
     6
  0
LTYPE
  5
14
330
5
100
AcDbSymbolTableRecord
100
AcDbLinetypeTableRecord
  2
ByBlock
 70
     0
  3

 72
    65
 73
     0
 40
0.0
  0
LTYPE
  5
15
330
5
100
AcDbSymbolTableRecord
100
AcDbLinetypeTableRecord
  2
ByLayer
 70
     0
  3

 72
    65
 73
     0
 40
0.0
  0
LTYPE
  5
16
330
5
100
AcDbSymbolTableRecord
100
AcDbLinetypeTableRecord
  2
Continuous
 70
     0
  3
Solid line
 72
    65
 73
     0
 40
0.0
  0
LTYPE
  5
6E
330
5
100
AcDbSymbolTableRecord
100
AcDbLinetypeTableRecord
  2
HIDDEN
 70
     0
  3
Hidden __ __ __ __ __ __ __ __ __ __ __ __ __ __
 72
    65
 73
     2
 40
1.905
 49
1.27
 74
     0
 49
-0.635
 74
     0
  0
LTYPE
  5
6F
330
5
100
AcDbSymbolTableRecord
100
AcDbLinetypeTableRecord
  2
PHANTOM
 70
     0
  3
Phantom ______  __  __  ______  __  __  ______
 72
    65
 73
     6
 40
12.7
 49
6.35
 74
     0
 49
-1.27
 74
     0
 49
1.27
 74
     0
 49
-1.27
 74
     0
 49
1.27
 74
     0
 49
-1.27
 74
     0
  0
LTYPE
  5
70
330
5
100
AcDbSymbolTableRecord
100
AcDbLinetypeTableRecord
  2
CENTER
 70
     0
  3
Center ____ _ ____ _ ____ _ ____ _ ____ _ ____
 72
    65
 73
     4
 40
10.16
 49
6.35
 74
     0
 49
-1.27
 74
     0
 49
1.27
 74
     0
 49
-1.27
 74
     0
  0
LTYPE
  5
71
330
5
100
AcDbSymbolTableRecord
100
AcDbLinetypeTableRecord
  2
CENTERX2
 70
     0
  3
Center (2x) ________  __  ________  __  _____
 72
    65
 73
     4
 40
20.32
 49
12.7
 74
     0
 49
-2.54
 74
     0
 49
2.54
 74
     0
 49
-2.54
 74
     0
  0
LTYPE
  5
72
330
5
100
AcDbSymbolTableRecord
100
AcDbLinetypeTableRecord
  2
DOT2
 70
     0
  3
Dot (.5x) ........................................
 72
    65
 73
     2
 40
0.635
 49
0.0
 74
     0
 49
-0.635
 74
     0
  0
ENDTAB
  0
TABLE
  2
LAYER
  5
2
330
0
100
AcDbSymbolTable
 70
     1
  0
LAYER
  5
10
330
2
100
AcDbSymbolTableRecord
100
AcDbLayerTableRecord
  2
0
 70
     0
 62
     7
  6
Continuous
370
    -3
390
F
347
46
  0
ENDTAB
  0
TABLE
  2
STYLE
  5
3
330
0
100
AcDbSymbolTable
 70
     1
  0
STYLE
  5
11
330
3
100
AcDbSymbolTableRecord
100
AcDbTextStyleTableRecord
  2
Standard
 70
     0
 40
0.0
 41
1.0
 50
0.0
 71
     0
 42
3.5
  3
txt
  4

  0
ENDTAB
  0
TABLE
  2
VIEW
  5
6
330
0
100
AcDbSymbolTable
 70
     0
  0
ENDTAB
  0
TABLE
  2
UCS
  5
7
330
0
100
AcDbSymbolTable
 70
     0
  0
ENDTAB
  0
TABLE
  2
APPID
  5
9
330
0
100
AcDbSymbolTable
 70
     2
  0
APPID
  5
12
330
9
100
AcDbSymbolTableRecord
100
AcDbRegAppTableRecord
  2
ACAD
 70
     0
  0
APPID
  5
134
330
9
100
AcDbSymbolTableRecord
100
AcDbRegAppTableRecord
  2
ACAD_MLEADERVER
 70
     0
  0
ENDTAB
  0
TABLE
  2
DIMSTYLE
  5
A
330
0
100
AcDbSymbolTable
 70
     1
100
AcDbDimStyleTable
  0
DIMSTYLE
105
27
330
A
100
AcDbSymbolTableRecord
100
AcDbDimStyleTableRecord
  2
ISO-25
 70
     0
 41
2.5
 42
0.625
 43
3.75
 44
1.25
 73
     0
 74
     0
 77
     1
 78
     8
140
2.5
141
2.5
143
0.0393700787
147
0.625
171
     3
172
     1
178
     0
271
     2
272
     2
274
     3
278
    44
283
     0
284
     8
340
11
  0
ENDTAB
  0
TABLE
  2
BLOCK_RECORD
  5
1
330
0
100
AcDbSymbolTable
 70
     9
  0
BLOCK_RECORD
  5
1F
330
1
100
AcDbSymbolTableRecord
100
AcDbBlockTableRecord
  2
*Model_Space
340
22
 70
     0
280
     1
281
     0
  0
BLOCK_RECORD
  5
1B
330
1
100
AcDbSymbolTableRecord
100
AcDbBlockTableRecord
  2
*Paper_Space
340
1E
 70
     0
280
     1
281
     0
  0
BLOCK_RECORD
  5
23
330
1
100
AcDbSymbolTableRecord
100
AcDbBlockTableRecord
  2
*Paper_Space0
340
26
 70
     0
280
     1
281
     0
  0
BLOCK_RECORD
  5
98
330
1
100
AcDbSymbolTableRecord
100
AcDbBlockTableRecord
  2
*Paper_Space1
340
99
 70
     0
280
     1
281
     0
  0
BLOCK_RECORD
  5
AA
330
1
100
AcDbSymbolTableRecord
100
AcDbBlockTableRecord
  2
*Paper_Space2
340
AB
 70
     0
280
     1
281
     0
  0
BLOCK_RECORD
  5
BF
330
1
100
AcDbSymbolTableRecord
100
AcDbBlockTableRecord
  2
*Paper_Space3
340
C0
 70
     0
280
     1
281
     0
  0
BLOCK_RECORD
  5
D1
330
1
100
AcDbSymbolTableRecord
100
AcDbBlockTableRecord
  2
*Paper_Space4
340
D2
 70
     0
280
     1
281
     0
  0
BLOCK_RECORD
  5
E3
330
1
100
AcDbSymbolTableRecord
100
AcDbBlockTableRecord
  2
*Paper_Space5
340
E4
 70
     0
280
     1
281
     0
  0
BLOCK_RECORD
  5
EB
330
1
100
AcDbSymbolTableRecord
100
AcDbBlockTableRecord
  2
*Paper_Space6
340
EC
 70
     0
280
     1
281
     0
  0
BLOCK_RECORD
  5
FC
330
1
100
AcDbSymbolTableRecord
100
AcDbBlockTableRecord
  2
*Paper_Space7
340
FD
 70
     0
280
     1
281
     0
  0
BLOCK_RECORD
  5
10E
330
1
100
AcDbSymbolTableRecord
100
AcDbBlockTableRecord
  2
*Paper_Space8
340
10F
 70
     0
280
     1
281
     0
  0
ENDTAB
  0
ENDSEC
  0
SECTION
  2
BLOCKS
  0
BLOCK
  5
20
330
1F
100
AcDbEntity
  8
0
100
AcDbBlockBegin
  2
*Model_Space
 70
     0
 10
0.0
 20
0.0
 30
0.0
  3
*Model_Space
  1

  0
ENDBLK
  5
21
330
1F
100
AcDbEntity
  8
0
100
AcDbBlockEnd
  0
BLOCK
  5
1C
330
1B
100
AcDbEntity
 67
     1
  8
0
100
AcDbBlockBegin
  2
*Paper_Space
 70
     0
 10
0.0
 20
0.0
 30
0.0
  3
*Paper_Space
  1

  0
ENDBLK
  5
1D
330
1B
100
AcDbEntity
 67
     1
  8
0
100
AcDbBlockEnd
  0
BLOCK
  5
24
330
23
100
AcDbEntity
  8
0
100
AcDbBlockBegin
  2
*Paper_Space0
 70
     0
 10
0.0
 20
0.0
 30
0.0
  3
*Paper_Space0
  1

  0
LINE
  5
91
330
23
100
AcDbEntity
  8
0
  6
Continuous
 62
     7
370
    25
100
AcDbLine
 10
-75.0
 20
-140.0
 30
0.0
 11
-75.0
 21
-151.4752074801
 31
0.0
  0
LINE
  5
92
330
23
100
AcDbEntity
  8
0
  6
Continuous
 62
     7
370
    25
100
AcDbLine
 10
75.0
 20
-151.4752074801
 30
0.0
 11
75.0
 21
-140.0
 31
0.0
  0
LINE
  5
93
330
23
100
AcDbEntity
  8
0
  6
Continuous
 62
     7
370
    25
100
AcDbLine
 10
-240.0
 20
0.0
 30
0.0
 11
240.0
 21
0.0
 31
0.0
  0
LINE
  5
94
330
23
100
AcDbEntity
  8
0
  6
Continuous
 62
     7
370
    25
100
AcDbLine
 10
-230.0
 20
-140.0
 30
0.0
 11
230.0
 21
-140.0
 31
0.0
  0
LINE
  5
95
330
23
100
AcDbEntity
  8
0
  6
Continuous
 62
     7
370
    25
100
AcDbLine
 10
-75.0
 20
-151.4752074801
 30
0.0
 11
75.0
 21
-151.4752074801
 31
0.0
  0
ARC
  5
96
330
23
100
AcDbEntity
  8
0
  6
Continuous
 62
     7
370
    25
100
AcDbCircle
 10
-23.2655906399
 20
-51.5524578114
 30
0.0
 40
268.2655906399452
100
AcDbArc
 50
340.7493469921
 51
11.079419448
  0
ARC
  5
97
330
23
100
AcDbEntity
  8
0
  6
Continuous
 62
     7
370
    25
100
AcDbCircle
 10
23.2655906399
 20
-51.5524578114
 30
0.0
 40
268.2655906399432
100
AcDbArc
 50
168.920580552
 51
199.2506530079
  0
VIEWPORT
  5
11E
330
23
100
AcDbEntity
  8
0
100
AcDbViewport
 10
0.0
 20
0.0
 30
0.0
 40
205.6
 41
156.0
 68
     1
 69
     1
 12
0.0001151303
 22
-54.2833382498
 13
0.0
 23
0.0
 14
10.0
 24
10.0
 15
10.0
 25
10.0
 16
0.0
 26
0.0
 36
1.0
 17
0.0
 27
0.0
 37
0.0
 42
50.0
 43
0.0
 44
0.0
 45
393.3262174508
 50
0.0
 51
0.0
 72
   100
 90
   557152
  1

281
     0
 71
     1
 74
     0
110
0.0
120
0.0
130
0.0
111
1.0
121
0.0
131
0.0
112
0.0
122
1.0
132
0.0
 79
     0
146
0.0
170
     0
 61
     5
348
2F
292
     1
282
     1
141
0.0
142
0.0
 63
   256
361
11F
  0
ENDBLK
  5
25
330
23
100
AcDbEntity
  8
0
100
AcDbBlockEnd
  0
BLOCK
  5
9A
330
98
100
AcDbEntity
  8
0
100
AcDbBlockBegin
  2
*Paper_Space1
 70
     0
 10
0.0
 20
0.0
 30
0.0
  3
*Paper_Space1
  1

  0
LINE
  5
A3
330
98
100
AcDbEntity
  8
0
  6
Continuous
 62
     7
370
    25
100
AcDbLine
 10
-75.0
 20
-140.0
 30
0.0
 11
-75.0
 21
-151.4752074801
 31
0.0
  0
LINE
  5
A4
330
98
100
AcDbEntity
  8
0
  6
Continuous
 62
     7
370
    25
100
AcDbLine
 10
75.0
 20
-151.4752074801
 30
0.0
 11
75.0
 21
-140.0
 31
0.0
  0
LINE
  5
A5
330
98
100
AcDbEntity
  8
0
  6
Continuous
 62
     7
370
    25
100
AcDbLine
 10
-240.0
 20
0.0
 30
0.0
 11
240.0
 21
0.0
 31
0.0
  0
LINE
  5
A6
330
98
100
AcDbEntity
  8
0
  6
Continuous
 62
     7
370
    25
100
AcDbLine
 10
-230.0
 20
-140.0
 30
0.0
 11
230.0
 21
-140.0
 31
0.0
  0
LINE
  5
A7
330
98
100
AcDbEntity
  8
0
  6
Continuous
 62
     7
370
    25
100
AcDbLine
 10
-75.0
 20
-151.4752074801
 30
0.0
 11
75.0
 21
-151.4752074801
 31
0.0
  0
ARC
  5
A8
330
98
100
AcDbEntity
  8
0
  6
Continuous
 62
     7
370
    25
100
AcDbCircle
 10
-23.2655906399
 20
-51.5524578114
 30
0.0
 40
268.2655906399452
100
AcDbArc
 50
340.7493469921
 51
11.079419448
  0
ARC
  5
A9
330
98
100
AcDbEntity
  8
0
  6
Continuous
 62
     7
370
    25
100
AcDbCircle
 10
23.2655906399
 20
-51.5524578114
 30
0.0
 40
268.2655906399432
100
AcDbArc
 50
168.920580552
 51
199.2506530079
  0
VIEWPORT
  5
120
330
98
100
AcDbEntity
  8
0
100
AcDbViewport
 10
0.0
 20
0.0
 30
0.0
 40
205.6
 41
156.0
 68
     1
 69
     1
 12
0.0001151303
 22
-54.2833382498
 13
0.0
 23
0.0
 14
10.0
 24
10.0
 15
10.0
 25
10.0
 16
0.0
 26
0.0
 36
1.0
 17
0.0
 27
0.0
 37
0.0
 42
50.0
 43
0.0
 44
0.0
 45
393.3262174508
 50
0.0
 51
0.0
 72
   100
 90
   557152
  1

281
     0
 71
     1
 74
     0
110
0.0
120
0.0
130
0.0
111
1.0
121
0.0
131
0.0
112
0.0
122
1.0
132
0.0
 79
     0
146
0.0
170
     0
 61
     5
348
2F
292
     1
282
     1
141
0.0
142
0.0
 63
   256
361
121
  0
ENDBLK
  5
9B
330
98
100
AcDbEntity
  8
0
100
AcDbBlockEnd
  0
BLOCK
  5
AC
330
AA
100
AcDbEntity
  8
0
100
AcDbBlockBegin
  2
*Paper_Space2
 70
     0
 10
0.0
 20
0.0
 30
0.0
  3
*Paper_Space2
  1

  0
LINE
  5
B8
330
AA
100
AcDbEntity
  8
0
  6
Continuous
 62
     7
370
    25
100
AcDbLine
 10
-75.0
 20
-140.0
 30
0.0
 11
-75.0
 21
-151.4752074801
 31
0.0
  0
LINE
  5
B9
330
AA
100
AcDbEntity
  8
0
  6
Continuous
 62
     7
370
    25
100
AcDbLine
 10
75.0
 20
-151.4752074801
 30
0.0
 11
75.0
 21
-140.0
 31
0.0
  0
LINE
  5
BA
330
AA
100
AcDbEntity
  8
0
  6
Continuous
 62
     7
370
    25
100
AcDbLine
 10
-240.0
 20
0.0
 30
0.0
 11
240.0
 21
0.0
 31
0.0
  0
LINE
  5
BB
330
AA
100
AcDbEntity
  8
0
  6
Continuous
 62
     7
370
    25
100
AcDbLine
 10
-230.0
 20
-140.0
 30
0.0
 11
230.0
 21
-140.0
 31
0.0
  0
LINE
  5
BC
330
AA
100
AcDbEntity
  8
0
  6
Continuous
 62
     7
370
    25
100
AcDbLine
 10
-75.0
 20
-151.4752074801
 30
0.0
 11
75.0
 21
-151.4752074801
 31
0.0
  0
ARC
  5
BD
330
AA
100
AcDbEntity
  8
0
  6
Continuous
 62
     7
370
    25
100
AcDbCircle
 10
-23.2655906399
 20
-51.5524578114
 30
0.0
 40
268.2655906399452
100
AcDbArc
 50
340.7493469921
 51
11.079419448
  0
ARC
  5
BE
330
AA
100
AcDbEntity
  8
0
  6
Continuous
 62
     7
370
    25
100
AcDbCircle
 10
23.2655906399
 20
-51.5524578114
 30
0.0
 40
268.2655906399432
100
AcDbArc
 50
168.920580552
 51
199.2506530079
  0
VIEWPORT
  5
122
330
AA
100
AcDbEntity
  8
0
100
AcDbViewport
 10
0.0
 20
0.0
 30
0.0
 40
205.6
 41
156.0
 68
     1
 69
     1
 12
0.0001151303
 22
-54.2833382498
 13
0.0
 23
0.0
 14
10.0
 24
10.0
 15
10.0
 25
10.0
 16
0.0
 26
0.0
 36
1.0
 17
0.0
 27
0.0
 37
0.0
 42
50.0
 43
0.0
 44
0.0
 45
393.3262174508
 50
0.0
 51
0.0
 72
   100
 90
   557152
  1

281
     0
 71
     1
 74
     0
110
0.0
120
0.0
130
0.0
111
1.0
121
0.0
131
0.0
112
0.0
122
1.0
132
0.0
 79
     0
146
0.0
170
     0
 61
     5
348
2F
292
     1
282
     1
141
0.0
142
0.0
 63
   256
361
123
  0
ENDBLK
  5
AD
330
AA
100
AcDbEntity
  8
0
100
AcDbBlockEnd
  0
BLOCK
  5
C1
330
BF
100
AcDbEntity
  8
0
100
AcDbBlockBegin
  2
*Paper_Space3
 70
     0
 10
0.0
 20
0.0
 30
0.0
  3
*Paper_Space3
  1

  0
LINE
  5
CA
330
BF
100
AcDbEntity
  8
0
  6
Continuous
 62
     7
370
    25
100
AcDbLine
 10
-75.0
 20
-140.0
 30
0.0
 11
-75.0
 21
-151.4752074801
 31
0.0
  0
LINE
  5
CB
330
BF
100
AcDbEntity
  8
0
  6
Continuous
 62
     7
370
    25
100
AcDbLine
 10
75.0
 20
-151.4752074801
 30
0.0
 11
75.0
 21
-140.0
 31
0.0
  0
LINE
  5
CC
330
BF
100
AcDbEntity
  8
0
  6
Continuous
 62
     7
370
    25
100
AcDbLine
 10
-240.0
 20
0.0
 30
0.0
 11
240.0
 21
0.0
 31
0.0
  0
LINE
  5
CD
330
BF
100
AcDbEntity
  8
0
  6
Continuous
 62
     7
370
    25
100
AcDbLine
 10
-230.0
 20
-140.0
 30
0.0
 11
230.0
 21
-140.0
 31
0.0
  0
LINE
  5
CE
330
BF
100
AcDbEntity
  8
0
  6
Continuous
 62
     7
370
    25
100
AcDbLine
 10
-75.0
 20
-151.4752074801
 30
0.0
 11
75.0
 21
-151.4752074801
 31
0.0
  0
ARC
  5
CF
330
BF
100
AcDbEntity
  8
0
  6
Continuous
 62
     7
370
    25
100
AcDbCircle
 10
-23.2655906399
 20
-51.5524578114
 30
0.0
 40
268.2655906399452
100
AcDbArc
 50
340.7493469921
 51
11.079419448
  0
ARC
  5
D0
330
BF
100
AcDbEntity
  8
0
  6
Continuous
 62
     7
370
    25
100
AcDbCircle
 10
23.2655906399
 20
-51.5524578114
 30
0.0
 40
268.2655906399432
100
AcDbArc
 50
168.920580552
 51
199.2506530079
  0
VIEWPORT
  5
124
330
BF
100
AcDbEntity
  8
0
100
AcDbViewport
 10
0.0
 20
0.0
 30
0.0
 40
205.6
 41
156.0
 68
     1
 69
     1
 12
0.0001151303
 22
-54.2833382498
 13
0.0
 23
0.0
 14
10.0
 24
10.0
 15
10.0
 25
10.0
 16
0.0
 26
0.0
 36
1.0
 17
0.0
 27
0.0
 37
0.0
 42
50.0
 43
0.0
 44
0.0
 45
393.3262174508
 50
0.0
 51
0.0
 72
   100
 90
   557152
  1

281
     0
 71
     1
 74
     0
110
0.0
120
0.0
130
0.0
111
1.0
121
0.0
131
0.0
112
0.0
122
1.0
132
0.0
 79
     0
146
0.0
170
     0
 61
     5
348
2F
292
     1
282
     1
141
0.0
142
0.0
 63
   256
361
125
  0
ENDBLK
  5
C2
330
BF
100
AcDbEntity
  8
0
100
AcDbBlockEnd
  0
BLOCK
  5
D3
330
D1
100
AcDbEntity
  8
0
100
AcDbBlockBegin
  2
*Paper_Space4
 70
     0
 10
0.0
 20
0.0
 30
0.0
  3
*Paper_Space4
  1

  0
LINE
  5
DC
330
D1
100
AcDbEntity
  8
0
  6
Continuous
 62
     7
370
    25
100
AcDbLine
 10
-75.0
 20
-140.0
 30
0.0
 11
-75.0
 21
-151.4752074801
 31
0.0
  0
LINE
  5
DD
330
D1
100
AcDbEntity
  8
0
  6
Continuous
 62
     7
370
    25
100
AcDbLine
 10
75.0
 20
-151.4752074801
 30
0.0
 11
75.0
 21
-140.0
 31
0.0
  0
LINE
  5
DE
330
D1
100
AcDbEntity
  8
0
  6
Continuous
 62
     7
370
    25
100
AcDbLine
 10
-240.0
 20
0.0
 30
0.0
 11
240.0
 21
0.0
 31
0.0
  0
LINE
  5
DF
330
D1
100
AcDbEntity
  8
0
  6
Continuous
 62
     7
370
    25
100
AcDbLine
 10
-230.0
 20
-140.0
 30
0.0
 11
230.0
 21
-140.0
 31
0.0
  0
LINE
  5
E0
330
D1
100
AcDbEntity
  8
0
  6
Continuous
 62
     7
370
    25
100
AcDbLine
 10
-75.0
 20
-151.4752074801
 30
0.0
 11
75.0
 21
-151.4752074801
 31
0.0
  0
ARC
  5
E1
330
D1
100
AcDbEntity
  8
0
  6
Continuous
 62
     7
370
    25
100
AcDbCircle
 10
-23.2655906399
 20
-51.5524578114
 30
0.0
 40
268.2655906399452
100
AcDbArc
 50
340.7493469921
 51
11.079419448
  0
ARC
  5
E2
330
D1
100
AcDbEntity
  8
0
  6
Continuous
 62
     7
370
    25
100
AcDbCircle
 10
23.2655906399
 20
-51.5524578114
 30
0.0
 40
268.2655906399432
100
AcDbArc
 50
168.920580552
 51
199.2506530079
  0
VIEWPORT
  5
126
330
D1
100
AcDbEntity
  8
0
100
AcDbViewport
 10
0.0
 20
0.0
 30
0.0
 40
205.6
 41
156.0
 68
     1
 69
     1
 12
0.0001151303
 22
-54.2833382498
 13
0.0
 23
0.0
 14
10.0
 24
10.0
 15
10.0
 25
10.0
 16
0.0
 26
0.0
 36
1.0
 17
0.0
 27
0.0
 37
0.0
 42
50.0
 43
0.0
 44
0.0
 45
393.3262174508
 50
0.0
 51
0.0
 72
   100
 90
   557152
  1

281
     0
 71
     1
 74
     0
110
0.0
120
0.0
130
0.0
111
1.0
121
0.0
131
0.0
112
0.0
122
1.0
132
0.0
 79
     0
146
0.0
170
     0
 61
     5
348
2F
292
     1
282
     1
141
0.0
142
0.0
 63
   256
361
127
  0
ENDBLK
  5
D4
330
D1
100
AcDbEntity
  8
0
100
AcDbBlockEnd
  0
BLOCK
  5
E5
330
E3
100
AcDbEntity
  8
0
100
AcDbBlockBegin
  2
*Paper_Space5
 70
     0
 10
0.0
 20
0.0
 30
0.0
  3
*Paper_Space5
  1

  0
CIRCLE
  5
E7
330
E3
100
AcDbEntity
  8
0
  6
Continuous
 62
     7
370
    25
100
AcDbCircle
 10
0.0
 20
0.0
 30
0.0
 40
245.0000000000001
  0
CIRCLE
  5
E8
330
E3
100
AcDbEntity
  8
0
  6
Continuous
 62
     7
370
    25
100
AcDbCircle
 10
0.0
 20
0.0
 30
0.0
 40
74.99999999999989
  0
CIRCLE
  5
E9
330
E3
100
AcDbEntity
  8
0
  6
Continuous
 62
     7
370
    25
100
AcDbCircle
 10
0.0
 20
0.0
 30
0.0
 40
22.5
  0
CIRCLE
  5
EA
330
E3
100
AcDbEntity
  8
0
  6
Continuous
 62
     7
370
    25
100
AcDbCircle
 10
0.0
 20
0.0
 30
0.0
 40
230.0000000000001
  0
VIEWPORT
  5
128
330
E3
100
AcDbEntity
  8
0
100
AcDbViewport
 10
0.0
 20
0.0
 30
0.0
 40
205.6
 41
156.0
 68
     1
 69
     1
 12
0.0001151303
 22
-54.2833382498
 13
0.0
 23
0.0
 14
10.0
 24
10.0
 15
10.0
 25
10.0
 16
0.0
 26
0.0
 36
1.0
 17
0.0
 27
0.0
 37
0.0
 42
50.0
 43
0.0
 44
0.0
 45
393.3262174508
 50
0.0
 51
0.0
 72
   100
 90
   557152
  1

281
     0
 71
     1
 74
     0
110
0.0
120
0.0
130
0.0
111
1.0
121
0.0
131
0.0
112
0.0
122
1.0
132
0.0
 79
     0
146
0.0
170
     0
 61
     5
348
2F
292
     1
282
     1
141
0.0
142
0.0
 63
   256
361
129
  0
ENDBLK
  5
E6
330
E3
100
AcDbEntity
  8
0
100
AcDbBlockEnd
  0
BLOCK
  5
ED
330
EB
100
AcDbEntity
  8
0
100
AcDbBlockBegin
  2
*Paper_Space6
 70
     0
 10
0.0
 20
0.0
 30
0.0
  3
*Paper_Space6
  1

  0
SPLINE
  5
EF
330
EB
100
AcDbEntity
  8
0
  6
Continuous
 62
     7
370
    25
100
AcDbSpline
210
0.0
220
0.0
230
1.0
 70
     8
 71
     3
 72
    27
 73
    23
 74
     0
 42
0.000000001
 43
0.00000001
 40
0.0
 40
0.0
 40
0.0
 40
0.0
 40
0.0244839611881536
 40
0.0783726829554635
 40
0.1321801787294313
 40
0.1859050293242578
 40
0.2395458825075526
 40
0.2931014309891652
 40
0.3465703928806865
 40
0.3999514942634857
 40
0.4532433447034088
 40
0.506444130061454
 40
0.5595525150870232
 40
0.6125671136577794
 40
0.6654864780906988
 40
0.71830908932689
 40
0.7710333478700212
 40
0.823657565447452
 40
0.8761799574050119
 40
0.9285986358939462
 40
0.9809116039628394
 40
1.0
 40
1.0
 40
1.0
 40
1.0
 10
-237.6446210555327
 20
19.1935032390513
 30
0.0
 10
-237.9799647996188
 20
17.84699263788146
 30
0.0
 10
-239.0533935938564
 20
13.53683842587785
 30
0.0
 10
-240.5286116356222
 20
6.189183638454492
 30
0.0
 10
-242.0804683885868
 20
-2.827472995597054
 30
0.0
 10
-243.2950045005334
 20
-11.88306152429616
 30
0.0
 10
-244.1948369983758
 20
-20.96047310198621
 30
0.0
 10
-244.7743651099573
 20
-30.04964822148943
 30
0.0
 10
-245.0360473609737
 20
-39.13874691373502
 30
0.0
 10
-244.9806962614172
 20
-48.21651568600077
 30
0.0
 10
-244.6100676258644
 20
-57.27164329492557
 30
0.0
 10
-243.9261640184838
 20
-66.29296865247703
 30
0.0
 10
-242.9314169308556
 20
-75.26945388729808
 30
0.0
 10
-241.6286115333236
 20
-84.19022248932819
 30
0.0
 10
-240.020948087568
 20
-93.04456032978428
 30
0.0
 10
-238.1118356849856
 20
-101.8218387979156
 30
0.0
 10
-235.9056191541455
 20
-110.5118508767523
 30
0.0
 10
-233.4048477389078
 20
-119.1036063476643
 30
0.0
 10
-230.6204082167726
 20
-127.589861864912
 30
0.0
 10
-227.5337867197174
 20
-135.9503096889837
 30
0.0
 10
-224.9330478344627
 20
-142.4703383735274
 30
0.0
 10
-223.2665618534474
 20
-146.1573707658399
 30
0.0
 10
-222.8210445332356
 20
-147.1430597003227
 30
0.0
  0
SPLINE
  5
F0
330
EB
100
AcDbEntity
  8
0
  6
Continuous
 62
     7
370
    25
100
AcDbSpline
210
0.0
220
0.0
230
1.0
 70
     8
 71
     3
 72
    26
 73
    22
 74
     0
 42
0.000000001
 43
0.00000001
 40
0.0
 40
0.0
 40
0.0
 40
0.0
 40
0.0491532412432774
 40
0.1034082948091911
 40
0.1575902172802414
 40
0.2116969098143868
 40
0.2657264858726232
 40
0.3196772315519579
 40
0.3735475708719742
 40
0.4273360353361633
 40
0.4810412371715463
 40
0.5346618457255814
 40
0.5881965665652091
 40
0.6416441228843569
 40
0.6950032388791891
 40
0.7482722472913621
 40
0.8014495902364699
 40
0.8545339114956547
 40
0.9075237991368182
 40
0.9604177753048985
 40
1.0
 40
1.0
 40
1.0
 40
1.0
 10
222.8663909747934
 20
-147.092582566442
 30
0.0
 10
223.9723146261139
 20
-144.536869847412
 30
0.0
 10
226.298950186243
 20
-139.1601767217436
 30
0.0
 10
229.4708610201812
 20
-130.8118913117278
 30
0.0
 10
232.462154235335
 20
-122.1013927088076
 30
0.0
 10
235.1320152628812
 20
-113.2994508019422
 30
0.0
 10
237.4876769935456
 20
-104.4219168199382
 30
0.0
 10
239.5251893128755
 20
-95.47950113297601
 30
0.0
 10
241.2441472301169
 20
-86.48424203936237
 30
0.0
 10
242.6437434693556
 20
-77.44776366215117
 30
0.0
 10
243.7238144972619
 20
-68.38172935283488
 30
0.0
 10
244.484554457577
 20
-59.29770743944385
 30
0.0
 10
244.9265765136355
 20
-50.20719620403239
 30
0.0
 10
245.0509155549921
 20
-41.12159809298107
 30
0.0
 10
244.8589207865716
 20
-32.05225914794119
 30
0.0
 10
244.3526518443459
 20
-23.01035458355551
 30
0.0
 10
243.5333867743022
 20
-14.00722141370717
 30
0.0
 10
242.4071509205068
 20
-5.052999168914135
 30
0.0
 10
240.9640925113938
 20
3.838429464118741
 30
0.0
 10
239.3975207811383
 20
11.93255276259707
 30
0.0
 10
238.1754456754366
 20
17.02770571892994
 30
0.0
 10
237.6523656724016
 20
19.20856400777617
 30
0.0
  0
SPLINE
  5
F1
330
EB
100
AcDbEntity
  8
0
  6
Continuous
 62
     7
370
    25
100
AcDbSpline
210
0.0
220
0.0
230
1.0
 70
     8
 71
     3
 72
    71
 73
    67
 74
     0
 42
0.000000001
 43
0.00000001
 40
0.0
 40
0.0
 40
0.0
 40
0.0
 40
0.0005937284861379
 40
0.0185771281843134
 40
0.0364446832239821
 40
0.0540960610192904
 40
0.0714724737530477
 40
0.0885558252716022
 40
0.1053576233106665
 40
0.1219062766825002
 40
0.1382373024080929
 40
0.1543872073636472
 40
0.1703902177808377
 40
0.1862768183306578
 40
0.2020733163117056
 40
0.217801936589733
 40
0.2334811632387091
 40
0.2491261739673954
 40
0.2647492880591066
 40
0.2803603895756467
 40
0.2959673094631637
 40
0.311574704616754
 40
0.3271872780161886
 40
0.3428089098107698
 40
0.3584424452311479
 40
0.3740898828186847
 40
0.3897525322667801
 40
0.4054311459335709
 40
0.4211260278971979
 40
0.4368371239621132
 40
0.4525640955838571
 40
0.468306380274969
 40
0.4840632406910474
 40
0.4998338042741918
 40
0.5156170950491616
 40
0.5314120589226857
 40
0.5472175836254656
 40
0.5630325142558473
 40
0.5788556652308364
 40
0.5946858293210164
 40
0.6105217843380909
 40
0.6263622979547642
 40
0.6422061310643027
 40
0.658052040029408
 40
0.6738987781254904
 40
0.6897449364121424
 40
0.7055890082616788
 40
0.7214297426427198
 40
0.7372658887903499
 40
0.7530961975861789
 40
0.7689194237656841
 40
0.7847343292252423
 40
0.8005396877772983
 40
0.8163342917592818
 40
0.8321169609734983
 40
0.8478865545228627
 40
0.8636419862131821
 40
0.8793822443185025
 40
0.895106416654326
 40
0.9108137220759985
 40
0.9265035497184154
 40
0.942175507519203
 40
0.9578294818212302
 40
0.9734657101298887
 40
0.989084869401761
 40
1.0
 40
1.0
 40
1.0
 40
1.0
 10
218.891580458107
 20
-22.00299282146548
 30
0.0
 10
218.8906504094696
 20
-22.04989002310188
 30
0.0
 10
218.8615501840979
 20
-23.51725321457063
 30
0.0
 10
218.514628850549
 20
-26.40127508617096
 30
0.0
 10
217.8253983308661
 20
-30.65016139369522
 30
0.0
 10
216.791105797052
 20
-34.8746419996405
 30
0.0
 10
215.4659096387619
 20
-39.06251572556822
 30
0.0
 10
213.8460675365144
 20
-43.20775702813658
 30
0.0
 10
211.941802243968
 20
-47.30818060094299
 30
0.0
 10
209.7575117352636
 20
-51.3638214215244
 30
0.0
 10
207.2969677523555
 20
-55.3752516483105
 30
0.0
 10
204.5624620169345
 20
-59.34257440566206
 30
0.0
 10
201.5556601062682
 20
-63.2649151422921
 30
0.0
 10
198.2779501060412
 20
-67.1402674413887
 30
0.0
 10
194.7308049086886
 20
-70.9655329265583
 30
0.0
 10
190.916019459786
 20
-74.73665541895998
 30
0.0
 10
186.8358782478592
 20
-78.44878953905209
 30
0.0
 10
182.4932609404459
 20
-82.09647255594841
 30
0.0
 10
177.8917041030014
 20
-85.67378440607109
 30
0.0
 10
173.0354303154431
 20
-89.17448972473201
 30
0.0
 10
167.9295127941843
 20
-92.5920540440687
 30
0.0
 10
162.5797383254722
 20
-95.91986739386618
 30
0.0
 10
156.9925387236051
 20
-99.15135845299869
 30
0.0
 10
151.1747653512447
 20
-102.2801512708583
 30
0.0
 10
145.1338158206916
 20
-105.3000076750745
 30
0.0
 10
138.8776485419521
 20
-108.2048464361575
 30
0.0
 10
132.4147457621485
 20
-110.9887838022271
 30
0.0
 10
125.7540760617775
 20
-113.6461659949603
 30
0.0
 10
118.905057185569
 20
-116.1715950134616
 30
0.0
 10
111.8775197837756
 20
-118.5599489243411
 30
0.0
 10
104.6816724328825
 20
-120.8063976458843
 30
0.0
 10
97.32806814877225
 20
-122.9064150807917
 30
0.0
 10
89.82757248941891
 20
-124.8557883162969
 30
0.0
 10
82.19133325983901
 20
-126.6506244918221
 30
0.0
 10
74.43075177248059
 20
-128.287355831659
 30
0.0
 10
66.55745557587446
 20
-129.762743252141
 30
0.0
 10
58.5832725386667
 20
-131.0738788779945
 30
0.0
 10
50.52020616133945
 20
-132.2181877395591
 30
0.0
 10
42.38041198102317
 20
-133.1934288699461
 30
0.0
 10
34.176174933381
 20
-133.9976959775752
 30
0.0
 10
25.91988753765576
 20
-134.6294178336152
 30
0.0
 10
17.62402877534881
 20
-135.0873584844622
 30
0.0
 10
9.301143537535307
 20
-135.370617375394
 30
0.0
 10
0.9638225233458558
 20
-135.4786294520235
 30
0.0
 10
-7.375289458531221
 20
-135.411165517004
 30
0.0
 10
-15.70349637097257
 20
-135.1683361636705
 30
0.0
 10
-24.00811641524577
 20
-134.7505949753696
 30
0.0
 10
-32.27653053481251
 20
-134.1587359324818
 30
0.0
 10
-40.49621854711381
 20
-133.3938884759237
 30
0.0
 10
-48.65473407966888
 20
-132.4575193078163
 30
0.0
 10
-56.73972475082343
 20
-131.3514329523766
 30
0.0
 10
-64.73895285251997
 20
-130.0777723457992
 30
0.0
 10
-72.64031666543829
 20
-128.6390194026118
 30
0.0
 10
-80.43187252722619
 20
-127.0379954713157
 30
0.0
 10
-88.10185789549918
 20
-125.2778616138414
 30
0.0
 10
-95.63871523831963
 20
-123.362118429725
 30
0.0
 10
-103.0311181552365
 20
-121.2946057768917
 30
0.0
 10
-110.2679953149157
 20
-119.0795001840091
 30
0.0
 10
-117.3385694950978
 20
-116.7213170252745
 30
0.0
 10
-124.2323481412994
 20
-114.2248896514537
 30
0.0
 10
-130.9393031499427
 20
-111.5954272514759
 30
0.0
 10
-137.4493548893517
 20
-108.838269951566
 30
0.0
 10
-143.7544582049579
 20
-105.9597596646343
 30
0.0
 10
-149.841004180134
 20
-102.9639382397725
 30
0.0
 10
-155.1302922832018
 20
-100.174841815293
 30
0.0
 10
-158.3249106311444
 20
-98.35814344425565
 30
0.0
 10
-159.6390470429352
 20
-97.61082742130765
 30
0.0
  0
SPLINE
  5
F2
330
EB
100
AcDbEntity
  8
0
  6
Continuous
 62
     7
370
    25
100
AcDbSpline
210
0.0
220
0.0
230
1.0
 70
     8
 71
     3
 72
    28
 73
    24
 74
     0
 42
0.000000001
 43
0.00000001
 40
0.0
 40
0.0
 40
0.0
 40
0.0
 40
0.0255118159775895
 40
0.0742286438698731
 40
0.1229075941352926
 40
0.1715662027970094
 40
0.2202195715922307
 40
0.2688826634847925
 40
0.3175803511498038
 40
0.3663438433569294
 40
0.4152117775157072
 40
0.464231388709012
 40
0.5134596951568062
 40
0.5629645774366352
 40
0.6128255244081401
 40
0.6631336422770897
 40
0.7139902349795849
 40
0.7655028221412171
 40
0.8177768645958875
 40
0.8709008897742513
 40
0.9249227963859031
 40
0.9798174069664257
 40
1.0
 40
1.0
 40
1.0
 40
1.0
 10
-159.6390470429352
 20
-97.61082742130765
 30
0.0
 10
-160.6071358579409
 20
-97.04550738496644
 30
0.0
 10
-163.4238667385098
 20
-95.4006640822813
 30
0.0
 10
-167.9097484572037
 20
-92.60257726407733
 30
0.0
 10
-173.0091304008261
 20
-89.19314107304216
 30
0.0
 10
-177.8531655727172
 20
-85.70218145330907
 30
0.0
 10
-182.4406234324812
 20
-82.13864239706007
 30
0.0
 10
-186.7659011453625
 20
-78.50936007151921
 30
0.0
 10
-190.8255396107384
 20
-74.82162671227627
 30
0.0
 10
-194.6166674326159
 20
-71.08218145164619
 30
0.0
 10
-198.1373021186901
 20
-67.29736709797827
 30
0.0
 10
-201.3861955441147
 20
-63.47289132669101
 30
0.0
 10
-204.3627921945728
 20
-59.61362936814696
 30
0.0
 10
-207.0670980123724
 20
-55.72338501652004
 30
0.0
 10
-209.4994747661066
 20
-51.8046458201591
 30
0.0
 10
-211.6604074163536
 20
-47.85834995023167
 30
0.0
 10
-213.5499327273282
 20
-43.88372096734215
 30
0.0
 10
-215.1678603480001
 20
-39.8782296886282
 30
0.0
 10
-216.5104881900118
 20
-35.83790608789167
 30
0.0
 10
-217.580382150468
 20
-31.75783225742924
 30
0.0
 10
-218.3464511179734
 20
-27.63431870482501
 30
0.0
 10
-218.7770610205785
 20
-24.36225786953925
 30
0.0
 10
-218.8451919621025
 20
-22.46453737236916
 30
0.0
 10
-218.8635072295816
 20
-21.95438357544928
 30
0.0
  0
LWPOLYLINE
  5
F3
330
EB
100
AcDbEntity
  8
0
  6
Continuous
 62
     7
370
    25
100
AcDbPolyline
 90
      165
 70
   128
 43
0.0
 10
-169.7056274848
 20
-97.9689734187
 10
-163.0809048243
 20
-101.6495614283
 10
-156.2168384474
 20
-105.1809646893
 10
-149.123502318
 20
-108.5580003802
 10
-141.8113068851
 20
-111.7757122356
 10
-134.2909838038
 20
-114.8293778196
 10
-126.5735701852
 20
-117.7145154569
 10
-118.6703923981
 20
-120.4268908101
 10
-110.5930494457
 20
-122.9625230944
 10
-102.3533959427
 20
-125.3176909197
 10
-93.9635247167
 20
-127.4889377525
 10
-85.4357490608
 20
-129.4730769886
 10
-76.7825846617
 20
-131.26719663
 10
-68.0167312314
 20
-132.8686635589
 10
-59.1510538686
 20
-134.2751274017
 10
-50.1985641774
 20
-135.4845239787
 10
-41.172401171
 20
-136.4950783336
 10
-32.0858119883
 20
-137.3053073386
 10
-22.9521324519
 20
-137.914021871
 10
-13.7847674961
 20
-138.3203285581
 10
-4.5971714931
 20
-138.5236310889
 10
4.5971714931
 20
-138.5236310889
 10
13.7847674961
 20
-138.3203285581
 10
22.9521324519
 20
-137.914021871
 10
32.0858119883
 20
-137.3053073386
 10
41.172401171
 20
-136.4950783336
 10
50.1985641774
 20
-135.4845239787
 10
59.1510538686
 20
-134.2751274017
 10
68.0167312314
 20
-132.8686635589
 10
76.7825846617
 20
-131.26719663
 10
85.4357490608
 20
-129.4730769886
 10
93.9635247167
 20
-127.4889377525
 10
102.3533959427
 20
-125.3176909197
 10
110.5930494457
 20
-122.9625230944
 10
118.6703923981
 20
-120.4268908101
 10
126.5735701852
 20
-117.7145154569
 10
134.2909838038
 20
-114.8293778196
 10
141.8113068851
 20
-111.7757122356
 10
149.123502318
 20
-108.5580003802
 10
156.2168384474
 20
-105.1809646893
 10
163.0809048243
 20
-101.6495614283
 10
169.7056274848
 20
-97.9689734187
 10
176.0812837348
 20
-94.1446024309
 10
182.1985164196
 20
-90.1820612565
 10
188.0483476567
 20
-86.0871654713
 10
193.622192012
 20
-81.8659248996
 10
198.9118691004
 20
-77.5245347938
 10
203.9096155912
 20
-73.0693667427
 10
208.6080966024
 20
-68.5069593198
 10
213.0004164651
 20
-63.8440084871
 10
217.0801288442
 20
-59.0873577679
 10
220.8412461992
 20
-54.2439882032
 10
224.2782485718
 20
-49.3210081056
 10
227.386091687
 20
-44.3256426273
 10
230.1602143564
 20
-39.2652231561
 10
232.5965451726
 20
-34.1471765552
 10
234.6915084841
 20
-28.979014264
 10
236.4420296432
 20
-23.7683212731
 10
237.8455395189
 20
-18.5227449931
 10
238.8999782669
 20
-13.2499840307
 10
239.6037983528
 20
-7.9577768895
 10
239.9559668236
 20
-2.6538906133
 10
239.9559668236
 20
2.6538906133
 10
239.6037983528
 20
7.9577768895
 10
238.8999782669
 20
13.2499840307
 10
237.8455395189
 20
18.5227449931
 10
236.4420296432
 20
23.7683212731
 10
234.6915084841
 20
28.979014264
 10
232.5965451726
 20
34.1471765552
 10
230.1602143564
 20
39.2652231561
 10
227.386091687
 20
44.3256426273
 10
224.2782485718
 20
49.3210081056
 10
220.8412461992
 20
54.2439882032
 10
217.0801288442
 20
59.0873577679
 10
213.0004164651
 20
63.8440084871
 10
208.6080966024
 20
68.5069593198
 10
203.9096155912
 20
73.0693667427
 10
198.9118691004
 20
77.5245347938
 10
193.622192012
 20
81.8659248996
 10
188.0483476567
 20
86.0871654713
 10
182.1985164196
 20
90.1820612565
 10
176.0812837348
 20
94.1446024309
 10
169.7056274848
 20
97.9689734187
 10
163.0809048243
 20
101.6495614283
 10
156.2168384474
 20
105.1809646893
 10
149.123502318
 20
108.5580003802
 10
141.8113068851
 20
111.7757122356
 10
134.2909838038
 20
114.8293778196
 10
126.5735701852
 20
117.7145154569
 10
118.6703923981
 20
120.4268908101
 10
110.5930494457
 20
122.9625230944
 10
102.3533959427
 20
125.3176909197
 10
93.9635247167
 20
127.4889377525
 10
85.4357490608
 20
129.4730769886
 10
76.7825846617
 20
131.26719663
 10
68.0167312314
 20
132.8686635589
 10
59.1510538686
 20
134.2751274017
 10
50.1985641774
 20
135.4845239787
 10
41.172401171
 20
136.4950783336
 10
32.0858119883
 20
137.3053073386
 10
22.9521324519
 20
137.914021871
 10
13.7847674961
 20
138.3203285581
 10
4.5971714931
 20
138.5236310889
 10
-4.5971714931
 20
138.5236310889
 10
-13.7847674961
 20
138.3203285581
 10
-22.9521324519
 20
137.914021871
 10
-32.0858119883
 20
137.3053073386
 10
-41.172401171
 20
136.4950783336
 10
-50.1985641774
 20
135.4845239787
 10
-59.1510538686
 20
134.2751274017
 10
-68.0167312314
 20
132.8686635589
 10
-76.7825846617
 20
131.26719663
 10
-85.4357490608
 20
129.4730769886
 10
-93.9635247167
 20
127.4889377525
 10
-102.3533959427
 20
125.3176909197
 10
-110.5930494457
 20
122.9625230944
 10
-118.6703923981
 20
120.4268908101
 10
-126.5735701852
 20
117.7145154569
 10
-134.2909838038
 20
114.8293778196
 10
-141.8113068851
 20
111.7757122356
 10
-149.123502318
 20
108.5580003802
 10
-156.2168384474
 20
105.1809646893
 10
-163.0809048243
 20
101.6495614283
 10
-169.7056274848
 20
97.9689734187
 10
-176.0812837348
 20
94.1446024309
 10
-182.1985164196
 20
90.1820612565
 10
-188.0483476567
 20
86.0871654713
 10
-193.622192012
 20
81.8659248996
 10
-198.9118691004
 20
77.5245347938
 10
-203.9096155912
 20
73.0693667427
 10
-208.6080966024
 20
68.5069593198
 10
-213.0004164651
 20
63.8440084871
 10
-217.0801288442
 20
59.0873577679
 10
-220.8412461992
 20
54.2439882032
 10
-224.2782485718
 20
49.3210081056
 10
-227.386091687
 20
44.3256426273
 10
-230.1602143564
 20
39.2652231561
 10
-232.5965451726
 20
34.1471765552
 10
-234.6915084841
 20
28.979014264
 10
-236.4420296432
 20
23.7683212731
 10
-237.8455395189
 20
18.5227449931
 10
-238.8999782669
 20
13.2499840307
 10
-239.6037983528
 20
7.9577768894
 10
-239.9559668236
 20
2.6538906133
 10
-239.9559668236
 20
-2.6538906133
 10
-239.6037983528
 20
-7.9577768895
 10
-238.8999782669
 20
-13.2499840307
 10
-237.8455395189
 20
-18.5227449931
 10
-236.4420296432
 20
-23.7683212731
 10
-234.6915084841
 20
-28.979014264
 10
-232.5965451726
 20
-34.1471765552
 10
-230.1602143564
 20
-39.2652231561
 10
-227.386091687
 20
-44.3256426273
 10
-224.2782485718
 20
-49.3210081056
 10
-220.8412461992
 20
-54.2439882032
 10
-217.0801288442
 20
-59.0873577679
 10
-213.0004164651
 20
-63.8440084871
 10
-208.6080966024
 20
-68.5069593198
 10
-203.9096155912
 20
-73.0693667427
 10
-198.9118691004
 20
-77.5245347938
 10
-193.622192012
 20
-81.8659248996
 10
-188.0483476567
 20
-86.0871654713
 10
-182.1985164196
 20
-90.1820612565
 10
-176.0812837348
 20
-94.1446024309
 10
-169.7056274848
 20
-97.9689734187
  0
LWPOLYLINE
  5
F4
330
EB
100
AcDbEntity
  8
0
  6
Continuous
 62
     7
370
    25
100
AcDbPolyline
 90
       55
 70
   128
 43
0.0
 10
-162.6345596729
 20
-208.2026465236
 10
-156.1653622244
 20
-211.7942604057
 10
-149.458350689
 20
-215.2374305403
 10
-142.5237387388
 20
-218.5269135473
 10
-135.372086644
 20
-221.6577000866
 10
-128.014285191
 20
-224.6250224868
 10
-120.4615390979
 20
-227.4243620054
 10
-112.7253499509
 20
-230.0514557099
 10
-104.8174986902
 20
-232.5023029701
 10
-96.7500276688
 20
-234.7731715498
 10
-88.5352223143
 20
-236.8606032908
 10
-80.1855924202
 20
-238.7614193788
 10
-71.7138530956
 20
-240.4727251845
 10
-63.132905402
 20
-241.9919146714
 10
-54.4558167073
 20
-243.3166743645
 10
-45.6958007863
 20
-244.4449868734
 10
-36.8661976984
 20
-245.3751339642
 10
-27.9804534724
 20
-246.1056991762
 10
-19.0520996313
 20
-246.6355699793
 10
-10.094732585
 20
-246.9639394676
 10
-1.1219929262
 20
-247.0903075884
 10
7.8524553428
 20
-247.0144819041
 10
16.8149456175
 20
-246.7365778845
 10
25.7518295038
 20
-246.2570187318
 10
34.6494976015
 20
-245.5765347353
 10
43.4944002298
 20
-244.69616216
 10
52.273068061
 20
-243.617241668
 10
60.9721326321
 20
-242.3414162774
 10
69.5783467026
 20
-240.8706288597
 10
78.0786044282
 20
-239.2071191816
 10
86.4599613184
 20
-237.3534204938
 10
94.7096539491
 20
-235.3123556738
 10
102.8151193994
 20
-233.0870329266
 10
110.7640143824
 20
-230.6808410516
 10
118.5442340421
 20
-228.0974442822
 10
126.1439303873
 20
-225.3407767055
 10
133.5515303343
 20
-222.4150362715
 10
140.75575333
 20
-219.3246784004
 10
147.7456285312
 20
-216.0744091973
 10
154.5105115111
 20
-212.6691782861
 10
161.0401004686
 20
-209.1141712719
 10
167.3244519169
 20
-205.4148018438
 10
173.3539958253
 20
-201.5767035314
 10
179.119550193
 20
-197.6057211252
 10
184.6123350318
 20
-193.5079017765
 10
189.8239857365
 20
-189.2894857881
 10
194.7465658225
 20
-184.9568971118
 10
199.3725790125
 20
-180.5167335654
 10
203.6949806515
 20
-175.9757567857
 10
207.7071884346
 20
-171.3408819313
 10
211.4030924314
 20
-166.6191671519
 10
214.7770643896
 20
-161.8178028404
 10
217.8239663066
 20
-156.9441006826
 10
220.5391582531
 20
-152.005482523
 10
222.8795128083
 20
-147.0979446098
  0
LWPOLYLINE
  5
F5
330
EB
100
AcDbEntity
  8
0
  6
Continuous
 62
     7
370
    25
100
AcDbPolyline
 90
       15
 70
   128
 43
0.0
 10
-222.8703042786
 20
-147.1188019756
 10
-221.1656308189
 20
-150.7615641808
 10
-218.534032302
 20
-155.7152398424
 10
-215.5696425015
 20
-160.6058708545
 10
-212.2769756939
 20
-165.4260095928
 10
-208.6610460677
 20
-170.1683157811
 10
-204.7273600873
 20
-174.8255676694
 10
-200.4819081075
 20
-179.3906730312
 10
-195.9311552515
 20
-183.8566799641
 10
-191.082031565
 20
-188.2167874762
 10
-185.9419214638
 20
-192.464355843
 10
-180.5186524875
 20
-196.5929167184
 10
-174.8204833803
 20
-200.5961829853
 10
-168.8560915138
 20
-204.4680583296
 10
-162.6345596729
 20
-208.2026465236
  0
LWPOLYLINE
  5
F6
330
EB
100
AcDbEntity
  8
0
  6
Continuous
 62
     7
370
    25
100
AcDbPolyline
 90
       61
 70
   128
 43
0.0
 10
-22.9809703886
 20
-116.5388004163
 10
-20.4529127091
 20
-117.8528650557
 10
-17.700768638
 20
-119.0071805335
 10
-14.7546912415
 20
-119.9890999278
 10
-11.6469583602
 20
-120.7878651242
 10
-8.4116189658
 20
-121.394724684
 10
-5.0841201138
 20
-121.8030297271
 10
-1.7009185779
 20
-122.0083067777
 10
1.7009185779
 20
-122.0083067777
 10
5.0841201138
 20
-121.8030297271
 10
8.4116189658
 20
-121.394724684
 10
11.6469583602
 20
-120.7878651242
 10
14.7546912415
 20
-119.9890999278
 10
17.700768638
 20
-119.0071805335
 10
20.4529127091
 20
-117.8528650557
 10
22.9809703886
 20
-116.5388004163
 10
25.2572437474
 20
-115.0793837825
 10
27.2567934582
 20
-113.4906048284
 10
28.9577120361
 20
-111.7898705486
 10
30.3413638612
 20
-109.9958145437
 10
31.3925893544
 20
-108.1280928669
 10
32.0998710693
 20
-106.2071686677
 10
32.4554598795
 20
-104.2540879935
 10
32.4554598795
 20
-102.2902492049
 10
32.0998710693
 20
-100.3371685307
 10
31.3925893544
 20
-98.4162443315
 10
30.3413638612
 20
-96.5485226547
 10
28.9577120361
 20
-94.7544666498
 10
27.2567934582
 20
-93.05373237
 10
25.2572437474
 20
-91.4649534159
 10
22.9809703886
 20
-90.0055367821
 10
20.4529127091
 20
-88.6914721427
 10
17.700768638
 20
-87.5371566649
 10
14.7546912415
 20
-86.5552372706
 10
11.6469583602
 20
-85.7564720742
 10
8.4116189658
 20
-85.1496125144
 10
5.0841201138
 20
-84.7413074713
 10
1.7009185779
 20
-84.5360304207
 10
-1.7009185779
 20
-84.5360304207
 10
-5.0841201138
 20
-84.7413074713
 10
-8.4116189658
 20
-85.1496125144
 10
-11.6469583602
 20
-85.7564720742
 10
-14.7546912415
 20
-86.5552372706
 10
-17.700768638
 20
-87.5371566649
 10
-20.4529127091
 20
-88.6914721427
 10
-22.9809703886
 20
-90.0055367821
 10
-25.2572437474
 20
-91.4649534159
 10
-27.2567934582
 20
-93.05373237
 10
-28.9577120361
 20
-94.7544666498
 10
-30.3413638612
 20
-96.5485226547
 10
-31.3925893544
 20
-98.4162443315
 10
-32.0998710693
 20
-100.3371685307
 10
-32.4554598795
 20
-102.2902492049
 10
-32.4554598795
 20
-104.2540879935
 10
-32.0998710693
 20
-106.2071686677
 10
-31.3925893544
 20
-108.1280928669
 10
-30.3413638612
 20
-109.9958145437
 10
-28.9577120361
 20
-111.7898705486
 10
-27.2567934582
 20
-113.4906048284
 10
-25.2572437474
 20
-115.0793837825
 10
-22.9809703886
 20
-116.5388004163
  0
LWPOLYLINE
  5
F7
330
EB
100
AcDbEntity
  8
0
  6
Continuous
 62
     7
370
    25
100
AcDbPolyline
 90
       36
 70
   128
 43
0.0
 10
18.7944575997
 20
-118.5786598669
 10
20.0476467942
 20
-117.3344472984
 10
21.1698173015
 20
-115.837434595
 10
21.9581271436
 20
-114.2710335045
 10
22.4001442036
 20
-112.6599471079
 10
22.4888976082
 20
-111.0295832001
 10
22.2229876634
 20
-109.4056535937
 10
21.6066079277
 20
-107.8137686289
 10
20.6494790779
 20
-106.2790332823
 10
19.3666956076
 20
-104.8256512473
 10
17.7784877785
 20
-103.4765432268
 10
15.9099025767
 20
-102.2529854601
 10
13.7904087072
 20
-101.1742741841
 10
11.4534318544
 20
-100.2574213201
 10
8.9358275393
 20
-99.5168861854
 10
6.2772998859
 20
-98.9643474615
 10
3.5197754634
 20
-98.6085190142
 10
0.7067420793
 20
-98.4550124705
 10
-2.1174370497
 20
-98.5062487204
 10
-4.9082229314
 20
-98.7614197376
 10
-7.6216032055
 20
-99.2165013228
 10
-10.2147862441
 20
-99.8643165675
 10
-12.6468760017
 20
-100.6946490383
 10
-14.8795169698
 20
-101.6944038961
 10
-16.8774990667
 20
-102.8478144096
 10
-18.6093129212
 20
-104.136690606
 10
-20.0476467942
 20
-105.5407061377
 10
-21.1698173015
 20
-107.0377188411
 10
-21.9581271436
 20
-108.6041199316
 10
-22.4001442036
 20
-110.2152063282
 10
-22.4888976082
 20
-111.845570236
 10
-22.2229876634
 20
-113.4694998424
 10
-21.6066079277
 20
-115.0613848073
 10
-20.6494790779
 20
-116.5961201538
 10
-19.3666956076
 20
-118.0495021888
 10
-18.7944575997
 20
-118.5786598669
  0
LWPOLYLINE
  5
F8
330
EB
100
AcDbEntity
  8
0
  6
Continuous
 62
     7
370
    25
100
AcDbPolyline
 90
       19
 70
   128
 43
0.0
 10
19.8422132139
 20
-117.5616328072
 10
19.3666956076
 20
-117.0737634256
 10
17.7784877785
 20
-115.724655405
 10
15.9099025767
 20
-114.5010976383
 10
13.7904087072
 20
-113.4223863624
 10
11.4534318544
 20
-112.5055334984
 10
8.9358275393
 20
-111.7649983637
 10
6.2772998859
 20
-111.2124596398
 10
3.5197754634
 20
-110.8566311924
 10
0.7067420793
 20
-110.7031246488
 10
-2.1174370497
 20
-110.7543608987
 10
-4.9082229314
 20
-111.0095319159
 10
-7.6216032055
 20
-111.4646135011
 10
-10.2147862441
 20
-112.1124287458
 10
-12.6468760017
 20
-112.9427612166
 10
-14.8795169698
 20
-113.9425160744
 10
-16.8774990667
 20
-115.0959265879
 10
-18.6093129212
 20
-116.3848027843
 10
-19.8422132139
 20
-117.5616328072
  0
LWPOLYLINE
  5
F9
330
EB
100
AcDbEntity
  8
0
  6
Continuous
 62
     1
370
    25
100
AcDbPolyline
 90
       82
 70
   128
 43
0.0
 10
218.8964464472
 20
-22.005889514
 10
219.0056566762
 20
-17.3314255793
 10
218.7864635417
 20
-12.2735464772
 10
218.2169036328
 20
-7.2247799593
 10
217.2978890484
 20
-2.1932111694
 10
216.0308915073
 20
2.8131022892
 10
214.4179399918
 20
7.7861432573
 10
212.461617498
 20
12.7179478587
 10
210.1650569001
 20
17.6006182534
 10
207.5319359323
 20
22.4263352855
 10
204.5664713003
 20
27.1873710047
 10
201.2734119282
 20
31.8761010421
 10
197.6580313531
 20
36.4850168196
 10
193.7261192809
 20
41.0067375746
 10
189.4839723137
 20
45.4340221795
 10
184.9383838672
 20
49.7597807376
 10
180.0966332908
 20
53.9770859369
 10
174.9664742113
 20
58.0791841439
 10
169.5561221152
 20
62.0595062184
 10
163.8742411932
 20
65.911678034
 10
157.9299304647
 20
69.6295306851
 10
151.7327092069
 20
73.2071103663
 10
145.2925017102
 20
76.6386879067
 10
138.6196213856
 20
79.9187679445
 10
131.7247542488
 20
83.0420977276
 10
124.6189418072
 20
86.0036755253
 10
117.313563378
 20
88.798758638
 10
109.8203178654
 20
91.4228709924
 10
102.1512050258
 20
93.8718103094
 10
94.3185062512
 20
96.1416548337
 10
86.3347649017
 20
98.2287696142
 10
78.2127662186
 20
100.1298123249
 10
69.9655168496
 20
101.8417386175
 10
61.6062240203
 20
103.3618069967
 10
53.1482743836
 20
104.68758321
 10
44.6052125824
 20
105.8169441465
 10
35.9907195593
 20
106.7480812366
 10
27.3185906472
 20
107.4795033483
 10
18.6027134778
 20
108.0100391751
 10
9.8570457419
 20
108.3388391118
 10
1.0955928368
 20
108.4653766149
 10
-7.6676145612
 20
108.3894490461
 10
-16.4185429667
 20
108.1111779965
 10
-25.1431785574
 20
107.631009092
 10
-33.827549617
 20
106.9497112799
 10
-42.4577489091
 20
106.0683755971
 10
-51.0199559485
 20
104.988413423
 10
-59.5004591332
 20
103.7115542198
 10
-67.885677703
 20
102.2398427622
 10
-76.1621834872
 20
100.5756358631
 10
-84.3167224086
 20
98.7215985998
 10
-92.3362357093
 20
96.6807000456
 10
-100.2078808625
 20
94.4562085154
 10
-107.9190521389
 20
92.0516863315
 10
-115.4574007938
 20
89.4709841191
 10
-122.8108548421
 20
86.71823464
 10
-129.967638391
 20
83.7978461741
 10
-136.9162904975
 20
80.7144954597
 10
-143.6456835224
 20
77.4731202049
 10
-150.1450409501
 20
74.0789111795
 10
-156.4039546464
 20
70.5373039029
 10
-162.4124015259
 20
66.8539699395
 10
-168.1607596032
 20
63.0348078163
 10
-173.6398234017
 20
59.0859335766
 10
-178.8408186952
 20
55.0136709861
 10
-183.7554165592
 20
50.8245414059
 10
-188.3757467088
 20
46.5252533489
 10
-192.6944101023
 20
42.1226917367
 10
-196.70449079
 20
37.6239068746
 10
-200.3995669896
 20
33.0361031603
 10
-203.7737213702
 20
28.3666275476
 10
-206.821550528
 20
23.62295778
 10
-209.5381736397
 20
18.8126904167
 10
-211.9192402787
 20
13.9435286665
 10
-213.9609373815
 20
9.0232700526
 10
-215.6599953546
 20
4.0597939251
 10
-217.0136933099
 20
-0.938951157
 10
-218.0198634224
 20
-5.9649601546
 10
-218.6768944014
 20
-11.010184368
 10
-218.9837340712
 20
-16.0665443259
 10
-218.9398910557
 20
-21.1259427242
 10
-218.8998697651
 20
-21.9436255884
  0
LWPOLYLINE
  5
FA
330
EB
100
AcDbEntity
  8
0
  6
Continuous
 62
     1
370
    25
100
AcDbPolyline
 90
       65
 70
   128
 43
0.0
 10
206.6822546934
 20
-56.3909860191
 10
204.1378771374
 20
-51.6282421059
 10
201.2357593261
 20
-46.884452003
 10
198.0030116906
 20
-42.2124537272
 10
194.4449456269
 20
-37.6199233594
 10
190.567407028
 20
-33.1144064148
 10
186.3767666798
 20
-28.7033054459
 10
181.8799097933
 20
-24.3938678801
 10
177.0842246926
 20
-20.193174112
 10
171.9975906757
 20
-16.1081258705
 10
166.6283650689
 20
-12.1454348789
 10
160.9853694959
 20
-8.3116118283
 10
155.0778753835
 20
-4.6129556799
 10
148.9155887291
 20
-1.0555433159
 10
142.5086341534
 20
2.3547804444
 10
135.867538266
 20
5.612412448
 10
129.0032123699
 20
8.7120004142
 10
121.9269345347
 20
11.648451728
 10
114.6503310662
 20
14.4169418077
 10
107.1853574048
 20
17.0129220313
 10
99.5442784826
 20
19.4321272101
 10
91.7396485723
 20
21.6705825964
 10
83.7842906602
 20
23.7246104138
 10
75.6912753786
 20
25.5908359
 10
67.4738995303
 20
27.2661928515
 10
59.1456642422
 20
28.7479286612
 10
50.7202527831
 20
30.033608841
 10
42.2115080818
 20
31.1211210218
 10
33.6334099836
 20
32.0086784239
 10
25.0000522812
 20
32.6948227929
 10
16.3256195584
 20
33.1784267953
 10
7.6243638856
 20
33.458695871
 10
-1.089418597
 20
33.5351695388
 10
-9.8014111678
 20
33.4077221524
 10
-18.4973000457
 20
33.0765631078
 10
-27.1627979083
 20
32.5422364982
 10
-35.7836673652
 20
31.805620221
 10
-44.3457443505
 20
30.8679245348
 10
-52.8349613944
 20
29.730690071
 10
-61.2373707354
 20
28.3957853029
 10
-69.5391672371
 20
26.8654034756
 10
-77.7267110696
 20
25.1420590024
 10
-85.7865501199
 20
23.2285833337
 10
-93.7054420937
 20
21.128120305
 10
-101.4703762721
 20
18.8441209715
 10
-109.0685948887
 20
16.3803379383
 10
-116.4876140904
 20
13.7408191942
 10
-123.7152444479
 20
10.9299014618
 10
-130.7396109837
 20
7.9522030714
 10
-137.5491726819
 20
4.8126163737
 10
-144.1327414506
 20
1.5162997013
 10
-150.4795005035
 20
-1.931331106
 10
-156.5790221323
 20
-5.5246116
 10
-162.4212848388
 20
-9.2576380301
 10
-167.9966898008
 20
-13.1242770439
 10
-173.2960766426
 20
-17.1181757634
 10
-178.3107384855
 20
-21.2327722237
 10
-183.0324362533
 20
-25.4613061535
 10
-187.4534122089
 20
-29.7968300828
 10
-191.5664027005
 20
-34.232220757
 10
-195.3646500954
 20
-38.7601908409
 10
-198.8419138833
 20
-43.3733008917
 10
-201.9924809287
 20
-48.0639715815
 10
-204.8111748584
 20
-52.8244961507
 10
-206.6837258573
 20
-56.3939500414
  0
LWPOLYLINE
  5
FB
330
EB
100
AcDbEntity
  8
0
  6
Continuous
 62
     1
370
    25
100
AcDbPolyline
 90
       65
 70
   128
 43
0.0
 10
198.1811909331
 20
-67.3079251878
 10
196.8198318971
 20
-64.5462868334
 10
194.2302301677
 20
-59.8797703489
 10
191.3087893481
 20
-55.2790187712
 10
188.0605006711
 20
-50.7518924072
 10
184.4909137834
 20
-46.3061257764
 10
180.6061272642
 20
-41.9493143965
 10
176.4127782062
 20
-37.6889018067
 10
171.9180308758
 20
-33.5321668503
 10
167.1295644736
 20
-29.4862112395
 10
162.055560014
 20
-25.5579474213
 10
156.7046863485
 20
-21.7540867687
 10
151.0860853551
 20
-18.0811281139
 10
145.2093563192
 20
-14.5453466449
 10
139.0845395339
 20
-11.1527831853
 10
132.7220991459
 20
-7.9092338727
 10
126.1329052779
 20
-4.8202402567
 10
119.328215457
 20
-1.8910798311
 10
112.3196553817
 20
0.8732429827
 10
105.1191990593
 20
3.4680053854
 10
97.7391483486
 20
5.8887742691
 10
90.1921119426
 20
8.1314137907
 10
82.4909838262
 20
10.1920924382
 10
74.6489212477
 20
12.0672895767
 10
66.6793222394
 20
13.7538014634
 10
58.5958027276
 20
15.248746721
 10
50.4121732698
 20
16.5495712606
 10
42.1424154596
 20
17.6540526453
 10
33.8006580395
 20
18.5603038871
 10
25.4011527621
 20
19.2667766711
 10
16.9582500414
 20
19.7722640003
 10
8.4863744349
 20
20.0759022581
 10
0.0
 20
20.1771726837
 10
-8.4863744349
 20
20.0759022581
 10
-16.9582500414
 20
19.7722640003
 10
-25.4011527621
 20
19.2667766711
 10
-33.8006580395
 20
18.5603038871
 10
-42.1424154596
 20
17.6540526453
 10
-50.4121732698
 20
16.5495712606
 10
-58.5958027276
 20
15.248746721
 10
-66.6793222394
 20
13.7538014634
 10
-74.6489212477
 20
12.0672895767
 10
-82.4909838262
 20
10.1920924382
 10
-90.1921119426
 20
8.1314137907
 10
-97.7391483486
 20
5.8887742691
 10
-105.1191990593
 20
3.4680053854
 10
-112.3196553817
 20
0.8732429827
 10
-119.328215457
 20
-1.8910798311
 10
-126.1329052779
 20
-4.8202402567
 10
-132.7220991459
 20
-7.9092338727
 10
-139.0845395339
 20
-11.1527831853
 10
-145.2093563192
 20
-14.5453466449
 10
-151.0860853551
 20
-18.0811281139
 10
-156.7046863485
 20
-21.7540867688
 10
-162.055560014
 20
-25.5579474213
 10
-167.1295644736
 20
-29.4862112395
 10
-171.9180308758
 20
-33.5321668503
 10
-176.4127782062
 20
-37.6889018067
 10
-180.6061272642
 20
-41.9493143965
 10
-184.4909137834
 20
-46.3061257764
 10
-188.0605006711
 20
-50.7518924072
 10
-191.3087893481
 20
-55.2790187712
 10
-194.2302301677
 20
-59.8797703489
 10
-196.8198318971
 20
-64.5462868334
 10
-198.19153968
 20
-67.329935627
  0
VIEWPORT
  5
12A
330
EB
100
AcDbEntity
  8
0
100
AcDbViewport
 10
0.0
 20
0.0
 30
0.0
 40
205.6
 41
156.0
 68
     1
 69
     1
 12
0.0001151303
 22
-54.2833382498
 13
0.0
 23
0.0
 14
10.0
 24
10.0
 15
10.0
 25
10.0
 16
0.0
 26
0.0
 36
1.0
 17
0.0
 27
0.0
 37
0.0
 42
50.0
 43
0.0
 44
0.0
 45
393.3262174508
 50
0.0
 51
0.0
 72
   100
 90
   557152
  1

281
     0
 71
     1
 74
     0
110
0.0
120
0.0
130
0.0
111
1.0
121
0.0
131
0.0
112
0.0
122
1.0
132
0.0
 79
     0
146
0.0
170
     0
 61
     5
348
2F
292
     1
282
     1
141
0.0
142
0.0
 63
   256
361
12B
  0
ENDBLK
  5
EE
330
EB
100
AcDbEntity
  8
0
100
AcDbBlockEnd
  0
BLOCK
  5
FE
330
FC
100
AcDbEntity
  8
0
100
AcDbBlockBegin
  2
*Paper_Space7
 70
     0
 10
0.0
 20
0.0
 30
0.0
  3
*Paper_Space7
  1

  0
SPLINE
  5
100
330
FC
100
AcDbEntity
  8
0
  6
Continuous
 62
     7
370
    25
100
AcDbSpline
210
0.0
220
0.0
230
1.0
 70
     8
 71
     3
 72
    26
 73
    22
 74
     0
 42
0.000000001
 43
0.00000001
 40
0.0
 40
0.0
 40
0.0
 40
0.0
 40
0.0294387853524788
 40
0.0859637884898476
 40
0.1423919258030745
 40
0.198722389773489
 40
0.2549543733361753
 40
0.3110870505594023
 40
0.3671195595066143
 40
0.4230509868590764
 40
0.4788800436572248
 40
0.5346054205834998
 40
0.5902259708189527
 40
0.6457404407314443
 40
0.7011474589387665
 40
0.7564455255161465
 40
0.8116330012931344
 40
0.866708097153761
 40
0.9216688632892399
 40
0.9765131783927806
 40
1.0
 40
1.0
 40
1.0
 40
1.0
 10
-238.2849809834076
 20
14.57192622010353
 30
0.0
 10
-238.6500732615551
 20
13.01801617452303
 30
0.0
 10
-239.7161741553985
 20
8.48046501909519
 30
0.0
 10
-241.1380535172434
 20
0.8889570145785286
 30
0.0
 10
-242.5708607335946
 20
-8.178022356794697
 30
0.0
 10
-243.6674862326381
 20
-17.27713149102787
 30
0.0
 10
-244.4485047328867
 20
-26.39222384062282
 30
0.0
 10
-244.9092731025138
 20
-35.5131333608779
 30
0.0
 10
-245.0523871245476
 20
-44.62820731585514
 30
0.0
 10
-244.879001762443
 20
-53.72629726320172
 30
0.0
 10
-244.3911468131387
 20
-62.79623760886221
 30
0.0
 10
-243.5911072858512
 20
-71.82701362617745
 30
0.0
 10
-242.4815681956538
 20
-80.80774447038533
 30
0.0
 10
-241.0656107152511
 20
-89.72771973461124
 30
0.0
 10
-239.3465415288131
 20
-98.57631777539589
 30
0.0
 10
-237.3285477287988
 20
-107.343294422168
 30
0.0
 10
-235.0142247097106
 20
-116.017757138794
 30
0.0
 10
-232.4137523278635
 20
-124.5920269107288
 30
0.0
 10
-229.5107276322687
 20
-133.047315120616
 30
0.0
 10
-226.9819146492153
 20
-139.8198269548899
 30
0.0
 10
-225.320694127814
 20
-143.7281262941236
 30
0.0
 10
-224.8225934787646
 20
-144.8999914453615
 30
0.0
  0
SPLINE
  5
101
330
FC
100
AcDbEntity
  8
0
  6
Continuous
 62
     7
370
    25
100
AcDbSpline
210
0.0
220
0.0
230
1.0
 70
     8
 71
     3
 72
    25
 73
    21
 74
     0
 42
0.000000001
 43
0.00000001
 40
0.0
 40
0.0
 40
0.0
 40
0.0
 40
0.0553626709432025
 40
0.1122971761407248
 40
0.1691389117891565
 40
0.2258867689009609
 40
0.2825397613268597
 40
0.3390969901271225
 40
0.3955576129555686
 40
0.4519208176215661
 40
0.5081857991157371
 40
0.5643517394890687
 40
0.6204177900648213
 40
0.6763830555387971
 40
0.7322464502568854
 40
0.7880065092209979
 40
0.8436621173083867
 40
0.8992120562540312
 40
0.9546549935334192
 40
1.0
 40
1.0
 40
1.0
 40
1.0
 10
224.8531108374425
 20
-144.9113172407755
 30
0.0
 10
225.9823600950867
 20
-142.1302483972802
 30
0.0
 10
228.2729197922977
 20
-136.4891517439435
 30
0.0
 10
231.3374876494996
 20
-127.8437016164747
 30
0.0
 10
234.1403903794023
 20
-119.0324233995211
 30
0.0
 10
236.6199501779283
 20
-110.1397295926175
 30
0.0
 10
238.7826784942951
 20
-101.1806635179472
 30
0.0
 10
240.6254542900518
 20
-92.16603402313359
 30
0.0
 10
242.1482610702024
 20
-83.10771991355891
 30
0.0
 10
243.3507742733895
 20
-74.01724122332487
 30
0.0
 10
244.2332678320648
 20
-64.90612931652068
 30
0.0
 10
244.7963588104935
 20
-55.78581775547682
 30
0.0
 10
245.0410925186465
 20
-46.66765427425195
 30
0.0
 10
244.9688265527244
 20
-37.56291232272558
 30
0.0
 10
244.5815812953888
 20
-28.48272047922169
 30
0.0
 10
243.8807386512625
 20
-19.43832362491737
 30
0.0
 10
242.8718662333239
 20
-10.43996681125352
 30
0.0
 10
241.5467328386467
 20
-1.500960538696555
 30
0.0
 10
240.0460825210569
 20
6.844296021159741
 30
0.0
 10
238.8435942027451
 20
12.17526193655702
 30
0.0
 10
238.3025886167271
 20
14.57369050769729
 30
0.0
  0
SPLINE
  5
102
330
FC
100
AcDbEntity
  8
0
  6
Continuous
 62
     7
370
    25
100
AcDbSpline
210
0.0
220
0.0
230
1.0
 70
     8
 71
     3
 72
    63
 73
    59
 74
     0
 42
0.000000001
 43
0.00000001
 40
0.0
 40
0.0
 40
0.0
 40
0.0
 40
0.008209505617113
 40
0.0298630795867319
 40
0.0511116583648309
 40
0.0717564864069679
 40
0.091764449357798
 40
0.1111998846802155
 40
0.1301611915834914
 40
0.1487472594604274
 40
0.1670448360007111
 40
0.1851257522370229
 40
0.203047876020055
 40
0.2208571463509471
 40
0.2385896890800338
 40
0.2562736907926809
 40
0.2739309633680913
 40
0.2915782192714708
 40
0.3092258085771664
 40
0.3268825633350936
 40
0.3445561105503803
 40
0.3622518722195299
 40
0.3799735310689124
 40
0.397723405204278
 40
0.4155027486088801
 40
0.4333119917803542
 40
0.451150933930035
 40
0.4690188959428019
 40
0.4869148415461961
 40
0.5048374727451757
 40
0.5227853044581598
 40
0.540756722380088
 40
0.5587500273546949
 40
0.5767634689285162
 40
0.5947952702583825
 40
0.6128436461329739
 40
0.6309068155318215
 40
0.6489830098695335
 40
0.6670704778484836
 40
0.6851674876611101
 40
0.7032723271363924
 40
0.7213833023078916
 40
0.7394987347882209
 40
0.7576169582631893
 40
0.7757363143645899
 40
0.7938548948050358
 40
0.8119707448565465
 40
0.8300822000187786
 40
0.8481875838284626
 40
0.8662852037307965
 40
0.8843733476313091
 40
0.9024502813563658
 40
0.9205142473444795
 40
0.9385634649651887
 40
0.9565961329582521
 40
0.9746104346070747
 40
0.9926045464117563
 40
1.0
 40
1.0
 40
1.0
 40
1.0
 10
218.8910034801398
 20
-21.91517828689303
 30
0.0
 10
218.876674562879
 20
-22.36887353273064
 30
0.0
 10
218.8245513758681
 20
-24.01924541460476
 30
0.0
 10
218.4097260297857
 20
-26.86441154180552
 30
0.0
 10
217.6506366007025
 20
-30.4447669660418
 30
0.0
 10
216.5747540207257
 20
-33.99190019392204
 30
0.0
 10
215.2204610580769
 20
-37.49739468016129
 30
0.0
 10
213.5910818422695
 20
-40.9645605500458
 30
0.0
 10
211.6930894047715
 20
-44.40030075413536
 30
0.0
 10
209.5274178583563
 20
-47.81111925833492
 30
0.0
 10
207.0935821668244
 20
-51.20116629741455
 30
0.0
 10
204.3901810084377
 20
-54.57193762167855
 30
0.0
 10
201.4158228507576
 20
-57.92255317861726
 30
0.0
 10
198.1695404966615
 20
-61.25021492311115
 30
0.0
 10
194.6510705579962
 20
-64.55065599844595
 30
0.0
 10
190.8609963372164
 20
-67.81852918811731
 30
0.0
 10
186.8008171981908
 20
-71.04772491342911
 30
0.0
 10
182.4731545158863
 20
-74.231487795455
 30
0.0
 10
177.8816523073292
 20
-77.36273194398501
 30
0.0
 10
173.0308293788331
 20
-80.43428694073064
 30
0.0
 10
167.9257871921817
 20
-83.43913543610705
 30
0.0
 10
162.5722808183563
 20
-86.37038689122309
 30
0.0
 10
156.9768028007572
 20
-89.22126319578133
 30
0.0
 10
151.1465282036399
 20
-91.98515934023926
 30
0.0
 10
145.0892598098449
 20
-94.65568946297051
 30
0.0
 10
138.8133749020835
 20
-97.22672124492865
 30
0.0
 10
132.3277744831007
 20
-99.69240110659516
 30
0.0
 10
125.6418354401782
 20
-102.0471721917373
 30
0.0
 10
118.7653658973146
 20
-104.2857867447181
 30
0.0
 10
111.7085638082113
 20
-106.4033141794009
 30
0.0
 10
104.4819787088246
 20
-108.3951458843826
 30
0.0
 10
97.09647645801684
 20
-110.256997600716
 30
0.0
 10
89.56320673871055
 20
-111.9849100367064
 30
0.0
 10
81.89357306169435
 20
-113.5752482437054
 30
0.0
 10
74.09920500297726
 20
-115.0247001621821
 30
0.0
 10
66.19193240782144
 20
-116.3302746546108
 30
0.0
 10
58.18376130580678
 20
-117.4892992673779
 30
0.0
 10
50.08685129809368
 20
-118.4994179049534
 30
0.0
 10
41.91349419776541
 20
-119.3585885533711
 30
0.0
 10
33.67609372485909
 20
-120.0650811543804
 30
0.0
 10
25.38714607786626
 20
-120.6174757045373
 30
0.0
 10
17.05922122267962
 20
-121.0146606332817
 30
0.0
 10
8.704944755380264
 20
-121.2558314996288
 30
0.0
 10
0.3369802144105594
 20
-121.3404900360863
 30
0.0
 10
-8.03194928440805
 20
-121.268443900127
 30
0.0
 10
-16.38907150958214
 20
-121.0398106752341
 30
0.0
 10
-24.72162906439096
 20
-120.6550206948445
 30
0.0
 10
-33.01693602995127
 20
-120.1148139180394
 30
0.0
 10
-41.26240183407543
 20
-119.4202364885187
 30
0.0
 10
-49.44550146740234
 20
-118.5726422983994
 30
0.0
 10
-57.55379841619717
 20
-117.5736991567556
 30
0.0
 10
-65.57494342748998
 20
-116.4253751771539
 30
0.0
 10
-73.49676581375097
 20
-115.1300009688671
 30
0.0
 10
-81.3070228639285
 20
-113.69005123817
 30
0.0
 10
-88.99442754204861
 20
-112.1089741855837
 30
0.0
 10
-96.54491694322023
 20
-110.3881176116043
 30
0.0
 10
-102.5036398957637
 20
-108.900663999881
 30
0.0
 10
-105.9312952623097
 20
-107.9793823232218
 30
0.0
 10
-106.9297001498093
 20
-107.7110320865797
 30
0.0
  0
SPLINE
  5
103
330
FC
100
AcDbEntity
  8
0
  6
Continuous
 62
     7
370
    25
100
AcDbSpline
210
0.0
220
0.0
230
1.0
 70
     8
 71
     3
 72
    36
 73
    32
 74
     0
 42
0.000000001
 43
0.00000001
 40
0.0
 40
0.0
 40
0.0
 40
0.0
 40
0.0182483002045159
 40
0.0529805121613704
 40
0.0876665769106695
 40
0.1223002139562565
 40
0.1568784545559668
 40
0.1913986926108371
 40
0.2258588304239281
 40
0.260257465539725
 40
0.294594127278432
 40
0.3288695741539457
 40
0.3630861656203435
 40
0.3972483242633493
 40
0.4313631077208496
 40
0.4654409133706662
 40
0.4994963432493621
 40
0.5335473128915126
 40
0.5676127236365748
 40
0.601724231278734
 40
0.6359227828963786
 40
0.6702607040498623
 40
0.7048041381763466
 40
0.7396358061585314
 40
0.7748579093306294
 40
0.8105946643555307
 40
0.8469932024353518
 40
0.8842199384361149
 40
0.9224462942397894
 40
0.9618124258326942
 40
0.9999999999999999
 40
0.9999999999999999
 40
0.9999999999999999
 40
0.9999999999999999
 10
-106.9297001498093
 20
-107.7110320865797
 30
0.0
 10
-108.1951616631032
 20
-107.3623111219112
 30
0.0
 10
-111.8691914819586
 20
-106.3498652994248
 30
0.0
 10
-117.828775556067
 20
-104.5756178684526
 30
0.0
 10
-124.7408290190958
 20
-102.351272866685
 30
0.0
 10
-131.4616284984474
 20
-100.0078193348569
 30
0.0
 10
-137.9834319775448
 20
-97.55286535021763
 30
0.0
 10
-144.2958504219247
 20
-94.99143240295393
 30
0.0
 10
-150.3897936938758
 20
-92.32965538333363
 30
0.0
 10
-156.2564187877405
 20
-89.57380517662229
 30
0.0
 10
-161.8874739687698
 20
-86.73053843379152
 30
0.0
 10
-167.2752755602324
 20
-83.80681175385891
 30
0.0
 10
-172.4127885872776
 20
-80.80987549529681
 30
0.0
 10
-177.2936849243716
 20
-77.74723314870296
 30
0.0
 10
-181.9124117606522
 20
-74.62659289052877
 30
0.0
 10
-186.2642599140047
 20
-71.45579941246673
 30
0.0
 10
-190.3453542174651
 20
-68.24280456636852
 30
0.0
 10
-194.1525387517832
 20
-64.99572820599148
 30
0.0
 10
-197.6837051974398
 20
-61.72256113818616
 30
0.0
 10
-200.937909600887
 20
-58.43091302004058
 30
0.0
 10
-203.9155205843456
 20
-55.12759084819596
 30
0.0
 10
-206.6180069148593
 20
-51.81844565183805
 30
0.0
 10
-209.0478515485997
 20
-48.5079741115814
 30
0.0
 10
-211.2083899454545
 20
-45.19882933114035
 30
0.0
 10
-213.1034407040564
 20
-41.89124434478219
 30
0.0
 10
-214.7370006581531
 20
-38.58237584872482
 30
0.0
 10
-216.1116572899702
 20
-35.26572481195232
 30
0.0
 10
-217.230511526966
 20
-31.9306088765051
 30
0.0
 10
-218.0838272935919
 20
-28.56319484926248
 30
0.0
 10
-218.681350902746
 20
-25.21423640930649
 30
0.0
 10
-218.8415878954875
 20
-22.99552113169741
 30
0.0
 10
-218.9204888581775
 20
-21.90302202557087
 30
0.0
  0
LWPOLYLINE
  5
104
330
FC
100
AcDbEntity
  8
0
  6
Continuous
 62
     7
370
    25
100
AcDbPolyline
 90
      165
 70
   128
 43
0.0
 10
-112.0068933432
 20
-109.322161633
 10
-103.794548934
 20
-111.4515399638
 10
-95.4298717111
 20
-113.4173477907
 10
-86.9251379918
 20
-115.2167000196
 10
-78.2928296457
 20
-116.8469558531
 10
-69.5456157757
 20
-118.3057226658
 10
-60.6963341242
 20
-119.5908595164
 10
-51.7579722326
 20
-120.7004802892
 10
-42.7436483793
 20
-121.6329564628
 10
-33.6665923277
 20
-122.3869194998
 10
-24.5401259094
 20
-122.9612628555
 10
-15.3776434722
 20
-123.3551436018
 10
-6.1925922226
 20
-123.5679836643
 10
3.0015475099
 20
-123.5994706711
 10
12.1912820576
 20
-123.4495584104
 10
21.3631242177
 20
-123.1184668993
 10
30.5036130471
 20
-122.6066820602
 10
39.5993336179
 20
-121.9149550079
 10
48.636936706
 20
-121.0443009472
 10
57.6031583825
 20
-119.9959976831
 10
66.4848394807
 20
-118.7715837451
 10
75.2689449087
 20
-117.3728561296
 10
83.9425827807
 20
-115.8018676622
 10
92.4930233369
 20
-114.0609239851
 10
100.9077176267
 20
-112.1525801732
 10
109.1743159259
 20
-110.0796369843
 10
117.2806858615
 20
-107.8451367483
 10
125.2149302178
 20
-105.4523589024
 10
132.9654043971
 20
-102.9048151781
 10
140.5207335096
 20
-100.2062444472
 10
147.8698290682
 20
-97.3606072343
 10
155.0019052616
 20
-94.3720799043
 10
161.9064947846
 20
-91.2450485334
 10
168.5734641998
 20
-87.9841024712
 10
174.9930288102
 20
-84.5940276057
 10
181.1557670197
 20
-81.0797993394
 10
187.0526341599
 20
-77.4465752867
 10
192.6749757653
 20
-73.6996877051
 10
198.0145402741
 20
-69.8446356687
 10
203.0634911393
 20
-65.8870769979
 10
207.814418329
 20
-61.832819956
 10
212.2603492026
 20
-57.6878147241
 10
216.3947587433
 20
-53.4581446691
 10
220.2115791352
 20
-49.150017415
 10
223.7052086678
 20
-44.7697557326
 10
226.8705199581
 20
-40.32378826
 10
229.7028674753
 20
-35.8186400675
 10
232.1980943588
 20
-31.2609230814
 10
234.3525385192
 20
-26.6573263799
 10
236.1630380124
 20
-22.0146063759
 10
237.6269356808
 20
-17.3395769012
 10
238.7420830527
 20
-12.6390992064
 10
239.5068434956
 20
-7.9200718906
 10
239.9200946181
 20
-3.1894207771
 10
239.9812299171
 20
1.5459112513
 10
239.6901596683
 20
6.2789744416
 10
239.0473110572
 20
11.0028223712
 10
238.0536275529
 20
15.7105221416
 10
236.7105675229
 20
20.3951645543
 10
235.0201020931
 20
25.0498742506
 10
232.9847122546
 20
29.667819802
 10
230.6073852227
 20
34.2422237368
 10
227.8916100525
 20
38.7663724863
 10
224.8413725187
 20
43.2336262384
 10
221.4611492655
 20
47.6374286821
 10
217.7559012366
 20
51.97131663
 10
213.7310663944
 20
56.2289295041
 10
209.3925517392
 20
60.4040186702
 10
204.7467246394
 20
64.4904566094
 10
199.8004034869
 20
68.4822459103
 10
194.5608476902
 20
72.3735280718
 10
189.0357470198
 20
76.1585921006
 10
183.233210323
 20
79.8318828933
 10
177.1617536224
 20
83.3880093893
 10
170.8302876181
 20
86.8217524824
 10
164.2481046095
 20
90.1280726811
 10
157.4248648579
 20
93.3021175047
 10
150.3705824084
 20
96.3392286046
 10
143.0956103934
 20
99.2349486015
 10
135.6106258374
 20
101.985027627
 10
127.9266139876
 20
104.5854295609
 10
120.0548521909
 20
107.0323379547
 10
112.0068933432
 20
109.322161633
 10
103.794548934
 20
111.4515399638
 10
95.4298717111
 20
113.4173477907
 10
86.9251379918
 20
115.2167000196
 10
78.2928296457
 20
116.8469558531
 10
69.5456157757
 20
118.3057226658
 10
60.6963341242
 20
119.5908595164
 10
51.7579722326
 20
120.7004802892
 10
42.7436483793
 20
121.6329564628
 10
33.6665923277
 20
122.3869194998
 10
24.5401259094
 20
122.9612628555
 10
15.3776434722
 20
123.3551436018
 10
6.1925922226
 20
123.5679836643
 10
-3.0015475099
 20
123.5994706711
 10
-12.1912820576
 20
123.4495584104
 10
-21.3631242177
 20
123.1184668993
 10
-30.5036130471
 20
122.6066820602
 10
-39.5993336179
 20
121.9149550079
 10
-48.636936706
 20
121.0443009472
 10
-57.6031583825
 20
119.9959976831
 10
-66.4848394807
 20
118.7715837451
 10
-75.2689449087
 20
117.3728561296
 10
-83.9425827807
 20
115.8018676622
 10
-92.4930233369
 20
114.0609239851
 10
-100.9077176267
 20
112.1525801732
 10
-109.1743159259
 20
110.0796369843
 10
-117.2806858615
 20
107.8451367483
 10
-125.2149302178
 20
105.4523589024
 10
-132.9654043971
 20
102.9048151781
 10
-140.5207335096
 20
100.2062444472
 10
-147.8698290682
 20
97.3606072343
 10
-155.0019052616
 20
94.3720799043
 10
-161.9064947846
 20
91.2450485334
 10
-168.5734641998
 20
87.9841024712
 10
-174.9930288102
 20
84.5940276057
 10
-181.1557670197
 20
81.0797993394
 10
-187.0526341599
 20
77.4465752867
 10
-192.6749757653
 20
73.6996877051
 10
-198.0145402741
 20
69.8446356687
 10
-203.0634911393
 20
65.8870769979
 10
-207.814418329
 20
61.832819956
 10
-212.2603492026
 20
57.6878147241
 10
-216.3947587433
 20
53.4581446691
 10
-220.2115791352
 20
49.150017415
 10
-223.7052086678
 20
44.7697557326
 10
-226.8705199581
 20
40.32378826
 10
-229.7028674753
 20
35.8186400675
 10
-232.1980943588
 20
31.2609230814
 10
-234.3525385192
 20
26.6573263799
 10
-236.1630380124
 20
22.0146063759
 10
-237.6269356808
 20
17.3395769012
 10
-238.7420830527
 20
12.6390992064
 10
-239.5068434956
 20
7.9200718906
 10
-239.9200946181
 20
3.1894207771
 10
-239.9812299171
 20
-1.5459112513
 10
-239.6901596683
 20
-6.2789744416
 10
-239.0473110572
 20
-11.0028223712
 10
-238.0536275529
 20
-15.7105221416
 10
-236.7105675229
 20
-20.3951645543
 10
-235.0201020931
 20
-25.0498742506
 10
-232.9847122546
 20
-29.667819802
 10
-230.6073852227
 20
-34.2422237368
 10
-227.8916100525
 20
-38.7663724863
 10
-224.8413725187
 20
-43.2336262384
 10
-221.4611492655
 20
-47.6374286821
 10
-217.7559012366
 20
-51.97131663
 10
-213.7310663944
 20
-56.2289295041
 10
-209.3925517392
 20
-60.4040186702
 10
-204.7467246394
 20
-64.4904566094
 10
-199.8004034869
 20
-68.4822459103
 10
-194.5608476902
 20
-72.3735280718
 10
-189.0357470198
 20
-76.1585921006
 10
-183.233210323
 20
-79.8318828933
 10
-177.1617536224
 20
-83.3880093893
 10
-170.8302876181
 20
-86.8217524824
 10
-164.2481046095
 20
-90.1280726811
 10
-157.4248648579
 20
-93.3021175047
 10
-150.3705824084
 20
-96.3392286046
 10
-143.0956103934
 20
-99.2349486015
 10
-135.6106258374
 20
-101.985027627
 10
-127.9266139876
 20
-104.5854295609
 10
-120.0548521909
 20
-107.0323379547
 10
-112.0068933432
 20
-109.322161633
  0
LWPOLYLINE
  5
105
330
FC
100
AcDbEntity
  8
0
  6
Continuous
 62
     7
370
    25
100
AcDbPolyline
 90
       49
 70
   128
 43
0.0
 10
-107.3399394539
 20
-224.7704936633
 10
-99.3217053911
 20
-226.8476937857
 10
-91.1522207543
 20
-228.7621877064
 10
-82.843926321
 20
-230.5110599671
 10
-74.409474253
 20
-232.0916473236
 10
-65.8617088298
 20
-233.5015428022
 10
-57.2136468879
 20
-234.7385993647
 10
-48.4784579993
 20
-235.8009331779
 10
-39.6694444158
 20
-236.6869264827
 10
-30.800020812
 20
-237.3952300574
 10
-21.8836938569
 20
-237.9247652725
 10
-12.9340416459
 20
-238.2747257332
 10
-3.9646930229
 20
-238.4445785076
 10
5.0106931736
 20
-238.4340649377
 10
13.9784489109
 20
-238.2432010341
 10
22.9249177762
 20
-237.872277451
 10
31.8364757733
 20
-237.3218590438
 10
40.6995520693
 20
-236.5927840089
 10
49.5006496609
 20
-235.6861626075
 10
58.2263659282
 20
-234.6033754742
 10
66.8634130448
 20
-233.3460715154
 10
75.3986382125
 20
-231.9161653976
 10
83.8190436913
 20
-230.3158346319
 10
92.1118065927
 20
-228.547516258
 10
100.2642984065
 20
-226.6139031333
 10
108.2641042327
 20
-224.5179398315
 10
116.0990416863
 20
-222.2628181589
 10
123.7571794502
 20
-219.851972294
 10
131.2268554437
 20
-217.2890735573
 10
138.4966945824
 20
-214.5780248209
 10
145.5556261005
 20
-211.7229545647
 10
152.3929004096
 20
-208.7282105898
 10
158.9981054688
 20
-205.5983533973
 10
165.3611826404
 20
-202.3381492434
 10
171.4724420073
 20
-198.9525628813
 10
177.3225771296
 20
-195.4467500006
 10
182.9026792166
 20
-191.826049376
 10
188.2042506932
 20
-188.0959747372
 10
193.2192181405
 20
-184.2622063728
 10
197.9399445903
 20
-180.3305824794
 10
202.359241155
 20
-176.3070902719
 10
206.4703779749
 20
-172.1978568651
 10
210.2670944666
 20
-168.0091399436
 10
213.7436088573
 20
-163.7473182325
 10
216.8946269891
 20
-159.4188817832
 10
219.7153503809
 20
-155.0304220905
 10
222.2014835365
 20
-150.5886220545
 10
224.3492404851
 20
-146.100245804
 10
224.8733403388
 20
-144.8749131274
  0
LWPOLYLINE
  5
106
330
FC
100
AcDbEntity
  8
0
  6
Continuous
 62
     7
370
    25
100
AcDbPolyline
 90
       24
 70
   128
 43
0.0
 10
-224.8732464768
 20
-144.8751382414
 10
-224.1164392357
 20
-146.6255686316
 10
-221.9290643468
 20
-151.108866804
 10
-219.4037281004
 20
-155.544796515
 10
-216.5442761671
 20
-159.9266025754
 10
-213.3550630204
 20
-164.2476122173
 10
-209.840945306
 20
-168.5012452558
 10
-206.0072744453
 20
-172.6810241094
 10
-201.8598884869
 20
-176.7805836644
 10
-197.4051032154
 20
-180.7936809678
 10
-192.6497025339
 20
-184.7142047344
 10
-187.6009281333
 20
-188.5361846531
 10
-182.2664684642
 20
-192.253800479
 10
-176.6544470286
 20
-195.8613908965
 10
-170.7734100097
 20
-199.3534621404
 10
-164.6323132566
 20
-202.7246963621
 10
-158.2405086467
 20
-205.9699597282
 10
-151.6077298442
 20
-209.0843102377
 10
-144.744077477
 20
-212.0630052486
 10
-137.6600037555
 20
-214.9015086997
 10
-130.3662965555
 20
-217.5954980185
 10
-122.87406299
 20
-220.1408707036
 10
-115.1947124948
 20
-222.5337505723
 10
-107.3399394539
 20
-224.7704936633
  0
LWPOLYLINE
  5
107
330
FC
100
AcDbEntity
  8
0
  6
Continuous
 62
     7
370
    25
100
AcDbPolyline
 90
       48
 70
   128
 43
0.0
 10
21.8823200977
 20
-120.7864895821
 10
22.6497313697
 20
-120.4146633768
 10
24.9619511815
 20
-119.129528758
 10
27.0006826326
 20
-117.726953255
 10
28.7435889545
 20
-116.2223037787
 10
30.1715745008
 20
-114.6320655834
 10
31.2689939631
 20
-112.9736616518
 10
32.0238237841
 20
-111.2652618043
 10
32.4277938903
 20
-109.5255836271
 10
32.4764783007
 20
-107.7736873984
 10
32.1693436186
 20
-106.0287672598
 10
31.509754876
 20
-104.3099409217
 10
30.5049386652
 20
-102.636040205
 10
29.1659039627
 20
-101.0254047162
 10
27.5073215131
 20
-99.4956809148
 10
25.5473630928
 20
-98.063628775
 10
23.3075024162
 20
-96.7449381596
 10
20.8122798658
 20
-95.5540569189
 10
18.0890336219
 20
-94.5040325971
 10
15.1676001402
 20
-93.6063694803
 10
12.0799872574
 20
-92.8709025535
 10
8.8600235063
 20
-92.3056897463
 10
5.5429874836
 20
-91.9169236484
 10
2.1652213301
 20
-91.7088636626
 10
-1.2362674414
 20
-91.6837893376
 10
-4.6242114081
 20
-91.841975393
 10
-7.9614915469
 20
-92.1816887092
 10
-11.2115439184
 20
-92.6992073161
 10
-14.3387602684
 20
-93.3888611715
 10
-17.3088781604
 20
-94.2430942834
 10
-20.0893563612
 20
-95.2525474951
 10
-22.6497313697
 20
-96.406161026
 10
-24.9619511815
 20
-97.6912956449
 10
-27.0006826326
 20
-99.0938711479
 10
-28.7435889545
 20
-100.5985206242
 10
-30.1715745008
 20
-102.1887588194
 10
-31.2689939631
 20
-103.8471627511
 10
-32.0238237841
 20
-105.5555625986
 10
-32.4277938903
 20
-107.2952407758
 10
-32.4764783007
 20
-109.0471370045
 10
-32.1693436186
 20
-110.792057143
 10
-31.509754876
 20
-112.5108834812
 10
-30.5049386652
 20
-114.1847841979
 10
-29.1659039627
 20
-115.7954196867
 10
-27.5073215131
 20
-117.325143488
 10
-25.5473630928
 20
-118.7571956279
 10
-23.3075024162
 20
-120.0758862433
 10
-21.9226513686
 20
-120.7675415744
  0
LWPOLYLINE
  5
108
330
FC
100
AcDbEntity
  8
0
  6
Continuous
 62
     7
370
    25
100
AcDbPolyline
 90
       33
 70
   128
 43
0.0
 10
21.2399408963
 20
-120.8056978623
 10
21.5145594163
 20
-120.374060949
 10
22.1703395428
 20
-118.9585195489
 10
22.4764801709
 20
-117.5118085985
 10
22.4281532798
 20
-116.0567435939
 10
22.0261210135
 20
-114.6162717793
 10
21.2767236611
 20
-113.2131102557
 10
20.1917796665
 20
-111.8693877187
 10
18.7883992446
 20
-110.6062954752
 10
17.0887145429
 20
-109.4437532445
 10
15.1195306046
 20
-108.4000950121
 10
12.9119026366
 20
-107.4917798917
 10
10.5006462509
 20
-106.7331325554
 10
7.9237884011
 20
-106.1361173248
 10
5.2219676747
 20
-105.7101494869
 10
2.4377933986
 20
-105.4619468088
 10
-0.3848263356
 20
-105.395423595
 10
-3.2013771287
 20
-105.5116289565
 10
-5.967440292
 20
-105.8087302651
 10
-8.6393933571
 20
-106.2820420559
 10
-11.1750980281
 20
-106.924099919
 10
-13.5345647275
 20
-107.7247782185
 10
-15.6805832559
 20
-108.6714497793
 10
-17.5793096193
 20
-109.7491850254
 10
-19.2007997687
 20
-110.9409874281
 10
-20.5194818356
 20
-112.2280615515
 10
-21.5145594163
 20
-113.5901094679
 10
-22.1703395428
 20
-115.005650868
 10
-22.4764801709
 20
-116.4523618184
 10
-22.4281532798
 20
-117.907426823
 10
-22.0261210135
 20
-119.3478986376
 10
-21.2767236611
 20
-120.7510601612
 10
-21.2343094743
 20
-120.8139858319
  0
LWPOLYLINE
  5
10A
330
FC
100
AcDbEntity
  8
0
  6
Continuous
 62
     1
370
    25
100
AcDbPolyline
 90
       82
 70
   128
 43
0.0
 10
218.9279611162
 20
-21.9145008545
 10
218.9827227969
 20
-20.5847943
 10
218.9415493136
 20
-16.0709503249
 10
218.5497607001
 20
-11.561569047
 10
217.8079843705
 20
-7.0638718331
 10
216.7174082125
 20
-2.5850613396
 10
215.2797786856
 20
1.8676900229
 10
213.4973980236
 20
6.2872515749
 10
211.3731205484
 20
10.6665457875
 10
208.9103480984
 20
14.9985596163
 10
206.1130245816
 20
19.2763557321
 10
202.9856296591
 20
23.4930836306
 10
199.5331715716
 20
27.6419906026
 10
195.761179119
 20
31.7164325481
 10
191.6756928069
 20
35.709884616
 10
187.2832551728
 20
39.6159516532
 10
182.5909003092
 20
43.4283784461
 10
177.6061425989
 20
47.1410597371
 10
172.3369646814
 20
50.7480500023
 10
166.7918046695
 20
54.2435729723
 10
160.9795426366
 20
57.6220308826
 10
154.9094863958
 20
60.8780134378
 10
148.5913565941
 20
64.0063064756
 10
142.0352711462
 20
67.0019003172
 10
135.2517290312
 20
69.8599977893
 10
128.2515934797
 20
72.5760219068
 10
121.0460745767
 20
75.1456232023
 10
113.6467113106
 20
77.5646866912
 10
106.0653530938
 20
79.8293384616
 10
98.3141407871
 20
81.9359518782
 10
90.4054872574
 20
83.8811533897
 10
82.3520574997
 20
85.6618279314
 10
74.1667483547
 20
87.2751239138
 10
65.8626678563
 20
88.7184577889
 10
57.4531142399
 20
89.9895181879
 10
48.9515546466
 20
91.0862696222
 10
40.3716035567
 20
92.0069557435
 10
31.7270009875
 20
92.7501021559
 10
23.0315904899
 20
93.3145187776
 10
14.2992969788
 20
93.6993017463
 10
5.5441044343
 20
93.9038348668
 10
-3.2199664931
 20
93.9277905977
 10
-11.9788809348
 20
93.7711305762
 10
-20.7186122799
 20
93.4341056791
 10
-29.4251646374
 20
92.9172556214
 10
-38.0845952495
 20
92.2214080917
 10
-46.6830368198
 20
91.3476774272
 10
-55.2067197201
 20
90.2974628285
 10
-63.6419940415
 20
89.0724461197
 10
-71.9753514536
 20
87.6745890543
 10
-80.1934468366
 20
86.1061301743
 10
-88.2831196525
 20
84.3695812251
 10
-96.2314150205
 20
82.467723133
 10
-104.0256044629
 20
80.4036015521
 10
-111.6532062888
 20
78.1805219869
 10
-119.1020055823
 20
75.8020444986
 10
-126.3600737636
 20
73.2719780042
 10
-133.4157876917
 20
70.5943741768
 10
-140.2578482775
 20
67.7735209574
 10
-146.8752985785
 20
64.8139356878
 10
-153.2575413454
 20
61.7203578765
 10
-159.3943559924
 20
58.4977416094
 10
-165.2759149647
 20
55.1512476155
 10
-170.8927994765
 20
51.6862350028
 10
-176.2360145942
 20
48.1082526763
 10
-181.2970036411
 20
44.4230304518
 10
-186.0676618999
 20
40.63646988
 10
-190.5403495922
 20
36.754634796
 10
-194.7079041121
 20
32.7837416083
 10
-198.5636514974
 20
28.7301493439
 10
-202.1014171165
 20
24.6003494649
 10
-205.3155355572
 20
20.4009554731
 10
-208.2008596989
 20
16.1386923191
 10
-210.7527689554
 20
11.8203856324
 10
-212.9671766742
 20
7.4529507915
 10
-214.8405366815
 20
3.0433818492
 10
-216.36984896
 20
-1.401259668
 10
-217.5526644544
 20
-5.8738560677
 10
-218.3870889923
 20
-10.3672448906
 10
-218.8717863181
 20
-14.8742303799
 10
-219.0059802328
 20
-19.3875950053
 10
-218.9288234649
 20
-21.8980737028
  0
LWPOLYLINE
  5
10B
330
FC
100
AcDbEntity
  8
0
  6
Continuous
 62
     1
370
    25
100
AcDbPolyline
 90
       62
 70
   128
 43
0.0
 10
202.0562152793
 20
-57.2454454603
 10
199.9918271439
 20
-54.4403651442
 10
196.6292804522
 20
-50.299483577
 10
192.943672369
 20
-46.2321875392
 10
188.9410583387
 20
-42.2451595876
 10
184.6280146456
 20
-38.3449503986
 10
180.0116276093
 20
-34.5379680056
 10
175.0994819415
 20
-30.8304672708
 10
169.8996482847
 20
-27.2285396081
 10
164.4206699518
 20
-23.7381029752
 10
158.67154889
 20
-20.3648921504
 10
152.6617308899
 20
-17.1144493101
 10
146.4010900669
 20
-13.9921149234
 10
139.8999126373
 20
-11.0030189775
 10
133.1688800185
 20
-8.1520725492
 10
126.2190512796
 20
-5.443959736
 10
119.0618449709
 20
-2.8831299601
 10
111.7090203635
 20
-0.4737906581
 10
104.1726581289
 20
1.7800996317
 10
96.4651404906
 20
3.8748377737
 10
88.5991308798
 20
5.8069821185
 10
80.5875531296
 20
7.573358158
 10
72.4435702411
 20
9.1710637411
 10
64.180562757
 20
10.5974738417
 10
55.8121067769
 20
11.8502448717
 10
47.3519516518
 20
12.9273185315
 10
38.8139973945
 20
13.8269251921
 10
30.2122718414
 20
14.5475868021
 10
21.560907605
 20
15.0881193162
 10
12.874118854
 20
15.447634641
 10
4.1661779595
 20
15.6255420938
 10
-4.5486079544
 20
15.6215493731
 10
-13.2559205174
 20
15.4356630389
 10
-21.9414536377
 20
15.0681885019
 10
-30.5909370074
 20
14.519729522
 10
-39.1901595479
 20
13.7911872157
 10
-47.7249927591
 20
12.8837585761
 10
-56.1814139326
 20
11.7989345061
 10
-64.5455291905
 20
10.5384973688
 10
-72.8035963134
 20
9.1045180591
 10
-80.9420473188
 20
7.4993526013
 10
-88.9475107529
 20
5.725638278
 10
-96.8068336604
 20
3.7862892971
 10
-104.5071031944
 20
1.6844920039
 10
-112.0356678323
 20
-0.576300354
 10
-119.3801581621
 20
-2.9923733009
 10
-126.5285072055
 20
-5.5597572352
 10
-133.4689702439
 20
-8.2742339518
 10
-140.1901441145
 20
-11.1313435727
 10
-146.6809859465
 20
-14.1263918741
 10
-152.9308313037
 20
-17.2544579997
 10
-158.9294117067
 20
-20.510402545
 10
-164.6668715036
 20
-23.8888760017
 10
-170.1337840629
 20
-27.3843275467
 10
-175.3211672618
 20
-30.9910141623
 10
-180.2204982432
 20
-34.703010072
 10
-184.8237274192
 20
-38.514216476
 10
-189.1232916964
 20
-42.4183715725
 10
-193.1121269019
 20
-46.4090608447
 10
-196.78367939
 20
-50.4797276006
 10
-200.1319168096
 20
-54.6236837456
 10
-202.0325896358
 20
-57.2119990139
  0
LWPOLYLINE
  5
10C
330
FC
100
AcDbEntity
  8
0
  6
Continuous
 62
     1
370
    25
100
AcDbPolyline
 90
       61
 70
   128
 43
0.0
 10
192.500451784
 20
-66.4319573352
 10
190.5151841743
 20
-63.7888784626
 10
187.1848097766
 20
-59.7676898343
 10
183.5346332713
 20
-55.8208197456
 10
179.5708909238
 20
-51.9550113576
 10
175.3003547214
 20
-48.1768693393
 10
170.7303208036
 20
-44.4928485828
 10
165.8685969966
 20
-40.9092431759
 10
160.723489474
 20
-37.4321756481
 10
155.3037885657
 20
-34.0675865112
 10
149.6187537398
 20
-30.8212241092
 10
143.6780977829
 20
-27.6986347978
 10
137.4919702061
 20
-24.7051534684
 10
131.0709399046
 20
-21.8458944337
 10
124.4259771009
 20
-19.1257426898
 10
117.5684346026
 20
-16.5493455704
 10
110.5100284058
 20
-14.1211048066
 10
103.2628176794
 20
-11.8451690071
 10
95.8391841611
 20
-9.72542657
 10
88.2518110043
 20
-7.7654990398
 10
80.5136611088
 20
-5.9687349196
 10
72.6379549739
 20
-4.338203951
 10
64.6381481114
 20
-2.8766918687
 10
56.5279080572
 20
-1.5866956415
 10
48.3210910202
 20
-0.4704192065
 10
40.0317182098
 20
0.4702302969
 10
31.6739518804
 20
1.2336457848
 10
23.2620711355
 20
1.8185229745
 10
14.8104475322
 20
2.2238626133
 10
6.3335205278
 20
2.4489721852
 10
-2.1542271902
 20
2.4934670941
 10
-10.6382944471
 20
2.3572713214
 10
-19.1041863565
 20
2.0406175552
 10
-27.5374390839
 20
1.5440467931
 10
-35.9236445586
 20
0.8684074181
 10
-44.2484750891
 20
0.0148537485
 10
-52.4977078423
 20
-1.0151559334
 10
-60.6572491422
 20
-2.2198618734
 10
-68.7131585494
 20
-3.5972058516
 10
-76.6516726779
 20
-5.144834699
 10
-84.4592287094
 20
-6.8601043175
 10
-92.1224875655
 20
-8.7400841979
 10
-99.6283566968
 20
-10.7815624259
 10
-106.964012452
 20
-12.9810511705
 10
-114.1169219862
 20
-15.3347926418
 10
-121.0748646734
 20
-17.8387655121
 10
-127.8259529853
 20
-20.4886917857
 10
-134.3586528008
 20
-23.2800441081
 10
-140.6618031117
 20
-26.2080535007
 10
-146.7246350916
 20
-29.2677175084
 10
-152.5367904937
 20
-32.4538087467
 10
-158.088339348
 20
-35.7608838321
 10
-163.3697969264
 20
-39.1832926824
 10
-168.3721399472
 20
-42.7151881693
 10
-173.0868219912
 20
-46.3505361088
 10
-177.5057881034
 20
-50.0831255699
 10
-181.6214885541
 20
-53.906579486
 10
-185.4268917383
 20
-57.8143655502
 10
-188.9154961885
 20
-61.7998073758
 10
-192.0813416823
 20
-65.8560959021
 10
-192.5126865263
 20
-66.4489223047
  0
ARC
  5
10D
330
FC
100
AcDbEntity
  8
0
  6
Continuous
 62
     7
370
    25
100
AcDbCircle
 10
-0.0003255901
 20
-157.3675709111
 30
0.0
 40
39.16937929233035
100
AcDbArc
 50
68.1645533454
 51
111.8232646795
  0
VIEWPORT
  5
12C
330
FC
100
AcDbEntity
  8
0
100
AcDbViewport
 10
0.0
 20
0.0
 30
0.0
 40
205.6
 41
156.0
 68
     1
 69
     1
 12
0.0001151303
 22
-54.2833382498
 13
0.0
 23
0.0
 14
10.0
 24
10.0
 15
10.0
 25
10.0
 16
0.0
 26
0.0
 36
1.0
 17
0.0
 27
0.0
 37
0.0
 42
50.0
 43
0.0
 44
0.0
 45
393.3262174508
 50
0.0
 51
0.0
 72
   100
 90
   557152
  1

281
     0
 71
     1
 74
     0
110
0.0
120
0.0
130
0.0
111
1.0
121
0.0
131
0.0
112
0.0
122
1.0
132
0.0
 79
     0
146
0.0
170
     0
 61
     5
348
2F
292
     1
282
     1
141
0.0
142
0.0
 63
   256
361
12D
  0
ENDBLK
  5
FF
330
FC
100
AcDbEntity
  8
0
100
AcDbBlockEnd
  0
BLOCK
  5
110
330
10E
100
AcDbEntity
  8
0
100
AcDbBlockBegin
  2
*Paper_Space8
 70
     0
 10
0.0
 20
0.0
 30
0.0
  3
*Paper_Space8
  1

  0
SPLINE
  5
112
330
10E
100
AcDbEntity
  8
0
  6
Continuous
 62
     7
370
    25
100
AcDbSpline
210
0.0
220
0.0
230
1.0
 70
     8
 71
     3
 72
    24
 73
    20
 74
     0
 42
0.000000001
 43
0.00000001
 40
0.0
 40
0.0
 40
0.0
 40
0.0
 40
0.0588241895277021
 40
0.1207704853783157
 40
0.1825825913406839
 40
0.2442616059294215
 40
0.3058083978561883
 40
0.3672236061564561
 40
0.42850763964718
 40
0.4896605095822787
 40
0.5506820170535875
 40
0.6115718666647255
 40
0.6723295161915571
 40
0.7329541699008303
 40
0.793444769982115
 40
0.8537999859256501
 40
0.9140182016027331
 40
0.9740974997638941
 40
1.0
 40
1.0
 40
1.0
 40
1.0
 10
-239.4096304052648
 20
5.568697541530693
 30
0.0
 10
-239.9831688262358
 20
2.694319317513433
 30
0.0
 10
-241.1606863413928
 20
-3.206995363786991
 30
0.0
 10
-242.5438941148048
 20
-12.20088819297709
 30
0.0
 10
-243.6557754086166
 20
-21.37420208610907
 30
0.0
 10
-244.4397061749147
 20
-30.56203994820345
 30
0.0
 10
-244.9055696167922
 20
-39.75146386921019
 30
0.0
 10
-245.0525365769436
 20
-48.93191541980134
 30
0.0
 10
-244.88309566535
 20
-58.09231133205972
 30
0.0
 10
-244.3993086410817
 20
-67.2218321076483
 30
0.0
 10
-243.6037970997496
 20
-76.30972722769816
 30
0.0
 10
-242.4995197006776
 20
-85.34540701081966
 30
0.0
 10
-241.0896599619606
 20
-94.31836902818942
 30
0.0
 10
-239.3782736508722
 20
-103.2184561464899
 30
0.0
 10
-237.3678032317782
 20
-112.0349311718167
 30
0.0
 10
-235.068326931334
 20
-120.7599625423287
 30
0.0
 10
-232.4631378207501
 20
-129.3757071294566
 30
0.0
 10
-230.1704853746009
 20
-136.292221140942
 30
0.0
 10
-228.6446348351292
 20
-140.2949828043023
 30
0.0
 10
-228.184963780375
 20
-141.5008372626054
 30
0.0
  0
SPLINE
  5
113
330
10E
100
AcDbEntity
  8
0
  6
Continuous
 62
     7
370
    25
100
AcDbSpline
210
0.0
220
0.0
230
1.0
 70
     8
 71
     3
 72
    24
 73
    20
 74
     0
 42
0.000000001
 43
0.00000001
 40
0.0
 40
0.0
 40
0.0
 40
0.0
 40
0.0495019142294583
 40
0.1120828809383191
 40
0.1745218721373824
 40
0.2368210207017671
 40
0.298982229236423
 40
0.3610071690046163
 40
0.4228972799754125
 40
0.4846537713945999
 40
0.5462776224265429
 40
0.6077695825168127
 40
0.6691301711990939
 40
0.7303596596575544
 40
0.791457812257023
 40
0.852424449992162
 40
0.9132591497105648
 40
0.9739612381401691
 40
1.0
 40
1.0
 40
1.0
 40
1.0
 10
228.2019973347894
 20
-141.4826015920077
 30
0.0
 10
229.0563361903071
 20
-139.1695259012583
 30
0.0
 10
230.9907413888638
 20
-133.9322297020478
 30
0.0
 10
233.6324327935164
 20
-125.6473907673413
 30
0.0
 10
236.1890427604603
 20
-116.6728138124961
 30
0.0
 10
238.4144397590156
 20
-107.6309531069159
 30
0.0
 10
240.3201818926184
 20
-98.53767496210128
 30
0.0
 10
241.902927585639
 20
-89.40314217380455
 30
0.0
 10
243.1637762782605
 20
-80.23897446840975
 30
0.0
 10
244.1031060826022
 20
-71.05632453616231
 30
0.0
 10
244.7219385865818
 20
-61.86638301716707
 30
0.0
 10
245.0216210181823
 20
-52.68022158720406
 30
0.0
 10
245.0037311222679
 20
-43.50886087160033
 30
0.0
 10
244.6707648846724
 20
-34.36311430443451
 30
0.0
 10
244.0234836488932
 20
-25.25412429419188
 30
0.0
 10
243.0708041303585
 20
-16.19127345248737
 30
0.0
 10
241.7929873380557
 20
-7.189887635907666
 30
0.0
 10
240.5657114584338
 20
0.060947819858978
 30
0.0
 10
239.6557082521752
 20
4.284908575148363
 30
0.0
 10
239.3825341168009
 20
5.552900620940521
 30
0.0
  0
SPLINE
  5
114
330
10E
100
AcDbEntity
  8
0
  6
Continuous
 62
     7
370
    25
100
AcDbSpline
210
0.0
220
0.0
230
1.0
 70
     8
 71
     3
 72
    62
 73
    58
 74
     0
 42
0.000000001
 43
0.00000001
 40
0.0
 40
0.0
 40
0.0
 40
0.0
 40
0.01546670218807
 40
0.0371235839607732
 40
0.0568531247698535
 40
0.0750551889217683
 40
0.0923457006664744
 40
0.1106425202261331
 40
0.1283235775601888
 40
0.145668130166623
 40
0.1628580352541788
 40
0.1800055160146407
 40
0.1971670724458757
 40
0.2143892024446623
 40
0.2317045254159631
 40
0.2491321428937149
 40
0.266681856077044
 40
0.2843570414824854
 40
0.3021566795305859
 40
0.3200768134217675
 40
0.338111606512686
 40
0.3562541075038292
 40
0.374496798901895
 40
0.3928319833920237
 40
0.4112520489812433
 40
0.4297496440365515
 40
0.4483177860864142
 40
0.4669499226659019
 40
0.4856399581100719
 40
0.5043822567619461
 40
0.523171630372188
 40
0.5420033153832298
 40
0.560872944193645
 40
0.5797765132902324
 40
0.5987103502331551
 40
0.6176710808144986
 40
0.6366555972275105
 40
0.6556610277377128
 40
0.674684708103112
 40
0.6937241548217087
 40
0.712777040170039
 40
0.731841168920718
 40
0.7509144565785701
 40
0.7699949089452728
 40
0.7890806028054033
 40
0.808169667517672
 40
0.8272602672910773
 40
0.8463503226935607
 40
0.8654376705818027
 40
0.884520468860802
 40
0.9035968362287875
 40
0.9226648343364054
 40
0.9417224492726308
 40
0.9607675721125636
 40
0.9797979783085152
 40
0.9977990076612787
 40
0.9999999999999999
 40
0.9999999999999999
 40
0.9999999999999999
 40
0.9999999999999999
 10
218.9636740725275
 20
-21.91886544626419
 30
0.0
 10
218.9618782672446
 20
-22.03163855851836
 30
0.0
 10
218.957567928338
 20
-22.30231953823711
 30
0.0
 10
218.8430072234511
 20
-22.84793734624342
 30
0.0
 10
218.6060190900006
 20
-23.6064439720051
 30
0.0
 10
218.2144649592084
 20
-24.51501973490976
 30
0.0
 10
217.6332253474326
 20
-25.59423337827208
 30
0.0
 10
216.8193097577028
 20
-26.85106219445232
 30
0.0
 10
215.7314841021797
 20
-28.28231124104796
 30
0.0
 10
214.3853859706704
 20
-29.82748428149431
 30
0.0
 10
212.7670517678002
 20
-31.47444646155618
 30
0.0
 10
210.865456119601
 20
-33.2100168615067
 30
0.0
 10
208.6727133428558
 20
-35.02044932554821
 30
0.0
 10
206.1836090199233
 20
-36.89214716621781
 30
0.0
 10
203.3943859940085
 20
-38.81251136388283
 30
0.0
 10
200.3031194480995
 20
-40.76951062271871
 30
0.0
 10
196.9097782680412
 20
-42.7516052076152
 30
0.0
 10
193.2160256657674
 20
-44.74783460833817
 30
0.0
 10
189.2250239781646
 20
-46.74786862547356
 30
0.0
 10
184.9412479308517
 20
-48.74203137142932
 30
0.0
 10
180.3703104236816
 20
-50.72130485057352
 30
0.0
 10
175.5188038235533
 20
-52.67731736989186
 30
0.0
 10
170.3941585023764
 20
-54.60232110797634
 30
0.0
 10
165.0045191711471
 20
-56.48916243422909
 30
0.0
 10
159.3586385804151
 20
-58.33124790983732
 30
0.0
 10
153.4657874380297
 20
-60.12250829238037
 30
0.0
 10
147.3356789378905
 20
-61.85736231199051
 30
0.0
 10
140.9784060644944
 20
-63.5306815009525
 30
0.0
 10
134.4043897875995
 20
-65.13775694909538
 30
0.0
 10
127.6243363367564
 20
-66.67426852636135
 30
0.0
 10
120.6492018997651
 20
-68.13625685750743
 30
0.0
 10
113.4901632845426
 20
-69.52009814377864
 30
0.0
 10
106.1585932928587
 20
-70.82248179219012
 30
0.0
 10
98.6660397584449
 20
-72.04039072392416
 30
0.0
 10
91.02420739006911
 20
-73.17108417907454
 30
0.0
 10
83.24494172668759
 20
-74.2120828066743
 30
0.0
 10
75.34021465490436
 20
-75.16115581926277
 30
0.0
 10
67.32211105919598
 20
-76.01630999438466
 30
0.0
 10
59.20281627455137
 20
-76.77578031692896
 30
0.0
 10
50.99460409184983
 20
-77.43802207288091
 30
0.0
 10
42.70982513110806
 20
-78.00170422453212
 30
0.0
 10
34.36089544918432
 20
-78.46570391801892
 30
0.0
 10
25.96028528933823
 20
-78.82910199485244
 30
0.0
 10
17.52050791071876
 20
-79.09117940064378
 30
0.0
 10
9.054108463793925
 20
-79.25141440111777
 30
0.0
 10
0.5736528830131704
 20
-79.30948054667788
 30
0.0
 10
-7.90824447936303
 20
-79.26524550311149
 30
0.0
 10
-16.37891980621371
 20
-79.11877322424476
 30
0.0
 10
-24.82572167395517
 20
-78.87032551738265
 30
0.0
 10
-33.23606251802232
 20
-78.52036152737769
 30
0.0
 10
-41.59743487034758
 20
-78.06953151179862
 30
0.0
 10
-49.89739372924184
 20
-77.51869540309568
 30
0.0
 10
-58.12348442696685
 20
-76.86886757199314
 30
0.0
 10
-66.26356251246993
 20
-76.12143729840699
 30
0.0
 10
-74.16206741448407
 20
-75.29233257695971
 30
0.0
 10
-79.62024957529847
 20
-74.64943560920491
 30
0.0
 10
-82.40780809312103
 20
-74.29966914332482
 30
0.0
 10
-82.71151012033205
 20
-74.2615623972031
 30
0.0
  0
SPLINE
  5
115
330
10E
100
AcDbEntity
  8
0
  6
Continuous
 62
     7
370
    25
100
AcDbSpline
210
0.0
220
0.0
230
1.0
 70
     8
 71
     3
 72
    42
 73
    38
 74
     0
 42
0.000000001
 43
0.00000001
 40
0.0
 40
0.0
 40
0.0
 40
0.0
 40
0.016167725909622
 40
0.0468268467401882
 40
0.0774510679217377
 40
0.1080315615695849
 40
0.1385629585357359
 40
0.1690394189581173
 40
0.1994545776550542
 40
0.229801489810893
 40
0.2600725775619263
 40
0.2902595803363252
 40
0.3203535131861995
 40
0.350344639235706
 40
0.38022246490609
 40
0.4099757699490195
 40
0.439592688740449
 40
0.469060865012533
 40
0.4983677095317391
 40
0.5275007995322344
 40
0.5564484704743943
 40
0.5852006656622492
 40
0.6137501287093331
 40
0.6420940502165181
 40
0.6702363180702078
 40
0.6981905799300434
 40
0.7259844257233965
 40
0.7536651761582067
 40
0.7813081027548996
 40
0.8089905717524976
 40
0.8368594588439916
 40
0.8651440513397185
 40
0.8941972212085808
 40
0.9245878432593094
 40
0.9573153508426159
 40
0.9944285494603367
 40
1.0
 40
1.0
 40
1.0
 40
1.0
 10
-82.71151012033205
 20
-74.2615623972031
 30
0.0
 10
-84.08851178737268
 20
-74.08506093984037
 30
0.0
 10
-88.0767440461297
 20
-73.57385690659883
 30
0.0
 10
-94.58199134410539
 20
-72.65744671710134
 30
0.0
 10
-102.1716169618043
 20
-71.48471477963923
 30
0.0
 10
-109.6066619101788
 20
-70.224007776275
 30
0.0
 10
-116.8770871593098
 20
-68.87976559927496
 30
0.0
 10
-123.9709054844854
 20
-67.45461298153076
 30
0.0
 10
-130.8769431575608
 20
-65.95201646503018
 30
0.0
 10
-137.584035917975
 20
-64.37561444585023
 30
0.0
 10
-144.0812670013039
 20
-62.72942778769079
 30
0.0
 10
-150.3579310484411
 20
-61.01784020201011
 30
0.0
 10
-156.4035770113848
 20
-59.24564577306729
 30
0.0
 10
-162.2080375542373
 20
-57.41808470663475
 30
0.0
 10
-167.7614719089572
 20
-55.54088878360509
 30
0.0
 10
-173.0544177460883
 20
-53.62033099433683
 30
0.0
 10
-178.0778565465513
 20
-51.66328071343744
 30
0.0
 10
-182.8232951474948
 20
-49.67726344336707
 30
0.0
 10
-187.2828671655919
 20
-47.6705240567527
 30
0.0
 10
-191.4494581854722
 20
-45.65209148468811
 30
0.0
 10
-195.3168588285495
 20
-43.63184169135732
 30
0.0
 10
-198.8799497299512
 20
-41.62055426485138
 30
0.0
 10
-202.134921987765
 20
-39.62995603554077
 30
0.0
 10
-205.0795356709928
 20
-37.67274272703892
 30
0.0
 10
-207.7134172569752
 20
-35.76256669261352
 30
0.0
 10
-210.0383945597855
 20
-33.91397517991231
 30
0.0
 10
-212.058863637133
 20
-32.14227917247255
 30
0.0
 10
-213.7821802571532
 20
-30.4633269116011
 30
0.0
 10
-215.2183965152147
 20
-28.89386699807028
 30
0.0
 10
-216.3815043855306
 20
-27.45050674580125
 30
0.0
 10
-217.2900150520538
 20
-26.14864701196198
 30
0.0
 10
-217.9677049228459
 20
-25.00064485895104
 30
0.0
 10
-218.4424226678905
 20
-24.01427189662147
 30
0.0
 10
-218.7491972037375
 20
-23.18893303916768
 30
0.0
 10
-218.9151381816556
 20
-22.50946000825128
 30
0.0
 10
-218.98082128802
 20
-22.12757698626924
 30
0.0
 10
-218.9754241240676
 20
-21.93089005952444
 30
0.0
 10
-218.9747196546013
 20
-21.90521732926217
 30
0.0
  0
LWPOLYLINE
  5
116
330
10E
100
AcDbEntity
  8
0
  6
Continuous
 62
     7
370
    25
100
AcDbPolyline
 90
      165
 70
   128
 43
0.0
 10
-84.8528137229
 20
-74.8331477201
 10
-76.1916047333
 20
-75.861598647
 10
-67.4185740571
 20
-76.7787122167
 10
-58.5465973265
 20
-77.5831424385
 10
-49.5886953909
 20
-78.2737087002
 10
-40.5580152066
 20
-78.8493975006
 10
-31.4678105421
 20
-79.3093639369
 10
-22.3314225263
 20
-79.6529329451
 10
-13.1622600684
 20
-79.8796002901
 10
-3.9737801788
 20
-79.9890333064
 10
5.2205317811
 20
-79.981071386
 10
14.4071818908
 20
-79.8557262141
 10
23.5726874743
 20
-79.613181752
 10
32.7035968883
 20
-79.2537939671
 10
41.7865092642
 20
-78.7780903107
 10
50.8080941753
 20
-78.1867689433
 10
59.7551112019
 20
-77.4806977106
 10
68.6144293627
 20
-76.6609128696
 10
77.3730463866
 20
-75.7286175676
 10
86.0181077953
 20
-74.6851800764
 10
94.5369257691
 20
-73.5321317845
 10
102.9169977678
 20
-72.2711649493
 10
111.1460248801
 20
-70.9041302134
 10
119.2119298741
 20
-69.4330338888
 10
127.1028749219
 20
-67.8600350123
 10
134.8072789735
 20
-66.1874421767
 10
142.3138347535
 20
-64.4177101425
 10
149.6115253561
 20
-62.5534362355
 10
156.689640414
 20
-60.5973565349
 10
163.5377918174
 20
-58.5523418573
 10
170.1459289598
 20
-56.4213935438
 10
176.5043534885
 20
-54.2076390548
 10
182.6037335388
 20
-51.9143273803
 10
188.4351174294
 20
-49.5448242715
 10
193.9899468003
 20
-47.1026073009
 10
199.2600691733
 20
-44.5912607588
 10
204.2377499172
 20
-42.0144703924
 10
208.915683599
 20
-39.376017997
 10
213.287004706
 20
-36.6797758653
 10
217.3452977217
 20
-33.9297011044
 10
221.0846065414
 20
-31.1298298284
 10
224.4994432138
 20
-28.2842712342
 10
227.5847959952
 20
-25.3972015717
 10
230.3361367048
 20
-22.4728580137
 10
232.7494273709
 20
-19.5155324375
 10
234.8211261565
 20
-16.5295651264
 10
236.5481925581
 20
-13.519338399
 10
237.9280918675
 20
-10.4892701782
 10
238.9587988921
 20
-7.443807507
 10
239.6388009273
 20
-4.3874200218
 10
239.9670999764
 20
-1.3245933926
 10
239.9432142152
 20
1.74017726
 10
239.5671786993
 20
4.8023939625
 10
238.8395453128
 20
7.8575624896
 10
237.761381958
 20
10.9011989602
 10
236.3342709882
 20
13.9288364181
 10
234.5603068856
 20
16.9360313877
 10
232.4420931872
 20
19.9183703959
 10
229.9827386636
 20
22.8714764488
 10
227.1858527568
 20
25.7910154561
 10
224.0555402826
 20
28.6727025916
 10
220.596395406
 20
31.5123085822
 10
216.8134948994
 20
34.3056659144
 10
212.7123906907
 20
37.0486749512
 10
208.299101716
 20
39.7373099486
 10
203.5801050854
 20
42.3676249639
 10
198.5623265772
 20
44.9357596471
 10
193.2531304734
 20
47.4379449065
 10
187.6603087513
 20
49.8705084402
 10
181.792069648
 20
52.2298801256
 10
175.6570256138
 20
54.5125972595
 10
169.2641806716
 20
56.7153096398
 10
162.622917203
 20
58.8347844822
 10
155.742982178
 20
60.8679111651
 10
148.6344728499
 20
62.8117057949
 10
141.3078219365
 20
64.6633155847
 10
133.7737823082
 20
66.420023042
 10
126.0434112073
 20
68.0792499562
 10
118.1280540192
 20
69.6385611831
 10
110.0393276221
 20
71.0956682184
 10
101.7891033376
 20
72.4484325567
 10
93.3894895073
 20
73.6948688296
 10
84.8528137229
 20
74.8331477201
 10
76.1916047333
 20
75.861598647
 10
67.4185740571
 20
76.7787122167
 10
58.5465973265
 20
77.5831424385
 10
49.5886953909
 20
78.2737087002
 10
40.5580152066
 20
78.8493975006
 10
31.4678105421
 20
79.3093639369
 10
22.3314225263
 20
79.6529329451
 10
13.1622600684
 20
79.8796002901
 10
3.9737801788
 20
79.9890333064
 10
-5.2205317811
 20
79.981071386
 10
-14.4071818908
 20
79.8557262141
 10
-23.5726874743
 20
79.613181752
 10
-32.7035968884
 20
79.2537939671
 10
-41.7865092642
 20
78.7780903107
 10
-50.8080941753
 20
78.1867689433
 10
-59.7551112019
 20
77.4806977106
 10
-68.6144293627
 20
76.6609128696
 10
-77.3730463866
 20
75.7286175676
 10
-86.0181077953
 20
74.6851800764
 10
-94.5369257691
 20
73.5321317845
 10
-102.9169977678
 20
72.2711649493
 10
-111.1460248801
 20
70.9041302134
 10
-119.2119298741
 20
69.4330338888
 10
-127.1028749219
 20
67.8600350123
 10
-134.8072789735
 20
66.1874421767
 10
-142.3138347535
 20
64.4177101425
 10
-149.6115253561
 20
62.5534362355
 10
-156.689640414
 20
60.5973565349
 10
-163.5377918174
 20
58.5523418573
 10
-170.1459289598
 20
56.4213935438
 10
-176.5043534885
 20
54.2076390548
 10
-182.6037335388
 20
51.9143273803
 10
-188.4351174294
 20
49.5448242715
 10
-193.9899468003
 20
47.1026073009
 10
-199.2600691733
 20
44.5912607588
 10
-204.2377499172
 20
42.0144703924
 10
-208.915683599
 20
39.376017997
 10
-213.287004706
 20
36.6797758653
 10
-217.3452977217
 20
33.9297011044
 10
-221.0846065414
 20
31.1298298284
 10
-224.4994432138
 20
28.2842712342
 10
-227.5847959952
 20
25.3972015717
 10
-230.3361367048
 20
22.4728580137
 10
-232.7494273709
 20
19.5155324375
 10
-234.8211261565
 20
16.5295651264
 10
-236.5481925581
 20
13.519338399
 10
-237.9280918675
 20
10.4892701782
 10
-238.9587988921
 20
7.443807507
 10
-239.6388009273
 20
4.3874200218
 10
-239.9670999764
 20
1.3245933926
 10
-239.9432142152
 20
-1.74017726
 10
-239.5671786993
 20
-4.8023939625
 10
-238.8395453128
 20
-7.8575624896
 10
-237.761381958
 20
-10.9011989602
 10
-236.3342709882
 20
-13.9288364181
 10
-234.5603068856
 20
-16.9360313877
 10
-232.4420931872
 20
-19.9183703959
 10
-229.9827386636
 20
-22.8714764488
 10
-227.1858527568
 20
-25.7910154561
 10
-224.0555402826
 20
-28.6727025916
 10
-220.596395406
 20
-31.5123085822
 10
-216.8134948994
 20
-34.3056659144
 10
-212.7123906907
 20
-37.0486749512
 10
-208.299101716
 20
-39.7373099486
 10
-203.5801050854
 20
-42.3676249639
 10
-198.5623265772
 20
-44.9357596471
 10
-193.2531304734
 20
-47.4379449065
 10
-187.6603087513
 20
-49.8705084402
 10
-181.792069648
 20
-52.2298801256
 10
-175.6570256138
 20
-54.5125972595
 10
-169.2641806716
 20
-56.7153096398
 10
-162.622917203
 20
-58.8347844822
 10
-155.742982178
 20
-60.8679111651
 10
-148.6344728499
 20
-62.8117057949
 10
-141.3078219365
 20
-64.6633155847
 10
-133.7737823082
 20
-66.420023042
 10
-126.0434112073
 20
-68.0792499562
 10
-118.1280540192
 20
-69.6385611831
 10
-110.0393276221
 20
-71.0956682184
 10
-101.7891033376
 20
-72.4484325567
 10
-93.3894895073
 20
-73.6948688296
 10
-84.8528137229
 20
-74.8331477201
  0
LWPOLYLINE
  5
117
330
10E
100
AcDbEntity
  8
0
  6
Continuous
 62
     7
370
    25
100
AcDbPolyline
 90
       48
 70
   128
 43
0.0
 10
-81.3172798178
 20
-203.7083657239
 10
-72.8612350017
 20
-204.7113213637
 10
-64.2942345433
 20
-205.6035393998
 10
-55.6293245711
 20
-206.3836611314
 10
-46.8797003137
 20
-207.0504985618
 10
-38.0586860056
 20
-207.6030362075
 10
-29.1797145966
 20
-208.0404326448
 10
-20.2563072954
 20
-208.3620217911
 10
-11.3020529796
 20
-208.5673139193
 10
-2.3305875013
 20
-208.6559964032
 10
6.6444270773
 20
-208.627934194
 10
15.6093232894
 20
-208.4831700259
 10
24.550449077
 20
-208.2219243508
 10
33.4541885803
 20
-207.8445950028
 10
42.3069828726
 20
-207.3517565922
 10
51.0953506086
 20
-206.7441596307
 10
59.8059085539
 20
-206.0227293882
 10
68.4253919656
 20
-205.188564484
 10
76.9406747921
 20
-204.2429352135
 10
85.3387896624
 20
-203.1872816142
 10
93.6069476328
 20
-202.0232112725
 10
101.7325576625
 20
-200.7524968753
 10
109.7032457879
 20
-199.3770735112
 10
117.5068739656
 20
-197.8990357231
 10
125.1315585572
 20
-196.3206343186
 10
132.5656884257
 20
-194.6442729428
 10
139.7979426176
 20
-192.8725044175
 10
146.8173076027
 20
-191.008026854
 10
153.6130940461
 20
-189.053679544
 10
160.174953086
 20
-187.0124386361
 10
166.4928920934
 20
-184.8874126035
 10
172.5572898893
 20
-182.6818375103
 10
178.3589113963
 20
-180.3990720835
 10
183.8889217018
 20
-178.0425925985
 10
189.1388995123
 20
-175.6159875846
 10
194.1008499775
 20
-173.1229523612
 10
198.7672168654
 20
-170.5672834095
 10
203.1308940689
 20
-167.9528725919
 10
207.1852364275
 20
-165.2837012248
 10
210.9240698465
 20
-162.5638340159
 10
214.3417006993
 20
-159.7974128743
 10
217.4329244979
 20
-156.988650603
 10
220.1930338183
 20
-154.1418244838
 10
222.6178254694
 20
-151.2612697632
 10
224.7036068933
 20
-148.3513730508
 10
226.4472017892
 20
-145.4165656394
 10
227.8459549495
 20
-142.4613167566
 10
228.2387470623
 20
-141.4629504325
  0
LWPOLYLINE
  5
118
330
10E
100
AcDbEntity
  8
0
  6
Continuous
 62
     7
370
    25
100
AcDbPolyline
 90
       29
 70
   128
 43
0.0
 10
-228.2378355828
 20
-141.4653910599
 10
-227.2167667464
 20
-143.8841629446
 10
-225.6519509755
 20
-146.8301456262
 10
-223.7435045049
 20
-149.7535341872
 10
-221.4943335836
 20
-152.649876789
 10
-218.9078633282
 20
-155.5147627797
 10
-215.988032506
 20
-158.3438294104
 10
-212.7392875378
 20
-161.1327684794
 10
-209.1665757263
 20
-163.8773328924
 10
-205.2753377224
 20
-166.5733431305
 10
-201.0714992395
 20
-169.216693615
 10
-196.5614620302
 20
-171.803358959
 10
-191.7520941374
 20
-174.3294000979
 10
-186.650719435
 20
-176.7909702877
 10
-181.2651064751
 20
-179.184320963
 10
-175.6034566581
 20
-181.5058074456
 10
-169.6743917425
 20
-183.7518944945
 10
-163.4869407164
 20
-185.9191616896
 10
-157.0505260469
 20
-188.0043086404
 10
-150.3749493319
 20
-190.0041600121
 10
-143.4703763737
 20
-191.9156703609
 10
-136.3473216979
 20
-193.7359287719
 10
-129.0166325418
 20
-195.4621632917
 10
-121.4894723358
 20
-197.09174515
 10
-113.7773037033
 20
-198.6221927624
 10
-105.891871005
 20
-200.0511755096
 10
-97.8451824541
 20
-201.3765172866
 10
-89.6494918301
 20
-202.5961998164
 10
-81.3172798178
 20
-203.7083657239
  0
LWPOLYLINE
  5
119
330
10E
100
AcDbEntity
  8
0
  6
Continuous
 62
     1
370
    25
100
AcDbPolyline
 90
       82
 70
   128
 43
0.0
 10
218.9799840212
 20
-21.9176946925
 10
218.994686491
 20
-21.5586538968
 10
218.9173825179
 20
-18.6373694248
 10
218.4895021155
 20
-15.7194550067
 10
217.7117304957
 20
-12.809583419
 10
216.5853131895
 20
-9.9124145586
 10
215.1120540526
 20
-7.0325879797
 10
213.2943123765
 20
-4.1747154649
 10
211.1349991104
 20
-1.3433736389
 10
208.6375721996
 20
1.4569033599
 10
205.8060310479
 20
4.2216311406
 10
202.644910113
 20
6.9463822412
 10
199.1592716446
 20
9.6267932187
 10
195.3546975783
 20
12.2585716368
 10
191.2372805958
 20
14.8375029401
 10
186.813614369
 20
17.3594572027
 10
182.090783
 20
19.8203957425
 10
177.076349677
 20
22.2163775886
 10
171.7783445624
 20
24.5435657924
 10
166.2052519332
 20
26.7982335718
 10
160.3659965942
 20
28.9767702801
 10
154.2699295857
 20
31.0756871872
 10
147.926813209
 20
33.0916230672
 10
141.3468053924
 20
35.0213495808
 10
134.5404434244
 20
36.8617764451
 10
127.5186270796
 20
38.6099563825
 10
120.2926011629
 20
40.2630898407
 10
112.8739375027
 20
41.8185294758
 10
105.2745164192
 20
43.2737843914
 10
97.5065076995
 20
44.6265241282
 10
89.5823511083
 20
45.8745823956
 10
81.5147364672
 20
47.0159605409
 10
73.316583333
 20
48.04883075
 10
65.0010203079
 20
48.9715389746
 10
56.5813640156
 20
49.7826075807
 10
48.0710977757
 20
50.4807377151
 10
39.4838500114
 20
51.0648113854
 10
30.833372425
 20
51.5338932503
 10
22.1335179757
 20
51.8872321177
 10
13.3982186949
 20
52.1242621471
 10
4.6414633763
 20
52.2446037564
 10
-4.1227248271
 20
52.2480642293
 10
-12.8803108587
 20
52.1346380243
 10
-21.617270235
 20
51.9045067831
 10
-30.3196115042
 20
51.5580390402
 10
-38.9733986521
 20
51.0957896324
 10
-47.5647734197
 20
50.5184988103
 10
-56.0799774957
 20
49.8270910532
 10
-64.5053745493
 20
49.0226735881
 10
-72.8274720677
 20
48.106534617
 10
-81.0329429627
 20
47.0801412539
 10
-89.1086469134
 20
45.9451371749
 10
-97.0416514087
 20
44.7033399868
 10
-104.819252458
 20
43.3567383156
 10
-112.4289949351
 20
41.9074886223
 10
-119.8586925243
 20
40.3579117497
 10
-127.0964472356
 20
38.710489205
 10
-134.1306684579
 20
36.9678591869
 10
-140.950091521
 20
35.1328123601
 10
-147.5437957342
 20
33.2082873864
 10
-153.9012218754
 20
31.1973662188
 10
-160.0121891004
 20
29.1032691661
 10
-165.8669112468
 20
26.9293497358
 10
-171.4560125055
 20
24.6790892636
 10
-176.7705424352
 20
22.3560913385
 10
-181.801990296
 20
19.964076032
 10
-186.5422986783
 20
17.5068739408
 10
-190.983876406
 20
14.9884200523
 10
-195.1196106932
 20
12.4127474429
 10
-198.9428785348
 20
9.78398082
 10
-202.4475573125
 20
7.1063299161
 10
-205.6280345994
 20
4.3840827472
 10
-208.4792171482
 20
1.6215987467
 10
-210.9965390475
 20
-1.1766982167
 10
-213.1759690335
 20
-4.006326923
 10
-215.0140169456
 20
-6.8627559772
 10
-216.5077393161
 20
-9.741411066
 10
-217.6547440835
 20
-12.637682283
 10
-218.453194423
 20
-15.5469315114
 10
-218.9018116886
 20
-18.4644998511
 10
-218.9998774602
 20
-21.3857150797
 10
-218.9806775874
 20
-21.9032550503
  0
LWPOLYLINE
  5
11A
330
10E
100
AcDbEntity
  8
0
  6
Continuous
 62
     1
370
    25
100
AcDbPolyline
 90
       44
 70
   128
 43
0.0
 10
161.9745765723
 20
-57.4594535192
 10
158.2976686367
 20
-56.0911159817
 10
152.2716294133
 20
-53.9925872674
 10
145.9954083026
 20
-51.9771854002
 10
139.4793171195
 20
-50.0482216802
 10
132.7340617845
 20
-48.2088653895
 10
125.7707247346
 20
-46.4621385859
 10
118.6007467142
 20
-44.8109111368
 10
111.2359079784
 20
-43.2578960046
 10
103.6883089378
 20
-41.805644789
 10
95.9703502779
 20
-40.4565435351
 10
88.0947125845
 20
-39.2128088127
 10
80.0743355096
 20
-38.0764840745
 10
71.9223965118
 20
-37.0494362993
 10
63.6522892053
 20
-36.1333529237
 10
55.2776013548
 20
-35.3297390704
 10
46.8120925505
 20
-34.6399150748
 10
38.269671601
 20
-34.0650143159
 10
29.6643736815
 20
-33.6059813542
 10
21.010337274
 20
-33.2635703795
 10
12.3217809375
 20
-33.0383439724
 10
3.6129799473
 20
-32.9306721791
 10
-5.1017571595
 20
-32.9407319041
 10
-13.8081120927
 20
-33.0685066193
 10
-22.491780334
 20
-33.3137863912
 10
-31.1384946392
 20
-33.6761682257
 10
-39.7340484795
 20
-34.1550567306
 10
-48.2643193825
 20
-34.7496650931
 10
-56.7152921355
 20
-35.4590163734
 10
-65.0730818124
 20
-36.2819451091
 10
-73.3239565867
 20
-37.2170992305
 10
-81.454360293
 20
-38.2629422818
 10
-89.4509346991
 20
-39.4177559457
 10
-97.3005414544
 20
-40.6796428663
 10
-104.9902836756
 20
-42.0465297667
 10
-112.5075271364
 20
-43.5161708553
 10
-119.8399210256
 20
-45.0861515158
 10
-126.9754182391
 20
-46.7538922739
 10
-133.9022951739
 20
-48.516653036
 10
-140.6091709894
 20
-50.3715375908
 10
-147.0850263061
 20
-52.3154983678
 10
-153.3192213108
 20
-54.3453414447
 10
-159.3015132374
 20
-56.4577317944
 10
-161.9898514253
 20
-57.465287324
  0
LWPOLYLINE
  5
11B
330
10E
100
AcDbEntity
  8
0
  6
Continuous
 62
     1
370
    25
100
AcDbPolyline
 90
       38
 70
   128
 43
0.0
 10
140.4177535269
 20
-63.6358419577
 10
137.4655430113
 20
-62.7315792457
 10
131.0435510683
 20
-60.8814337774
 10
124.3976734165
 20
-59.1213316643
 10
117.5392644263
 20
-57.4542800112
 10
110.4800415746
 20
-55.883126948
 10
103.2320654251
 20
-54.4105567632
 10
95.8077190235
 20
-53.0390853184
 10
88.219686741
 20
-51.7710557495
 10
80.4809326036
 20
-50.6086344638
 10
72.604678143
 20
-49.5538074385
 10
64.6043798076
 20
-48.6083768279
 10
56.493705973
 20
-47.7739578843
 10
48.2865135894
 20
-47.0519761985
 10
39.9968245074
 20
-46.4436652642
 10
31.6388015216
 20
-45.9500643703
 10
23.2267241741
 20
-45.5720168256
 10
14.774964358
 20
-45.3101685182
 10
6.2979617632
 20
-45.1649668113
 10
-2.1898007937
 20
-45.1366597797
 10
-10.6738221127
 20
-45.2252957856
 10
-19.1396073856
 20
-45.4307233956
 10
-27.5726929604
 20
-45.7525916403
 10
-35.9586710518
 20
-46.1903506132
 10
-44.2832143568
 20
-46.7432524103
 10
-52.532100533
 20
-47.4103524082
 10
-60.6912364966
 20
-48.1905108777
 10
-68.7466825008
 20
-49.0823949313
 10
-76.6846759511
 20
-50.0844808
 10
-84.4916549188
 20
-51.1950564368
 10
-92.1542813115
 20
-52.4122244419
 10
-99.6594636604
 20
-53.7339053043
 10
-106.9943794874
 20
-55.1578409542
 10
-114.1464972118
 20
-56.6815986216
 10
-121.1035975604
 20
-58.3025749921
 10
-127.8537944442
 20
-60.0180006546
 10
-134.3855552648
 20
-61.8249448332
 10
-140.3984773805
 20
-63.629821707
  0
VIEWPORT
  5
12E
330
10E
100
AcDbEntity
  8
0
100
AcDbViewport
 10
0.0
 20
0.0
 30
0.0
 40
205.6
 41
156.0
 68
     1
 69
     1
 12
0.0001151303
 22
-54.2833382498
 13
0.0
 23
0.0
 14
10.0
 24
10.0
 15
10.0
 25
10.0
 16
0.0
 26
0.0
 36
1.0
 17
0.0
 27
0.0
 37
0.0
 42
50.0
 43
0.0
 44
0.0
 45
393.3262174508
 50
0.0
 51
0.0
 72
   100
 90
   557152
  1

281
     0
 71
     1
 74
     0
110
0.0
120
0.0
130
0.0
111
1.0
121
0.0
131
0.0
112
0.0
122
1.0
132
0.0
 79
     0
146
0.0
170
     0
 61
     5
348
2F
292
     1
282
     1
141
0.0
142
0.0
 63
   256
361
12F
  0
ENDBLK
  5
111
330
10E
100
AcDbEntity
  8
0
100
AcDbBlockEnd
  0
ENDSEC
  0
SECTION
  2
ENTITIES
  0
SPLINE
  5
73
330
1F
100
AcDbEntity
  8
0
  6
Continuous
 62
     7
370
    25
100
AcDbSpline
210
0.0
220
0.0
230
1.0
 70
     8
 71
     3
 72
    27
 73
    23
 74
     0
 42
0.000000001
 43
0.00000001
 40
0.0
 40
0.0
 40
0.0
 40
0.0
 40
0.0244839611881536
 40
0.0783726829554635
 40
0.1321801787294313
 40
0.1859050293242578
 40
0.2395458825075526
 40
0.2931014309891652
 40
0.3465703928806865
 40
0.3999514942634857
 40
0.4532433447034088
 40
0.506444130061454
 40
0.5595525150870232
 40
0.6125671136577794
 40
0.6654864780906988
 40
0.71830908932689
 40
0.7710333478700212
 40
0.823657565447452
 40
0.8761799574050119
 40
0.9285986358939462
 40
0.9809116039628394
 40
1.0
 40
1.0
 40
1.0
 40
1.0
 10
-237.6446210555327
 20
19.1935032390513
 30
0.0
 10
-237.9799647996188
 20
17.84699263788146
 30
0.0
 10
-239.0533935938564
 20
13.53683842587785
 30
0.0
 10
-240.5286116356222
 20
6.189183638454492
 30
0.0
 10
-242.0804683885868
 20
-2.827472995597054
 30
0.0
 10
-243.2950045005334
 20
-11.88306152429616
 30
0.0
 10
-244.1948369983758
 20
-20.96047310198621
 30
0.0
 10
-244.7743651099573
 20
-30.04964822148943
 30
0.0
 10
-245.0360473609737
 20
-39.13874691373502
 30
0.0
 10
-244.9806962614172
 20
-48.21651568600077
 30
0.0
 10
-244.6100676258644
 20
-57.27164329492557
 30
0.0
 10
-243.9261640184838
 20
-66.29296865247703
 30
0.0
 10
-242.9314169308556
 20
-75.26945388729808
 30
0.0
 10
-241.6286115333236
 20
-84.19022248932819
 30
0.0
 10
-240.020948087568
 20
-93.04456032978428
 30
0.0
 10
-238.1118356849856
 20
-101.8218387979156
 30
0.0
 10
-235.9056191541455
 20
-110.5118508767523
 30
0.0
 10
-233.4048477389078
 20
-119.1036063476643
 30
0.0
 10
-230.6204082167726
 20
-127.589861864912
 30
0.0
 10
-227.5337867197174
 20
-135.9503096889837
 30
0.0
 10
-224.9330478344627
 20
-142.4703383735274
 30
0.0
 10
-223.2665618534474
 20
-146.1573707658399
 30
0.0
 10
-222.8210445332356
 20
-147.1430597003227
 30
0.0
  0
SPLINE
  5
74
330
1F
100
AcDbEntity
  8
0
  6
Continuous
 62
     7
370
    25
100
AcDbSpline
210
0.0
220
0.0
230
1.0
 70
     8
 71
     3
 72
    26
 73
    22
 74
     0
 42
0.000000001
 43
0.00000001
 40
0.0
 40
0.0
 40
0.0
 40
0.0
 40
0.0491532412432774
 40
0.1034082948091911
 40
0.1575902172802414
 40
0.2116969098143868
 40
0.2657264858726232
 40
0.3196772315519579
 40
0.3735475708719742
 40
0.4273360353361633
 40
0.4810412371715463
 40
0.5346618457255814
 40
0.5881965665652091
 40
0.6416441228843569
 40
0.6950032388791891
 40
0.7482722472913621
 40
0.8014495902364699
 40
0.8545339114956547
 40
0.9075237991368182
 40
0.9604177753048985
 40
1.0
 40
1.0
 40
1.0
 40
1.0
 10
222.8663909747934
 20
-147.092582566442
 30
0.0
 10
223.9723146261139
 20
-144.536869847412
 30
0.0
 10
226.298950186243
 20
-139.1601767217436
 30
0.0
 10
229.4708610201812
 20
-130.8118913117278
 30
0.0
 10
232.462154235335
 20
-122.1013927088076
 30
0.0
 10
235.1320152628812
 20
-113.2994508019422
 30
0.0
 10
237.4876769935456
 20
-104.4219168199382
 30
0.0
 10
239.5251893128755
 20
-95.47950113297601
 30
0.0
 10
241.2441472301169
 20
-86.48424203936237
 30
0.0
 10
242.6437434693556
 20
-77.44776366215117
 30
0.0
 10
243.7238144972619
 20
-68.38172935283488
 30
0.0
 10
244.484554457577
 20
-59.29770743944385
 30
0.0
 10
244.9265765136355
 20
-50.20719620403239
 30
0.0
 10
245.0509155549921
 20
-41.12159809298107
 30
0.0
 10
244.8589207865716
 20
-32.05225914794119
 30
0.0
 10
244.3526518443459
 20
-23.01035458355551
 30
0.0
 10
243.5333867743022
 20
-14.00722141370717
 30
0.0
 10
242.4071509205068
 20
-5.052999168914135
 30
0.0
 10
240.9640925113938
 20
3.838429464118741
 30
0.0
 10
239.3975207811383
 20
11.93255276259707
 30
0.0
 10
238.1754456754366
 20
17.02770571892994
 30
0.0
 10
237.6523656724016
 20
19.20856400777617
 30
0.0
  0
SPLINE
  5
75
330
1F
100
AcDbEntity
  8
0
  6
Continuous
 62
     7
370
    25
100
AcDbSpline
210
0.0
220
0.0
230
1.0
 70
     8
 71
     3
 72
    71
 73
    67
 74
     0
 42
0.000000001
 43
0.00000001
 40
0.0
 40
0.0
 40
0.0
 40
0.0
 40
0.0005937284861379
 40
0.0185771281843134
 40
0.0364446832239821
 40
0.0540960610192904
 40
0.0714724737530477
 40
0.0885558252716022
 40
0.1053576233106665
 40
0.1219062766825002
 40
0.1382373024080929
 40
0.1543872073636472
 40
0.1703902177808377
 40
0.1862768183306578
 40
0.2020733163117056
 40
0.217801936589733
 40
0.2334811632387091
 40
0.2491261739673954
 40
0.2647492880591066
 40
0.2803603895756467
 40
0.2959673094631637
 40
0.311574704616754
 40
0.3271872780161886
 40
0.3428089098107698
 40
0.3584424452311479
 40
0.3740898828186847
 40
0.3897525322667801
 40
0.4054311459335709
 40
0.4211260278971979
 40
0.4368371239621132
 40
0.4525640955838571
 40
0.468306380274969
 40
0.4840632406910474
 40
0.4998338042741918
 40
0.5156170950491616
 40
0.5314120589226857
 40
0.5472175836254656
 40
0.5630325142558473
 40
0.5788556652308364
 40
0.5946858293210164
 40
0.6105217843380909
 40
0.6263622979547642
 40
0.6422061310643027
 40
0.658052040029408
 40
0.6738987781254904
 40
0.6897449364121424
 40
0.7055890082616788
 40
0.7214297426427198
 40
0.7372658887903499
 40
0.7530961975861789
 40
0.7689194237656841
 40
0.7847343292252423
 40
0.8005396877772983
 40
0.8163342917592818
 40
0.8321169609734983
 40
0.8478865545228627
 40
0.8636419862131821
 40
0.8793822443185025
 40
0.895106416654326
 40
0.9108137220759985
 40
0.9265035497184154
 40
0.942175507519203
 40
0.9578294818212302
 40
0.9734657101298887
 40
0.989084869401761
 40
1.0
 40
1.0
 40
1.0
 40
1.0
 10
218.891580458107
 20
-22.00299282146548
 30
0.0
 10
218.8906504094696
 20
-22.04989002310188
 30
0.0
 10
218.8615501840979
 20
-23.51725321457063
 30
0.0
 10
218.514628850549
 20
-26.40127508617096
 30
0.0
 10
217.8253983308661
 20
-30.65016139369522
 30
0.0
 10
216.791105797052
 20
-34.8746419996405
 30
0.0
 10
215.4659096387619
 20
-39.06251572556822
 30
0.0
 10
213.8460675365144
 20
-43.20775702813658
 30
0.0
 10
211.941802243968
 20
-47.30818060094299
 30
0.0
 10
209.7575117352636
 20
-51.3638214215244
 30
0.0
 10
207.2969677523555
 20
-55.3752516483105
 30
0.0
 10
204.5624620169345
 20
-59.34257440566206
 30
0.0
 10
201.5556601062682
 20
-63.2649151422921
 30
0.0
 10
198.2779501060412
 20
-67.1402674413887
 30
0.0
 10
194.7308049086886
 20
-70.9655329265583
 30
0.0
 10
190.916019459786
 20
-74.73665541895998
 30
0.0
 10
186.8358782478592
 20
-78.44878953905209
 30
0.0
 10
182.4932609404459
 20
-82.09647255594841
 30
0.0
 10
177.8917041030014
 20
-85.67378440607109
 30
0.0
 10
173.0354303154431
 20
-89.17448972473201
 30
0.0
 10
167.9295127941843
 20
-92.5920540440687
 30
0.0
 10
162.5797383254722
 20
-95.91986739386618
 30
0.0
 10
156.9925387236051
 20
-99.15135845299869
 30
0.0
 10
151.1747653512447
 20
-102.2801512708583
 30
0.0
 10
145.1338158206916
 20
-105.3000076750745
 30
0.0
 10
138.8776485419521
 20
-108.2048464361575
 30
0.0
 10
132.4147457621485
 20
-110.9887838022271
 30
0.0
 10
125.7540760617775
 20
-113.6461659949603
 30
0.0
 10
118.905057185569
 20
-116.1715950134616
 30
0.0
 10
111.8775197837756
 20
-118.5599489243411
 30
0.0
 10
104.6816724328825
 20
-120.8063976458843
 30
0.0
 10
97.32806814877225
 20
-122.9064150807917
 30
0.0
 10
89.82757248941891
 20
-124.8557883162969
 30
0.0
 10
82.19133325983901
 20
-126.6506244918221
 30
0.0
 10
74.43075177248059
 20
-128.287355831659
 30
0.0
 10
66.55745557587446
 20
-129.762743252141
 30
0.0
 10
58.5832725386667
 20
-131.0738788779945
 30
0.0
 10
50.52020616133945
 20
-132.2181877395591
 30
0.0
 10
42.38041198102317
 20
-133.1934288699461
 30
0.0
 10
34.176174933381
 20
-133.9976959775752
 30
0.0
 10
25.91988753765576
 20
-134.6294178336152
 30
0.0
 10
17.62402877534881
 20
-135.0873584844622
 30
0.0
 10
9.301143537535307
 20
-135.370617375394
 30
0.0
 10
0.9638225233458558
 20
-135.4786294520235
 30
0.0
 10
-7.375289458531221
 20
-135.411165517004
 30
0.0
 10
-15.70349637097257
 20
-135.1683361636705
 30
0.0
 10
-24.00811641524577
 20
-134.7505949753696
 30
0.0
 10
-32.27653053481251
 20
-134.1587359324818
 30
0.0
 10
-40.49621854711381
 20
-133.3938884759237
 30
0.0
 10
-48.65473407966888
 20
-132.4575193078163
 30
0.0
 10
-56.73972475082343
 20
-131.3514329523766
 30
0.0
 10
-64.73895285251997
 20
-130.0777723457992
 30
0.0
 10
-72.64031666543829
 20
-128.6390194026118
 30
0.0
 10
-80.43187252722619
 20
-127.0379954713157
 30
0.0
 10
-88.10185789549918
 20
-125.2778616138414
 30
0.0
 10
-95.63871523831963
 20
-123.362118429725
 30
0.0
 10
-103.0311181552365
 20
-121.2946057768917
 30
0.0
 10
-110.2679953149157
 20
-119.0795001840091
 30
0.0
 10
-117.3385694950978
 20
-116.7213170252745
 30
0.0
 10
-124.2323481412994
 20
-114.2248896514537
 30
0.0
 10
-130.9393031499427
 20
-111.5954272514759
 30
0.0
 10
-137.4493548893517
 20
-108.838269951566
 30
0.0
 10
-143.7544582049579
 20
-105.9597596646343
 30
0.0
 10
-149.841004180134
 20
-102.9639382397725
 30
0.0
 10
-155.1302922832018
 20
-100.174841815293
 30
0.0
 10
-158.3249106311444
 20
-98.35814344425565
 30
0.0
 10
-159.6390470429352
 20
-97.61082742130765
 30
0.0
  0
SPLINE
  5
76
330
1F
100
AcDbEntity
  8
0
  6
Continuous
 62
     7
370
    25
100
AcDbSpline
210
0.0
220
0.0
230
1.0
 70
     8
 71
     3
 72
    28
 73
    24
 74
     0
 42
0.000000001
 43
0.00000001
 40
0.0
 40
0.0
 40
0.0
 40
0.0
 40
0.0255118159775895
 40
0.0742286438698731
 40
0.1229075941352926
 40
0.1715662027970094
 40
0.2202195715922307
 40
0.2688826634847925
 40
0.3175803511498038
 40
0.3663438433569294
 40
0.4152117775157072
 40
0.464231388709012
 40
0.5134596951568062
 40
0.5629645774366352
 40
0.6128255244081401
 40
0.6631336422770897
 40
0.7139902349795849
 40
0.7655028221412171
 40
0.8177768645958875
 40
0.8709008897742513
 40
0.9249227963859031
 40
0.9798174069664257
 40
1.0
 40
1.0
 40
1.0
 40
1.0
 10
-159.6390470429352
 20
-97.61082742130765
 30
0.0
 10
-160.6071358579409
 20
-97.04550738496644
 30
0.0
 10
-163.4238667385098
 20
-95.4006640822813
 30
0.0
 10
-167.9097484572037
 20
-92.60257726407733
 30
0.0
 10
-173.0091304008261
 20
-89.19314107304216
 30
0.0
 10
-177.8531655727172
 20
-85.70218145330907
 30
0.0
 10
-182.4406234324812
 20
-82.13864239706007
 30
0.0
 10
-186.7659011453625
 20
-78.50936007151921
 30
0.0
 10
-190.8255396107384
 20
-74.82162671227627
 30
0.0
 10
-194.6166674326159
 20
-71.08218145164619
 30
0.0
 10
-198.1373021186901
 20
-67.29736709797827
 30
0.0
 10
-201.3861955441147
 20
-63.47289132669101
 30
0.0
 10
-204.3627921945728
 20
-59.61362936814696
 30
0.0
 10
-207.0670980123724
 20
-55.72338501652004
 30
0.0
 10
-209.4994747661066
 20
-51.8046458201591
 30
0.0
 10
-211.6604074163536
 20
-47.85834995023167
 30
0.0
 10
-213.5499327273282
 20
-43.88372096734215
 30
0.0
 10
-215.1678603480001
 20
-39.8782296886282
 30
0.0
 10
-216.5104881900118
 20
-35.83790608789167
 30
0.0
 10
-217.580382150468
 20
-31.75783225742924
 30
0.0
 10
-218.3464511179734
 20
-27.63431870482501
 30
0.0
 10
-218.7770610205785
 20
-24.36225786953925
 30
0.0
 10
-218.8451919621025
 20
-22.46453737236916
 30
0.0
 10
-218.8635072295816
 20
-21.95438357544928
 30
0.0
  0
LWPOLYLINE
  5
77
330
1F
100
AcDbEntity
  8
0
  6
Continuous
 62
     7
370
    25
100
AcDbPolyline
 90
      165
 70
   128
 43
0.0
 10
-169.7056274848
 20
-97.9689734187
 10
-163.0809048243
 20
-101.6495614283
 10
-156.2168384474
 20
-105.1809646893
 10
-149.123502318
 20
-108.5580003802
 10
-141.8113068851
 20
-111.7757122356
 10
-134.2909838038
 20
-114.8293778196
 10
-126.5735701852
 20
-117.7145154569
 10
-118.6703923981
 20
-120.4268908101
 10
-110.5930494457
 20
-122.9625230944
 10
-102.3533959427
 20
-125.3176909197
 10
-93.9635247167
 20
-127.4889377525
 10
-85.4357490608
 20
-129.4730769886
 10
-76.7825846617
 20
-131.26719663
 10
-68.0167312314
 20
-132.8686635589
 10
-59.1510538686
 20
-134.2751274017
 10
-50.1985641774
 20
-135.4845239787
 10
-41.172401171
 20
-136.4950783336
 10
-32.0858119883
 20
-137.3053073386
 10
-22.9521324519
 20
-137.914021871
 10
-13.7847674961
 20
-138.3203285581
 10
-4.5971714931
 20
-138.5236310889
 10
4.5971714931
 20
-138.5236310889
 10
13.7847674961
 20
-138.3203285581
 10
22.9521324519
 20
-137.914021871
 10
32.0858119883
 20
-137.3053073386
 10
41.172401171
 20
-136.4950783336
 10
50.1985641774
 20
-135.4845239787
 10
59.1510538686
 20
-134.2751274017
 10
68.0167312314
 20
-132.8686635589
 10
76.7825846617
 20
-131.26719663
 10
85.4357490608
 20
-129.4730769886
 10
93.9635247167
 20
-127.4889377525
 10
102.3533959427
 20
-125.3176909197
 10
110.5930494457
 20
-122.9625230944
 10
118.6703923981
 20
-120.4268908101
 10
126.5735701852
 20
-117.7145154569
 10
134.2909838038
 20
-114.8293778196
 10
141.8113068851
 20
-111.7757122356
 10
149.123502318
 20
-108.5580003802
 10
156.2168384474
 20
-105.1809646893
 10
163.0809048243
 20
-101.6495614283
 10
169.7056274848
 20
-97.9689734187
 10
176.0812837348
 20
-94.1446024309
 10
182.1985164196
 20
-90.1820612565
 10
188.0483476567
 20
-86.0871654713
 10
193.622192012
 20
-81.8659248996
 10
198.9118691004
 20
-77.5245347938
 10
203.9096155912
 20
-73.0693667427
 10
208.6080966024
 20
-68.5069593198
 10
213.0004164651
 20
-63.8440084871
 10
217.0801288442
 20
-59.0873577679
 10
220.8412461992
 20
-54.2439882032
 10
224.2782485718
 20
-49.3210081056
 10
227.386091687
 20
-44.3256426273
 10
230.1602143564
 20
-39.2652231561
 10
232.5965451726
 20
-34.1471765552
 10
234.6915084841
 20
-28.979014264
 10
236.4420296432
 20
-23.7683212731
 10
237.8455395189
 20
-18.5227449931
 10
238.8999782669
 20
-13.2499840307
 10
239.6037983528
 20
-7.9577768895
 10
239.9559668236
 20
-2.6538906133
 10
239.9559668236
 20
2.6538906133
 10
239.6037983528
 20
7.9577768895
 10
238.8999782669
 20
13.2499840307
 10
237.8455395189
 20
18.5227449931
 10
236.4420296432
 20
23.7683212731
 10
234.6915084841
 20
28.979014264
 10
232.5965451726
 20
34.1471765552
 10
230.1602143564
 20
39.2652231561
 10
227.386091687
 20
44.3256426273
 10
224.2782485718
 20
49.3210081056
 10
220.8412461992
 20
54.2439882032
 10
217.0801288442
 20
59.0873577679
 10
213.0004164651
 20
63.8440084871
 10
208.6080966024
 20
68.5069593198
 10
203.9096155912
 20
73.0693667427
 10
198.9118691004
 20
77.5245347938
 10
193.622192012
 20
81.8659248996
 10
188.0483476567
 20
86.0871654713
 10
182.1985164196
 20
90.1820612565
 10
176.0812837348
 20
94.1446024309
 10
169.7056274848
 20
97.9689734187
 10
163.0809048243
 20
101.6495614283
 10
156.2168384474
 20
105.1809646893
 10
149.123502318
 20
108.5580003802
 10
141.8113068851
 20
111.7757122356
 10
134.2909838038
 20
114.8293778196
 10
126.5735701852
 20
117.7145154569
 10
118.6703923981
 20
120.4268908101
 10
110.5930494457
 20
122.9625230944
 10
102.3533959427
 20
125.3176909197
 10
93.9635247167
 20
127.4889377525
 10
85.4357490608
 20
129.4730769886
 10
76.7825846617
 20
131.26719663
 10
68.0167312314
 20
132.8686635589
 10
59.1510538686
 20
134.2751274017
 10
50.1985641774
 20
135.4845239787
 10
41.172401171
 20
136.4950783336
 10
32.0858119883
 20
137.3053073386
 10
22.9521324519
 20
137.914021871
 10
13.7847674961
 20
138.3203285581
 10
4.5971714931
 20
138.5236310889
 10
-4.5971714931
 20
138.5236310889
 10
-13.7847674961
 20
138.3203285581
 10
-22.9521324519
 20
137.914021871
 10
-32.0858119883
 20
137.3053073386
 10
-41.172401171
 20
136.4950783336
 10
-50.1985641774
 20
135.4845239787
 10
-59.1510538686
 20
134.2751274017
 10
-68.0167312314
 20
132.8686635589
 10
-76.7825846617
 20
131.26719663
 10
-85.4357490608
 20
129.4730769886
 10
-93.9635247167
 20
127.4889377525
 10
-102.3533959427
 20
125.3176909197
 10
-110.5930494457
 20
122.9625230944
 10
-118.6703923981
 20
120.4268908101
 10
-126.5735701852
 20
117.7145154569
 10
-134.2909838038
 20
114.8293778196
 10
-141.8113068851
 20
111.7757122356
 10
-149.123502318
 20
108.5580003802
 10
-156.2168384474
 20
105.1809646893
 10
-163.0809048243
 20
101.6495614283
 10
-169.7056274848
 20
97.9689734187
 10
-176.0812837348
 20
94.1446024309
 10
-182.1985164196
 20
90.1820612565
 10
-188.0483476567
 20
86.0871654713
 10
-193.622192012
 20
81.8659248996
 10
-198.9118691004
 20
77.5245347938
 10
-203.9096155912
 20
73.0693667427
 10
-208.6080966024
 20
68.5069593198
 10
-213.0004164651
 20
63.8440084871
 10
-217.0801288442
 20
59.0873577679
 10
-220.8412461992
 20
54.2439882032
 10
-224.2782485718
 20
49.3210081056
 10
-227.386091687
 20
44.3256426273
 10
-230.1602143564
 20
39.2652231561
 10
-232.5965451726
 20
34.1471765552
 10
-234.6915084841
 20
28.979014264
 10
-236.4420296432
 20
23.7683212731
 10
-237.8455395189
 20
18.5227449931
 10
-238.8999782669
 20
13.2499840307
 10
-239.6037983528
 20
7.9577768894
 10
-239.9559668236
 20
2.6538906133
 10
-239.9559668236
 20
-2.6538906133
 10
-239.6037983528
 20
-7.9577768895
 10
-238.8999782669
 20
-13.2499840307
 10
-237.8455395189
 20
-18.5227449931
 10
-236.4420296432
 20
-23.7683212731
 10
-234.6915084841
 20
-28.979014264
 10
-232.5965451726
 20
-34.1471765552
 10
-230.1602143564
 20
-39.2652231561
 10
-227.386091687
 20
-44.3256426273
 10
-224.2782485718
 20
-49.3210081056
 10
-220.8412461992
 20
-54.2439882032
 10
-217.0801288442
 20
-59.0873577679
 10
-213.0004164651
 20
-63.8440084871
 10
-208.6080966024
 20
-68.5069593198
 10
-203.9096155912
 20
-73.0693667427
 10
-198.9118691004
 20
-77.5245347938
 10
-193.622192012
 20
-81.8659248996
 10
-188.0483476567
 20
-86.0871654713
 10
-182.1985164196
 20
-90.1820612565
 10
-176.0812837348
 20
-94.1446024309
 10
-169.7056274848
 20
-97.9689734187
  0
LWPOLYLINE
  5
78
330
1F
100
AcDbEntity
  8
0
  6
Continuous
 62
     7
370
    25
100
AcDbPolyline
 90
       55
 70
   128
 43
0.0
 10
-162.6345596729
 20
-208.2026465236
 10
-156.1653622244
 20
-211.7942604057
 10
-149.458350689
 20
-215.2374305403
 10
-142.5237387388
 20
-218.5269135473
 10
-135.372086644
 20
-221.6577000866
 10
-128.014285191
 20
-224.6250224868
 10
-120.4615390979
 20
-227.4243620054
 10
-112.7253499509
 20
-230.0514557099
 10
-104.8174986902
 20
-232.5023029701
 10
-96.7500276688
 20
-234.7731715498
 10
-88.5352223143
 20
-236.8606032908
 10
-80.1855924202
 20
-238.7614193788
 10
-71.7138530956
 20
-240.4727251845
 10
-63.132905402
 20
-241.9919146714
 10
-54.4558167073
 20
-243.3166743645
 10
-45.6958007863
 20
-244.4449868734
 10
-36.8661976984
 20
-245.3751339642
 10
-27.9804534724
 20
-246.1056991762
 10
-19.0520996313
 20
-246.6355699793
 10
-10.094732585
 20
-246.9639394676
 10
-1.1219929262
 20
-247.0903075884
 10
7.8524553428
 20
-247.0144819041
 10
16.8149456175
 20
-246.7365778845
 10
25.7518295038
 20
-246.2570187318
 10
34.6494976015
 20
-245.5765347353
 10
43.4944002298
 20
-244.69616216
 10
52.273068061
 20
-243.617241668
 10
60.9721326321
 20
-242.3414162774
 10
69.5783467026
 20
-240.8706288597
 10
78.0786044282
 20
-239.2071191816
 10
86.4599613184
 20
-237.3534204938
 10
94.7096539491
 20
-235.3123556738
 10
102.8151193994
 20
-233.0870329266
 10
110.7640143824
 20
-230.6808410516
 10
118.5442340421
 20
-228.0974442822
 10
126.1439303873
 20
-225.3407767055
 10
133.5515303343
 20
-222.4150362715
 10
140.75575333
 20
-219.3246784004
 10
147.7456285312
 20
-216.0744091973
 10
154.5105115111
 20
-212.6691782861
 10
161.0401004686
 20
-209.1141712719
 10
167.3244519169
 20
-205.4148018438
 10
173.3539958253
 20
-201.5767035314
 10
179.119550193
 20
-197.6057211252
 10
184.6123350318
 20
-193.5079017765
 10
189.8239857365
 20
-189.2894857881
 10
194.7465658225
 20
-184.9568971118
 10
199.3725790125
 20
-180.5167335654
 10
203.6949806515
 20
-175.9757567857
 10
207.7071884346
 20
-171.3408819313
 10
211.4030924314
 20
-166.6191671519
 10
214.7770643896
 20
-161.8178028404
 10
217.8239663066
 20
-156.9441006826
 10
220.5391582531
 20
-152.005482523
 10
222.8795128083
 20
-147.0979446098
  0
LWPOLYLINE
  5
79
330
1F
100
AcDbEntity
  8
0
  6
Continuous
 62
     7
370
    25
100
AcDbPolyline
 90
       15
 70
   128
 43
0.0
 10
-222.8703042786
 20
-147.1188019756
 10
-221.1656308189
 20
-150.7615641808
 10
-218.534032302
 20
-155.7152398424
 10
-215.5696425015
 20
-160.6058708545
 10
-212.2769756939
 20
-165.4260095928
 10
-208.6610460677
 20
-170.1683157811
 10
-204.7273600873
 20
-174.8255676694
 10
-200.4819081075
 20
-179.3906730312
 10
-195.9311552515
 20
-183.8566799641
 10
-191.082031565
 20
-188.2167874762
 10
-185.9419214638
 20
-192.464355843
 10
-180.5186524875
 20
-196.5929167184
 10
-174.8204833803
 20
-200.5961829853
 10
-168.8560915138
 20
-204.4680583296
 10
-162.6345596729
 20
-208.2026465236
  0
LWPOLYLINE
  5
7A
330
1F
100
AcDbEntity
  8
0
  6
Continuous
 62
     7
370
    25
100
AcDbPolyline
 90
       61
 70
   128
 43
0.0
 10
-22.9809703886
 20
-116.5388004163
 10
-20.4529127091
 20
-117.8528650557
 10
-17.700768638
 20
-119.0071805335
 10
-14.7546912415
 20
-119.9890999278
 10
-11.6469583602
 20
-120.7878651242
 10
-8.4116189658
 20
-121.394724684
 10
-5.0841201138
 20
-121.8030297271
 10
-1.7009185779
 20
-122.0083067777
 10
1.7009185779
 20
-122.0083067777
 10
5.0841201138
 20
-121.8030297271
 10
8.4116189658
 20
-121.394724684
 10
11.6469583602
 20
-120.7878651242
 10
14.7546912415
 20
-119.9890999278
 10
17.700768638
 20
-119.0071805335
 10
20.4529127091
 20
-117.8528650557
 10
22.9809703886
 20
-116.5388004163
 10
25.2572437474
 20
-115.0793837825
 10
27.2567934582
 20
-113.4906048284
 10
28.9577120361
 20
-111.7898705486
 10
30.3413638612
 20
-109.9958145437
 10
31.3925893544
 20
-108.1280928669
 10
32.0998710693
 20
-106.2071686677
 10
32.4554598795
 20
-104.2540879935
 10
32.4554598795
 20
-102.2902492049
 10
32.0998710693
 20
-100.3371685307
 10
31.3925893544
 20
-98.4162443315
 10
30.3413638612
 20
-96.5485226547
 10
28.9577120361
 20
-94.7544666498
 10
27.2567934582
 20
-93.05373237
 10
25.2572437474
 20
-91.4649534159
 10
22.9809703886
 20
-90.0055367821
 10
20.4529127091
 20
-88.6914721427
 10
17.700768638
 20
-87.5371566649
 10
14.7546912415
 20
-86.5552372706
 10
11.6469583602
 20
-85.7564720742
 10
8.4116189658
 20
-85.1496125144
 10
5.0841201138
 20
-84.7413074713
 10
1.7009185779
 20
-84.5360304207
 10
-1.7009185779
 20
-84.5360304207
 10
-5.0841201138
 20
-84.7413074713
 10
-8.4116189658
 20
-85.1496125144
 10
-11.6469583602
 20
-85.7564720742
 10
-14.7546912415
 20
-86.5552372706
 10
-17.700768638
 20
-87.5371566649
 10
-20.4529127091
 20
-88.6914721427
 10
-22.9809703886
 20
-90.0055367821
 10
-25.2572437474
 20
-91.4649534159
 10
-27.2567934582
 20
-93.05373237
 10
-28.9577120361
 20
-94.7544666498
 10
-30.3413638612
 20
-96.5485226547
 10
-31.3925893544
 20
-98.4162443315
 10
-32.0998710693
 20
-100.3371685307
 10
-32.4554598795
 20
-102.2902492049
 10
-32.4554598795
 20
-104.2540879935
 10
-32.0998710693
 20
-106.2071686677
 10
-31.3925893544
 20
-108.1280928669
 10
-30.3413638612
 20
-109.9958145437
 10
-28.9577120361
 20
-111.7898705486
 10
-27.2567934582
 20
-113.4906048284
 10
-25.2572437474
 20
-115.0793837825
 10
-22.9809703886
 20
-116.5388004163
  0
LWPOLYLINE
  5
7B
330
1F
100
AcDbEntity
  8
0
  6
Continuous
 62
     7
370
    25
100
AcDbPolyline
 90
       36
 70
   128
 43
0.0
 10
18.7944575997
 20
-118.5786598669
 10
20.0476467942
 20
-117.3344472984
 10
21.1698173015
 20
-115.837434595
 10
21.9581271436
 20
-114.2710335045
 10
22.4001442036
 20
-112.6599471079
 10
22.4888976082
 20
-111.0295832001
 10
22.2229876634
 20
-109.4056535937
 10
21.6066079277
 20
-107.8137686289
 10
20.6494790779
 20
-106.2790332823
 10
19.3666956076
 20
-104.8256512473
 10
17.7784877785
 20
-103.4765432268
 10
15.9099025767
 20
-102.2529854601
 10
13.7904087072
 20
-101.1742741841
 10
11.4534318544
 20
-100.2574213201
 10
8.9358275393
 20
-99.5168861854
 10
6.2772998859
 20
-98.9643474615
 10
3.5197754634
 20
-98.6085190142
 10
0.7067420793
 20
-98.4550124705
 10
-2.1174370497
 20
-98.5062487204
 10
-4.9082229314
 20
-98.7614197376
 10
-7.6216032055
 20
-99.2165013228
 10
-10.2147862441
 20
-99.8643165675
 10
-12.6468760017
 20
-100.6946490383
 10
-14.8795169698
 20
-101.6944038961
 10
-16.8774990667
 20
-102.8478144096
 10
-18.6093129212
 20
-104.136690606
 10
-20.0476467942
 20
-105.5407061377
 10
-21.1698173015
 20
-107.0377188411
 10
-21.9581271436
 20
-108.6041199316
 10
-22.4001442036
 20
-110.2152063282
 10
-22.4888976082
 20
-111.845570236
 10
-22.2229876634
 20
-113.4694998424
 10
-21.6066079277
 20
-115.0613848073
 10
-20.6494790779
 20
-116.5961201538
 10
-19.3666956076
 20
-118.0495021888
 10
-18.7944575997
 20
-118.5786598669
  0
LWPOLYLINE
  5
7C
330
1F
100
AcDbEntity
  8
0
  6
Continuous
 62
     7
370
    25
100
AcDbPolyline
 90
       19
 70
   128
 43
0.0
 10
19.8422132139
 20
-117.5616328072
 10
19.3666956076
 20
-117.0737634256
 10
17.7784877785
 20
-115.724655405
 10
15.9099025767
 20
-114.5010976383
 10
13.7904087072
 20
-113.4223863624
 10
11.4534318544
 20
-112.5055334984
 10
8.9358275393
 20
-111.7649983637
 10
6.2772998859
 20
-111.2124596398
 10
3.5197754634
 20
-110.8566311924
 10
0.7067420793
 20
-110.7031246488
 10
-2.1174370497
 20
-110.7543608987
 10
-4.9082229314
 20
-111.0095319159
 10
-7.6216032055
 20
-111.4646135011
 10
-10.2147862441
 20
-112.1124287458
 10
-12.6468760017
 20
-112.9427612166
 10
-14.8795169698
 20
-113.9425160744
 10
-16.8774990667
 20
-115.0959265879
 10
-18.6093129212
 20
-116.3848027843
 10
-19.8422132139
 20
-117.5616328072
  0
LWPOLYLINE
  5
7D
330
1F
100
AcDbEntity
  8
0
  6
Continuous
 62
     1
370
    25
100
AcDbPolyline
 90
       82
 70
   128
 43
0.0
 10
218.8964464472
 20
-22.005889514
 10
219.0056566762
 20
-17.3314255793
 10
218.7864635417
 20
-12.2735464772
 10
218.2169036328
 20
-7.2247799593
 10
217.2978890484
 20
-2.1932111694
 10
216.0308915073
 20
2.8131022892
 10
214.4179399918
 20
7.7861432573
 10
212.461617498
 20
12.7179478587
 10
210.1650569001
 20
17.6006182534
 10
207.5319359323
 20
22.4263352855
 10
204.5664713003
 20
27.1873710047
 10
201.2734119282
 20
31.8761010421
 10
197.6580313531
 20
36.4850168196
 10
193.7261192809
 20
41.0067375746
 10
189.4839723137
 20
45.4340221795
 10
184.9383838672
 20
49.7597807376
 10
180.0966332908
 20
53.9770859369
 10
174.9664742113
 20
58.0791841439
 10
169.5561221152
 20
62.0595062184
 10
163.8742411932
 20
65.911678034
 10
157.9299304647
 20
69.6295306851
 10
151.7327092069
 20
73.2071103663
 10
145.2925017102
 20
76.6386879067
 10
138.6196213856
 20
79.9187679445
 10
131.7247542488
 20
83.0420977276
 10
124.6189418072
 20
86.0036755253
 10
117.313563378
 20
88.798758638
 10
109.8203178654
 20
91.4228709924
 10
102.1512050258
 20
93.8718103094
 10
94.3185062512
 20
96.1416548337
 10
86.3347649017
 20
98.2287696142
 10
78.2127662186
 20
100.1298123249
 10
69.9655168496
 20
101.8417386175
 10
61.6062240203
 20
103.3618069967
 10
53.1482743836
 20
104.68758321
 10
44.6052125824
 20
105.8169441465
 10
35.9907195593
 20
106.7480812366
 10
27.3185906472
 20
107.4795033483
 10
18.6027134778
 20
108.0100391751
 10
9.8570457419
 20
108.3388391118
 10
1.0955928368
 20
108.4653766149
 10
-7.6676145612
 20
108.3894490461
 10
-16.4185429667
 20
108.1111779965
 10
-25.1431785574
 20
107.631009092
 10
-33.827549617
 20
106.9497112799
 10
-42.4577489091
 20
106.0683755971
 10
-51.0199559485
 20
104.988413423
 10
-59.5004591332
 20
103.7115542198
 10
-67.885677703
 20
102.2398427622
 10
-76.1621834872
 20
100.5756358631
 10
-84.3167224086
 20
98.7215985998
 10
-92.3362357093
 20
96.6807000456
 10
-100.2078808625
 20
94.4562085154
 10
-107.9190521389
 20
92.0516863315
 10
-115.4574007938
 20
89.4709841191
 10
-122.8108548421
 20
86.71823464
 10
-129.967638391
 20
83.7978461741
 10
-136.9162904975
 20
80.7144954597
 10
-143.6456835224
 20
77.4731202049
 10
-150.1450409501
 20
74.0789111795
 10
-156.4039546464
 20
70.5373039029
 10
-162.4124015259
 20
66.8539699395
 10
-168.1607596032
 20
63.0348078163
 10
-173.6398234017
 20
59.0859335766
 10
-178.8408186952
 20
55.0136709861
 10
-183.7554165592
 20
50.8245414059
 10
-188.3757467088
 20
46.5252533489
 10
-192.6944101023
 20
42.1226917367
 10
-196.70449079
 20
37.6239068746
 10
-200.3995669896
 20
33.0361031603
 10
-203.7737213702
 20
28.3666275476
 10
-206.821550528
 20
23.62295778
 10
-209.5381736397
 20
18.8126904167
 10
-211.9192402787
 20
13.9435286665
 10
-213.9609373815
 20
9.0232700526
 10
-215.6599953546
 20
4.0597939251
 10
-217.0136933099
 20
-0.938951157
 10
-218.0198634224
 20
-5.9649601546
 10
-218.6768944014
 20
-11.010184368
 10
-218.9837340712
 20
-16.0665443259
 10
-218.9398910557
 20
-21.1259427242
 10
-218.8998697651
 20
-21.9436255884
  0
LWPOLYLINE
  5
7E
330
1F
100
AcDbEntity
  8
0
  6
Continuous
 62
     1
370
    25
100
AcDbPolyline
 90
       65
 70
   128
 43
0.0
 10
206.6822546934
 20
-56.3909860191
 10
204.1378771374
 20
-51.6282421059
 10
201.2357593261
 20
-46.884452003
 10
198.0030116906
 20
-42.2124537272
 10
194.4449456269
 20
-37.6199233594
 10
190.567407028
 20
-33.1144064148
 10
186.3767666798
 20
-28.7033054459
 10
181.8799097933
 20
-24.3938678801
 10
177.0842246926
 20
-20.193174112
 10
171.9975906757
 20
-16.1081258705
 10
166.6283650689
 20
-12.1454348789
 10
160.9853694959
 20
-8.3116118283
 10
155.0778753835
 20
-4.6129556799
 10
148.9155887291
 20
-1.0555433159
 10
142.5086341534
 20
2.3547804444
 10
135.867538266
 20
5.612412448
 10
129.0032123699
 20
8.7120004142
 10
121.9269345347
 20
11.648451728
 10
114.6503310662
 20
14.4169418077
 10
107.1853574048
 20
17.0129220313
 10
99.5442784826
 20
19.4321272101
 10
91.7396485723
 20
21.6705825964
 10
83.7842906602
 20
23.7246104138
 10
75.6912753786
 20
25.5908359
 10
67.4738995303
 20
27.2661928515
 10
59.1456642422
 20
28.7479286612
 10
50.7202527831
 20
30.033608841
 10
42.2115080818
 20
31.1211210218
 10
33.6334099836
 20
32.0086784239
 10
25.0000522812
 20
32.6948227929
 10
16.3256195584
 20
33.1784267953
 10
7.6243638856
 20
33.458695871
 10
-1.089418597
 20
33.5351695388
 10
-9.8014111678
 20
33.4077221524
 10
-18.4973000457
 20
33.0765631078
 10
-27.1627979083
 20
32.5422364982
 10
-35.7836673652
 20
31.805620221
 10
-44.3457443505
 20
30.8679245348
 10
-52.8349613944
 20
29.730690071
 10
-61.2373707354
 20
28.3957853029
 10
-69.5391672371
 20
26.8654034756
 10
-77.7267110696
 20
25.1420590024
 10
-85.7865501199
 20
23.2285833337
 10
-93.7054420937
 20
21.128120305
 10
-101.4703762721
 20
18.8441209715
 10
-109.0685948887
 20
16.3803379383
 10
-116.4876140904
 20
13.7408191942
 10
-123.7152444479
 20
10.9299014618
 10
-130.7396109837
 20
7.9522030714
 10
-137.5491726819
 20
4.8126163737
 10
-144.1327414506
 20
1.5162997013
 10
-150.4795005035
 20
-1.931331106
 10
-156.5790221323
 20
-5.5246116
 10
-162.4212848388
 20
-9.2576380301
 10
-167.9966898008
 20
-13.1242770439
 10
-173.2960766426
 20
-17.1181757634
 10
-178.3107384855
 20
-21.2327722237
 10
-183.0324362533
 20
-25.4613061535
 10
-187.4534122089
 20
-29.7968300828
 10
-191.5664027005
 20
-34.232220757
 10
-195.3646500954
 20
-38.7601908409
 10
-198.8419138833
 20
-43.3733008917
 10
-201.9924809287
 20
-48.0639715815
 10
-204.8111748584
 20
-52.8244961507
 10
-206.6837258573
 20
-56.3939500414
  0
LWPOLYLINE
  5
7F
330
1F
100
AcDbEntity
  8
0
  6
Continuous
 62
     1
370
    25
100
AcDbPolyline
 90
       65
 70
   128
 43
0.0
 10
198.1811909331
 20
-67.3079251878
 10
196.8198318971
 20
-64.5462868334
 10
194.2302301677
 20
-59.8797703489
 10
191.3087893481
 20
-55.2790187712
 10
188.0605006711
 20
-50.7518924072
 10
184.4909137834
 20
-46.3061257764
 10
180.6061272642
 20
-41.9493143965
 10
176.4127782062
 20
-37.6889018067
 10
171.9180308758
 20
-33.5321668503
 10
167.1295644736
 20
-29.4862112395
 10
162.055560014
 20
-25.5579474213
 10
156.7046863485
 20
-21.7540867687
 10
151.0860853551
 20
-18.0811281139
 10
145.2093563192
 20
-14.5453466449
 10
139.0845395339
 20
-11.1527831853
 10
132.7220991459
 20
-7.9092338727
 10
126.1329052779
 20
-4.8202402567
 10
119.328215457
 20
-1.8910798311
 10
112.3196553817
 20
0.8732429827
 10
105.1191990593
 20
3.4680053854
 10
97.7391483486
 20
5.8887742691
 10
90.1921119426
 20
8.1314137907
 10
82.4909838262
 20
10.1920924382
 10
74.6489212477
 20
12.0672895767
 10
66.6793222394
 20
13.7538014634
 10
58.5958027276
 20
15.248746721
 10
50.4121732698
 20
16.5495712606
 10
42.1424154596
 20
17.6540526453
 10
33.8006580395
 20
18.5603038871
 10
25.4011527621
 20
19.2667766711
 10
16.9582500414
 20
19.7722640003
 10
8.4863744349
 20
20.0759022581
 10
0.0
 20
20.1771726837
 10
-8.4863744349
 20
20.0759022581
 10
-16.9582500414
 20
19.7722640003
 10
-25.4011527621
 20
19.2667766711
 10
-33.8006580395
 20
18.5603038871
 10
-42.1424154596
 20
17.6540526453
 10
-50.4121732698
 20
16.5495712606
 10
-58.5958027276
 20
15.248746721
 10
-66.6793222394
 20
13.7538014634
 10
-74.6489212477
 20
12.0672895767
 10
-82.4909838262
 20
10.1920924382
 10
-90.1921119426
 20
8.1314137907
 10
-97.7391483486
 20
5.8887742691
 10
-105.1191990593
 20
3.4680053854
 10
-112.3196553817
 20
0.8732429827
 10
-119.328215457
 20
-1.8910798311
 10
-126.1329052779
 20
-4.8202402567
 10
-132.7220991459
 20
-7.9092338727
 10
-139.0845395339
 20
-11.1527831853
 10
-145.2093563192
 20
-14.5453466449
 10
-151.0860853551
 20
-18.0811281139
 10
-156.7046863485
 20
-21.7540867688
 10
-162.055560014
 20
-25.5579474213
 10
-167.1295644736
 20
-29.4862112395
 10
-171.9180308758
 20
-33.5321668503
 10
-176.4127782062
 20
-37.6889018067
 10
-180.6061272642
 20
-41.9493143965
 10
-184.4909137834
 20
-46.3061257764
 10
-188.0605006711
 20
-50.7518924072
 10
-191.3087893481
 20
-55.2790187712
 10
-194.2302301677
 20
-59.8797703489
 10
-196.8198318971
 20
-64.5462868334
 10
-198.19153968
 20
-67.329935627
  0
CIRCLE
  5
80
330
1B
100
AcDbEntity
 67
     1
  8
0
  6
Continuous
 62
     7
370
    25
100
AcDbCircle
 10
0.0
 20
0.0
 30
0.0
 40
245.0000000000001
  0
CIRCLE
  5
81
330
1B
100
AcDbEntity
 67
     1
  8
0
  6
Continuous
 62
     7
370
    25
100
AcDbCircle
 10
0.0
 20
0.0
 30
0.0
 40
240.0000000000001
  0
CIRCLE
  5
82
330
1B
100
AcDbEntity
 67
     1
  8
0
  6
Continuous
 62
     7
370
    25
100
AcDbCircle
 10
0.0
 20
0.0
 30
0.0
 40
219.0083970532614
  0
CIRCLE
  5
83
330
1B
100
AcDbEntity
 67
     1
  8
0
  6
Continuous
 62
     7
370
    25
100
AcDbCircle
 10
0.0
 20
0.0
 30
0.0
 40
215.0000000000001
  0
CIRCLE
  5
84
330
1B
100
AcDbEntity
 67
     1
  8
0
  6
Continuous
 62
     7
370
    25
100
AcDbCircle
 10
0.0
 20
0.0
 30
0.0
 40
205.3570410901105
  0
CIRCLE
  5
85
330
1B
100
AcDbEntity
 67
     1
  8
0
  6
Continuous
 62
     7
370
    25
100
AcDbCircle
 10
0.0
 20
0.0
 30
0.0
 40
32.50000000000003
  0
CIRCLE
  5
86
330
1B
100
AcDbEntity
 67
     1
  8
0
  6
Continuous
 62
     7
370
    25
100
AcDbCircle
 10
0.0
 20
0.0
 30
0.0
 40
22.50000000000001
  0
VIEWPORT
  5
11C
330
1B
100
AcDbEntity
 67
     1
  8
0
100
AcDbViewport
 10
0.0
 20
0.0
 30
0.0
 40
205.6
 41
156.0
 68
     1
 69
     1
 12
0.0001151303
 22
-54.2833382498
 13
0.0
 23
0.0
 14
10.0
 24
10.0
 15
10.0
 25
10.0
 16
0.0
 26
0.0
 36
1.0
 17
0.0
 27
0.0
 37
0.0
 42
50.0
 43
0.0
 44
0.0
 45
393.3262174508
 50
0.0
 51
0.0
 72
   100
 90
   557152
  1

281
     0
 71
     1
 74
     0
110
0.0
120
0.0
130
0.0
111
1.0
121
0.0
131
0.0
112
0.0
122
1.0
132
0.0
 79
     0
146
0.0
170
     0
 61
     5
348
2F
292
     1
282
     1
141
0.0
142
0.0
 63
   256
361
11D
  0
ENDSEC
  0
SECTION
  2
OBJECTS
  0
DICTIONARY
  5
C
330
0
100
AcDbDictionary
281
     1
  3
ACAD_DETAILVIEWSTYLE
350
138
  3
ACAD_GROUP
350
D
  3
ACAD_LAYOUT
350
1A
  3
ACAD_MATERIAL
350
43
  3
ACAD_MLEADERSTYLE
350
6B
  3
ACAD_MLINESTYLE
350
17
  3
ACAD_PLOTSETTINGS
350
19
  3
ACAD_PLOTSTYLENAME
350
E
  3
ACAD_SCALELIST
350
47
  3
ACAD_SECTIONVIEWSTYLE
350
139
  3
ACAD_TABLESTYLE
350
69
  3
ACAD_VISUALSTYLE
350
2A
  3
ACDB_RECOMPOSE_DATA
350
135
  3
AcDbVariableDictionary
350
130
  0
SUN
  5
6D
330
29
100
AcDbSun
 90
        1
290
     0
 63
     7
421
 16777215
 40
1.0
291
     1
 91
  2455826
 92
 54000000
292
     0
 70
     2
 71
   256
280
     1
  0
SUN
  5
11F
330
11E
100
AcDbSun
 90
        1
290
     0
 63
     7
421
 16777215
 40
1.0
291
     1
 91
  2455826
 92
 54000000
292
     0
 70
     2
 71
   256
280
     1
  0
SUN
  5
121
330
120
100
AcDbSun
 90
        1
290
     0
 63
     7
421
 16777215
 40
1.0
291
     1
 91
  2455826
 92
 54000000
292
     0
 70
     2
 71
   256
280
     1
  0
SUN
  5
123
330
122
100
AcDbSun
 90
        1
290
     0
 63
     7
421
 16777215
 40
1.0
291
     1
 91
  2455826
 92
 54000000
292
     0
 70
     2
 71
   256
280
     1
  0
SUN
  5
125
330
124
100
AcDbSun
 90
        1
290
     0
 63
     7
421
 16777215
 40
1.0
291
     1
 91
  2455826
 92
 54000000
292
     0
 70
     2
 71
   256
280
     1
  0
SUN
  5
127
330
126
100
AcDbSun
 90
        1
290
     0
 63
     7
421
 16777215
 40
1.0
291
     1
 91
  2455826
 92
 54000000
292
     0
 70
     2
 71
   256
280
     1
  0
SUN
  5
129
330
128
100
AcDbSun
 90
        1
290
     0
 63
     7
421
 16777215
 40
1.0
291
     1
 91
  2455826
 92
 54000000
292
     0
 70
     2
 71
   256
280
     1
  0
SUN
  5
12B
330
12A
100
AcDbSun
 90
        1
290
     0
 63
     7
421
 16777215
 40
1.0
291
     1
 91
  2455826
 92
 54000000
292
     0
 70
     2
 71
   256
280
     1
  0
SUN
  5
12D
330
12C
100
AcDbSun
 90
        1
290
     0
 63
     7
421
 16777215
 40
1.0
291
     1
 91
  2455826
 92
 54000000
292
     0
 70
     2
 71
   256
280
     1
  0
SUN
  5
12F
330
12E
100
AcDbSun
 90
        1
290
     0
 63
     7
421
 16777215
 40
1.0
291
     1
 91
  2455826
 92
 54000000
292
     0
 70
     2
 71
   256
280
     1
  0
SUN
  5
11D
330
11C
100
AcDbSun
 90
        1
290
     0
 63
     7
421
 16777215
 40
1.0
291
     1
 91
  2455826
 92
 54000000
292
     0
 70
     2
 71
   256
280
     1
  0
DICTIONARY
  5
138
102
{ACAD_REACTORS
330
C
102
}
330
C
100
AcDbDictionary
281
     1
  0
DICTIONARY
  5
D
102
{ACAD_REACTORS
330
C
102
}
330
C
100
AcDbDictionary
281
     1
  0
DICTIONARY
  5
1A
102
{ACAD_REACTORS
330
C
102
}
330
C
100
AcDbDictionary
281
     1
  3
_Dimetrisch
350
10F
  3
_Isometrisch
350
EC
  3
_Links
350
D2
  3
_Normal auf
350
AB
  3
_Oben
350
1E
  3
_Rechts
350
99
  3
_Rückseite
350
C0
  3
_Trimetrisch
350
FD
  3
_Unten
350
E4
  3
_Vorderseite
350
26
  3
Model
350
22
  0
DICTIONARY
  5
43
102
{ACAD_REACTORS
330
C
102
}
330
C
100
AcDbDictionary
281
     1
  3
ByBlock
350
45
  3
ByLayer
350
44
  3
Global
350
46
  0
DICTIONARY
  5
6B
102
{ACAD_REACTORS
330
C
102
}
330
C
100
AcDbDictionary
281
     1
  3
Standard
350
6C
  0
DICTIONARY
  5
17
102
{ACAD_REACTORS
330
C
102
}
330
C
100
AcDbDictionary
281
     1
  3
Standard
350
18
  0
DICTIONARY
  5
19
102
{ACAD_REACTORS
330
C
102
}
330
C
100
AcDbDictionary
281
     1
  0
ACDBDICTIONARYWDFLT
  5
E
102
{ACAD_REACTORS
330
C
102
}
330
C
100
AcDbDictionary
281
     1
  3
Normal
350
F
100
AcDbDictionaryWithDefault
340
F
  0
DICTIONARY
  5
47
102
{ACAD_REACTORS
330
C
102
}
330
C
100
AcDbDictionary
281
     1
  3
A0
350
48
  3
A1
350
49
  3
A2
350
4A
  3
A3
350
4B
  3
A4
350
4C
  3
A5
350
4D
  3
A6
350
4E
  3
A7
350
4F
  3
A8
350
50
  3
A9
350
51
  3
B0
350
52
  3
B1
350
53
  3
B2
350
54
  3
B3
350
55
  3
B4
350
56
  3
B5
350
57
  3
B6
350
58
  3
B7
350
59
  3
B8
350
5A
  3
B9
350
5B
  3
C0
350
5C
  3
C1
350
5D
  3
C2
350
5E
  3
C3
350
5F
  3
C4
350
60
  3
C5
350
61
  3
C6
350
62
  3
C7
350
63
  3
C8
350
64
  3
C9
350
65
  3
D0
350
66
  3
D1
350
67
  3
D2
350
68
  0
DICTIONARY
  5
139
102
{ACAD_REACTORS
330
C
102
}
330
C
100
AcDbDictionary
281
     1
  0
DICTIONARY
  5
69
102
{ACAD_REACTORS
330
C
102
}
330
C
100
AcDbDictionary
281
     1
  3
Standard
350
6A
  0
DICTIONARY
  5
2A
102
{ACAD_REACTORS
330
C
102
}
330
C
100
AcDbDictionary
281
     1
  3
2dWireframe
350
2F
  3
Basic
350
32
  3
Brighten
350
36
  3
ColorChange
350
3A
  3
Conceptual
350
34
  3
Dim
350
35
  3
EdgeColorOff
350
3D
  3
Facepattern
350
39
  3
Flat
350
2B
  3
FlatWithEdges
350
2C
  3
Gouraud
350
2D
  3
GouraudWithEdges
350
2E
  3
Hidden
350
31
  3
JitterOff
350
3B
  3
Linepattern
350
38
  3
OverhangOff
350
3C
  3
Realistic
350
33
  3
Shaded
350
42
  3
Shaded with edges
350
41
  3
Shades of Gray
350
3E
  3
Sketchy
350
3F
  3
Thicken
350
37
  3
Wireframe
350
30
  3
X-Ray
350
40
  0
XRECORD
  5
135
102
{ACAD_REACTORS
330
C
102
}
330
C
100
AcDbXrecord
280
     1
 90
        1
330
6A
  0
DICTIONARY
  5
130
102
{ACAD_REACTORS
330
C
102
}
330
C
100
AcDbDictionary
281
     1
  3
CANNOSCALE
350
131
  3
CMLEADERSTYLE
350
137
  3
CTABLESTYLE
350
136
  0
LAYOUT
  5
10F
102
{ACAD_REACTORS
330
1A
102
}
330
1A
100
AcDbPlotSettings
  1

  2
none_device
  4
ISO_A4_(210.00_x_297.00_MM)
  6

 40
7.5
 41
20.0
 42
7.5
 43
20.0
 44
210.0
 45
297.0
 46
0.0
 47
0.0
 48
0.0
 49
0.0
140
0.0
141
0.0
142
1.0
143
2.5128205128
 70
   688
 72
     1
 73
     1
 74
     1
  7

 75
     0
 76
     0
 77
     2
 78
   300
147
0.3979591837
148
245.0
149
245.0
100
AcDbLayout
  1
_Dimetrisch
 70
     1
 71
    10
 10
0.0
 20
0.0
 11
0.0
 21
0.0
 12
0.0
 22
0.0
 32
0.0
 14
0.0
 24
0.0
 34
0.0
 15
0.0
 25
0.0
 35
0.0
146
0.0
 13
0.0
 23
0.0
 33
0.0
 16
1.0
 26
0.0
 36
0.0
 17
0.0
 27
1.0
 37
0.0
 76
     0
330
10E
331
12E
  0
LAYOUT
  5
EC
102
{ACAD_REACTORS
330
1A
102
}
330
1A
100
AcDbPlotSettings
  1

  2
none_device
  4
ISO_A4_(210.00_x_297.00_MM)
  6

 40
7.5
 41
20.0
 42
7.5
 43
20.0
 44
210.0
 45
297.0
 46
0.0
 47
0.0
 48
0.0
 49
0.0
140
0.0
141
0.0
142
1.0
143
2.5128205128
 70
   688
 72
     1
 73
     1
 74
     1
  7

 75
     0
 76
     0
 77
     2
 78
   300
147
0.3979591837
148
245.0
149
245.0
100
AcDbLayout
  1
_Isometrisch
 70
     1
 71
     8
 10
0.0
 20
0.0
 11
0.0
 21
0.0
 12
0.0
 22
0.0
 32
0.0
 14
0.0
 24
0.0
 34
0.0
 15
0.0
 25
0.0
 35
0.0
146
0.0
 13
0.0
 23
0.0
 33
0.0
 16
1.0
 26
0.0
 36
0.0
 17
0.0
 27
1.0
 37
0.0
 76
     0
330
EB
331
12A
  0
LAYOUT
  5
D2
102
{ACAD_REACTORS
330
1A
102
}
330
1A
100
AcDbPlotSettings
  1

  2
none_device
  4
ISO_A4_(210.00_x_297.00_MM)
  6

 40
7.5
 41
20.0
 42
7.5
 43
20.0
 44
210.0
 45
297.0
 46
0.0
 47
0.0
 48
0.0
 49
0.0
140
0.0
141
0.0
142
1.0
143
2.5128205128
 70
   688
 72
     1
 73
     1
 74
     1
  7

 75
     0
 76
     0
 77
     2
 78
   300
147
0.3979591837
148
245.0
149
245.0
100
AcDbLayout
  1
_Links
 70
     1
 71
     6
 10
0.0
 20
0.0
 11
0.0
 21
0.0
 12
0.0
 22
0.0
 32
0.0
 14
0.0
 24
0.0
 34
0.0
 15
0.0
 25
0.0
 35
0.0
146
0.0
 13
0.0
 23
0.0
 33
0.0
 16
1.0
 26
0.0
 36
0.0
 17
0.0
 27
1.0
 37
0.0
 76
     0
330
D1
331
126
  0
LAYOUT
  5
AB
102
{ACAD_REACTORS
330
1A
102
}
330
1A
100
AcDbPlotSettings
  1

  2
none_device
  4
ISO_A4_(210.00_x_297.00_MM)
  6

 40
7.5
 41
20.0
 42
7.5
 43
20.0
 44
210.0
 45
297.0
 46
0.0
 47
0.0
 48
0.0
 49
0.0
140
0.0
141
0.0
142
1.0
143
2.5128205128
 70
   688
 72
     1
 73
     1
 74
     1
  7

 75
     0
 76
     0
 77
     2
 78
   300
147
0.3979591837
148
245.0
149
245.0
100
AcDbLayout
  1
_Normal auf
 70
     1
 71
     4
 10
0.0
 20
0.0
 11
0.0
 21
0.0
 12
0.0
 22
0.0
 32
0.0
 14
0.0
 24
0.0
 34
0.0
 15
0.0
 25
0.0
 35
0.0
146
0.0
 13
0.0
 23
0.0
 33
0.0
 16
1.0
 26
0.0
 36
0.0
 17
0.0
 27
1.0
 37
0.0
 76
     0
330
AA
331
122
  0
LAYOUT
  5
1E
102
{ACAD_REACTORS
330
1A
102
}
330
1A
100
AcDbPlotSettings
  1

  2
none_device
  4
ISO_A4_(210.00_x_297.00_MM)
  6

 40
7.5
 41
20.0
 42
7.5
 43
20.0
 44
210.0
 45
297.0
 46
0.0
 47
0.0
 48
0.0
 49
0.0
140
0.0
141
0.0
142
1.0
143
2.5128205128
 70
   688
 72
     1
 73
     1
 74
     1
  7

 75
     0
 76
     0
 77
     2
 78
   300
147
0.3979591837
148
245.0
149
245.0
100
AcDbLayout
  1
_Oben
 70
     1
 71
     1
 10
-295.2564102564
 20
-263.8461538462
 11
451.0512820512
 21
263.8461538462
 12
0.0
 22
0.0
 32
0.0
 14
-245.0
 24
-245.0
 34
0.0
 15
245.0
 25
245.0
 35
0.0
146
0.0
 13
0.0
 23
0.0
 33
0.0
 16
1.0
 26
0.0
 36
0.0
 17
0.0
 27
1.0
 37
0.0
 76
     0
330
1B
331
11C
  0
LAYOUT
  5
99
102
{ACAD_REACTORS
330
1A
102
}
330
1A
100
AcDbPlotSettings
  1

  2
none_device
  4
ISO_A4_(210.00_x_297.00_MM)
  6

 40
7.5
 41
20.0
 42
7.5
 43
20.0
 44
210.0
 45
297.0
 46
0.0
 47
0.0
 48
0.0
 49
0.0
140
0.0
141
0.0
142
1.0
143
2.5128205128
 70
   688
 72
     1
 73
     1
 74
     1
  7

 75
     0
 76
     0
 77
     2
 78
   300
147
0.3979591837
148
245.0
149
245.0
100
AcDbLayout
  1
_Rechts
 70
     1
 71
     3
 10
0.0
 20
0.0
 11
0.0
 21
0.0
 12
0.0
 22
0.0
 32
0.0
 14
0.0
 24
0.0
 34
0.0
 15
0.0
 25
0.0
 35
0.0
146
0.0
 13
0.0
 23
0.0
 33
0.0
 16
1.0
 26
0.0
 36
0.0
 17
0.0
 27
1.0
 37
0.0
 76
     0
330
98
331
120
  0
LAYOUT
  5
C0
102
{ACAD_REACTORS
330
1A
102
}
330
1A
100
AcDbPlotSettings
  1

  2
none_device
  4
ISO_A4_(210.00_x_297.00_MM)
  6

 40
7.5
 41
20.0
 42
7.5
 43
20.0
 44
210.0
 45
297.0
 46
0.0
 47
0.0
 48
0.0
 49
0.0
140
0.0
141
0.0
142
1.0
143
2.5128205128
 70
   688
 72
     1
 73
     1
 74
     1
  7

 75
     0
 76
     0
 77
     2
 78
   300
147
0.3979591837
148
245.0
149
245.0
100
AcDbLayout
  1
_Rückseite
 70
     1
 71
     5
 10
0.0
 20
0.0
 11
0.0
 21
0.0
 12
0.0
 22
0.0
 32
0.0
 14
0.0
 24
0.0
 34
0.0
 15
0.0
 25
0.0
 35
0.0
146
0.0
 13
0.0
 23
0.0
 33
0.0
 16
1.0
 26
0.0
 36
0.0
 17
0.0
 27
1.0
 37
0.0
 76
     0
330
BF
331
124
  0
LAYOUT
  5
FD
102
{ACAD_REACTORS
330
1A
102
}
330
1A
100
AcDbPlotSettings
  1

  2
none_device
  4
ISO_A4_(210.00_x_297.00_MM)
  6

 40
7.5
 41
20.0
 42
7.5
 43
20.0
 44
210.0
 45
297.0
 46
0.0
 47
0.0
 48
0.0
 49
0.0
140
0.0
141
0.0
142
1.0
143
2.5128205128
 70
   688
 72
     1
 73
     1
 74
     1
  7

 75
     0
 76
     0
 77
     2
 78
   300
147
0.3979591837
148
245.0
149
245.0
100
AcDbLayout
  1
_Trimetrisch
 70
     1
 71
     9
 10
0.0
 20
0.0
 11
0.0
 21
0.0
 12
0.0
 22
0.0
 32
0.0
 14
0.0
 24
0.0
 34
0.0
 15
0.0
 25
0.0
 35
0.0
146
0.0
 13
0.0
 23
0.0
 33
0.0
 16
1.0
 26
0.0
 36
0.0
 17
0.0
 27
1.0
 37
0.0
 76
     0
330
FC
331
12C
  0
LAYOUT
  5
E4
102
{ACAD_REACTORS
330
1A
102
}
330
1A
100
AcDbPlotSettings
  1

  2
none_device
  4
ISO_A4_(210.00_x_297.00_MM)
  6

 40
7.5
 41
20.0
 42
7.5
 43
20.0
 44
210.0
 45
297.0
 46
0.0
 47
0.0
 48
0.0
 49
0.0
140
0.0
141
0.0
142
1.0
143
2.5128205128
 70
   688
 72
     1
 73
     1
 74
     1
  7

 75
     0
 76
     0
 77
     2
 78
   300
147
0.3979591837
148
245.0
149
245.0
100
AcDbLayout
  1
_Unten
 70
     1
 71
     7
 10
0.0
 20
0.0
 11
0.0
 21
0.0
 12
0.0
 22
0.0
 32
0.0
 14
0.0
 24
0.0
 34
0.0
 15
0.0
 25
0.0
 35
0.0
146
0.0
 13
0.0
 23
0.0
 33
0.0
 16
1.0
 26
0.0
 36
0.0
 17
0.0
 27
1.0
 37
0.0
 76
     0
330
E3
331
128
  0
LAYOUT
  5
26
102
{ACAD_REACTORS
330
1A
102
}
330
1A
100
AcDbPlotSettings
  1

  2
none_device
  4
ISO_A4_(210.00_x_297.00_MM)
  6

 40
7.5
 41
20.0
 42
7.5
 43
20.0
 44
210.0
 45
297.0
 46
0.0
 47
0.0
 48
0.0
 49
0.0
140
0.0
141
0.0
142
1.0
143
2.5128205128
 70
   688
 72
     1
 73
     1
 74
     1
  7

 75
     0
 76
     0
 77
     2
 78
   300
147
0.3979591837
148
245.0
149
245.0
100
AcDbLayout
  1
_Vorderseite
 70
     1
 71
     2
 10
0.0
 20
0.0
 11
0.0
 21
0.0
 12
0.0
 22
0.0
 32
0.0
 14
0.0
 24
0.0
 34
0.0
 15
0.0
 25
0.0
 35
0.0
146
0.0
 13
0.0
 23
0.0
 33
0.0
 16
1.0
 26
0.0
 36
0.0
 17
0.0
 27
1.0
 37
0.0
 76
     0
330
23
331
11E
  0
LAYOUT
  5
22
102
{ACAD_REACTORS
330
1A
102
}
330
1A
100
AcDbPlotSettings
  1

  2
none_device
  4
ANSI_A_(11.00_x_8.50_Inches)
  6

 40
6.35
 41
19.05
 42
6.35000508
 43
19.05000254
 44
279.4
 45
215.9
 46
133.3499336447
 47
118.988576546
 48
0.0
 49
0.0
140
0.0
141
0.0
142
0.0218223439
143
1.0
 70
  1696
 72
     0
 73
     0
 74
     0
  7

 75
     0
 76
     0
 77
     2
 78
   300
147
0.0179189148
148
-1300.4909072572
149
0.0
100
AcDbLayout
  1
Model
 70
     1
 71
     0
 10
0.0
 20
0.0
 11
420.0
 21
297.0
 12
0.0
 22
0.0
 32
0.0
 14
-244.9931935261
 24
-247.0903075884
 34
0.0
 15
244.9934237867
 25
138.5236310889
 35
0.0
146
0.0
 13
0.0
 23
0.0
 33
0.0
 16
1.0
 26
0.0
 36
0.0
 17
0.0
 27
1.0
 37
0.0
 76
     0
330
1F
331
29
  0
MATERIAL
  5
45
102
{ACAD_REACTORS
330
43
102
}
330
43
100
AcDbMaterial
  1
ByBlock
 72
     1
 94
      127
  0
MATERIAL
  5
44
102
{ACAD_REACTORS
330
43
102
}
330
43
100
AcDbMaterial
  1
ByLayer
 72
     1
 94
      127
  0
MATERIAL
  5
46
102
{ACAD_REACTORS
330
43
102
}
330
43
100
AcDbMaterial
  1
Global
 72
     1
 94
      127
  0
MLEADERSTYLE
  5
6C
102
{ACAD_REACTORS
330
6B
102
}
330
6B
100
AcDbMLeaderStyle
170
     2
171
     1
172
     0
 90
        2
 40
0.0
 41
0.0
173
     1
 91
-1056964608
340
14
 92
       -2
290
     1
 42
2.0
291
     1
 43
8.0
  3
Standard
341
0
 44
4.0
300

342
11
174
     1
178
     6
175
     1
176
     0
 93
-1056964608
 45
4.0
292
     0
297
     0
 46
4.0
343
0
 94
-1056964608
 47
1.0
 49
1.0
140
1.0
293
     1
141
0.0
294
     1
177
     0
142
1.0
295
     0
296
     0
143
3.75
1001
ACAD_MLEADERVER
1070
     2
  0
MLINESTYLE
  5
18
102
{ACAD_REACTORS
330
17
102
}
330
17
100
AcDbMlineStyle
  2
Standard
 70
     0
  3

 62
   256
 51
90.0
 52
90.0
 71
     2
 49
0.5
 62
   256
  6
BYLAYER
 49
-0.5
 62
   256
  6
BYLAYER
  0
ACDBPLACEHOLDER
  5
F
102
{ACAD_REACTORS
330
E
102
}
330
E
  0
SCALE
  5
48
102
{ACAD_REACTORS
330
47
102
}
330
47
100
AcDbScale
 70
     0
300
1:1
140
1.0
141
1.0
290
     1
  0
SCALE
  5
49
102
{ACAD_REACTORS
330
47
102
}
330
47
100
AcDbScale
 70
     0
300
1:2
140
1.0
141
2.0
290
     0
  0
SCALE
  5
4A
102
{ACAD_REACTORS
330
47
102
}
330
47
100
AcDbScale
 70
     0
300
1:4
140
1.0
141
4.0
290
     0
  0
SCALE
  5
4B
102
{ACAD_REACTORS
330
47
102
}
330
47
100
AcDbScale
 70
     0
300
1:5
140
1.0
141
5.0
290
     0
  0
SCALE
  5
4C
102
{ACAD_REACTORS
330
47
102
}
330
47
100
AcDbScale
 70
     0
300
1:8
140
1.0
141
8.0
290
     0
  0
SCALE
  5
4D
102
{ACAD_REACTORS
330
47
102
}
330
47
100
AcDbScale
 70
     0
300
1:10
140
1.0
141
10.0
290
     0
  0
SCALE
  5
4E
102
{ACAD_REACTORS
330
47
102
}
330
47
100
AcDbScale
 70
     0
300
1:16
140
1.0
141
16.0
290
     0
  0
SCALE
  5
4F
102
{ACAD_REACTORS
330
47
102
}
330
47
100
AcDbScale
 70
     0
300
1:20
140
1.0
141
20.0
290
     0
  0
SCALE
  5
50
102
{ACAD_REACTORS
330
47
102
}
330
47
100
AcDbScale
 70
     0
300
1:30
140
1.0
141
30.0
290
     0
  0
SCALE
  5
51
102
{ACAD_REACTORS
330
47
102
}
330
47
100
AcDbScale
 70
     0
300
1:40
140
1.0
141
40.0
290
     0
  0
SCALE
  5
52
102
{ACAD_REACTORS
330
47
102
}
330
47
100
AcDbScale
 70
     0
300
1:50
140
1.0
141
50.0
290
     0
  0
SCALE
  5
53
102
{ACAD_REACTORS
330
47
102
}
330
47
100
AcDbScale
 70
     0
300
1:100
140
1.0
141
100.0
290
     0
  0
SCALE
  5
54
102
{ACAD_REACTORS
330
47
102
}
330
47
100
AcDbScale
 70
     0
300
2:1
140
2.0
141
1.0
290
     0
  0
SCALE
  5
55
102
{ACAD_REACTORS
330
47
102
}
330
47
100
AcDbScale
 70
     0
300
4:1
140
4.0
141
1.0
290
     0
  0
SCALE
  5
56
102
{ACAD_REACTORS
330
47
102
}
330
47
100
AcDbScale
 70
     0
300
8:1
140
8.0
141
1.0
290
     0
  0
SCALE
  5
57
102
{ACAD_REACTORS
330
47
102
}
330
47
100
AcDbScale
 70
     0
300
10:1
140
10.0
141
1.0
290
     0
  0
SCALE
  5
58
102
{ACAD_REACTORS
330
47
102
}
330
47
100
AcDbScale
 70
     0
300
100:1
140
100.0
141
1.0
290
     0
  0
SCALE
  5
59
102
{ACAD_REACTORS
330
47
102
}
330
47
100
AcDbScale
 70
     0
300
1/128" = 1'-0"
140
0.0078125
141
12.0
290
     0
  0
SCALE
  5
5A
102
{ACAD_REACTORS
330
47
102
}
330
47
100
AcDbScale
 70
     0
300
1/64" = 1'-0"
140
0.015625
141
12.0
290
     0
  0
SCALE
  5
5B
102
{ACAD_REACTORS
330
47
102
}
330
47
100
AcDbScale
 70
     0
300
1/32" = 1'-0"
140
0.03125
141
12.0
290
     0
  0
SCALE
  5
5C
102
{ACAD_REACTORS
330
47
102
}
330
47
100
AcDbScale
 70
     0
300
1/16" = 1'-0"
140
0.0625
141
12.0
290
     0
  0
SCALE
  5
5D
102
{ACAD_REACTORS
330
47
102
}
330
47
100
AcDbScale
 70
     0
300
3/32" = 1'-0"
140
0.09375
141
12.0
290
     0
  0
SCALE
  5
5E
102
{ACAD_REACTORS
330
47
102
}
330
47
100
AcDbScale
 70
     0
300
1/8" = 1'-0"
140
0.125
141
12.0
290
     0
  0
SCALE
  5
5F
102
{ACAD_REACTORS
330
47
102
}
330
47
100
AcDbScale
 70
     0
300
3/16" = 1'-0"
140
0.1875
141
12.0
290
     0
  0
SCALE
  5
60
102
{ACAD_REACTORS
330
47
102
}
330
47
100
AcDbScale
 70
     0
300
1/4" = 1'-0"
140
0.25
141
12.0
290
     0
  0
SCALE
  5
61
102
{ACAD_REACTORS
330
47
102
}
330
47
100
AcDbScale
 70
     0
300
3/8" = 1'-0"
140
0.375
141
12.0
290
     0
  0
SCALE
  5
62
102
{ACAD_REACTORS
330
47
102
}
330
47
100
AcDbScale
 70
     0
300
1/2" = 1'-0"
140
0.5
141
12.0
290
     0
  0
SCALE
  5
63
102
{ACAD_REACTORS
330
47
102
}
330
47
100
AcDbScale
 70
     0
300
3/4" = 1'-0"
140
0.75
141
12.0
290
     0
  0
SCALE
  5
64
102
{ACAD_REACTORS
330
47
102
}
330
47
100
AcDbScale
 70
     0
300
1" = 1'-0"
140
1.0
141
12.0
290
     0
  0
SCALE
  5
65
102
{ACAD_REACTORS
330
47
102
}
330
47
100
AcDbScale
 70
     0
300
1-1/2" = 1'-0"
140
1.5
141
12.0
290
     0
  0
SCALE
  5
66
102
{ACAD_REACTORS
330
47
102
}
330
47
100
AcDbScale
 70
     0
300
3" = 1'-0"
140
3.0
141
12.0
290
     0
  0
SCALE
  5
67
102
{ACAD_REACTORS
330
47
102
}
330
47
100
AcDbScale
 70
     0
300
6" = 1'-0"
140
6.0
141
12.0
290
     0
  0
SCALE
  5
68
102
{ACAD_REACTORS
330
47
102
}
330
47
100
AcDbScale
 70
     0
300
1'-0" = 1'-0"
140
12.0
141
12.0
290
     0
  0
TABLESTYLE
  5
6A
102
{ACAD_REACTORS
330
69
102
}
102
{ACAD_XDICTIONARY
360
132
102
}
330
69
100
AcDbTableStyle
  3
Standard
 70
     0
 71
     0
 40
0.06
 41
0.06
280
     0
281
     0
  7
Standard
140
4.5
170
     2
 62
     0
 63
   257
283
     0
 90
        4
 91
        0
  1

274
    -2
284
     1
 64
     0
275
    -2
285
     1
 65
     0
276
    -2
286
     1
 66
     0
277
    -2
287
     1
 67
     0
278
    -2
288
     1
 68
     0
279
    -2
289
     1
 69
     0
  7
Standard
140
6.0
170
     5
 62
     0
 63
   257
283
     0
 90
        4
 91
        0
  1

274
    -2
284
     1
 64
     0
275
    -2
285
     1
 65
     0
276
    -2
286
     1
 66
     0
277
    -2
287
     1
 67
     0
278
    -2
288
     1
 68
     0
279
    -2
289
     1
 69
     0
  7
Standard
140
4.5
170
     5
 62
     0
 63
   257
283
     0
 90
        4
 91
        0
  1

274
    -2
284
     1
 64
     0
275
    -2
285
     1
 65
     0
276
    -2
286
     1
 66
     0
277
    -2
287
     1
 67
     0
278
    -2
288
     1
 68
     0
279
    -2
289
     1
 69
     0
  0
VISUALSTYLE
  5
2F
102
{ACAD_REACTORS
330
2A
102
}
330
2A
100
AcDbVisualStyle
  2
2dWireframe
 70
     4
 71
     0
 72
     2
 73
     0
 90
        0
 40
0.6
 41
30.0
 62
     5
 63
     7
421
 16777215
 74
     1
 91
        4
 64
     7
 65
   257
 75
     1
175
     1
 42
1.0
 92
        0
 66
   257
 43
1.0
 76
     1
 77
     6
 78
     2
 67
     7
 79
     5
170
     0
171
     0
290
     0
174
     0
 93
        1
 44
0.0
173
     0
291
     0
 45
0.0
  0
VISUALSTYLE
  5
32
102
{ACAD_REACTORS
330
2A
102
}
330
2A
100
AcDbVisualStyle
  2
Basic
 70
     7
 71
     1
 72
     0
 73
     1
 90
        0
 40
0.6
 41
30.0
 62
     5
 63
     7
421
 16777215
 74
     0
 91
        4
 64
     7
 65
   257
 75
     1
175
     1
 42
1.0
 92
        8
 66
     7
 43
1.0
 76
     1
 77
     6
 78
     2
 67
     7
 79
     5
170
     0
171
     0
290
     0
174
     0
 93
        1
 44
0.0
173
     0
291
     1
 45
0.0
  0
VISUALSTYLE
  5
36
102
{ACAD_REACTORS
330
2A
102
}
330
2A
100
AcDbVisualStyle
  2
Brighten
 70
    12
 71
     2
 72
     2
 73
     0
 90
        0
 40
0.6
 41
30.0
 62
     5
 63
     7
421
 16777215
 74
     1
 91
        4
 64
     7
 65
   257
 75
     1
175
     1
 42
1.0
 92
        8
 66
     7
 43
1.0
 76
     1
 77
     6
 78
     2
 67
     7
 79
     5
170
     0
171
     0
290
     0
174
     0
 93
        1
 44
50.0
173
     0
291
     1
 45
0.0
  0
VISUALSTYLE
  5
3A
102
{ACAD_REACTORS
330
2A
102
}
330
2A
100
AcDbVisualStyle
  2
ColorChange
 70
    16
 71
     2
 72
     2
 73
     3
 90
        0
 40
0.6
 41
30.0
 62
     5
 63
     8
421
  8421504
 74
     1
 91
        4
 64
     7
 65
   257
 75
     1
175
     1
 42
1.0
 92
        8
 66
     8
424
  8421504
 43
1.0
 76
     1
 77
     6
 78
     2
 67
     7
 79
     5
170
     0
171
     0
290
     0
174
     0
 93
        1
 44
0.0
173
     0
291
     1
 45
0.0
  0
VISUALSTYLE
  5
34
102
{ACAD_REACTORS
330
2A
102
}
330
2A
100
AcDbVisualStyle
  2
Conceptual
 70
     9
 71
     3
 72
     2
 73
     0
 90
        0
 40
0.6
 41
30.0
 62
     5
 63
     7
421
 16777215
 74
     2
 91
        2
 64
     7
 65
   257
 75
     1
175
     1
 42
179.0
 92
        8
 66
     7
 43
1.0
 76
     1
 77
     6
 78
     2
 67
     7
 79
     3
170
     0
171
     0
290
     0
174
     0
 93
        1
 44
0.0
173
     0
291
     0
 45
0.0
  0
VISUALSTYLE
  5
35
102
{ACAD_REACTORS
330
2A
102
}
330
2A
100
AcDbVisualStyle
  2
Dim
 70
    11
 71
     2
 72
     2
 73
     0
 90
        0
 40
0.6
 41
30.0
 62
     5
 63
     7
421
 16777215
 74
     1
 91
        4
 64
     7
 65
   257
 75
     1
175
     1
 42
1.0
 92
        8
 66
     7
 43
1.0
 76
     1
 77
     6
 78
     2
 67
     7
 79
     5
170
     0
171
     0
290
     0
174
     0
 93
        1
 44
-50.0
173
     0
291
     1
 45
0.0
  0
VISUALSTYLE
  5
3D
102
{ACAD_REACTORS
330
2A
102
}
330
2A
100
AcDbVisualStyle
  2
EdgeColorOff
 70
    22
 71
     2
 72
     2
 73
     0
 90
        0
 40
0.6
 41
30.0
 62
     5
 63
     7
421
 16777215
 74
     1
 91
        4
 64
     7
 65
   257
 75
     1
175
     1
 42
1.0
 92
        8
 66
     7
 43
1.0
 76
     1
 77
     6
 78
     2
 67
     7
 79
     5
170
     0
171
     0
290
     0
174
     0
 93
        1
 44
0.0
173
     0
291
     1
 45
0.0
  0
VISUALSTYLE
  5
39
102
{ACAD_REACTORS
330
2A
102
}
330
2A
100
AcDbVisualStyle
  2
Facepattern
 70
    15
 71
     2
 72
     2
 73
     0
 90
        0
 40
0.6
 41
30.0
 62
     5
 63
     7
421
 16777215
 74
     1
 91
        4
 64
     7
 65
   257
 75
     1
175
     1
 42
1.0
 92
        8
 66
     7
 43
1.0
 76
     1
 77
     6
 78
     2
 67
     7
 79
     5
170
     0
171
     0
290
     0
174
     0
 93
        1
 44
0.0
173
     0
291
     1
 45
0.0
  0
VISUALSTYLE
  5
2B
102
{ACAD_REACTORS
330
2A
102
}
330
2A
100
AcDbVisualStyle
  2
Flat
 70
     0
 71
     2
 72
     1
 73
     1
 90
        2
 40
0.6
 41
30.0
 62
     5
 63
     7
421
 16777215
 74
     0
 91
        0
 64
     7
 65
   257
 75
     1
175
     1
 42
1.0
 92
        8
 66
     7
 43
1.0
 76
     1
 77
     6
 78
     2
 67
     7
 79
     5
170
     0
171
     0
290
     0
174
     0
 93
       13
 44
0.0
173
     0
291
     1
 45
0.0
  0
VISUALSTYLE
  5
2C
102
{ACAD_REACTORS
330
2A
102
}
330
2A
100
AcDbVisualStyle
  2
FlatWithEdges
 70
     1
 71
     2
 72
     1
 73
     1
 90
        2
 40
0.6
 41
30.0
 62
     5
 63
     7
421
 16777215
 74
     1
 91
        0
 64
     7
 65
   257
 75
     1
175
     1
 42
1.0
 92
        0
 66
   257
 43
1.0
 76
     1
 77
     6
 78
     2
 67
     7
 79
     5
170
     0
171
     0
290
     0
174
     0
 93
       13
 44
0.0
173
     0
291
     1
 45
0.0
  0
VISUALSTYLE
  5
2D
102
{ACAD_REACTORS
330
2A
102
}
330
2A
100
AcDbVisualStyle
  2
Gouraud
 70
     2
 71
     2
 72
     2
 73
     1
 90
        2
 40
0.6
 41
30.0
 62
     5
 63
     7
421
 16777215
 74
     0
 91
        0
 64
     7
 65
   257
 75
     1
175
     1
 42
1.0
 92
        0
 66
     7
 43
1.0
 76
     1
 77
     6
 78
     2
 67
     7
 79
     5
170
     0
171
     0
290
     0
174
     0
 93
       13
 44
0.0
173
     0
291
     1
 45
0.0
  0
VISUALSTYLE
  5
2E
102
{ACAD_REACTORS
330
2A
102
}
330
2A
100
AcDbVisualStyle
  2
GouraudWithEdges
 70
     3
 71
     2
 72
     2
 73
     1
 90
        2
 40
0.6
 41
30.0
 62
     5
 63
     7
421
 16777215
 74
     1
 91
        0
 64
     7
 65
   257
 75
     1
175
     1
 42
1.0
 92
        0
 66
   257
 43
1.0
 76
     1
 77
     6
 78
     2
 67
     7
 79
     5
170
     0
171
     0
290
     0
174
     0
 93
       13
 44
0.0
173
     0
291
     1
 45
0.0
  0
VISUALSTYLE
  5
31
102
{ACAD_REACTORS
330
2A
102
}
330
2A
100
AcDbVisualStyle
  2
Hidden
 70
     6
 71
     1
 72
     2
 73
     2
 90
        0
 40
0.6
 41
30.0
 62
     5
 63
     7
421
 16777215
 74
     2
 91
        2
 64
     7
 65
   257
 75
     2
175
     1
 42
40.0
 92
        0
 66
   257
 43
1.0
 76
     1
 77
     6
 78
     2
 67
     7
 79
     3
170
     0
171
     0
290
     0
174
     0
 93
        1
 44
0.0
173
     0
291
     0
 45
0.0
  0
VISUALSTYLE
  5
3B
102
{ACAD_REACTORS
330
2A
102
}
330
2A
100
AcDbVisualStyle
  2
JitterOff
 70
    20
 71
     2
 72
     2
 73
     0
 90
        0
 40
0.6
 41
30.0
 62
     5
 63
     7
421
 16777215
 74
     1
 91
        4
 64
     7
 65
   257
 75
     1
175
     1
 42
1.0
 92
       10
 66
     7
 43
1.0
 76
     1
 77
     6
 78
     2
 67
     7
 79
     5
170
     0
171
     0
290
     0
174
     0
 93
        1
 44
0.0
173
     0
291
     1
 45
0.0
  0
VISUALSTYLE
  5
38
102
{ACAD_REACTORS
330
2A
102
}
330
2A
100
AcDbVisualStyle
  2
Linepattern
 70
    14
 71
     2
 72
     2
 73
     0
 90
        0
 40
0.6
 41
30.0
 62
     5
 63
     7
421
 16777215
 74
     1
 91
        4
 64
     7
 65
   257
 75
     7
175
     7
 42
1.0
 92
        8
 66
     7
 43
1.0
 76
     1
 77
     6
 78
     2
 67
     7
 79
     5
170
     0
171
     0
290
     0
174
     0
 93
        1
 44
0.0
173
     0
291
     1
 45
0.0
  0
VISUALSTYLE
  5
3C
102
{ACAD_REACTORS
330
2A
102
}
330
2A
100
AcDbVisualStyle
  2
OverhangOff
 70
    21
 71
     2
 72
     2
 73
     0
 90
        0
 40
0.6
 41
30.0
 62
     5
 63
     7
421
 16777215
 74
     1
 91
        4
 64
     7
 65
   257
 75
     1
175
     1
 42
1.0
 92
        9
 66
     7
 43
1.0
 76
     1
 77
     6
 78
     2
 67
     7
 79
     5
170
     0
171
     0
290
     0
174
     0
 93
        1
 44
0.0
173
     0
291
     1
 45
0.0
  0
VISUALSTYLE
  5
33
102
{ACAD_REACTORS
330
2A
102
}
330
2A
100
AcDbVisualStyle
  2
Realistic
 70
     8
 71
     2
 72
     3
 73
     0
 90
        2
 40
0.6
 41
30.0
 62
     5
 63
     7
421
 16777215
 74
     0
 91
        0
 64
     7
 65
   257
 75
     1
175
     1
 42
1.0
 92
        8
 66
   257
 43
1.0
 76
     1
 77
     6
 78
     2
 67
     7
 79
     3
170
     0
171
     0
290
     0
174
     0
 93
       13
 44
0.0
173
     0
291
     0
 45
0.0
  0
VISUALSTYLE
  5
42
102
{ACAD_REACTORS
330
2A
102
}
330
2A
100
AcDbVisualStyle
  2
Shaded
 70
    27
 71
     2
 72
     2
 73
     1
 90
        2
 40
0.6
 41
30.0
 62
     5
 63
     7
421
 16777215
 74
     0
 91
        4
 64
     7
 65
   257
 75
     1
175
     1
 42
1.0
 92
        8
 66
   257
 43
1.0
 76
     1
 77
     6
 78
     2
 67
     8
425
  7895160
 79
     3
170
     0
171
     0
290
     0
174
     0
 93
        5
 44
0.0
173
     0
291
     0
 45
0.0
  0
VISUALSTYLE
  5
41
102
{ACAD_REACTORS
330
2A
102
}
330
2A
100
AcDbVisualStyle
  2
Shaded with edges
 70
    26
 71
     2
 72
     2
 73
     1
 90
        2
 40
0.6
 41
30.0
 62
     5
 63
     7
421
 16777215
 74
     1
 91
       10
 64
     7
 65
   257
 75
     2
175
     1
 42
1.0
 92
        8
 66
   257
 43
1.0
 76
     1
 77
     6
 78
     2
 67
     7
 79
     3
170
     0
171
     0
290
     0
174
     0
 93
        5
 44
0.0
173
     0
291
     0
 45
0.0
  0
VISUALSTYLE
  5
3E
102
{ACAD_REACTORS
330
2A
102
}
330
2A
100
AcDbVisualStyle
  2
Shades of Gray
 70
    23
 71
     2
 72
     2
 73
     3
 90
        0
 40
0.6
 41
30.0
 62
     5
 63
     7
421
 16777215
 74
     2
 91
        2
 64
     7
 65
     7
 75
     1
175
     1
 42
40.0
 92
        8
 66
     7
 43
1.0
 76
     1
 77
     6
 78
     2
 67
     7
 79
     3
170
     0
171
     0
290
     0
174
     0
 93
        1
 44
0.0
173
     0
291
     0
 45
0.0
  0
VISUALSTYLE
  5
3F
102
{ACAD_REACTORS
330
2A
102
}
330
2A
100
AcDbVisualStyle
  2
Sketchy
 70
    24
 71
     1
 72
     2
 73
     2
 90
        0
 40
0.6
 41
30.0
 62
     5
 63
     7
421
 16777215
 74
     2
 91
        2
 64
     7
 65
     7
 75
     1
175
     1
 42
40.0
 92
       11
 66
     7
 43
1.0
 76
     1
 77
     6
 78
     2
 67
     7
 79
     6
170
     0
171
     0
290
     0
174
     0
 93
        1
 44
0.0
173
     0
291
     0
 45
0.0
  0
VISUALSTYLE
  5
37
102
{ACAD_REACTORS
330
2A
102
}
330
2A
100
AcDbVisualStyle
  2
Thicken
 70
    13
 71
     2
 72
     2
 73
     0
 90
        0
 40
0.6
 41
30.0
 62
     5
 63
     7
421
 16777215
 74
     1
 91
        4
 64
     7
 65
   257
 75
     1
175
     1
 42
1.0
 92
       12
 66
     7
 43
1.0
 76
     1
 77
     6
 78
     2
 67
     7
 79
     5
170
     0
171
     0
290
     0
174
     0
 93
        1
 44
0.0
173
     0
291
     1
 45
0.0
  0
VISUALSTYLE
  5
30
102
{ACAD_REACTORS
330
2A
102
}
330
2A
100
AcDbVisualStyle
  2
Wireframe
 70
     5
 71
     0
 72
     2
 73
     0
 90
        0
 40
0.6
 41
30.0
 62
     5
 63
     7
421
 16777215
 74
     1
 91
        4
 64
     7
 65
   257
 75
     1
175
     1
 42
1.0
 92
        0
 66
   257
 43
1.0
 76
     1
 77
     6
 78
     2
 67
     7
 79
     3
170
     0
171
     0
290
     0
174
     0
 93
        1
 44
0.0
173
     0
291
     0
 45
0.0
  0
VISUALSTYLE
  5
40
102
{ACAD_REACTORS
330
2A
102
}
330
2A
100
AcDbVisualStyle
  2
X-Ray
 70
    25
 71
     2
 72
     2
 73
     1
 90
        1
 40
0.5
 41
30.0
 62
     5
 63
     7
421
 16777215
 74
     1
 91
        0
 64
     7
 65
   257
 75
     1
175
     1
 42
1.0
 92
        8
 66
     7
 43
1.0
 76
     1
 77
     6
 78
     2
 67
     7
 79
     3
170
     0
171
     0
290
     0
174
     0
 93
       13
 44
0.0
173
     0
291
     0
 45
0.0
  0
DICTIONARYVAR
  5
131
102
{ACAD_REACTORS
330
130
102
}
330
130
100
DictionaryVariables
280
     0
  1
1:1
  0
DICTIONARYVAR
  5
137
102
{ACAD_REACTORS
330
130
102
}
330
130
100
DictionaryVariables
280
     0
  1
Standard
  0
DICTIONARYVAR
  5
136
102
{ACAD_REACTORS
330
130
102
}
330
130
100
DictionaryVariables
280
     0
  1
Standard
  0
DICTIONARY
  5
132
330
6A
100
AcDbDictionary
280
     1
281
     1
  3
ACAD_ROUNDTRIP_2008_TABLESTYLE_CELLSTYLEMAP
360
133
  0
CELLSTYLEMAP
  5
133
102
{ACAD_REACTORS
330
132
102
}
330
132
100
AcDbCellStyleMap
 90
        3
300
CELLSTYLE
  1
TABLEFORMAT_BEGIN
 90
        5
170
     1
 91
        0
 92
    32768
 62
   257
 93
        1
300
CONTENTFORMAT
  1
CONTENTFORMAT_BEGIN
 90
        0
 91
        0
 92
        4
 93
        0
300

 40
0.0
140
1.0
 94
        5
 62
     0
340
11
144
6.0
309
CONTENTFORMAT_END
171
     1
301
MARGIN
  1
CELLMARGIN_BEGIN
 40
1.5
 40
1.5
 40
1.5
 40
1.5
 40
1.5
 40
1.5
309
CELLMARGIN_END
 94
        6
 95
        1
302
GRIDFORMAT
  1
GRIDFORMAT_BEGIN
 90
        0
 91
        1
 62
     0
 92
       -2
340
14
 93
        0
 40
0.045
309
GRIDFORMAT_END
 95
        2
302
GRIDFORMAT
  1
GRIDFORMAT_BEGIN
 90
        0
 91
        1
 62
     0
 92
       -2
340
14
 93
        0
 40
0.045
309
GRIDFORMAT_END
 95
        4
302
GRIDFORMAT
  1
GRIDFORMAT_BEGIN
 90
        0
 91
        1
 62
     0
 92
       -2
340
14
 93
        0
 40
0.045
309
GRIDFORMAT_END
 95
        8
302
GRIDFORMAT
  1
GRIDFORMAT_BEGIN
 90
        0
 91
        1
 62
     0
 92
       -2
340
14
 93
        0
 40
0.045
309
GRIDFORMAT_END
 95
       16
302
GRIDFORMAT
  1
GRIDFORMAT_BEGIN
 90
        0
 91
        1
 62
     0
 92
       -2
340
14
 93
        0
 40
0.045
309
GRIDFORMAT_END
 95
       32
302
GRIDFORMAT
  1
GRIDFORMAT_BEGIN
 90
        0
 91
        1
 62
     0
 92
       -2
340
14
 93
        0
 40
0.045
309
GRIDFORMAT_END
309
TABLEFORMAT_END
  1
CELLSTYLE_BEGIN
 90
        1
 91
        1
300
_TITLE
309
CELLSTYLE_END
300
CELLSTYLE
  1
TABLEFORMAT_BEGIN
 90
        5
170
     1
 91
        0
 92
        0
 62
   257
 93
        1
300
CONTENTFORMAT
  1
CONTENTFORMAT_BEGIN
 90
        0
 91
        0
 92
        4
 93
        0
300

 40
0.0
140
1.0
 94
        5
 62
     0
340
11
144
4.5
309
CONTENTFORMAT_END
171
     1
301
MARGIN
  1
CELLMARGIN_BEGIN
 40
1.5
 40
1.5
 40
1.5
 40
1.5
 40
1.5
 40
1.5
309
CELLMARGIN_END
 94
        6
 95
        1
302
GRIDFORMAT
  1
GRIDFORMAT_BEGIN
 90
        0
 91
        1
 62
     0
 92
       -2
340
14
 93
        0
 40
0.045
309
GRIDFORMAT_END
 95
        2
302
GRIDFORMAT
  1
GRIDFORMAT_BEGIN
 90
        0
 91
        1
 62
     0
 92
       -2
340
14
 93
        0
 40
0.045
309
GRIDFORMAT_END
 95
        4
302
GRIDFORMAT
  1
GRIDFORMAT_BEGIN
 90
        0
 91
        1
 62
     0
 92
       -2
340
14
 93
        0
 40
0.045
309
GRIDFORMAT_END
 95
        8
302
GRIDFORMAT
  1
GRIDFORMAT_BEGIN
 90
        0
 91
        1
 62
     0
 92
       -2
340
14
 93
        0
 40
0.045
309
GRIDFORMAT_END
 95
       16
302
GRIDFORMAT
  1
GRIDFORMAT_BEGIN
 90
        0
 91
        1
 62
     0
 92
       -2
340
14
 93
        0
 40
0.045
309
GRIDFORMAT_END
 95
       32
302
GRIDFORMAT
  1
GRIDFORMAT_BEGIN
 90
        0
 91
        1
 62
     0
 92
       -2
340
14
 93
        0
 40
0.045
309
GRIDFORMAT_END
309
TABLEFORMAT_END
  1
CELLSTYLE_BEGIN
 90
        2
 91
        1
300
_HEADER
309
CELLSTYLE_END
300
CELLSTYLE
  1
TABLEFORMAT_BEGIN
 90
        5
170
     1
 91
        0
 92
        0
 62
   257
 93
        1
300
CONTENTFORMAT
  1
CONTENTFORMAT_BEGIN
 90
        0
 91
        0
 92
        4
 93
        0
300

 40
0.0
140
1.0
 94
        2
 62
     0
340
11
144
4.5
309
CONTENTFORMAT_END
171
     1
301
MARGIN
  1
CELLMARGIN_BEGIN
 40
1.5
 40
1.5
 40
1.5
 40
1.5
 40
1.5
 40
1.5
309
CELLMARGIN_END
 94
        6
 95
        1
302
GRIDFORMAT
  1
GRIDFORMAT_BEGIN
 90
        0
 91
        1
 62
     0
 92
       -2
340
14
 93
        0
 40
0.045
309
GRIDFORMAT_END
 95
        2
302
GRIDFORMAT
  1
GRIDFORMAT_BEGIN
 90
        0
 91
        1
 62
     0
 92
       -2
340
14
 93
        0
 40
0.045
309
GRIDFORMAT_END
 95
        4
302
GRIDFORMAT
  1
GRIDFORMAT_BEGIN
 90
        0
 91
        1
 62
     0
 92
       -2
340
14
 93
        0
 40
0.045
309
GRIDFORMAT_END
 95
        8
302
GRIDFORMAT
  1
GRIDFORMAT_BEGIN
 90
        0
 91
        1
 62
     0
 92
       -2
340
14
 93
        0
 40
0.045
309
GRIDFORMAT_END
 95
       16
302
GRIDFORMAT
  1
GRIDFORMAT_BEGIN
 90
        0
 91
        1
 62
     0
 92
       -2
340
14
 93
        0
 40
0.045
309
GRIDFORMAT_END
 95
       32
302
GRIDFORMAT
  1
GRIDFORMAT_BEGIN
 90
        0
 91
        1
 62
     0
 92
       -2
340
14
 93
        0
 40
0.045
309
GRIDFORMAT_END
309
TABLEFORMAT_END
  1
CELLSTYLE_BEGIN
 90
        3
 91
        2
300
_DATA
309
CELLSTYLE_END
  0
ENDSEC
  0
EOF
