  0
SECTION
  2
HEADER
  9
$ACADVER
  1
AC1027
  9
$ACADMAINTVER
 70
   105
  9
$DWGCODEPAGE
  3
ANSI_1252
  9
$REQUIREDVERSIONS
160
                 0
  9
$INSBASE
 10
0.0
 20
0.0
 30
0.0
  9
$EXTMIN
 10
-145.0
 20
-145.0
 30
0.0
  9
$EXTMAX
 10
145.0
 20
145.0
 30
0.0
  9
$LIMMIN
 10
0.0
 20
0.0
  9
$LIMMAX
 10
420.0
 20
297.0
  9
$ORTHOMODE
 70
     0
  9
$REGENMODE
 70
     1
  9
$FILLMODE
 70
     1
  9
$QTEXTMODE
 70
     0
  9
$MIRRTEXT
 70
     1
  9
$LTSCALE
 40
1.0
  9
$ATTMODE
 70
     1
  9
$TEXTSIZE
 40
3.5
  9
$TRACEWID
 40
1.0
  9
$TEXTSTYLE
  7
STANDARD
  9
$CLAYER
  8
0
  9
$CELTYPE
  6
ByLayer
  9
$CECOLOR
 62
   256
  9
$CELTSCALE
 40
1.0
  9
$DISPSILH
 70
     0
  9
$DIMSCALE
 40
1.0
  9
$DIMASZ
 40
6.0
  9
$DIMEXO
 40
1.0
  9
$DIMDLI
 40
3.75
  9
$DIMRND
 40
0.0
  9
$DIMDLE
 40
0.0
  9
$DIMEXE
 40
1.0
  9
$DIMTP
 40
0.0
  9
$DIMTM
 40
0.0
  9
$DIMTXT
 40
3.5
  9
$DIMCEN
 40
2.5
  9
$DIMTSZ
 40
0.0
  9
$DIMTOL
 70
     0
  9
$DIMLIM
 70
     0
  9
$DIMTIH
 70
     1
  9
$DIMTOH
 70
     1
  9
$DIMSE1
 70
     0
  9
$DIMSE2
 70
     0
  9
$DIMTAD
 70
     1
  9
$DIMZIN
 70
     0
  9
$DIMBLK
  1

  9
$DIMASO
 70
     1
  9
$DIMSHO
 70
     1
  9
$DIMPOST
  1

  9
$DIMAPOST
  1

  9
$DIMALT
 70
     0
  9
$DIMALTD
 70
     3
  9
$DIMALTF
 40
0.0393700787
  9
$DIMLFAC
 40
1.0
  9
$DIMTOFL
 70
     1
  9
$DIMTVP
 40
0.0
  9
$DIMTIX
 70
     0
  9
$DIMSOXD
 70
     0
  9
$DIMSAH
 70
     0
  9
$DIMBLK1
  1

  9
$DIMBLK2
  1

  9
$DIMSTYLE
  2
ISO-25
  9
$DIMCLRD
 70
     0
  9
$DIMCLRE
 70
     0
  9
$DIMCLRT
 70
     0
  9
$DIMTFAC
 40
1.0
  9
$DIMGAP
 40
1.524
  9
$DIMJUST
 70
     0
  9
$DIMSD1
 70
     0
  9
$DIMSD2
 70
     0
  9
$DIMTOLJ
 70
     0
  9
$DIMTZIN
 70
     0
  9
$DIMALTZ
 70
     0
  9
$DIMALTTZ
 70
     0
  9
$DIMUPT
 70
     0
  9
$DIMDEC
 70
     2
  9
$DIMTDEC
 70
     2
  9
$DIMALTU
 70
     2
  9
$DIMALTTD
 70
     3
  9
$DIMTXSTY
  7
STANDARD
  9
$DIMAUNIT
 70
     0
  9
$DIMADEC
 70
     2
  9
$DIMALTRND
 40
0.0
  9
$DIMAZIN
 70
     0
  9
$DIMDSEP
 70
    44
  9
$DIMATFIT
 70
     3
  9
$DIMFRAC
 70
     0
  9
$DIMLDRBLK
  1

  9
$DIMLUNIT
 70
     2
  9
$DIMLWD
 70
    -2
  9
$DIMLWE
 70
    -2
  9
$DIMTMOVE
 70
     0
  9
$DIMFXL
 40
1.0
  9
$DIMFXLON
 70
     0
  9
$DIMJOGANG
 40
0.7853981634
  9
$DIMTFILL
 70
     0
  9
$DIMTFILLCLR
 70
     0
  9
$DIMARCSYM
 70
     0
  9
$DIMLTYPE
  6

  9
$DIMLTEX1
  6

  9
$DIMLTEX2
  6

  9
$DIMTXTDIRECTION
 70
     0
  9
$LUNITS
 70
     2
  9
$LUPREC
 70
     2
  9
$SKETCHINC
 40
1.0
  9
$FILLETRAD
 40
10.0
  9
$AUNITS
 70
     0
  9
$AUPREC
 70
     2
  9
$MENU
  1
.
  9
$ELEVATION
 40
0.0
  9
$PELEVATION
 40
0.0
  9
$THICKNESS
 40
0.0
  9
$LIMCHECK
 70
     0
  9
$CHAMFERA
 40
0.0
  9
$CHAMFERB
 40
0.0
  9
$CHAMFERC
 40
0.0
  9
$CHAMFERD
 40
0.0
  9
$SKPOLY
 70
     0
  9
$TDCREATE
 40
2458299.469974352
  9
$TDUCREATE
 40
2458299.386641019
  9
$TDUPDATE
 40
2458299.470000451
  9
$TDUUPDATE
 40
2458299.386667118
  9
$TDINDWG
 40
0.0000000116
  9
$TDUSRTIMER
 40
0.0000000116
  9
$USRTIMER
 70
     1
  9
$ANGBASE
 50
0.0
  9
$ANGDIR
 70
     0
  9
$PDMODE
 70
     0
  9
$PDSIZE
 40
-1.0
  9
$PLINEWID
 40
0.0
  9
$SPLFRAME
 70
     0
  9
$SPLINETYPE
 70
     6
  9
$SPLINESEGS
 70
     8
  9
$HANDSEED
  5
13B
  9
$SURFTAB1
 70
     6
  9
$SURFTAB2
 70
     6
  9
$SURFTYPE
 70
     6
  9
$SURFU
 70
     6
  9
$SURFV
 70
     6
  9
$UCSBASE
  2

  9
$UCSNAME
  2

  9
$UCSORG
 10
0.0
 20
0.0
 30
0.0
  9
$UCSXDIR
 10
1.0
 20
0.0
 30
0.0
  9
$UCSYDIR
 10
0.0
 20
1.0
 30
0.0
  9
$UCSORTHOREF
  2

  9
$UCSORTHOVIEW
 70
     0
  9
$UCSORGTOP
 10
0.0
 20
0.0
 30
0.0
  9
$UCSORGBOTTOM
 10
0.0
 20
0.0
 30
0.0
  9
$UCSORGLEFT
 10
0.0
 20
0.0
 30
0.0
  9
$UCSORGRIGHT
 10
0.0
 20
0.0
 30
0.0
  9
$UCSORGFRONT
 10
0.0
 20
0.0
 30
0.0
  9
$UCSORGBACK
 10
0.0
 20
0.0
 30
0.0
  9
$PUCSBASE
  2

  9
$PUCSNAME
  2

  9
$PUCSORG
 10
0.0
 20
0.0
 30
0.0
  9
$PUCSXDIR
 10
1.0
 20
0.0
 30
0.0
  9
$PUCSYDIR
 10
0.0
 20
1.0
 30
0.0
  9
$PUCSORTHOREF
  2

  9
$PUCSORTHOVIEW
 70
     0
  9
$PUCSORGTOP
 10
0.0
 20
0.0
 30
0.0
  9
$PUCSORGBOTTOM
 10
0.0
 20
0.0
 30
0.0
  9
$PUCSORGLEFT
 10
0.0
 20
0.0
 30
0.0
  9
$PUCSORGRIGHT
 10
0.0
 20
0.0
 30
0.0
  9
$PUCSORGFRONT
 10
0.0
 20
0.0
 30
0.0
  9
$PUCSORGBACK
 10
0.0
 20
0.0
 30
0.0
  9
$USERI1
 70
     0
  9
$USERI2
 70
     0
  9
$USERI3
 70
     0
  9
$USERI4
 70
     0
  9
$USERI5
 70
     0
  9
$USERR1
 40
0.0
  9
$USERR2
 40
0.0
  9
$USERR3
 40
0.0
  9
$USERR4
 40
0.0
  9
$USERR5
 40
0.0
  9
$WORLDVIEW
 70
     1
  9
$SHADEDGE
 70
     3
  9
$SHADEDIF
 70
    70
  9
$TILEMODE
 70
     1
  9
$MAXACTVP
 70
    64
  9
$PINSBASE
 10
0.0
 20
0.0
 30
0.0
  9
$PLIMCHECK
 70
     0
  9
$PEXTMIN
 10
-145.0
 20
0.0
 30
0.0
  9
$PEXTMAX
 10
145.0
 20
150.0
 30
0.0
  9
$PLIMMIN
 10
-167.5680933852
 20
-8.4630350195
  9
$PLIMMAX
 10
167.5680933852
 20
228.5019455253
  9
$UNITMODE
 70
     0
  9
$VISRETAIN
 70
     1
  9
$PLINEGEN
 70
     0
  9
$PSLTSCALE
 70
     1
  9
$TREEDEPTH
 70
  3020
  9
$CMLSTYLE
  2
Standard
  9
$CMLJUST
 70
     0
  9
$CMLSCALE
 40
20.0
  9
$PROXYGRAPHICS
 70
     1
  9
$MEASUREMENT
 70
     1
  9
$CELWEIGHT
370
    -1
  9
$ENDCAPS
280
     0
  9
$JOINSTYLE
280
     0
  9
$LWDISPLAY
290
     1
  9
$INSUNITS
 70
     4
  9
$HYPERLINKBASE
  1

  9
$STYLESHEET
  1

  9
$XEDIT
290
     1
  9
$CEPSNTYPE
380
     0
  9
$PSTYLEMODE
290
     1
  9
$FINGERPRINTGUID
  2
{AA4EB712-AF11-4992-AF21-700D0125FCD7}
  9
$VERSIONGUID
  2
{FAEB1C32-E019-11D5-929B-00C0DF256EC4}
  9
$EXTNAMES
290
     1
  9
$PSVPSCALE
 40
0.0
  9
$OLESTARTUP
290
     0
  9
$SORTENTS
280
   127
  9
$INDEXCTL
280
     0
  9
$HIDETEXT
280
     1
  9
$XCLIPFRAME
280
     2
  9
$HALOGAP
280
     0
  9
$OBSCOLOR
 70
   257
  9
$OBSLTYPE
280
     0
  9
$INTERSECTIONDISPLAY
280
     0
  9
$INTERSECTIONCOLOR
 70
   257
  9
$DIMASSOC
280
     2
  9
$PROJECTNAME
  1

  9
$CAMERADISPLAY
290
     0
  9
$LENSLENGTH
 40
50.0
  9
$CAMERAHEIGHT
 40
0.0
  9
$STEPSPERSEC
 40
2.0
  9
$STEPSIZE
 40
6.0
  9
$3DDWFPREC
 40
2.0
  9
$PSOLWIDTH
 40
5.0
  9
$PSOLHEIGHT
 40
80.0
  9
$LOFTANG1
 40
1.5707963268
  9
$LOFTANG2
 40
1.5707963268
  9
$LOFTMAG1
 40
0.0
  9
$LOFTMAG2
 40
0.0
  9
$LOFTPARAM
 70
     7
  9
$LOFTNORMALS
280
     1
  9
$LATITUDE
 40
37.795
  9
$LONGITUDE
 40
-122.394
  9
$NORTHDIRECTION
 40
0.0
  9
$TIMEZONE
 70
 -8000
  9
$LIGHTGLYPHDISPLAY
280
     1
  9
$TILEMODELIGHTSYNCH
280
     1
  9
$CMATERIAL
347
44
  9
$SOLIDHIST
280
     0
  9
$SHOWHIST
280
     1
  9
$DWFFRAME
280
     2
  9
$DGNFRAME
280
     2
  9
$REALWORLDSCALE
290
     1
  9
$INTERFERECOLOR
 62
   256
  9
$CSHADOW
280
     0
  9
$SHADOWPLANELOCATION
 40
0.0
  0
ENDSEC
  0
SECTION
  2
CLASSES
  0
CLASS
  1
ACDBDICTIONARYWDFLT
  2
AcDbDictionaryWithDefault
  3
ObjectDBX Classes
 90
        0
 91
        4
280
     0
281
     0
  0
CLASS
  1
VISUALSTYLE
  2
AcDbVisualStyle
  3
ObjectDBX Classes
 90
     4095
 91
        4
280
     0
281
     0
  0
CLASS
  1
MATERIAL
  2
AcDbMaterial
  3
ObjectDBX Classes
 90
     1153
 91
        4
280
     0
281
     0
  0
CLASS
  1
SCALE
  2
AcDbScale
  3
ObjectDBX Classes
 90
     1153
 91
        4
280
     0
281
     0
  0
CLASS
  1
TABLESTYLE
  2
AcDbTableStyle
  3
ObjectDBX Classes
 90
     4095
 91
        4
280
     0
281
     0
  0
CLASS
  1
MLEADERSTYLE
  2
AcDbMLeaderStyle
  3
ACDB_MLEADERSTYLE_CLASS
 90
     4095
 91
        4
280
     0
281
     0
  0
CLASS
  1
SUN
  2
AcDbSun
  3
SCENEOE
 90
     1153
 91
        4
280
     0
281
     0
  0
CLASS
  1
DICTIONARYVAR
  2
AcDbDictionaryVar
  3
ObjectDBX Classes
 90
        0
 91
        4
280
     0
281
     0
  0
CLASS
  1
CELLSTYLEMAP
  2
AcDbCellStyleMap
  3
ObjectDBX Classes
 90
     1152
 91
        4
280
     0
281
     0
  0
ENDSEC
  0
SECTION
  2
TABLES
  0
TABLE
  2
VPORT
  5
8
330
0
100
AcDbSymbolTable
 70
     1
  0
VPORT
  5
29
330
8
100
AcDbSymbolTableRecord
100
AcDbViewportTableRecord
  2
*Active
 70
     0
 10
0.0
 20
0.0
 11
1.0
 21
1.0
 12
0.0
 22
0.0
 13
0.0
 23
0.0
 14
10.0
 24
10.0
 15
10.0
 25
10.0
 16
0.0
 26
0.0
 36
1.0
 17
0.0
 27
0.0
 37
0.0
 40
295.8
 41
1.0
 42
50.0
 43
0.0
 44
0.0
 50
0.0
 51
0.0
 71
     0
 72
   100
 73
     1
 74
     3
 75
     0
 76
     0
 77
     0
 78
     0
281
     0
 65
     1
110
0.0
120
0.0
130
0.0
111
1.0
121
0.0
131
0.0
112
0.0
122
1.0
132
0.0
 79
     0
146
0.0
348
2F
 60
     3
 61
     5
292
     1
282
     1
141
0.0
142
0.0
 63
   250
361
6D
  0
ENDTAB
  0
TABLE
  2
LTYPE
  5
5
330
0
100
AcDbSymbolTable
 70
     6
  0
LTYPE
  5
14
330
5
100
AcDbSymbolTableRecord
100
AcDbLinetypeTableRecord
  2
ByBlock
 70
     0
  3

 72
    65
 73
     0
 40
0.0
  0
LTYPE
  5
15
330
5
100
AcDbSymbolTableRecord
100
AcDbLinetypeTableRecord
  2
ByLayer
 70
     0
  3

 72
    65
 73
     0
 40
0.0
  0
LTYPE
  5
16
330
5
100
AcDbSymbolTableRecord
100
AcDbLinetypeTableRecord
  2
Continuous
 70
     0
  3
Solid line
 72
    65
 73
     0
 40
0.0
  0
LTYPE
  5
6E
330
5
100
AcDbSymbolTableRecord
100
AcDbLinetypeTableRecord
  2
HIDDEN
 70
     0
  3
Hidden __ __ __ __ __ __ __ __ __ __ __ __ __ __
 72
    65
 73
     2
 40
1.905
 49
1.27
 74
     0
 49
-0.635
 74
     0
  0
LTYPE
  5
6F
330
5
100
AcDbSymbolTableRecord
100
AcDbLinetypeTableRecord
  2
PHANTOM
 70
     0
  3
Phantom ______  __  __  ______  __  __  ______
 72
    65
 73
     6
 40
12.7
 49
6.35
 74
     0
 49
-1.27
 74
     0
 49
1.27
 74
     0
 49
-1.27
 74
     0
 49
1.27
 74
     0
 49
-1.27
 74
     0
  0
LTYPE
  5
70
330
5
100
AcDbSymbolTableRecord
100
AcDbLinetypeTableRecord
  2
CENTER
 70
     0
  3
Center ____ _ ____ _ ____ _ ____ _ ____ _ ____
 72
    65
 73
     4
 40
10.16
 49
6.35
 74
     0
 49
-1.27
 74
     0
 49
1.27
 74
     0
 49
-1.27
 74
     0
  0
LTYPE
  5
71
330
5
100
AcDbSymbolTableRecord
100
AcDbLinetypeTableRecord
  2
CENTERX2
 70
     0
  3
Center (2x) ________  __  ________  __  _____
 72
    65
 73
     4
 40
20.32
 49
12.7
 74
     0
 49
-2.54
 74
     0
 49
2.54
 74
     0
 49
-2.54
 74
     0
  0
LTYPE
  5
72
330
5
100
AcDbSymbolTableRecord
100
AcDbLinetypeTableRecord
  2
DOT2
 70
     0
  3
Dot (.5x) ........................................
 72
    65
 73
     2
 40
0.635
 49
0.0
 74
     0
 49
-0.635
 74
     0
  0
ENDTAB
  0
TABLE
  2
LAYER
  5
2
330
0
100
AcDbSymbolTable
 70
     1
  0
LAYER
  5
10
330
2
100
AcDbSymbolTableRecord
100
AcDbLayerTableRecord
  2
0
 70
     0
 62
     7
  6
Continuous
370
    -3
390
F
347
46
348
0
  0
ENDTAB
  0
TABLE
  2
STYLE
  5
3
330
0
100
AcDbSymbolTable
 70
     1
  0
STYLE
  5
11
330
3
100
AcDbSymbolTableRecord
100
AcDbTextStyleTableRecord
  2
STANDARD
 70
     0
 40
0.0
 41
1.0
 50
0.0
 71
     0
 42
3.5
  3
GOTHIC.TTF
  4

1001
ACAD
1000
CENTURY GOTHIC
1071
       34
  0
ENDTAB
  0
TABLE
  2
VIEW
  5
6
330
0
100
AcDbSymbolTable
 70
     0
  0
ENDTAB
  0
TABLE
  2
UCS
  5
7
330
0
100
AcDbSymbolTable
 70
     0
  0
ENDTAB
  0
TABLE
  2
APPID
  5
9
330
0
100
AcDbSymbolTable
 70
     1
  0
APPID
  5
12
330
9
100
AcDbSymbolTableRecord
100
AcDbRegAppTableRecord
  2
ACAD
 70
     0
  0
ENDTAB
  0
TABLE
  2
DIMSTYLE
  5
A
330
0
100
AcDbSymbolTable
 70
     1
100
AcDbDimStyleTable
  0
DIMSTYLE
105
27
330
A
100
AcDbSymbolTableRecord
100
AcDbDimStyleTableRecord
  2
ISO-25
 70
     0
 41
2.5
 42
0.625
 43
3.75
 44
1.25
 73
     0
 74
     0
 77
     1
 78
     8
140
2.5
141
2.5
143
0.0393700787
147
0.625
171
     3
172
     1
178
     0
271
     2
272
     2
274
     3
278
    44
283
     0
284
     8
340
11
  0
ENDTAB
  0
TABLE
  2
BLOCK_RECORD
  5
1
330
0
100
AcDbSymbolTable
 70
     8
  0
BLOCK_RECORD
  5
1F
330
1
100
AcDbSymbolTableRecord
100
AcDbBlockTableRecord
  2
*Model_Space
340
22
 70
     0
280
     1
281
     0
  0
BLOCK_RECORD
  5
1B
330
1
100
AcDbSymbolTableRecord
100
AcDbBlockTableRecord
  2
*Paper_Space
340
1E
 70
     0
280
     1
281
     0
  0
BLOCK_RECORD
  5
23
330
1
100
AcDbSymbolTableRecord
100
AcDbBlockTableRecord
  2
*Paper_Space0
340
26
 70
     0
280
     1
281
     0
  0
BLOCK_RECORD
  5
A3
330
1
100
AcDbSymbolTableRecord
100
AcDbBlockTableRecord
  2
*Paper_Space1
340
A4
 70
     0
280
     1
281
     0
  0
BLOCK_RECORD
  5
BB
330
1
100
AcDbSymbolTableRecord
100
AcDbBlockTableRecord
  2
*Paper_Space2
340
BC
 70
     0
280
     1
281
     0
  0
BLOCK_RECORD
  5
D3
330
1
100
AcDbSymbolTableRecord
100
AcDbBlockTableRecord
  2
*Paper_Space3
340
D4
 70
     0
280
     1
281
     0
  0
BLOCK_RECORD
  5
EB
330
1
100
AcDbSymbolTableRecord
100
AcDbBlockTableRecord
  2
*Paper_Space4
340
EC
 70
     0
280
     1
281
     0
  0
BLOCK_RECORD
  5
F3
330
1
100
AcDbSymbolTableRecord
100
AcDbBlockTableRecord
  2
*Paper_Space5
340
F4
 70
     0
280
     1
281
     0
  0
BLOCK_RECORD
  5
FE
330
1
100
AcDbSymbolTableRecord
100
AcDbBlockTableRecord
  2
*Paper_Space6
340
FF
 70
     0
280
     1
281
     0
  0
BLOCK_RECORD
  5
10A
330
1
100
AcDbSymbolTableRecord
100
AcDbBlockTableRecord
  2
*Paper_Space7
340
10B
 70
     0
280
     1
281
     0
  0
ENDTAB
  0
ENDSEC
  0
SECTION
  2
BLOCKS
  0
BLOCK
  5
20
330
1F
100
AcDbEntity
  8
0
100
AcDbBlockBegin
  2
*Model_Space
 70
     0
 10
0.0
 20
0.0
 30
0.0
  3
*Model_Space
  1

  0
ENDBLK
  5
21
330
1F
100
AcDbEntity
  8
0
100
AcDbBlockEnd
  0
BLOCK
  5
1C
330
1B
100
AcDbEntity
 67
     1
  8
0
100
AcDbBlockBegin
  2
*Paper_Space
 70
     0
 10
0.0
 20
0.0
 30
0.0
  3
*Paper_Space
  1

  0
ENDBLK
  5
1D
330
1B
100
AcDbEntity
 67
     1
  8
0
100
AcDbBlockEnd
  0
BLOCK
  5
24
330
23
100
AcDbEntity
  8
0
100
AcDbBlockBegin
  2
*Paper_Space0
 70
     0
 10
0.0
 20
0.0
 30
0.0
  3
*Paper_Space0
  1

  0
LINE
  5
99
330
23
100
AcDbEntity
  8
0
  6
Continuous
 62
     7
370
    25
100
AcDbLine
 10
-50.0
 20
1.7603291963
 30
0.0
 11
-50.0
 21
0.0
 31
0.0
  0
LINE
  5
9A
330
23
100
AcDbEntity
  8
0
  6
Continuous
 62
     7
370
    25
100
AcDbLine
 10
50.0
 20
0.0
 30
0.0
 11
50.0
 21
1.7603291963
 31
0.0
  0
LINE
  5
9B
330
23
100
AcDbEntity
  8
0
  6
Continuous
 62
     7
370
    25
100
AcDbLine
 10
-145.0
 20
150.0
 30
0.0
 11
145.0
 21
150.0
 31
0.0
  0
LINE
  5
9C
330
23
100
AcDbEntity
  8
0
  6
Continuous
 62
     7
370
    25
100
AcDbLine
 10
-50.0
 20
0.0
 30
0.0
 11
50.0
 21
0.0
 31
0.0
  0
LINE
  5
9D
330
23
100
AcDbEntity
  8
0
  6
Continuous
 62
    60
370
    25
100
AcDbLine
 10
-52.9112903226
 20
6.3031578177
 30
0.0
 11
52.9112903226
 21
6.3031578177
 31
0.0
  0
LINE
  5
9E
330
23
100
AcDbEntity
  8
0
  6
Continuous
 62
    60
370
    25
100
AcDbLine
 10
-50.0
 20
1.7603291963
 30
0.0
 11
50.0
 21
1.7603291963
 31
0.0
  0
ARC
  5
9F
330
23
100
AcDbEntity
  8
0
  6
Continuous
 62
     7
370
    25
100
AcDbCircle
 10
-13.1578947368
 20
150.0
 30
0.0
 40
158.1578947368421
100
AcDbArc
 50
294.692108304
 51
0.0
  0
ARC
  5
A0
330
23
100
AcDbEntity
  8
0
  6
Continuous
 62
     7
370
    25
100
AcDbCircle
 10
13.1578947368
 20
150.0
 30
0.0
 40
158.1578947368422
100
AcDbArc
 50
180.0
 51
245.307891696
  0
ARC
  5
A1
330
23
100
AcDbEntity
  8
0
  6
Continuous
 62
     7
370
    25
100
AcDbCircle
 10
-55.0
 20
1.7603291963
 30
0.0
 40
5.000000000000018
100
AcDbArc
 50
0.0
 51
65.307891696
  0
ARC
  5
A2
330
23
100
AcDbEntity
  8
0
  6
Continuous
 62
     7
370
    25
100
AcDbCircle
 10
55.0
 20
1.7603291963
 30
0.0
 40
5.000000000000002
100
AcDbArc
 50
114.692108304
 51
180.0
  0
VIEWPORT
  5
122
330
23
100
AcDbEntity
  8
0
100
AcDbViewport
 10
0.0
 20
0.0
 30
0.0
 40
205.6
 41
156.0
 68
     1
 69
     1
 12
0.0
 22
0.0
 13
0.0
 23
0.0
 14
10.0
 24
10.0
 15
10.0
 25
10.0
 16
0.0
 26
0.0
 36
1.0
 17
0.0
 27
0.0
 37
0.0
 42
50.0
 43
0.0
 44
0.0
 45
295.8
 50
0.0
 51
0.0
 72
   100
 90
   557152
  1

281
     0
 71
     1
 74
     0
110
0.0
120
0.0
130
0.0
111
1.0
121
0.0
131
0.0
112
0.0
122
1.0
132
0.0
 79
     0
146
0.0
170
     0
 61
     5
348
2F
292
     1
282
     1
141
0.0
142
0.0
 63
   256
361
123
  0
ENDBLK
  5
25
330
23
100
AcDbEntity
  8
0
100
AcDbBlockEnd
  0
BLOCK
  5
A5
330
A3
100
AcDbEntity
  8
0
100
AcDbBlockBegin
  2
*Paper_Space1
 70
     0
 10
0.0
 20
0.0
 30
0.0
  3
*Paper_Space1
  1

  0
LINE
  5
B1
330
A3
100
AcDbEntity
  8
0
  6
Continuous
 62
     7
370
    25
100
AcDbLine
 10
-50.0
 20
1.7603291963
 30
0.0
 11
-50.0
 21
0.0
 31
0.0
  0
LINE
  5
B2
330
A3
100
AcDbEntity
  8
0
  6
Continuous
 62
     7
370
    25
100
AcDbLine
 10
50.0
 20
0.0
 30
0.0
 11
50.0
 21
1.7603291963
 31
0.0
  0
LINE
  5
B3
330
A3
100
AcDbEntity
  8
0
  6
Continuous
 62
     7
370
    25
100
AcDbLine
 10
-145.0
 20
150.0
 30
0.0
 11
145.0
 21
150.0
 31
0.0
  0
LINE
  5
B4
330
A3
100
AcDbEntity
  8
0
  6
Continuous
 62
     7
370
    25
100
AcDbLine
 10
-50.0
 20
0.0
 30
0.0
 11
50.0
 21
0.0
 31
0.0
  0
LINE
  5
B5
330
A3
100
AcDbEntity
  8
0
  6
Continuous
 62
    60
370
    25
100
AcDbLine
 10
-52.9112903226
 20
6.3031578177
 30
0.0
 11
52.9112903226
 21
6.3031578177
 31
0.0
  0
LINE
  5
B6
330
A3
100
AcDbEntity
  8
0
  6
Continuous
 62
    60
370
    25
100
AcDbLine
 10
-50.0
 20
1.7603291963
 30
0.0
 11
50.0
 21
1.7603291963
 31
0.0
  0
ARC
  5
B7
330
A3
100
AcDbEntity
  8
0
  6
Continuous
 62
     7
370
    25
100
AcDbCircle
 10
-13.1578947368
 20
150.0
 30
0.0
 40
158.1578947368423
100
AcDbArc
 50
294.692108304
 51
0.0
  0
ARC
  5
B8
330
A3
100
AcDbEntity
  8
0
  6
Continuous
 62
     7
370
    25
100
AcDbCircle
 10
13.1578947368
 20
150.0
 30
0.0
 40
158.1578947368422
100
AcDbArc
 50
180.0
 51
245.307891696
  0
ARC
  5
B9
330
A3
100
AcDbEntity
  8
0
  6
Continuous
 62
     7
370
    25
100
AcDbCircle
 10
-55.0
 20
1.7603291963
 30
0.0
 40
5.000000000000018
100
AcDbArc
 50
0.0
 51
65.307891696
  0
ARC
  5
BA
330
A3
100
AcDbEntity
  8
0
  6
Continuous
 62
     7
370
    25
100
AcDbCircle
 10
55.0
 20
1.7603291963
 30
0.0
 40
5.000000000000028
100
AcDbArc
 50
114.692108304
 51
180.0
  0
VIEWPORT
  5
124
330
A3
100
AcDbEntity
  8
0
100
AcDbViewport
 10
0.0
 20
0.0
 30
0.0
 40
205.6
 41
156.0
 68
     1
 69
     1
 12
0.0
 22
0.0
 13
0.0
 23
0.0
 14
10.0
 24
10.0
 15
10.0
 25
10.0
 16
0.0
 26
0.0
 36
1.0
 17
0.0
 27
0.0
 37
0.0
 42
50.0
 43
0.0
 44
0.0
 45
295.8
 50
0.0
 51
0.0
 72
   100
 90
   557152
  1

281
     0
 71
     1
 74
     0
110
0.0
120
0.0
130
0.0
111
1.0
121
0.0
131
0.0
112
0.0
122
1.0
132
0.0
 79
     0
146
0.0
170
     0
 61
     5
348
2F
292
     1
282
     1
141
0.0
142
0.0
 63
   256
361
125
  0
ENDBLK
  5
A6
330
A3
100
AcDbEntity
  8
0
100
AcDbBlockEnd
  0
BLOCK
  5
BD
330
BB
100
AcDbEntity
  8
0
100
AcDbBlockBegin
  2
*Paper_Space2
 70
     0
 10
0.0
 20
0.0
 30
0.0
  3
*Paper_Space2
  1

  0
LINE
  5
C9
330
BB
100
AcDbEntity
  8
0
  6
Continuous
 62
     7
370
    25
100
AcDbLine
 10
-50.0
 20
1.7603291963
 30
0.0
 11
-50.0
 21
0.0
 31
0.0
  0
LINE
  5
CA
330
BB
100
AcDbEntity
  8
0
  6
Continuous
 62
     7
370
    25
100
AcDbLine
 10
50.0
 20
0.0
 30
0.0
 11
50.0
 21
1.7603291963
 31
0.0
  0
LINE
  5
CB
330
BB
100
AcDbEntity
  8
0
  6
Continuous
 62
     7
370
    25
100
AcDbLine
 10
-145.0
 20
150.0
 30
0.0
 11
145.0
 21
150.0
 31
0.0
  0
LINE
  5
CC
330
BB
100
AcDbEntity
  8
0
  6
Continuous
 62
     7
370
    25
100
AcDbLine
 10
-50.0
 20
0.0
 30
0.0
 11
50.0
 21
0.0
 31
0.0
  0
LINE
  5
CD
330
BB
100
AcDbEntity
  8
0
  6
Continuous
 62
    60
370
    25
100
AcDbLine
 10
-52.9112903226
 20
6.3031578177
 30
0.0
 11
52.9112903226
 21
6.3031578177
 31
0.0
  0
LINE
  5
CE
330
BB
100
AcDbEntity
  8
0
  6
Continuous
 62
    60
370
    25
100
AcDbLine
 10
-50.0
 20
1.7603291963
 30
0.0
 11
50.0
 21
1.7603291963
 31
0.0
  0
ARC
  5
CF
330
BB
100
AcDbEntity
  8
0
  6
Continuous
 62
     7
370
    25
100
AcDbCircle
 10
-13.1578947368
 20
150.0
 30
0.0
 40
158.1578947368422
100
AcDbArc
 50
294.692108304
 51
0.0
  0
ARC
  5
D0
330
BB
100
AcDbEntity
  8
0
  6
Continuous
 62
     7
370
    25
100
AcDbCircle
 10
13.1578947368
 20
150.0
 30
0.0
 40
158.1578947368424
100
AcDbArc
 50
180.0
 51
245.307891696
  0
ARC
  5
D1
330
BB
100
AcDbEntity
  8
0
  6
Continuous
 62
     7
370
    25
100
AcDbCircle
 10
-55.0
 20
1.7603291963
 30
0.0
 40
5.000000000000043
100
AcDbArc
 50
0.0
 51
65.307891696
  0
ARC
  5
D2
330
BB
100
AcDbEntity
  8
0
  6
Continuous
 62
     7
370
    25
100
AcDbCircle
 10
55.0
 20
1.7603291963
 30
0.0
 40
5.0
100
AcDbArc
 50
114.692108304
 51
180.0
  0
VIEWPORT
  5
126
330
BB
100
AcDbEntity
  8
0
100
AcDbViewport
 10
0.0
 20
0.0
 30
0.0
 40
205.6
 41
156.0
 68
     1
 69
     1
 12
0.0
 22
0.0
 13
0.0
 23
0.0
 14
10.0
 24
10.0
 15
10.0
 25
10.0
 16
0.0
 26
0.0
 36
1.0
 17
0.0
 27
0.0
 37
0.0
 42
50.0
 43
0.0
 44
0.0
 45
295.8
 50
0.0
 51
0.0
 72
   100
 90
   557152
  1

281
     0
 71
     1
 74
     0
110
0.0
120
0.0
130
0.0
111
1.0
121
0.0
131
0.0
112
0.0
122
1.0
132
0.0
 79
     0
146
0.0
170
     0
 61
     5
348
2F
292
     1
282
     1
141
0.0
142
0.0
 63
   256
361
127
  0
ENDBLK
  5
BE
330
BB
100
AcDbEntity
  8
0
100
AcDbBlockEnd
  0
BLOCK
  5
D5
330
D3
100
AcDbEntity
  8
0
100
AcDbBlockBegin
  2
*Paper_Space3
 70
     0
 10
0.0
 20
0.0
 30
0.0
  3
*Paper_Space3
  1

  0
LINE
  5
E1
330
D3
100
AcDbEntity
  8
0
  6
Continuous
 62
     7
370
    25
100
AcDbLine
 10
-50.0
 20
1.7603291963
 30
0.0
 11
-50.0
 21
0.0
 31
0.0
  0
LINE
  5
E2
330
D3
100
AcDbEntity
  8
0
  6
Continuous
 62
     7
370
    25
100
AcDbLine
 10
50.0
 20
0.0
 30
0.0
 11
50.0
 21
1.7603291963
 31
0.0
  0
LINE
  5
E3
330
D3
100
AcDbEntity
  8
0
  6
Continuous
 62
     7
370
    25
100
AcDbLine
 10
-145.0
 20
150.0
 30
0.0
 11
145.0
 21
150.0
 31
0.0
  0
LINE
  5
E4
330
D3
100
AcDbEntity
  8
0
  6
Continuous
 62
     7
370
    25
100
AcDbLine
 10
-50.0
 20
0.0
 30
0.0
 11
50.0
 21
0.0
 31
0.0
  0
LINE
  5
E5
330
D3
100
AcDbEntity
  8
0
  6
Continuous
 62
    60
370
    25
100
AcDbLine
 10
-52.9112903226
 20
6.3031578177
 30
0.0
 11
52.9112903226
 21
6.3031578177
 31
0.0
  0
LINE
  5
E6
330
D3
100
AcDbEntity
  8
0
  6
Continuous
 62
    60
370
    25
100
AcDbLine
 10
-50.0
 20
1.7603291963
 30
0.0
 11
50.0
 21
1.7603291963
 31
0.0
  0
ARC
  5
E7
330
D3
100
AcDbEntity
  8
0
  6
Continuous
 62
     7
370
    25
100
AcDbCircle
 10
-13.1578947368
 20
150.0
 30
0.0
 40
158.1578947368421
100
AcDbArc
 50
294.692108304
 51
0.0
  0
ARC
  5
E8
330
D3
100
AcDbEntity
  8
0
  6
Continuous
 62
     7
370
    25
100
AcDbCircle
 10
13.1578947368
 20
150.0
 30
0.0
 40
158.1578947368422
100
AcDbArc
 50
180.0
 51
245.307891696
  0
ARC
  5
E9
330
D3
100
AcDbEntity
  8
0
  6
Continuous
 62
     7
370
    25
100
AcDbCircle
 10
-55.0
 20
1.7603291963
 30
0.0
 40
5.000000000000018
100
AcDbArc
 50
0.0
 51
65.307891696
  0
ARC
  5
EA
330
D3
100
AcDbEntity
  8
0
  6
Continuous
 62
     7
370
    25
100
AcDbCircle
 10
55.0
 20
1.7603291963
 30
0.0
 40
5.000000000000002
100
AcDbArc
 50
114.692108304
 51
180.0
  0
VIEWPORT
  5
128
330
D3
100
AcDbEntity
  8
0
100
AcDbViewport
 10
0.0
 20
0.0
 30
0.0
 40
205.6
 41
156.0
 68
     1
 69
     1
 12
0.0
 22
0.0
 13
0.0
 23
0.0
 14
10.0
 24
10.0
 15
10.0
 25
10.0
 16
0.0
 26
0.0
 36
1.0
 17
0.0
 27
0.0
 37
0.0
 42
50.0
 43
0.0
 44
0.0
 45
295.8
 50
0.0
 51
0.0
 72
   100
 90
   557152
  1

281
     0
 71
     1
 74
     0
110
0.0
120
0.0
130
0.0
111
1.0
121
0.0
131
0.0
112
0.0
122
1.0
132
0.0
 79
     0
146
0.0
170
     0
 61
     5
348
2F
292
     1
282
     1
141
0.0
142
0.0
 63
   256
361
129
  0
ENDBLK
  5
D6
330
D3
100
AcDbEntity
  8
0
100
AcDbBlockEnd
  0
BLOCK
  5
ED
330
EB
100
AcDbEntity
  8
0
100
AcDbBlockBegin
  2
*Paper_Space4
 70
     0
 10
0.0
 20
0.0
 30
0.0
  3
*Paper_Space4
  1

  0
CIRCLE
  5
EF
330
EB
100
AcDbEntity
  8
0
  6
Continuous
 62
     7
370
    25
100
AcDbCircle
 10
0.0
 20
0.0
 30
0.0
 40
23.00000000000001
  0
CIRCLE
  5
F0
330
EB
100
AcDbEntity
  8
0
  6
Continuous
 62
     7
370
    25
100
AcDbCircle
 10
0.0
 20
0.0
 30
0.0
 40
50.0
  0
CIRCLE
  5
F1
330
EB
100
AcDbEntity
  8
0
  6
Continuous
 62
     7
370
    25
100
AcDbCircle
 10
0.0
 20
0.0
 30
0.0
 40
52.9112903225807
  0
CIRCLE
  5
F2
330
EB
100
AcDbEntity
  8
0
  6
Continuous
 62
     7
370
    25
100
AcDbCircle
 10
0.0
 20
0.0
 30
0.0
 40
144.9999999999999
  0
VIEWPORT
  5
12A
330
EB
100
AcDbEntity
  8
0
100
AcDbViewport
 10
0.0
 20
0.0
 30
0.0
 40
205.6
 41
156.0
 68
     1
 69
     1
 12
0.0
 22
0.0
 13
0.0
 23
0.0
 14
10.0
 24
10.0
 15
10.0
 25
10.0
 16
0.0
 26
0.0
 36
1.0
 17
0.0
 27
0.0
 37
0.0
 42
50.0
 43
0.0
 44
0.0
 45
295.8
 50
0.0
 51
0.0
 72
   100
 90
   557152
  1

281
     0
 71
     1
 74
     0
110
0.0
120
0.0
130
0.0
111
1.0
121
0.0
131
0.0
112
0.0
122
1.0
132
0.0
 79
     0
146
0.0
170
     0
 61
     5
348
2F
292
     1
282
     1
141
0.0
142
0.0
 63
   256
361
12B
  0
ENDBLK
  5
EE
330
EB
100
AcDbEntity
  8
0
100
AcDbBlockEnd
  0
BLOCK
  5
F5
330
F3
100
AcDbEntity
  8
0
100
AcDbBlockBegin
  2
*Paper_Space5
 70
     0
 10
0.0
 20
0.0
 30
0.0
  3
*Paper_Space5
  1

  0
SPLINE
  5
F7
330
F3
100
AcDbEntity
  8
0
  6
Continuous
 62
     7
370
    25
100
AcDbSpline
210
0.0
220
0.0
230
1.0
 70
     8
 71
     3
 72
    82
 73
    78
 74
     0
 42
0.000000001
 43
0.00000001
 40
0.0
 40
0.0
 40
0.0
 40
0.0
 40
0.007849014459314
 40
0.0216968419955887
 40
0.0355107278838393
 40
0.0492902900643677
 40
0.0630351200332573
 40
0.0767447781597388
 40
0.0904187897196058
 40
0.1040566415571298
 40
0.1176577793890553
 40
0.1312216058121864
 40
0.1447474791316252
 40
0.1582347131921904
 40
0.1716825784744105
 40
0.1850903048116403
 40
0.1984570861991239
 40
0.2117820883006402
 40
0.2250644594130251
 40
0.2383033458174722
 40
0.2514979126160592
 40
0.2646473712961595
 40
0.277751015340696
 40
0.2908082651402389
 40
0.3038187231693519
 40
0.316782239750217
 40
0.3296989886408985
 40
0.3425695501496557
 40
0.3553949977550553
 40
0.3681769831384044
 40
0.3809178159317285
 40
0.3936205415065278
 40
0.406289036904955
 40
0.4189281742380375
 40
0.4315441376085242
 40
0.4441450016037141
 40
0.4567416416378759
 40
0.4693488985089559
 40
0.4819866601650312
 40
0.4946802622304377
 40
0.507459548646537
 40
0.5203554362194578
 40
0.5333887067044338
 40
0.5465829752735295
 40
0.559952534841918
 40
0.5735001912958435
 40
0.5872175622761706
 40
0.6010875806609838
 40
0.61508813490294
 40
0.6277219532018902
 40
0.640403600184134
 40
0.6531282784285026
 40
0.6658925500970986
 40
0.6786933127629923
 40
0.6915277242788398
 40
0.7058472393239815
 40
0.7187433768849464
 40
0.7330753524174454
 40
0.7474400553864592
 40
0.7617958385898725
 40
0.776137616960064
 40
0.7904619543186882
 40
0.8047660526594295
 40
0.8190476212411181
 40
0.8333047849846174
 40
0.8475360085578152
 40
0.8617400330337049
 40
0.8759158229977722
 40
0.8900625223772064
 40
0.904179417555859
 40
0.9182659065696882
 40
0.9323214733669505
 40
0.9463456662774156
 40
0.9603380799709105
 40
0.9742983403023047
 40
0.9882260915399877
 40
0.9999999999999999
 40
0.9999999999999999
 40
0.9999999999999999
 40
0.9999999999999999
 10
-144.9668812696966
 20
122.4796019391308
 30
0.0
 10
-144.9714625170905
 20
121.2660527483754
 30
0.0
 10
-144.9841263491375
 20
117.9114678916165
 30
0.0
 10
-144.7077571953187
 20
112.4255113132974
 30
0.0
 10
-144.1653318157102
 20
106.0408197709093
 30
0.0
 10
-143.3471778555524
 20
99.70051587230137
 30
0.0
 10
-142.2725292419169
 20
93.41550231348764
 30
0.0
 10
-140.9409248275599
 20
87.1964999606969
 30
0.0
 10
-139.3577025423594
 20
81.05400108602652
 30
0.0
 10
-137.5271803516017
 20
74.9982645646981
 30
0.0
 10
-135.4544622518166
 20
69.0393000735635
 30
0.0
 10
-133.1449414159547
 20
63.1868554635782
 30
0.0
 10
-130.6044172074605
 20
57.45040355038093
 30
0.0
 10
-127.8390474349768
 20
51.83912934689132
 30
0.0
 10
-124.8553434582352
 20
46.36191748239628
 30
0.0
 10
-121.6601524971183
 20
41.02733989385455
 30
0.0
 10
-118.2606416806744
 20
35.84364378996967
 30
0.0
 10
-114.6642795599388
 20
30.81873992701506
 30
0.0
 10
-110.8788157266589
 20
25.96019125601789
 30
0.0
 10
-106.9122577537142
 20
21.27520204879258
 30
0.0
 10
-102.772844935731
 20
16.77060768307534
 30
0.0
 10
-98.46901813501171
 20
12.45286537692575
 30
0.0
 10
-94.00938502705509
 20
8.328046318947887
 30
0.0
 10
-89.40268008209495
 20
4.401829851529378
 30
0.0
 10
-84.65771881563568
 20
0.6795006287410033
 30
0.0
 10
-79.78334625628115
 20
-2.834050029893683
 30
0.0
 10
-74.78838028833268
 20
-6.13431708659671
 30
0.0
 10
-69.68155155179046
 20
-9.217167373722281
 30
0.0
 10
-64.47144280181463
 20
-12.0788163142662
 30
0.0
 10
-59.16643161402431
 20
-14.71579497684004
 30
0.0
 10
-53.77464012117884
 20
-17.12490819393384
 30
0.0
 10
-48.30389247147765
 20
-19.30318685570057
 30
0.0
 10
-42.7616729349274
 20
-21.24784013201479
 30
0.0
 10
-37.15506409606237
 20
-22.95621445398408
 30
0.0
 10
-31.49062848682836
 20
-24.42576233450187
 30
0.0
 10
-25.77418947196776
 20
-25.65401209046284
 30
0.0
 10
-20.0104878602397
 20
-26.63850964447754
 30
0.0
 10
-14.20275764957958
 20
-27.37668562419746
 30
0.0
 10
-8.352371581704716
 20
-27.86560514382998
 30
0.0
 10
-2.458805677820773
 20
-28.10160317081082
 30
0.0
 10
3.479694405201135
 20
-28.07989253963506
 30
0.0
 10
9.463645472138564
 20
-27.79440186321725
 30
0.0
 10
15.49203336728196
 20
-27.23805375303868
 30
0.0
 10
21.56072425066968
 20
-26.40322049662231
 30
0.0
 10
27.66228884496783
 20
-25.28223519808371
 30
0.0
 10
33.78396389352835
 20
-23.86851311663029
 30
0.0
 10
39.90797127625603
 20
-22.1575441583998
 30
0.0
 10
46.01274242866354
 20
-20.14755761459448
 30
0.0
 10
51.8619406320249
 20
-17.92067914983369
 30
0.0
 10
57.43963973279998
 20
-15.51579297145952
 30
0.0
 10
62.7365451422843
 20
-12.97054019689276
 30
0.0
 10
67.94312191426465
 20
-10.20230196943465
 30
0.0
 10
73.04898791611456
 20
-7.215678000938287
 30
0.0
 10
78.0442427510288
 20
-4.015589400272752
 30
0.0
 10
83.1033700575923
 20
-0.4786666678240972
 30
0.0
 10
88.01985931822954
 20
3.279808186048998
 30
0.0
 10
92.95003245954912
 20
7.391642414964698
 30
0.0
 10
97.70782721559623
 20
11.71361573548777
 30
0.0
 10
102.4294638230663
 20
16.40175622746919
 30
0.0
 10
106.9402966452315
 20
21.29578586146971
 30
0.0
 10
111.2272041944388
 20
26.37952377104511
 30
0.0
 10
115.2820511153286
 20
31.6406549475976
 30
0.0
 10
119.0976541349601
 20
37.06688191082419
 30
0.0
 10
122.6676342651126
 20
42.64585406234481
 30
0.0
 10
125.9863617660092
 20
48.36518480192349
 30
0.0
 10
129.0489137583952
 20
54.21247004492757
 30
0.0
 10
131.8510372782928
 20
60.17530416005537
 30
0.0
 10
134.3891199718645
 20
66.24129461415396
 30
0.0
 10
136.6601580370344
 20
72.39807571136859
 30
0.0
 10
138.6617550364277
 20
78.63332174775353
 30
0.0
 10
140.3920230174098
 20
84.9347602849386
 30
0.0
 10
141.8498609767618
 20
91.2901841035916
 30
0.0
 10
143.0338408992911
 20
97.68746801631461
 30
0.0
 10
143.9462818988629
 20
104.114568052478
 30
0.0
 10
144.5780347622548
 20
110.5595869234865
 30
0.0
 10
144.9453696736455
 20
116.6831275154228
 30
0.0
 10
144.970857073925
 20
120.6569780162603
 30
0.0
 10
144.9825328303277
 20
122.4773955527524
 30
0.0
  0
SPLINE
  5
F8
330
F3
100
AcDbEntity
  8
0
  6
Continuous
 62
     7
370
    25
100
AcDbSpline
210
0.0
220
0.0
230
1.0
 70
     8
 71
     3
 72
    76
 73
    72
 74
     0
 42
0.000000001
 43
0.00000001
 40
0.0
 40
0.0
 40
0.0
 40
0.0
 40
0.0063853216068471
 40
0.0228660210829575
 40
0.0403362755793903
 40
0.0569635180859033
 40
0.0729115100245605
 40
0.088356530237952
 40
0.1034358007575785
 40
0.1182525337856557
 40
0.1328840689970434
 40
0.1473885462750104
 40
0.1618098170647727
 40
0.1761809851200147
 40
0.1905269744581947
 40
0.2048664195938794
 40
0.2192092157226559
 40
0.2335661354388336
 40
0.2479450926134125
 40
0.262351477723188
 40
0.2767887105297234
 40
0.2912586748494472
 40
0.3057620619042251
 40
0.3202986420199292
 40
0.3348674795817649
 40
0.349467102719386
 40
0.3640956367019019
 40
0.3787509081679766
 40
0.3934305259032984
 40
0.4081319427798499
 40
0.4228525026049832
 40
0.4375894749374254
 40
0.4523400803734355
 40
0.4671015083624961
 40
0.4818709292585132
 40
0.4966455020351179
 40
0.5114223788816991
 40
0.5261984464343361
 40
0.5409701607169719
 40
0.5557346663724714
 40
0.5704891099426175
 40
0.5852306440178773
 40
0.5999564345087265
 40
0.6146636721053833
 40
0.6293495893228785
 40
0.6440114847931396
 40
0.6586467568007852
 40
0.6732529484751
 40
0.6878278075605714
 40
0.7023693643093583
 40
0.7168760317934264
 40
0.7313467338523736
 40
0.7457810670179872
 40
0.7601795041517503
 40
0.7745436492908797
 40
0.7888765554664839
 40
0.803183120253505
 40
0.8174705778714331
 40
0.8317491122830261
 40
0.8460293019078845
 40
0.8603264372044023
 40
0.874662877986683
 40
0.8890678240975156
 40
0.9035791119301834
 40
0.9182455171218338
 40
0.9331297014210898
 40
0.9483118958888196
 40
0.9638941464090139
 40
0.9800039573845324
 40
0.9967929685494934
 40
0.9999999999999999
 40
0.9999999999999999
 40
0.9999999999999999
 40
0.9999999999999999
 10
127.8138056501126
 20
98.4494013516335
 30
0.0
 10
127.7693432869621
 20
98.1560786732014
 30
0.0
 10
127.6101222804419
 20
97.10568169054267
 30
0.0
 10
127.0821955850921
 20
95.19089345544417
 30
0.0
 10
126.238684920418
 20
92.72862174782433
 30
0.0
 10
125.1236668377569
 20
90.20664182726297
 30
0.0
 10
123.7977998096321
 20
87.71424582568702
 30
0.0
 10
122.2565720231519
 20
85.24026086565736
 30
0.0
 10
120.4989297768798
 20
82.77810497762127
 30
0.0
 10
118.5214822626363
 20
80.3254103210719
 30
0.0
 10
116.321649660214
 20
77.88346163679016
 30
0.0
 10
113.897572009854
 20
75.45605640428589
 30
0.0
 10
111.2484802940774
 20
73.04876184476429
 30
0.0
 10
108.3747565442066
 20
70.66833315471158
 30
0.0
 10
105.2779702901768
 20
68.32229374251851
 30
0.0
 10
101.9611572169382
 20
66.01882743627795
 30
0.0
 10
98.42850011324477
 20
63.76627262848344
 30
0.0
 10
94.68522842499489
 20
61.57293154301275
 30
0.0
 10
90.73715828232537
 20
59.44676609121394
 30
0.0
 10
86.59100088638307
 20
57.39555694666914
 30
0.0
 10
82.2543216487746
 20
55.42683721249473
 30
0.0
 10
77.73546817393516
 20
53.54782703028649
 30
0.0
 10
73.04349939833489
 20
51.76538420939091
 30
0.0
 10
68.1881170772071
 20
50.08596743619824
 30
0.0
 10
63.17960040247994
 20
48.51560935676197
 30
0.0
 10
58.02874421673111
 20
47.0598973681746
 30
0.0
 10
52.7468010410165
 20
45.72396037393335
 30
0.0
 10
47.34542694241751
 20
44.51246008929689
 30
0.0
 10
41.83663112369381
 20
43.42958575009984
 30
0.0
 10
36.23272901438619
 20
42.47905129748942
 30
0.0
 10
30.54629857286243
 20
41.66409429165777
 30
0.0
 10
24.7901394651849
 20
40.98747595675924
 30
0.0
 10
18.97723476282878
 20
40.4514818820072
 30
0.0
 10
13.12071479173668
 20
40.0579230046239
 30
0.0
 10
7.233822764111012
 20
39.80813658244664
 30
0.0
 10
1.329881831073826
 20
39.70298693088343
 30
0.0
 10
-4.577701982661081
 20
39.74286551827977
 30
0.0
 10
-10.47541432474805
 20
39.92768428120578
 30
0.0
 10
-16.34975760408063
 20
40.25686761223915
 30
0.0
 10
-22.18731960604138
 20
40.72935525511531
 30
0.0
 10
-27.97486095590357
 20
41.34361322843209
 30
0.0
 10
-33.699255513165
 20
42.09762846122247
 30
0.0
 10
-39.34752359838308
 20
42.98890574327345
 30
0.0
 10
-44.90686684279969
 20
44.01446424620163
 30
0.0
 10
-50.36470505993753
 20
45.1708338000358
 30
0.0
 10
-55.70871559805595
 20
46.45405118637371
 30
0.0
 10
-60.92687565119024
 20
47.85965680450219
 30
0.0
 10
-66.00750802516927
 20
49.38269218698294
 30
0.0
 10
-70.93933086051393
 20
51.01769899181968
 30
0.0
 10
-75.7115118013722
 20
52.75872028595906
 30
0.0
 10
-80.31372705908917
 20
54.59930516721533
 30
0.0
 10
-84.73622573951585
 20
56.53251805788467
 30
0.0
 10
-88.96989967078218
 20
58.55095435476801
 30
0.0
 10
-93.00635876577347
 20
60.64676455149515
 30
0.0
 10
-96.83801165950095
 20
62.8116894807004
 30
0.0
 10
-100.4581509484372
 20
65.03710998089457
 30
0.0
 10
-103.8610417897211
 20
67.31411512887175
 30
0.0
 10
-107.042011841637
 20
69.63359421328538
 30
0.0
 10
-109.9973103439681
 20
71.98617672329178
 30
0.0
 10
-112.7242897124551
 20
74.36238523615657
 30
0.0
 10
-115.2216445661967
 20
76.75291942352789
 30
0.0
 10
-117.4896432436758
 20
79.1491063416236
 30
0.0
 10
-119.5300634553965
 20
81.54323300144775
 30
0.0
 10
-121.3460990358101
 20
83.92892373414692
 30
0.0
 10
-122.9420673459962
 20
86.30169927555698
 30
0.0
 10
-124.3237904074324
 20
88.65989692703327
 30
0.0
 10
-125.4956446702305
 20
91.0051238702615
 30
0.0
 10
-126.4692245451373
 20
93.34561732386032
 30
0.0
 10
-127.2248888160598
 20
95.68937255419996
 30
0.0
 10
-127.6754535453896
 20
97.39601808965503
 30
0.0
 10
-127.8077159433719
 20
98.31323058667557
 30
0.0
 10
-127.8289286242111
 20
98.46033616057883
 30
0.0
  0
LWPOLYLINE
  5
F9
330
F3
100
AcDbEntity
  8
0
  6
Continuous
 62
     7
370
    25
100
AcDbPolyline
 90
      139
 70
   128
 43
0.0
 10
-102.530483272
 20
181.67070989
 10
-107.0908620753
 20
178.9153797845
 10
-111.4292787133
 20
176.0430810613
 10
-115.5367411553
 20
173.0597669984
 10
-119.404736058
 20
169.9716209695
 10
-123.0252464114
 20
166.7850436289
 10
-126.3907681547
 20
163.5066396448
 10
-129.4943257304
 20
160.1432040101
 10
-132.3294865414
 20
156.7017079587
 10
-134.890374284
 20
153.1892845168
 10
-137.1716811272
 20
149.6132137182
 10
-139.1686787142
 20
145.9809075159
 10
-140.8772279627
 20
142.299894419
 10
-142.2937876433
 20
138.5778038895
 10
-143.4154217199
 20
134.8223505281
 10
-144.2398054344
 20
131.0413180857
 10
-144.7652301259
 20
127.2425433292
 10
-144.9906067712
 20
123.4338997994
 10
-144.9154682431
 20
119.6232814917
 10
-144.5399702775
 20
115.8185864944
 10
-143.8648911512
 20
112.0277006189
 10
-142.891630069
 20
108.2584810551
 10
-141.6222042629
 20
104.5187400861
 10
-140.0592448119
 20
100.8162288961
 10
-138.2059911881
 20
97.158621505
 10
-136.0662845425
 20
93.5534988626
 10
-133.644559744
 20
90.0083331362
 10
-130.9458361871
 20
86.5304722231
 10
-127.9757073883
 20
83.127124521
 10
-124.7403293933
 20
79.8053439879
 10
-121.2464080169
 20
76.5720155212
 10
-117.5011849448
 20
73.4338406878
 10
-113.5124227237
 20
70.3973238343
 10
-109.2883886725
 20
67.4687586056
 10
-104.8378377466
 20
64.6542149003
 10
-100.1699943926
 20
61.9595262901
 10
-95.2945334286
 20
59.3902779286
 10
-90.221559992
 20
56.9517949754
 10
-84.9615885948
 20
54.6491315587
 10
-79.5255213312
 20
52.4870603002
 10
-73.9246252804
 20
50.4700624226
 10
-68.1705091551
 20
48.6023184621
 10
-62.2750992394
 20
46.8876996033
 10
-56.2506146707
 20
45.3297596556
 10
-50.1095421133
 20
43.9317276873
 10
-43.8646098778
 20
42.6965013334
 10
-37.5287615399
 20
41.626640789
 10
-31.1151291128
 20
40.7243635034
 10
-24.6370058292
 20
39.9915395842
 10
-18.1078185887
 20
39.4296879207
 10
-11.541100129
 20
39.0399730365
 10
-4.950460977
 20
38.823202675
 10
1.6504387615
 20
38.779826126
 10
8.2479177135
 20
38.909933294
 10
14.8283015966
 20
39.213254512
 10
21.3779515602
 20
39.6891611004
 10
27.8832924547
 20
40.3366666703
 10
34.3308409676
 20
41.1544291673
 10
40.7072335701
 20
42.1407536539
 10
46.9992542147
 20
43.293595822
 10
53.1938617279
 20
44.6105662301
 10
59.2782168396
 20
46.0889352559
 10
65.2397087947
 20
47.7256387539
 10
71.0659814908
 20
49.5172844061
 10
76.744959088
 20
51.4601587533
 10
82.2648710381
 20
53.5502348918
 10
87.6142764806
 20
55.7831808195
 10
92.7820879557
 20
58.1543684151
 10
97.7575943852
 20
60.6588830302
 10
102.530483272
 20
63.2915336757
 10
107.0908620753
 20
66.0468637813
 10
111.4292787133
 20
68.9191625044
 10
115.5367411553
 20
71.9024765674
 10
119.404736058
 20
74.9906225963
 10
123.0252464114
 20
78.1771999368
 10
126.3907681547
 20
81.4556039209
 10
129.4943257304
 20
84.8190395556
 10
132.3294865414
 20
88.260535607
 10
134.890374284
 20
91.772959049
 10
137.1716811272
 20
95.3490298475
 10
139.1686787142
 20
98.9813360499
 10
140.8772279627
 20
102.6623491467
 10
142.2937876433
 20
106.3844396763
 10
143.4154217199
 20
110.1398930376
 10
144.2398054344
 20
113.9209254801
 10
144.7652301259
 20
117.7197002366
 10
144.9906067712
 20
121.5283437663
 10
144.9154682431
 20
125.338962074
 10
144.5399702775
 20
129.1436570713
 10
143.8648911512
 20
132.9345429468
 10
142.891630069
 20
136.7037625106
 10
141.6222042629
 20
140.4435034796
 10
140.0592448119
 20
144.1460146696
 10
138.2059911881
 20
147.8036220607
 10
136.0662845425
 20
151.4087447031
 10
133.644559744
 20
154.9539104295
 10
130.9458361871
 20
158.4317713427
 10
127.9757073883
 20
161.8351190447
 10
124.7403293933
 20
165.1568995778
 10
121.2464080169
 20
168.3902280445
 10
117.5011849448
 20
171.5284028779
 10
113.5124227237
 20
174.5649197314
 10
109.2883886725
 20
177.4934849601
 10
104.8378377466
 20
180.3080286654
 10
100.1699943926
 20
183.0027172756
 10
95.2945334286
 20
185.5719656371
 10
90.221559992
 20
188.0104485903
 10
84.9615885948
 20
190.313112007
 10
79.5255213311
 20
192.4751832655
 10
73.9246252804
 20
194.4921811431
 10
68.1705091551
 20
196.3599251036
 10
62.2750992394
 20
198.0745439624
 10
56.2506146707
 20
199.6324839102
 10
50.1095421133
 20
201.0305158784
 10
43.8646098778
 20
202.2657422323
 10
37.5287615399
 20
203.3356027768
 10
31.1151291128
 20
204.2378800623
 10
24.6370058292
 20
204.9707039816
 10
18.1078185887
 20
205.532555645
 10
11.541100129
 20
205.9222705293
 10
4.950460977
 20
206.1390408907
 10
-1.6504387615
 20
206.1824174397
 10
-8.2479177135
 20
206.0523102718
 10
-14.8283015966
 20
205.7489890538
 10
-21.3779515602
 20
205.2730824653
 10
-27.8832924547
 20
204.6255768955
 10
-34.3308409676
 20
203.8078143984
 10
-40.7072335701
 20
202.8214899118
 10
-46.9992542147
 20
201.6686477437
 10
-53.1938617279
 20
200.3516773356
 10
-59.2782168396
 20
198.8733083098
 10
-65.2397087947
 20
197.2366048119
 10
-71.0659814908
 20
195.4449591597
 10
-76.744959088
 20
193.5020848124
 10
-82.2648710381
 20
191.412008674
 10
-87.6142764806
 20
189.1790627462
 10
-92.7820879557
 20
186.8078751506
 10
-97.7575943852
 20
184.3033605356
 10
-102.530483272
 20
181.67070989
  0
LWPOLYLINE
  5
FB
330
F3
100
AcDbEntity
  8
0
  6
Continuous
 62
    60
370
    25
100
AcDbPolyline
 90
       20
 70
   128
 43
0.0
 10
-90.889900398
 20
158.6199281976
 10
-95.1749598641
 20
156.0236707874
 10
-99.2377338014
 20
153.3109318217
 10
-103.0687334133
 20
150.4880470282
 10
-106.6590112225
 20
147.5616093851
 10
-110.0001819689
 20
144.538453723
 10
-113.0844421935
 20
141.4256407621
 10
-115.9045884634
 20
138.2304406213
 10
-118.4540341966
 20
134.9603158387
 10
-120.7268250443
 20
131.622903942
 10
-122.7176527982
 20
128.2259996115
 10
-124.4218677878
 20
124.7775364747
 10
-125.83548974
 20
121.2855685769
 10
-126.9552170753
 20
117.758251571
 10
-127.7784346187
 20
114.2038236693
 10
-128.3032197073
 20
110.6305864028
 10
-128.5283466813
 20
107.0468852328
 10
-128.4532897463
 20
103.4610900594
 10
-128.0782242011
 20
99.8815756734
 10
-127.8489830743
 20
98.478989907
  0
LWPOLYLINE
  5
FC
330
F3
100
AcDbEntity
  8
0
  6
Continuous
 62
    60
370
    25
100
AcDbPolyline
 90
       52
 70
   128
 43
0.0
 10
127.8466000184
 20
98.4657657482
 10
128.3032197073
 20
101.6700246875
 10
128.5283466813
 20
105.2537258575
 10
128.4532897463
 20
108.8395210309
 10
128.0782242011
 20
112.4190354169
 10
127.4040260287
 20
115.9839088938
 10
126.4322698503
 20
119.5258155345
 10
125.1652252473
 20
123.0364830518
 10
123.6058514612
 20
126.5077121192
 10
121.7577904817
 20
129.9313955202
 10
119.6253585408
 20
133.2995370837
 10
117.2135360322
 20
136.6042703589
 10
114.527955879
 20
139.8378769883
 10
111.5748903782
 20
142.9928047336
 10
108.361236551
 20
146.0616851149
 10
104.8945000349
 20
149.03735062
 10
101.1827775537
 20
151.912851444
 10
97.2347380072
 20
154.6814717218
 10
93.0596022246
 20
157.3367452122
 10
88.6671214291
 20
159.872470401
 10
84.0675544631
 20
162.2827249845
 10
79.2716438283
 20
164.5618797016
 10
74.2905905963
 20
166.7046114807
 10
69.1360282476
 20
168.7059158724
 10
63.8199955016
 20
170.5611187378
 10
58.3549081989
 20
172.2658871644
 10
52.7535303043
 20
173.8162395866
 10
47.0289440952
 20
175.2085550846
 10
41.1945196081
 20
176.4395818409
 10
35.2638834118
 20
177.5064447356
 10
29.2508867817
 20
178.4066520608
 10
23.1695733502
 20
179.1381013408
 10
17.0341463066
 20
179.6990842418
 10
10.858935225
 20
180.0882905622
 10
4.6583625971
 20
180.3048112926
 10
-1.5530898526
 20
180.3481407389
 10
-7.7609149889
 20
180.2181777032
 10
-13.9506141487
 20
179.91522572
 10
-20.1077310028
 20
179.4399923479
 10
-26.2178853193
 20
178.7935875163
 10
-32.2668065499
 20
177.9775209338
 10
-38.2403671587
 20
176.9936985615
 10
-44.1246156182
 20
175.8444181623
 10
-49.9058089933
 20
174.5323639338
 10
-55.5704450391
 20
173.0606002394
 10
-61.1052937357
 20
171.4325644515
 10
-66.4974281873
 20
169.652058923
 10
-71.7342548143
 20
167.7232421071
 10
-76.8035427654
 20
165.6506188448
 10
-81.6934524835
 20
163.4390298439
 10
-86.3925633582
 20
161.0936403729
 10
-90.889900398
 20
158.6199281976
  0
ARC
  5
FD
330
F3
100
AcDbEntity
  8
0
  6
Continuous
 62
     7
370
    25
100
AcDbCircle
 10
0.0024071055
 20
55.2285051468
 30
0.0
 40
84.10572945008862
100
AcDbArc
 50
257.4374533378
 51
282.3686038977
  0
VIEWPORT
  5
12C
330
F3
100
AcDbEntity
  8
0
100
AcDbViewport
 10
0.0
 20
0.0
 30
0.0
 40
205.6
 41
156.0
 68
     1
 69
     1
 12
0.0
 22
0.0
 13
0.0
 23
0.0
 14
10.0
 24
10.0
 15
10.0
 25
10.0
 16
0.0
 26
0.0
 36
1.0
 17
0.0
 27
0.0
 37
0.0
 42
50.0
 43
0.0
 44
0.0
 45
295.8
 50
0.0
 51
0.0
 72
   100
 90
   557152
  1

281
     0
 71
     1
 74
     0
110
0.0
120
0.0
130
0.0
111
1.0
121
0.0
131
0.0
112
0.0
122
1.0
132
0.0
 79
     0
146
0.0
170
     0
 61
     5
348
2F
292
     1
282
     1
141
0.0
142
0.0
 63
   256
361
12D
  0
ENDBLK
  5
F6
330
F3
100
AcDbEntity
  8
0
100
AcDbBlockEnd
  0
BLOCK
  5
100
330
FE
100
AcDbEntity
  8
0
100
AcDbBlockBegin
  2
*Paper_Space6
 70
     0
 10
0.0
 20
0.0
 30
0.0
  3
*Paper_Space6
  1

  0
SPLINE
  5
102
330
FE
100
AcDbEntity
  8
0
  6
Continuous
 62
     7
370
    25
100
AcDbSpline
210
0.0
220
0.0
230
1.0
 70
     8
 71
     3
 72
    83
 73
    79
 74
     0
 42
0.000000001
 43
0.00000001
 40
0.0
 40
0.0
 40
0.0
 40
0.0
 40
0.0044587665289139
 40
0.0183187502532699
 40
0.032142060847531
 40
0.045928400541006
 40
0.0596774560585499
 40
0.0733888587664045
 40
0.0870621804147206
 40
0.1006969290221533
 40
0.1142925448883608
 40
0.12784839673254
 40
0.1413637780000982
 40
0.1548379034343271
 40
0.1682699060804822
 40
0.1816588349824012
 40
0.1950036539546498
 40
0.2083032419754164
 40
0.2215563959577657
 40
0.2347618369296922
 40
0.2479182209946864
 40
0.2610241568538286
 40
0.2740782321290396
 40
0.2870790511813389
 40
0.3000252874513055
 40
0.3129157533425235
 40
0.3257494899519944
 40
0.3385258769586739
 40
0.3512447589708863
 40
0.3639065779034755
 40
0.3765124915486182
 40
0.3890644489250749
 40
0.4015651915709535
 40
0.4140181756623624
 40
0.4264274943556393
 40
0.4387980522019475
 40
0.4511364722744907
 40
0.4634533082989004
 40
0.4757667179973337
 40
0.4881066163866088
 40
0.5005170100539211
 40
0.5130539409387327
 40
0.5257675959621371
 40
0.5387034880372403
 40
0.5518996433114687
 40
0.5653693436486565
 40
0.5790992156811704
 40
0.5915188991513797
 40
0.6040154980154256
 40
0.6165782060290965
 40
0.6291993470858901
 40
0.6418728917262445
 40
0.6545939517963569
 40
0.6673583634272812
 40
0.6801624148052898
 40
0.6930026955153181
 40
0.7058760258909491
 40
0.7187794306957065
 40
0.7317101330622573
 40
0.7446655547788706
 40
0.7590965815792111
 40
0.7735449140412242
 40
0.7879668999425524
 40
0.8023593358433155
 40
0.8167205772694547
 40
0.8310493995237133
 40
0.8453448861765314
 40
0.859606359011244
 40
0.8738333217861369
 40
0.8880254147709297
 40
0.9021823780109655
 40
0.9163040216407049
 40
0.9303902018665324
 40
0.9444408014890476
 40
0.9584557140434655
 40
0.9724348308096709
 40
0.986378030085478
 40
0.9999999999999999
 40
0.9999999999999999
 40
0.9999999999999999
 40
0.9999999999999999
 10
-144.970586495717
 20
128.5770190129323
 30
0.0
 10
-144.9788492381748
 20
127.8859510191744
 30
0.0
 10
-145.0127965450164
 20
125.0467124307473
 30
0.0
 10
-144.7985847036846
 20
120.0662389140076
 30
0.0
 10
-144.3265058915904
 20
113.6555021182519
 30
0.0
 10
-143.5717016848195
 20
107.2875581386766
 30
0.0
 10
-142.5617646434333
 20
100.9733829982274
 30
0.0
 10
-141.2940517695404
 20
94.72360994509422
 30
0.0
 10
-139.7745265852138
 20
88.54868928823633
 30
0.0
 10
-138.007382223698
 20
82.4588301339668
 30
0.0
 10
-135.9977986889063
 20
76.46399904230132
 30
0.0
 10
-133.7511948161936
 20
70.57390371008287
 30
0.0
 10
-131.2734150371445
 20
64.7979808948137
 30
0.0
 10
-128.5706661205963
 20
59.14538346886779
 30
0.0
 10
-125.649519905211
 20
53.62496796874236
 30
0.0
 10
-122.5168975546407
 20
48.24528226014939
 30
0.0
 10
-119.1800576391265
 20
43.01455338857501
 30
0.0
 10
-115.6465817646414
 20
37.94067555042574
 30
0.0
 10
-111.924358958846
 20
33.03119814603482
 30
0.0
 10
-108.021567845642
 20
28.29331387011069
 30
0.0
 10
-103.9466559893093
 20
23.73384681897246
 30
0.0
 10
-99.70831541147814
 20
19.35924064650203
 30
0.0
 10
-95.31545305668473
 20
15.17554690606557
 30
0.0
 10
-90.77715470374294
 20
11.18841390118627
 30
0.0
 10
-86.1026406187255
 20
7.403076670879805
 30
0.0
 10
-81.30121123061232
 20
3.824349198479467
 30
0.0
 10
-76.38218150150402
 20
0.4566205905677245
 30
0.0
 10
-71.35480378507972
 20
-2.69614217671986
 30
0.0
 10
-66.2281812442619
 20
-5.630381403281218
 30
0.0
 10
-61.01117772180502
 20
-8.342921431057942
 30
0.0
 10
-55.71233526887067
 20
-10.83092290826407
 30
0.0
 10
-50.33981587661217
 20
-13.0918166314731
 30
0.0
 10
-44.90138473841896
 20
-15.12322086531964
 30
0.0
 10
-39.40443888504025
 20
-16.92285645387473
 30
0.0
 10
-33.85604310457281
 20
-18.48848660170534
 30
0.0
 10
-28.26285674146959
 20
-19.81791224938448
 30
0.0
 10
-22.630747005878
 20
-20.90902844544285
 30
0.0
 10
-16.96388013795106
 20
-21.75987395482607
 30
0.0
 10
-11.2632933024888
 20
-22.36850805134752
 30
0.0
 10
-5.525402753649426
 20
-22.73251704102058
 30
0.0
 10
0.2586376667940288
 20
-22.8480970485736
 30
0.0
 10
6.100156229966392
 20
-22.70901004100755
 30
0.0
 10
12.00998538342374
 20
-22.30625655861671
 30
0.0
 10
17.9954070909535
 20
-21.62846749388381
 30
0.0
 10
24.05723823496441
 20
-20.66287102758718
 30
0.0
 10
30.18649678055958
 20
-19.39718091487716
 30
0.0
 10
36.13222492569442
 20
-17.88086453546268
 30
0.0
 10
41.85966311183836
 20
-16.15007772647822
 30
0.0
 10
47.33931398974934
 20
-14.24417074550788
 30
0.0
 10
52.76462308484611
 20
-12.10356604168769
 30
0.0
 10
58.12285169847623
 20
-9.731902410772305
 30
0.0
 10
63.40228066156574
 20
-7.133183342699717
 30
0.0
 10
68.5918687661095
 20
-4.311770610458677
 30
0.0
 10
73.68107531240146
 20
-1.27237708464159
 30
0.0
 10
78.65975561554293
 20
1.979927135644564
 30
0.0
 10
83.51811004874733
 20
5.439709503269788
 30
0.0
 10
88.24667176569963
 20
9.101179002281238
 30
0.0
 10
92.83630854562303
 20
12.95819191936221
 30
0.0
 10
97.27825091875827
 20
17.00428398674744
 30
0.0
 10
101.7243131016563
 20
21.39074000174911
 30
0.0
 10
106.1431602184474
 20
26.13295603380834
 30
0.0
 10
110.495995588897
 20
31.23909627655473
 30
0.0
 10
114.6163982462628
 20
36.52770445750954
 30
0.0
 10
118.4933754127635
 20
41.98130588824505
 30
0.0
 10
122.1208777740198
 20
47.58725169881802
 30
0.0
 10
125.4936870010917
 20
53.3330409614303
 30
0.0
 10
128.6072708789957
 20
59.20620445539355
 30
0.0
 10
131.4577398717869
 20
65.19430733402487
 30
0.0
 10
134.0418164271284
 20
71.28495658877151
 30
0.0
 10
136.3568042678337
 20
77.46580851398075
 30
0.0
 10
138.400582589288
 20
83.72457687101274
 30
0.0
 10
140.171528941093
 20
90.04904180506662
 30
0.0
 10
141.6687235336519
 20
96.4270593179437
 30
0.0
 10
142.8911199123091
 20
102.8465722969995
 30
0.0
 10
143.8405682388275
 20
109.295619227207
 30
0.0
 10
144.5105223842358
 20
115.762354717433
 30
0.0
 10
144.9251304267783
 20
122.1909021041983
 30
0.0
 10
144.9734210188998
 20
126.4636265906022
 30
0.0
 10
144.9972849389247
 20
128.5750928400913
 30
0.0
  0
SPLINE
  5
103
330
FE
100
AcDbEntity
  8
0
  6
Continuous
 62
     7
370
    25
100
AcDbSpline
210
0.0
220
0.0
230
1.0
 70
     8
 71
     3
 72
    77
 73
    73
 74
     0
 42
0.000000001
 43
0.00000001
 40
0.0
 40
0.0
 40
0.0
 40
0.0
 40
0.013530675060782
 40
0.0296871386126354
 40
0.0448294086299906
 40
0.0592728453352947
 40
0.0745689948934507
 40
0.0893145552537545
 40
0.103684216411731
 40
0.1178106257248183
 40
0.131784537163174
 40
0.145669575722038
 40
0.1595110014937919
 40
0.1733411535291817
 40
0.1871771739481645
 40
0.2010361026464826
 40
0.2149304496939299
 40
0.2288684615291087
 40
0.2428551773004111
 40
0.2568932237524564
 40
0.2709834205205228
 40
0.2851252445584165
 40
0.2993171876423552
 40
0.3135570314323103
 40
0.3278420582851061
 40
0.3421692116733179
 40
0.3565352169541774
 40
0.3709366709277846
 40
0.3853701068660606
 40
0.3998320403237242
 40
0.4143189999585875
 40
0.4288275467233425
 40
0.4433542840986243
 40
0.457895861483673
 40
0.4724489724214409
 40
0.4870103489899417
 40
0.5015767534257577
 40
0.5161449678472738
 40
0.5307111389323457
 40
0.5452716267710914
 40
0.5598231973652278
 40
0.5743625872167379
 40
0.5888864939179579
 40
0.6033915691987309
 40
0.6178744153247626
 40
0.632331586060563
 40
0.6467595937232538
 40
0.6611549242545544
 40
0.6755140627437543
 40
0.6898335324648374
 40
0.7041099512703023
 40
0.7183401101435394
 40
0.7325210798901729
 40
0.7466503534003307
 40
0.7607260327160327
 40
0.7747470724090991
 40
0.7887135937036676
 40
0.8026272876733204
 40
0.816491931222989
 40
0.8303140473055687
 40
0.8441037524180598
 40
0.8578758524575366
 40
0.8716480397740662
 40
0.8854421042662853
 40
0.8992937411366557
 40
0.9132514311154105
 40
0.927380976185759
 40
0.9417722143204023
 40
0.956549373916549
 40
0.9718876196626915
 40
0.9880398592378826
 40
0.9999999999999999
 40
0.9999999999999999
 40
0.9999999999999999
 40
0.9999999999999999
 10
128.0189592550589
 20
105.5831781149707
 30
0.0
 10
127.9410242718589
 20
105.1489073987828
 30
0.0
 10
127.770030094655
 20
104.1960905667354
 30
0.0
 10
127.2921208405773
 20
102.6403211662851
 30
0.0
 10
126.6298498455538
 20
100.9510047592889
 30
0.0
 10
125.7698012404538
 20
99.18174784815211
 30
0.0
 10
124.6916580890657
 20
97.32149724773232
 30
0.0
 10
123.3659409062273
 20
95.36500585136692
 30
0.0
 10
121.8264033440283
 20
93.37936163556756
 30
0.0
 10
120.0663920600504
 20
91.36620628153992
 30
0.0
 10
118.0801972020697
 20
89.32998409536253
 30
0.0
 10
115.8637431335374
 20
87.2774625510686
 30
0.0
 10
113.4146276209853
 20
85.21682088658174
 30
0.0
 10
110.7324315089708
 20
83.1573378983183
 30
0.0
 10
107.8183466336926
 20
81.10865268442873
 30
0.0
 10
104.6749936354008
 20
79.08043786609082
 30
0.0
 10
101.3057781918743
 20
77.0819459754292
 30
0.0
 10
97.71524622623501
 20
75.12223160959122
 30
0.0
 10
93.9090648008094
 20
73.21009600104058
 30
0.0
 10
89.8939216924061
 20
71.3540051851173
 30
0.0
 10
85.6774274784222
 20
69.56203146856005
 30
0.0
 10
81.26802177242739
 20
67.84181264949956
 30
0.0
 10
76.67488476315457
 20
66.20052483561055
 30
0.0
 10
71.90785479033023
 20
64.64486564848565
 30
0.0
 10
66.97735232508349
 20
63.18104527656723
 30
0.0
 10
61.89431041662256
 20
61.81478334653419
 30
0.0
 10
56.67011142728769
 20
60.55130998422786
 30
0.0
 10
51.31652970261695
 20
59.39536976235912
 30
0.0
 10
45.84567970553184
 20
58.35122750128274
 30
0.0
 10
40.26996907517128
 20
57.42267511152929
 30
0.0
 10
34.60205604125237
 20
56.61303884951305
 30
0.0
 10
28.85481062412925
 20
55.92518650613778
 30
0.0
 10
23.04127907005109
 20
55.36153416642374
 30
0.0
 10
17.17465100223162
 20
54.92405227094108
 30
0.0
 10
11.26822880664455
 20
54.61427078056958
 30
0.0
 10
5.335398805525609
 20
54.43328329885371
 30
0.0
 10
-0.6103961782782594
 20
54.38175004331638
 30
0.0
 10
-6.555595694929472
 20
54.45989843408279
 30
0.0
 10
-12.48657789755143
 20
54.66751406815559
 30
0.0
 10
-18.3897458937278
 20
55.00393623786047
 30
0.0
 10
-24.25164203988443
 20
55.46806553590762
 30
0.0
 10
-30.05894332294296
 20
56.05836677435512
 30
0.0
 10
-35.7984307339532
 20
56.77286193266008
 30
0.0
 10
-41.45701752587019
 20
57.60912369137083
 30
0.0
 10
-47.02177921220971
 20
58.56426755671477
 30
0.0
 10
-52.47998579001557
 20
59.63494262741163
 30
0.0
 10
-57.81913675200889
 20
60.81732110363217
 30
0.0
 10
-63.02699952170803
 20
62.10708670638446
 30
0.0
 10
-68.0916520209395
 20
63.49942227046042
 30
0.0
 10
-73.00153015364086
 20
64.98899690228147
 30
0.0
 10
-77.74548105722566
 20
66.56995326371614
 30
0.0
 10
-82.3128230235075
 20
68.23589576362727
 30
0.0
 10
-86.69341301309663
 20
69.97988072152542
 30
0.0
 10
-90.87772266466038
 20
71.794409925073
 30
0.0
 10
-94.85692361430422
 20
73.67142945069075
 30
0.0
 10
-98.62298276712556
 20
75.60233617328736
 30
0.0
 10
-102.1687678765162
 20
77.57799508329116
 30
0.0
 10
-105.4881633507842
 20
79.5887713921766
 30
0.0
 10
-108.5761955982669
 20
81.62458250492627
 30
0.0
 10
-111.4291663360695
 20
83.67497634261368
 30
0.0
 10
-114.0447912708992
 20
85.72924445519342
 30
0.0
 10
-116.4221533299138
 20
87.77642053491772
 30
0.0
 10
-118.5617366829589
 20
89.80531538102697
 30
0.0
 10
-120.4659221620127
 20
91.80502188343
 30
0.0
 10
-122.1392507161732
 20
93.76548664594135
 30
0.0
 10
-123.588474825285
 20
95.67820058435957
 30
0.0
 10
-124.8225068357094
 20
97.53687793320944
 30
0.0
 10
-125.8514722876013
 20
99.3382395380524
 30
0.0
 10
-126.6892276130175
 20
101.0851190755387
 30
0.0
 10
-127.3408552977609
 20
102.7836946105746
 30
0.0
 10
-127.7910365780776
 20
104.2838310352823
 30
0.0
 10
-127.9471857889731
 20
105.183447019418
 30
0.0
 10
-128.013617962976
 20
105.5661799532007
 30
0.0
  0
LWPOLYLINE
  5
104
330
FE
100
AcDbEntity
  8
0
  6
Continuous
 62
     7
370
    25
100
AcDbPolyline
 90
      139
 70
   128
 43
0.0
 10
-128.2406276432
 20
163.4281498345
 10
-131.1877392652
 20
160.3858457677
 10
-133.8629442643
 20
157.2776090624
 10
-136.2606978696
 20
154.1098820139
 10
-138.3760303707
 20
150.8892302202
 10
-140.204557418
 20
147.622328974
 10
-141.7424891098
 20
144.3159494269
 10
-142.986637848
 20
140.9769445556
 10
-143.9344249442
 20
137.6122349574
 10
-144.583885965
 20
134.2287945068
 10
-144.9336748033
 20
130.8336359008
 10
-144.9830664682
 20
127.4337961242
 10
-144.7319585879
 20
124.036321864
 10
-144.180871622
 20
120.6482549044
 10
-143.3309477823
 20
117.2766175316
 10
-142.1839486657
 20
113.928397979
 10
-140.7422516031
 20
110.6105359428
 10
-139.0088447318
 20
107.3299081987
 10
-136.9873208022
 20
104.0933143488
 10
-134.6818697314
 20
100.9074627281
 10
-132.0972699187
 20
97.7789565005
 10
-129.2388783421
 20
94.7142799729
 10
-126.1126194545
 20
91.7197851554
 10
-122.7249729048
 20
88.8016785959
 10
-119.0829601078
 20
85.9660085157
 10
-115.1941296913
 20
83.2186522742
 10
-111.0665418502
 20
80.5653041866
 10
-106.7087516404
 20
78.0114637222
 10
-102.1297912477
 20
75.5624241052
 10
-97.3391512668
 20
73.2232613442
 10
-92.3467610306
 20
70.9988237113
 10
-87.1629680302
 20
68.8937216931
 10
-81.7985164682
 20
66.9123184351
 10
-76.2645249896
 20
65.058720698
 10
-70.5724636369
 20
63.3367703462
 10
-64.7341300764
 20
61.7500363849
 10
-58.761625146
 20
60.3018075623
 10
-52.6673277743
 20
58.9950855539
 10
-46.463869323
 20
57.8325787407
 10
-40.1641074073
 20
56.8166965955
 10
-33.7810992456
 20
55.9495446892
 10
-27.3280745972
 20
55.2329203265
 10
-20.8184083409
 20
54.6683088208
 10
-14.2655927543
 20
54.2568804158
 10
-7.6832095483
 20
53.9994878596
 10
-1.0849017171
 20
53.8966646377
 10
5.5156547385
 20
53.9486238667
 10
12.1047791573
 20
54.1552578533
 10
18.6688145729
 20
54.5161383171
 10
25.1941560195
 20
55.030517278
 10
31.6672787303
 20
55.6973286073
 10
38.0747661703
 20
56.5151902365
 10
44.403337843
 20
57.4824070226
 10
50.6398768174
 20
58.5969742611
 10
56.7714569141
 20
59.8565818411
 10
62.7853694969
 20
61.2586190336
 10
68.6691498137
 20
62.8001799025
 10
74.4106028313
 20
64.4780693273
 10
79.9978285115
 20
66.2888096262
 10
85.419246476
 20
68.2286477632
 10
90.663620008
 20
70.2935631276
 10
95.7200793427
 20
72.4792758671
 10
100.5781441958
 20
74.781255758
 10
105.2277454862
 20
77.1947315958
 10
109.659246205
 20
79.714701083
 10
113.8634613904
 20
82.3359411981
 10
117.8316771644
 20
85.0530190207
 10
121.5556687938
 20
87.8603029921
 10
125.0277177373
 20
90.7519745876
 10
128.2406276432
 20
93.7220403762
 10
131.1877392652
 20
96.764344443
 10
133.8629442643
 20
99.8725811482
 10
136.2606978696
 20
103.0403081967
 10
138.3760303707
 20
106.2609599904
 10
140.204557418
 20
109.5278612366
 10
141.7424891098
 20
112.8342407837
 10
142.986637848
 20
116.1732456551
 10
143.9344249442
 20
119.5379552533
 10
144.583885965
 20
122.9213957039
 10
144.9336748033
 20
126.3165543098
 10
144.9830664682
 20
129.7163940864
 10
144.7319585879
 20
133.1138683467
 10
144.180871622
 20
136.5019353062
 10
143.3309477823
 20
139.873572679
 10
142.1839486657
 20
143.2217922317
 10
140.7422516031
 20
146.5396542679
 10
139.0088447318
 20
149.8202820119
 10
136.9873208022
 20
153.0568758618
 10
134.6818697314
 20
156.2427274826
 10
132.0972699187
 20
159.3712337102
 10
129.2388783421
 20
162.4359102378
 10
126.1126194545
 20
165.4304050552
 10
122.7249729048
 20
168.3485116148
 10
119.0829601078
 20
171.1841816949
 10
115.1941296913
 20
173.9315379365
 10
111.0665418502
 20
176.584886024
 10
106.7087516404
 20
179.1387264884
 10
102.1297912477
 20
181.5877661054
 10
97.3391512668
 20
183.9269288664
 10
92.3467610306
 20
186.1513664993
 10
87.1629680302
 20
188.2564685175
 10
81.7985164682
 20
190.2378717756
 10
76.2645249896
 20
192.0914695126
 10
70.5724636369
 20
193.8134198644
 10
64.7341300764
 20
195.4001538258
 10
58.761625146
 20
196.8483826483
 10
52.6673277743
 20
198.1551046567
 10
46.463869323
 20
199.3176114699
 10
40.1641074073
 20
200.3334936151
 10
33.7810992456
 20
201.2006455215
 10
27.3280745972
 20
201.9172698842
 10
20.8184083409
 20
202.4818813898
 10
14.2655927543
 20
202.8933097948
 10
7.6832095483
 20
203.150702351
 10
1.0849017171
 20
203.253525573
 10
-5.5156547385
 20
203.2015663439
 10
-12.1047791573
 20
202.9949323573
 10
-18.6688145729
 20
202.6340518936
 10
-25.1941560195
 20
202.1196729326
 10
-31.6672787303
 20
201.4528616034
 10
-38.0747661703
 20
200.6349999741
 10
-44.403337843
 20
199.667783188
 10
-50.6398768174
 20
198.5532159496
 10
-56.7714569141
 20
197.2936083696
 10
-62.7853694969
 20
195.891571177
 10
-68.6691498137
 20
194.3500103082
 10
-74.4106028313
 20
192.6721208833
 10
-79.9978285115
 20
190.8613805845
 10
-85.419246476
 20
188.9215424474
 10
-90.663620008
 20
186.856627083
 10
-95.7200793427
 20
184.6709143436
 10
-100.5781441958
 20
182.3689344526
 10
-105.2277454862
 20
179.9554586149
 10
-109.659246205
 20
177.4354891277
 10
-113.8634613904
 20
174.8142490126
 10
-117.8316771644
 20
172.0971711899
 10
-121.5556687938
 20
169.2898872185
 10
-125.0277177373
 20
166.3982156231
 10
-128.2406276432
 20
163.4281498345
  0
LWPOLYLINE
  5
105
330
FE
100
AcDbEntity
  8
0
  6
Continuous
 62
     7
370
    25
100
AcDbPolyline
 90
       22
 70
   128
 43
0.0
 10
-35.9809153469
 20
-17.8813456102
 10
-33.6276698681
 20
-19.0576602678
 10
-30.6591416219
 20
-20.3424850941
 10
-27.5062256906
 20
-21.5049678215
 10
-24.1878840814
 20
-22.538117142
 10
-20.7240736913
 20
-23.4357195741
 10
-17.1356262836
 20
-24.1923768311
 10
-13.4441232031
 20
-24.8035382872
 10
-9.6717655838
 20
-25.2655283456
 10
-5.8412408282
 20
-25.5755685437
 10
-1.975586163
 20
-25.7317942632
 10
1.9019499098
 20
-25.7332659444
 10
5.7680474321
 20
-25.5799747362
 10
9.5994552384
 20
-25.2728425501
 10
13.3731307915
 20
-24.8137165152
 10
17.0663787624
 20
-24.2053578695
 10
20.6569875233
 20
-23.4514253535
 10
24.1233627306
 20
-22.5564532059
 10
27.4446571961
 20
-21.5258238948
 10
30.6008962639
 20
-20.3657357458
 10
33.5730979409
 20
-19.0831656658
 10
35.7333184867
 20
-18.012568124
  0
LWPOLYLINE
  5
106
330
FE
100
AcDbEntity
  8
0
  6
Continuous
 62
    60
370
    25
100
AcDbPolyline
 90
       13
 70
   128
 43
0.0
 10
-113.6810975771
 20
142.3278355215
 10
-116.4465652009
 20
139.463003005
 10
-118.9400664762
 20
136.5327021962
 10
-121.1557777151
 20
133.5437769483
 10
-123.0885240213
 20
130.5032080348
 10
-124.7337913763
 20
127.4180968453
 10
-126.087737182
 20
124.2956487998
 10
-127.1471992351
 20
121.1431565205
 10
-127.9097031131
 20
117.9679827992
 10
-128.3734679527
 20
114.7775434012
 10
-128.5374106096
 20
111.5792897456
 10
-128.4011481883
 20
108.3806915019
 10
-128.0321060364
 20
105.5655623534
  0
LWPOLYLINE
  5
107
330
FE
100
AcDbEntity
  8
0
  6
Continuous
 62
    60
370
    25
100
AcDbPolyline
 90
       58
 70
   128
 43
0.0
 10
128.0378267945
 20
105.598777504
 10
128.3734679527
 20
108.0859547813
 10
128.5374106096
 20
111.2842084369
 10
128.4011481883
 20
114.4828066806
 10
127.9649989358
 20
117.6742790379
 10
127.229981499
 20
120.8511716773
 10
126.1978125452
 20
124.0060648187
 10
124.8709027528
 20
127.1315900631
 10
123.252351181
 20
130.2204476015
 10
121.3459380322
 20
133.265423264
 10
119.1561158224
 20
136.2594053687
 10
116.687998983
 20
139.1954013318
 10
113.9473519152
 20
142.0665539986
 10
110.9405755273
 20
144.8661576592
 10
107.6746922847
 20
147.5876737093
 10
104.1573298091
 20
150.2247459221
 10
100.3967030636
 20
152.7712152934
 10
96.4015951661
 20
155.2211344259
 10
92.1813368764
 20
157.56878142
 10
87.7457848031
 20
159.8086732372
 10
83.1052983837
 20
161.9355785066
 10
78.2707156892
 20
163.9445297422
 10
73.2533281115
 20
165.8308349455
 10
68.0648539918
 20
167.5900885631
 10
62.7174112518
 20
169.2181817768
 10
57.2234890918
 20
170.7113120994
 10
51.5959188215
 20
172.0659922558
 10
45.8478438921
 20
173.2790583278
 10
39.9926891989
 20
174.3476771434
 10
34.044129727
 20
175.2693528938
 10
28.0160586127
 20
176.0419329626
 10
21.9225546954
 20
176.6636129532
 10
15.7778496358
 20
177.1329409032
 10
9.5962946773
 20
177.4488206754
 10
3.3923271279
 20
177.6105145181
 10
-2.8195633587
 20
177.6176447876
 10
-9.0248686244
 20
177.470194831
 10
-15.2090958912
 20
177.1685090245
 10
-21.3578016099
 20
176.7132919692
 10
-27.4566251933
 20
176.1056068457
 10
-33.4913225564
 20
175.3468729307
 10
-39.4477993837
 20
174.4388622825
 10
-45.3121440478
 20
173.383695602
 10
-51.0706601
 20
172.1838372798
 10
-56.709898259
 20
170.8420896406
 10
-62.2166878231
 20
169.3615863984
 10
-67.5781674298
 20
167.7457853368
 10
-72.7818150953
 20
165.9984602343
 10
-77.8154774593
 20
164.1236920496
 10
-82.6673981701
 20
162.1258593906
 10
-87.326245342
 20
160.0096282881
 10
-91.7811380216
 20
157.7799412978
 10
-96.0216716006
 20
155.442005957
 10
-100.0379421165
 20
153.0012826222
 10
-103.8205693832
 20
150.4634717156
 10
-107.3607188996
 20
147.8345004123
 10
-110.6501224823
 20
145.1205087965
 10
-113.6810975771
 20
142.3278355215
  0
ARC
  5
109
330
FE
100
AcDbEntity
  8
0
  6
Continuous
 62
    60
370
    25
100
AcDbCircle
 10
-0.0131145053
 20
65.7040032735
 30
0.0
 40
90.00288102795082
100
AcDbArc
 50
252.2443074771
 51
288.0689991876
  0
VIEWPORT
  5
12E
330
FE
100
AcDbEntity
  8
0
100
AcDbViewport
 10
0.0
 20
0.0
 30
0.0
 40
205.6
 41
156.0
 68
     1
 69
     1
 12
0.0
 22
0.0
 13
0.0
 23
0.0
 14
10.0
 24
10.0
 15
10.0
 25
10.0
 16
0.0
 26
0.0
 36
1.0
 17
0.0
 27
0.0
 37
0.0
 42
50.0
 43
0.0
 44
0.0
 45
295.8
 50
0.0
 51
0.0
 72
   100
 90
   557152
  1

281
     0
 71
     1
 74
     0
110
0.0
120
0.0
130
0.0
111
1.0
121
0.0
131
0.0
112
0.0
122
1.0
132
0.0
 79
     0
146
0.0
170
     0
 61
     5
348
2F
292
     1
282
     1
141
0.0
142
0.0
 63
   256
361
12F
  0
ENDBLK
  5
101
330
FE
100
AcDbEntity
  8
0
100
AcDbBlockEnd
  0
BLOCK
  5
10C
330
10A
100
AcDbEntity
  8
0
100
AcDbBlockBegin
  2
*Paper_Space7
 70
     0
 10
0.0
 20
0.0
 30
0.0
  3
*Paper_Space7
  1

  0
SPLINE
  5
10E
330
10A
100
AcDbEntity
  8
0
  6
Continuous
 62
     7
370
    25
100
AcDbSpline
210
0.0
220
0.0
230
1.0
 70
     8
 71
     3
 72
    40
 73
    36
 74
     0
 42
0.000000001
 43
0.00000001
 40
0.0
 40
0.0
 40
0.0
 40
0.0
 40
0.0203645865581409
 40
0.0491838266525028
 40
0.0782265031749494
 40
0.1074838863527047
 40
0.1369404465795018
 40
0.1665761425130942
 40
0.1963693899517867
 40
0.2262991897544974
 40
0.2563463125798666
 40
0.286493793698527
 40
0.316727006448543
 40
0.3470335125596829
 40
0.3774028149520914
 40
0.4078260847652072
 40
0.4382958996132251
 40
0.4688060094914023
 40
0.4993511354367747
 40
0.529926800306579
 40
0.563908252598775
 40
0.5978536126662868
 40
0.6316705104182767
 40
0.6653607596531966
 40
0.6989282941395191
 40
0.7323767644430687
 40
0.7657094775539117
 40
0.7989293994743528
 40
0.8320391635279782
 40
0.8650410809465253
 40
0.8979371521867298
 40
0.9307290779672591
 40
0.9634182693596911
 40
0.9960058564933884
 40
1.0
 40
1.0
 40
1.0
 40
1.0
 10
33.63431520706471
 20
-7.647721498372409
 30
0.0
 10
34.93487174090781
 20
-7.28722844346788
 30
0.0
 10
38.07592972063625
 20
-6.416578412285768
 30
0.0
 10
42.99753862977209
 20
-4.770189767351149
 30
0.0
 10
48.41301069872785
 20
-2.74658589927429
 30
0.0
 10
53.78309910294352
 20
-0.4820688158819336
 30
0.0
 10
59.09819996828744
 20
2.010141100088375
 30
0.0
 10
64.34437528388455
 20
4.729373871297487
 30
0.0
 10
69.50851548644636
 20
7.670539006945698
 30
0.0
 10
74.57758271576876
 20
10.82885993105118
 30
0.0
 10
79.53921916427777
 20
14.19876072610723
 30
0.0
 10
84.38177827833739
 20
17.77431089509188
 30
0.0
 10
89.0943744513564
 20
21.54921364908632
 30
0.0
 10
93.66685085893987
 20
25.51688463243198
 30
0.0
 10
98.08973351456096
 20
29.67048128911458
 30
0.0
 10
102.3541771681803
 20
34.00292767685755
 30
0.0
 10
106.4519156760028
 20
38.50693083371021
 30
0.0
 10
110.3752148166332
 20
43.17498678917598
 30
0.0
 10
114.1168472739791
 20
47.99940759072354
 30
0.0
 10
117.8009186361606
 20
53.15545775466073
 30
0.0
 10
121.3927462598912
 20
58.64999786638364
 30
0.0
 10
124.852361119732
 20
64.48169568456616
 30
0.0
 10
128.0466847524279
 20
70.4411395316102
 30
0.0
 10
130.9698181021961
 20
76.51049464190962
 30
0.0
 10
133.6196332841544
 20
82.67754728564996
 30
0.0
 10
135.9945128091367
 20
88.93028584405567
 30
0.0
 10
138.0932532144776
 20
95.25676335214104
 30
0.0
 10
139.9151408344727
 20
101.6450971588772
 30
0.0
 10
141.4596610466539
 20
108.0834726906694
 30
0.0
 10
142.7275822468859
 20
114.5601626075598
 30
0.0
 10
143.7169335459895
 20
121.0634966797243
 30
0.0
 10
144.4379468337609
 20
127.58202242983
 30
0.0
 10
144.8575567256173
 20
134.1039627547456
 30
0.0
 10
145.0332777312425
 20
138.7204314219863
 30
0.0
 10
144.9901904750382
 20
141.1578716516332
 30
0.0
 10
144.9854860315476
 20
141.4240013807519
 30
0.0
  0
SPLINE
  5
10F
330
10A
100
AcDbEntity
  8
0
  6
Continuous
 62
     7
370
    25
100
AcDbSpline
210
0.0
220
0.0
230
1.0
 70
     8
 71
     3
 72
    41
 73
    37
 74
     0
 42
0.000000001
 43
0.00000001
 40
0.0
 40
0.0
 40
0.0
 40
0.0
 40
0.0180949261021159
 40
0.0505207913718648
 40
0.0828464951912439
 40
0.1150721807362546
 40
0.1471977215913989
 40
0.1792227185453813
 40
0.2111464936941695
 40
0.2429680815541272
 40
0.2746862168949451
 40
0.3062993189247702
 40
0.3378054713671862
 40
0.3692023978584326
 40
0.4004874319630429
 40
0.4316574809552413
 40
0.4627089823452213
 40
0.4936378519516365
 40
0.5244394221541446
 40
0.5551083688432281
 40
0.5856386255961912
 40
0.6160232838913072
 40
0.6462544789791375
 40
0.6763232627998129
 40
0.7062194688032923
 40
0.7359315798985739
 40
0.765446621903212
 40
0.7947501235356388
 40
0.8238262137761865
 40
0.8526579718914609
 40
0.8812282049801069
 40
0.9095208908778813
 40
0.9375235439688722
 40
0.9652305994519544
 40
0.9926471996996973
 40
0.9999999999999999
 40
0.9999999999999999
 40
0.9999999999999999
 40
0.9999999999999999
 10
-144.9667090777533
 20
141.4217864143013
 30
0.0
 10
-144.9716159163229
 20
140.2161214185828
 30
0.0
 10
-144.9853157439027
 20
136.8499208953359
 30
0.0
 10
-144.7116906974387
 20
131.3341017848932
 30
0.0
 10
-144.1726511158381
 20
124.8946328251242
 30
0.0
 10
-143.3587897543625
 20
118.503139380709
 30
0.0
 10
-142.2900255422193
 20
112.170138581144
 30
0.0
 10
-140.9662656111293
 20
105.9059651065922
 30
0.0
 10
-139.3932703124554
 20
99.72072835541272
 30
0.0
 10
-137.5757485082841
 20
93.62430611532184
 30
0.0
 10
-135.5191921842636
 20
87.6263288148369
 30
0.0
 10
-133.2293801908345
 20
81.73616667856616
 30
0.0
 10
-130.7125035775146
 20
75.96291656766674
 30
0.0
 10
-127.9751253842329
 20
70.31538942500401
 30
0.0
 10
-125.0241850334363
 20
64.80209813357189
 30
0.0
 10
-121.8669915824049
 20
59.43124588336736
 30
0.0
 10
-118.5112210384262
 20
54.21071505163219
 30
0.0
 10
-114.9649140807118
 20
49.14805660425924
 30
0.0
 10
-111.2364756156946
 20
44.25047999178405
 30
0.0
 10
-107.3346762830121
 20
39.52484347045652
 30
0.0
 10
-103.2686563946281
 20
34.9776447046459
 30
0.0
 10
-99.04793263701029
 20
30.61501140786412
 30
0.0
 10
-94.68240772708722
 20
26.44269157250615
 30
0.0
 10
-90.18238276770926
 20
22.46604273789601
 30
0.0
 10
-85.55857139241033
 20
18.69001884011611
 30
0.0
 10
-80.82211277376554
 20
15.11915472363325
 30
0.0
 10
-75.98457990089048
 20
11.75754026646887
 30
0.0
 10
-71.05796792245974
 20
8.608803106633395
 30
0.0
 10
-66.05466699255578
 20
5.676016053958399
 30
0.0
 10
-60.98731545643593
 20
2.961823352288381
 30
0.0
 10
-55.86877800614314
 20
0.4676895218258398
 30
0.0
 10
-50.71114604507186
 20
-1.803689000211397
 30
0.0
 10
-45.52756679198932
 20
-3.857627416078174
 30
0.0
 10
-40.32270770859638
 20
-5.673742615824221
 30
0.0
 10
-36.37477356487045
 20
-6.931289340335919
 30
0.0
 10
-34.14688947754321
 20
-7.515812589341627
 30
0.0
 10
-33.67575145019347
 20
-7.639423656920552
 30
0.0
  0
SPLINE
  5
111
330
10A
100
AcDbEntity
  8
0
  6
Continuous
 62
     7
370
    25
100
AcDbSpline
210
0.0
220
0.0
230
1.0
 70
     8
 71
     3
 72
    30
 73
    26
 74
     0
 42
0.000000001
 43
0.00000001
 40
0.0
 40
0.0
 40
0.0
 40
0.0
 40
0.0190984309143794
 40
0.0699086529328143
 40
0.1204857958467443
 40
0.1708010969363749
 40
0.2208231572289696
 40
0.2705178710050998
 40
0.3198484713556617
 40
0.3687757487786373
 40
0.4172585178125424
 40
0.4652544277204819
 40
0.5127212366039026
 40
0.5596186927922125
 40
0.6059111911549634
 40
0.6515713932782077
 40
0.6965850185741852
 40
0.7409570317936988
 40
0.7847194849119911
 40
0.8279413550770752
 40
0.8707409410351381
 40
0.9133019226617469
 40
0.9558702396588238
 40
0.9987165889257944
 40
1.0
 40
1.0
 40
1.0
 40
1.0
 10
-75.23314290146449
 20
100.1503015811764
 30
0.0
 10
-75.85787899564164
 20
100.2753659770241
 30
0.0
 10
-78.14468773811006
 20
100.7331566448941
 30
0.0
 10
-81.92994348773433
 20
101.5876037315644
 30
0.0
 10
-86.56891453156368
 20
102.7065052131162
 30
0.0
 10
-91.00174367342875
 20
103.8778417445837
 30
0.0
 10
-95.22929244969514
 20
105.0904513883658
 30
0.0
 10
-99.23748853738046
 20
106.3391068065294
 30
0.0
 10
-103.0168110792647
 20
107.6160640481216
 30
0.0
 10
-106.5572484351754
 20
108.9132069006803
 30
0.0
 10
-109.8498061616985
 20
110.2213705119609
 30
0.0
 10
-112.8863196328159
 20
111.5304106503288
 30
0.0
 10
-115.6597652570004
 20
112.8290780607736
 30
0.0
 10
-118.1644951729504
 20
114.10495576185
 30
0.0
 10
-120.396549790247
 20
115.3443991404513
 30
0.0
 10
-122.3540113976771
 20
116.5325163886552
 30
0.0
 10
-124.037385093136
 20
117.6531605970986
 30
0.0
 10
-125.4500579641343
 20
118.6890727357662
 30
0.0
 10
-126.5985752476614
 20
119.6217104062585
 30
0.0
 10
-127.4935972923189
 20
120.4324738870228
 30
0.0
 10
-128.1482618102895
 20
121.099016316548
 30
0.0
 10
-128.5858307473126
 20
121.6096498450248
 30
0.0
 10
-128.8125394314503
 20
121.9102400834787
 30
0.0
 10
-128.8859360199749
 20
122.0407243450586
 30
0.0
 10
-128.8668839179971
 20
122.0037132964318
 30
0.0
 10
-128.8663298320815
 20
122.0026369164717
 30
0.0
  0
SPLINE
  5
112
330
10A
100
AcDbEntity
  8
0
  6
Continuous
 62
     7
370
    25
100
AcDbSpline
210
0.0
220
0.0
230
1.0
 70
     8
 71
     3
 72
    29
 73
    25
 74
     0
 42
0.000000001
 43
0.00000001
 40
0.0
 40
0.0
 40
0.0
 40
0.0
 40
0.0187290428142641
 40
0.0640472836343047
 40
0.1082477715265956
 40
0.1520217416881318
 40
0.1957831424988935
 40
0.2397524497033683
 40
0.284142254939426
 40
0.329086677988616
 40
0.374664327541036
 40
0.4209136463876878
 40
0.4678439743707954
 40
0.5154438840825899
 40
0.5636875921272495
 40
0.6125399060922702
 40
0.6619600068079498
 40
0.7119042869592428
 40
0.762328424894653
 40
0.8131888454490263
 40
0.8644436983482748
 40
0.9160534655478008
 40
0.9679812906198472
 40
0.9999999999999999
 40
0.9999999999999999
 40
0.9999999999999999
 40
0.9999999999999999
 10
128.8509425042274
 20
121.9759000051063
 30
0.0
 10
128.8552341474125
 20
121.9835532694558
 30
0.0
 10
128.8699101824383
 20
122.0097249642605
 30
0.0
 10
128.7416082271045
 20
121.8103889818529
 30
0.0
 10
128.4284301936757
 20
121.4173713576196
 30
0.0
 10
127.9049098141813
 20
120.8416470411224
 30
0.0
 10
127.1647564644234
 20
120.1242185468706
 30
0.0
 10
126.1917001072883
 20
119.2805738157383
 30
0.0
 10
124.9757015919547
 20
118.3303704673772
 30
0.0
 10
123.5076151604501
 20
117.2897335441036
 30
0.0
 10
121.7810174615516
 20
116.1742498523426
 30
0.0
 10
119.7918423647375
 20
114.9985360937894
 30
0.0
 10
117.5383603661223
 20
113.7764279303653
 30
0.0
 10
115.0209925027099
 20
112.5209319007066
 30
0.0
 10
112.2421196960235
 20
111.2442188587205
 30
0.0
 10
109.2058584837164
 20
109.9576099371632
 30
0.0
 10
105.9178559400005
 20
108.6715703027903
 30
0.0
 10
102.3850097035739
 20
107.3957478427154
 30
0.0
 10
98.61551283599486
 20
106.1389037135495
 30
0.0
 10
94.61774908772763
 20
104.90931194801
 30
0.0
 10
90.40363482300381
 20
103.7134305925617
 30
0.0
 10
85.97528186164597
 20
102.5611287755867
 30
0.0
 10
81.97113987693876
 20
101.5907586829779
 30
0.0
 10
79.38227458028749
 20
101.0308037300505
 30
0.0
 10
78.39483506180396
 20
100.8172268978352
 30
0.0
  0
SPLINE
  5
113
330
10A
100
AcDbEntity
  8
0
  6
Continuous
 62
     7
370
    25
100
AcDbSpline
210
0.0
220
0.0
230
1.0
 70
     8
 71
     3
 72
     9
 73
     5
 74
     0
 42
0.000000001
 43
0.00000001
 40
0.0
 40
0.0
 40
0.0
 40
0.0
 40
0.8083009704397017
 40
1.0
 40
1.0
 40
1.0
 40
1.0
 10
46.70743486651177
 20
95.6788691856673
 30
0.0
 10
45.97144185838614
 20
95.58919101512065
 30
0.0
 10
45.06089858918128
 20
95.4782445065475
 30
0.0
 10
44.1293047849309
 20
95.38632590772639
 30
0.0
 10
43.9507191567117
 20
95.36870520153381
 30
0.0
  0
LWPOLYLINE
  5
114
330
10A
100
AcDbEntity
  8
0
  6
Continuous
 62
     7
370
    25
100
AcDbPolyline
 90
      139
 70
   128
 43
0.0
 10
-135.635080275
 20
158.5097701122
 10
-137.8278349889
 20
156.4342688367
 10
-139.7349204675
 20
154.3276510073
 10
-141.352383985
 20
152.1942829111
 10
-142.6768731013
 20
150.0385862793
 10
-143.7056426104
 20
147.8650291223
 10
-144.4365602304
 20
145.6781164693
 10
-144.8681110229
 20
143.4823810306
 10
-144.999400533
 20
141.2823738034
 10
-144.8301566432
 20
139.0826546385
 10
-144.3607301372
 20
136.8877827898
 10
-143.5920939731
 20
134.7023074644
 10
-142.5258412668
 20
132.5307583936
 10
-141.1641819899
 20
130.3776364445
 10
-139.5099383891
 20
128.2474042911
 10
-137.566539137
 20
126.1444771649
 10
-135.3380122251
 20
124.0732137035
 10
-132.8289766159
 20
122.0379069167
 10
-130.0446326688
 20
120.0427752885
 10
-126.9907513619
 20
118.0919540341
 10
-123.6736623304
 20
116.1894865282
 10
-120.100240748
 20
114.3393159254
 10
-116.2778930765
 20
112.5452769868
 10
-112.2145417153
 20
110.811088132
 10
-107.9186085804
 20
109.1403437323
 10
-103.3989976494
 20
107.5365066604
 10
-98.665076506
 20
106.0029011138
 10
-93.7266569248
 20
104.5427057241
 10
-88.5939745344
 20
103.1589469692
 10
-83.277667603
 20
101.8544929004
 10
-77.7887549883
 20
100.632047198
 10
-72.1386133001
 20
99.4941435674
 10
-66.3389533199
 20
98.4431404876
 10
-60.4017957284
 20
97.481216323
 10
-54.3394461916
 20
96.6103648084
 10
-48.1644698545
 20
95.8323909164
 10
-41.8896652987
 20
95.1489071168
 10
-35.5280380146
 20
94.5613300341
 10
-29.0927734465
 20
94.0708775116
 10
-22.5972096627
 20
93.6785660869
 10
-16.0548097111
 20
93.3852088855
 10
-9.4791337148
 20
93.1914139349
 10
-2.8838107662
 20
93.0975829048
 10
3.7174893205
 20
93.1039102743
 10
10.3110843428
 20
93.2103829289
 10
16.8833080684
 20
93.4167801879
 10
23.4205385597
 20
93.7226742613
 10
29.9092264085
 20
94.1274311371
 10
36.3359228181
 20
94.6302118947
 10
42.687307479
 20
95.2299744443
 10
48.9502161765
 20
95.9254756864
 10
55.111668076
 20
96.7152740884
 10
61.1588926275
 20
97.5977326726
 10
67.0793560346
 20
98.5710224089
 10
72.8607872329
 20
99.6331260055
 10
78.4912033233
 20
100.7818420906
 10
83.9589344087
 20
102.0147897747
 10
89.2526477815
 20
103.3294135855
 10
94.3613714123
 20
104.7229887643
 10
99.2745166913
 20
106.1926269138
 10
103.9819003745
 20
107.7352819845
 10
108.4737656905
 20
109.3477565881
 10
112.7408025624
 20
111.0267086249
 10
116.7741669048
 20
112.7686582104
 10
120.5654989541
 20
114.5699948879
 10
124.1069405956
 20
116.4269851123
 10
127.3911516509
 20
118.3357799876
 10
130.4113250908
 20
120.292423245
 10
133.1612011449
 20
122.2928594426
 10
135.635080275
 20
124.3329423708
 10
137.8278349889
 20
126.4084436463
 10
139.7349204675
 20
128.5150614758
 10
141.352383985
 20
130.648429572
 10
142.6768731013
 20
132.8041262038
 10
143.7056426104
 20
134.9776833608
 10
144.4365602304
 20
137.1645960138
 10
144.8681110229
 20
139.3603314524
 10
144.999400533
 20
141.5603386796
 10
144.8301566432
 20
143.7600578445
 10
144.3607301372
 20
145.9549296932
 10
143.5920939731
 20
148.1404050187
 10
142.5258412668
 20
150.3119540894
 10
141.1641819899
 20
152.4650760385
 10
139.5099383891
 20
154.5953081919
 10
137.566539137
 20
156.6982353181
 10
135.3380122251
 20
158.7694987795
 10
132.8289766159
 20
160.8048055664
 10
130.0446326688
 20
162.7999371945
 10
126.9907513619
 20
164.750758449
 10
123.6736623304
 20
166.6532259548
 10
120.100240748
 20
168.5033965576
 10
116.2778930765
 20
170.2974354962
 10
112.2145417153
 20
172.031624351
 10
107.9186085804
 20
173.7023687508
 10
103.3989976494
 20
175.3062058226
 10
98.665076506
 20
176.8398113692
 10
93.7266569248
 20
178.3000067589
 10
88.5939745344
 20
179.6837655139
 10
83.277667603
 20
180.9882195827
 10
77.7887549883
 20
182.210665285
 10
72.1386133001
 20
183.3485689157
 10
66.3389533199
 20
184.3995719954
 10
60.4017957284
 20
185.36149616
 10
54.3394461916
 20
186.2323476747
 10
48.1644698545
 20
187.0103215666
 10
41.8896652987
 20
187.6938053662
 10
35.5280380146
 20
188.2813824489
 10
29.0927734465
 20
188.7718349715
 10
22.5972096627
 20
189.1641463961
 10
16.0548097111
 20
189.4575035975
 10
9.4791337148
 20
189.6512985481
 10
2.8838107662
 20
189.7451295782
 10
-3.7174893205
 20
189.7388022087
 10
-10.3110843428
 20
189.6323295541
 10
-16.8833080684
 20
189.4259322951
 10
-23.4205385597
 20
189.1200382217
 10
-29.9092264085
 20
188.715281346
 10
-36.3359228181
 20
188.2125005884
 10
-42.687307479
 20
187.6127380388
 10
-48.9502161765
 20
186.9172367967
 10
-55.111668076
 20
186.1274383946
 10
-61.1588926275
 20
185.2449798104
 10
-67.0793560346
 20
184.2716900742
 10
-72.8607872329
 20
183.2095864775
 10
-78.4912033233
 20
182.0608703924
 10
-83.9589344087
 20
180.8279227083
 10
-89.2526477815
 20
179.5132988975
 10
-94.3613714123
 20
178.1197237187
 10
-99.2745166913
 20
176.6500855692
 10
-103.9819003745
 20
175.1074304985
 10
-108.4737656905
 20
173.4949558949
 10
-112.7408025624
 20
171.8160038581
 10
-116.7741669048
 20
170.0740542727
 10
-120.5654989541
 20
168.2727175951
 10
-124.1069405956
 20
166.4157273708
 10
-127.3911516509
 20
164.5069324954
 10
-130.4113250908
 20
162.550289238
 10
-133.1612011449
 20
160.5498530404
 10
-135.635080275
 20
158.5097701122
  0
LWPOLYLINE
  5
117
330
10A
100
AcDbEntity
  8
0
  6
Continuous
 62
     7
370
    25
100
AcDbPolyline
 90
       39
 70
   128
 43
0.0
 10
-49.5298847086
 20
-2.2801198978
 10
-49.1775807779
 20
-3.0104549084
 10
-48.3298385845
 20
-4.2716988855
 10
-47.1914350553
 20
-5.5072523628
 10
-45.7692166828
 20
-6.7096845765
 10
-44.0717368559
 20
-7.8717639576
 10
-42.1092044178
 20
-8.9865016241
 10
-39.8934222695
 20
-10.0471934124
 10
-37.4377163858
 20
-11.0474601973
 10
-34.7568556705
 20
-11.9812862567
 10
-31.8669631357
 20
-12.8430554508
 10
-28.7854189349
 20
-13.6275849982
 10
-25.5307558376
 20
-14.330156646
 10
-22.1225477707
 20
-14.9465450455
 10
-18.5812920984
 20
-15.4730431645
 10
-14.9282863491
 20
-15.9064845812
 10
-11.1855001292
 20
-16.2442625281
 10
-7.3754429953
 20
-16.4843455687
 10
-3.5210290795
 20
-16.6252898155
 10
0.3545607196
 20
-16.6662476131
 10
4.2280181487
 20
-16.6069726365
 10
8.0760477792
 20
-16.4478213725
 10
11.8755071081
 20
-16.1897509754
 10
15.60354574
 20
-15.8343135109
 10
19.2377428117
 20
-15.3836466219
 10
22.7562418346
 20
-14.840460672
 10
26.1378821415
 20
-14.2080224454
 10
29.3623261498
 20
-13.4901355001
 10
32.4101816736
 20
-12.6911172925
 10
35.2631185513
 20
-11.8157732123
 10
37.9039788849
 20
-10.8693676816
 10
40.3168802295
 20
-9.8575924948
 10
42.4873111125
 20
-8.7865325869
 10
44.4022183073
 20
-7.662629438
 10
46.0500853365
 20
-6.4926423342
 10
47.4210017342
 20
-5.2836077154
 10
48.5067226476
 20
-4.042796858
 10
49.3007184235
 20
-2.7776721447
 10
49.5307001688
 20
-2.2781508282
  0
LWPOLYLINE
  5
119
330
10A
100
AcDbEntity
  8
0
  6
Continuous
 62
    60
370
    25
100
AcDbPolyline
 90
        9
 70
   128
 43
0.0
 10
-120.2360365742
 20
137.7134921352
 10
-122.2912272829
 20
135.7594659153
 10
-124.0608011639
 20
133.7746238186
 10
-125.5406252953
 20
131.7636015357
 10
-126.7272434794
 20
129.7310959024
 10
-127.6178843144
 20
127.6818539297
 10
-128.2104676674
 20
125.6206617173
 10
-128.5036095324
 20
123.552333275
 10
-128.4987414327
 20
121.5099535297
  0
LWPOLYLINE
  5
11A
330
10A
100
AcDbEntity
  8
0
  6
Continuous
 62
    60
370
    25
100
AcDbPolyline
 90
       60
 70
   128
 43
0.0
 10
128.4938622881
 20
121.4458828243
 10
128.5036095324
 20
121.5780175436
 10
128.4966252631
 20
123.6486515388
 10
128.1895311716
 20
125.7167550254
 10
127.5830444903
 20
127.7774978517
 10
126.678581697
 20
129.8260670574
 10
125.4782552065
 20
131.8576781142
 10
123.9848684369
 20
133.8675861004
 10
122.2019092621
 20
135.8510967827
 10
120.133541866
 20
137.8035775801
 10
117.7845970164
 20
139.7204683831
 10
115.1605607829
 20
141.5972922045
 10
112.2675617237
 20
143.4296656352
 10
109.1123565722
 20
145.2133090822
 10
105.7023144561
 20
146.9440567637
 10
102.0453996868
 20
148.6178664381
 10
98.1501531582
 20
150.2308288455
 10
94.0256723992
 20
151.7791768374
 10
89.6815903255
 20
153.2592941753
 10
85.1280527422
 20
154.6677239766
 10
80.3756946473
 20
156.0011767882
 10
75.4356153933
 20
157.2565382694
 10
70.3193527642
 20
158.4308764652
 10
65.0388560285
 20
159.5214486542
 10
59.6064580309
 20
160.5257077548
 10
54.0348463887
 20
161.4413082731
 10
48.337033859
 20
162.2661117818
 10
42.526327947
 20
162.9981919141
 10
36.6162998257
 20
163.6358388628
 10
30.6207526394
 20
164.177563374
 10
24.5536892666
 20
164.622100225
 10
18.4292796148
 20
164.9684111793
 10
12.2618275265
 20
165.2156874118
 10
6.0657373718
 20
165.3633513972
 10
-0.1445195935
 20
165.4110582596
 10
-6.3544390266
 20
165.3586965772
 10
-12.549517373
 20
165.2063886434
 10
-18.71528574
 20
164.9544901802
 10
-24.83734369
 20
164.6035895082
 10
-30.901392873
 20
164.1545061723
 10
-36.893270421
 20
163.6082890273
 10
-42.7989820266
 20
162.9662137887
 10
-48.6047346265
 20
162.229780053
 10
-54.2969686166
 20
161.4007077953
 10
-59.8623895206
 20
160.4809333522
 10
-65.2879990402
 20
159.4726048996
 10
-70.5611254128
 20
158.3780774353
 10
-75.6694530076
 20
157.1999072789
 10
-80.6010510887
 20
155.9408461015
 10
-85.3444016803
 20
154.6038344986
 10
-89.8884264673
 20
153.1919951229
 10
-94.2225126693
 20
151.7086253907
 10
-98.3365378271
 20
150.1571897807
 10
-102.2208934444
 20
148.5413117426
 10
-105.8665074286
 20
146.8647652345
 10
-109.2648652793
 20
145.1314659085
 10
-112.4080299744
 20
143.3454619653
 10
-115.2886605069
 20
141.5109247001
 10
-117.900029031
 20
139.6321387595
 10
-120.2360365742
 20
137.7134921352
  0
LWPOLYLINE
  5
11B
330
10A
100
AcDbEntity
  8
0
  6
Continuous
 62
    60
370
    25
100
AcDbPolyline
 90
       35
 70
   128
 43
0.0
 10
-48.1874320935
 20
-2.7872096331
 10
-47.1914350553
 20
-3.8475980804
 10
-45.7692166828
 20
-5.0500302941
 10
-44.0717368559
 20
-6.2121096752
 10
-42.1092044178
 20
-7.3268473416
 10
-39.8934222695
 20
-8.3875391299
 10
-37.4377163858
 20
-9.3878059148
 10
-34.7568556705
 20
-10.3216319742
 10
-31.8669631357
 20
-11.1834011683
 10
-28.7854189349
 20
-11.9679307157
 10
-25.5307558376
 20
-12.6705023635
 10
-22.1225477707
 20
-13.2868907631
 10
-18.5812920984
 20
-13.813388882
 10
-14.9282863491
 20
-14.2468302988
 10
-11.1855001292
 20
-14.5846082456
 10
-7.3754429953
 20
-14.8246912863
 10
-3.5210290795
 20
-14.965635533
 10
0.3545607196
 20
-15.0065933306
 10
4.2280181487
 20
-14.9473183541
 10
8.0760477792
 20
-14.78816709
 10
11.8755071081
 20
-14.5300966929
 10
15.60354574
 20
-14.1746592285
 10
19.2377428117
 20
-13.7239923395
 10
22.7562418346
 20
-13.1808063896
 10
26.1378821415
 20
-12.548368163
 10
29.3623261498
 20
-11.8304812176
 10
32.4101816736
 20
-11.0314630101
 10
35.2631185513
 20
-10.1561189298
 10
37.9039788849
 20
-9.2097133992
 10
40.3168802295
 20
-8.1979382124
 10
42.4873111125
 20
-7.1268783044
 10
44.4022183073
 20
-6.0029751556
 10
46.0500853365
 20
-4.8329880517
 10
47.4210017342
 20
-3.6239534329
 10
48.1608586628
 20
-2.8190818088
  0
LINE
  5
11C
330
10A
100
AcDbEntity
  8
0
  6
Continuous
 62
     7
370
    25
100
AcDbLine
 10
-40.8471347517
 20
95.0566513501
 30
0.0
 11
-41.9390282595
 21
95.1674501178
 31
0.0
  0
ARC
  5
11D
330
10A
100
AcDbEntity
  8
0
  6
Continuous
 62
     7
370
    25
100
AcDbCircle
 10
-9.9279729348
 20
76.4341989742
 30
0.0
 40
87.370742274982
100
AcDbArc
 50
249.7160105801
 51
262.106797903
  0
ARC
  5
11E
330
10A
100
AcDbEntity
  8
0
  6
Continuous
 62
     7
370
    25
100
AcDbCircle
 10
7.3808526571
 20
89.385134904
 30
0.0
 40
100.5452445226313
100
AcDbArc
 50
279.1865593248
 51
285.185923902
  0
ARC
  5
11F
330
10A
100
AcDbEntity
  8
0
  6
Continuous
 62
    60
370
    25
100
AcDbCircle
 10
-0.0269669043
 20
138.5345266428
 30
0.0
 40
150.2478376269225
100
AcDbArc
 50
261.6189993105
 51
278.9829694399
  0
VIEWPORT
  5
130
330
10A
100
AcDbEntity
  8
0
100
AcDbViewport
 10
0.0
 20
0.0
 30
0.0
 40
205.6
 41
156.0
 68
     1
 69
     1
 12
0.0
 22
0.0
 13
0.0
 23
0.0
 14
10.0
 24
10.0
 15
10.0
 25
10.0
 16
0.0
 26
0.0
 36
1.0
 17
0.0
 27
0.0
 37
0.0
 42
50.0
 43
0.0
 44
0.0
 45
295.8
 50
0.0
 51
0.0
 72
   100
 90
   557152
  1

281
     0
 71
     1
 74
     0
110
0.0
120
0.0
130
0.0
111
1.0
121
0.0
131
0.0
112
0.0
122
1.0
132
0.0
 79
     0
146
0.0
170
     0
 61
     5
348
2F
292
     1
282
     1
141
0.0
142
0.0
 63
   256
361
131
  0
ENDBLK
  5
10D
330
10A
100
AcDbEntity
  8
0
100
AcDbBlockEnd
  0
ENDSEC
  0
SECTION
  2
ENTITIES
  0
CIRCLE
  5
73
330
1F
100
AcDbEntity
  8
0
  6
Continuous
 62
     7
370
    25
100
AcDbCircle
 10
0.0
 20
0.0
 30
0.0
 40
144.9999999999999
  0
CIRCLE
  5
74
330
1F
100
AcDbEntity
  8
0
  6
Continuous
 62
     7
370
    25
100
AcDbCircle
 10
0.0
 20
0.0
 30
0.0
 40
128.5377298256253
  0
CIRCLE
  5
75
330
1F
100
AcDbEntity
  8
0
  6
Continuous
 62
     7
370
    25
100
AcDbCircle
 10
0.0
 20
0.0
 30
0.0
 40
37.30104311104392
  0
CIRCLE
  5
76
330
1F
100
AcDbEntity
  8
0
  6
Continuous
 62
     7
370
    25
100
AcDbCircle
 10
0.0
 20
0.0
 30
0.0
 40
23.00000000000002
  0
LINE
  5
81
330
1B
100
AcDbEntity
 67
     1
  8
0
  6
Continuous
 62
     7
370
    25
100
AcDbLine
 10
-50.0
 20
1.7603291963
 30
0.0
 11
-50.0
 21
0.0
 31
0.0
  0
LINE
  5
82
330
1B
100
AcDbEntity
 67
     1
  8
0
  6
Continuous
 62
     7
370
    25
100
AcDbLine
 10
50.0
 20
0.0
 30
0.0
 11
50.0
 21
1.7603291963
 31
0.0
  0
LINE
  5
83
330
1B
100
AcDbEntity
 67
     1
  8
0
  6
Continuous
 62
     7
370
    25
100
AcDbLine
 10
-145.0
 20
150.0
 30
0.0
 11
145.0
 21
150.0
 31
0.0
  0
LINE
  5
84
330
1B
100
AcDbEntity
 67
     1
  8
0
  6
Continuous
 62
     7
370
    25
100
AcDbLine
 10
-50.0
 20
0.0
 30
0.0
 11
50.0
 21
0.0
 31
0.0
  0
LINE
  5
85
330
1B
100
AcDbEntity
 67
     1
  8
0
  6
Continuous
 62
    60
370
    25
100
AcDbLine
 10
-52.9112903226
 20
6.3031578177
 30
0.0
 11
52.9112903226
 21
6.3031578177
 31
0.0
  0
LINE
  5
86
330
1B
100
AcDbEntity
 67
     1
  8
0
  6
Continuous
 62
    60
370
    25
100
AcDbLine
 10
-50.0
 20
1.7603291963
 30
0.0
 11
50.0
 21
1.7603291963
 31
0.0
  0
ARC
  5
87
330
1B
100
AcDbEntity
 67
     1
  8
0
  6
Continuous
 62
     7
370
    25
100
AcDbCircle
 10
-13.1578947368
 20
150.0
 30
0.0
 40
158.1578947368423
100
AcDbArc
 50
294.692108304
 51
0.0
  0
ARC
  5
88
330
1B
100
AcDbEntity
 67
     1
  8
0
  6
Continuous
 62
     7
370
    25
100
AcDbCircle
 10
13.1578947368
 20
150.0
 30
0.0
 40
158.1578947368422
100
AcDbArc
 50
180.0
 51
245.307891696
  0
ARC
  5
89
330
1B
100
AcDbEntity
 67
     1
  8
0
  6
Continuous
 62
     7
370
    25
100
AcDbCircle
 10
-55.0
 20
1.7603291963
 30
0.0
 40
5.000000000000018
100
AcDbArc
 50
0.0
 51
65.307891696
  0
ARC
  5
8A
330
1B
100
AcDbEntity
 67
     1
  8
0
  6
Continuous
 62
     7
370
    25
100
AcDbCircle
 10
55.0
 20
1.7603291963
 30
0.0
 40
5.000000000000028
100
AcDbArc
 50
114.692108304
 51
180.0
  0
VIEWPORT
  5
120
330
1B
100
AcDbEntity
 67
     1
  8
0
100
AcDbViewport
 10
0.0
 20
0.0
 30
0.0
 40
205.6
 41
156.0
 68
     1
 69
     1
 12
0.0
 22
0.0
 13
0.0
 23
0.0
 14
10.0
 24
10.0
 15
10.0
 25
10.0
 16
0.0
 26
0.0
 36
1.0
 17
0.0
 27
0.0
 37
0.0
 42
50.0
 43
0.0
 44
0.0
 45
295.8
 50
0.0
 51
0.0
 72
   100
 90
   557152
  1

281
     0
 71
     1
 74
     0
110
0.0
120
0.0
130
0.0
111
1.0
121
0.0
131
0.0
112
0.0
122
1.0
132
0.0
 79
     0
146
0.0
170
     0
 61
     5
348
2F
292
     1
282
     1
141
0.0
142
0.0
 63
   256
361
121
  0
ENDSEC
  0
SECTION
  2
OBJECTS
  0
DICTIONARY
  5
C
330
0
100
AcDbDictionary
281
     1
  3
ACAD_DETAILVIEWSTYLE
350
139
  3
ACAD_GROUP
350
D
  3
ACAD_LAYOUT
350
1A
  3
ACAD_MATERIAL
350
43
  3
ACAD_MLEADERSTYLE
350
6B
  3
ACAD_MLINESTYLE
350
17
  3
ACAD_PLOTSETTINGS
350
19
  3
ACAD_PLOTSTYLENAME
350
E
  3
ACAD_SCALELIST
350
47
  3
ACAD_SECTIONVIEWSTYLE
350
13A
  3
ACAD_TABLESTYLE
350
69
  3
ACAD_VISUALSTYLE
350
2A
  3
ACDB_RECOMPOSE_DATA
350
136
  3
AcDbVariableDictionary
350
132
  0
SUN
  5
6D
330
29
100
AcDbSun
 90
        1
290
     0
 63
     7
421
 16777215
 40
1.0
291
     1
 91
  2455826
 92
 54000000
292
     0
 70
     2
 71
   256
280
     1
  0
SUN
  5
123
330
122
100
AcDbSun
 90
        1
290
     0
 63
     7
421
 16777215
 40
1.0
291
     1
 91
  2455826
 92
 54000000
292
     0
 70
     2
 71
   256
280
     1
  0
SUN
  5
125
330
124
100
AcDbSun
 90
        1
290
     0
 63
     7
421
 16777215
 40
1.0
291
     1
 91
  2455826
 92
 54000000
292
     0
 70
     2
 71
   256
280
     1
  0
SUN
  5
127
330
126
100
AcDbSun
 90
        1
290
     0
 63
     7
421
 16777215
 40
1.0
291
     1
 91
  2455826
 92
 54000000
292
     0
 70
     2
 71
   256
280
     1
  0
SUN
  5
129
330
128
100
AcDbSun
 90
        1
290
     0
 63
     7
421
 16777215
 40
1.0
291
     1
 91
  2455826
 92
 54000000
292
     0
 70
     2
 71
   256
280
     1
  0
SUN
  5
12B
330
12A
100
AcDbSun
 90
        1
290
     0
 63
     7
421
 16777215
 40
1.0
291
     1
 91
  2455826
 92
 54000000
292
     0
 70
     2
 71
   256
280
     1
  0
SUN
  5
12D
330
12C
100
AcDbSun
 90
        1
290
     0
 63
     7
421
 16777215
 40
1.0
291
     1
 91
  2455826
 92
 54000000
292
     0
 70
     2
 71
   256
280
     1
  0
SUN
  5
12F
330
12E
100
AcDbSun
 90
        1
290
     0
 63
     7
421
 16777215
 40
1.0
291
     1
 91
  2455826
 92
 54000000
292
     0
 70
     2
 71
   256
280
     1
  0
SUN
  5
131
330
130
100
AcDbSun
 90
        1
290
     0
 63
     7
421
 16777215
 40
1.0
291
     1
 91
  2455826
 92
 54000000
292
     0
 70
     2
 71
   256
280
     1
  0
SUN
  5
121
330
120
100
AcDbSun
 90
        1
290
     0
 63
     7
421
 16777215
 40
1.0
291
     1
 91
  2455826
 92
 54000000
292
     0
 70
     2
 71
   256
280
     1
  0
DICTIONARY
  5
139
102
{ACAD_REACTORS
330
C
102
}
330
C
100
AcDbDictionary
281
     1
  0
DICTIONARY
  5
D
102
{ACAD_REACTORS
330
C
102
}
330
C
100
AcDbDictionary
281
     1
  0
DICTIONARY
  5
1A
102
{ACAD_REACTORS
330
C
102
}
330
C
100
AcDbDictionary
281
     1
  3
_Dimetrisch
350
10B
  3
_Isometrisch
350
F4
  3
_Links
350
26
  3
_Normal auf
350
A4
  3
_Rechts
350
D4
  3
_Rückseite
350
BC
  3
_Trimetrisch
350
FF
  3
_Unten
350
EC
  3
_Vorderseite
350
1E
  3
Model
350
22
  0
DICTIONARY
  5
43
102
{ACAD_REACTORS
330
C
102
}
330
C
100
AcDbDictionary
281
     1
  3
ByBlock
350
45
  3
ByLayer
350
44
  3
Global
350
46
  0
DICTIONARY
  5
6B
102
{ACAD_REACTORS
330
C
102
}
330
C
100
AcDbDictionary
281
     1
  3
Standard
350
6C
  0
DICTIONARY
  5
17
102
{ACAD_REACTORS
330
C
102
}
330
C
100
AcDbDictionary
281
     1
  3
Standard
350
18
  0
DICTIONARY
  5
19
102
{ACAD_REACTORS
330
C
102
}
330
C
100
AcDbDictionary
281
     1
  0
ACDBDICTIONARYWDFLT
  5
E
102
{ACAD_REACTORS
330
C
102
}
330
C
100
AcDbDictionary
281
     1
  3
Normal
350
F
100
AcDbDictionaryWithDefault
340
F
  0
DICTIONARY
  5
47
102
{ACAD_REACTORS
330
C
102
}
330
C
100
AcDbDictionary
281
     1
  3
A0
350
48
  3
A1
350
49
  3
A2
350
4A
  3
A3
350
4B
  3
A4
350
4C
  3
A5
350
4D
  3
A6
350
4E
  3
A7
350
4F
  3
A8
350
50
  3
A9
350
51
  3
B0
350
52
  3
B1
350
53
  3
B2
350
54
  3
B3
350
55
  3
B4
350
56
  3
B5
350
57
  3
B6
350
58
  3
B7
350
59
  3
B8
350
5A
  3
B9
350
5B
  3
C0
350
5C
  3
C1
350
5D
  3
C2
350
5E
  3
C3
350
5F
  3
C4
350
60
  3
C5
350
61
  3
C6
350
62
  3
C7
350
63
  3
C8
350
64
  3
C9
350
65
  3
D0
350
66
  3
D1
350
67
  3
D2
350
68
  0
DICTIONARY
  5
13A
102
{ACAD_REACTORS
330
C
102
}
330
C
100
AcDbDictionary
281
     1
  0
DICTIONARY
  5
69
102
{ACAD_REACTORS
330
C
102
}
330
C
100
AcDbDictionary
281
     1
  3
Standard
350
6A
  0
DICTIONARY
  5
2A
102
{ACAD_REACTORS
330
C
102
}
330
C
100
AcDbDictionary
281
     1
  3
2dWireframe
350
2F
  3
Basic
350
32
  3
Brighten
350
36
  3
ColorChange
350
3A
  3
Conceptual
350
34
  3
Dim
350
35
  3
EdgeColorOff
350
3D
  3
Facepattern
350
39
  3
Flat
350
2B
  3
FlatWithEdges
350
2C
  3
Gouraud
350
2D
  3
GouraudWithEdges
350
2E
  3
Hidden
350
31
  3
JitterOff
350
3B
  3
Linepattern
350
38
  3
OverhangOff
350
3C
  3
Realistic
350
33
  3
Shaded
350
42
  3
Shaded with edges
350
41
  3
Shades of Gray
350
3E
  3
Sketchy
350
3F
  3
Thicken
350
37
  3
Wireframe
350
30
  3
X-Ray
350
40
  0
XRECORD
  5
136
102
{ACAD_REACTORS
330
C
102
}
330
C
100
AcDbXrecord
280
     1
 90
        1
330
6A
  0
DICTIONARY
  5
132
102
{ACAD_REACTORS
330
C
102
}
330
C
100
AcDbDictionary
281
     1
  3
CANNOSCALE
350
133
  3
CMLEADERSTYLE
350
138
  3
CTABLESTYLE
350
137
  0
LAYOUT
  5
10B
102
{ACAD_REACTORS
330
1A
102
}
330
1A
100
AcDbPlotSettings
  1

  2
none_device
  4
ISO_A4_(210.00_x_297.00_MM)
  6

 40
7.5
 41
20.0
 42
7.5
 43
20.0
 44
210.0
 45
297.0
 46
0.0
 47
0.0
 48
0.0
 49
0.0
140
0.0
141
0.0
142
1.0
143
1.1284046693
 70
   688
 72
     1
 73
     1
 74
     1
  7

 75
     0
 76
     0
 77
     2
 78
   300
147
0.8862068966
148
145.0
149
0.0
100
AcDbLayout
  1
_Dimetrisch
 70
     1
 71
     9
 10
0.0
 20
0.0
 11
0.0
 21
0.0
 12
0.0
 22
0.0
 32
0.0
 14
0.0
 24
0.0
 34
0.0
 15
0.0
 25
0.0
 35
0.0
146
0.0
 13
0.0
 23
0.0
 33
0.0
 16
1.0
 26
0.0
 36
0.0
 17
0.0
 27
1.0
 37
0.0
 76
     0
330
10A
331
130
  0
LAYOUT
  5
F4
102
{ACAD_REACTORS
330
1A
102
}
330
1A
100
AcDbPlotSettings
  1

  2
none_device
  4
ISO_A4_(210.00_x_297.00_MM)
  6

 40
7.5
 41
20.0
 42
7.5
 43
20.0
 44
210.0
 45
297.0
 46
0.0
 47
0.0
 48
0.0
 49
0.0
140
0.0
141
0.0
142
1.0
143
1.1284046693
 70
   688
 72
     1
 73
     1
 74
     1
  7

 75
     0
 76
     0
 77
     2
 78
   300
147
0.8862068966
148
145.0
149
0.0
100
AcDbLayout
  1
_Isometrisch
 70
     1
 71
     7
 10
0.0
 20
0.0
 11
0.0
 21
0.0
 12
0.0
 22
0.0
 32
0.0
 14
0.0
 24
0.0
 34
0.0
 15
0.0
 25
0.0
 35
0.0
146
0.0
 13
0.0
 23
0.0
 33
0.0
 16
1.0
 26
0.0
 36
0.0
 17
0.0
 27
1.0
 37
0.0
 76
     0
330
F3
331
12C
  0
LAYOUT
  5
26
102
{ACAD_REACTORS
330
1A
102
}
330
1A
100
AcDbPlotSettings
  1

  2
none_device
  4
ISO_A4_(210.00_x_297.00_MM)
  6

 40
7.5
 41
20.0
 42
7.5
 43
20.0
 44
210.0
 45
297.0
 46
0.0
 47
0.0
 48
0.0
 49
0.0
140
0.0
141
0.0
142
1.0
143
1.1284046693
 70
   688
 72
     1
 73
     1
 74
     1
  7

 75
     0
 76
     0
 77
     2
 78
   300
147
0.8862068966
148
145.0
149
0.0
100
AcDbLayout
  1
_Links
 70
     1
 71
     2
 10
0.0
 20
0.0
 11
0.0
 21
0.0
 12
0.0
 22
0.0
 32
0.0
 14
0.0
 24
0.0
 34
0.0
 15
0.0
 25
0.0
 35
0.0
146
0.0
 13
0.0
 23
0.0
 33
0.0
 16
1.0
 26
0.0
 36
0.0
 17
0.0
 27
1.0
 37
0.0
 76
     0
330
23
331
122
  0
LAYOUT
  5
A4
102
{ACAD_REACTORS
330
1A
102
}
330
1A
100
AcDbPlotSettings
  1

  2
none_device
  4
ISO_A4_(210.00_x_297.00_MM)
  6

 40
7.5
 41
20.0
 42
7.5
 43
20.0
 44
210.0
 45
297.0
 46
0.0
 47
0.0
 48
0.0
 49
0.0
140
0.0
141
0.0
142
1.0
143
1.1284046693
 70
   688
 72
     1
 73
     1
 74
     1
  7

 75
     0
 76
     0
 77
     2
 78
   300
147
0.8862068966
148
145.0
149
0.0
100
AcDbLayout
  1
_Normal auf
 70
     1
 71
     3
 10
0.0
 20
0.0
 11
0.0
 21
0.0
 12
0.0
 22
0.0
 32
0.0
 14
0.0
 24
0.0
 34
0.0
 15
0.0
 25
0.0
 35
0.0
146
0.0
 13
0.0
 23
0.0
 33
0.0
 16
1.0
 26
0.0
 36
0.0
 17
0.0
 27
1.0
 37
0.0
 76
     0
330
A3
331
124
  0
LAYOUT
  5
D4
102
{ACAD_REACTORS
330
1A
102
}
330
1A
100
AcDbPlotSettings
  1

  2
none_device
  4
ISO_A4_(210.00_x_297.00_MM)
  6

 40
7.5
 41
20.0
 42
7.5
 43
20.0
 44
210.0
 45
297.0
 46
0.0
 47
0.0
 48
0.0
 49
0.0
140
0.0
141
0.0
142
1.0
143
1.1284046693
 70
   688
 72
     1
 73
     1
 74
     1
  7

 75
     0
 76
     0
 77
     2
 78
   300
147
0.8862068966
148
145.0
149
0.0
100
AcDbLayout
  1
_Rechts
 70
     1
 71
     5
 10
0.0
 20
0.0
 11
0.0
 21
0.0
 12
0.0
 22
0.0
 32
0.0
 14
0.0
 24
0.0
 34
0.0
 15
0.0
 25
0.0
 35
0.0
146
0.0
 13
0.0
 23
0.0
 33
0.0
 16
1.0
 26
0.0
 36
0.0
 17
0.0
 27
1.0
 37
0.0
 76
     0
330
D3
331
128
  0
LAYOUT
  5
BC
102
{ACAD_REACTORS
330
1A
102
}
330
1A
100
AcDbPlotSettings
  1

  2
none_device
  4
ISO_A4_(210.00_x_297.00_MM)
  6

 40
7.5
 41
20.0
 42
7.5
 43
20.0
 44
210.0
 45
297.0
 46
0.0
 47
0.0
 48
0.0
 49
0.0
140
0.0
141
0.0
142
1.0
143
1.1284046693
 70
   688
 72
     1
 73
     1
 74
     1
  7

 75
     0
 76
     0
 77
     2
 78
   300
147
0.8862068966
148
145.0
149
0.0
100
AcDbLayout
  1
_Rückseite
 70
     1
 71
     4
 10
0.0
 20
0.0
 11
0.0
 21
0.0
 12
0.0
 22
0.0
 32
0.0
 14
0.0
 24
0.0
 34
0.0
 15
0.0
 25
0.0
 35
0.0
146
0.0
 13
0.0
 23
0.0
 33
0.0
 16
1.0
 26
0.0
 36
0.0
 17
0.0
 27
1.0
 37
0.0
 76
     0
330
BB
331
126
  0
LAYOUT
  5
FF
102
{ACAD_REACTORS
330
1A
102
}
330
1A
100
AcDbPlotSettings
  1

  2
none_device
  4
ISO_A4_(210.00_x_297.00_MM)
  6

 40
7.5
 41
20.0
 42
7.5
 43
20.0
 44
210.0
 45
297.0
 46
0.0
 47
0.0
 48
0.0
 49
0.0
140
0.0
141
0.0
142
1.0
143
1.1284046693
 70
   688
 72
     1
 73
     1
 74
     1
  7

 75
     0
 76
     0
 77
     2
 78
   300
147
0.8862068966
148
145.0
149
0.0
100
AcDbLayout
  1
_Trimetrisch
 70
     1
 71
     8
 10
0.0
 20
0.0
 11
0.0
 21
0.0
 12
0.0
 22
0.0
 32
0.0
 14
0.0
 24
0.0
 34
0.0
 15
0.0
 25
0.0
 35
0.0
146
0.0
 13
0.0
 23
0.0
 33
0.0
 16
1.0
 26
0.0
 36
0.0
 17
0.0
 27
1.0
 37
0.0
 76
     0
330
FE
331
12E
  0
LAYOUT
  5
EC
102
{ACAD_REACTORS
330
1A
102
}
330
1A
100
AcDbPlotSettings
  1

  2
none_device
  4
ISO_A4_(210.00_x_297.00_MM)
  6

 40
7.5
 41
20.0
 42
7.5
 43
20.0
 44
210.0
 45
297.0
 46
0.0
 47
0.0
 48
0.0
 49
0.0
140
0.0
141
0.0
142
1.0
143
1.1284046693
 70
   688
 72
     1
 73
     1
 74
     1
  7

 75
     0
 76
     0
 77
     2
 78
   300
147
0.8862068966
148
145.0
149
0.0
100
AcDbLayout
  1
_Unten
 70
     1
 71
     6
 10
0.0
 20
0.0
 11
0.0
 21
0.0
 12
0.0
 22
0.0
 32
0.0
 14
0.0
 24
0.0
 34
0.0
 15
0.0
 25
0.0
 35
0.0
146
0.0
 13
0.0
 23
0.0
 33
0.0
 16
1.0
 26
0.0
 36
0.0
 17
0.0
 27
1.0
 37
0.0
 76
     0
330
EB
331
12A
  0
LAYOUT
  5
1E
102
{ACAD_REACTORS
330
1A
102
}
330
1A
100
AcDbPlotSettings
  1

  2
none_device
  4
ISO_A4_(210.00_x_297.00_MM)
  6

 40
7.5
 41
20.0
 42
7.5
 43
20.0
 44
210.0
 45
297.0
 46
0.0
 47
0.0
 48
0.0
 49
0.0
140
0.0
141
0.0
142
1.0
143
1.1284046693
 70
   688
 72
     1
 73
     1
 74
     1
  7

 75
     0
 76
     0
 77
     2
 78
   300
147
0.8862068966
148
145.0
149
0.0
100
AcDbLayout
  1
_Vorderseite
 70
     1
 71
     1
 10
-167.5680933852
 20
-8.4630350195
 11
167.5680933852
 21
228.5019455253
 12
0.0
 22
0.0
 32
0.0
 14
-145.0
 24
0.0
 34
0.0
 15
145.0
 25
150.0
 35
0.0
146
0.0
 13
0.0
 23
0.0
 33
0.0
 16
1.0
 26
0.0
 36
0.0
 17
0.0
 27
1.0
 37
0.0
 76
     0
330
1B
331
120
  0
LAYOUT
  5
22
102
{ACAD_REACTORS
330
1A
102
}
330
1A
100
AcDbPlotSettings
  1

  2
none_device
  4
ANSI_A_(11.00_x_8.50_Inches)
  6

 40
6.35
 41
19.05
 42
6.35000508
 43
19.05000254
 44
279.4
 45
215.9
 46
133.34999746
 47
88.89999873
 48
0.0
 49
0.0
140
0.0
141
0.0
142
0.0290172414
143
1.0
 70
  1696
 72
     0
 73
     0
 74
     0
  7

 75
     0
 76
     0
 77
     2
 78
   300
147
0.0179189148
148
-1300.4909072572
149
0.0
100
AcDbLayout
  1
Model
 70
     1
 71
     0
 10
0.0
 20
0.0
 11
420.0
 21
297.0
 12
0.0
 22
0.0
 32
0.0
 14
-145.0
 24
-145.0
 34
0.0
 15
145.0
 25
145.0
 35
0.0
146
0.0
 13
0.0
 23
0.0
 33
0.0
 16
1.0
 26
0.0
 36
0.0
 17
0.0
 27
1.0
 37
0.0
 76
     0
330
1F
331
29
  0
MATERIAL
  5
45
102
{ACAD_REACTORS
330
43
102
}
330
43
100
AcDbMaterial
  1
ByBlock
 72
     1
 94
      127
  0
MATERIAL
  5
44
102
{ACAD_REACTORS
330
43
102
}
330
43
100
AcDbMaterial
  1
ByLayer
 72
     1
 94
      127
  0
MATERIAL
  5
46
102
{ACAD_REACTORS
330
43
102
}
330
43
100
AcDbMaterial
  1
Global
 72
     1
 94
      127
  0
MLEADERSTYLE
  5
6C
102
{ACAD_REACTORS
330
6B
102
}
330
6B
100
AcDbMLeaderStyle
179
     2
170
     2
171
     1
172
     0
 90
        2
 40
0.0
 41
0.0
173
     1
 91
-1056964608
340
14
 92
       -2
290
     1
 42
2.0
291
     1
 43
8.0
  3
Standard
341
0
 44
4.0
300

342
11
174
     1
178
     6
175
     1
176
     0
 93
-1056964608
 45
4.0
292
     0
297
     0
 46
4.0
343
0
 94
-1056964608
 47
1.0
 49
1.0
140
1.0
293
     1
141
0.0
294
     1
177
     0
142
1.0
295
     0
296
     0
143
3.75
271
     0
272
     9
273
     9
298
     0
  0
MLINESTYLE
  5
18
102
{ACAD_REACTORS
330
17
102
}
330
17
100
AcDbMlineStyle
  2
Standard
 70
     0
  3

 62
   256
 51
90.0
 52
90.0
 71
     2
 49
0.5
 62
   256
  6
BYLAYER
 49
-0.5
 62
   256
  6
BYLAYER
  0
ACDBPLACEHOLDER
  5
F
102
{ACAD_REACTORS
330
E
102
}
330
E
  0
SCALE
  5
48
102
{ACAD_REACTORS
330
47
102
}
330
47
100
AcDbScale
 70
     0
300
1:1
140
1.0
141
1.0
290
     1
  0
SCALE
  5
49
102
{ACAD_REACTORS
330
47
102
}
330
47
100
AcDbScale
 70
     0
300
1:2
140
1.0
141
2.0
290
     0
  0
SCALE
  5
4A
102
{ACAD_REACTORS
330
47
102
}
330
47
100
AcDbScale
 70
     0
300
1:4
140
1.0
141
4.0
290
     0
  0
SCALE
  5
4B
102
{ACAD_REACTORS
330
47
102
}
330
47
100
AcDbScale
 70
     0
300
1:5
140
1.0
141
5.0
290
     0
  0
SCALE
  5
4C
102
{ACAD_REACTORS
330
47
102
}
330
47
100
AcDbScale
 70
     0
300
1:8
140
1.0
141
8.0
290
     0
  0
SCALE
  5
4D
102
{ACAD_REACTORS
330
47
102
}
330
47
100
AcDbScale
 70
     0
300
1:10
140
1.0
141
10.0
290
     0
  0
SCALE
  5
4E
102
{ACAD_REACTORS
330
47
102
}
330
47
100
AcDbScale
 70
     0
300
1:16
140
1.0
141
16.0
290
     0
  0
SCALE
  5
4F
102
{ACAD_REACTORS
330
47
102
}
330
47
100
AcDbScale
 70
     0
300
1:20
140
1.0
141
20.0
290
     0
  0
SCALE
  5
50
102
{ACAD_REACTORS
330
47
102
}
330
47
100
AcDbScale
 70
     0
300
1:30
140
1.0
141
30.0
290
     0
  0
SCALE
  5
51
102
{ACAD_REACTORS
330
47
102
}
330
47
100
AcDbScale
 70
     0
300
1:40
140
1.0
141
40.0
290
     0
  0
SCALE
  5
52
102
{ACAD_REACTORS
330
47
102
}
330
47
100
AcDbScale
 70
     0
300
1:50
140
1.0
141
50.0
290
     0
  0
SCALE
  5
53
102
{ACAD_REACTORS
330
47
102
}
330
47
100
AcDbScale
 70
     0
300
1:100
140
1.0
141
100.0
290
     0
  0
SCALE
  5
54
102
{ACAD_REACTORS
330
47
102
}
330
47
100
AcDbScale
 70
     0
300
2:1
140
2.0
141
1.0
290
     0
  0
SCALE
  5
55
102
{ACAD_REACTORS
330
47
102
}
330
47
100
AcDbScale
 70
     0
300
4:1
140
4.0
141
1.0
290
     0
  0
SCALE
  5
56
102
{ACAD_REACTORS
330
47
102
}
330
47
100
AcDbScale
 70
     0
300
8:1
140
8.0
141
1.0
290
     0
  0
SCALE
  5
57
102
{ACAD_REACTORS
330
47
102
}
330
47
100
AcDbScale
 70
     0
300
10:1
140
10.0
141
1.0
290
     0
  0
SCALE
  5
58
102
{ACAD_REACTORS
330
47
102
}
330
47
100
AcDbScale
 70
     0
300
100:1
140
100.0
141
1.0
290
     0
  0
SCALE
  5
59
102
{ACAD_REACTORS
330
47
102
}
330
47
100
AcDbScale
 70
     0
300
1/128" = 1'-0"
140
0.0078125
141
12.0
290
     0
  0
SCALE
  5
5A
102
{ACAD_REACTORS
330
47
102
}
330
47
100
AcDbScale
 70
     0
300
1/64" = 1'-0"
140
0.015625
141
12.0
290
     0
  0
SCALE
  5
5B
102
{ACAD_REACTORS
330
47
102
}
330
47
100
AcDbScale
 70
     0
300
1/32" = 1'-0"
140
0.03125
141
12.0
290
     0
  0
SCALE
  5
5C
102
{ACAD_REACTORS
330
47
102
}
330
47
100
AcDbScale
 70
     0
300
1/16" = 1'-0"
140
0.0625
141
12.0
290
     0
  0
SCALE
  5
5D
102
{ACAD_REACTORS
330
47
102
}
330
47
100
AcDbScale
 70
     0
300
3/32" = 1'-0"
140
0.09375
141
12.0
290
     0
  0
SCALE
  5
5E
102
{ACAD_REACTORS
330
47
102
}
330
47
100
AcDbScale
 70
     0
300
1/8" = 1'-0"
140
0.125
141
12.0
290
     0
  0
SCALE
  5
5F
102
{ACAD_REACTORS
330
47
102
}
330
47
100
AcDbScale
 70
     0
300
3/16" = 1'-0"
140
0.1875
141
12.0
290
     0
  0
SCALE
  5
60
102
{ACAD_REACTORS
330
47
102
}
330
47
100
AcDbScale
 70
     0
300
1/4" = 1'-0"
140
0.25
141
12.0
290
     0
  0
SCALE
  5
61
102
{ACAD_REACTORS
330
47
102
}
330
47
100
AcDbScale
 70
     0
300
3/8" = 1'-0"
140
0.375
141
12.0
290
     0
  0
SCALE
  5
62
102
{ACAD_REACTORS
330
47
102
}
330
47
100
AcDbScale
 70
     0
300
1/2" = 1'-0"
140
0.5
141
12.0
290
     0
  0
SCALE
  5
63
102
{ACAD_REACTORS
330
47
102
}
330
47
100
AcDbScale
 70
     0
300
3/4" = 1'-0"
140
0.75
141
12.0
290
     0
  0
SCALE
  5
64
102
{ACAD_REACTORS
330
47
102
}
330
47
100
AcDbScale
 70
     0
300
1" = 1'-0"
140
1.0
141
12.0
290
     0
  0
SCALE
  5
65
102
{ACAD_REACTORS
330
47
102
}
330
47
100
AcDbScale
 70
     0
300
1-1/2" = 1'-0"
140
1.5
141
12.0
290
     0
  0
SCALE
  5
66
102
{ACAD_REACTORS
330
47
102
}
330
47
100
AcDbScale
 70
     0
300
3" = 1'-0"
140
3.0
141
12.0
290
     0
  0
SCALE
  5
67
102
{ACAD_REACTORS
330
47
102
}
330
47
100
AcDbScale
 70
     0
300
6" = 1'-0"
140
6.0
141
12.0
290
     0
  0
SCALE
  5
68
102
{ACAD_REACTORS
330
47
102
}
330
47
100
AcDbScale
 70
     0
300
1'-0" = 1'-0"
140
12.0
141
12.0
290
     0
  0
TABLESTYLE
  5
6A
102
{ACAD_REACTORS
330
69
102
}
102
{ACAD_XDICTIONARY
360
134
102
}
330
69
100
AcDbTableStyle
  3
Standard
 70
     0
 71
     0
 40
0.06
 41
0.06
280
     0
281
     0
  7
STANDARD
140
4.5
170
     2
 62
     0
 63
   257
283
     0
 90
        4
 91
        0
  1

274
    -2
284
     1
 64
     0
275
    -2
285
     1
 65
     0
276
    -2
286
     1
 66
     0
277
    -2
287
     1
 67
     0
278
    -2
288
     1
 68
     0
279
    -2
289
     1
 69
     0
  7
STANDARD
140
6.0
170
     5
 62
     0
 63
   257
283
     0
 90
        4
 91
        0
  1

274
    -2
284
     1
 64
     0
275
    -2
285
     1
 65
     0
276
    -2
286
     1
 66
     0
277
    -2
287
     1
 67
     0
278
    -2
288
     1
 68
     0
279
    -2
289
     1
 69
     0
  7
STANDARD
140
4.5
170
     5
 62
     0
 63
   257
283
     0
 90
        4
 91
        0
  1

274
    -2
284
     1
 64
     0
275
    -2
285
     1
 65
     0
276
    -2
286
     1
 66
     0
277
    -2
287
     1
 67
     0
278
    -2
288
     1
 68
     0
279
    -2
289
     1
 69
     0
  0
VISUALSTYLE
  5
2F
102
{ACAD_REACTORS
330
2A
102
}
330
2A
100
AcDbVisualStyle
  2
2dWireframe
 70
     4
177
     3
291
     0
 70
    58
 90
        0
176
     1
 90
        2
176
     1
 90
        0
176
     1
 90
        0
176
     1
 40
0.6
176
     1
 40
30.0
176
     1
 62
     7
420
 16777215
176
     1
 90
        1
176
     1
 90
        4
176
     1
 62
     7
176
     1
 62
   257
176
     1
 90
        1
176
     1
 90
        1
176
     1
 40
1.0
176
     1
 90
        0
176
     1
 62
   257
176
     1
 40
1.0
176
     1
 90
        1
176
     1
 90
        6
176
     1
 90
        2
176
     1
 62
     7
176
     1
 90
        5
176
     1
 90
        0
176
     1
 90
        0
176
     1
290
     0
176
     1
 90
        1
176
     1
 40
0.0
176
     1
 90
        0
176
     1
290
     1
176
     1
290
     1
176
     1
290
     0
176
     1
290
     0
176
     1
290
     0
176
     1
290
     0
176
     1
290
     0
176
     1
290
     0
176
     1
290
     0
176
     1
 90
       50
176
     1
 40
0.0
176
     1
 40
1.0
176
     1
 90
        0
176
     1
 62
    18
420
        0
176
     1
 90
       50
176
     1
 90
        3
176
     1
 62
     5
420
      255
176
     1
290
     0
176
     1
 90
       50
176
     1
 90
       50
176
     1
 90
       50
176
     1
290
     0
176
     1
 90
       50
176
     1
 62
   256
176
     0
 40
1.0
176
     0
 90
        2
176
     1
  1
strokes_ogs.tif
176
     1
290
     0
176
     1
 40
1.0
176
     1
 40
1.0
176
     1
  0
VISUALSTYLE
  5
32
102
{ACAD_REACTORS
330
2A
102
}
330
2A
100
AcDbVisualStyle
  2
Basic
 70
     7
177
     3
291
     1
 70
    58
 90
        1
176
     1
 90
        0
176
     1
 90
        1
176
     1
 90
        0
176
     1
 40
0.6
176
     1
 40
30.0
176
     1
 62
     7
420
 16777215
176
     1
 90
        0
176
     1
 90
        4
176
     1
 62
     7
176
     1
 62
   257
176
     1
 90
        1
176
     1
 90
        1
176
     1
 40
1.0
176
     1
 90
        8
176
     1
 62
     7
176
     1
 40
1.0
176
     1
 90
        1
176
     1
 90
        6
176
     1
 90
        2
176
     1
 62
     7
176
     1
 90
        5
176
     1
 90
        0
176
     1
 90
        0
176
     1
290
     0
176
     1
 90
        1
176
     1
 40
0.0
176
     1
 90
        0
176
     1
290
     0
176
     1
290
     1
176
     1
290
     1
176
     1
290
     0
176
     1
290
     0
176
     1
290
     0
176
     1
290
     0
176
     1
290
     0
176
     1
290
     0
176
     1
 90
       50
176
     1
 40
0.0
176
     1
 40
1.0
176
     1
 90
        0
176
     1
 62
    18
420
        0
176
     1
 90
       50
176
     1
 90
        3
176
     1
 62
     5
420
      255
176
     1
290
     0
176
     1
 90
       50
176
     1
 90
       50
176
     1
 90
       50
176
     1
290
     0
176
     1
 90
       50
176
     1
 62
   256
176
     0
 40
1.0
176
     0
 90
        2
176
     1
  1
strokes_ogs.tif
176
     1
290
     0
176
     1
 40
1.0
176
     1
 40
1.0
176
     1
  0
VISUALSTYLE
  5
36
102
{ACAD_REACTORS
330
2A
102
}
330
2A
100
AcDbVisualStyle
  2
Brighten
 70
    12
177
     3
291
     1
 70
    58
 90
        2
176
     1
 90
        2
176
     1
 90
        0
176
     1
 90
        0
176
     1
 40
0.6
176
     1
 40
30.0
176
     1
 62
     7
420
 16777215
176
     1
 90
        1
176
     1
 90
        4
176
     1
 62
     7
176
     1
 62
   257
176
     1
 90
        1
176
     1
 90
        1
176
     1
 40
1.0
176
     1
 90
        8
176
     1
 62
     7
176
     1
 40
1.0
176
     1
 90
        1
176
     1
 90
        6
176
     1
 90
        2
176
     1
 62
     7
176
     1
 90
        5
176
     1
 90
        0
176
     1
 90
        0
176
     1
290
     0
176
     1
 90
        1
176
     1
 40
50.0
176
     1
 90
        0
176
     1
290
     0
176
     1
290
     1
176
     1
290
     1
176
     1
290
     0
176
     1
290
     0
176
     1
290
     0
176
     1
290
     0
176
     1
290
     0
176
     1
290
     0
176
     1
 90
       50
176
     1
 40
0.0
176
     1
 40
1.0
176
     1
 90
        0
176
     1
 62
    18
420
        0
176
     1
 90
       50
176
     1
 90
        3
176
     1
 62
     5
420
      255
176
     1
290
     0
176
     1
 90
       50
176
     1
 90
       50
176
     1
 90
       50
176
     1
290
     0
176
     1
 90
       50
176
     1
 62
   256
176
     0
 40
1.0
176
     0
 90
        2
176
     1
  1
strokes_ogs.tif
176
     1
290
     0
176
     1
 40
1.0
176
     1
 40
1.0
176
     1
  0
VISUALSTYLE
  5
3A
102
{ACAD_REACTORS
330
2A
102
}
330
2A
100
AcDbVisualStyle
  2
ColorChange
 70
    16
177
     3
291
     1
 70
    58
 90
        2
176
     1
 90
        2
176
     1
 90
        3
176
     1
 90
        0
176
     1
 40
0.6
176
     1
 40
30.0
176
     1
 62
     8
420
  8421504
176
     1
 90
        1
176
     1
 90
        4
176
     1
 62
     7
176
     1
 62
   257
176
     1
 90
        1
176
     1
 90
        1
176
     1
 40
1.0
176
     1
 90
        8
176
     1
 62
     8
420
  8421504
176
     1
 40
1.0
176
     1
 90
        1
176
     1
 90
        6
176
     1
 90
        2
176
     1
 62
     7
176
     1
 90
        5
176
     1
 90
        0
176
     1
 90
        0
176
     1
290
     0
176
     1
 90
        1
176
     1
 40
0.0
176
     1
 90
        0
176
     1
290
     0
176
     1
290
     1
176
     1
290
     1
176
     1
290
     0
176
     1
290
     0
176
     1
290
     0
176
     1
290
     0
176
     1
290
     0
176
     1
290
     0
176
     1
 90
       50
176
     1
 40
0.0
176
     1
 40
1.0
176
     1
 90
        0
176
     1
 62
    18
420
        0
176
     1
 90
       50
176
     1
 90
        3
176
     1
 62
     5
420
      255
176
     1
290
     0
176
     1
 90
       50
176
     1
 90
       50
176
     1
 90
       50
176
     1
290
     0
176
     1
 90
       50
176
     1
 62
   256
176
     0
 40
1.0
176
     0
 90
        2
176
     1
  1
strokes_ogs.tif
176
     1
290
     0
176
     1
 40
1.0
176
     1
 40
1.0
176
     1
  0
VISUALSTYLE
  5
34
102
{ACAD_REACTORS
330
2A
102
}
330
2A
100
AcDbVisualStyle
  2
Conceptual
 70
     9
177
     3
291
     0
 70
    58
 90
        3
176
     1
 90
        2
176
     1
 90
        0
176
     1
 90
        0
176
     1
 40
0.6
176
     1
 40
30.0
176
     1
 62
     7
420
 16777215
176
     1
 90
        2
176
     1
 90
        2
176
     1
 62
     7
176
     1
 62
   257
176
     1
 90
        1
176
     1
 90
        1
176
     1
 40
179.0
176
     1
 90
        8
176
     1
 62
     7
176
     1
 40
1.0
176
     1
 90
        1
176
     1
 90
        6
176
     1
 90
        2
176
     1
 62
     7
176
     1
 90
        3
176
     1
 90
        0
176
     1
 90
        0
176
     1
290
     0
176
     1
 90
        1
176
     1
 40
0.0
176
     1
 90
        0
176
     1
290
     0
176
     1
290
     1
176
     1
290
     1
176
     1
290
     0
176
     1
290
     0
176
     1
290
     0
176
     1
290
     0
176
     1
290
     0
176
     1
290
     0
176
     1
 90
       50
176
     1
 40
0.0
176
     1
 40
1.0
176
     1
 90
        0
176
     1
 62
    18
420
        0
176
     1
 90
       50
176
     1
 90
        3
176
     1
 62
     5
420
      255
176
     1
290
     0
176
     1
 90
       50
176
     1
 90
       50
176
     1
 90
       50
176
     1
290
     0
176
     1
 90
       50
176
     1
 62
   256
176
     0
 40
1.0
176
     0
 90
        2
176
     1
  1
strokes_ogs.tif
176
     1
290
     0
176
     1
 40
1.0
176
     1
 40
1.0
176
     1
  0
VISUALSTYLE
  5
35
102
{ACAD_REACTORS
330
2A
102
}
330
2A
100
AcDbVisualStyle
  2
Dim
 70
    11
177
     3
291
     1
 70
    58
 90
        2
176
     1
 90
        2
176
     1
 90
        0
176
     1
 90
        0
176
     1
 40
0.6
176
     1
 40
30.0
176
     1
 62
     7
420
 16777215
176
     1
 90
        1
176
     1
 90
        4
176
     1
 62
     7
176
     1
 62
   257
176
     1
 90
        1
176
     1
 90
        1
176
     1
 40
1.0
176
     1
 90
        8
176
     1
 62
     7
176
     1
 40
1.0
176
     1
 90
        1
176
     1
 90
        6
176
     1
 90
        2
176
     1
 62
     7
176
     1
 90
        5
176
     1
 90
        0
176
     1
 90
        0
176
     1
290
     0
176
     1
 90
        1
176
     1
 40
-50.0
176
     1
 90
        0
176
     1
290
     0
176
     1
290
     1
176
     1
290
     1
176
     1
290
     0
176
     1
290
     0
176
     1
290
     0
176
     1
290
     0
176
     1
290
     0
176
     1
290
     0
176
     1
 90
       50
176
     1
 40
0.0
176
     1
 40
1.0
176
     1
 90
        0
176
     1
 62
    18
420
        0
176
     1
 90
       50
176
     1
 90
        3
176
     1
 62
     5
420
      255
176
     1
290
     0
176
     1
 90
       50
176
     1
 90
       50
176
     1
 90
       50
176
     1
290
     0
176
     1
 90
       50
176
     1
 62
   256
176
     0
 40
1.0
176
     0
 90
        2
176
     1
  1
strokes_ogs.tif
176
     1
290
     0
176
     1
 40
1.0
176
     1
 40
1.0
176
     1
  0
VISUALSTYLE
  5
3D
102
{ACAD_REACTORS
330
2A
102
}
330
2A
100
AcDbVisualStyle
  2
EdgeColorOff
 70
    22
177
     3
291
     1
 70
    58
 90
        2
176
     0
 90
        2
176
     0
 90
        0
176
     0
 90
        0
176
     0
 40
0.6
176
     0
 40
30.0
176
     0
 62
     7
420
 16777215
176
     0
 90
        1
176
     0
 90
        4
176
     0
 62
     7
176
     0
 62
   257
176
     0
 90
        1
176
     0
 90
        1
176
     0
 40
1.0
176
     0
 90
        8
176
     2
 62
     7
176
     0
 40
1.0
176
     0
 90
        1
176
     0
 90
        6
176
     0
 90
        2
176
     0
 62
     7
176
     0
 90
        5
176
     0
 90
        0
176
     0
 90
        0
176
     0
290
     0
176
     0
 90
        1
176
     0
 40
0.0
176
     0
 90
        0
176
     0
290
     0
176
     0
290
     1
176
     0
290
     1
176
     0
290
     0
176
     0
290
     0
176
     0
290
     0
176
     0
290
     0
176
     0
290
     0
176
     0
290
     0
176
     0
 90
       50
176
     0
 40
0.0
176
     0
 40
1.0
176
     0
 90
        0
176
     0
 62
    18
420
        0
176
     0
 90
       50
176
     0
 90
        3
176
     0
 62
     5
420
      255
176
     0
290
     0
176
     0
 90
       50
176
     0
 90
       50
176
     0
 90
       50
176
     0
290
     0
176
     0
 90
       50
176
     0
 62
   256
176
     0
 40
1.0
176
     0
 90
        2
176
     0
  1
strokes_ogs.tif
176
     0
290
     0
176
     0
 40
1.0
176
     0
 40
1.0
176
     0
  0
VISUALSTYLE
  5
39
102
{ACAD_REACTORS
330
2A
102
}
330
2A
100
AcDbVisualStyle
  2
Facepattern
 70
    15
177
     3
291
     1
 70
    58
 90
        2
176
     1
 90
        2
176
     1
 90
        0
176
     1
 90
        0
176
     1
 40
0.6
176
     1
 40
30.0
176
     1
 62
     7
420
 16777215
176
     1
 90
        1
176
     1
 90
        4
176
     1
 62
     7
176
     1
 62
   257
176
     1
 90
        1
176
     1
 90
        1
176
     1
 40
1.0
176
     1
 90
        8
176
     1
 62
     7
176
     1
 40
1.0
176
     1
 90
        1
176
     1
 90
        6
176
     1
 90
        2
176
     1
 62
     7
176
     1
 90
        5
176
     1
 90
        0
176
     1
 90
        0
176
     1
290
     0
176
     1
 90
        1
176
     1
 40
0.0
176
     1
 90
        0
176
     1
290
     0
176
     1
290
     1
176
     1
290
     1
176
     1
290
     0
176
     1
290
     0
176
     1
290
     0
176
     1
290
     0
176
     1
290
     0
176
     1
290
     0
176
     1
 90
       50
176
     1
 40
0.0
176
     1
 40
1.0
176
     1
 90
        0
176
     1
 62
    18
420
        0
176
     1
 90
       50
176
     1
 90
        3
176
     1
 62
     5
420
      255
176
     1
290
     0
176
     1
 90
       50
176
     1
 90
       50
176
     1
 90
       50
176
     1
290
     0
176
     1
 90
       50
176
     1
 62
   256
176
     0
 40
1.0
176
     0
 90
        2
176
     1
  1
strokes_ogs.tif
176
     1
290
     0
176
     1
 40
1.0
176
     1
 40
1.0
176
     1
  0
VISUALSTYLE
  5
2B
102
{ACAD_REACTORS
330
2A
102
}
330
2A
100
AcDbVisualStyle
  2
Flat
 70
     0
177
     3
291
     1
 70
    58
 90
        2
176
     1
 90
        1
176
     1
 90
        1
176
     1
 90
        2
176
     1
 40
0.6
176
     1
 40
30.0
176
     1
 62
     7
420
 16777215
176
     1
 90
        0
176
     1
 90
        0
176
     1
 62
     7
176
     1
 62
   257
176
     1
 90
        1
176
     1
 90
        1
176
     1
 40
1.0
176
     1
 90
        8
176
     1
 62
     7
176
     1
 40
1.0
176
     1
 90
        1
176
     1
 90
        6
176
     1
 90
        2
176
     1
 62
     7
176
     1
 90
        5
176
     1
 90
        0
176
     1
 90
        0
176
     1
290
     0
176
     1
 90
       13
176
     1
 40
0.0
176
     1
 90
        0
176
     1
290
     0
176
     1
290
     1
176
     1
290
     1
176
     1
290
     0
176
     1
290
     0
176
     1
290
     0
176
     1
290
     0
176
     1
290
     0
176
     1
290
     0
176
     1
 90
       50
176
     1
 40
0.0
176
     1
 40
1.0
176
     1
 90
        0
176
     1
 62
    18
420
        0
176
     1
 90
       50
176
     1
 90
        3
176
     1
 62
     5
420
      255
176
     1
290
     0
176
     1
 90
       50
176
     1
 90
       50
176
     1
 90
       50
176
     1
290
     0
176
     1
 90
       50
176
     1
 62
   256
176
     0
 40
1.0
176
     0
 90
        2
176
     1
  1
strokes_ogs.tif
176
     1
290
     0
176
     1
 40
1.0
176
     1
 40
1.0
176
     1
  0
VISUALSTYLE
  5
2C
102
{ACAD_REACTORS
330
2A
102
}
330
2A
100
AcDbVisualStyle
  2
FlatWithEdges
 70
     1
177
     3
291
     1
 70
    58
 90
        2
176
     1
 90
        1
176
     1
 90
        1
176
     1
 90
        2
176
     1
 40
0.6
176
     1
 40
30.0
176
     1
 62
     7
420
 16777215
176
     1
 90
        1
176
     1
 90
        0
176
     1
 62
     7
176
     1
 62
   257
176
     1
 90
        1
176
     1
 90
        1
176
     1
 40
1.0
176
     1
 90
        0
176
     1
 62
   257
176
     1
 40
1.0
176
     1
 90
        1
176
     1
 90
        6
176
     1
 90
        2
176
     1
 62
     7
176
     1
 90
        5
176
     1
 90
        0
176
     1
 90
        0
176
     1
290
     0
176
     1
 90
       13
176
     1
 40
0.0
176
     1
 90
        0
176
     1
290
     0
176
     1
290
     1
176
     1
290
     1
176
     1
290
     0
176
     1
290
     0
176
     1
290
     0
176
     1
290
     0
176
     1
290
     0
176
     1
290
     0
176
     1
 90
       50
176
     1
 40
0.0
176
     1
 40
1.0
176
     1
 90
        0
176
     1
 62
    18
420
        0
176
     1
 90
       50
176
     1
 90
        3
176
     1
 62
     5
420
      255
176
     1
290
     0
176
     1
 90
       50
176
     1
 90
       50
176
     1
 90
       50
176
     1
290
     0
176
     1
 90
       50
176
     1
 62
   256
176
     0
 40
1.0
176
     0
 90
        2
176
     1
  1
strokes_ogs.tif
176
     1
290
     0
176
     1
 40
1.0
176
     1
 40
1.0
176
     1
  0
VISUALSTYLE
  5
2D
102
{ACAD_REACTORS
330
2A
102
}
330
2A
100
AcDbVisualStyle
  2
Gouraud
 70
     2
177
     3
291
     1
 70
    58
 90
        2
176
     1
 90
        2
176
     1
 90
        1
176
     1
 90
        2
176
     1
 40
0.6
176
     1
 40
30.0
176
     1
 62
     7
420
 16777215
176
     1
 90
        0
176
     1
 90
        0
176
     1
 62
     7
176
     1
 62
   257
176
     1
 90
        1
176
     1
 90
        1
176
     1
 40
1.0
176
     1
 90
        0
176
     1
 62
     7
176
     1
 40
1.0
176
     1
 90
        1
176
     1
 90
        6
176
     1
 90
        2
176
     1
 62
     7
176
     1
 90
        5
176
     1
 90
        0
176
     1
 90
        0
176
     1
290
     0
176
     1
 90
       13
176
     1
 40
0.0
176
     1
 90
        0
176
     1
290
     0
176
     1
290
     1
176
     1
290
     1
176
     1
290
     0
176
     1
290
     0
176
     1
290
     0
176
     1
290
     0
176
     1
290
     0
176
     1
290
     0
176
     1
 90
       50
176
     1
 40
0.0
176
     1
 40
1.0
176
     1
 90
        0
176
     1
 62
    18
420
        0
176
     1
 90
       50
176
     1
 90
        3
176
     1
 62
     5
420
      255
176
     1
290
     0
176
     1
 90
       50
176
     1
 90
       50
176
     1
 90
       50
176
     1
290
     0
176
     1
 90
       50
176
     1
 62
   256
176
     0
 40
1.0
176
     0
 90
        2
176
     1
  1
strokes_ogs.tif
176
     1
290
     0
176
     1
 40
1.0
176
     1
 40
1.0
176
     1
  0
VISUALSTYLE
  5
2E
102
{ACAD_REACTORS
330
2A
102
}
330
2A
100
AcDbVisualStyle
  2
GouraudWithEdges
 70
     3
177
     3
291
     1
 70
    58
 90
        2
176
     1
 90
        2
176
     1
 90
        1
176
     1
 90
        2
176
     1
 40
0.6
176
     1
 40
30.0
176
     1
 62
     7
420
 16777215
176
     1
 90
        1
176
     1
 90
        0
176
     1
 62
     7
176
     1
 62
   257
176
     1
 90
        1
176
     1
 90
        1
176
     1
 40
1.0
176
     1
 90
        0
176
     1
 62
   257
176
     1
 40
1.0
176
     1
 90
        1
176
     1
 90
        6
176
     1
 90
        2
176
     1
 62
     7
176
     1
 90
        5
176
     1
 90
        0
176
     1
 90
        0
176
     1
290
     0
176
     1
 90
       13
176
     1
 40
0.0
176
     1
 90
        0
176
     1
290
     0
176
     1
290
     1
176
     1
290
     1
176
     1
290
     0
176
     1
290
     0
176
     1
290
     0
176
     1
290
     0
176
     1
290
     0
176
     1
290
     0
176
     1
 90
       50
176
     1
 40
0.0
176
     1
 40
1.0
176
     1
 90
        0
176
     1
 62
    18
420
        0
176
     1
 90
       50
176
     1
 90
        3
176
     1
 62
     5
420
      255
176
     1
290
     0
176
     1
 90
       50
176
     1
 90
       50
176
     1
 90
       50
176
     1
290
     0
176
     1
 90
       50
176
     1
 62
   256
176
     0
 40
1.0
176
     0
 90
        2
176
     1
  1
strokes_ogs.tif
176
     1
290
     0
176
     1
 40
1.0
176
     1
 40
1.0
176
     1
  0
VISUALSTYLE
  5
31
102
{ACAD_REACTORS
330
2A
102
}
330
2A
100
AcDbVisualStyle
  2
Hidden
 70
     6
177
     3
291
     0
 70
    58
 90
        1
176
     1
 90
        2
176
     1
 90
        2
176
     1
 90
        0
176
     1
 40
0.6
176
     1
 40
30.0
176
     1
 62
     7
420
 16777215
176
     1
 90
        2
176
     1
 90
        2
176
     1
 62
     7
176
     1
 62
   257
176
     1
 90
        2
176
     1
 90
        1
176
     1
 40
40.0
176
     1
 90
        0
176
     1
 62
   257
176
     1
 40
1.0
176
     1
 90
        1
176
     1
 90
        6
176
     1
 90
        2
176
     1
 62
     7
176
     1
 90
        3
176
     1
 90
        0
176
     1
 90
        0
176
     1
290
     0
176
     1
 90
        1
176
     1
 40
0.0
176
     1
 90
        0
176
     1
290
     0
176
     1
290
     1
176
     1
290
     1
176
     1
290
     0
176
     1
290
     0
176
     1
290
     0
176
     1
290
     0
176
     1
290
     0
176
     1
290
     0
176
     1
 90
       50
176
     1
 40
0.0
176
     1
 40
1.0
176
     1
 90
        0
176
     1
 62
    18
420
        0
176
     1
 90
       50
176
     1
 90
        3
176
     1
 62
     5
420
      255
176
     1
290
     0
176
     1
 90
       50
176
     1
 90
       50
176
     1
 90
       50
176
     1
290
     0
176
     1
 90
       50
176
     1
 62
   256
176
     0
 40
1.0
176
     0
 90
        2
176
     1
  1
strokes_ogs.tif
176
     1
290
     0
176
     1
 40
1.0
176
     1
 40
1.0
176
     1
  0
VISUALSTYLE
  5
3B
102
{ACAD_REACTORS
330
2A
102
}
330
2A
100
AcDbVisualStyle
  2
JitterOff
 70
    20
177
     3
291
     1
 70
    58
 90
        2
176
     0
 90
        2
176
     0
 90
        0
176
     0
 90
        0
176
     0
 40
0.6
176
     0
 40
30.0
176
     0
 62
     7
420
 16777215
176
     0
 90
        1
176
     0
 90
        4
176
     0
 62
     7
176
     0
 62
   257
176
     0
 90
        1
176
     0
 90
        1
176
     0
 40
1.0
176
     0
 90
       10
176
     2
 62
     7
176
     0
 40
1.0
176
     0
 90
        1
176
     0
 90
        6
176
     0
 90
        2
176
     0
 62
     7
176
     0
 90
        5
176
     0
 90
        0
176
     0
 90
        0
176
     0
290
     0
176
     0
 90
        1
176
     0
 40
0.0
176
     0
 90
        0
176
     0
290
     0
176
     0
290
     1
176
     0
290
     1
176
     0
290
     0
176
     0
290
     0
176
     0
290
     0
176
     0
290
     0
176
     0
290
     0
176
     0
290
     0
176
     0
 90
       50
176
     0
 40
0.0
176
     0
 40
1.0
176
     0
 90
        0
176
     0
 62
    18
420
        0
176
     0
 90
       50
176
     0
 90
        3
176
     0
 62
     5
420
      255
176
     0
290
     0
176
     0
 90
       50
176
     0
 90
       50
176
     0
 90
       50
176
     0
290
     0
176
     0
 90
       50
176
     0
 62
   256
176
     0
 40
1.0
176
     0
 90
        2
176
     0
  1
strokes_ogs.tif
176
     0
290
     0
176
     0
 40
1.0
176
     0
 40
1.0
176
     0
  0
VISUALSTYLE
  5
38
102
{ACAD_REACTORS
330
2A
102
}
330
2A
100
AcDbVisualStyle
  2
Linepattern
 70
    14
177
     3
291
     1
 70
    58
 90
        2
176
     1
 90
        2
176
     1
 90
        0
176
     1
 90
        0
176
     1
 40
0.6
176
     1
 40
30.0
176
     1
 62
     7
420
 16777215
176
     1
 90
        1
176
     1
 90
        4
176
     1
 62
     7
176
     1
 62
   257
176
     1
 90
        7
176
     1
 90
        7
176
     1
 40
1.0
176
     1
 90
        8
176
     1
 62
     7
176
     1
 40
1.0
176
     1
 90
        1
176
     1
 90
        6
176
     1
 90
        2
176
     1
 62
     7
176
     1
 90
        5
176
     1
 90
        0
176
     1
 90
        0
176
     1
290
     0
176
     1
 90
        1
176
     1
 40
0.0
176
     1
 90
        0
176
     1
290
     0
176
     1
290
     1
176
     1
290
     1
176
     1
290
     0
176
     1
290
     0
176
     1
290
     0
176
     1
290
     0
176
     1
290
     0
176
     1
290
     0
176
     1
 90
       50
176
     1
 40
0.0
176
     1
 40
1.0
176
     1
 90
        0
176
     1
 62
    18
420
        0
176
     1
 90
       50
176
     1
 90
        3
176
     1
 62
     5
420
      255
176
     1
290
     0
176
     1
 90
       50
176
     1
 90
       50
176
     1
 90
       50
176
     1
290
     0
176
     1
 90
       50
176
     1
 62
   256
176
     0
 40
1.0
176
     0
 90
        2
176
     1
  1
strokes_ogs.tif
176
     1
290
     0
176
     1
 40
1.0
176
     1
 40
1.0
176
     1
  0
VISUALSTYLE
  5
3C
102
{ACAD_REACTORS
330
2A
102
}
330
2A
100
AcDbVisualStyle
  2
OverhangOff
 70
    21
177
     3
291
     1
 70
    58
 90
        2
176
     0
 90
        2
176
     0
 90
        0
176
     0
 90
        0
176
     0
 40
0.6
176
     0
 40
30.0
176
     0
 62
     7
420
 16777215
176
     0
 90
        1
176
     0
 90
        4
176
     0
 62
     7
176
     0
 62
   257
176
     0
 90
        1
176
     0
 90
        1
176
     0
 40
1.0
176
     0
 90
        9
176
     2
 62
     7
176
     0
 40
1.0
176
     0
 90
        1
176
     0
 90
        6
176
     0
 90
        2
176
     0
 62
     7
176
     0
 90
        5
176
     0
 90
        0
176
     0
 90
        0
176
     0
290
     0
176
     0
 90
        1
176
     0
 40
0.0
176
     0
 90
        0
176
     0
290
     0
176
     0
290
     1
176
     0
290
     1
176
     0
290
     0
176
     0
290
     0
176
     0
290
     0
176
     0
290
     0
176
     0
290
     0
176
     0
290
     0
176
     0
 90
       50
176
     0
 40
0.0
176
     0
 40
1.0
176
     0
 90
        0
176
     0
 62
    18
420
        0
176
     0
 90
       50
176
     0
 90
        3
176
     0
 62
     5
420
      255
176
     0
290
     0
176
     0
 90
       50
176
     0
 90
       50
176
     0
 90
       50
176
     0
290
     0
176
     0
 90
       50
176
     0
 62
   256
176
     0
 40
1.0
176
     0
 90
        2
176
     0
  1
strokes_ogs.tif
176
     0
290
     0
176
     0
 40
1.0
176
     0
 40
1.0
176
     0
  0
VISUALSTYLE
  5
33
102
{ACAD_REACTORS
330
2A
102
}
330
2A
100
AcDbVisualStyle
  2
Realistic
 70
     8
177
     3
291
     0
 70
    58
 90
        2
176
     1
 90
        3
176
     1
 90
        0
176
     1
 90
        2
176
     1
 40
0.6
176
     1
 40
30.0
176
     1
 62
     7
420
 16777215
176
     1
 90
        0
176
     1
 90
        0
176
     1
 62
     7
176
     1
 62
   257
176
     1
 90
        1
176
     1
 90
        1
176
     1
 40
1.0
176
     1
 90
        8
176
     1
 62
   257
176
     1
 40
1.0
176
     1
 90
        1
176
     1
 90
        6
176
     1
 90
        2
176
     1
 62
     7
176
     1
 90
        3
176
     1
 90
        0
176
     1
 90
        0
176
     1
290
     0
176
     1
 90
       13
176
     1
 40
0.0
176
     1
 90
        0
176
     1
290
     0
176
     1
290
     1
176
     1
290
     1
176
     1
290
     0
176
     1
290
     0
176
     1
290
     0
176
     1
290
     0
176
     1
290
     0
176
     1
290
     0
176
     1
 90
       50
176
     1
 40
0.0
176
     1
 40
1.0
176
     1
 90
        0
176
     1
 62
    18
420
        0
176
     1
 90
       50
176
     1
 90
        3
176
     1
 62
     5
420
      255
176
     1
290
     0
176
     1
 90
       50
176
     1
 90
       50
176
     1
 90
       50
176
     1
290
     0
176
     1
 90
       50
176
     1
 62
   256
176
     0
 40
1.0
176
     0
 90
        2
176
     1
  1
strokes_ogs.tif
176
     1
290
     0
176
     1
 40
1.0
176
     1
 40
1.0
176
     1
  0
VISUALSTYLE
  5
42
102
{ACAD_REACTORS
330
2A
102
}
330
2A
100
AcDbVisualStyle
  2
Shaded
 70
    27
177
     3
291
     0
 70
    58
 90
        2
176
     1
 90
        2
176
     1
 90
        1
176
     1
 90
        2
176
     1
 40
0.6
176
     1
 40
30.0
176
     1
 62
     7
420
 16777215
176
     1
 90
        0
176
     1
 90
        4
176
     1
 62
     7
176
     1
 62
   257
176
     1
 90
        1
176
     1
 90
        1
176
     1
 40
1.0
176
     1
 90
        8
176
     1
 62
   257
176
     1
 40
1.0
176
     1
 90
        1
176
     1
 90
        6
176
     1
 90
        2
176
     1
 62
     8
420
  7895160
176
     1
 90
        3
176
     1
 90
        0
176
     1
 90
        0
176
     1
290
     0
176
     1
 90
        5
176
     1
 40
0.0
176
     1
 90
        0
176
     1
290
     0
176
     1
290
     1
176
     1
290
     1
176
     1
290
     0
176
     1
290
     0
176
     1
290
     0
176
     1
290
     0
176
     1
290
     0
176
     1
290
     0
176
     1
 90
       50
176
     1
 40
0.0
176
     1
 40
1.0
176
     1
 90
        0
176
     1
 62
    18
420
        0
176
     1
 90
       50
176
     1
 90
        3
176
     1
 62
     5
420
      255
176
     1
290
     0
176
     1
 90
       50
176
     1
 90
       50
176
     1
 90
       50
176
     1
290
     0
176
     1
 90
       50
176
     1
 62
   256
176
     0
 40
1.0
176
     0
 90
        2
176
     1
  1
strokes_ogs.tif
176
     1
290
     0
176
     1
 40
1.0
176
     1
 40
1.0
176
     1
  0
VISUALSTYLE
  5
41
102
{ACAD_REACTORS
330
2A
102
}
330
2A
100
AcDbVisualStyle
  2
Shaded with edges
 70
    26
177
     3
291
     0
 70
    58
 90
        2
176
     1
 90
        2
176
     1
 90
        1
176
     1
 90
        2
176
     1
 40
0.6
176
     1
 40
30.0
176
     1
 62
     7
420
 16777215
176
     1
 90
        1
176
     1
 90
       10
176
     1
 62
     7
176
     1
 62
   257
176
     1
 90
        2
176
     1
 90
        1
176
     1
 40
1.0
176
     1
 90
        8
176
     1
 62
   257
176
     1
 40
1.0
176
     1
 90
        1
176
     1
 90
        6
176
     1
 90
        2
176
     1
 62
     7
176
     1
 90
        3
176
     1
 90
        0
176
     1
 90
        0
176
     1
290
     0
176
     1
 90
        5
176
     1
 40
0.0
176
     1
 90
        0
176
     1
290
     0
176
     1
290
     1
176
     1
290
     1
176
     1
290
     0
176
     1
290
     0
176
     1
290
     0
176
     1
290
     0
176
     1
290
     0
176
     1
290
     0
176
     1
 90
       50
176
     1
 40
0.0
176
     1
 40
1.0
176
     1
 90
        0
176
     1
 62
    18
420
        0
176
     1
 90
       50
176
     1
 90
        3
176
     1
 62
     5
420
      255
176
     1
290
     0
176
     1
 90
       50
176
     1
 90
       50
176
     1
 90
       50
176
     1
290
     0
176
     1
 90
       50
176
     1
 62
   256
176
     0
 40
1.0
176
     0
 90
        2
176
     1
  1
strokes_ogs.tif
176
     1
290
     0
176
     1
 40
1.0
176
     1
 40
1.0
176
     1
  0
VISUALSTYLE
  5
3E
102
{ACAD_REACTORS
330
2A
102
}
330
2A
100
AcDbVisualStyle
  2
Shades of Gray
 70
    23
177
     3
291
     0
 70
    58
 90
        2
176
     1
 90
        2
176
     1
 90
        3
176
     1
 90
        0
176
     1
 40
0.6
176
     1
 40
30.0
176
     1
 62
     7
420
 16777215
176
     1
 90
        2
176
     1
 90
        2
176
     1
 62
     7
176
     1
 62
     7
176
     1
 90
        1
176
     1
 90
        1
176
     1
 40
40.0
176
     1
 90
        8
176
     1
 62
     7
176
     1
 40
1.0
176
     1
 90
        1
176
     1
 90
        6
176
     1
 90
        2
176
     1
 62
     7
176
     1
 90
        3
176
     1
 90
        0
176
     1
 90
        0
176
     1
290
     0
176
     1
 90
        1
176
     1
 40
0.0
176
     1
 90
        0
176
     1
290
     0
176
     1
290
     1
176
     1
290
     1
176
     1
290
     0
176
     1
290
     0
176
     1
290
     0
176
     1
290
     0
176
     1
290
     0
176
     1
290
     0
176
     1
 90
       50
176
     1
 40
0.0
176
     1
 40
1.0
176
     1
 90
        0
176
     1
 62
    18
420
        0
176
     1
 90
       50
176
     1
 90
        3
176
     1
 62
     5
420
      255
176
     1
290
     0
176
     1
 90
       50
176
     1
 90
       50
176
     1
 90
       50
176
     1
290
     0
176
     1
 90
       50
176
     1
 62
   256
176
     0
 40
1.0
176
     0
 90
        2
176
     1
  1
strokes_ogs.tif
176
     1
290
     0
176
     1
 40
1.0
176
     1
 40
1.0
176
     1
  0
VISUALSTYLE
  5
3F
102
{ACAD_REACTORS
330
2A
102
}
330
2A
100
AcDbVisualStyle
  2
Sketchy
 70
    24
177
     3
291
     0
 70
    58
 90
        1
176
     1
 90
        2
176
     1
 90
        2
176
     1
 90
        0
176
     1
 40
0.6
176
     1
 40
30.0
176
     1
 62
     7
420
 16777215
176
     1
 90
        2
176
     1
 90
        2
176
     1
 62
     7
176
     1
 62
     7
176
     1
 90
        1
176
     1
 90
        1
176
     1
 40
40.0
176
     1
 90
       11
176
     1
 62
     7
176
     1
 40
1.0
176
     1
 90
        1
176
     1
 90
        6
176
     1
 90
        2
176
     1
 62
     7
176
     1
 90
        6
176
     1
 90
        0
176
     1
 90
        0
176
     1
290
     0
176
     1
 90
        1
176
     1
 40
0.0
176
     1
 90
        0
176
     1
290
     0
176
     1
290
     1
176
     1
290
     1
176
     1
290
     0
176
     1
290
     0
176
     1
290
     0
176
     1
290
     0
176
     1
290
     0
176
     1
290
     0
176
     1
 90
       50
176
     1
 40
0.0
176
     1
 40
1.0
176
     1
 90
        0
176
     1
 62
    18
420
        0
176
     1
 90
       50
176
     1
 90
        3
176
     1
 62
     5
420
      255
176
     1
290
     0
176
     1
 90
       50
176
     1
 90
       50
176
     1
 90
       50
176
     1
290
     0
176
     1
 90
       50
176
     1
 62
   256
176
     0
 40
1.0
176
     0
 90
        2
176
     1
  1
strokes_ogs.tif
176
     1
290
     0
176
     1
 40
1.0
176
     1
 40
1.0
176
     1
  0
VISUALSTYLE
  5
37
102
{ACAD_REACTORS
330
2A
102
}
330
2A
100
AcDbVisualStyle
  2
Thicken
 70
    13
177
     3
291
     1
 70
    58
 90
        2
176
     1
 90
        2
176
     1
 90
        0
176
     1
 90
        0
176
     1
 40
0.6
176
     1
 40
30.0
176
     1
 62
     7
420
 16777215
176
     1
 90
        1
176
     1
 90
        4
176
     1
 62
     7
176
     1
 62
   257
176
     1
 90
        1
176
     1
 90
        1
176
     1
 40
1.0
176
     1
 90
       12
176
     1
 62
     7
176
     1
 40
1.0
176
     1
 90
        1
176
     1
 90
        6
176
     1
 90
        2
176
     1
 62
     7
176
     1
 90
        5
176
     1
 90
        0
176
     1
 90
        0
176
     1
290
     0
176
     1
 90
        1
176
     1
 40
0.0
176
     1
 90
        0
176
     1
290
     0
176
     1
290
     1
176
     1
290
     1
176
     1
290
     0
176
     1
290
     0
176
     1
290
     0
176
     1
290
     0
176
     1
290
     0
176
     1
290
     0
176
     1
 90
       50
176
     1
 40
0.0
176
     1
 40
1.0
176
     1
 90
        0
176
     1
 62
    18
420
        0
176
     1
 90
       50
176
     1
 90
        3
176
     1
 62
     5
420
      255
176
     1
290
     0
176
     1
 90
       50
176
     1
 90
       50
176
     1
 90
       50
176
     1
290
     0
176
     1
 90
       50
176
     1
 62
   256
176
     0
 40
1.0
176
     0
 90
        2
176
     1
  1
strokes_ogs.tif
176
     1
290
     0
176
     1
 40
1.0
176
     1
 40
1.0
176
     1
  0
VISUALSTYLE
  5
30
102
{ACAD_REACTORS
330
2A
102
}
330
2A
100
AcDbVisualStyle
  2
Wireframe
 70
     5
177
     3
291
     0
 70
    58
 90
        0
176
     1
 90
        2
176
     1
 90
        0
176
     1
 90
        0
176
     1
 40
0.6
176
     1
 40
30.0
176
     1
 62
     7
420
 16777215
176
     1
 90
        1
176
     1
 90
        4
176
     1
 62
     7
176
     1
 62
   257
176
     1
 90
        1
176
     1
 90
        1
176
     1
 40
1.0
176
     1
 90
        0
176
     1
 62
   257
176
     1
 40
1.0
176
     1
 90
        1
176
     1
 90
        6
176
     1
 90
        2
176
     1
 62
     7
176
     1
 90
        3
176
     1
 90
        0
176
     1
 90
        0
176
     1
290
     0
176
     1
 90
        1
176
     1
 40
0.0
176
     1
 90
        0
176
     1
290
     0
176
     1
290
     1
176
     1
290
     1
176
     1
290
     0
176
     1
290
     0
176
     1
290
     0
176
     1
290
     0
176
     1
290
     0
176
     1
290
     0
176
     1
 90
       50
176
     1
 40
0.0
176
     1
 40
1.0
176
     1
 90
        0
176
     1
 62
    18
420
        0
176
     1
 90
       50
176
     1
 90
        3
176
     1
 62
     5
420
      255
176
     1
290
     0
176
     1
 90
       50
176
     1
 90
       50
176
     1
 90
       50
176
     1
290
     0
176
     1
 90
       50
176
     1
 62
   256
176
     0
 40
1.0
176
     0
 90
        2
176
     1
  1
strokes_ogs.tif
176
     1
290
     0
176
     1
 40
1.0
176
     1
 40
1.0
176
     1
  0
VISUALSTYLE
  5
40
102
{ACAD_REACTORS
330
2A
102
}
330
2A
100
AcDbVisualStyle
  2
X-Ray
 70
    25
177
     3
291
     0
 70
    58
 90
        2
176
     1
 90
        2
176
     1
 90
        1
176
     1
 90
        1
176
     1
 40
0.5
176
     1
 40
30.0
176
     1
 62
     7
420
 16777215
176
     1
 90
        1
176
     1
 90
        0
176
     1
 62
     7
176
     1
 62
   257
176
     1
 90
        1
176
     1
 90
        1
176
     1
 40
1.0
176
     1
 90
        8
176
     1
 62
     7
176
     1
 40
1.0
176
     1
 90
        1
176
     1
 90
        6
176
     1
 90
        2
176
     1
 62
     7
176
     1
 90
        3
176
     1
 90
        0
176
     1
 90
        0
176
     1
290
     0
176
     1
 90
       13
176
     1
 40
0.0
176
     1
 90
        0
176
     1
290
     0
176
     1
290
     1
176
     1
290
     1
176
     1
290
     0
176
     1
290
     0
176
     1
290
     0
176
     1
290
     0
176
     1
290
     0
176
     1
290
     0
176
     1
 90
       50
176
     1
 40
0.0
176
     1
 40
1.0
176
     1
 90
        0
176
     1
 62
    18
420
        0
176
     1
 90
       50
176
     1
 90
        3
176
     1
 62
     5
420
      255
176
     1
290
     0
176
     1
 90
       50
176
     1
 90
       50
176
     1
 90
       50
176
     1
290
     0
176
     1
 90
       50
176
     1
 62
   256
176
     0
 40
1.0
176
     0
 90
        2
176
     1
  1
strokes_ogs.tif
176
     1
290
     0
176
     1
 40
1.0
176
     1
 40
1.0
176
     1
  0
DICTIONARYVAR
  5
133
102
{ACAD_REACTORS
330
132
102
}
330
132
100
DictionaryVariables
280
     0
  1
1:1
  0
DICTIONARYVAR
  5
138
102
{ACAD_REACTORS
330
132
102
}
330
132
100
DictionaryVariables
280
     0
  1
Standard
  0
DICTIONARYVAR
  5
137
102
{ACAD_REACTORS
330
132
102
}
330
132
100
DictionaryVariables
280
     0
  1
Standard
  0
DICTIONARY
  5
134
330
6A
100
AcDbDictionary
280
     1
281
     1
  3
ACAD_ROUNDTRIP_2008_TABLESTYLE_CELLSTYLEMAP
360
135
  0
CELLSTYLEMAP
  5
135
102
{ACAD_REACTORS
330
134
102
}
330
134
100
AcDbCellStyleMap
 90
        3
300
CELLSTYLE
  1
TABLEFORMAT_BEGIN
 90
        5
170
     1
 91
        0
 92
    32768
 62
   257
 93
        1
300
CONTENTFORMAT
  1
CONTENTFORMAT_BEGIN
 90
        0
 91
        0
 92
        4
 93
        0
300

 40
0.0
140
1.0
 94
        5
 62
     0
340
11
144
6.0
309
CONTENTFORMAT_END
171
     1
301
MARGIN
  1
CELLMARGIN_BEGIN
 40
1.5
 40
1.5
 40
1.5
 40
1.5
 40
1.5
 40
1.5
309
CELLMARGIN_END
 94
        6
 95
        1
302
GRIDFORMAT
  1
GRIDFORMAT_BEGIN
 90
        0
 91
        1
 62
     0
 92
       -2
340
14
 93
        0
 40
0.045
309
GRIDFORMAT_END
 95
        2
302
GRIDFORMAT
  1
GRIDFORMAT_BEGIN
 90
        0
 91
        1
 62
     0
 92
       -2
340
14
 93
        0
 40
0.045
309
GRIDFORMAT_END
 95
        4
302
GRIDFORMAT
  1
GRIDFORMAT_BEGIN
 90
        0
 91
        1
 62
     0
 92
       -2
340
14
 93
        0
 40
0.045
309
GRIDFORMAT_END
 95
        8
302
GRIDFORMAT
  1
GRIDFORMAT_BEGIN
 90
        0
 91
        1
 62
     0
 92
       -2
340
14
 93
        0
 40
0.045
309
GRIDFORMAT_END
 95
       16
302
GRIDFORMAT
  1
GRIDFORMAT_BEGIN
 90
        0
 91
        1
 62
     0
 92
       -2
340
14
 93
        0
 40
0.045
309
GRIDFORMAT_END
 95
       32
302
GRIDFORMAT
  1
GRIDFORMAT_BEGIN
 90
        0
 91
        1
 62
     0
 92
       -2
340
14
 93
        0
 40
0.045
309
GRIDFORMAT_END
309
TABLEFORMAT_END
  1
CELLSTYLE_BEGIN
 90
        1
 91
        1
300
_TITLE
309
CELLSTYLE_END
300
CELLSTYLE
  1
TABLEFORMAT_BEGIN
 90
        5
170
     1
 91
        0
 92
        0
 62
   257
 93
        1
300
CONTENTFORMAT
  1
CONTENTFORMAT_BEGIN
 90
        0
 91
        0
 92
        4
 93
        0
300

 40
0.0
140
1.0
 94
        5
 62
     0
340
11
144
4.5
309
CONTENTFORMAT_END
171
     1
301
MARGIN
  1
CELLMARGIN_BEGIN
 40
1.5
 40
1.5
 40
1.5
 40
1.5
 40
1.5
 40
1.5
309
CELLMARGIN_END
 94
        6
 95
        1
302
GRIDFORMAT
  1
GRIDFORMAT_BEGIN
 90
        0
 91
        1
 62
     0
 92
       -2
340
14
 93
        0
 40
0.045
309
GRIDFORMAT_END
 95
        2
302
GRIDFORMAT
  1
GRIDFORMAT_BEGIN
 90
        0
 91
        1
 62
     0
 92
       -2
340
14
 93
        0
 40
0.045
309
GRIDFORMAT_END
 95
        4
302
GRIDFORMAT
  1
GRIDFORMAT_BEGIN
 90
        0
 91
        1
 62
     0
 92
       -2
340
14
 93
        0
 40
0.045
309
GRIDFORMAT_END
 95
        8
302
GRIDFORMAT
  1
GRIDFORMAT_BEGIN
 90
        0
 91
        1
 62
     0
 92
       -2
340
14
 93
        0
 40
0.045
309
GRIDFORMAT_END
 95
       16
302
GRIDFORMAT
  1
GRIDFORMAT_BEGIN
 90
        0
 91
        1
 62
     0
 92
       -2
340
14
 93
        0
 40
0.045
309
GRIDFORMAT_END
 95
       32
302
GRIDFORMAT
  1
GRIDFORMAT_BEGIN
 90
        0
 91
        1
 62
     0
 92
       -2
340
14
 93
        0
 40
0.045
309
GRIDFORMAT_END
309
TABLEFORMAT_END
  1
CELLSTYLE_BEGIN
 90
        2
 91
        1
300
_HEADER
309
CELLSTYLE_END
300
CELLSTYLE
  1
TABLEFORMAT_BEGIN
 90
        5
170
     1
 91
        0
 92
        0
 62
   257
 93
        1
300
CONTENTFORMAT
  1
CONTENTFORMAT_BEGIN
 90
        0
 91
        0
 92
        4
 93
        0
300

 40
0.0
140
1.0
 94
        2
 62
     0
340
11
144
4.5
309
CONTENTFORMAT_END
171
     1
301
MARGIN
  1
CELLMARGIN_BEGIN
 40
1.5
 40
1.5
 40
1.5
 40
1.5
 40
1.5
 40
1.5
309
CELLMARGIN_END
 94
        6
 95
        1
302
GRIDFORMAT
  1
GRIDFORMAT_BEGIN
 90
        0
 91
        1
 62
     0
 92
       -2
340
14
 93
        0
 40
0.045
309
GRIDFORMAT_END
 95
        2
302
GRIDFORMAT
  1
GRIDFORMAT_BEGIN
 90
        0
 91
        1
 62
     0
 92
       -2
340
14
 93
        0
 40
0.045
309
GRIDFORMAT_END
 95
        4
302
GRIDFORMAT
  1
GRIDFORMAT_BEGIN
 90
        0
 91
        1
 62
     0
 92
       -2
340
14
 93
        0
 40
0.045
309
GRIDFORMAT_END
 95
        8
302
GRIDFORMAT
  1
GRIDFORMAT_BEGIN
 90
        0
 91
        1
 62
     0
 92
       -2
340
14
 93
        0
 40
0.045
309
GRIDFORMAT_END
 95
       16
302
GRIDFORMAT
  1
GRIDFORMAT_BEGIN
 90
        0
 91
        1
 62
     0
 92
       -2
340
14
 93
        0
 40
0.045
309
GRIDFORMAT_END
 95
       32
302
GRIDFORMAT
  1
GRIDFORMAT_BEGIN
 90
        0
 91
        1
 62
     0
 92
       -2
340
14
 93
        0
 40
0.045
309
GRIDFORMAT_END
309
TABLEFORMAT_END
  1
CELLSTYLE_BEGIN
 90
        3
 91
        2
300
_DATA
309
CELLSTYLE_END
  0
ENDSEC
  0
EOF
