  0
SECTION
  2
HEADER
  9
$ACADVER
  1
AC1027
  9
$ACADMAINTVER
 70
   105
  9
$DWGCODEPAGE
  3
ANSI_1252
  9
$REQUIREDVERSIONS
160
                 0
  9
$INSBASE
 10
0.0
 20
0.0
 30
0.0
  9
$EXTMIN
 10
-145.0
 20
-145.0
 30
0.0
  9
$EXTMAX
 10
145.0
 20
145.0
 30
0.0
  9
$LIMMIN
 10
0.0
 20
0.0
  9
$LIMMAX
 10
420.0
 20
297.0
  9
$ORTHOMODE
 70
     0
  9
$REGENMODE
 70
     1
  9
$FILLMODE
 70
     1
  9
$QTEXTMODE
 70
     0
  9
$MIRRTEXT
 70
     1
  9
$LTSCALE
 40
1.0
  9
$ATTMODE
 70
     1
  9
$TEXTSIZE
 40
3.5
  9
$TRACEWID
 40
1.0
  9
$TEXTSTYLE
  7
STANDARD
  9
$CLAYER
  8
0
  9
$CELTYPE
  6
ByLayer
  9
$CECOLOR
 62
   256
  9
$CELTSCALE
 40
1.0
  9
$DISPSILH
 70
     0
  9
$DIMSCALE
 40
1.0
  9
$DIMASZ
 40
6.0
  9
$DIMEXO
 40
1.0
  9
$DIMDLI
 40
3.75
  9
$DIMRND
 40
0.0
  9
$DIMDLE
 40
0.0
  9
$DIMEXE
 40
1.0
  9
$DIMTP
 40
0.0
  9
$DIMTM
 40
0.0
  9
$DIMTXT
 40
3.5
  9
$DIMCEN
 40
2.5
  9
$DIMTSZ
 40
0.0
  9
$DIMTOL
 70
     0
  9
$DIMLIM
 70
     0
  9
$DIMTIH
 70
     1
  9
$DIMTOH
 70
     1
  9
$DIMSE1
 70
     0
  9
$DIMSE2
 70
     0
  9
$DIMTAD
 70
     1
  9
$DIMZIN
 70
     0
  9
$DIMBLK
  1

  9
$DIMASO
 70
     1
  9
$DIMSHO
 70
     1
  9
$DIMPOST
  1

  9
$DIMAPOST
  1

  9
$DIMALT
 70
     0
  9
$DIMALTD
 70
     3
  9
$DIMALTF
 40
0.0393700787
  9
$DIMLFAC
 40
1.0
  9
$DIMTOFL
 70
     1
  9
$DIMTVP
 40
0.0
  9
$DIMTIX
 70
     0
  9
$DIMSOXD
 70
     0
  9
$DIMSAH
 70
     0
  9
$DIMBLK1
  1

  9
$DIMBLK2
  1

  9
$DIMSTYLE
  2
ISO-25
  9
$DIMCLRD
 70
     0
  9
$DIMCLRE
 70
     0
  9
$DIMCLRT
 70
     0
  9
$DIMTFAC
 40
1.0
  9
$DIMGAP
 40
1.524
  9
$DIMJUST
 70
     0
  9
$DIMSD1
 70
     0
  9
$DIMSD2
 70
     0
  9
$DIMTOLJ
 70
     0
  9
$DIMTZIN
 70
     0
  9
$DIMALTZ
 70
     0
  9
$DIMALTTZ
 70
     0
  9
$DIMUPT
 70
     0
  9
$DIMDEC
 70
     2
  9
$DIMTDEC
 70
     2
  9
$DIMALTU
 70
     2
  9
$DIMALTTD
 70
     3
  9
$DIMTXSTY
  7
STANDARD
  9
$DIMAUNIT
 70
     0
  9
$DIMADEC
 70
     2
  9
$DIMALTRND
 40
0.0
  9
$DIMAZIN
 70
     0
  9
$DIMDSEP
 70
    44
  9
$DIMATFIT
 70
     3
  9
$DIMFRAC
 70
     0
  9
$DIMLDRBLK
  1

  9
$DIMLUNIT
 70
     2
  9
$DIMLWD
 70
    -2
  9
$DIMLWE
 70
    -2
  9
$DIMTMOVE
 70
     0
  9
$DIMFXL
 40
1.0
  9
$DIMFXLON
 70
     0
  9
$DIMJOGANG
 40
0.7853981634
  9
$DIMTFILL
 70
     0
  9
$DIMTFILLCLR
 70
     0
  9
$DIMARCSYM
 70
     0
  9
$DIMLTYPE
  6

  9
$DIMLTEX1
  6

  9
$DIMLTEX2
  6

  9
$DIMTXTDIRECTION
 70
     0
  9
$LUNITS
 70
     2
  9
$LUPREC
 70
     2
  9
$SKETCHINC
 40
1.0
  9
$FILLETRAD
 40
10.0
  9
$AUNITS
 70
     0
  9
$AUPREC
 70
     2
  9
$MENU
  1
.
  9
$ELEVATION
 40
0.0
  9
$PELEVATION
 40
0.0
  9
$THICKNESS
 40
0.0
  9
$LIMCHECK
 70
     0
  9
$CHAMFERA
 40
0.0
  9
$CHAMFERB
 40
0.0
  9
$CHAMFERC
 40
0.0
  9
$CHAMFERD
 40
0.0
  9
$SKPOLY
 70
     0
  9
$TDCREATE
 40
2458299.467681262
  9
$TDUCREATE
 40
2458299.384347928
  9
$TDUPDATE
 40
2458299.467707361
  9
$TDUUPDATE
 40
2458299.384374028
  9
$TDINDWG
 40
0.0000000116
  9
$TDUSRTIMER
 40
0.0000000116
  9
$USRTIMER
 70
     1
  9
$ANGBASE
 50
0.0
  9
$ANGDIR
 70
     0
  9
$PDMODE
 70
     0
  9
$PDSIZE
 40
-1.0
  9
$PLINEWID
 40
0.0
  9
$SPLFRAME
 70
     0
  9
$SPLINETYPE
 70
     6
  9
$SPLINESEGS
 70
     8
  9
$HANDSEED
  5
131
  9
$SURFTAB1
 70
     6
  9
$SURFTAB2
 70
     6
  9
$SURFTYPE
 70
     6
  9
$SURFU
 70
     6
  9
$SURFV
 70
     6
  9
$UCSBASE
  2

  9
$UCSNAME
  2

  9
$UCSORG
 10
0.0
 20
0.0
 30
0.0
  9
$UCSXDIR
 10
1.0
 20
0.0
 30
0.0
  9
$UCSYDIR
 10
0.0
 20
1.0
 30
0.0
  9
$UCSORTHOREF
  2

  9
$UCSORTHOVIEW
 70
     0
  9
$UCSORGTOP
 10
0.0
 20
0.0
 30
0.0
  9
$UCSORGBOTTOM
 10
0.0
 20
0.0
 30
0.0
  9
$UCSORGLEFT
 10
0.0
 20
0.0
 30
0.0
  9
$UCSORGRIGHT
 10
0.0
 20
0.0
 30
0.0
  9
$UCSORGFRONT
 10
0.0
 20
0.0
 30
0.0
  9
$UCSORGBACK
 10
0.0
 20
0.0
 30
0.0
  9
$PUCSBASE
  2

  9
$PUCSNAME
  2

  9
$PUCSORG
 10
0.0
 20
0.0
 30
0.0
  9
$PUCSXDIR
 10
1.0
 20
0.0
 30
0.0
  9
$PUCSYDIR
 10
0.0
 20
1.0
 30
0.0
  9
$PUCSORTHOREF
  2

  9
$PUCSORTHOVIEW
 70
     0
  9
$PUCSORGTOP
 10
0.0
 20
0.0
 30
0.0
  9
$PUCSORGBOTTOM
 10
0.0
 20
0.0
 30
0.0
  9
$PUCSORGLEFT
 10
0.0
 20
0.0
 30
0.0
  9
$PUCSORGRIGHT
 10
0.0
 20
0.0
 30
0.0
  9
$PUCSORGFRONT
 10
0.0
 20
0.0
 30
0.0
  9
$PUCSORGBACK
 10
0.0
 20
0.0
 30
0.0
  9
$USERI1
 70
     0
  9
$USERI2
 70
     0
  9
$USERI3
 70
     0
  9
$USERI4
 70
     0
  9
$USERI5
 70
     0
  9
$USERR1
 40
0.0
  9
$USERR2
 40
0.0
  9
$USERR3
 40
0.0
  9
$USERR4
 40
0.0
  9
$USERR5
 40
0.0
  9
$WORLDVIEW
 70
     1
  9
$SHADEDGE
 70
     3
  9
$SHADEDIF
 70
    70
  9
$TILEMODE
 70
     1
  9
$MAXACTVP
 70
    64
  9
$PINSBASE
 10
0.0
 20
0.0
 30
0.0
  9
$PLIMCHECK
 70
     0
  9
$PEXTMIN
 10
-145.0
 20
0.0
 30
0.0
  9
$PEXTMAX
 10
145.0
 20
150.0
 30
0.0
  9
$PLIMMIN
 10
-167.5680933852
 20
-8.4630350195
  9
$PLIMMAX
 10
167.5680933852
 20
228.5019455253
  9
$UNITMODE
 70
     0
  9
$VISRETAIN
 70
     1
  9
$PLINEGEN
 70
     0
  9
$PSLTSCALE
 70
     1
  9
$TREEDEPTH
 70
  3020
  9
$CMLSTYLE
  2
Standard
  9
$CMLJUST
 70
     0
  9
$CMLSCALE
 40
20.0
  9
$PROXYGRAPHICS
 70
     1
  9
$MEASUREMENT
 70
     1
  9
$CELWEIGHT
370
    -1
  9
$ENDCAPS
280
     0
  9
$JOINSTYLE
280
     0
  9
$LWDISPLAY
290
     1
  9
$INSUNITS
 70
     4
  9
$HYPERLINKBASE
  1

  9
$STYLESHEET
  1

  9
$XEDIT
290
     1
  9
$CEPSNTYPE
380
     0
  9
$PSTYLEMODE
290
     1
  9
$FINGERPRINTGUID
  2
{2A5A53BB-6F0F-4540-AF28-9402FD54BE53}
  9
$VERSIONGUID
  2
{FAEB1C32-E019-11D5-929B-00C0DF256EC4}
  9
$EXTNAMES
290
     1
  9
$PSVPSCALE
 40
0.0
  9
$OLESTARTUP
290
     0
  9
$SORTENTS
280
   127
  9
$INDEXCTL
280
     0
  9
$HIDETEXT
280
     1
  9
$XCLIPFRAME
280
     2
  9
$HALOGAP
280
     0
  9
$OBSCOLOR
 70
   257
  9
$OBSLTYPE
280
     0
  9
$INTERSECTIONDISPLAY
280
     0
  9
$INTERSECTIONCOLOR
 70
   257
  9
$DIMASSOC
280
     2
  9
$PROJECTNAME
  1

  9
$CAMERADISPLAY
290
     0
  9
$LENSLENGTH
 40
50.0
  9
$CAMERAHEIGHT
 40
0.0
  9
$STEPSPERSEC
 40
2.0
  9
$STEPSIZE
 40
6.0
  9
$3DDWFPREC
 40
2.0
  9
$PSOLWIDTH
 40
5.0
  9
$PSOLHEIGHT
 40
80.0
  9
$LOFTANG1
 40
1.5707963268
  9
$LOFTANG2
 40
1.5707963268
  9
$LOFTMAG1
 40
0.0
  9
$LOFTMAG2
 40
0.0
  9
$LOFTPARAM
 70
     7
  9
$LOFTNORMALS
280
     1
  9
$LATITUDE
 40
37.795
  9
$LONGITUDE
 40
-122.394
  9
$NORTHDIRECTION
 40
0.0
  9
$TIMEZONE
 70
 -8000
  9
$LIGHTGLYPHDISPLAY
280
     1
  9
$TILEMODELIGHTSYNCH
280
     1
  9
$CMATERIAL
347
44
  9
$SOLIDHIST
280
     0
  9
$SHOWHIST
280
     1
  9
$DWFFRAME
280
     2
  9
$DGNFRAME
280
     2
  9
$REALWORLDSCALE
290
     1
  9
$INTERFERECOLOR
 62
   256
  9
$CSHADOW
280
     0
  9
$SHADOWPLANELOCATION
 40
0.0
  0
ENDSEC
  0
SECTION
  2
CLASSES
  0
CLASS
  1
ACDBDICTIONARYWDFLT
  2
AcDbDictionaryWithDefault
  3
ObjectDBX Classes
 90
        0
 91
        4
280
     0
281
     0
  0
CLASS
  1
VISUALSTYLE
  2
AcDbVisualStyle
  3
ObjectDBX Classes
 90
     4095
 91
        4
280
     0
281
     0
  0
CLASS
  1
MATERIAL
  2
AcDbMaterial
  3
ObjectDBX Classes
 90
     1153
 91
        4
280
     0
281
     0
  0
CLASS
  1
SCALE
  2
AcDbScale
  3
ObjectDBX Classes
 90
     1153
 91
        4
280
     0
281
     0
  0
CLASS
  1
TABLESTYLE
  2
AcDbTableStyle
  3
ObjectDBX Classes
 90
     4095
 91
        4
280
     0
281
     0
  0
CLASS
  1
MLEADERSTYLE
  2
AcDbMLeaderStyle
  3
ACDB_MLEADERSTYLE_CLASS
 90
     4095
 91
        4
280
     0
281
     0
  0
CLASS
  1
SUN
  2
AcDbSun
  3
SCENEOE
 90
     1153
 91
        4
280
     0
281
     0
  0
CLASS
  1
DICTIONARYVAR
  2
AcDbDictionaryVar
  3
ObjectDBX Classes
 90
        0
 91
        4
280
     0
281
     0
  0
CLASS
  1
CELLSTYLEMAP
  2
AcDbCellStyleMap
  3
ObjectDBX Classes
 90
     1152
 91
        4
280
     0
281
     0
  0
ENDSEC
  0
SECTION
  2
TABLES
  0
TABLE
  2
VPORT
  5
8
330
0
100
AcDbSymbolTable
 70
     1
  0
VPORT
  5
29
330
8
100
AcDbSymbolTableRecord
100
AcDbViewportTableRecord
  2
*Active
 70
     0
 10
0.0
 20
0.0
 11
1.0
 21
1.0
 12
0.0
 22
0.0
 13
0.0
 23
0.0
 14
10.0
 24
10.0
 15
10.0
 25
10.0
 16
0.0
 26
0.0
 36
1.0
 17
0.0
 27
0.0
 37
0.0
 40
295.8
 41
1.0
 42
50.0
 43
0.0
 44
0.0
 50
0.0
 51
0.0
 71
     0
 72
   100
 73
     1
 74
     3
 75
     0
 76
     0
 77
     0
 78
     0
281
     0
 65
     1
110
0.0
120
0.0
130
0.0
111
1.0
121
0.0
131
0.0
112
0.0
122
1.0
132
0.0
 79
     0
146
0.0
348
2F
 60
     3
 61
     5
292
     1
282
     1
141
0.0
142
0.0
 63
   250
361
6D
  0
ENDTAB
  0
TABLE
  2
LTYPE
  5
5
330
0
100
AcDbSymbolTable
 70
     6
  0
LTYPE
  5
14
330
5
100
AcDbSymbolTableRecord
100
AcDbLinetypeTableRecord
  2
ByBlock
 70
     0
  3

 72
    65
 73
     0
 40
0.0
  0
LTYPE
  5
15
330
5
100
AcDbSymbolTableRecord
100
AcDbLinetypeTableRecord
  2
ByLayer
 70
     0
  3

 72
    65
 73
     0
 40
0.0
  0
LTYPE
  5
16
330
5
100
AcDbSymbolTableRecord
100
AcDbLinetypeTableRecord
  2
Continuous
 70
     0
  3
Solid line
 72
    65
 73
     0
 40
0.0
  0
LTYPE
  5
6E
330
5
100
AcDbSymbolTableRecord
100
AcDbLinetypeTableRecord
  2
HIDDEN
 70
     0
  3
Hidden __ __ __ __ __ __ __ __ __ __ __ __ __ __
 72
    65
 73
     2
 40
1.905
 49
1.27
 74
     0
 49
-0.635
 74
     0
  0
LTYPE
  5
6F
330
5
100
AcDbSymbolTableRecord
100
AcDbLinetypeTableRecord
  2
PHANTOM
 70
     0
  3
Phantom ______  __  __  ______  __  __  ______
 72
    65
 73
     6
 40
12.7
 49
6.35
 74
     0
 49
-1.27
 74
     0
 49
1.27
 74
     0
 49
-1.27
 74
     0
 49
1.27
 74
     0
 49
-1.27
 74
     0
  0
LTYPE
  5
70
330
5
100
AcDbSymbolTableRecord
100
AcDbLinetypeTableRecord
  2
CENTER
 70
     0
  3
Center ____ _ ____ _ ____ _ ____ _ ____ _ ____
 72
    65
 73
     4
 40
10.16
 49
6.35
 74
     0
 49
-1.27
 74
     0
 49
1.27
 74
     0
 49
-1.27
 74
     0
  0
LTYPE
  5
71
330
5
100
AcDbSymbolTableRecord
100
AcDbLinetypeTableRecord
  2
CENTERX2
 70
     0
  3
Center (2x) ________  __  ________  __  _____
 72
    65
 73
     4
 40
20.32
 49
12.7
 74
     0
 49
-2.54
 74
     0
 49
2.54
 74
     0
 49
-2.54
 74
     0
  0
LTYPE
  5
72
330
5
100
AcDbSymbolTableRecord
100
AcDbLinetypeTableRecord
  2
DOT2
 70
     0
  3
Dot (.5x) ........................................
 72
    65
 73
     2
 40
0.635
 49
0.0
 74
     0
 49
-0.635
 74
     0
  0
ENDTAB
  0
TABLE
  2
LAYER
  5
2
330
0
100
AcDbSymbolTable
 70
     1
  0
LAYER
  5
10
330
2
100
AcDbSymbolTableRecord
100
AcDbLayerTableRecord
  2
0
 70
     0
 62
     7
  6
Continuous
370
    -3
390
F
347
46
348
0
  0
ENDTAB
  0
TABLE
  2
STYLE
  5
3
330
0
100
AcDbSymbolTable
 70
     1
  0
STYLE
  5
11
330
3
100
AcDbSymbolTableRecord
100
AcDbTextStyleTableRecord
  2
STANDARD
 70
     0
 40
0.0
 41
1.0
 50
0.0
 71
     0
 42
3.5
  3
GOTHIC.TTF
  4

1001
ACAD
1000
CENTURY GOTHIC
1071
       34
  0
ENDTAB
  0
TABLE
  2
VIEW
  5
6
330
0
100
AcDbSymbolTable
 70
     0
  0
ENDTAB
  0
TABLE
  2
UCS
  5
7
330
0
100
AcDbSymbolTable
 70
     0
  0
ENDTAB
  0
TABLE
  2
APPID
  5
9
330
0
100
AcDbSymbolTable
 70
     1
  0
APPID
  5
12
330
9
100
AcDbSymbolTableRecord
100
AcDbRegAppTableRecord
  2
ACAD
 70
     0
  0
ENDTAB
  0
TABLE
  2
DIMSTYLE
  5
A
330
0
100
AcDbSymbolTable
 70
     1
100
AcDbDimStyleTable
  0
DIMSTYLE
105
27
330
A
100
AcDbSymbolTableRecord
100
AcDbDimStyleTableRecord
  2
ISO-25
 70
     0
 41
2.5
 42
0.625
 43
3.75
 44
1.25
 73
     0
 74
     0
 77
     1
 78
     8
140
2.5
141
2.5
143
0.0393700787
147
0.625
171
     3
172
     1
178
     0
271
     2
272
     2
274
     3
278
    44
283
     0
284
     8
340
11
  0
ENDTAB
  0
TABLE
  2
BLOCK_RECORD
  5
1
330
0
100
AcDbSymbolTable
 70
     8
  0
BLOCK_RECORD
  5
1F
330
1
100
AcDbSymbolTableRecord
100
AcDbBlockTableRecord
  2
*Model_Space
340
22
 70
     0
280
     1
281
     0
  0
BLOCK_RECORD
  5
1B
330
1
100
AcDbSymbolTableRecord
100
AcDbBlockTableRecord
  2
*Paper_Space
340
1E
 70
     0
280
     1
281
     0
  0
BLOCK_RECORD
  5
23
330
1
100
AcDbSymbolTableRecord
100
AcDbBlockTableRecord
  2
*Paper_Space0
340
26
 70
     0
280
     1
281
     0
  0
BLOCK_RECORD
  5
A3
330
1
100
AcDbSymbolTableRecord
100
AcDbBlockTableRecord
  2
*Paper_Space1
340
A4
 70
     0
280
     1
281
     0
  0
BLOCK_RECORD
  5
BB
330
1
100
AcDbSymbolTableRecord
100
AcDbBlockTableRecord
  2
*Paper_Space2
340
BC
 70
     0
280
     1
281
     0
  0
BLOCK_RECORD
  5
D3
330
1
100
AcDbSymbolTableRecord
100
AcDbBlockTableRecord
  2
*Paper_Space3
340
D4
 70
     0
280
     1
281
     0
  0
BLOCK_RECORD
  5
EB
330
1
100
AcDbSymbolTableRecord
100
AcDbBlockTableRecord
  2
*Paper_Space4
340
EC
 70
     0
280
     1
281
     0
  0
BLOCK_RECORD
  5
F3
330
1
100
AcDbSymbolTableRecord
100
AcDbBlockTableRecord
  2
*Paper_Space5
340
F4
 70
     0
280
     1
281
     0
  0
BLOCK_RECORD
  5
FC
330
1
100
AcDbSymbolTableRecord
100
AcDbBlockTableRecord
  2
*Paper_Space6
340
FD
 70
     0
280
     1
281
     0
  0
BLOCK_RECORD
  5
106
330
1
100
AcDbSymbolTableRecord
100
AcDbBlockTableRecord
  2
*Paper_Space7
340
107
 70
     0
280
     1
281
     0
  0
ENDTAB
  0
ENDSEC
  0
SECTION
  2
BLOCKS
  0
BLOCK
  5
20
330
1F
100
AcDbEntity
  8
0
100
AcDbBlockBegin
  2
*Model_Space
 70
     0
 10
0.0
 20
0.0
 30
0.0
  3
*Model_Space
  1

  0
ENDBLK
  5
21
330
1F
100
AcDbEntity
  8
0
100
AcDbBlockEnd
  0
BLOCK
  5
1C
330
1B
100
AcDbEntity
 67
     1
  8
0
100
AcDbBlockBegin
  2
*Paper_Space
 70
     0
 10
0.0
 20
0.0
 30
0.0
  3
*Paper_Space
  1

  0
ENDBLK
  5
1D
330
1B
100
AcDbEntity
 67
     1
  8
0
100
AcDbBlockEnd
  0
BLOCK
  5
24
330
23
100
AcDbEntity
  8
0
100
AcDbBlockBegin
  2
*Paper_Space0
 70
     0
 10
0.0
 20
0.0
 30
0.0
  3
*Paper_Space0
  1

  0
LINE
  5
99
330
23
100
AcDbEntity
  8
0
  6
Continuous
 62
     7
370
    25
100
AcDbLine
 10
-50.0
 20
1.7603291963
 30
0.0
 11
-50.0
 21
0.0
 31
0.0
  0
LINE
  5
9A
330
23
100
AcDbEntity
  8
0
  6
Continuous
 62
     7
370
    25
100
AcDbLine
 10
50.0
 20
0.0
 30
0.0
 11
50.0
 21
1.7603291963
 31
0.0
  0
LINE
  5
9B
330
23
100
AcDbEntity
  8
0
  6
Continuous
 62
     7
370
    25
100
AcDbLine
 10
-145.0
 20
150.0
 30
0.0
 11
145.0
 21
150.0
 31
0.0
  0
LINE
  5
9C
330
23
100
AcDbEntity
  8
0
  6
Continuous
 62
     7
370
    25
100
AcDbLine
 10
-50.0
 20
0.0
 30
0.0
 11
50.0
 21
0.0
 31
0.0
  0
LINE
  5
9D
330
23
100
AcDbEntity
  8
0
  6
Continuous
 62
    60
370
    25
100
AcDbLine
 10
-52.9112903226
 20
6.3031578177
 30
0.0
 11
52.9112903226
 21
6.3031578177
 31
0.0
  0
LINE
  5
9E
330
23
100
AcDbEntity
  8
0
  6
Continuous
 62
    60
370
    25
100
AcDbLine
 10
-50.0
 20
1.7603291963
 30
0.0
 11
50.0
 21
1.7603291963
 31
0.0
  0
ARC
  5
9F
330
23
100
AcDbEntity
  8
0
  6
Continuous
 62
     7
370
    25
100
AcDbCircle
 10
-13.1578947368
 20
150.0
 30
0.0
 40
158.1578947368423
100
AcDbArc
 50
294.692108304
 51
0.0
  0
ARC
  5
A0
330
23
100
AcDbEntity
  8
0
  6
Continuous
 62
     7
370
    25
100
AcDbCircle
 10
13.1578947368
 20
150.0
 30
0.0
 40
158.1578947368424
100
AcDbArc
 50
180.0
 51
245.307891696
  0
ARC
  5
A1
330
23
100
AcDbEntity
  8
0
  6
Continuous
 62
     7
370
    25
100
AcDbCircle
 10
-55.0
 20
1.7603291963
 30
0.0
 40
5.000000000000018
100
AcDbArc
 50
0.0
 51
65.307891696
  0
ARC
  5
A2
330
23
100
AcDbEntity
  8
0
  6
Continuous
 62
     7
370
    25
100
AcDbCircle
 10
55.0
 20
1.7603291963
 30
0.0
 40
5.000000000000002
100
AcDbArc
 50
114.692108304
 51
180.0
  0
VIEWPORT
  5
118
330
23
100
AcDbEntity
  8
0
100
AcDbViewport
 10
0.0
 20
0.0
 30
0.0
 40
205.6
 41
156.0
 68
     1
 69
     1
 12
0.0
 22
0.0
 13
0.0
 23
0.0
 14
10.0
 24
10.0
 15
10.0
 25
10.0
 16
0.0
 26
0.0
 36
1.0
 17
0.0
 27
0.0
 37
0.0
 42
50.0
 43
0.0
 44
0.0
 45
295.8
 50
0.0
 51
0.0
 72
   100
 90
   557152
  1

281
     0
 71
     1
 74
     0
110
0.0
120
0.0
130
0.0
111
1.0
121
0.0
131
0.0
112
0.0
122
1.0
132
0.0
 79
     0
146
0.0
170
     0
 61
     5
348
2F
292
     1
282
     1
141
0.0
142
0.0
 63
   256
361
119
  0
ENDBLK
  5
25
330
23
100
AcDbEntity
  8
0
100
AcDbBlockEnd
  0
BLOCK
  5
A5
330
A3
100
AcDbEntity
  8
0
100
AcDbBlockBegin
  2
*Paper_Space1
 70
     0
 10
0.0
 20
0.0
 30
0.0
  3
*Paper_Space1
  1

  0
LINE
  5
B1
330
A3
100
AcDbEntity
  8
0
  6
Continuous
 62
     7
370
    25
100
AcDbLine
 10
-50.0
 20
1.7603291963
 30
0.0
 11
-50.0
 21
0.0
 31
0.0
  0
LINE
  5
B2
330
A3
100
AcDbEntity
  8
0
  6
Continuous
 62
     7
370
    25
100
AcDbLine
 10
50.0
 20
0.0
 30
0.0
 11
50.0
 21
1.7603291963
 31
0.0
  0
LINE
  5
B3
330
A3
100
AcDbEntity
  8
0
  6
Continuous
 62
     7
370
    25
100
AcDbLine
 10
-145.0
 20
150.0
 30
0.0
 11
145.0
 21
150.0
 31
0.0
  0
LINE
  5
B4
330
A3
100
AcDbEntity
  8
0
  6
Continuous
 62
     7
370
    25
100
AcDbLine
 10
-50.0
 20
0.0
 30
0.0
 11
50.0
 21
0.0
 31
0.0
  0
LINE
  5
B5
330
A3
100
AcDbEntity
  8
0
  6
Continuous
 62
    60
370
    25
100
AcDbLine
 10
-52.9112903226
 20
6.3031578177
 30
0.0
 11
52.9112903226
 21
6.3031578177
 31
0.0
  0
LINE
  5
B6
330
A3
100
AcDbEntity
  8
0
  6
Continuous
 62
    60
370
    25
100
AcDbLine
 10
-50.0
 20
1.7603291963
 30
0.0
 11
50.0
 21
1.7603291963
 31
0.0
  0
ARC
  5
B7
330
A3
100
AcDbEntity
  8
0
  6
Continuous
 62
     7
370
    25
100
AcDbCircle
 10
-13.1578947368
 20
150.0
 30
0.0
 40
158.1578947368422
100
AcDbArc
 50
294.692108304
 51
0.0
  0
ARC
  5
B8
330
A3
100
AcDbEntity
  8
0
  6
Continuous
 62
     7
370
    25
100
AcDbCircle
 10
13.1578947368
 20
150.0
 30
0.0
 40
158.1578947368423
100
AcDbArc
 50
180.0
 51
245.307891696
  0
ARC
  5
B9
330
A3
100
AcDbEntity
  8
0
  6
Continuous
 62
     7
370
    25
100
AcDbCircle
 10
-55.0
 20
1.7603291963
 30
0.0
 40
5.000000000000028
100
AcDbArc
 50
0.0
 51
65.307891696
  0
ARC
  5
BA
330
A3
100
AcDbEntity
  8
0
  6
Continuous
 62
     7
370
    25
100
AcDbCircle
 10
55.0
 20
1.7603291963
 30
0.0
 40
5.000000000000057
100
AcDbArc
 50
114.692108304
 51
180.0
  0
VIEWPORT
  5
11A
330
A3
100
AcDbEntity
  8
0
100
AcDbViewport
 10
0.0
 20
0.0
 30
0.0
 40
205.6
 41
156.0
 68
     1
 69
     1
 12
0.0
 22
0.0
 13
0.0
 23
0.0
 14
10.0
 24
10.0
 15
10.0
 25
10.0
 16
0.0
 26
0.0
 36
1.0
 17
0.0
 27
0.0
 37
0.0
 42
50.0
 43
0.0
 44
0.0
 45
295.8
 50
0.0
 51
0.0
 72
   100
 90
   557152
  1

281
     0
 71
     1
 74
     0
110
0.0
120
0.0
130
0.0
111
1.0
121
0.0
131
0.0
112
0.0
122
1.0
132
0.0
 79
     0
146
0.0
170
     0
 61
     5
348
2F
292
     1
282
     1
141
0.0
142
0.0
 63
   256
361
11B
  0
ENDBLK
  5
A6
330
A3
100
AcDbEntity
  8
0
100
AcDbBlockEnd
  0
BLOCK
  5
BD
330
BB
100
AcDbEntity
  8
0
100
AcDbBlockBegin
  2
*Paper_Space2
 70
     0
 10
0.0
 20
0.0
 30
0.0
  3
*Paper_Space2
  1

  0
LINE
  5
C9
330
BB
100
AcDbEntity
  8
0
  6
Continuous
 62
     7
370
    25
100
AcDbLine
 10
-50.0
 20
1.7603291963
 30
0.0
 11
-50.0
 21
0.0
 31
0.0
  0
LINE
  5
CA
330
BB
100
AcDbEntity
  8
0
  6
Continuous
 62
     7
370
    25
100
AcDbLine
 10
50.0
 20
0.0
 30
0.0
 11
50.0
 21
1.7603291963
 31
0.0
  0
LINE
  5
CB
330
BB
100
AcDbEntity
  8
0
  6
Continuous
 62
     7
370
    25
100
AcDbLine
 10
-145.0
 20
150.0
 30
0.0
 11
145.0
 21
150.0
 31
0.0
  0
LINE
  5
CC
330
BB
100
AcDbEntity
  8
0
  6
Continuous
 62
     7
370
    25
100
AcDbLine
 10
-50.0
 20
0.0
 30
0.0
 11
50.0
 21
0.0
 31
0.0
  0
LINE
  5
CD
330
BB
100
AcDbEntity
  8
0
  6
Continuous
 62
    60
370
    25
100
AcDbLine
 10
-52.9112903226
 20
6.3031578177
 30
0.0
 11
52.9112903226
 21
6.3031578177
 31
0.0
  0
LINE
  5
CE
330
BB
100
AcDbEntity
  8
0
  6
Continuous
 62
    60
370
    25
100
AcDbLine
 10
-50.0
 20
1.7603291963
 30
0.0
 11
50.0
 21
1.7603291963
 31
0.0
  0
ARC
  5
CF
330
BB
100
AcDbEntity
  8
0
  6
Continuous
 62
     7
370
    25
100
AcDbCircle
 10
-13.1578947368
 20
150.0
 30
0.0
 40
158.1578947368423
100
AcDbArc
 50
294.692108304
 51
0.0
  0
ARC
  5
D0
330
BB
100
AcDbEntity
  8
0
  6
Continuous
 62
     7
370
    25
100
AcDbCircle
 10
13.1578947368
 20
150.0
 30
0.0
 40
158.1578947368423
100
AcDbArc
 50
180.0
 51
245.307891696
  0
ARC
  5
D1
330
BB
100
AcDbEntity
  8
0
  6
Continuous
 62
     7
370
    25
100
AcDbCircle
 10
-55.0
 20
1.7603291963
 30
0.0
 40
5.000000000000064
100
AcDbArc
 50
0.0
 51
65.307891696
  0
ARC
  5
D2
330
BB
100
AcDbEntity
  8
0
  6
Continuous
 62
     7
370
    25
100
AcDbCircle
 10
55.0
 20
1.7603291963
 30
0.0
 40
5.000000000000014
100
AcDbArc
 50
114.692108304
 51
180.0
  0
VIEWPORT
  5
11C
330
BB
100
AcDbEntity
  8
0
100
AcDbViewport
 10
0.0
 20
0.0
 30
0.0
 40
205.6
 41
156.0
 68
     1
 69
     1
 12
0.0
 22
0.0
 13
0.0
 23
0.0
 14
10.0
 24
10.0
 15
10.0
 25
10.0
 16
0.0
 26
0.0
 36
1.0
 17
0.0
 27
0.0
 37
0.0
 42
50.0
 43
0.0
 44
0.0
 45
295.8
 50
0.0
 51
0.0
 72
   100
 90
   557152
  1

281
     0
 71
     1
 74
     0
110
0.0
120
0.0
130
0.0
111
1.0
121
0.0
131
0.0
112
0.0
122
1.0
132
0.0
 79
     0
146
0.0
170
     0
 61
     5
348
2F
292
     1
282
     1
141
0.0
142
0.0
 63
   256
361
11D
  0
ENDBLK
  5
BE
330
BB
100
AcDbEntity
  8
0
100
AcDbBlockEnd
  0
BLOCK
  5
D5
330
D3
100
AcDbEntity
  8
0
100
AcDbBlockBegin
  2
*Paper_Space3
 70
     0
 10
0.0
 20
0.0
 30
0.0
  3
*Paper_Space3
  1

  0
LINE
  5
E1
330
D3
100
AcDbEntity
  8
0
  6
Continuous
 62
     7
370
    25
100
AcDbLine
 10
-50.0
 20
1.7603291963
 30
0.0
 11
-50.0
 21
0.0
 31
0.0
  0
LINE
  5
E2
330
D3
100
AcDbEntity
  8
0
  6
Continuous
 62
     7
370
    25
100
AcDbLine
 10
50.0
 20
0.0
 30
0.0
 11
50.0
 21
1.7603291963
 31
0.0
  0
LINE
  5
E3
330
D3
100
AcDbEntity
  8
0
  6
Continuous
 62
     7
370
    25
100
AcDbLine
 10
-145.0
 20
150.0
 30
0.0
 11
145.0
 21
150.0
 31
0.0
  0
LINE
  5
E4
330
D3
100
AcDbEntity
  8
0
  6
Continuous
 62
     7
370
    25
100
AcDbLine
 10
-50.0
 20
0.0
 30
0.0
 11
50.0
 21
0.0
 31
0.0
  0
LINE
  5
E5
330
D3
100
AcDbEntity
  8
0
  6
Continuous
 62
    60
370
    25
100
AcDbLine
 10
-52.9112903226
 20
6.3031578177
 30
0.0
 11
52.9112903226
 21
6.3031578177
 31
0.0
  0
LINE
  5
E6
330
D3
100
AcDbEntity
  8
0
  6
Continuous
 62
    60
370
    25
100
AcDbLine
 10
-50.0
 20
1.7603291963
 30
0.0
 11
50.0
 21
1.7603291963
 31
0.0
  0
ARC
  5
E7
330
D3
100
AcDbEntity
  8
0
  6
Continuous
 62
     7
370
    25
100
AcDbCircle
 10
-13.1578947368
 20
150.0
 30
0.0
 40
158.1578947368423
100
AcDbArc
 50
294.692108304
 51
0.0
  0
ARC
  5
E8
330
D3
100
AcDbEntity
  8
0
  6
Continuous
 62
     7
370
    25
100
AcDbCircle
 10
13.1578947368
 20
150.0
 30
0.0
 40
158.1578947368424
100
AcDbArc
 50
180.0
 51
245.307891696
  0
ARC
  5
E9
330
D3
100
AcDbEntity
  8
0
  6
Continuous
 62
     7
370
    25
100
AcDbCircle
 10
-55.0
 20
1.7603291963
 30
0.0
 40
5.000000000000018
100
AcDbArc
 50
0.0
 51
65.307891696
  0
ARC
  5
EA
330
D3
100
AcDbEntity
  8
0
  6
Continuous
 62
     7
370
    25
100
AcDbCircle
 10
55.0
 20
1.7603291963
 30
0.0
 40
5.000000000000002
100
AcDbArc
 50
114.692108304
 51
180.0
  0
VIEWPORT
  5
11E
330
D3
100
AcDbEntity
  8
0
100
AcDbViewport
 10
0.0
 20
0.0
 30
0.0
 40
205.6
 41
156.0
 68
     1
 69
     1
 12
0.0
 22
0.0
 13
0.0
 23
0.0
 14
10.0
 24
10.0
 15
10.0
 25
10.0
 16
0.0
 26
0.0
 36
1.0
 17
0.0
 27
0.0
 37
0.0
 42
50.0
 43
0.0
 44
0.0
 45
295.8
 50
0.0
 51
0.0
 72
   100
 90
   557152
  1

281
     0
 71
     1
 74
     0
110
0.0
120
0.0
130
0.0
111
1.0
121
0.0
131
0.0
112
0.0
122
1.0
132
0.0
 79
     0
146
0.0
170
     0
 61
     5
348
2F
292
     1
282
     1
141
0.0
142
0.0
 63
   256
361
11F
  0
ENDBLK
  5
D6
330
D3
100
AcDbEntity
  8
0
100
AcDbBlockEnd
  0
BLOCK
  5
ED
330
EB
100
AcDbEntity
  8
0
100
AcDbBlockBegin
  2
*Paper_Space4
 70
     0
 10
0.0
 20
0.0
 30
0.0
  3
*Paper_Space4
  1

  0
CIRCLE
  5
EF
330
EB
100
AcDbEntity
  8
0
  6
Continuous
 62
     7
370
    25
100
AcDbCircle
 10
0.0
 20
0.0
 30
0.0
 40
23.00000000000001
  0
CIRCLE
  5
F0
330
EB
100
AcDbEntity
  8
0
  6
Continuous
 62
     7
370
    25
100
AcDbCircle
 10
0.0
 20
0.0
 30
0.0
 40
50.0
  0
CIRCLE
  5
F1
330
EB
100
AcDbEntity
  8
0
  6
Continuous
 62
     7
370
    25
100
AcDbCircle
 10
0.0
 20
0.0
 30
0.0
 40
52.9112903225807
  0
CIRCLE
  5
F2
330
EB
100
AcDbEntity
  8
0
  6
Continuous
 62
     7
370
    25
100
AcDbCircle
 10
0.0
 20
0.0
 30
0.0
 40
144.9999999999999
  0
VIEWPORT
  5
120
330
EB
100
AcDbEntity
  8
0
100
AcDbViewport
 10
0.0
 20
0.0
 30
0.0
 40
205.6
 41
156.0
 68
     1
 69
     1
 12
0.0
 22
0.0
 13
0.0
 23
0.0
 14
10.0
 24
10.0
 15
10.0
 25
10.0
 16
0.0
 26
0.0
 36
1.0
 17
0.0
 27
0.0
 37
0.0
 42
50.0
 43
0.0
 44
0.0
 45
295.8
 50
0.0
 51
0.0
 72
   100
 90
   557152
  1

281
     0
 71
     1
 74
     0
110
0.0
120
0.0
130
0.0
111
1.0
121
0.0
131
0.0
112
0.0
122
1.0
132
0.0
 79
     0
146
0.0
170
     0
 61
     5
348
2F
292
     1
282
     1
141
0.0
142
0.0
 63
   256
361
121
  0
ENDBLK
  5
EE
330
EB
100
AcDbEntity
  8
0
100
AcDbBlockEnd
  0
BLOCK
  5
F5
330
F3
100
AcDbEntity
  8
0
100
AcDbBlockBegin
  2
*Paper_Space5
 70
     0
 10
0.0
 20
0.0
 30
0.0
  3
*Paper_Space5
  1

  0
SPLINE
  5
F7
330
F3
100
AcDbEntity
  8
0
  6
Continuous
 62
     7
370
    25
100
AcDbSpline
210
0.0
220
0.0
230
1.0
 70
     8
 71
     3
 72
    82
 73
    78
 74
     0
 42
0.000000001
 43
0.00000001
 40
0.0
 40
0.0
 40
0.0
 40
0.0
 40
0.0078490144593141
 40
0.0216968419955887
 40
0.0355107278838394
 40
0.0492902900643677
 40
0.0630351200332573
 40
0.0767447781597389
 40
0.0904187897196059
 40
0.1040566415571299
 40
0.1176577793890554
 40
0.1312216058121864
 40
0.1447474791316253
 40
0.1582347131921904
 40
0.1716825784744106
 40
0.1850903048116403
 40
0.198457086199124
 40
0.2117820883006403
 40
0.2250644594130252
 40
0.2383033458174723
 40
0.2514979126160592
 40
0.2646473712961596
 40
0.2777510153406961
 40
0.290808265140239
 40
0.303818723169352
 40
0.3167822397502171
 40
0.3296989886408985
 40
0.3425695501496557
 40
0.3553949977550554
 40
0.3681769831384045
 40
0.3809178159317285
 40
0.3936205415065278
 40
0.4062890369049551
 40
0.4189281742380375
 40
0.4315441376085243
 40
0.4441450016037142
 40
0.456741641637876
 40
0.4693488985089561
 40
0.4819866601650313
 40
0.4946802622304378
 40
0.5074595486465371
 40
0.5203554362194579
 40
0.533388706704434
 40
0.5465829752735296
 40
0.5599525348419181
 40
0.5735001912958436
 40
0.5872175622761707
 40
0.6010875806609839
 40
0.6150881349029402
 40
0.6277219532018903
 40
0.6404036001841341
 40
0.6531282784285027
 40
0.6658925500970987
 40
0.6786933127629924
 40
0.6915277242788399
 40
0.7058472393239816
 40
0.7187433768849466
 40
0.7330753524174455
 40
0.7474400553864593
 40
0.7617958385898727
 40
0.7761376169600641
 40
0.7904619543186883
 40
0.8047660526594296
 40
0.8190476212411182
 40
0.8333047849846175
 40
0.8475360085578153
 40
0.861740033033705
 40
0.8759158229977723
 40
0.8900625223772065
 40
0.9041794175558591
 40
0.9182659065696883
 40
0.9323214733669506
 40
0.9463456662774157
 40
0.9603380799709107
 40
0.9742983403023048
 40
0.988226091539988
 40
1.0
 40
1.0
 40
1.0
 40
1.0
 10
-144.9668812696966
 20
122.4796019391308
 30
0.0
 10
-144.9714625170905
 20
121.2660527483754
 30
0.0
 10
-144.9841263491375
 20
117.9114678916165
 30
0.0
 10
-144.7077571953188
 20
112.4255113132974
 30
0.0
 10
-144.1653318157102
 20
106.0408197709093
 30
0.0
 10
-143.3471778555524
 20
99.70051587230141
 30
0.0
 10
-142.2725292419169
 20
93.41550231348764
 30
0.0
 10
-140.9409248275599
 20
87.1964999606969
 30
0.0
 10
-139.3577025423595
 20
81.0540010860265
 30
0.0
 10
-137.5271803516017
 20
74.99826456469809
 30
0.0
 10
-135.4544622518167
 20
69.03930007356351
 30
0.0
 10
-133.1449414159546
 20
63.18685546357819
 30
0.0
 10
-130.6044172074605
 20
57.45040355038093
 30
0.0
 10
-127.8390474349768
 20
51.83912934689129
 30
0.0
 10
-124.8553434582352
 20
46.36191748239631
 30
0.0
 10
-121.6601524971183
 20
41.02733989385453
 30
0.0
 10
-118.2606416806743
 20
35.84364378996964
 30
0.0
 10
-114.6642795599388
 20
30.81873992701508
 30
0.0
 10
-110.8788157266588
 20
25.96019125601785
 30
0.0
 10
-106.9122577537142
 20
21.27520204879259
 30
0.0
 10
-102.772844935731
 20
16.77060768307534
 30
0.0
 10
-98.46901813501171
 20
12.45286537692575
 30
0.0
 10
-94.00938502705509
 20
8.328046318947887
 30
0.0
 10
-89.40268008209495
 20
4.401829851529378
 30
0.0
 10
-84.65771881563568
 20
0.6795006287410033
 30
0.0
 10
-79.78334625628115
 20
-2.834050029893683
 30
0.0
 10
-74.78838028833268
 20
-6.134317086596695
 30
0.0
 10
-69.68155155179046
 20
-9.217167373722267
 30
0.0
 10
-64.47144280181463
 20
-12.07881631426618
 30
0.0
 10
-59.16643161402431
 20
-14.71579497684004
 30
0.0
 10
-53.77464012117884
 20
-17.12490819393384
 30
0.0
 10
-48.30389247147765
 20
-19.30318685570057
 30
0.0
 10
-42.7616729349274
 20
-21.24784013201479
 30
0.0
 10
-37.15506409606237
 20
-22.95621445398408
 30
0.0
 10
-31.49062848682836
 20
-24.42576233450187
 30
0.0
 10
-25.77418947196777
 20
-25.65401209046284
 30
0.0
 10
-20.01048786023968
 20
-26.63850964447755
 30
0.0
 10
-14.20275764957961
 20
-27.37668562419746
 30
0.0
 10
-8.352371581704716
 20
-27.86560514382998
 30
0.0
 10
-2.458805677820773
 20
-28.10160317081082
 30
0.0
 10
3.479694405201135
 20
-28.07989253963505
 30
0.0
 10
9.463645472138564
 20
-27.79440186321724
 30
0.0
 10
15.49203336728196
 20
-27.23805375303868
 30
0.0
 10
21.56072425066968
 20
-26.40322049662232
 30
0.0
 10
27.66228884496783
 20
-25.2822351980837
 30
0.0
 10
33.78396389352836
 20
-23.86851311663029
 30
0.0
 10
39.90797127625603
 20
-22.15754415839982
 30
0.0
 10
46.01274242866358
 20
-20.14755761459446
 30
0.0
 10
51.86194063202484
 20
-17.92067914983372
 30
0.0
 10
57.4396397328
 20
-15.51579297145949
 30
0.0
 10
62.7365451422843
 20
-12.97054019689278
 30
0.0
 10
67.94312191426465
 20
-10.20230196943465
 30
0.0
 10
73.04898791611456
 20
-7.215678000938287
 30
0.0
 10
78.04424275102878
 20
-4.015589400272725
 30
0.0
 10
83.10337005759231
 20
-0.4786666678241111
 30
0.0
 10
88.01985931822956
 20
3.279808186049032
 30
0.0
 10
92.9500324595491
 20
7.391642414964636
 30
0.0
 10
97.70782721559624
 20
11.71361573548783
 30
0.0
 10
102.4294638230663
 20
16.40175622746918
 30
0.0
 10
106.9402966452315
 20
21.29578586146971
 30
0.0
 10
111.2272041944388
 20
26.37952377104511
 30
0.0
 10
115.2820511153286
 20
31.6406549475976
 30
0.0
 10
119.0976541349601
 20
37.06688191082419
 30
0.0
 10
122.6676342651126
 20
42.64585406234481
 30
0.0
 10
125.9863617660092
 20
48.36518480192349
 30
0.0
 10
129.0489137583952
 20
54.21247004492757
 30
0.0
 10
131.8510372782928
 20
60.17530416005537
 30
0.0
 10
134.3891199718645
 20
66.24129461415396
 30
0.0
 10
136.6601580370344
 20
72.39807571136859
 30
0.0
 10
138.6617550364277
 20
78.63332174775353
 30
0.0
 10
140.3920230174098
 20
84.9347602849386
 30
0.0
 10
141.8498609767618
 20
91.29018410359157
 30
0.0
 10
143.0338408992911
 20
97.6874680163147
 30
0.0
 10
143.9462818988629
 20
104.1145680524779
 30
0.0
 10
144.5780347622547
 20
110.5595869234866
 30
0.0
 10
144.9453696736455
 20
116.6831275154227
 30
0.0
 10
144.970857073925
 20
120.6569780162604
 30
0.0
 10
144.9825328303276
 20
122.4773955527524
 30
0.0
  0
LWPOLYLINE
  5
F8
330
F3
100
AcDbEntity
  8
0
  6
Continuous
 62
     7
370
    25
100
AcDbPolyline
 90
      139
 70
   128
 43
0.0
 10
-102.530483272
 20
181.67070989
 10
-107.0908620753
 20
178.9153797845
 10
-111.4292787133
 20
176.0430810613
 10
-115.5367411553
 20
173.0597669984
 10
-119.404736058
 20
169.9716209695
 10
-123.0252464114
 20
166.7850436289
 10
-126.3907681547
 20
163.5066396448
 10
-129.4943257304
 20
160.1432040101
 10
-132.3294865414
 20
156.7017079587
 10
-134.890374284
 20
153.1892845168
 10
-137.1716811272
 20
149.6132137182
 10
-139.1686787142
 20
145.9809075159
 10
-140.8772279627
 20
142.299894419
 10
-142.2937876433
 20
138.5778038895
 10
-143.4154217199
 20
134.8223505281
 10
-144.2398054344
 20
131.0413180857
 10
-144.7652301259
 20
127.2425433292
 10
-144.9906067712
 20
123.4338997994
 10
-144.9154682431
 20
119.6232814917
 10
-144.5399702775
 20
115.8185864944
 10
-143.8648911512
 20
112.0277006189
 10
-142.891630069
 20
108.2584810551
 10
-141.6222042629
 20
104.5187400861
 10
-140.0592448119
 20
100.8162288961
 10
-138.2059911881
 20
97.158621505
 10
-136.0662845425
 20
93.5534988626
 10
-133.644559744
 20
90.0083331362
 10
-130.9458361871
 20
86.5304722231
 10
-127.9757073883
 20
83.127124521
 10
-124.7403293933
 20
79.8053439879
 10
-121.2464080169
 20
76.5720155212
 10
-117.5011849448
 20
73.4338406878
 10
-113.5124227237
 20
70.3973238343
 10
-109.2883886725
 20
67.4687586056
 10
-104.8378377466
 20
64.6542149003
 10
-100.1699943926
 20
61.9595262901
 10
-95.2945334286
 20
59.3902779286
 10
-90.221559992
 20
56.9517949754
 10
-84.9615885948
 20
54.6491315587
 10
-79.5255213312
 20
52.4870603002
 10
-73.9246252804
 20
50.4700624226
 10
-68.1705091551
 20
48.6023184621
 10
-62.2750992394
 20
46.8876996033
 10
-56.2506146707
 20
45.3297596556
 10
-50.1095421133
 20
43.9317276873
 10
-43.8646098778
 20
42.6965013334
 10
-37.5287615399
 20
41.626640789
 10
-31.1151291128
 20
40.7243635034
 10
-24.6370058292
 20
39.9915395842
 10
-18.1078185887
 20
39.4296879207
 10
-11.541100129
 20
39.0399730365
 10
-4.950460977
 20
38.823202675
 10
1.6504387615
 20
38.779826126
 10
8.2479177135
 20
38.909933294
 10
14.8283015966
 20
39.213254512
 10
21.3779515602
 20
39.6891611004
 10
27.8832924547
 20
40.3366666703
 10
34.3308409676
 20
41.1544291673
 10
40.7072335701
 20
42.1407536539
 10
46.9992542147
 20
43.293595822
 10
53.1938617279
 20
44.6105662301
 10
59.2782168396
 20
46.0889352559
 10
65.2397087947
 20
47.7256387539
 10
71.0659814908
 20
49.5172844061
 10
76.744959088
 20
51.4601587533
 10
82.2648710381
 20
53.5502348918
 10
87.6142764806
 20
55.7831808195
 10
92.7820879557
 20
58.1543684151
 10
97.7575943852
 20
60.6588830302
 10
102.530483272
 20
63.2915336757
 10
107.0908620753
 20
66.0468637813
 10
111.4292787133
 20
68.9191625044
 10
115.5367411553
 20
71.9024765674
 10
119.404736058
 20
74.9906225963
 10
123.0252464114
 20
78.1771999368
 10
126.3907681547
 20
81.4556039209
 10
129.4943257304
 20
84.8190395556
 10
132.3294865414
 20
88.260535607
 10
134.890374284
 20
91.772959049
 10
137.1716811272
 20
95.3490298475
 10
139.1686787142
 20
98.9813360499
 10
140.8772279627
 20
102.6623491467
 10
142.2937876433
 20
106.3844396763
 10
143.4154217199
 20
110.1398930376
 10
144.2398054344
 20
113.9209254801
 10
144.7652301259
 20
117.7197002366
 10
144.9906067712
 20
121.5283437663
 10
144.9154682431
 20
125.338962074
 10
144.5399702775
 20
129.1436570713
 10
143.8648911512
 20
132.9345429468
 10
142.891630069
 20
136.7037625106
 10
141.6222042629
 20
140.4435034796
 10
140.0592448119
 20
144.1460146696
 10
138.2059911881
 20
147.8036220607
 10
136.0662845425
 20
151.4087447031
 10
133.644559744
 20
154.9539104295
 10
130.9458361871
 20
158.4317713427
 10
127.9757073883
 20
161.8351190447
 10
124.7403293933
 20
165.1568995778
 10
121.2464080169
 20
168.3902280445
 10
117.5011849448
 20
171.5284028779
 10
113.5124227237
 20
174.5649197314
 10
109.2883886725
 20
177.4934849601
 10
104.8378377466
 20
180.3080286654
 10
100.1699943926
 20
183.0027172756
 10
95.2945334286
 20
185.5719656371
 10
90.221559992
 20
188.0104485903
 10
84.9615885948
 20
190.313112007
 10
79.5255213311
 20
192.4751832655
 10
73.9246252804
 20
194.4921811431
 10
68.1705091551
 20
196.3599251036
 10
62.2750992394
 20
198.0745439624
 10
56.2506146707
 20
199.6324839102
 10
50.1095421133
 20
201.0305158784
 10
43.8646098778
 20
202.2657422323
 10
37.5287615399
 20
203.3356027768
 10
31.1151291128
 20
204.2378800623
 10
24.6370058292
 20
204.9707039816
 10
18.1078185887
 20
205.532555645
 10
11.541100129
 20
205.9222705293
 10
4.950460977
 20
206.1390408907
 10
-1.6504387615
 20
206.1824174397
 10
-8.2479177135
 20
206.0523102718
 10
-14.8283015966
 20
205.7489890538
 10
-21.3779515602
 20
205.2730824653
 10
-27.8832924547
 20
204.6255768955
 10
-34.3308409676
 20
203.8078143984
 10
-40.7072335701
 20
202.8214899118
 10
-46.9992542147
 20
201.6686477437
 10
-53.1938617279
 20
200.3516773356
 10
-59.2782168396
 20
198.8733083098
 10
-65.2397087947
 20
197.2366048119
 10
-71.0659814908
 20
195.4449591597
 10
-76.744959088
 20
193.5020848124
 10
-82.2648710381
 20
191.412008674
 10
-87.6142764806
 20
189.1790627462
 10
-92.7820879557
 20
186.8078751506
 10
-97.7575943852
 20
184.3033605356
 10
-102.530483272
 20
181.67070989
  0
LWPOLYLINE
  5
F9
330
F3
100
AcDbEntity
  8
0
  6
Continuous
 62
     7
370
    25
100
AcDbPolyline
 90
      132
 70
   128
 43
0.0
 10
-91.9238815543
 20
175.5476490513
 10
-96.2254451613
 20
172.942354525
 10
-100.305687161
 20
170.2209975462
 10
-104.1552228658
 20
167.3898373234
 10
-107.7651982203
 20
164.4553856157
 10
-111.1273101655
 20
161.4243917561
 10
-114.2338257363
 20
158.3038271276
 10
-117.0775998471
 20
155.1008691288
 10
-119.6520917265
 20
151.8228846659
 10
-121.9513799607
 20
148.477413208
 10
-123.9701761129
 20
145.0721494468
 10
-125.7038368874
 20
141.6149255981
 10
-127.1483748088
 20
138.1136933874
 10
-128.3004673937
 20
134.5765057611
 10
-129.1574647921
 20
131.011498364
 10
-129.7173958825
 20
127.4268708274
 10
-129.9789728056
 20
123.8308679095
 10
-129.941593926
 20
120.2317605323
 10
-129.6053452163
 20
116.6378267581
 10
-128.9710000594
 20
113.0573327496
 10
-128.0400174694
 20
109.4985137579
 10
-126.8145387361
 20
105.9695551807
 10
-125.2973824999
 20
102.4785737359
 10
-123.4920382688
 20
99.0335987925
 10
-121.4026583923
 20
95.6425539034
 10
-119.034048511
 20
92.3132385804
 10
-116.3916565037
 20
89.0533103556
 10
-113.4815599566
 20
85.8702671682
 10
-110.3104521851
 20
82.7714301197
 10
-106.8856268385
 20
79.7639266345
 10
-103.2149611251
 20
76.8546740671
 10
-99.3068976935
 20
74.0503637915
 10
-95.1704252148
 20
71.3574458113
 10
-90.8150577084
 20
68.7821139241
 10
-86.2508126591
 20
66.3302914758
 10
-81.4881879767
 20
64.0076177365
 10
-76.5381378506
 20
61.8194349304
 10
-71.4120475548
 20
59.770775948
 10
-66.1217072611
 20
57.8663527705
 10
-60.6792849219
 20
56.1105456325
 10
-55.0972982828
 20
54.5073929464
 10
-49.3885860921
 20
53.0605820149
 10
-43.5662785707
 20
51.7734405495
 10
-37.6437672125
 20
50.6489290167
 10
-31.6346739833
 20
49.6896338293
 10
-25.5528199903
 20
48.8977613967
 10
-19.4121936924
 20
48.2751330511
 10
-13.226918727
 20
47.8231808575
 10
-7.0112214246
 20
47.5429443205
 10
-0.7793980883
 20
47.4350679931
 10
5.4542178886
 20
47.4997999942
 10
11.6752889895
 20
47.7369914383
 10
17.8695065517
 20
48.1460967774
 10
24.0226236762
 20
48.7261750561
 10
30.1204879963
 20
49.4758920758
 10
36.1490742289
 20
50.3935234633
 10
42.0945164323
 20
51.476958637
 10
47.943139899
 20
52.7237056613
 10
53.6814926076
 20
54.1308969781
 10
59.2963761629
 20
55.6952960023
 10
64.7748761529
 20
57.4133045659
 10
70.1043918519
 20
59.2809711943
 10
75.2726652032
 20
61.2940001943
 10
80.2678090124
 20
63.4477615347
 10
85.0783342887
 20
65.7373014954
 10
89.6931766696
 20
68.1573540612
 10
94.10172187
 20
70.7023530336
 10
98.2938300946
 20
73.3664448333
 10
102.2598593601
 20
76.143501964
 10
105.9906876721
 20
79.0271371051
 10
109.4777340059
 20
82.0107178035
 10
112.7129780433
 20
85.0873817279
 10
115.6889786192
 20
88.2500524528
 10
118.398890837
 20
91.4914557341
 10
120.8364818117
 20
94.8041362404
 10
122.996145006
 20
98.1804747003
 10
124.8729131253
 20
101.6127054273
 10
126.4624695428
 20
105.0929341806
 10
127.7611582278
 20
108.6131563226
 10
128.7659921548
 20
112.1652752295
 10
129.4746601734
 20
115.7411209141
 10
129.8855323245
 20
119.3324688168
 10
129.9976635891
 20
122.9310587221
 10
129.8107960616
 20
126.528613758
 10
129.3253595432
 20
130.1168594327
 10
128.5424705537
 20
133.6875426661
 10
127.4639297627
 20
137.2324507724
 10
126.0922178486
 20
140.7434303493
 10
124.4304897927
 20
144.2124060312
 10
122.4825676229
 20
147.631399063
 10
120.2529316226
 20
150.9925456511
 10
117.7467100259
 20
154.2881150506
 10
114.969667223
 20
157.5105273464
 10
111.9281905012
 20
160.6523708868
 10
108.6292753545
 20
163.7064193311
 10
105.0805093933
 20
166.6656482699
 10
101.2900548933
 20
169.5232513819
 10
97.266630021
 20
172.2726560883
 10
93.0194887828
 20
174.9075386703
 10
88.5583997395
 20
177.4218388133
 10
83.893623539
 20
179.8097735466
 10
79.0358893158
 20
182.0658505438
 10
73.9963700146
 20
184.1848807553
 10
68.786656691
 20
186.1619903439
 10
63.4187318527
 20
187.9926318941
 10
57.904941899
 20
189.6725948717
 10
52.2579687232
 20
191.1980153081
 10
46.4908005448
 20
192.5653846872
 10
40.6167020352
 20
193.7715580158
 10
34.6491838095
 20
194.8137610566
 10
28.6019713506
 20
195.689596709
 10
22.488973441
 20
196.3970505232
 10
16.3242501719
 20
196.9344953325
 10
10.1219806042
 20
197.3006949969
 10
3.8964301568
 20
197.4948072452
 10
-2.3380822048
 20
197.516385613
 10
-8.5672169024
 20
197.3653804696
 10
-14.7766467266
 20
197.0421391314
 10
-20.9520897899
 20
196.5474050641
 10
-27.0793423751
 20
195.8823161717
 10
-33.1443116052
 20
195.04840218
 10
-39.1330478564
 20
194.0475811179
 10
-45.0317768436
 20
192.882154906
 10
-50.8269313009
 20
191.5548040619
 10
-56.5051821875
 20
190.0685815351
 10
-62.0534693443
 20
188.4269056849
 10
-67.459031533
 20
186.6335524185
 10
-72.7094357875
 20
184.6926465059
 10
-77.7926060097
 20
182.6086520928
 10
-82.6968507452
 20
180.3863624332
 10
-87.4108900739
 20
178.0308888645
 10
-91.9238815543
 20
175.5476490513
  0
ARC
  5
FB
330
F3
100
AcDbEntity
  8
0
  6
Continuous
 62
     7
370
    25
100
AcDbCircle
 10
0.0024071055
 20
55.2285051468
 30
0.0
 40
84.10572945008909
100
AcDbArc
 50
257.4374533378
 51
282.3686038977
  0
VIEWPORT
  5
122
330
F3
100
AcDbEntity
  8
0
100
AcDbViewport
 10
0.0
 20
0.0
 30
0.0
 40
205.6
 41
156.0
 68
     1
 69
     1
 12
0.0
 22
0.0
 13
0.0
 23
0.0
 14
10.0
 24
10.0
 15
10.0
 25
10.0
 16
0.0
 26
0.0
 36
1.0
 17
0.0
 27
0.0
 37
0.0
 42
50.0
 43
0.0
 44
0.0
 45
295.8
 50
0.0
 51
0.0
 72
   100
 90
   557152
  1

281
     0
 71
     1
 74
     0
110
0.0
120
0.0
130
0.0
111
1.0
121
0.0
131
0.0
112
0.0
122
1.0
132
0.0
 79
     0
146
0.0
170
     0
 61
     5
348
2F
292
     1
282
     1
141
0.0
142
0.0
 63
   256
361
123
  0
ENDBLK
  5
F6
330
F3
100
AcDbEntity
  8
0
100
AcDbBlockEnd
  0
BLOCK
  5
FE
330
FC
100
AcDbEntity
  8
0
100
AcDbBlockBegin
  2
*Paper_Space6
 70
     0
 10
0.0
 20
0.0
 30
0.0
  3
*Paper_Space6
  1

  0
SPLINE
  5
100
330
FC
100
AcDbEntity
  8
0
  6
Continuous
 62
     7
370
    25
100
AcDbSpline
210
0.0
220
0.0
230
1.0
 70
     8
 71
     3
 72
    83
 73
    79
 74
     0
 42
0.000000001
 43
0.00000001
 40
0.0
 40
0.0
 40
0.0
 40
0.0
 40
0.0044587665289139
 40
0.0183187502532699
 40
0.032142060847531
 40
0.0459284005410061
 40
0.0596774560585499
 40
0.0733888587664046
 40
0.0870621804147207
 40
0.1006969290221533
 40
0.1142925448883609
 40
0.1278483967325401
 40
0.1413637780000982
 40
0.1548379034343271
 40
0.1682699060804822
 40
0.1816588349824013
 40
0.1950036539546498
 40
0.2083032419754164
 40
0.2215563959577657
 40
0.2347618369296922
 40
0.2479182209946864
 40
0.2610241568538286
 40
0.2740782321290396
 40
0.2870790511813389
 40
0.3000252874513055
 40
0.3129157533425234
 40
0.3257494899519943
 40
0.3385258769586739
 40
0.3512447589708863
 40
0.3639065779034755
 40
0.3765124915486181
 40
0.3890644489250749
 40
0.4015651915709535
 40
0.4140181756623624
 40
0.4264274943556392
 40
0.4387980522019475
 40
0.4511364722744907
 40
0.4634533082989004
 40
0.4757667179973337
 40
0.4881066163866088
 40
0.500517010053921
 40
0.5130539409387327
 40
0.525767595962137
 40
0.5387034880372402
 40
0.5518996433114686
 40
0.5653693436486564
 40
0.5790992156811703
 40
0.5915188991513796
 40
0.6040154980154255
 40
0.6165782060290964
 40
0.6291993470858899
 40
0.6418728917262444
 40
0.6545939517963567
 40
0.6673583634272809
 40
0.6801624148052896
 40
0.693002695515318
 40
0.705876025890949
 40
0.7187794306957063
 40
0.7317101330622571
 40
0.7446655547788704
 40
0.759096581579211
 40
0.7735449140412239
 40
0.7879668999425522
 40
0.8023593358433154
 40
0.8167205772694545
 40
0.8310493995237132
 40
0.8453448861765311
 40
0.8596063590112438
 40
0.8738333217861368
 40
0.8880254147709296
 40
0.9021823780109652
 40
0.9163040216407047
 40
0.9303902018665322
 40
0.9444408014890475
 40
0.9584557140434654
 40
0.9724348308096706
 40
0.9863780300854778
 40
1.0
 40
1.0
 40
1.0
 40
1.0
 10
-144.970586495717
 20
128.5770190129324
 30
0.0
 10
-144.9788492381749
 20
127.8859510191745
 30
0.0
 10
-145.0127965450165
 20
125.0467124307474
 30
0.0
 10
-144.7985847036846
 20
120.0662389140076
 30
0.0
 10
-144.3265058915904
 20
113.655502118252
 30
0.0
 10
-143.5717016848195
 20
107.2875581386765
 30
0.0
 10
-142.5617646434333
 20
100.9733829982274
 30
0.0
 10
-141.2940517695404
 20
94.72360994509425
 30
0.0
 10
-139.7745265852138
 20
88.54868928823633
 30
0.0
 10
-138.007382223698
 20
82.4588301339668
 30
0.0
 10
-135.9977986889063
 20
76.46399904230132
 30
0.0
 10
-133.7511948161937
 20
70.57390371008293
 30
0.0
 10
-131.2734150371445
 20
64.79798089481368
 30
0.0
 10
-128.5706661205963
 20
59.14538346886783
 30
0.0
 10
-125.649519905211
 20
53.62496796874236
 30
0.0
 10
-122.5168975546407
 20
48.24528226014939
 30
0.0
 10
-119.1800576391265
 20
43.01455338857501
 30
0.0
 10
-115.6465817646414
 20
37.94067555042577
 30
0.0
 10
-111.924358958846
 20
33.03119814603479
 30
0.0
 10
-108.0215678456421
 20
28.29331387011067
 30
0.0
 10
-103.9466559893093
 20
23.73384681897246
 30
0.0
 10
-99.70831541147814
 20
19.35924064650203
 30
0.0
 10
-95.31545305668473
 20
15.17554690606557
 30
0.0
 10
-90.77715470374292
 20
11.18841390118627
 30
0.0
 10
-86.1026406187255
 20
7.403076670879805
 30
0.0
 10
-81.3012112306123
 20
3.824349198479453
 30
0.0
 10
-76.382181501504
 20
0.4566205905677384
 30
0.0
 10
-71.35480378507972
 20
-2.69614217671986
 30
0.0
 10
-66.22818124426189
 20
-5.630381403281218
 30
0.0
 10
-61.01117772180503
 20
-8.34292143105793
 30
0.0
 10
-55.71233526887063
 20
-10.83092290826408
 30
0.0
 10
-50.33981587661221
 20
-13.09181663147312
 30
0.0
 10
-44.90138473841895
 20
-15.12322086531964
 30
0.0
 10
-39.40443888504027
 20
-16.92285645387473
 30
0.0
 10
-33.85604310457279
 20
-18.48848660170534
 30
0.0
 10
-28.26285674146959
 20
-19.81791224938448
 30
0.0
 10
-22.63074700587801
 20
-20.90902844544285
 30
0.0
 10
-16.96388013795106
 20
-21.75987395482607
 30
0.0
 10
-11.26329330248879
 20
-22.3685080513475
 30
0.0
 10
-5.525402753649479
 20
-22.7325170410206
 30
0.0
 10
0.258637666794112
 20
-22.84809704857359
 30
0.0
 10
6.100156229966319
 20
-22.70901004100755
 30
0.0
 10
12.00998538342378
 20
-22.30625655861671
 30
0.0
 10
17.99540709095348
 20
-21.62846749388382
 30
0.0
 10
24.05723823496441
 20
-20.66287102758718
 30
0.0
 10
30.18649678055958
 20
-19.39718091487718
 30
0.0
 10
36.13222492569442
 20
-17.88086453546268
 30
0.0
 10
41.85966311183836
 20
-16.15007772647822
 30
0.0
 10
47.33931398974934
 20
-14.24417074550788
 30
0.0
 10
52.76462308484606
 20
-12.10356604168772
 30
0.0
 10
58.12285169847632
 20
-9.731902410772292
 30
0.0
 10
63.40228066156564
 20
-7.133183342699759
 30
0.0
 10
68.59186876610953
 20
-4.311770610458648
 30
0.0
 10
73.68107531240146
 20
-1.272377084641604
 30
0.0
 10
78.65975561554299
 20
1.979927135644578
 30
0.0
 10
83.51811004874735
 20
5.439709503269774
 30
0.0
 10
88.24667176569962
 20
9.101179002281205
 30
0.0
 10
92.83630854562298
 20
12.95819191936225
 30
0.0
 10
97.27825091875829
 20
17.00428398674743
 30
0.0
 10
101.7243131016563
 20
21.39074000174915
 30
0.0
 10
106.1431602184474
 20
26.13295603380827
 30
0.0
 10
110.495995588897
 20
31.23909627655476
 30
0.0
 10
114.6163982462628
 20
36.52770445750956
 30
0.0
 10
118.4933754127634
 20
41.98130588824498
 30
0.0
 10
122.1208777740198
 20
47.58725169881807
 30
0.0
 10
125.4936870010917
 20
53.33304096143025
 30
0.0
 10
128.6072708789956
 20
59.20620445539358
 30
0.0
 10
131.457739871787
 20
65.1943073340249
 30
0.0
 10
134.0418164271283
 20
71.28495658877148
 30
0.0
 10
136.3568042678337
 20
77.46580851398073
 30
0.0
 10
138.400582589288
 20
83.7245768710128
 30
0.0
 10
140.171528941093
 20
90.0490418050666
 30
0.0
 10
141.6687235336519
 20
96.4270593179437
 30
0.0
 10
142.8911199123091
 20
102.8465722969995
 30
0.0
 10
143.8405682388274
 20
109.2956192272069
 30
0.0
 10
144.5105223842359
 20
115.762354717433
 30
0.0
 10
144.9251304267782
 20
122.1909021041983
 30
0.0
 10
144.9734210188997
 20
126.4636265906023
 30
0.0
 10
144.9972849389247
 20
128.5750928400914
 30
0.0
  0
LWPOLYLINE
  5
101
330
FC
100
AcDbEntity
  8
0
  6
Continuous
 62
     7
370
    25
100
AcDbPolyline
 90
      139
 70
   128
 43
0.0
 10
-128.2406276432
 20
163.4281498345
 10
-131.1877392652
 20
160.3858457677
 10
-133.8629442643
 20
157.2776090624
 10
-136.2606978696
 20
154.1098820139
 10
-138.3760303707
 20
150.8892302202
 10
-140.204557418
 20
147.622328974
 10
-141.7424891098
 20
144.3159494269
 10
-142.986637848
 20
140.9769445556
 10
-143.9344249442
 20
137.6122349574
 10
-144.583885965
 20
134.2287945068
 10
-144.9336748033
 20
130.8336359008
 10
-144.9830664682
 20
127.4337961242
 10
-144.7319585879
 20
124.036321864
 10
-144.180871622
 20
120.6482549044
 10
-143.3309477823
 20
117.2766175316
 10
-142.1839486657
 20
113.928397979
 10
-140.7422516031
 20
110.6105359428
 10
-139.0088447318
 20
107.3299081987
 10
-136.9873208022
 20
104.0933143488
 10
-134.6818697314
 20
100.9074627281
 10
-132.0972699187
 20
97.7789565005
 10
-129.2388783421
 20
94.7142799729
 10
-126.1126194545
 20
91.7197851554
 10
-122.7249729048
 20
88.8016785959
 10
-119.0829601078
 20
85.9660085157
 10
-115.1941296913
 20
83.2186522742
 10
-111.0665418502
 20
80.5653041866
 10
-106.7087516404
 20
78.0114637222
 10
-102.1297912477
 20
75.5624241052
 10
-97.3391512668
 20
73.2232613442
 10
-92.3467610306
 20
70.9988237113
 10
-87.1629680302
 20
68.8937216931
 10
-81.7985164682
 20
66.9123184351
 10
-76.2645249896
 20
65.058720698
 10
-70.5724636369
 20
63.3367703462
 10
-64.7341300764
 20
61.7500363849
 10
-58.761625146
 20
60.3018075623
 10
-52.6673277743
 20
58.9950855539
 10
-46.463869323
 20
57.8325787407
 10
-40.1641074073
 20
56.8166965955
 10
-33.7810992456
 20
55.9495446892
 10
-27.3280745972
 20
55.2329203265
 10
-20.8184083409
 20
54.6683088208
 10
-14.2655927543
 20
54.2568804158
 10
-7.6832095483
 20
53.9994878596
 10
-1.0849017171
 20
53.8966646377
 10
5.5156547385
 20
53.9486238667
 10
12.1047791573
 20
54.1552578533
 10
18.6688145729
 20
54.5161383171
 10
25.1941560195
 20
55.030517278
 10
31.6672787303
 20
55.6973286073
 10
38.0747661703
 20
56.5151902365
 10
44.403337843
 20
57.4824070226
 10
50.6398768174
 20
58.5969742611
 10
56.7714569141
 20
59.8565818411
 10
62.7853694969
 20
61.2586190336
 10
68.6691498137
 20
62.8001799025
 10
74.4106028313
 20
64.4780693273
 10
79.9978285115
 20
66.2888096262
 10
85.419246476
 20
68.2286477632
 10
90.663620008
 20
70.2935631276
 10
95.7200793427
 20
72.4792758671
 10
100.5781441958
 20
74.781255758
 10
105.2277454862
 20
77.1947315958
 10
109.659246205
 20
79.714701083
 10
113.8634613904
 20
82.3359411981
 10
117.8316771644
 20
85.0530190207
 10
121.5556687938
 20
87.8603029921
 10
125.0277177373
 20
90.7519745876
 10
128.2406276432
 20
93.7220403762
 10
131.1877392652
 20
96.764344443
 10
133.8629442643
 20
99.8725811482
 10
136.2606978696
 20
103.0403081967
 10
138.3760303707
 20
106.2609599904
 10
140.204557418
 20
109.5278612366
 10
141.7424891098
 20
112.8342407837
 10
142.986637848
 20
116.1732456551
 10
143.9344249442
 20
119.5379552533
 10
144.583885965
 20
122.9213957039
 10
144.9336748033
 20
126.3165543098
 10
144.9830664682
 20
129.7163940864
 10
144.7319585879
 20
133.1138683467
 10
144.180871622
 20
136.5019353062
 10
143.3309477823
 20
139.873572679
 10
142.1839486657
 20
143.2217922317
 10
140.7422516031
 20
146.5396542679
 10
139.0088447318
 20
149.8202820119
 10
136.9873208022
 20
153.0568758618
 10
134.6818697314
 20
156.2427274826
 10
132.0972699187
 20
159.3712337102
 10
129.2388783421
 20
162.4359102378
 10
126.1126194545
 20
165.4304050552
 10
122.7249729048
 20
168.3485116148
 10
119.0829601078
 20
171.1841816949
 10
115.1941296913
 20
173.9315379365
 10
111.0665418502
 20
176.584886024
 10
106.7087516404
 20
179.1387264884
 10
102.1297912477
 20
181.5877661054
 10
97.3391512668
 20
183.9269288664
 10
92.3467610306
 20
186.1513664993
 10
87.1629680302
 20
188.2564685175
 10
81.7985164682
 20
190.2378717756
 10
76.2645249896
 20
192.0914695126
 10
70.5724636369
 20
193.8134198644
 10
64.7341300764
 20
195.4001538258
 10
58.761625146
 20
196.8483826483
 10
52.6673277743
 20
198.1551046567
 10
46.463869323
 20
199.3176114699
 10
40.1641074073
 20
200.3334936151
 10
33.7810992456
 20
201.2006455215
 10
27.3280745972
 20
201.9172698842
 10
20.8184083409
 20
202.4818813898
 10
14.2655927543
 20
202.8933097948
 10
7.6832095483
 20
203.150702351
 10
1.0849017171
 20
203.253525573
 10
-5.5156547385
 20
203.2015663439
 10
-12.1047791573
 20
202.9949323573
 10
-18.6688145729
 20
202.6340518936
 10
-25.1941560195
 20
202.1196729326
 10
-31.6672787303
 20
201.4528616034
 10
-38.0747661703
 20
200.6349999741
 10
-44.403337843
 20
199.667783188
 10
-50.6398768174
 20
198.5532159496
 10
-56.7714569141
 20
197.2936083696
 10
-62.7853694969
 20
195.891571177
 10
-68.6691498137
 20
194.3500103082
 10
-74.4106028313
 20
192.6721208833
 10
-79.9978285115
 20
190.8613805845
 10
-85.419246476
 20
188.9215424474
 10
-90.663620008
 20
186.856627083
 10
-95.7200793427
 20
184.6709143436
 10
-100.5781441958
 20
182.3689344526
 10
-105.2277454862
 20
179.9554586149
 10
-109.659246205
 20
177.4354891277
 10
-113.8634613904
 20
174.8142490126
 10
-117.8316771644
 20
172.0971711899
 10
-121.5556687938
 20
169.2898872185
 10
-125.0277177373
 20
166.3982156231
 10
-128.2406276432
 20
163.4281498345
  0
LWPOLYLINE
  5
102
330
FC
100
AcDbEntity
  8
0
  6
Continuous
 62
     7
370
    25
100
AcDbPolyline
 90
      132
 70
   128
 43
0.0
 10
-114.9743558181
 20
159.8226614142
 10
-117.7509672696
 20
156.9476152462
 10
-120.256747723
 20
154.0073113727
 10
-122.485933803
 20
151.0085125867
 10
-124.4333983102
 20
147.9581162217
 10
-126.0946620137
 20
144.8631382869
 10
-127.4659039538
 20
141.7306973309
 10
-128.5439702301
 20
138.5679980682
 10
-129.3263812556
 20
135.3823148084
 10
-129.8113374599
 20
132.1809747252
 10
-129.9977234283
 20
128.9713410033
 10
-129.8851104668
 20
125.7607959032
 10
-129.4737575891
 20
122.5567237814
 10
-128.7646109199
 20
119.3664941064
 10
-127.7593015193
 20
116.1974445089
 10
-126.460141631
 20
113.0568639044
 10
-124.8701193646
 20
109.951975729
 10
-122.9928918221
 20
106.8899213249
 10
-120.832776687
 20
103.8777435154
 10
-118.3947422934
 20
100.922370406
 10
-115.6843961985
 20
98.0305994496
 10
-112.7079722852
 20
95.209081812
 10
-109.4723164239
 20
92.4643070742
 10
-105.9848707267
 20
89.802588306
 10
-102.2536564305
 20
87.230047546
 10
-98.2872554478
 20
84.7526017202
 10
-94.0947906278
 20
82.3759490336
 10
-89.6859047742
 20
80.1055558634
 10
-85.0707384655
 20
77.9466441867
 10
-80.2599067322
 20
75.9041795695
 10
-75.2644746414
 20
73.9828597459
 10
-70.0959318471
 20
72.1871038131
 10
-64.7661661633
 20
70.5210420672
 10
-59.2874362219
 20
68.9885065037
 10
-53.6723432773
 20
67.5930220034
 10
-47.9338022231
 20
66.3377982255
 10
-42.0850118878
 20
65.2257222248
 10
-36.1394246766
 20
64.2593518118
 10
-30.1107156304
 20
63.4409096694
 10
-24.0127509734
 20
62.7722782407
 10
-17.8595562197
 20
62.2549953995
 10
-11.6652839143
 20
61.8902509129
 10
-5.4441810821
 20
61.6788837049
 10
0.789443541
 20
61.6213799269
 10
7.0212524187
 20
61.7178718393
 10
13.2369121908
 20
61.9681375076
 10
19.4221266407
 20
62.3716013129
 10
25.5626695769
 20
62.9273352755
 10
31.644417554
 20
63.6340611893
 10
37.6533823566
 20
64.4901535623
 10
43.5757431732
 20
65.4936433544
 10
49.3978783841
 20
66.642222507
 10
55.1063968917
 20
67.9332492513
 10
60.6881689205
 20
69.3637541843
 10
66.1303562161
 20
70.9304470989
 10
71.4204415732
 20
72.6297245511
 10
76.5462576259
 20
74.4576781485
 10
81.4960148332
 20
76.410103539
 10
86.2583285948
 20
78.4825100818
 10
90.8222454364
 20
80.6701311754
 10
95.1772682031
 20
82.9679352211
 10
99.3133802029
 20
85.3706371961
 10
103.2210682457
 20
87.8727108088
 10
106.8913445238
 20
90.4684012097
 10
110.3157672841
 20
93.1517382277
 10
113.4864602445
 20
95.9165501017
 10
116.3961307096
 20
98.7564776757
 10
119.0380863442
 20
101.6649890254
 10
121.4062505655
 20
104.6353944814
 10
123.49517652
 20
107.660862016
 10
125.300059611
 20
110.7344329569
 10
126.8167485497
 20
113.8490379925
 10
128.0417549028
 20
116.9975134313
 10
128.9722611164
 20
120.172617679
 10
129.6061269965
 20
123.3670478941
 10
129.9418946313
 20
126.5734567846
 10
129.9787917443
 20
129.7844695074
 10
129.7167334711
 20
132.9927006303
 10
129.1563225541
 20
136.1907711189
 10
128.2988479563
 20
139.3713253087
 10
127.1462818969
 20
142.527047823
 10
125.7012753146
 20
145.650680399
 10
123.967151771
 20
148.7350385816
 10
121.9478998057
 20
151.7730282482
 10
119.6481637629
 20
154.7576619252
 10
117.0732331094
 20
157.6820748594
 10
114.229030268
 20
160.5395408075
 10
111.1220969965
 20
163.3234875061
 10
107.7595793409
 20
166.0275117887
 10
104.1492111997
 20
168.6453943127
 10
100.2992965352
 20
171.1711138645
 10
96.2186902745
 20
173.5988612082
 10
91.9167779428
 20
175.9230524469
 10
87.4034540763
 20
178.1383418666
 10
82.6890994646
 20
180.2396342304
 10
77.7845572743
 20
182.2220964985
 10
72.7011081096
 20
184.0811689444
 10
67.4504440666
 20
185.8125756417
 10
62.0446418407
 20
187.4123342996
 10
56.4961349503
 20
188.8767654218
 10
50.8176851391
 20
190.2025007699
 10
45.0223530236
 20
191.3864911102
 10
39.1234680534
 20
192.4260132268
 10
33.1345978529
 20
193.3186761855
 10
27.0695170156
 20
194.0624268331
 10
20.9421754216
 20
194.6555545191
 10
14.7666661531
 20
195.0966950309
 10
8.5571930793
 20
195.3848337312
 10
2.3280381871
 20
195.5193078916
 10
-3.9064712675
 20
195.4998082174
 10
-10.131995713
 20
195.3263795584
 10
-16.3342162436
 20
194.9994208061
 10
-22.4988675535
 20
194.5196839761
 10
-28.611770747
 20
193.8882724785
 10
-34.6588659509
 20
193.1066385799
 10
-40.6262446525
 20
192.1765800634
 10
-46.5001816895
 20
191.1002360933
 10
-52.2671668185
 20
189.8800822953
 10
-57.9139357888
 20
188.5189250622
 10
-63.427500851
 20
187.0198950993
 10
-68.7951806287
 20
185.3864402236
 10
-74.0046292863
 20
183.6223174335
 10
-79.0438649251
 20
181.731584268
 10
-83.9012971416
 20
179.7185894741
 10
-88.5657536859
 20
177.5879630042
 10
-93.0265061587
 20
175.3446053674
 10
-97.2732946862
 20
172.9936763584
 10
-101.2963515188
 20
170.540583189
 10
-105.0864234968
 20
167.9909680522
 10
-108.6347933332
 20
165.3506951446
 10
-111.9332996637
 20
162.6258371784
 10
-114.9743558181
 20
159.8226614142
  0
LWPOLYLINE
  5
103
330
FC
100
AcDbEntity
  8
0
  6
Continuous
 62
     7
370
    25
100
AcDbPolyline
 90
       22
 70
   128
 43
0.0
 10
-35.9809153469
 20
-17.8813456102
 10
-33.6276698681
 20
-19.0576602678
 10
-30.6591416219
 20
-20.3424850941
 10
-27.5062256906
 20
-21.5049678215
 10
-24.1878840814
 20
-22.538117142
 10
-20.7240736913
 20
-23.4357195741
 10
-17.1356262836
 20
-24.1923768311
 10
-13.4441232031
 20
-24.8035382872
 10
-9.6717655838
 20
-25.2655283456
 10
-5.8412408282
 20
-25.5755685437
 10
-1.975586163
 20
-25.7317942632
 10
1.9019499098
 20
-25.7332659444
 10
5.7680474321
 20
-25.5799747362
 10
9.5994552384
 20
-25.2728425501
 10
13.3731307915
 20
-24.8137165152
 10
17.0663787624
 20
-24.2053578695
 10
20.6569875233
 20
-23.4514253535
 10
24.1233627306
 20
-22.5564532059
 10
27.4446571961
 20
-21.5258238948
 10
30.6008962639
 20
-20.3657357458
 10
33.5730979409
 20
-19.0831656658
 10
35.7333184867
 20
-18.012568124
  0
ARC
  5
105
330
FC
100
AcDbEntity
  8
0
  6
Continuous
 62
    60
370
    25
100
AcDbCircle
 10
-0.0131145053
 20
65.7040032735
 30
0.0
 40
90.00288102795095
100
AcDbArc
 50
252.2443074771
 51
288.0689991876
  0
VIEWPORT
  5
124
330
FC
100
AcDbEntity
  8
0
100
AcDbViewport
 10
0.0
 20
0.0
 30
0.0
 40
205.6
 41
156.0
 68
     1
 69
     1
 12
0.0
 22
0.0
 13
0.0
 23
0.0
 14
10.0
 24
10.0
 15
10.0
 25
10.0
 16
0.0
 26
0.0
 36
1.0
 17
0.0
 27
0.0
 37
0.0
 42
50.0
 43
0.0
 44
0.0
 45
295.8
 50
0.0
 51
0.0
 72
   100
 90
   557152
  1

281
     0
 71
     1
 74
     0
110
0.0
120
0.0
130
0.0
111
1.0
121
0.0
131
0.0
112
0.0
122
1.0
132
0.0
 79
     0
146
0.0
170
     0
 61
     5
348
2F
292
     1
282
     1
141
0.0
142
0.0
 63
   256
361
125
  0
ENDBLK
  5
FF
330
FC
100
AcDbEntity
  8
0
100
AcDbBlockEnd
  0
BLOCK
  5
108
330
106
100
AcDbEntity
  8
0
100
AcDbBlockBegin
  2
*Paper_Space7
 70
     0
 10
0.0
 20
0.0
 30
0.0
  3
*Paper_Space7
  1

  0
SPLINE
  5
10A
330
106
100
AcDbEntity
  8
0
  6
Continuous
 62
     7
370
    25
100
AcDbSpline
210
0.0
220
0.0
230
1.0
 70
     8
 71
     3
 72
    40
 73
    36
 74
     0
 42
0.000000001
 43
0.00000001
 40
0.0
 40
0.0
 40
0.0
 40
0.0
 40
0.0203645865581409
 40
0.0491838266525027
 40
0.0782265031749493
 40
0.1074838863527046
 40
0.1369404465795017
 40
0.1665761425130941
 40
0.1963693899517865
 40
0.2262991897544973
 40
0.2563463125798664
 40
0.2864937936985267
 40
0.3167270064485427
 40
0.3470335125596826
 40
0.377402814952091
 40
0.4078260847652069
 40
0.4382958996132247
 40
0.4688060094914019
 40
0.4993511354367742
 40
0.5299268003065786
 40
0.5639082525987744
 40
0.5978536126662862
 40
0.6316705104182762
 40
0.6653607596531961
 40
0.6989282941395185
 40
0.732376764443068
 40
0.765709477553911
 40
0.7989293994743522
 40
0.8320391635279776
 40
0.8650410809465245
 40
0.897937152186729
 40
0.9307290779672582
 40
0.9634182693596902
 40
0.9960058564933875
 40
1.0
 40
1.0
 40
1.0
 40
1.0
 10
33.63431520706471
 20
-7.647721498372409
 30
0.0
 10
34.9348717409078
 20
-7.287228443467867
 30
0.0
 10
38.07592972063624
 20
-6.416578412285768
 30
0.0
 10
42.99753862977212
 20
-4.770189767351149
 30
0.0
 10
48.41301069872785
 20
-2.74658589927429
 30
0.0
 10
53.78309910294352
 20
-0.4820688158819336
 30
0.0
 10
59.09819996828744
 20
2.010141100088389
 30
0.0
 10
64.34437528388453
 20
4.729373871297487
 30
0.0
 10
69.50851548644633
 20
7.670539006945684
 30
0.0
 10
74.57758271576876
 20
10.82885993105118
 30
0.0
 10
79.53921916427775
 20
14.19876072610721
 30
0.0
 10
84.38177827833738
 20
17.7743108950919
 30
0.0
 10
89.09437445135639
 20
21.54921364908631
 30
0.0
 10
93.6668508589399
 20
25.51688463243199
 30
0.0
 10
98.08973351456098
 20
29.67048128911458
 30
0.0
 10
102.3541771681804
 20
34.00292767685756
 30
0.0
 10
106.4519156760028
 20
38.50693083371019
 30
0.0
 10
110.3752148166332
 20
43.17498678917597
 30
0.0
 10
114.1168472739791
 20
47.99940759072356
 30
0.0
 10
117.8009186361606
 20
53.1554577546607
 30
0.0
 10
121.3927462598912
 20
58.64999786638364
 30
0.0
 10
124.8523611197321
 20
64.48169568456616
 30
0.0
 10
128.0466847524279
 20
70.44113953161018
 30
0.0
 10
130.9698181021961
 20
76.51049464190962
 30
0.0
 10
133.6196332841544
 20
82.67754728564994
 30
0.0
 10
135.9945128091368
 20
88.93028584405575
 30
0.0
 10
138.0932532144776
 20
95.25676335214102
 30
0.0
 10
139.9151408344727
 20
101.6450971588772
 30
0.0
 10
141.4596610466538
 20
108.0834726906694
 30
0.0
 10
142.727582246886
 20
114.5601626075598
 30
0.0
 10
143.7169335459895
 20
121.0634966797243
 30
0.0
 10
144.4379468337609
 20
127.58202242983
 30
0.0
 10
144.8575567256173
 20
134.1039627547456
 30
0.0
 10
145.0332777312424
 20
138.7204314219861
 30
0.0
 10
144.9901904750382
 20
141.1578716516334
 30
0.0
 10
144.9854860315476
 20
141.4240013807521
 30
0.0
  0
SPLINE
  5
10B
330
106
100
AcDbEntity
  8
0
  6
Continuous
 62
     7
370
    25
100
AcDbSpline
210
0.0
220
0.0
230
1.0
 70
     8
 71
     3
 72
    41
 73
    37
 74
     0
 42
0.000000001
 43
0.00000001
 40
0.0
 40
0.0
 40
0.0
 40
0.0
 40
0.0180949261021161
 40
0.050520791371865
 40
0.0828464951912441
 40
0.1150721807362547
 40
0.1471977215913991
 40
0.1792227185453815
 40
0.2111464936941696
 40
0.2429680815541274
 40
0.2746862168949453
 40
0.3062993189247704
 40
0.3378054713671864
 40
0.3692023978584328
 40
0.4004874319630432
 40
0.4316574809552415
 40
0.4627089823452215
 40
0.4936378519516367
 40
0.5244394221541449
 40
0.5551083688432283
 40
0.5856386255961914
 40
0.6160232838913073
 40
0.6462544789791376
 40
0.6763232627998131
 40
0.7062194688032926
 40
0.735931579898574
 40
0.7654466219032121
 40
0.794750123535639
 40
0.8238262137761866
 40
0.852657971891461
 40
0.881228204980107
 40
0.9095208908778815
 40
0.9375235439688724
 40
0.9652305994519544
 40
0.9926471996996973
 40
0.9999999999999999
 40
0.9999999999999999
 40
0.9999999999999999
 40
0.9999999999999999
 10
-144.9667090777533
 20
141.4217864143014
 30
0.0
 10
-144.9716159163229
 20
140.2161214185828
 30
0.0
 10
-144.9853157439028
 20
136.8499208953359
 30
0.0
 10
-144.7116906974387
 20
131.3341017848932
 30
0.0
 10
-144.172651115838
 20
124.8946328251242
 30
0.0
 10
-143.3587897543625
 20
118.503139380709
 30
0.0
 10
-142.2900255422194
 20
112.170138581144
 30
0.0
 10
-140.9662656111293
 20
105.9059651065922
 30
0.0
 10
-139.3932703124554
 20
99.72072835541272
 30
0.0
 10
-137.5757485082841
 20
93.62430611532183
 30
0.0
 10
-135.5191921842636
 20
87.6263288148369
 30
0.0
 10
-133.2293801908345
 20
81.73616667856615
 30
0.0
 10
-130.7125035775146
 20
75.96291656766672
 30
0.0
 10
-127.9751253842329
 20
70.31538942500404
 30
0.0
 10
-125.0241850334362
 20
64.80209813357187
 30
0.0
 10
-121.8669915824049
 20
59.43124588336735
 30
0.0
 10
-118.5112210384262
 20
54.21071505163221
 30
0.0
 10
-114.9649140807118
 20
49.14805660425922
 30
0.0
 10
-111.2364756156945
 20
44.25047999178404
 30
0.0
 10
-107.3346762830121
 20
39.52484347045651
 30
0.0
 10
-103.2686563946281
 20
34.97764470464593
 30
0.0
 10
-99.04793263701026
 20
30.61501140786409
 30
0.0
 10
-94.68240772708717
 20
26.44269157250613
 30
0.0
 10
-90.18238276770929
 20
22.46604273789603
 30
0.0
 10
-85.55857139241033
 20
18.69001884011612
 30
0.0
 10
-80.82211277376555
 20
15.11915472363325
 30
0.0
 10
-75.98457990089045
 20
11.75754026646886
 30
0.0
 10
-71.05796792245977
 20
8.608803106633408
 30
0.0
 10
-66.05466699255577
 20
5.676016053958385
 30
0.0
 10
-60.98731545643594
 20
2.961823352288381
 30
0.0
 10
-55.86877800614315
 20
0.4676895218258398
 30
0.0
 10
-50.71114604507185
 20
-1.803689000211397
 30
0.0
 10
-45.52756679198934
 20
-3.857627416078147
 30
0.0
 10
-40.32270770859633
 20
-5.673742615824234
 30
0.0
 10
-36.37477356487045
 20
-6.931289340335919
 30
0.0
 10
-34.14688947754321
 20
-7.515812589341627
 30
0.0
 10
-33.67575145019347
 20
-7.639423656920552
 30
0.0
  0
LWPOLYLINE
  5
10C
330
106
100
AcDbEntity
  8
0
  6
Continuous
 62
     7
370
    25
100
AcDbPolyline
 90
      139
 70
   128
 43
0.0
 10
-135.635080275
 20
158.5097701122
 10
-137.8278349889
 20
156.4342688367
 10
-139.7349204675
 20
154.3276510073
 10
-141.352383985
 20
152.1942829111
 10
-142.6768731013
 20
150.0385862793
 10
-143.7056426104
 20
147.8650291223
 10
-144.4365602304
 20
145.6781164693
 10
-144.8681110229
 20
143.4823810306
 10
-144.999400533
 20
141.2823738034
 10
-144.8301566432
 20
139.0826546385
 10
-144.3607301372
 20
136.8877827898
 10
-143.5920939731
 20
134.7023074644
 10
-142.5258412668
 20
132.5307583936
 10
-141.1641819899
 20
130.3776364445
 10
-139.5099383891
 20
128.2474042911
 10
-137.566539137
 20
126.1444771649
 10
-135.3380122251
 20
124.0732137035
 10
-132.8289766159
 20
122.0379069167
 10
-130.0446326688
 20
120.0427752885
 10
-126.9907513619
 20
118.0919540341
 10
-123.6736623304
 20
116.1894865282
 10
-120.100240748
 20
114.3393159254
 10
-116.2778930765
 20
112.5452769868
 10
-112.2145417153
 20
110.811088132
 10
-107.9186085804
 20
109.1403437323
 10
-103.3989976494
 20
107.5365066604
 10
-98.665076506
 20
106.0029011138
 10
-93.7266569248
 20
104.5427057241
 10
-88.5939745344
 20
103.1589469692
 10
-83.277667603
 20
101.8544929004
 10
-77.7887549883
 20
100.632047198
 10
-72.1386133001
 20
99.4941435674
 10
-66.3389533199
 20
98.4431404876
 10
-60.4017957284
 20
97.481216323
 10
-54.3394461916
 20
96.6103648084
 10
-48.1644698545
 20
95.8323909164
 10
-41.8896652987
 20
95.1489071168
 10
-35.5280380146
 20
94.5613300341
 10
-29.0927734465
 20
94.0708775116
 10
-22.5972096627
 20
93.6785660869
 10
-16.0548097111
 20
93.3852088855
 10
-9.4791337148
 20
93.1914139349
 10
-2.8838107662
 20
93.0975829048
 10
3.7174893205
 20
93.1039102743
 10
10.3110843428
 20
93.2103829289
 10
16.8833080684
 20
93.4167801879
 10
23.4205385597
 20
93.7226742613
 10
29.9092264085
 20
94.1274311371
 10
36.3359228181
 20
94.6302118947
 10
42.687307479
 20
95.2299744443
 10
48.9502161765
 20
95.9254756864
 10
55.111668076
 20
96.7152740884
 10
61.1588926275
 20
97.5977326726
 10
67.0793560346
 20
98.5710224089
 10
72.8607872329
 20
99.6331260055
 10
78.4912033233
 20
100.7818420906
 10
83.9589344087
 20
102.0147897747
 10
89.2526477815
 20
103.3294135855
 10
94.3613714123
 20
104.7229887643
 10
99.2745166913
 20
106.1926269138
 10
103.9819003745
 20
107.7352819845
 10
108.4737656905
 20
109.3477565881
 10
112.7408025624
 20
111.0267086249
 10
116.7741669048
 20
112.7686582104
 10
120.5654989541
 20
114.5699948879
 10
124.1069405956
 20
116.4269851123
 10
127.3911516509
 20
118.3357799876
 10
130.4113250908
 20
120.292423245
 10
133.1612011449
 20
122.2928594426
 10
135.635080275
 20
124.3329423708
 10
137.8278349889
 20
126.4084436463
 10
139.7349204675
 20
128.5150614758
 10
141.352383985
 20
130.648429572
 10
142.6768731013
 20
132.8041262038
 10
143.7056426104
 20
134.9776833608
 10
144.4365602304
 20
137.1645960138
 10
144.8681110229
 20
139.3603314524
 10
144.999400533
 20
141.5603386796
 10
144.8301566432
 20
143.7600578445
 10
144.3607301372
 20
145.9549296932
 10
143.5920939731
 20
148.1404050187
 10
142.5258412668
 20
150.3119540894
 10
141.1641819899
 20
152.4650760385
 10
139.5099383891
 20
154.5953081919
 10
137.566539137
 20
156.6982353181
 10
135.3380122251
 20
158.7694987795
 10
132.8289766159
 20
160.8048055664
 10
130.0446326688
 20
162.7999371945
 10
126.9907513619
 20
164.750758449
 10
123.6736623304
 20
166.6532259548
 10
120.100240748
 20
168.5033965576
 10
116.2778930765
 20
170.2974354962
 10
112.2145417153
 20
172.031624351
 10
107.9186085804
 20
173.7023687508
 10
103.3989976494
 20
175.3062058226
 10
98.665076506
 20
176.8398113692
 10
93.7266569248
 20
178.3000067589
 10
88.5939745344
 20
179.6837655139
 10
83.277667603
 20
180.9882195827
 10
77.7887549883
 20
182.210665285
 10
72.1386133001
 20
183.3485689157
 10
66.3389533199
 20
184.3995719954
 10
60.4017957284
 20
185.36149616
 10
54.3394461916
 20
186.2323476747
 10
48.1644698545
 20
187.0103215666
 10
41.8896652987
 20
187.6938053662
 10
35.5280380146
 20
188.2813824489
 10
29.0927734465
 20
188.7718349715
 10
22.5972096627
 20
189.1641463961
 10
16.0548097111
 20
189.4575035975
 10
9.4791337148
 20
189.6512985481
 10
2.8838107662
 20
189.7451295782
 10
-3.7174893205
 20
189.7388022087
 10
-10.3110843428
 20
189.6323295541
 10
-16.8833080684
 20
189.4259322951
 10
-23.4205385597
 20
189.1200382217
 10
-29.9092264085
 20
188.715281346
 10
-36.3359228181
 20
188.2125005884
 10
-42.687307479
 20
187.6127380388
 10
-48.9502161765
 20
186.9172367967
 10
-55.111668076
 20
186.1274383946
 10
-61.1588926275
 20
185.2449798104
 10
-67.0793560346
 20
184.2716900742
 10
-72.8607872329
 20
183.2095864775
 10
-78.4912033233
 20
182.0608703924
 10
-83.9589344087
 20
180.8279227083
 10
-89.2526477815
 20
179.5132988975
 10
-94.3613714123
 20
178.1197237187
 10
-99.2745166913
 20
176.6500855692
 10
-103.9819003745
 20
175.1074304985
 10
-108.4737656905
 20
173.4949558949
 10
-112.7408025624
 20
171.8160038581
 10
-116.7741669048
 20
170.0740542727
 10
-120.5654989541
 20
168.2727175951
 10
-124.1069405956
 20
166.4157273708
 10
-127.3911516509
 20
164.5069324954
 10
-130.4113250908
 20
162.550289238
 10
-133.1612011449
 20
160.5498530404
 10
-135.635080275
 20
158.5097701122
  0
LWPOLYLINE
  5
10F
330
106
100
AcDbEntity
  8
0
  6
Continuous
 62
     7
370
    25
100
AcDbPolyline
 90
      132
 70
   128
 43
0.0
 10
-121.6038650741
 20
156.7420031601
 10
-123.6676574522
 20
154.7809574478
 10
-125.4470102552
 20
152.7891842246
 10
-126.9378309146
 20
150.7712646327
 10
-128.1366904951
 20
148.731839952
 10
-129.0408315813
 20
146.6756009244
 10
-129.6481746197
 20
144.6072769657
 10
-129.9573227018
 20
142.5316252873
 10
-129.9675647771
 20
140.4534199544
 10
-129.6788772886
 20
138.377440906
 10
-129.0919242267
 20
136.3084629605
 10
-128.2080556023
 20
134.2512448333
 10
-127.0293043415
 20
132.2105181922
 10
-125.5583816101
 20
130.1909767737
 10
-123.7986705773
 20
128.1972655879
 10
-121.754218635
 20
126.2339702343
 10
-119.4297280883
 20
124.3056063553
 10
-116.8305453397
 20
122.4166092495
 10
-113.9626485929
 20
120.5713236707
 10
-110.8326341025
 20
118.7739938351
 10
-107.4477010019
 20
117.0287536587
 10
-103.8156347457
 20
115.3396172499
 10
-99.9447892029
 20
113.7104696766
 10
-95.8440674421
 20
112.1450580305
 10
-91.5229012548
 20
110.6469828083
 10
-86.9912294618
 20
109.2196896313
 10
-82.2594750533
 20
107.8664613194
 10
-77.3385212161
 20
106.590410341
 10
-72.2396863019
 20
105.3944716544
 10
-66.9746977941
 20
104.2813959569
 10
-61.5556653352
 20
103.2537433582
 10
-55.9950528735
 20
102.3138774922
 10
-50.3056499957
 20
101.4639600806
 10
-44.5005425109
 20
100.7059459605
 10
-38.5930823523
 20
100.0415785889
 10
-32.5968568676
 20
99.4723860319
 10
-26.5256575674
 20
98.9996774507
 10
-20.3934484049
 20
98.6245400901
 10
-14.2143336574
 20
98.347836778
 10
-8.0025254871
 20
98.1702039411
 10
-1.7723112517
 20
98.0920501405
 10
4.4619793563
 20
98.1135551324
 10
10.6860072689
 20
98.2346694546
 10
16.8854570223
 20
98.4551145404
 10
23.0460696835
 20
98.774383359
 10
29.1536756458
 20
99.1917415819
 10
35.19422722
 20
99.7062292717
 10
41.1538309437
 20
100.3166630904
 10
47.0187795374
 20
101.0216390205
 10
52.7755834315
 20
101.8195355949
 10
58.4110017924
 20
102.7085176258
 10
63.9120729775
 20
103.6865404261
 10
69.2661443466
 20
104.751354512
 10
74.460901364
 20
105.900510777
 10
79.4843959222
 20
107.1313661248
 10
84.3250738226
 20
108.4410895487
 10
88.971801351
 20
109.8266686429
 10
93.4138908852
 20
111.2849165311
 10
97.6411254768
 20
112.8124791963
 10
101.6437823509
 20
114.4058431955
 10
105.4126552684
 20
116.0613437404
 10
108.9390757007
 20
117.7751731267
 10
112.2149327679
 20
119.543389492
 10
115.2326918938
 20
121.3619258819
 10
117.9854121357
 20
123.2265996044
 10
120.4667621487
 20
125.1331218502
 10
122.6710347484
 20
127.0771075572
 10
124.5931600372
 20
129.0540854957
 10
126.2287170651
 20
131.0595085533
 10
127.5739439988
 20
133.0887641926
 10
128.6257467732
 20
135.1371850606
 10
129.3817062081
 20
137.2000597238
 10
129.8400835726
 20
139.2726435042
 10
129.9998245841
 20
141.3501693928
 10
129.8605618332
 20
143.4278590133
 10
129.4226156286
 20
145.5009336133
 10
128.6869932606
 20
147.5646250545
 10
127.6553866844
 20
149.6141867806
 10
126.330168628
 20
151.6449047339
 10
124.7143871354
 20
153.6521081981
 10
122.8117585559
 20
155.6311805408
 10
120.6266589961
 20
157.5775698323
 10
118.1641142552
 20
159.4867993147
 10
115.4297882648
 20
161.3544776992
 10
112.4299700624
 20
163.1763092656
 10
109.171559326
 20
164.9481037429
 10
105.6620505048
 20
166.665785947
 10
101.9095155813
 20
168.3254051538
 10
97.9225855063
 20
169.923144186
 10
93.7104303467
 20
171.4553281925
 10
89.2827381942
 20
172.9184331011
 10
84.6496928828
 20
174.3090937236
 10
79.8219505652
 20
175.624111496
 10
74.8106152033
 20
176.8604618352
 10
69.6272130291
 20
178.0153010959
 10
64.2836660337
 20
179.0859731108
 10
58.7922645464
 20
180.0700152999
 10
53.1656389667
 20
180.9651643347
 10
47.4167307136
 20
181.7693613436
 10
41.5587624604
 20
182.4807566478
 10
35.6052077217
 20
183.0977140154
 10
29.5697598643
 20
183.6188144245
 10
23.4663006117
 20
184.0428593276
 10
17.3088681156
 20
184.3688734077
 10
11.1116246683
 20
184.5961068221
 10
4.888824128
 20
184.7240369266
 10
-1.3452208643
 20
184.7523694778
 10
-7.5761718056
 20
184.6810393101
 10
-13.7896973089
 20
184.510210485
 10
-19.9715060665
 20
184.2402759144
 10
-26.1073797202
 20
183.8718564564
 10
-32.1832055639
 20
183.4057994875
 10
-38.1850090035
 20
182.8431769538
 10
-44.0989856987
 20
182.185282905
 10
-49.9115333136
 20
181.4336305186
 10
-55.6092828025
 20
180.5899486192
 10
-61.1791291589
 20
179.6561777021
 10
-66.6082615577
 20
178.6344654704
 10
-71.8841928205
 20
177.527161895
 10
-76.9947881362
 20
176.3368138095
 10
-81.9282929718
 20
175.0661590528
 10
-86.6733601082
 20
173.7181201714
 10
-91.2190757389
 20
172.295797698
 10
-95.5549845722
 20
170.8024630199
 10
-99.6711138789
 20
169.2415508547
 10
-103.5579964296
 20
167.6166513503
 10
-107.20669227
 20
165.9315018278
 10
-110.6088092828
 20
164.189978185
 10
-113.7565224896
 20
162.396085982
 10
-116.6425920493
 20
160.5539512286
 10
-119.2603799095
 20
158.6678108935
 10
-121.6038650741
 20
156.7420031601
  0
LWPOLYLINE
  5
110
330
106
100
AcDbEntity
  8
0
  6
Continuous
 62
     7
370
    25
100
AcDbPolyline
 90
       39
 70
   128
 43
0.0
 10
-49.5298847086
 20
-2.2801198978
 10
-49.1775807779
 20
-3.0104549084
 10
-48.3298385845
 20
-4.2716988855
 10
-47.1914350553
 20
-5.5072523628
 10
-45.7692166828
 20
-6.7096845765
 10
-44.0717368559
 20
-7.8717639576
 10
-42.1092044178
 20
-8.9865016241
 10
-39.8934222695
 20
-10.0471934124
 10
-37.4377163858
 20
-11.0474601973
 10
-34.7568556705
 20
-11.9812862567
 10
-31.8669631357
 20
-12.8430554508
 10
-28.7854189349
 20
-13.6275849982
 10
-25.5307558376
 20
-14.330156646
 10
-22.1225477707
 20
-14.9465450455
 10
-18.5812920984
 20
-15.4730431645
 10
-14.9282863491
 20
-15.9064845812
 10
-11.1855001292
 20
-16.2442625281
 10
-7.3754429953
 20
-16.4843455687
 10
-3.5210290795
 20
-16.6252898155
 10
0.3545607196
 20
-16.6662476131
 10
4.2280181487
 20
-16.6069726365
 10
8.0760477792
 20
-16.4478213725
 10
11.8755071081
 20
-16.1897509754
 10
15.60354574
 20
-15.8343135109
 10
19.2377428117
 20
-15.3836466219
 10
22.7562418346
 20
-14.840460672
 10
26.1378821415
 20
-14.2080224454
 10
29.3623261498
 20
-13.4901355001
 10
32.4101816736
 20
-12.6911172925
 10
35.2631185513
 20
-11.8157732123
 10
37.9039788849
 20
-10.8693676816
 10
40.3168802295
 20
-9.8575924948
 10
42.4873111125
 20
-8.7865325869
 10
44.4022183073
 20
-7.662629438
 10
46.0500853365
 20
-6.4926423342
 10
47.4210017342
 20
-5.2836077154
 10
48.5067226476
 20
-4.042796858
 10
49.3007184235
 20
-2.7776721447
 10
49.5307001688
 20
-2.2781508282
  0
LWPOLYLINE
  5
112
330
106
100
AcDbEntity
  8
0
  6
Continuous
 62
    60
370
    25
100
AcDbPolyline
 90
       35
 70
   128
 43
0.0
 10
-48.1874320935
 20
-2.7872096331
 10
-47.1914350553
 20
-3.8475980804
 10
-45.7692166828
 20
-5.0500302941
 10
-44.0717368559
 20
-6.2121096752
 10
-42.1092044178
 20
-7.3268473416
 10
-39.8934222695
 20
-8.3875391299
 10
-37.4377163858
 20
-9.3878059148
 10
-34.7568556705
 20
-10.3216319742
 10
-31.8669631357
 20
-11.1834011683
 10
-28.7854189349
 20
-11.9679307157
 10
-25.5307558376
 20
-12.6705023635
 10
-22.1225477707
 20
-13.2868907631
 10
-18.5812920984
 20
-13.813388882
 10
-14.9282863491
 20
-14.2468302988
 10
-11.1855001292
 20
-14.5846082456
 10
-7.3754429953
 20
-14.8246912863
 10
-3.5210290795
 20
-14.965635533
 10
0.3545607196
 20
-15.0065933306
 10
4.2280181487
 20
-14.9473183541
 10
8.0760477792
 20
-14.78816709
 10
11.8755071081
 20
-14.5300966929
 10
15.60354574
 20
-14.1746592285
 10
19.2377428117
 20
-13.7239923395
 10
22.7562418346
 20
-13.1808063896
 10
26.1378821415
 20
-12.548368163
 10
29.3623261498
 20
-11.8304812176
 10
32.4101816736
 20
-11.0314630101
 10
35.2631185513
 20
-10.1561189298
 10
37.9039788849
 20
-9.2097133992
 10
40.3168802295
 20
-8.1979382124
 10
42.4873111125
 20
-7.1268783044
 10
44.4022183073
 20
-6.0029751556
 10
46.0500853365
 20
-4.8329880517
 10
47.4210017342
 20
-3.6239534329
 10
48.1608586628
 20
-2.8190818088
  0
ARC
  5
113
330
106
100
AcDbEntity
  8
0
  6
Continuous
 62
     7
370
    25
100
AcDbCircle
 10
-9.9279729348
 20
76.4341989742
 30
0.0
 40
87.370742274982
100
AcDbArc
 50
249.7160105801
 51
262.106797903
  0
ARC
  5
114
330
106
100
AcDbEntity
  8
0
  6
Continuous
 62
     7
370
    25
100
AcDbCircle
 10
7.3808526571
 20
89.385134904
 30
0.0
 40
100.5452445226271
100
AcDbArc
 50
279.1865593248
 51
285.185923902
  0
ARC
  5
115
330
106
100
AcDbEntity
  8
0
  6
Continuous
 62
    60
370
    25
100
AcDbCircle
 10
-0.0269669043
 20
138.5345266428
 30
0.0
 40
150.2478376269229
100
AcDbArc
 50
261.6189993105
 51
278.9829694399
  0
VIEWPORT
  5
126
330
106
100
AcDbEntity
  8
0
100
AcDbViewport
 10
0.0
 20
0.0
 30
0.0
 40
205.6
 41
156.0
 68
     1
 69
     1
 12
0.0
 22
0.0
 13
0.0
 23
0.0
 14
10.0
 24
10.0
 15
10.0
 25
10.0
 16
0.0
 26
0.0
 36
1.0
 17
0.0
 27
0.0
 37
0.0
 42
50.0
 43
0.0
 44
0.0
 45
295.8
 50
0.0
 51
0.0
 72
   100
 90
   557152
  1

281
     0
 71
     1
 74
     0
110
0.0
120
0.0
130
0.0
111
1.0
121
0.0
131
0.0
112
0.0
122
1.0
132
0.0
 79
     0
146
0.0
170
     0
 61
     5
348
2F
292
     1
282
     1
141
0.0
142
0.0
 63
   256
361
127
  0
ENDBLK
  5
109
330
106
100
AcDbEntity
  8
0
100
AcDbBlockEnd
  0
ENDSEC
  0
SECTION
  2
ENTITIES
  0
CIRCLE
  5
73
330
1F
100
AcDbEntity
  8
0
  6
Continuous
 62
     7
370
    25
100
AcDbCircle
 10
0.0
 20
0.0
 30
0.0
 40
37.30104311104394
  0
CIRCLE
  5
74
330
1F
100
AcDbEntity
  8
0
  6
Continuous
 62
     7
370
    25
100
AcDbCircle
 10
0.0
 20
0.0
 30
0.0
 40
130.0
  0
CIRCLE
  5
75
330
1F
100
AcDbEntity
  8
0
  6
Continuous
 62
     7
370
    25
100
AcDbCircle
 10
0.0
 20
0.0
 30
0.0
 40
144.9999999999999
  0
CIRCLE
  5
76
330
1F
100
AcDbEntity
  8
0
  6
Continuous
 62
     7
370
    25
100
AcDbCircle
 10
0.0
 20
0.0
 30
0.0
 40
23.00000000000002
  0
LINE
  5
81
330
1B
100
AcDbEntity
 67
     1
  8
0
  6
Continuous
 62
     7
370
    25
100
AcDbLine
 10
-50.0
 20
1.7603291963
 30
0.0
 11
-50.0
 21
0.0
 31
0.0
  0
LINE
  5
82
330
1B
100
AcDbEntity
 67
     1
  8
0
  6
Continuous
 62
     7
370
    25
100
AcDbLine
 10
50.0
 20
0.0
 30
0.0
 11
50.0
 21
1.7603291963
 31
0.0
  0
LINE
  5
83
330
1B
100
AcDbEntity
 67
     1
  8
0
  6
Continuous
 62
     7
370
    25
100
AcDbLine
 10
-145.0
 20
150.0
 30
0.0
 11
145.0
 21
150.0
 31
0.0
  0
LINE
  5
84
330
1B
100
AcDbEntity
 67
     1
  8
0
  6
Continuous
 62
     7
370
    25
100
AcDbLine
 10
-50.0
 20
0.0
 30
0.0
 11
50.0
 21
0.0
 31
0.0
  0
LINE
  5
85
330
1B
100
AcDbEntity
 67
     1
  8
0
  6
Continuous
 62
    60
370
    25
100
AcDbLine
 10
-52.9112903226
 20
6.3031578177
 30
0.0
 11
52.9112903226
 21
6.3031578177
 31
0.0
  0
LINE
  5
86
330
1B
100
AcDbEntity
 67
     1
  8
0
  6
Continuous
 62
    60
370
    25
100
AcDbLine
 10
-50.0
 20
1.7603291963
 30
0.0
 11
50.0
 21
1.7603291963
 31
0.0
  0
ARC
  5
87
330
1B
100
AcDbEntity
 67
     1
  8
0
  6
Continuous
 62
     7
370
    25
100
AcDbCircle
 10
-13.1578947368
 20
150.0
 30
0.0
 40
158.1578947368422
100
AcDbArc
 50
294.692108304
 51
0.0
  0
ARC
  5
88
330
1B
100
AcDbEntity
 67
     1
  8
0
  6
Continuous
 62
     7
370
    25
100
AcDbCircle
 10
13.1578947368
 20
150.0
 30
0.0
 40
158.1578947368423
100
AcDbArc
 50
180.0
 51
245.307891696
  0
ARC
  5
89
330
1B
100
AcDbEntity
 67
     1
  8
0
  6
Continuous
 62
     7
370
    25
100
AcDbCircle
 10
-55.0
 20
1.7603291963
 30
0.0
 40
5.000000000000028
100
AcDbArc
 50
0.0
 51
65.307891696
  0
ARC
  5
8A
330
1B
100
AcDbEntity
 67
     1
  8
0
  6
Continuous
 62
     7
370
    25
100
AcDbCircle
 10
55.0
 20
1.7603291963
 30
0.0
 40
5.000000000000057
100
AcDbArc
 50
114.692108304
 51
180.0
  0
VIEWPORT
  5
116
330
1B
100
AcDbEntity
 67
     1
  8
0
100
AcDbViewport
 10
0.0
 20
0.0
 30
0.0
 40
205.6
 41
156.0
 68
     1
 69
     1
 12
0.0
 22
0.0
 13
0.0
 23
0.0
 14
10.0
 24
10.0
 15
10.0
 25
10.0
 16
0.0
 26
0.0
 36
1.0
 17
0.0
 27
0.0
 37
0.0
 42
50.0
 43
0.0
 44
0.0
 45
295.8
 50
0.0
 51
0.0
 72
   100
 90
   557152
  1

281
     0
 71
     1
 74
     0
110
0.0
120
0.0
130
0.0
111
1.0
121
0.0
131
0.0
112
0.0
122
1.0
132
0.0
 79
     0
146
0.0
170
     0
 61
     5
348
2F
292
     1
282
     1
141
0.0
142
0.0
 63
   256
361
117
  0
ENDSEC
  0
SECTION
  2
OBJECTS
  0
DICTIONARY
  5
C
330
0
100
AcDbDictionary
281
     1
  3
ACAD_DETAILVIEWSTYLE
350
12F
  3
ACAD_GROUP
350
D
  3
ACAD_LAYOUT
350
1A
  3
ACAD_MATERIAL
350
43
  3
ACAD_MLEADERSTYLE
350
6B
  3
ACAD_MLINESTYLE
350
17
  3
ACAD_PLOTSETTINGS
350
19
  3
ACAD_PLOTSTYLENAME
350
E
  3
ACAD_SCALELIST
350
47
  3
ACAD_SECTIONVIEWSTYLE
350
130
  3
ACAD_TABLESTYLE
350
69
  3
ACAD_VISUALSTYLE
350
2A
  3
ACDB_RECOMPOSE_DATA
350
12C
  3
AcDbVariableDictionary
350
128
  0
SUN
  5
6D
330
29
100
AcDbSun
 90
        1
290
     0
 63
     7
421
 16777215
 40
1.0
291
     1
 91
  2455826
 92
 54000000
292
     0
 70
     2
 71
   256
280
     1
  0
SUN
  5
119
330
118
100
AcDbSun
 90
        1
290
     0
 63
     7
421
 16777215
 40
1.0
291
     1
 91
  2455826
 92
 54000000
292
     0
 70
     2
 71
   256
280
     1
  0
SUN
  5
11B
330
11A
100
AcDbSun
 90
        1
290
     0
 63
     7
421
 16777215
 40
1.0
291
     1
 91
  2455826
 92
 54000000
292
     0
 70
     2
 71
   256
280
     1
  0
SUN
  5
11D
330
11C
100
AcDbSun
 90
        1
290
     0
 63
     7
421
 16777215
 40
1.0
291
     1
 91
  2455826
 92
 54000000
292
     0
 70
     2
 71
   256
280
     1
  0
SUN
  5
11F
330
11E
100
AcDbSun
 90
        1
290
     0
 63
     7
421
 16777215
 40
1.0
291
     1
 91
  2455826
 92
 54000000
292
     0
 70
     2
 71
   256
280
     1
  0
SUN
  5
121
330
120
100
AcDbSun
 90
        1
290
     0
 63
     7
421
 16777215
 40
1.0
291
     1
 91
  2455826
 92
 54000000
292
     0
 70
     2
 71
   256
280
     1
  0
SUN
  5
123
330
122
100
AcDbSun
 90
        1
290
     0
 63
     7
421
 16777215
 40
1.0
291
     1
 91
  2455826
 92
 54000000
292
     0
 70
     2
 71
   256
280
     1
  0
SUN
  5
125
330
124
100
AcDbSun
 90
        1
290
     0
 63
     7
421
 16777215
 40
1.0
291
     1
 91
  2455826
 92
 54000000
292
     0
 70
     2
 71
   256
280
     1
  0
SUN
  5
127
330
126
100
AcDbSun
 90
        1
290
     0
 63
     7
421
 16777215
 40
1.0
291
     1
 91
  2455826
 92
 54000000
292
     0
 70
     2
 71
   256
280
     1
  0
SUN
  5
117
330
116
100
AcDbSun
 90
        1
290
     0
 63
     7
421
 16777215
 40
1.0
291
     1
 91
  2455826
 92
 54000000
292
     0
 70
     2
 71
   256
280
     1
  0
DICTIONARY
  5
12F
102
{ACAD_REACTORS
330
C
102
}
330
C
100
AcDbDictionary
281
     1
  0
DICTIONARY
  5
D
102
{ACAD_REACTORS
330
C
102
}
330
C
100
AcDbDictionary
281
     1
  0
DICTIONARY
  5
1A
102
{ACAD_REACTORS
330
C
102
}
330
C
100
AcDbDictionary
281
     1
  3
_Dimetrisch
350
107
  3
_Isometrisch
350
F4
  3
_Links
350
26
  3
_Normal auf
350
A4
  3
_Rechts
350
D4
  3
_Rückseite
350
BC
  3
_Trimetrisch
350
FD
  3
_Unten
350
EC
  3
_Vorderseite
350
1E
  3
Model
350
22
  0
DICTIONARY
  5
43
102
{ACAD_REACTORS
330
C
102
}
330
C
100
AcDbDictionary
281
     1
  3
ByBlock
350
45
  3
ByLayer
350
44
  3
Global
350
46
  0
DICTIONARY
  5
6B
102
{ACAD_REACTORS
330
C
102
}
330
C
100
AcDbDictionary
281
     1
  3
Standard
350
6C
  0
DICTIONARY
  5
17
102
{ACAD_REACTORS
330
C
102
}
330
C
100
AcDbDictionary
281
     1
  3
Standard
350
18
  0
DICTIONARY
  5
19
102
{ACAD_REACTORS
330
C
102
}
330
C
100
AcDbDictionary
281
     1
  0
ACDBDICTIONARYWDFLT
  5
E
102
{ACAD_REACTORS
330
C
102
}
330
C
100
AcDbDictionary
281
     1
  3
Normal
350
F
100
AcDbDictionaryWithDefault
340
F
  0
DICTIONARY
  5
47
102
{ACAD_REACTORS
330
C
102
}
330
C
100
AcDbDictionary
281
     1
  3
A0
350
48
  3
A1
350
49
  3
A2
350
4A
  3
A3
350
4B
  3
A4
350
4C
  3
A5
350
4D
  3
A6
350
4E
  3
A7
350
4F
  3
A8
350
50
  3
A9
350
51
  3
B0
350
52
  3
B1
350
53
  3
B2
350
54
  3
B3
350
55
  3
B4
350
56
  3
B5
350
57
  3
B6
350
58
  3
B7
350
59
  3
B8
350
5A
  3
B9
350
5B
  3
C0
350
5C
  3
C1
350
5D
  3
C2
350
5E
  3
C3
350
5F
  3
C4
350
60
  3
C5
350
61
  3
C6
350
62
  3
C7
350
63
  3
C8
350
64
  3
C9
350
65
  3
D0
350
66
  3
D1
350
67
  3
D2
350
68
  0
DICTIONARY
  5
130
102
{ACAD_REACTORS
330
C
102
}
330
C
100
AcDbDictionary
281
     1
  0
DICTIONARY
  5
69
102
{ACAD_REACTORS
330
C
102
}
330
C
100
AcDbDictionary
281
     1
  3
Standard
350
6A
  0
DICTIONARY
  5
2A
102
{ACAD_REACTORS
330
C
102
}
330
C
100
AcDbDictionary
281
     1
  3
2dWireframe
350
2F
  3
Basic
350
32
  3
Brighten
350
36
  3
ColorChange
350
3A
  3
Conceptual
350
34
  3
Dim
350
35
  3
EdgeColorOff
350
3D
  3
Facepattern
350
39
  3
Flat
350
2B
  3
FlatWithEdges
350
2C
  3
Gouraud
350
2D
  3
GouraudWithEdges
350
2E
  3
Hidden
350
31
  3
JitterOff
350
3B
  3
Linepattern
350
38
  3
OverhangOff
350
3C
  3
Realistic
350
33
  3
Shaded
350
42
  3
Shaded with edges
350
41
  3
Shades of Gray
350
3E
  3
Sketchy
350
3F
  3
Thicken
350
37
  3
Wireframe
350
30
  3
X-Ray
350
40
  0
XRECORD
  5
12C
102
{ACAD_REACTORS
330
C
102
}
330
C
100
AcDbXrecord
280
     1
 90
        1
330
6A
  0
DICTIONARY
  5
128
102
{ACAD_REACTORS
330
C
102
}
330
C
100
AcDbDictionary
281
     1
  3
CANNOSCALE
350
129
  3
CMLEADERSTYLE
350
12E
  3
CTABLESTYLE
350
12D
  0
LAYOUT
  5
107
102
{ACAD_REACTORS
330
1A
102
}
330
1A
100
AcDbPlotSettings
  1

  2
none_device
  4
ISO_A4_(210.00_x_297.00_MM)
  6

 40
7.5
 41
20.0
 42
7.5
 43
20.0
 44
210.0
 45
297.0
 46
0.0
 47
0.0
 48
0.0
 49
0.0
140
0.0
141
0.0
142
1.0
143
1.1284046693
 70
   688
 72
     1
 73
     1
 74
     1
  7

 75
     0
 76
     0
 77
     2
 78
   300
147
0.8862068966
148
145.0
149
0.0
100
AcDbLayout
  1
_Dimetrisch
 70
     1
 71
     9
 10
0.0
 20
0.0
 11
0.0
 21
0.0
 12
0.0
 22
0.0
 32
0.0
 14
0.0
 24
0.0
 34
0.0
 15
0.0
 25
0.0
 35
0.0
146
0.0
 13
0.0
 23
0.0
 33
0.0
 16
1.0
 26
0.0
 36
0.0
 17
0.0
 27
1.0
 37
0.0
 76
     0
330
106
331
126
  0
LAYOUT
  5
F4
102
{ACAD_REACTORS
330
1A
102
}
330
1A
100
AcDbPlotSettings
  1

  2
none_device
  4
ISO_A4_(210.00_x_297.00_MM)
  6

 40
7.5
 41
20.0
 42
7.5
 43
20.0
 44
210.0
 45
297.0
 46
0.0
 47
0.0
 48
0.0
 49
0.0
140
0.0
141
0.0
142
1.0
143
1.1284046693
 70
   688
 72
     1
 73
     1
 74
     1
  7

 75
     0
 76
     0
 77
     2
 78
   300
147
0.8862068966
148
145.0
149
0.0
100
AcDbLayout
  1
_Isometrisch
 70
     1
 71
     7
 10
0.0
 20
0.0
 11
0.0
 21
0.0
 12
0.0
 22
0.0
 32
0.0
 14
0.0
 24
0.0
 34
0.0
 15
0.0
 25
0.0
 35
0.0
146
0.0
 13
0.0
 23
0.0
 33
0.0
 16
1.0
 26
0.0
 36
0.0
 17
0.0
 27
1.0
 37
0.0
 76
     0
330
F3
331
122
  0
LAYOUT
  5
26
102
{ACAD_REACTORS
330
1A
102
}
330
1A
100
AcDbPlotSettings
  1

  2
none_device
  4
ISO_A4_(210.00_x_297.00_MM)
  6

 40
7.5
 41
20.0
 42
7.5
 43
20.0
 44
210.0
 45
297.0
 46
0.0
 47
0.0
 48
0.0
 49
0.0
140
0.0
141
0.0
142
1.0
143
1.1284046693
 70
   688
 72
     1
 73
     1
 74
     1
  7

 75
     0
 76
     0
 77
     2
 78
   300
147
0.8862068966
148
145.0
149
0.0
100
AcDbLayout
  1
_Links
 70
     1
 71
     2
 10
0.0
 20
0.0
 11
0.0
 21
0.0
 12
0.0
 22
0.0
 32
0.0
 14
0.0
 24
0.0
 34
0.0
 15
0.0
 25
0.0
 35
0.0
146
0.0
 13
0.0
 23
0.0
 33
0.0
 16
1.0
 26
0.0
 36
0.0
 17
0.0
 27
1.0
 37
0.0
 76
     0
330
23
331
118
  0
LAYOUT
  5
A4
102
{ACAD_REACTORS
330
1A
102
}
330
1A
100
AcDbPlotSettings
  1

  2
none_device
  4
ISO_A4_(210.00_x_297.00_MM)
  6

 40
7.5
 41
20.0
 42
7.5
 43
20.0
 44
210.0
 45
297.0
 46
0.0
 47
0.0
 48
0.0
 49
0.0
140
0.0
141
0.0
142
1.0
143
1.1284046693
 70
   688
 72
     1
 73
     1
 74
     1
  7

 75
     0
 76
     0
 77
     2
 78
   300
147
0.8862068966
148
145.0
149
0.0
100
AcDbLayout
  1
_Normal auf
 70
     1
 71
     3
 10
0.0
 20
0.0
 11
0.0
 21
0.0
 12
0.0
 22
0.0
 32
0.0
 14
0.0
 24
0.0
 34
0.0
 15
0.0
 25
0.0
 35
0.0
146
0.0
 13
0.0
 23
0.0
 33
0.0
 16
1.0
 26
0.0
 36
0.0
 17
0.0
 27
1.0
 37
0.0
 76
     0
330
A3
331
11A
  0
LAYOUT
  5
D4
102
{ACAD_REACTORS
330
1A
102
}
330
1A
100
AcDbPlotSettings
  1

  2
none_device
  4
ISO_A4_(210.00_x_297.00_MM)
  6

 40
7.5
 41
20.0
 42
7.5
 43
20.0
 44
210.0
 45
297.0
 46
0.0
 47
0.0
 48
0.0
 49
0.0
140
0.0
141
0.0
142
1.0
143
1.1284046693
 70
   688
 72
     1
 73
     1
 74
     1
  7

 75
     0
 76
     0
 77
     2
 78
   300
147
0.8862068966
148
145.0
149
0.0
100
AcDbLayout
  1
_Rechts
 70
     1
 71
     5
 10
0.0
 20
0.0
 11
0.0
 21
0.0
 12
0.0
 22
0.0
 32
0.0
 14
0.0
 24
0.0
 34
0.0
 15
0.0
 25
0.0
 35
0.0
146
0.0
 13
0.0
 23
0.0
 33
0.0
 16
1.0
 26
0.0
 36
0.0
 17
0.0
 27
1.0
 37
0.0
 76
     0
330
D3
331
11E
  0
LAYOUT
  5
BC
102
{ACAD_REACTORS
330
1A
102
}
330
1A
100
AcDbPlotSettings
  1

  2
none_device
  4
ISO_A4_(210.00_x_297.00_MM)
  6

 40
7.5
 41
20.0
 42
7.5
 43
20.0
 44
210.0
 45
297.0
 46
0.0
 47
0.0
 48
0.0
 49
0.0
140
0.0
141
0.0
142
1.0
143
1.1284046693
 70
   688
 72
     1
 73
     1
 74
     1
  7

 75
     0
 76
     0
 77
     2
 78
   300
147
0.8862068966
148
145.0
149
0.0
100
AcDbLayout
  1
_Rückseite
 70
     1
 71
     4
 10
0.0
 20
0.0
 11
0.0
 21
0.0
 12
0.0
 22
0.0
 32
0.0
 14
0.0
 24
0.0
 34
0.0
 15
0.0
 25
0.0
 35
0.0
146
0.0
 13
0.0
 23
0.0
 33
0.0
 16
1.0
 26
0.0
 36
0.0
 17
0.0
 27
1.0
 37
0.0
 76
     0
330
BB
331
11C
  0
LAYOUT
  5
FD
102
{ACAD_REACTORS
330
1A
102
}
330
1A
100
AcDbPlotSettings
  1

  2
none_device
  4
ISO_A4_(210.00_x_297.00_MM)
  6

 40
7.5
 41
20.0
 42
7.5
 43
20.0
 44
210.0
 45
297.0
 46
0.0
 47
0.0
 48
0.0
 49
0.0
140
0.0
141
0.0
142
1.0
143
1.1284046693
 70
   688
 72
     1
 73
     1
 74
     1
  7

 75
     0
 76
     0
 77
     2
 78
   300
147
0.8862068966
148
145.0
149
0.0
100
AcDbLayout
  1
_Trimetrisch
 70
     1
 71
     8
 10
0.0
 20
0.0
 11
0.0
 21
0.0
 12
0.0
 22
0.0
 32
0.0
 14
0.0
 24
0.0
 34
0.0
 15
0.0
 25
0.0
 35
0.0
146
0.0
 13
0.0
 23
0.0
 33
0.0
 16
1.0
 26
0.0
 36
0.0
 17
0.0
 27
1.0
 37
0.0
 76
     0
330
FC
331
124
  0
LAYOUT
  5
EC
102
{ACAD_REACTORS
330
1A
102
}
330
1A
100
AcDbPlotSettings
  1

  2
none_device
  4
ISO_A4_(210.00_x_297.00_MM)
  6

 40
7.5
 41
20.0
 42
7.5
 43
20.0
 44
210.0
 45
297.0
 46
0.0
 47
0.0
 48
0.0
 49
0.0
140
0.0
141
0.0
142
1.0
143
1.1284046693
 70
   688
 72
     1
 73
     1
 74
     1
  7

 75
     0
 76
     0
 77
     2
 78
   300
147
0.8862068966
148
145.0
149
0.0
100
AcDbLayout
  1
_Unten
 70
     1
 71
     6
 10
0.0
 20
0.0
 11
0.0
 21
0.0
 12
0.0
 22
0.0
 32
0.0
 14
0.0
 24
0.0
 34
0.0
 15
0.0
 25
0.0
 35
0.0
146
0.0
 13
0.0
 23
0.0
 33
0.0
 16
1.0
 26
0.0
 36
0.0
 17
0.0
 27
1.0
 37
0.0
 76
     0
330
EB
331
120
  0
LAYOUT
  5
1E
102
{ACAD_REACTORS
330
1A
102
}
330
1A
100
AcDbPlotSettings
  1

  2
none_device
  4
ISO_A4_(210.00_x_297.00_MM)
  6

 40
7.5
 41
20.0
 42
7.5
 43
20.0
 44
210.0
 45
297.0
 46
0.0
 47
0.0
 48
0.0
 49
0.0
140
0.0
141
0.0
142
1.0
143
1.1284046693
 70
   688
 72
     1
 73
     1
 74
     1
  7

 75
     0
 76
     0
 77
     2
 78
   300
147
0.8862068966
148
145.0
149
0.0
100
AcDbLayout
  1
_Vorderseite
 70
     1
 71
     1
 10
-167.5680933852
 20
-8.4630350195
 11
167.5680933852
 21
228.5019455253
 12
0.0
 22
0.0
 32
0.0
 14
-145.0
 24
0.0
 34
0.0
 15
145.0
 25
150.0
 35
0.0
146
0.0
 13
0.0
 23
0.0
 33
0.0
 16
1.0
 26
0.0
 36
0.0
 17
0.0
 27
1.0
 37
0.0
 76
     0
330
1B
331
116
  0
LAYOUT
  5
22
102
{ACAD_REACTORS
330
1A
102
}
330
1A
100
AcDbPlotSettings
  1

  2
none_device
  4
ANSI_A_(11.00_x_8.50_Inches)
  6

 40
6.35
 41
19.05
 42
6.35000508
 43
19.05000254
 44
279.4
 45
215.9
 46
133.34999746
 47
88.89999873
 48
0.0
 49
0.0
140
0.0
141
0.0
142
0.0290172414
143
1.0
 70
  1696
 72
     0
 73
     0
 74
     0
  7

 75
     0
 76
     0
 77
     2
 78
   300
147
0.0179189148
148
-1300.4909072572
149
0.0
100
AcDbLayout
  1
Model
 70
     1
 71
     0
 10
0.0
 20
0.0
 11
420.0
 21
297.0
 12
0.0
 22
0.0
 32
0.0
 14
-145.0
 24
-145.0
 34
0.0
 15
145.0
 25
145.0
 35
0.0
146
0.0
 13
0.0
 23
0.0
 33
0.0
 16
1.0
 26
0.0
 36
0.0
 17
0.0
 27
1.0
 37
0.0
 76
     0
330
1F
331
29
  0
MATERIAL
  5
45
102
{ACAD_REACTORS
330
43
102
}
330
43
100
AcDbMaterial
  1
ByBlock
 72
     1
 94
      127
  0
MATERIAL
  5
44
102
{ACAD_REACTORS
330
43
102
}
330
43
100
AcDbMaterial
  1
ByLayer
 72
     1
 94
      127
  0
MATERIAL
  5
46
102
{ACAD_REACTORS
330
43
102
}
330
43
100
AcDbMaterial
  1
Global
 72
     1
 94
      127
  0
MLEADERSTYLE
  5
6C
102
{ACAD_REACTORS
330
6B
102
}
330
6B
100
AcDbMLeaderStyle
179
     2
170
     2
171
     1
172
     0
 90
        2
 40
0.0
 41
0.0
173
     1
 91
-1056964608
340
14
 92
       -2
290
     1
 42
2.0
291
     1
 43
8.0
  3
Standard
341
0
 44
4.0
300

342
11
174
     1
178
     6
175
     1
176
     0
 93
-1056964608
 45
4.0
292
     0
297
     0
 46
4.0
343
0
 94
-1056964608
 47
1.0
 49
1.0
140
1.0
293
     1
141
0.0
294
     1
177
     0
142
1.0
295
     0
296
     0
143
3.75
271
     0
272
     9
273
     9
298
     0
  0
MLINESTYLE
  5
18
102
{ACAD_REACTORS
330
17
102
}
330
17
100
AcDbMlineStyle
  2
Standard
 70
     0
  3

 62
   256
 51
90.0
 52
90.0
 71
     2
 49
0.5
 62
   256
  6
BYLAYER
 49
-0.5
 62
   256
  6
BYLAYER
  0
ACDBPLACEHOLDER
  5
F
102
{ACAD_REACTORS
330
E
102
}
330
E
  0
SCALE
  5
48
102
{ACAD_REACTORS
330
47
102
}
330
47
100
AcDbScale
 70
     0
300
1:1
140
1.0
141
1.0
290
     1
  0
SCALE
  5
49
102
{ACAD_REACTORS
330
47
102
}
330
47
100
AcDbScale
 70
     0
300
1:2
140
1.0
141
2.0
290
     0
  0
SCALE
  5
4A
102
{ACAD_REACTORS
330
47
102
}
330
47
100
AcDbScale
 70
     0
300
1:4
140
1.0
141
4.0
290
     0
  0
SCALE
  5
4B
102
{ACAD_REACTORS
330
47
102
}
330
47
100
AcDbScale
 70
     0
300
1:5
140
1.0
141
5.0
290
     0
  0
SCALE
  5
4C
102
{ACAD_REACTORS
330
47
102
}
330
47
100
AcDbScale
 70
     0
300
1:8
140
1.0
141
8.0
290
     0
  0
SCALE
  5
4D
102
{ACAD_REACTORS
330
47
102
}
330
47
100
AcDbScale
 70
     0
300
1:10
140
1.0
141
10.0
290
     0
  0
SCALE
  5
4E
102
{ACAD_REACTORS
330
47
102
}
330
47
100
AcDbScale
 70
     0
300
1:16
140
1.0
141
16.0
290
     0
  0
SCALE
  5
4F
102
{ACAD_REACTORS
330
47
102
}
330
47
100
AcDbScale
 70
     0
300
1:20
140
1.0
141
20.0
290
     0
  0
SCALE
  5
50
102
{ACAD_REACTORS
330
47
102
}
330
47
100
AcDbScale
 70
     0
300
1:30
140
1.0
141
30.0
290
     0
  0
SCALE
  5
51
102
{ACAD_REACTORS
330
47
102
}
330
47
100
AcDbScale
 70
     0
300
1:40
140
1.0
141
40.0
290
     0
  0
SCALE
  5
52
102
{ACAD_REACTORS
330
47
102
}
330
47
100
AcDbScale
 70
     0
300
1:50
140
1.0
141
50.0
290
     0
  0
SCALE
  5
53
102
{ACAD_REACTORS
330
47
102
}
330
47
100
AcDbScale
 70
     0
300
1:100
140
1.0
141
100.0
290
     0
  0
SCALE
  5
54
102
{ACAD_REACTORS
330
47
102
}
330
47
100
AcDbScale
 70
     0
300
2:1
140
2.0
141
1.0
290
     0
  0
SCALE
  5
55
102
{ACAD_REACTORS
330
47
102
}
330
47
100
AcDbScale
 70
     0
300
4:1
140
4.0
141
1.0
290
     0
  0
SCALE
  5
56
102
{ACAD_REACTORS
330
47
102
}
330
47
100
AcDbScale
 70
     0
300
8:1
140
8.0
141
1.0
290
     0
  0
SCALE
  5
57
102
{ACAD_REACTORS
330
47
102
}
330
47
100
AcDbScale
 70
     0
300
10:1
140
10.0
141
1.0
290
     0
  0
SCALE
  5
58
102
{ACAD_REACTORS
330
47
102
}
330
47
100
AcDbScale
 70
     0
300
100:1
140
100.0
141
1.0
290
     0
  0
SCALE
  5
59
102
{ACAD_REACTORS
330
47
102
}
330
47
100
AcDbScale
 70
     0
300
1/128" = 1'-0"
140
0.0078125
141
12.0
290
     0
  0
SCALE
  5
5A
102
{ACAD_REACTORS
330
47
102
}
330
47
100
AcDbScale
 70
     0
300
1/64" = 1'-0"
140
0.015625
141
12.0
290
     0
  0
SCALE
  5
5B
102
{ACAD_REACTORS
330
47
102
}
330
47
100
AcDbScale
 70
     0
300
1/32" = 1'-0"
140
0.03125
141
12.0
290
     0
  0
SCALE
  5
5C
102
{ACAD_REACTORS
330
47
102
}
330
47
100
AcDbScale
 70
     0
300
1/16" = 1'-0"
140
0.0625
141
12.0
290
     0
  0
SCALE
  5
5D
102
{ACAD_REACTORS
330
47
102
}
330
47
100
AcDbScale
 70
     0
300
3/32" = 1'-0"
140
0.09375
141
12.0
290
     0
  0
SCALE
  5
5E
102
{ACAD_REACTORS
330
47
102
}
330
47
100
AcDbScale
 70
     0
300
1/8" = 1'-0"
140
0.125
141
12.0
290
     0
  0
SCALE
  5
5F
102
{ACAD_REACTORS
330
47
102
}
330
47
100
AcDbScale
 70
     0
300
3/16" = 1'-0"
140
0.1875
141
12.0
290
     0
  0
SCALE
  5
60
102
{ACAD_REACTORS
330
47
102
}
330
47
100
AcDbScale
 70
     0
300
1/4" = 1'-0"
140
0.25
141
12.0
290
     0
  0
SCALE
  5
61
102
{ACAD_REACTORS
330
47
102
}
330
47
100
AcDbScale
 70
     0
300
3/8" = 1'-0"
140
0.375
141
12.0
290
     0
  0
SCALE
  5
62
102
{ACAD_REACTORS
330
47
102
}
330
47
100
AcDbScale
 70
     0
300
1/2" = 1'-0"
140
0.5
141
12.0
290
     0
  0
SCALE
  5
63
102
{ACAD_REACTORS
330
47
102
}
330
47
100
AcDbScale
 70
     0
300
3/4" = 1'-0"
140
0.75
141
12.0
290
     0
  0
SCALE
  5
64
102
{ACAD_REACTORS
330
47
102
}
330
47
100
AcDbScale
 70
     0
300
1" = 1'-0"
140
1.0
141
12.0
290
     0
  0
SCALE
  5
65
102
{ACAD_REACTORS
330
47
102
}
330
47
100
AcDbScale
 70
     0
300
1-1/2" = 1'-0"
140
1.5
141
12.0
290
     0
  0
SCALE
  5
66
102
{ACAD_REACTORS
330
47
102
}
330
47
100
AcDbScale
 70
     0
300
3" = 1'-0"
140
3.0
141
12.0
290
     0
  0
SCALE
  5
67
102
{ACAD_REACTORS
330
47
102
}
330
47
100
AcDbScale
 70
     0
300
6" = 1'-0"
140
6.0
141
12.0
290
     0
  0
SCALE
  5
68
102
{ACAD_REACTORS
330
47
102
}
330
47
100
AcDbScale
 70
     0
300
1'-0" = 1'-0"
140
12.0
141
12.0
290
     0
  0
TABLESTYLE
  5
6A
102
{ACAD_REACTORS
330
69
102
}
102
{ACAD_XDICTIONARY
360
12A
102
}
330
69
100
AcDbTableStyle
  3
Standard
 70
     0
 71
     0
 40
0.06
 41
0.06
280
     0
281
     0
  7
STANDARD
140
4.5
170
     2
 62
     0
 63
   257
283
     0
 90
        4
 91
        0
  1

274
    -2
284
     1
 64
     0
275
    -2
285
     1
 65
     0
276
    -2
286
     1
 66
     0
277
    -2
287
     1
 67
     0
278
    -2
288
     1
 68
     0
279
    -2
289
     1
 69
     0
  7
STANDARD
140
6.0
170
     5
 62
     0
 63
   257
283
     0
 90
        4
 91
        0
  1

274
    -2
284
     1
 64
     0
275
    -2
285
     1
 65
     0
276
    -2
286
     1
 66
     0
277
    -2
287
     1
 67
     0
278
    -2
288
     1
 68
     0
279
    -2
289
     1
 69
     0
  7
STANDARD
140
4.5
170
     5
 62
     0
 63
   257
283
     0
 90
        4
 91
        0
  1

274
    -2
284
     1
 64
     0
275
    -2
285
     1
 65
     0
276
    -2
286
     1
 66
     0
277
    -2
287
     1
 67
     0
278
    -2
288
     1
 68
     0
279
    -2
289
     1
 69
     0
  0
VISUALSTYLE
  5
2F
102
{ACAD_REACTORS
330
2A
102
}
330
2A
100
AcDbVisualStyle
  2
2dWireframe
 70
     4
177
     3
291
     0
 70
    58
 90
        0
176
     1
 90
        2
176
     1
 90
        0
176
     1
 90
        0
176
     1
 40
0.6
176
     1
 40
30.0
176
     1
 62
     7
420
 16777215
176
     1
 90
        1
176
     1
 90
        4
176
     1
 62
     7
176
     1
 62
   257
176
     1
 90
        1
176
     1
 90
        1
176
     1
 40
1.0
176
     1
 90
        0
176
     1
 62
   257
176
     1
 40
1.0
176
     1
 90
        1
176
     1
 90
        6
176
     1
 90
        2
176
     1
 62
     7
176
     1
 90
        5
176
     1
 90
        0
176
     1
 90
        0
176
     1
290
     0
176
     1
 90
        1
176
     1
 40
0.0
176
     1
 90
        0
176
     1
290
     1
176
     1
290
     1
176
     1
290
     0
176
     1
290
     0
176
     1
290
     0
176
     1
290
     0
176
     1
290
     0
176
     1
290
     0
176
     1
290
     0
176
     1
 90
       50
176
     1
 40
0.0
176
     1
 40
1.0
176
     1
 90
        0
176
     1
 62
    18
420
        0
176
     1
 90
       50
176
     1
 90
        3
176
     1
 62
     5
420
      255
176
     1
290
     0
176
     1
 90
       50
176
     1
 90
       50
176
     1
 90
       50
176
     1
290
     0
176
     1
 90
       50
176
     1
 62
   256
176
     0
 40
1.0
176
     0
 90
        2
176
     1
  1
strokes_ogs.tif
176
     1
290
     0
176
     1
 40
1.0
176
     1
 40
1.0
176
     1
  0
VISUALSTYLE
  5
32
102
{ACAD_REACTORS
330
2A
102
}
330
2A
100
AcDbVisualStyle
  2
Basic
 70
     7
177
     3
291
     1
 70
    58
 90
        1
176
     1
 90
        0
176
     1
 90
        1
176
     1
 90
        0
176
     1
 40
0.6
176
     1
 40
30.0
176
     1
 62
     7
420
 16777215
176
     1
 90
        0
176
     1
 90
        4
176
     1
 62
     7
176
     1
 62
   257
176
     1
 90
        1
176
     1
 90
        1
176
     1
 40
1.0
176
     1
 90
        8
176
     1
 62
     7
176
     1
 40
1.0
176
     1
 90
        1
176
     1
 90
        6
176
     1
 90
        2
176
     1
 62
     7
176
     1
 90
        5
176
     1
 90
        0
176
     1
 90
        0
176
     1
290
     0
176
     1
 90
        1
176
     1
 40
0.0
176
     1
 90
        0
176
     1
290
     0
176
     1
290
     1
176
     1
290
     1
176
     1
290
     0
176
     1
290
     0
176
     1
290
     0
176
     1
290
     0
176
     1
290
     0
176
     1
290
     0
176
     1
 90
       50
176
     1
 40
0.0
176
     1
 40
1.0
176
     1
 90
        0
176
     1
 62
    18
420
        0
176
     1
 90
       50
176
     1
 90
        3
176
     1
 62
     5
420
      255
176
     1
290
     0
176
     1
 90
       50
176
     1
 90
       50
176
     1
 90
       50
176
     1
290
     0
176
     1
 90
       50
176
     1
 62
   256
176
     0
 40
1.0
176
     0
 90
        2
176
     1
  1
strokes_ogs.tif
176
     1
290
     0
176
     1
 40
1.0
176
     1
 40
1.0
176
     1
  0
VISUALSTYLE
  5
36
102
{ACAD_REACTORS
330
2A
102
}
330
2A
100
AcDbVisualStyle
  2
Brighten
 70
    12
177
     3
291
     1
 70
    58
 90
        2
176
     1
 90
        2
176
     1
 90
        0
176
     1
 90
        0
176
     1
 40
0.6
176
     1
 40
30.0
176
     1
 62
     7
420
 16777215
176
     1
 90
        1
176
     1
 90
        4
176
     1
 62
     7
176
     1
 62
   257
176
     1
 90
        1
176
     1
 90
        1
176
     1
 40
1.0
176
     1
 90
        8
176
     1
 62
     7
176
     1
 40
1.0
176
     1
 90
        1
176
     1
 90
        6
176
     1
 90
        2
176
     1
 62
     7
176
     1
 90
        5
176
     1
 90
        0
176
     1
 90
        0
176
     1
290
     0
176
     1
 90
        1
176
     1
 40
50.0
176
     1
 90
        0
176
     1
290
     0
176
     1
290
     1
176
     1
290
     1
176
     1
290
     0
176
     1
290
     0
176
     1
290
     0
176
     1
290
     0
176
     1
290
     0
176
     1
290
     0
176
     1
 90
       50
176
     1
 40
0.0
176
     1
 40
1.0
176
     1
 90
        0
176
     1
 62
    18
420
        0
176
     1
 90
       50
176
     1
 90
        3
176
     1
 62
     5
420
      255
176
     1
290
     0
176
     1
 90
       50
176
     1
 90
       50
176
     1
 90
       50
176
     1
290
     0
176
     1
 90
       50
176
     1
 62
   256
176
     0
 40
1.0
176
     0
 90
        2
176
     1
  1
strokes_ogs.tif
176
     1
290
     0
176
     1
 40
1.0
176
     1
 40
1.0
176
     1
  0
VISUALSTYLE
  5
3A
102
{ACAD_REACTORS
330
2A
102
}
330
2A
100
AcDbVisualStyle
  2
ColorChange
 70
    16
177
     3
291
     1
 70
    58
 90
        2
176
     1
 90
        2
176
     1
 90
        3
176
     1
 90
        0
176
     1
 40
0.6
176
     1
 40
30.0
176
     1
 62
     8
420
  8421504
176
     1
 90
        1
176
     1
 90
        4
176
     1
 62
     7
176
     1
 62
   257
176
     1
 90
        1
176
     1
 90
        1
176
     1
 40
1.0
176
     1
 90
        8
176
     1
 62
     8
420
  8421504
176
     1
 40
1.0
176
     1
 90
        1
176
     1
 90
        6
176
     1
 90
        2
176
     1
 62
     7
176
     1
 90
        5
176
     1
 90
        0
176
     1
 90
        0
176
     1
290
     0
176
     1
 90
        1
176
     1
 40
0.0
176
     1
 90
        0
176
     1
290
     0
176
     1
290
     1
176
     1
290
     1
176
     1
290
     0
176
     1
290
     0
176
     1
290
     0
176
     1
290
     0
176
     1
290
     0
176
     1
290
     0
176
     1
 90
       50
176
     1
 40
0.0
176
     1
 40
1.0
176
     1
 90
        0
176
     1
 62
    18
420
        0
176
     1
 90
       50
176
     1
 90
        3
176
     1
 62
     5
420
      255
176
     1
290
     0
176
     1
 90
       50
176
     1
 90
       50
176
     1
 90
       50
176
     1
290
     0
176
     1
 90
       50
176
     1
 62
   256
176
     0
 40
1.0
176
     0
 90
        2
176
     1
  1
strokes_ogs.tif
176
     1
290
     0
176
     1
 40
1.0
176
     1
 40
1.0
176
     1
  0
VISUALSTYLE
  5
34
102
{ACAD_REACTORS
330
2A
102
}
330
2A
100
AcDbVisualStyle
  2
Conceptual
 70
     9
177
     3
291
     0
 70
    58
 90
        3
176
     1
 90
        2
176
     1
 90
        0
176
     1
 90
        0
176
     1
 40
0.6
176
     1
 40
30.0
176
     1
 62
     7
420
 16777215
176
     1
 90
        2
176
     1
 90
        2
176
     1
 62
     7
176
     1
 62
   257
176
     1
 90
        1
176
     1
 90
        1
176
     1
 40
179.0
176
     1
 90
        8
176
     1
 62
     7
176
     1
 40
1.0
176
     1
 90
        1
176
     1
 90
        6
176
     1
 90
        2
176
     1
 62
     7
176
     1
 90
        3
176
     1
 90
        0
176
     1
 90
        0
176
     1
290
     0
176
     1
 90
        1
176
     1
 40
0.0
176
     1
 90
        0
176
     1
290
     0
176
     1
290
     1
176
     1
290
     1
176
     1
290
     0
176
     1
290
     0
176
     1
290
     0
176
     1
290
     0
176
     1
290
     0
176
     1
290
     0
176
     1
 90
       50
176
     1
 40
0.0
176
     1
 40
1.0
176
     1
 90
        0
176
     1
 62
    18
420
        0
176
     1
 90
       50
176
     1
 90
        3
176
     1
 62
     5
420
      255
176
     1
290
     0
176
     1
 90
       50
176
     1
 90
       50
176
     1
 90
       50
176
     1
290
     0
176
     1
 90
       50
176
     1
 62
   256
176
     0
 40
1.0
176
     0
 90
        2
176
     1
  1
strokes_ogs.tif
176
     1
290
     0
176
     1
 40
1.0
176
     1
 40
1.0
176
     1
  0
VISUALSTYLE
  5
35
102
{ACAD_REACTORS
330
2A
102
}
330
2A
100
AcDbVisualStyle
  2
Dim
 70
    11
177
     3
291
     1
 70
    58
 90
        2
176
     1
 90
        2
176
     1
 90
        0
176
     1
 90
        0
176
     1
 40
0.6
176
     1
 40
30.0
176
     1
 62
     7
420
 16777215
176
     1
 90
        1
176
     1
 90
        4
176
     1
 62
     7
176
     1
 62
   257
176
     1
 90
        1
176
     1
 90
        1
176
     1
 40
1.0
176
     1
 90
        8
176
     1
 62
     7
176
     1
 40
1.0
176
     1
 90
        1
176
     1
 90
        6
176
     1
 90
        2
176
     1
 62
     7
176
     1
 90
        5
176
     1
 90
        0
176
     1
 90
        0
176
     1
290
     0
176
     1
 90
        1
176
     1
 40
-50.0
176
     1
 90
        0
176
     1
290
     0
176
     1
290
     1
176
     1
290
     1
176
     1
290
     0
176
     1
290
     0
176
     1
290
     0
176
     1
290
     0
176
     1
290
     0
176
     1
290
     0
176
     1
 90
       50
176
     1
 40
0.0
176
     1
 40
1.0
176
     1
 90
        0
176
     1
 62
    18
420
        0
176
     1
 90
       50
176
     1
 90
        3
176
     1
 62
     5
420
      255
176
     1
290
     0
176
     1
 90
       50
176
     1
 90
       50
176
     1
 90
       50
176
     1
290
     0
176
     1
 90
       50
176
     1
 62
   256
176
     0
 40
1.0
176
     0
 90
        2
176
     1
  1
strokes_ogs.tif
176
     1
290
     0
176
     1
 40
1.0
176
     1
 40
1.0
176
     1
  0
VISUALSTYLE
  5
3D
102
{ACAD_REACTORS
330
2A
102
}
330
2A
100
AcDbVisualStyle
  2
EdgeColorOff
 70
    22
177
     3
291
     1
 70
    58
 90
        2
176
     0
 90
        2
176
     0
 90
        0
176
     0
 90
        0
176
     0
 40
0.6
176
     0
 40
30.0
176
     0
 62
     7
420
 16777215
176
     0
 90
        1
176
     0
 90
        4
176
     0
 62
     7
176
     0
 62
   257
176
     0
 90
        1
176
     0
 90
        1
176
     0
 40
1.0
176
     0
 90
        8
176
     2
 62
     7
176
     0
 40
1.0
176
     0
 90
        1
176
     0
 90
        6
176
     0
 90
        2
176
     0
 62
     7
176
     0
 90
        5
176
     0
 90
        0
176
     0
 90
        0
176
     0
290
     0
176
     0
 90
        1
176
     0
 40
0.0
176
     0
 90
        0
176
     0
290
     0
176
     0
290
     1
176
     0
290
     1
176
     0
290
     0
176
     0
290
     0
176
     0
290
     0
176
     0
290
     0
176
     0
290
     0
176
     0
290
     0
176
     0
 90
       50
176
     0
 40
0.0
176
     0
 40
1.0
176
     0
 90
        0
176
     0
 62
    18
420
        0
176
     0
 90
       50
176
     0
 90
        3
176
     0
 62
     5
420
      255
176
     0
290
     0
176
     0
 90
       50
176
     0
 90
       50
176
     0
 90
       50
176
     0
290
     0
176
     0
 90
       50
176
     0
 62
   256
176
     0
 40
1.0
176
     0
 90
        2
176
     0
  1
strokes_ogs.tif
176
     0
290
     0
176
     0
 40
1.0
176
     0
 40
1.0
176
     0
  0
VISUALSTYLE
  5
39
102
{ACAD_REACTORS
330
2A
102
}
330
2A
100
AcDbVisualStyle
  2
Facepattern
 70
    15
177
     3
291
     1
 70
    58
 90
        2
176
     1
 90
        2
176
     1
 90
        0
176
     1
 90
        0
176
     1
 40
0.6
176
     1
 40
30.0
176
     1
 62
     7
420
 16777215
176
     1
 90
        1
176
     1
 90
        4
176
     1
 62
     7
176
     1
 62
   257
176
     1
 90
        1
176
     1
 90
        1
176
     1
 40
1.0
176
     1
 90
        8
176
     1
 62
     7
176
     1
 40
1.0
176
     1
 90
        1
176
     1
 90
        6
176
     1
 90
        2
176
     1
 62
     7
176
     1
 90
        5
176
     1
 90
        0
176
     1
 90
        0
176
     1
290
     0
176
     1
 90
        1
176
     1
 40
0.0
176
     1
 90
        0
176
     1
290
     0
176
     1
290
     1
176
     1
290
     1
176
     1
290
     0
176
     1
290
     0
176
     1
290
     0
176
     1
290
     0
176
     1
290
     0
176
     1
290
     0
176
     1
 90
       50
176
     1
 40
0.0
176
     1
 40
1.0
176
     1
 90
        0
176
     1
 62
    18
420
        0
176
     1
 90
       50
176
     1
 90
        3
176
     1
 62
     5
420
      255
176
     1
290
     0
176
     1
 90
       50
176
     1
 90
       50
176
     1
 90
       50
176
     1
290
     0
176
     1
 90
       50
176
     1
 62
   256
176
     0
 40
1.0
176
     0
 90
        2
176
     1
  1
strokes_ogs.tif
176
     1
290
     0
176
     1
 40
1.0
176
     1
 40
1.0
176
     1
  0
VISUALSTYLE
  5
2B
102
{ACAD_REACTORS
330
2A
102
}
330
2A
100
AcDbVisualStyle
  2
Flat
 70
     0
177
     3
291
     1
 70
    58
 90
        2
176
     1
 90
        1
176
     1
 90
        1
176
     1
 90
        2
176
     1
 40
0.6
176
     1
 40
30.0
176
     1
 62
     7
420
 16777215
176
     1
 90
        0
176
     1
 90
        0
176
     1
 62
     7
176
     1
 62
   257
176
     1
 90
        1
176
     1
 90
        1
176
     1
 40
1.0
176
     1
 90
        8
176
     1
 62
     7
176
     1
 40
1.0
176
     1
 90
        1
176
     1
 90
        6
176
     1
 90
        2
176
     1
 62
     7
176
     1
 90
        5
176
     1
 90
        0
176
     1
 90
        0
176
     1
290
     0
176
     1
 90
       13
176
     1
 40
0.0
176
     1
 90
        0
176
     1
290
     0
176
     1
290
     1
176
     1
290
     1
176
     1
290
     0
176
     1
290
     0
176
     1
290
     0
176
     1
290
     0
176
     1
290
     0
176
     1
290
     0
176
     1
 90
       50
176
     1
 40
0.0
176
     1
 40
1.0
176
     1
 90
        0
176
     1
 62
    18
420
        0
176
     1
 90
       50
176
     1
 90
        3
176
     1
 62
     5
420
      255
176
     1
290
     0
176
     1
 90
       50
176
     1
 90
       50
176
     1
 90
       50
176
     1
290
     0
176
     1
 90
       50
176
     1
 62
   256
176
     0
 40
1.0
176
     0
 90
        2
176
     1
  1
strokes_ogs.tif
176
     1
290
     0
176
     1
 40
1.0
176
     1
 40
1.0
176
     1
  0
VISUALSTYLE
  5
2C
102
{ACAD_REACTORS
330
2A
102
}
330
2A
100
AcDbVisualStyle
  2
FlatWithEdges
 70
     1
177
     3
291
     1
 70
    58
 90
        2
176
     1
 90
        1
176
     1
 90
        1
176
     1
 90
        2
176
     1
 40
0.6
176
     1
 40
30.0
176
     1
 62
     7
420
 16777215
176
     1
 90
        1
176
     1
 90
        0
176
     1
 62
     7
176
     1
 62
   257
176
     1
 90
        1
176
     1
 90
        1
176
     1
 40
1.0
176
     1
 90
        0
176
     1
 62
   257
176
     1
 40
1.0
176
     1
 90
        1
176
     1
 90
        6
176
     1
 90
        2
176
     1
 62
     7
176
     1
 90
        5
176
     1
 90
        0
176
     1
 90
        0
176
     1
290
     0
176
     1
 90
       13
176
     1
 40
0.0
176
     1
 90
        0
176
     1
290
     0
176
     1
290
     1
176
     1
290
     1
176
     1
290
     0
176
     1
290
     0
176
     1
290
     0
176
     1
290
     0
176
     1
290
     0
176
     1
290
     0
176
     1
 90
       50
176
     1
 40
0.0
176
     1
 40
1.0
176
     1
 90
        0
176
     1
 62
    18
420
        0
176
     1
 90
       50
176
     1
 90
        3
176
     1
 62
     5
420
      255
176
     1
290
     0
176
     1
 90
       50
176
     1
 90
       50
176
     1
 90
       50
176
     1
290
     0
176
     1
 90
       50
176
     1
 62
   256
176
     0
 40
1.0
176
     0
 90
        2
176
     1
  1
strokes_ogs.tif
176
     1
290
     0
176
     1
 40
1.0
176
     1
 40
1.0
176
     1
  0
VISUALSTYLE
  5
2D
102
{ACAD_REACTORS
330
2A
102
}
330
2A
100
AcDbVisualStyle
  2
Gouraud
 70
     2
177
     3
291
     1
 70
    58
 90
        2
176
     1
 90
        2
176
     1
 90
        1
176
     1
 90
        2
176
     1
 40
0.6
176
     1
 40
30.0
176
     1
 62
     7
420
 16777215
176
     1
 90
        0
176
     1
 90
        0
176
     1
 62
     7
176
     1
 62
   257
176
     1
 90
        1
176
     1
 90
        1
176
     1
 40
1.0
176
     1
 90
        0
176
     1
 62
     7
176
     1
 40
1.0
176
     1
 90
        1
176
     1
 90
        6
176
     1
 90
        2
176
     1
 62
     7
176
     1
 90
        5
176
     1
 90
        0
176
     1
 90
        0
176
     1
290
     0
176
     1
 90
       13
176
     1
 40
0.0
176
     1
 90
        0
176
     1
290
     0
176
     1
290
     1
176
     1
290
     1
176
     1
290
     0
176
     1
290
     0
176
     1
290
     0
176
     1
290
     0
176
     1
290
     0
176
     1
290
     0
176
     1
 90
       50
176
     1
 40
0.0
176
     1
 40
1.0
176
     1
 90
        0
176
     1
 62
    18
420
        0
176
     1
 90
       50
176
     1
 90
        3
176
     1
 62
     5
420
      255
176
     1
290
     0
176
     1
 90
       50
176
     1
 90
       50
176
     1
 90
       50
176
     1
290
     0
176
     1
 90
       50
176
     1
 62
   256
176
     0
 40
1.0
176
     0
 90
        2
176
     1
  1
strokes_ogs.tif
176
     1
290
     0
176
     1
 40
1.0
176
     1
 40
1.0
176
     1
  0
VISUALSTYLE
  5
2E
102
{ACAD_REACTORS
330
2A
102
}
330
2A
100
AcDbVisualStyle
  2
GouraudWithEdges
 70
     3
177
     3
291
     1
 70
    58
 90
        2
176
     1
 90
        2
176
     1
 90
        1
176
     1
 90
        2
176
     1
 40
0.6
176
     1
 40
30.0
176
     1
 62
     7
420
 16777215
176
     1
 90
        1
176
     1
 90
        0
176
     1
 62
     7
176
     1
 62
   257
176
     1
 90
        1
176
     1
 90
        1
176
     1
 40
1.0
176
     1
 90
        0
176
     1
 62
   257
176
     1
 40
1.0
176
     1
 90
        1
176
     1
 90
        6
176
     1
 90
        2
176
     1
 62
     7
176
     1
 90
        5
176
     1
 90
        0
176
     1
 90
        0
176
     1
290
     0
176
     1
 90
       13
176
     1
 40
0.0
176
     1
 90
        0
176
     1
290
     0
176
     1
290
     1
176
     1
290
     1
176
     1
290
     0
176
     1
290
     0
176
     1
290
     0
176
     1
290
     0
176
     1
290
     0
176
     1
290
     0
176
     1
 90
       50
176
     1
 40
0.0
176
     1
 40
1.0
176
     1
 90
        0
176
     1
 62
    18
420
        0
176
     1
 90
       50
176
     1
 90
        3
176
     1
 62
     5
420
      255
176
     1
290
     0
176
     1
 90
       50
176
     1
 90
       50
176
     1
 90
       50
176
     1
290
     0
176
     1
 90
       50
176
     1
 62
   256
176
     0
 40
1.0
176
     0
 90
        2
176
     1
  1
strokes_ogs.tif
176
     1
290
     0
176
     1
 40
1.0
176
     1
 40
1.0
176
     1
  0
VISUALSTYLE
  5
31
102
{ACAD_REACTORS
330
2A
102
}
330
2A
100
AcDbVisualStyle
  2
Hidden
 70
     6
177
     3
291
     0
 70
    58
 90
        1
176
     1
 90
        2
176
     1
 90
        2
176
     1
 90
        0
176
     1
 40
0.6
176
     1
 40
30.0
176
     1
 62
     7
420
 16777215
176
     1
 90
        2
176
     1
 90
        2
176
     1
 62
     7
176
     1
 62
   257
176
     1
 90
        2
176
     1
 90
        1
176
     1
 40
40.0
176
     1
 90
        0
176
     1
 62
   257
176
     1
 40
1.0
176
     1
 90
        1
176
     1
 90
        6
176
     1
 90
        2
176
     1
 62
     7
176
     1
 90
        3
176
     1
 90
        0
176
     1
 90
        0
176
     1
290
     0
176
     1
 90
        1
176
     1
 40
0.0
176
     1
 90
        0
176
     1
290
     0
176
     1
290
     1
176
     1
290
     1
176
     1
290
     0
176
     1
290
     0
176
     1
290
     0
176
     1
290
     0
176
     1
290
     0
176
     1
290
     0
176
     1
 90
       50
176
     1
 40
0.0
176
     1
 40
1.0
176
     1
 90
        0
176
     1
 62
    18
420
        0
176
     1
 90
       50
176
     1
 90
        3
176
     1
 62
     5
420
      255
176
     1
290
     0
176
     1
 90
       50
176
     1
 90
       50
176
     1
 90
       50
176
     1
290
     0
176
     1
 90
       50
176
     1
 62
   256
176
     0
 40
1.0
176
     0
 90
        2
176
     1
  1
strokes_ogs.tif
176
     1
290
     0
176
     1
 40
1.0
176
     1
 40
1.0
176
     1
  0
VISUALSTYLE
  5
3B
102
{ACAD_REACTORS
330
2A
102
}
330
2A
100
AcDbVisualStyle
  2
JitterOff
 70
    20
177
     3
291
     1
 70
    58
 90
        2
176
     0
 90
        2
176
     0
 90
        0
176
     0
 90
        0
176
     0
 40
0.6
176
     0
 40
30.0
176
     0
 62
     7
420
 16777215
176
     0
 90
        1
176
     0
 90
        4
176
     0
 62
     7
176
     0
 62
   257
176
     0
 90
        1
176
     0
 90
        1
176
     0
 40
1.0
176
     0
 90
       10
176
     2
 62
     7
176
     0
 40
1.0
176
     0
 90
        1
176
     0
 90
        6
176
     0
 90
        2
176
     0
 62
     7
176
     0
 90
        5
176
     0
 90
        0
176
     0
 90
        0
176
     0
290
     0
176
     0
 90
        1
176
     0
 40
0.0
176
     0
 90
        0
176
     0
290
     0
176
     0
290
     1
176
     0
290
     1
176
     0
290
     0
176
     0
290
     0
176
     0
290
     0
176
     0
290
     0
176
     0
290
     0
176
     0
290
     0
176
     0
 90
       50
176
     0
 40
0.0
176
     0
 40
1.0
176
     0
 90
        0
176
     0
 62
    18
420
        0
176
     0
 90
       50
176
     0
 90
        3
176
     0
 62
     5
420
      255
176
     0
290
     0
176
     0
 90
       50
176
     0
 90
       50
176
     0
 90
       50
176
     0
290
     0
176
     0
 90
       50
176
     0
 62
   256
176
     0
 40
1.0
176
     0
 90
        2
176
     0
  1
strokes_ogs.tif
176
     0
290
     0
176
     0
 40
1.0
176
     0
 40
1.0
176
     0
  0
VISUALSTYLE
  5
38
102
{ACAD_REACTORS
330
2A
102
}
330
2A
100
AcDbVisualStyle
  2
Linepattern
 70
    14
177
     3
291
     1
 70
    58
 90
        2
176
     1
 90
        2
176
     1
 90
        0
176
     1
 90
        0
176
     1
 40
0.6
176
     1
 40
30.0
176
     1
 62
     7
420
 16777215
176
     1
 90
        1
176
     1
 90
        4
176
     1
 62
     7
176
     1
 62
   257
176
     1
 90
        7
176
     1
 90
        7
176
     1
 40
1.0
176
     1
 90
        8
176
     1
 62
     7
176
     1
 40
1.0
176
     1
 90
        1
176
     1
 90
        6
176
     1
 90
        2
176
     1
 62
     7
176
     1
 90
        5
176
     1
 90
        0
176
     1
 90
        0
176
     1
290
     0
176
     1
 90
        1
176
     1
 40
0.0
176
     1
 90
        0
176
     1
290
     0
176
     1
290
     1
176
     1
290
     1
176
     1
290
     0
176
     1
290
     0
176
     1
290
     0
176
     1
290
     0
176
     1
290
     0
176
     1
290
     0
176
     1
 90
       50
176
     1
 40
0.0
176
     1
 40
1.0
176
     1
 90
        0
176
     1
 62
    18
420
        0
176
     1
 90
       50
176
     1
 90
        3
176
     1
 62
     5
420
      255
176
     1
290
     0
176
     1
 90
       50
176
     1
 90
       50
176
     1
 90
       50
176
     1
290
     0
176
     1
 90
       50
176
     1
 62
   256
176
     0
 40
1.0
176
     0
 90
        2
176
     1
  1
strokes_ogs.tif
176
     1
290
     0
176
     1
 40
1.0
176
     1
 40
1.0
176
     1
  0
VISUALSTYLE
  5
3C
102
{ACAD_REACTORS
330
2A
102
}
330
2A
100
AcDbVisualStyle
  2
OverhangOff
 70
    21
177
     3
291
     1
 70
    58
 90
        2
176
     0
 90
        2
176
     0
 90
        0
176
     0
 90
        0
176
     0
 40
0.6
176
     0
 40
30.0
176
     0
 62
     7
420
 16777215
176
     0
 90
        1
176
     0
 90
        4
176
     0
 62
     7
176
     0
 62
   257
176
     0
 90
        1
176
     0
 90
        1
176
     0
 40
1.0
176
     0
 90
        9
176
     2
 62
     7
176
     0
 40
1.0
176
     0
 90
        1
176
     0
 90
        6
176
     0
 90
        2
176
     0
 62
     7
176
     0
 90
        5
176
     0
 90
        0
176
     0
 90
        0
176
     0
290
     0
176
     0
 90
        1
176
     0
 40
0.0
176
     0
 90
        0
176
     0
290
     0
176
     0
290
     1
176
     0
290
     1
176
     0
290
     0
176
     0
290
     0
176
     0
290
     0
176
     0
290
     0
176
     0
290
     0
176
     0
290
     0
176
     0
 90
       50
176
     0
 40
0.0
176
     0
 40
1.0
176
     0
 90
        0
176
     0
 62
    18
420
        0
176
     0
 90
       50
176
     0
 90
        3
176
     0
 62
     5
420
      255
176
     0
290
     0
176
     0
 90
       50
176
     0
 90
       50
176
     0
 90
       50
176
     0
290
     0
176
     0
 90
       50
176
     0
 62
   256
176
     0
 40
1.0
176
     0
 90
        2
176
     0
  1
strokes_ogs.tif
176
     0
290
     0
176
     0
 40
1.0
176
     0
 40
1.0
176
     0
  0
VISUALSTYLE
  5
33
102
{ACAD_REACTORS
330
2A
102
}
330
2A
100
AcDbVisualStyle
  2
Realistic
 70
     8
177
     3
291
     0
 70
    58
 90
        2
176
     1
 90
        3
176
     1
 90
        0
176
     1
 90
        2
176
     1
 40
0.6
176
     1
 40
30.0
176
     1
 62
     7
420
 16777215
176
     1
 90
        0
176
     1
 90
        0
176
     1
 62
     7
176
     1
 62
   257
176
     1
 90
        1
176
     1
 90
        1
176
     1
 40
1.0
176
     1
 90
        8
176
     1
 62
   257
176
     1
 40
1.0
176
     1
 90
        1
176
     1
 90
        6
176
     1
 90
        2
176
     1
 62
     7
176
     1
 90
        3
176
     1
 90
        0
176
     1
 90
        0
176
     1
290
     0
176
     1
 90
       13
176
     1
 40
0.0
176
     1
 90
        0
176
     1
290
     0
176
     1
290
     1
176
     1
290
     1
176
     1
290
     0
176
     1
290
     0
176
     1
290
     0
176
     1
290
     0
176
     1
290
     0
176
     1
290
     0
176
     1
 90
       50
176
     1
 40
0.0
176
     1
 40
1.0
176
     1
 90
        0
176
     1
 62
    18
420
        0
176
     1
 90
       50
176
     1
 90
        3
176
     1
 62
     5
420
      255
176
     1
290
     0
176
     1
 90
       50
176
     1
 90
       50
176
     1
 90
       50
176
     1
290
     0
176
     1
 90
       50
176
     1
 62
   256
176
     0
 40
1.0
176
     0
 90
        2
176
     1
  1
strokes_ogs.tif
176
     1
290
     0
176
     1
 40
1.0
176
     1
 40
1.0
176
     1
  0
VISUALSTYLE
  5
42
102
{ACAD_REACTORS
330
2A
102
}
330
2A
100
AcDbVisualStyle
  2
Shaded
 70
    27
177
     3
291
     0
 70
    58
 90
        2
176
     1
 90
        2
176
     1
 90
        1
176
     1
 90
        2
176
     1
 40
0.6
176
     1
 40
30.0
176
     1
 62
     7
420
 16777215
176
     1
 90
        0
176
     1
 90
        4
176
     1
 62
     7
176
     1
 62
   257
176
     1
 90
        1
176
     1
 90
        1
176
     1
 40
1.0
176
     1
 90
        8
176
     1
 62
   257
176
     1
 40
1.0
176
     1
 90
        1
176
     1
 90
        6
176
     1
 90
        2
176
     1
 62
     8
420
  7895160
176
     1
 90
        3
176
     1
 90
        0
176
     1
 90
        0
176
     1
290
     0
176
     1
 90
        5
176
     1
 40
0.0
176
     1
 90
        0
176
     1
290
     0
176
     1
290
     1
176
     1
290
     1
176
     1
290
     0
176
     1
290
     0
176
     1
290
     0
176
     1
290
     0
176
     1
290
     0
176
     1
290
     0
176
     1
 90
       50
176
     1
 40
0.0
176
     1
 40
1.0
176
     1
 90
        0
176
     1
 62
    18
420
        0
176
     1
 90
       50
176
     1
 90
        3
176
     1
 62
     5
420
      255
176
     1
290
     0
176
     1
 90
       50
176
     1
 90
       50
176
     1
 90
       50
176
     1
290
     0
176
     1
 90
       50
176
     1
 62
   256
176
     0
 40
1.0
176
     0
 90
        2
176
     1
  1
strokes_ogs.tif
176
     1
290
     0
176
     1
 40
1.0
176
     1
 40
1.0
176
     1
  0
VISUALSTYLE
  5
41
102
{ACAD_REACTORS
330
2A
102
}
330
2A
100
AcDbVisualStyle
  2
Shaded with edges
 70
    26
177
     3
291
     0
 70
    58
 90
        2
176
     1
 90
        2
176
     1
 90
        1
176
     1
 90
        2
176
     1
 40
0.6
176
     1
 40
30.0
176
     1
 62
     7
420
 16777215
176
     1
 90
        1
176
     1
 90
       10
176
     1
 62
     7
176
     1
 62
   257
176
     1
 90
        2
176
     1
 90
        1
176
     1
 40
1.0
176
     1
 90
        8
176
     1
 62
   257
176
     1
 40
1.0
176
     1
 90
        1
176
     1
 90
        6
176
     1
 90
        2
176
     1
 62
     7
176
     1
 90
        3
176
     1
 90
        0
176
     1
 90
        0
176
     1
290
     0
176
     1
 90
        5
176
     1
 40
0.0
176
     1
 90
        0
176
     1
290
     0
176
     1
290
     1
176
     1
290
     1
176
     1
290
     0
176
     1
290
     0
176
     1
290
     0
176
     1
290
     0
176
     1
290
     0
176
     1
290
     0
176
     1
 90
       50
176
     1
 40
0.0
176
     1
 40
1.0
176
     1
 90
        0
176
     1
 62
    18
420
        0
176
     1
 90
       50
176
     1
 90
        3
176
     1
 62
     5
420
      255
176
     1
290
     0
176
     1
 90
       50
176
     1
 90
       50
176
     1
 90
       50
176
     1
290
     0
176
     1
 90
       50
176
     1
 62
   256
176
     0
 40
1.0
176
     0
 90
        2
176
     1
  1
strokes_ogs.tif
176
     1
290
     0
176
     1
 40
1.0
176
     1
 40
1.0
176
     1
  0
VISUALSTYLE
  5
3E
102
{ACAD_REACTORS
330
2A
102
}
330
2A
100
AcDbVisualStyle
  2
Shades of Gray
 70
    23
177
     3
291
     0
 70
    58
 90
        2
176
     1
 90
        2
176
     1
 90
        3
176
     1
 90
        0
176
     1
 40
0.6
176
     1
 40
30.0
176
     1
 62
     7
420
 16777215
176
     1
 90
        2
176
     1
 90
        2
176
     1
 62
     7
176
     1
 62
     7
176
     1
 90
        1
176
     1
 90
        1
176
     1
 40
40.0
176
     1
 90
        8
176
     1
 62
     7
176
     1
 40
1.0
176
     1
 90
        1
176
     1
 90
        6
176
     1
 90
        2
176
     1
 62
     7
176
     1
 90
        3
176
     1
 90
        0
176
     1
 90
        0
176
     1
290
     0
176
     1
 90
        1
176
     1
 40
0.0
176
     1
 90
        0
176
     1
290
     0
176
     1
290
     1
176
     1
290
     1
176
     1
290
     0
176
     1
290
     0
176
     1
290
     0
176
     1
290
     0
176
     1
290
     0
176
     1
290
     0
176
     1
 90
       50
176
     1
 40
0.0
176
     1
 40
1.0
176
     1
 90
        0
176
     1
 62
    18
420
        0
176
     1
 90
       50
176
     1
 90
        3
176
     1
 62
     5
420
      255
176
     1
290
     0
176
     1
 90
       50
176
     1
 90
       50
176
     1
 90
       50
176
     1
290
     0
176
     1
 90
       50
176
     1
 62
   256
176
     0
 40
1.0
176
     0
 90
        2
176
     1
  1
strokes_ogs.tif
176
     1
290
     0
176
     1
 40
1.0
176
     1
 40
1.0
176
     1
  0
VISUALSTYLE
  5
3F
102
{ACAD_REACTORS
330
2A
102
}
330
2A
100
AcDbVisualStyle
  2
Sketchy
 70
    24
177
     3
291
     0
 70
    58
 90
        1
176
     1
 90
        2
176
     1
 90
        2
176
     1
 90
        0
176
     1
 40
0.6
176
     1
 40
30.0
176
     1
 62
     7
420
 16777215
176
     1
 90
        2
176
     1
 90
        2
176
     1
 62
     7
176
     1
 62
     7
176
     1
 90
        1
176
     1
 90
        1
176
     1
 40
40.0
176
     1
 90
       11
176
     1
 62
     7
176
     1
 40
1.0
176
     1
 90
        1
176
     1
 90
        6
176
     1
 90
        2
176
     1
 62
     7
176
     1
 90
        6
176
     1
 90
        0
176
     1
 90
        0
176
     1
290
     0
176
     1
 90
        1
176
     1
 40
0.0
176
     1
 90
        0
176
     1
290
     0
176
     1
290
     1
176
     1
290
     1
176
     1
290
     0
176
     1
290
     0
176
     1
290
     0
176
     1
290
     0
176
     1
290
     0
176
     1
290
     0
176
     1
 90
       50
176
     1
 40
0.0
176
     1
 40
1.0
176
     1
 90
        0
176
     1
 62
    18
420
        0
176
     1
 90
       50
176
     1
 90
        3
176
     1
 62
     5
420
      255
176
     1
290
     0
176
     1
 90
       50
176
     1
 90
       50
176
     1
 90
       50
176
     1
290
     0
176
     1
 90
       50
176
     1
 62
   256
176
     0
 40
1.0
176
     0
 90
        2
176
     1
  1
strokes_ogs.tif
176
     1
290
     0
176
     1
 40
1.0
176
     1
 40
1.0
176
     1
  0
VISUALSTYLE
  5
37
102
{ACAD_REACTORS
330
2A
102
}
330
2A
100
AcDbVisualStyle
  2
Thicken
 70
    13
177
     3
291
     1
 70
    58
 90
        2
176
     1
 90
        2
176
     1
 90
        0
176
     1
 90
        0
176
     1
 40
0.6
176
     1
 40
30.0
176
     1
 62
     7
420
 16777215
176
     1
 90
        1
176
     1
 90
        4
176
     1
 62
     7
176
     1
 62
   257
176
     1
 90
        1
176
     1
 90
        1
176
     1
 40
1.0
176
     1
 90
       12
176
     1
 62
     7
176
     1
 40
1.0
176
     1
 90
        1
176
     1
 90
        6
176
     1
 90
        2
176
     1
 62
     7
176
     1
 90
        5
176
     1
 90
        0
176
     1
 90
        0
176
     1
290
     0
176
     1
 90
        1
176
     1
 40
0.0
176
     1
 90
        0
176
     1
290
     0
176
     1
290
     1
176
     1
290
     1
176
     1
290
     0
176
     1
290
     0
176
     1
290
     0
176
     1
290
     0
176
     1
290
     0
176
     1
290
     0
176
     1
 90
       50
176
     1
 40
0.0
176
     1
 40
1.0
176
     1
 90
        0
176
     1
 62
    18
420
        0
176
     1
 90
       50
176
     1
 90
        3
176
     1
 62
     5
420
      255
176
     1
290
     0
176
     1
 90
       50
176
     1
 90
       50
176
     1
 90
       50
176
     1
290
     0
176
     1
 90
       50
176
     1
 62
   256
176
     0
 40
1.0
176
     0
 90
        2
176
     1
  1
strokes_ogs.tif
176
     1
290
     0
176
     1
 40
1.0
176
     1
 40
1.0
176
     1
  0
VISUALSTYLE
  5
30
102
{ACAD_REACTORS
330
2A
102
}
330
2A
100
AcDbVisualStyle
  2
Wireframe
 70
     5
177
     3
291
     0
 70
    58
 90
        0
176
     1
 90
        2
176
     1
 90
        0
176
     1
 90
        0
176
     1
 40
0.6
176
     1
 40
30.0
176
     1
 62
     7
420
 16777215
176
     1
 90
        1
176
     1
 90
        4
176
     1
 62
     7
176
     1
 62
   257
176
     1
 90
        1
176
     1
 90
        1
176
     1
 40
1.0
176
     1
 90
        0
176
     1
 62
   257
176
     1
 40
1.0
176
     1
 90
        1
176
     1
 90
        6
176
     1
 90
        2
176
     1
 62
     7
176
     1
 90
        3
176
     1
 90
        0
176
     1
 90
        0
176
     1
290
     0
176
     1
 90
        1
176
     1
 40
0.0
176
     1
 90
        0
176
     1
290
     0
176
     1
290
     1
176
     1
290
     1
176
     1
290
     0
176
     1
290
     0
176
     1
290
     0
176
     1
290
     0
176
     1
290
     0
176
     1
290
     0
176
     1
 90
       50
176
     1
 40
0.0
176
     1
 40
1.0
176
     1
 90
        0
176
     1
 62
    18
420
        0
176
     1
 90
       50
176
     1
 90
        3
176
     1
 62
     5
420
      255
176
     1
290
     0
176
     1
 90
       50
176
     1
 90
       50
176
     1
 90
       50
176
     1
290
     0
176
     1
 90
       50
176
     1
 62
   256
176
     0
 40
1.0
176
     0
 90
        2
176
     1
  1
strokes_ogs.tif
176
     1
290
     0
176
     1
 40
1.0
176
     1
 40
1.0
176
     1
  0
VISUALSTYLE
  5
40
102
{ACAD_REACTORS
330
2A
102
}
330
2A
100
AcDbVisualStyle
  2
X-Ray
 70
    25
177
     3
291
     0
 70
    58
 90
        2
176
     1
 90
        2
176
     1
 90
        1
176
     1
 90
        1
176
     1
 40
0.5
176
     1
 40
30.0
176
     1
 62
     7
420
 16777215
176
     1
 90
        1
176
     1
 90
        0
176
     1
 62
     7
176
     1
 62
   257
176
     1
 90
        1
176
     1
 90
        1
176
     1
 40
1.0
176
     1
 90
        8
176
     1
 62
     7
176
     1
 40
1.0
176
     1
 90
        1
176
     1
 90
        6
176
     1
 90
        2
176
     1
 62
     7
176
     1
 90
        3
176
     1
 90
        0
176
     1
 90
        0
176
     1
290
     0
176
     1
 90
       13
176
     1
 40
0.0
176
     1
 90
        0
176
     1
290
     0
176
     1
290
     1
176
     1
290
     1
176
     1
290
     0
176
     1
290
     0
176
     1
290
     0
176
     1
290
     0
176
     1
290
     0
176
     1
290
     0
176
     1
 90
       50
176
     1
 40
0.0
176
     1
 40
1.0
176
     1
 90
        0
176
     1
 62
    18
420
        0
176
     1
 90
       50
176
     1
 90
        3
176
     1
 62
     5
420
      255
176
     1
290
     0
176
     1
 90
       50
176
     1
 90
       50
176
     1
 90
       50
176
     1
290
     0
176
     1
 90
       50
176
     1
 62
   256
176
     0
 40
1.0
176
     0
 90
        2
176
     1
  1
strokes_ogs.tif
176
     1
290
     0
176
     1
 40
1.0
176
     1
 40
1.0
176
     1
  0
DICTIONARYVAR
  5
129
102
{ACAD_REACTORS
330
128
102
}
330
128
100
DictionaryVariables
280
     0
  1
1:1
  0
DICTIONARYVAR
  5
12E
102
{ACAD_REACTORS
330
128
102
}
330
128
100
DictionaryVariables
280
     0
  1
Standard
  0
DICTIONARYVAR
  5
12D
102
{ACAD_REACTORS
330
128
102
}
330
128
100
DictionaryVariables
280
     0
  1
Standard
  0
DICTIONARY
  5
12A
330
6A
100
AcDbDictionary
280
     1
281
     1
  3
ACAD_ROUNDTRIP_2008_TABLESTYLE_CELLSTYLEMAP
360
12B
  0
CELLSTYLEMAP
  5
12B
102
{ACAD_REACTORS
330
12A
102
}
330
12A
100
AcDbCellStyleMap
 90
        3
300
CELLSTYLE
  1
TABLEFORMAT_BEGIN
 90
        5
170
     1
 91
        0
 92
    32768
 62
   257
 93
        1
300
CONTENTFORMAT
  1
CONTENTFORMAT_BEGIN
 90
        0
 91
        0
 92
        4
 93
        0
300

 40
0.0
140
1.0
 94
        5
 62
     0
340
11
144
6.0
309
CONTENTFORMAT_END
171
     1
301
MARGIN
  1
CELLMARGIN_BEGIN
 40
1.5
 40
1.5
 40
1.5
 40
1.5
 40
1.5
 40
1.5
309
CELLMARGIN_END
 94
        6
 95
        1
302
GRIDFORMAT
  1
GRIDFORMAT_BEGIN
 90
        0
 91
        1
 62
     0
 92
       -2
340
14
 93
        0
 40
0.045
309
GRIDFORMAT_END
 95
        2
302
GRIDFORMAT
  1
GRIDFORMAT_BEGIN
 90
        0
 91
        1
 62
     0
 92
       -2
340
14
 93
        0
 40
0.045
309
GRIDFORMAT_END
 95
        4
302
GRIDFORMAT
  1
GRIDFORMAT_BEGIN
 90
        0
 91
        1
 62
     0
 92
       -2
340
14
 93
        0
 40
0.045
309
GRIDFORMAT_END
 95
        8
302
GRIDFORMAT
  1
GRIDFORMAT_BEGIN
 90
        0
 91
        1
 62
     0
 92
       -2
340
14
 93
        0
 40
0.045
309
GRIDFORMAT_END
 95
       16
302
GRIDFORMAT
  1
GRIDFORMAT_BEGIN
 90
        0
 91
        1
 62
     0
 92
       -2
340
14
 93
        0
 40
0.045
309
GRIDFORMAT_END
 95
       32
302
GRIDFORMAT
  1
GRIDFORMAT_BEGIN
 90
        0
 91
        1
 62
     0
 92
       -2
340
14
 93
        0
 40
0.045
309
GRIDFORMAT_END
309
TABLEFORMAT_END
  1
CELLSTYLE_BEGIN
 90
        1
 91
        1
300
_TITLE
309
CELLSTYLE_END
300
CELLSTYLE
  1
TABLEFORMAT_BEGIN
 90
        5
170
     1
 91
        0
 92
        0
 62
   257
 93
        1
300
CONTENTFORMAT
  1
CONTENTFORMAT_BEGIN
 90
        0
 91
        0
 92
        4
 93
        0
300

 40
0.0
140
1.0
 94
        5
 62
     0
340
11
144
4.5
309
CONTENTFORMAT_END
171
     1
301
MARGIN
  1
CELLMARGIN_BEGIN
 40
1.5
 40
1.5
 40
1.5
 40
1.5
 40
1.5
 40
1.5
309
CELLMARGIN_END
 94
        6
 95
        1
302
GRIDFORMAT
  1
GRIDFORMAT_BEGIN
 90
        0
 91
        1
 62
     0
 92
       -2
340
14
 93
        0
 40
0.045
309
GRIDFORMAT_END
 95
        2
302
GRIDFORMAT
  1
GRIDFORMAT_BEGIN
 90
        0
 91
        1
 62
     0
 92
       -2
340
14
 93
        0
 40
0.045
309
GRIDFORMAT_END
 95
        4
302
GRIDFORMAT
  1
GRIDFORMAT_BEGIN
 90
        0
 91
        1
 62
     0
 92
       -2
340
14
 93
        0
 40
0.045
309
GRIDFORMAT_END
 95
        8
302
GRIDFORMAT
  1
GRIDFORMAT_BEGIN
 90
        0
 91
        1
 62
     0
 92
       -2
340
14
 93
        0
 40
0.045
309
GRIDFORMAT_END
 95
       16
302
GRIDFORMAT
  1
GRIDFORMAT_BEGIN
 90
        0
 91
        1
 62
     0
 92
       -2
340
14
 93
        0
 40
0.045
309
GRIDFORMAT_END
 95
       32
302
GRIDFORMAT
  1
GRIDFORMAT_BEGIN
 90
        0
 91
        1
 62
     0
 92
       -2
340
14
 93
        0
 40
0.045
309
GRIDFORMAT_END
309
TABLEFORMAT_END
  1
CELLSTYLE_BEGIN
 90
        2
 91
        1
300
_HEADER
309
CELLSTYLE_END
300
CELLSTYLE
  1
TABLEFORMAT_BEGIN
 90
        5
170
     1
 91
        0
 92
        0
 62
   257
 93
        1
300
CONTENTFORMAT
  1
CONTENTFORMAT_BEGIN
 90
        0
 91
        0
 92
        4
 93
        0
300

 40
0.0
140
1.0
 94
        2
 62
     0
340
11
144
4.5
309
CONTENTFORMAT_END
171
     1
301
MARGIN
  1
CELLMARGIN_BEGIN
 40
1.5
 40
1.5
 40
1.5
 40
1.5
 40
1.5
 40
1.5
309
CELLMARGIN_END
 94
        6
 95
        1
302
GRIDFORMAT
  1
GRIDFORMAT_BEGIN
 90
        0
 91
        1
 62
     0
 92
       -2
340
14
 93
        0
 40
0.045
309
GRIDFORMAT_END
 95
        2
302
GRIDFORMAT
  1
GRIDFORMAT_BEGIN
 90
        0
 91
        1
 62
     0
 92
       -2
340
14
 93
        0
 40
0.045
309
GRIDFORMAT_END
 95
        4
302
GRIDFORMAT
  1
GRIDFORMAT_BEGIN
 90
        0
 91
        1
 62
     0
 92
       -2
340
14
 93
        0
 40
0.045
309
GRIDFORMAT_END
 95
        8
302
GRIDFORMAT
  1
GRIDFORMAT_BEGIN
 90
        0
 91
        1
 62
     0
 92
       -2
340
14
 93
        0
 40
0.045
309
GRIDFORMAT_END
 95
       16
302
GRIDFORMAT
  1
GRIDFORMAT_BEGIN
 90
        0
 91
        1
 62
     0
 92
       -2
340
14
 93
        0
 40
0.045
309
GRIDFORMAT_END
 95
       32
302
GRIDFORMAT
  1
GRIDFORMAT_BEGIN
 90
        0
 91
        1
 62
     0
 92
       -2
340
14
 93
        0
 40
0.045
309
GRIDFORMAT_END
309
TABLEFORMAT_END
  1
CELLSTYLE_BEGIN
 90
        3
 91
        2
300
_DATA
309
CELLSTYLE_END
  0
ENDSEC
  0
EOF
