  0
SECTION
  2
HEADER
  9
$ACADVER
  1
AC1027
  9
$ACADMAINTVER
 70
   105
  9
$DWGCODEPAGE
  3
ANSI_1252
  9
$REQUIREDVERSIONS
160
                 0
  9
$INSBASE
 10
0.0
 20
0.0
 30
0.0
  9
$EXTMIN
 10
-321.337851479
 20
-221.3074660611
 30
0.0
  9
$EXTMAX
 10
321.337851479
 20
220.3599767391
 30
0.0
  9
$LIMMIN
 10
0.0
 20
0.0
  9
$LIMMAX
 10
420.0
 20
297.0
  9
$ORTHOMODE
 70
     0
  9
$REGENMODE
 70
     1
  9
$FILLMODE
 70
     1
  9
$QTEXTMODE
 70
     0
  9
$MIRRTEXT
 70
     1
  9
$LTSCALE
 40
1.0
  9
$ATTMODE
 70
     1
  9
$TEXTSIZE
 40
3.5
  9
$TRACEWID
 40
1.0
  9
$TEXTSTYLE
  7
STANDARD
  9
$CLAYER
  8
0
  9
$CELTYPE
  6
ByLayer
  9
$CECOLOR
 62
   256
  9
$CELTSCALE
 40
1.0
  9
$DISPSILH
 70
     0
  9
$DIMSCALE
 40
1.0
  9
$DIMASZ
 40
6.0
  9
$DIMEXO
 40
1.0
  9
$DIMDLI
 40
3.75
  9
$DIMRND
 40
0.0
  9
$DIMDLE
 40
0.0
  9
$DIMEXE
 40
1.0
  9
$DIMTP
 40
0.0
  9
$DIMTM
 40
0.0
  9
$DIMTXT
 40
3.5
  9
$DIMCEN
 40
2.5
  9
$DIMTSZ
 40
0.0
  9
$DIMTOL
 70
     0
  9
$DIMLIM
 70
     0
  9
$DIMTIH
 70
     1
  9
$DIMTOH
 70
     1
  9
$DIMSE1
 70
     0
  9
$DIMSE2
 70
     0
  9
$DIMTAD
 70
     1
  9
$DIMZIN
 70
     0
  9
$DIMBLK
  1

  9
$DIMASO
 70
     1
  9
$DIMSHO
 70
     1
  9
$DIMPOST
  1

  9
$DIMAPOST
  1

  9
$DIMALT
 70
     0
  9
$DIMALTD
 70
     3
  9
$DIMALTF
 40
0.0393700787
  9
$DIMLFAC
 40
1.0
  9
$DIMTOFL
 70
     1
  9
$DIMTVP
 40
0.0
  9
$DIMTIX
 70
     0
  9
$DIMSOXD
 70
     0
  9
$DIMSAH
 70
     0
  9
$DIMBLK1
  1

  9
$DIMBLK2
  1

  9
$DIMSTYLE
  2
ISO-25
  9
$DIMCLRD
 70
     0
  9
$DIMCLRE
 70
     0
  9
$DIMCLRT
 70
     0
  9
$DIMTFAC
 40
1.0
  9
$DIMGAP
 40
1.524
  9
$DIMJUST
 70
     0
  9
$DIMSD1
 70
     0
  9
$DIMSD2
 70
     0
  9
$DIMTOLJ
 70
     0
  9
$DIMTZIN
 70
     0
  9
$DIMALTZ
 70
     0
  9
$DIMALTTZ
 70
     0
  9
$DIMUPT
 70
     0
  9
$DIMDEC
 70
     2
  9
$DIMTDEC
 70
     2
  9
$DIMALTU
 70
     2
  9
$DIMALTTD
 70
     3
  9
$DIMTXSTY
  7
STANDARD
  9
$DIMAUNIT
 70
     0
  9
$DIMADEC
 70
     2
  9
$DIMALTRND
 40
0.0
  9
$DIMAZIN
 70
     0
  9
$DIMDSEP
 70
    44
  9
$DIMATFIT
 70
     3
  9
$DIMFRAC
 70
     0
  9
$DIMLDRBLK
  1

  9
$DIMLUNIT
 70
     2
  9
$DIMLWD
 70
    -2
  9
$DIMLWE
 70
    -2
  9
$DIMTMOVE
 70
     0
  9
$DIMFXL
 40
1.0
  9
$DIMFXLON
 70
     0
  9
$DIMJOGANG
 40
0.7853981634
  9
$DIMTFILL
 70
     0
  9
$DIMTFILLCLR
 70
     0
  9
$DIMARCSYM
 70
     0
  9
$DIMLTYPE
  6

  9
$DIMLTEX1
  6

  9
$DIMLTEX2
  6

  9
$DIMTXTDIRECTION
 70
     0
  9
$LUNITS
 70
     2
  9
$LUPREC
 70
     2
  9
$SKETCHINC
 40
1.0
  9
$FILLETRAD
 40
10.0
  9
$AUNITS
 70
     0
  9
$AUPREC
 70
     2
  9
$MENU
  1
.
  9
$ELEVATION
 40
0.0
  9
$PELEVATION
 40
0.0
  9
$THICKNESS
 40
0.0
  9
$LIMCHECK
 70
     0
  9
$CHAMFERA
 40
0.0
  9
$CHAMFERB
 40
0.0
  9
$CHAMFERC
 40
0.0
  9
$CHAMFERD
 40
0.0
  9
$SKPOLY
 70
     0
  9
$TDCREATE
 40
2458299.430541771
  9
$TDUCREATE
 40
2458299.347208438
  9
$TDUPDATE
 40
2458299.43056875
  9
$TDUUPDATE
 40
2458299.347235417
  9
$TDINDWG
 40
0.0000000116
  9
$TDUSRTIMER
 40
0.0000000116
  9
$USRTIMER
 70
     1
  9
$ANGBASE
 50
0.0
  9
$ANGDIR
 70
     0
  9
$PDMODE
 70
     0
  9
$PDSIZE
 40
-1.0
  9
$PLINEWID
 40
0.0
  9
$SPLFRAME
 70
     0
  9
$SPLINETYPE
 70
     6
  9
$SPLINESEGS
 70
     8
  9
$HANDSEED
  5
109
  9
$SURFTAB1
 70
     6
  9
$SURFTAB2
 70
     6
  9
$SURFTYPE
 70
     6
  9
$SURFU
 70
     6
  9
$SURFV
 70
     6
  9
$UCSBASE
  2

  9
$UCSNAME
  2

  9
$UCSORG
 10
0.0
 20
0.0
 30
0.0
  9
$UCSXDIR
 10
1.0
 20
0.0
 30
0.0
  9
$UCSYDIR
 10
0.0
 20
1.0
 30
0.0
  9
$UCSORTHOREF
  2

  9
$UCSORTHOVIEW
 70
     0
  9
$UCSORGTOP
 10
0.0
 20
0.0
 30
0.0
  9
$UCSORGBOTTOM
 10
0.0
 20
0.0
 30
0.0
  9
$UCSORGLEFT
 10
0.0
 20
0.0
 30
0.0
  9
$UCSORGRIGHT
 10
0.0
 20
0.0
 30
0.0
  9
$UCSORGFRONT
 10
0.0
 20
0.0
 30
0.0
  9
$UCSORGBACK
 10
0.0
 20
0.0
 30
0.0
  9
$PUCSBASE
  2

  9
$PUCSNAME
  2

  9
$PUCSORG
 10
0.0
 20
0.0
 30
0.0
  9
$PUCSXDIR
 10
1.0
 20
0.0
 30
0.0
  9
$PUCSYDIR
 10
0.0
 20
1.0
 30
0.0
  9
$PUCSORTHOREF
  2

  9
$PUCSORTHOVIEW
 70
     0
  9
$PUCSORGTOP
 10
0.0
 20
0.0
 30
0.0
  9
$PUCSORGBOTTOM
 10
0.0
 20
0.0
 30
0.0
  9
$PUCSORGLEFT
 10
0.0
 20
0.0
 30
0.0
  9
$PUCSORGRIGHT
 10
0.0
 20
0.0
 30
0.0
  9
$PUCSORGFRONT
 10
0.0
 20
0.0
 30
0.0
  9
$PUCSORGBACK
 10
0.0
 20
0.0
 30
0.0
  9
$USERI1
 70
     0
  9
$USERI2
 70
     0
  9
$USERI3
 70
     0
  9
$USERI4
 70
     0
  9
$USERI5
 70
     0
  9
$USERR1
 40
0.0
  9
$USERR2
 40
0.0
  9
$USERR3
 40
0.0
  9
$USERR4
 40
0.0
  9
$USERR5
 40
0.0
  9
$WORLDVIEW
 70
     1
  9
$SHADEDGE
 70
     3
  9
$SHADEDIF
 70
    70
  9
$TILEMODE
 70
     1
  9
$MAXACTVP
 70
    64
  9
$PINSBASE
 10
0.0
 20
0.0
 30
0.0
  9
$PLIMCHECK
 70
     0
  9
$PEXTMIN
 10
-321.3380816297
 20
-205.0
 30
0.0
  9
$PEXTMAX
 10
321.3380815552
 20
0.0
 30
0.0
  9
$PLIMMIN
 10
-371.3517908269
 20
-223.755140949
  9
$PLIMMAX
 10
371.3517907525
 20
301.3888056223
  9
$UNITMODE
 70
     0
  9
$VISRETAIN
 70
     1
  9
$PLINEGEN
 70
     0
  9
$PSLTSCALE
 70
     1
  9
$TREEDEPTH
 70
  3020
  9
$CMLSTYLE
  2
Standard
  9
$CMLJUST
 70
     0
  9
$CMLSCALE
 40
20.0
  9
$PROXYGRAPHICS
 70
     1
  9
$MEASUREMENT
 70
     1
  9
$CELWEIGHT
370
    -1
  9
$ENDCAPS
280
     0
  9
$JOINSTYLE
280
     0
  9
$LWDISPLAY
290
     1
  9
$INSUNITS
 70
     4
  9
$HYPERLINKBASE
  1

  9
$STYLESHEET
  1

  9
$XEDIT
290
     1
  9
$CEPSNTYPE
380
     0
  9
$PSTYLEMODE
290
     1
  9
$FINGERPRINTGUID
  2
{AC03F3B0-C9D4-48C9-8359-A7C2826387E4}
  9
$VERSIONGUID
  2
{FAEB1C32-E019-11D5-929B-00C0DF256EC4}
  9
$EXTNAMES
290
     1
  9
$PSVPSCALE
 40
0.0
  9
$OLESTARTUP
290
     0
  9
$SORTENTS
280
   127
  9
$INDEXCTL
280
     0
  9
$HIDETEXT
280
     1
  9
$XCLIPFRAME
280
     2
  9
$HALOGAP
280
     0
  9
$OBSCOLOR
 70
   257
  9
$OBSLTYPE
280
     0
  9
$INTERSECTIONDISPLAY
280
     0
  9
$INTERSECTIONCOLOR
 70
   257
  9
$DIMASSOC
280
     2
  9
$PROJECTNAME
  1

  9
$CAMERADISPLAY
290
     0
  9
$LENSLENGTH
 40
50.0
  9
$CAMERAHEIGHT
 40
0.0
  9
$STEPSPERSEC
 40
2.0
  9
$STEPSIZE
 40
6.0
  9
$3DDWFPREC
 40
2.0
  9
$PSOLWIDTH
 40
5.0
  9
$PSOLHEIGHT
 40
80.0
  9
$LOFTANG1
 40
1.5707963268
  9
$LOFTANG2
 40
1.5707963268
  9
$LOFTMAG1
 40
0.0
  9
$LOFTMAG2
 40
0.0
  9
$LOFTPARAM
 70
     7
  9
$LOFTNORMALS
280
     1
  9
$LATITUDE
 40
37.795
  9
$LONGITUDE
 40
-122.394
  9
$NORTHDIRECTION
 40
0.0
  9
$TIMEZONE
 70
 -8000
  9
$LIGHTGLYPHDISPLAY
280
     1
  9
$TILEMODELIGHTSYNCH
280
     1
  9
$CMATERIAL
347
44
  9
$SOLIDHIST
280
     0
  9
$SHOWHIST
280
     1
  9
$DWFFRAME
280
     2
  9
$DGNFRAME
280
     2
  9
$REALWORLDSCALE
290
     1
  9
$INTERFERECOLOR
 62
   256
  9
$CSHADOW
280
     0
  9
$SHADOWPLANELOCATION
 40
0.0
  0
ENDSEC
  0
SECTION
  2
CLASSES
  0
CLASS
  1
ACDBDICTIONARYWDFLT
  2
AcDbDictionaryWithDefault
  3
ObjectDBX Classes
 90
        0
 91
        4
280
     0
281
     0
  0
CLASS
  1
VISUALSTYLE
  2
AcDbVisualStyle
  3
ObjectDBX Classes
 90
     4095
 91
        4
280
     0
281
     0
  0
CLASS
  1
MATERIAL
  2
AcDbMaterial
  3
ObjectDBX Classes
 90
     1153
 91
        4
280
     0
281
     0
  0
CLASS
  1
SCALE
  2
AcDbScale
  3
ObjectDBX Classes
 90
     1153
 91
        4
280
     0
281
     0
  0
CLASS
  1
TABLESTYLE
  2
AcDbTableStyle
  3
ObjectDBX Classes
 90
     4095
 91
        4
280
     0
281
     0
  0
CLASS
  1
MLEADERSTYLE
  2
AcDbMLeaderStyle
  3
ACDB_MLEADERSTYLE_CLASS
 90
     4095
 91
        4
280
     0
281
     0
  0
CLASS
  1
SUN
  2
AcDbSun
  3
SCENEOE
 90
     1153
 91
        4
280
     0
281
     0
  0
CLASS
  1
DICTIONARYVAR
  2
AcDbDictionaryVar
  3
ObjectDBX Classes
 90
        0
 91
        4
280
     0
281
     0
  0
CLASS
  1
CELLSTYLEMAP
  2
AcDbCellStyleMap
  3
ObjectDBX Classes
 90
     1152
 91
        4
280
     0
281
     0
  0
ENDSEC
  0
SECTION
  2
TABLES
  0
TABLE
  2
VPORT
  5
8
330
0
100
AcDbSymbolTable
 70
     1
  0
VPORT
  5
29
330
8
100
AcDbSymbolTableRecord
100
AcDbViewportTableRecord
  2
*Active
 70
     0
 10
0.0
 20
0.0
 11
1.0
 21
1.0
 12
0.0
 22
-0.473744661
 13
0.0
 23
0.0
 14
10.0
 24
10.0
 15
10.0
 25
10.0
 16
0.0
 26
0.0
 36
1.0
 17
0.0
 27
0.0
 37
0.0
 40
450.5007916562
 41
1.4551122421
 42
50.0
 43
0.0
 44
0.0
 50
0.0
 51
0.0
 71
     0
 72
   100
 73
     1
 74
     3
 75
     0
 76
     0
 77
     0
 78
     0
281
     0
 65
     1
110
0.0
120
0.0
130
0.0
111
1.0
121
0.0
131
0.0
112
0.0
122
1.0
132
0.0
 79
     0
146
0.0
348
2F
 60
     3
 61
     5
292
     1
282
     1
141
0.0
142
0.0
 63
   250
361
6D
  0
ENDTAB
  0
TABLE
  2
LTYPE
  5
5
330
0
100
AcDbSymbolTable
 70
     6
  0
LTYPE
  5
14
330
5
100
AcDbSymbolTableRecord
100
AcDbLinetypeTableRecord
  2
ByBlock
 70
     0
  3

 72
    65
 73
     0
 40
0.0
  0
LTYPE
  5
15
330
5
100
AcDbSymbolTableRecord
100
AcDbLinetypeTableRecord
  2
ByLayer
 70
     0
  3

 72
    65
 73
     0
 40
0.0
  0
LTYPE
  5
16
330
5
100
AcDbSymbolTableRecord
100
AcDbLinetypeTableRecord
  2
Continuous
 70
     0
  3
Solid line
 72
    65
 73
     0
 40
0.0
  0
LTYPE
  5
6E
330
5
100
AcDbSymbolTableRecord
100
AcDbLinetypeTableRecord
  2
HIDDEN
 70
     0
  3
Hidden __ __ __ __ __ __ __ __ __ __ __ __ __ __
 72
    65
 73
     2
 40
1.905
 49
1.27
 74
     0
 49
-0.635
 74
     0
  0
LTYPE
  5
6F
330
5
100
AcDbSymbolTableRecord
100
AcDbLinetypeTableRecord
  2
PHANTOM
 70
     0
  3
Phantom ______  __  __  ______  __  __  ______
 72
    65
 73
     6
 40
12.7
 49
6.35
 74
     0
 49
-1.27
 74
     0
 49
1.27
 74
     0
 49
-1.27
 74
     0
 49
1.27
 74
     0
 49
-1.27
 74
     0
  0
LTYPE
  5
70
330
5
100
AcDbSymbolTableRecord
100
AcDbLinetypeTableRecord
  2
CENTER
 70
     0
  3
Center ____ _ ____ _ ____ _ ____ _ ____ _ ____
 72
    65
 73
     4
 40
10.16
 49
6.35
 74
     0
 49
-1.27
 74
     0
 49
1.27
 74
     0
 49
-1.27
 74
     0
  0
LTYPE
  5
71
330
5
100
AcDbSymbolTableRecord
100
AcDbLinetypeTableRecord
  2
CENTERX2
 70
     0
  3
Center (2x) ________  __  ________  __  _____
 72
    65
 73
     4
 40
20.32
 49
12.7
 74
     0
 49
-2.54
 74
     0
 49
2.54
 74
     0
 49
-2.54
 74
     0
  0
LTYPE
  5
72
330
5
100
AcDbSymbolTableRecord
100
AcDbLinetypeTableRecord
  2
DOT2
 70
     0
  3
Dot (.5x) ........................................
 72
    65
 73
     2
 40
0.635
 49
0.0
 74
     0
 49
-0.635
 74
     0
  0
ENDTAB
  0
TABLE
  2
LAYER
  5
2
330
0
100
AcDbSymbolTable
 70
     1
  0
LAYER
  5
10
330
2
100
AcDbSymbolTableRecord
100
AcDbLayerTableRecord
  2
0
 70
     0
 62
     7
  6
Continuous
370
    -3
390
F
347
46
348
0
  0
ENDTAB
  0
TABLE
  2
STYLE
  5
3
330
0
100
AcDbSymbolTable
 70
     1
  0
STYLE
  5
11
330
3
100
AcDbSymbolTableRecord
100
AcDbTextStyleTableRecord
  2
STANDARD
 70
     0
 40
0.0
 41
1.0
 50
0.0
 71
     0
 42
3.5
  3
GOTHIC.TTF
  4

1001
ACAD
1000
CENTURY GOTHIC
1071
       34
  0
ENDTAB
  0
TABLE
  2
VIEW
  5
6
330
0
100
AcDbSymbolTable
 70
     0
  0
ENDTAB
  0
TABLE
  2
UCS
  5
7
330
0
100
AcDbSymbolTable
 70
     0
  0
ENDTAB
  0
TABLE
  2
APPID
  5
9
330
0
100
AcDbSymbolTable
 70
     1
  0
APPID
  5
12
330
9
100
AcDbSymbolTableRecord
100
AcDbRegAppTableRecord
  2
ACAD
 70
     0
  0
ENDTAB
  0
TABLE
  2
DIMSTYLE
  5
A
330
0
100
AcDbSymbolTable
 70
     1
100
AcDbDimStyleTable
  0
DIMSTYLE
105
27
330
A
100
AcDbSymbolTableRecord
100
AcDbDimStyleTableRecord
  2
ISO-25
 70
     0
 41
2.5
 42
0.625
 43
3.75
 44
1.25
 73
     0
 74
     0
 77
     1
 78
     8
140
2.5
141
2.5
143
0.0393700787
147
0.625
171
     3
172
     1
178
     0
271
     2
272
     2
274
     3
278
    44
283
     0
284
     8
340
11
  0
ENDTAB
  0
TABLE
  2
BLOCK_RECORD
  5
1
330
0
100
AcDbSymbolTable
 70
     8
  0
BLOCK_RECORD
  5
1F
330
1
100
AcDbSymbolTableRecord
100
AcDbBlockTableRecord
  2
*Model_Space
340
22
 70
     0
280
     1
281
     0
  0
BLOCK_RECORD
  5
1B
330
1
100
AcDbSymbolTableRecord
100
AcDbBlockTableRecord
  2
*Paper_Space
340
1E
 70
     0
280
     1
281
     0
  0
BLOCK_RECORD
  5
23
330
1
100
AcDbSymbolTableRecord
100
AcDbBlockTableRecord
  2
*Paper_Space0
340
26
 70
     0
280
     1
281
     0
  0
BLOCK_RECORD
  5
90
330
1
100
AcDbSymbolTableRecord
100
AcDbBlockTableRecord
  2
*Paper_Space1
340
91
 70
     0
280
     1
281
     0
  0
BLOCK_RECORD
  5
9E
330
1
100
AcDbSymbolTableRecord
100
AcDbBlockTableRecord
  2
*Paper_Space2
340
9F
 70
     0
280
     1
281
     0
  0
BLOCK_RECORD
  5
B0
330
1
100
AcDbSymbolTableRecord
100
AcDbBlockTableRecord
  2
*Paper_Space3
340
B1
 70
     0
280
     1
281
     0
  0
BLOCK_RECORD
  5
C3
330
1
100
AcDbSymbolTableRecord
100
AcDbBlockTableRecord
  2
*Paper_Space4
340
C4
 70
     0
280
     1
281
     0
  0
BLOCK_RECORD
  5
D0
330
1
100
AcDbSymbolTableRecord
100
AcDbBlockTableRecord
  2
*Paper_Space5
340
D1
 70
     0
280
     1
281
     0
  0
BLOCK_RECORD
  5
DC
330
1
100
AcDbSymbolTableRecord
100
AcDbBlockTableRecord
  2
*Paper_Space6
340
DD
 70
     0
280
     1
281
     0
  0
BLOCK_RECORD
  5
E7
330
1
100
AcDbSymbolTableRecord
100
AcDbBlockTableRecord
  2
*Paper_Space7
340
E8
 70
     0
280
     1
281
     0
  0
ENDTAB
  0
ENDSEC
  0
SECTION
  2
BLOCKS
  0
BLOCK
  5
20
330
1F
100
AcDbEntity
  8
0
100
AcDbBlockBegin
  2
*Model_Space
 70
     0
 10
0.0
 20
0.0
 30
0.0
  3
*Model_Space
  1

  0
ENDBLK
  5
21
330
1F
100
AcDbEntity
  8
0
100
AcDbBlockEnd
  0
BLOCK
  5
1C
330
1B
100
AcDbEntity
 67
     1
  8
0
100
AcDbBlockBegin
  2
*Paper_Space
 70
     0
 10
0.0
 20
0.0
 30
0.0
  3
*Paper_Space
  1

  0
ENDBLK
  5
1D
330
1B
100
AcDbEntity
 67
     1
  8
0
100
AcDbBlockEnd
  0
BLOCK
  5
24
330
23
100
AcDbEntity
  8
0
100
AcDbBlockBegin
  2
*Paper_Space0
 70
     0
 10
0.0
 20
0.0
 30
0.0
  3
*Paper_Space0
  1

  0
SPLINE
  5
83
330
23
100
AcDbEntity
  8
0
  6
Continuous
 62
     7
370
    25
100
AcDbSpline
210
0.0
220
0.0
230
1.0
 70
     8
 71
     3
 72
    30
 73
    26
 74
     0
 42
0.000000001
 43
0.00000001
 40
0.0
 40
0.0
 40
0.0
 40
0.0
 40
0.0560906990112974
 40
0.1087632243933441
 40
0.1580174261197316
 40
0.2038532948486267
 40
0.2462706102819481
 40
0.2852692746012546
 40
0.3208492390779416
 40
0.353010371405113
 40
0.3817525818706707
 40
0.4070758368590819
 40
0.4291004619565083
 40
0.4523072917817074
 40
0.4847114873227469
 40
0.5220859457382019
 40
0.5644305341015072
 40
0.611744977748279
 40
0.6640289963932924
 40
0.7113967588314216
 40
0.7622156332077282
 40
0.8164855783427336
 40
0.8742063703542041
 40
0.9353778714013298
 40
1.0
 40
1.0
 40
1.0
 40
1.0
 10
-220.0346462077931
 20
0.0000000000000971
 30
0.0
 10
-220.2046188227884
 20
-4.102340310453867
 30
0.0
 10
-220.5342059021316
 20
-12.05702384245795
 30
0.0
 10
-220.2728825453295
 20
-23.6255095806169
 30
0.0
 10
-219.5590131328585
 20
-34.4185232087679
 30
0.0
 10
-218.4455629614247
 20
-44.42340167419066
 30
0.0
 10
-217.0417698128776
 20
-53.63209123746282
 30
0.0
 10
-215.4333746417152
 20
-62.04380091571589
 30
0.0
 10
-213.703159581195
 20
-69.66284112989749
 30
0.0
 10
-211.9249739936786
 20
-76.49737231022233
 30
0.0
 10
-210.1649058721928
 20
-82.55812016000081
 30
0.0
 10
-208.4787796404234
 20
-87.86581555896845
 30
0.0
 10
-206.8082806873622
 20
-92.75196792411847
 30
0.0
 10
-204.858414812713
 20
-98.08902848428272
 30
0.0
 10
-202.3597503260882
 20
-104.4198614259889
 30
0.0
 10
-199.1024197182591
 20
-111.9530248792811
 30
0.0
 10
-195.100318474802
 20
-120.3469490070136
 30
0.0
 10
-190.2446052059917
 20
-129.5338670339521
 30
0.0
 10
-184.7846378761658
 20
-138.8055191243062
 30
0.0
 10
-178.7650069649841
 20
-148.0307269318438
 30
0.0
 10
-172.2482059906804
 20
-157.0920111465972
 30
0.0
 10
-164.8296096375465
 20
-166.4227887416522
 30
0.0
 10
-156.4285171856328
 20
-175.9165576889465
 30
0.0
 10
-147.021758611133
 20
-185.5178071128265
 30
0.0
 10
-140.1087181997631
 20
-191.6015671645833
 30
0.0
 10
-136.5573826692656
 20
-194.7268885781961
 30
0.0
  0
SPLINE
  5
84
330
23
100
AcDbEntity
  8
0
  6
Continuous
 62
     7
370
    25
100
AcDbSpline
210
0.0
220
0.0
230
1.0
 70
     8
 71
     3
 72
    36
 73
    32
 74
     0
 42
0.000000001
 43
0.00000001
 40
0.0
 40
0.0
 40
0.0
 40
0.0
 40
0.0482548653625327
 40
0.0940029279122623
 40
0.1372439327473101
 40
0.1779780255398443
 40
0.2162050892491345
 40
0.2519248876424064
 40
0.2851374289424232
 40
0.3158427075977968
 40
0.3440405854445126
 40
0.3697309658573588
 40
0.3929138402653539
 40
0.4135892091263794
 40
0.4321148411852962
 40
0.4521991008395598
 40
0.4748227803803168
 40
0.4999858051954116
 40
0.5276881631511867
 40
0.5579298549527238
 40
0.5907107643890714
 40
0.6260307227706533
 40
0.6638897420449612
 40
0.6990999694527742
 40
0.7362541458441115
 40
0.7753522084597604
 40
0.8163942650617468
 40
0.859380111393077
 40
0.9043096152474666
 40
0.9511829847236309
 40
1.0
 40
1.0
 40
1.0
 40
1.0
 10
-38.78733996317089
 20
-199.1722690600183
 30
0.0
 10
-33.23575512941724
 20
-198.6601187124145
 30
0.0
 10
-22.42098598633819
 20
-197.6624238303681
 30
0.0
 10
-6.762687011588841
 20
-195.1166798558962
 30
0.0
 10
7.900522029734684
 20
-192.011468755911
 30
0.0
 10
21.55300099032617
 20
-188.4050491822233
 30
0.0
 10
34.19761178850524
 20
-184.4443044614312
 30
0.0
 10
45.84362474335661
 20
-180.2417526853018
 30
0.0
 10
56.50740802524043
 20
-175.906000299281
 30
0.0
 10
66.21122299421755
 20
-171.5367411845833
 30
0.0
 10
74.9808451043275
 20
-167.2239254312684
 30
0.0
 10
82.84430715668634
 20
-163.0481034888321
 30
0.0
 10
89.83071696093211
 20
-159.0808977988165
 30
0.0
 10
96.0050575517278
 20
-155.3648062876619
 30
0.0
 10
101.7911920690804
 20
-151.7015167513629
 30
0.0
 10
107.6817949156663
 20
-147.7855835541717
 30
0.0
 10
114.1021161225531
 20
-143.2854914345422
 30
0.0
 10
121.1024324435534
 20
-138.0849991684165
 30
0.0
 10
128.6307431693192
 20
-132.1265400824289
 30
0.0
 10
136.6271727547738
 20
-125.3503934818755
 30
0.0
 10
145.0225473018619
 20
-117.6947507193256
 30
0.0
 10
153.737318864971
 20
-109.0966358121373
 30
0.0
 10
162.2721068756007
 20
-99.93152198481062
 30
0.0
 10
170.5501578251345
 20
-90.25422750206884
 30
0.0
 10
178.5057918173031
 20
-80.1268572257112
 30
0.0
 10
186.4003173652536
 20
-69.11072176964825
 30
0.0
 10
194.1425494707006
 20
-57.174992308854
 30
0.0
 10
201.6403802917015
 20
-44.29660804366243
 30
0.0
 10
208.7680243113028
 20
-30.44923011594205
 30
0.0
 10
215.4891315907228
 20
-15.6492342899973
 30
0.0
 10
219.3419354626609
 20
-5.286572931527941
 30
0.0
 10
221.3074661265793
 20
0.0000000000000139
 30
0.0
  0
SPLINE
  5
86
330
23
100
AcDbEntity
  8
0
  6
Continuous
 62
     7
370
    25
100
AcDbSpline
210
0.0
220
0.0
230
1.0
 70
     8
 71
     3
 72
     9
 73
     5
 74
     0
 42
0.000000001
 43
0.00000001
 40
0.0
 40
0.0
 40
0.0
 40
0.0
 40
0.4999999998408983
 40
1.0
 40
1.0
 40
1.0
 40
1.0
 10
-47.00009338839536
 20
-199.6839886978213
 30
0.0
 10
-45.63042386250903
 20
-199.6127819576195
 30
0.0
 10
-42.89108480986469
 20
-199.4703684771704
 30
0.0
 10
-40.15525490791937
 20
-199.2716355319472
 30
0.0
 10
-38.78733995651143
 20
-199.1722690593039
 30
0.0
  0
SPLINE
  5
89
330
23
100
AcDbEntity
  8
0
  6
Continuous
 62
     7
370
    25
100
AcDbSpline
210
0.0
220
0.0
230
1.0
 70
     8
 71
     3
 72
    32
 73
    28
 74
     0
 42
0.000000001
 43
0.00000001
 40
0.0
 40
0.0
 40
0.0
 40
0.0
 40
0.0407720569880827
 40
0.0818149707637829
 40
0.1230833811877425
 40
0.164529123698685
 40
0.20618700274242
 40
0.2480477294630909
 40
0.2900441268322901
 40
0.3389875773386759
 40
0.3873848082177579
 40
0.4346429383626766
 40
0.4803776936352454
 40
0.5242944912319886
 40
0.5660344870716391
 40
0.6051227094584404
 40
0.6416321325799688
 40
0.6763913942488593
 40
0.7102674233597346
 40
0.7440277224648466
 40
0.7781688686996817
 40
0.8200647925914749
 40
0.8631768987197095
 40
0.9074970209487132
 40
0.9532006272243987
 40
0.9999935316156935
 40
1.0
 40
1.0
 40
1.0
 40
1.0
 10
-136.5573826692656
 20
-194.7268885781961
 30
0.0
 10
-136.4551066370861
 20
-194.735624954931
 30
0.0
 10
-136.2498751329448
 20
-194.7531557458687
 30
0.0
 10
-134.6849858095815
 20
-194.8832968221388
 30
0.0
 10
-132.3096986984499
 20
-195.0759494496818
 30
0.0
 10
-129.1133970730622
 20
-195.329455790258
 30
0.0
 10
-125.2140751037059
 20
-195.6306508414138
 30
0.0
 10
-120.6970220117097
 20
-195.9696167518396
 30
0.0
 10
-115.3802487180986
 20
-196.3558302363095
 30
0.0
 10
-109.28308794513
 20
-196.7812898967024
 30
0.0
 10
-102.5100134598782
 20
-197.2340659767522
 30
0.0
 10
-95.55299688153433
 20
-197.678106384634
 30
0.0
 10
-88.5860979946933
 20
-198.0962242775491
 30
0.0
 10
-81.77806337462147
 20
-198.4713409998256
 30
0.0
 10
-75.3029536856526
 20
-198.7868945518061
 30
0.0
 10
-69.31089234529169
 20
-199.0287536809439
 30
0.0
 10
-63.88187104784524
 20
-199.2046063454002
 30
0.0
 10
-59.02688212745168
 20
-199.3203916836158
 30
0.0
 10
-54.7202789803612
 20
-199.3850762772556
 30
0.0
 10
-50.93871356316571
 20
-199.4078540059836
 30
0.0
 10
-47.44727905328227
 20
-199.3976371914364
 30
0.0
 10
-44.38304863023237
 20
-199.3576649488723
 30
0.0
 10
-41.88511034841456
 20
-199.2981136150772
 30
0.0
 10
-40.08214065074151
 20
-199.2347473385258
 30
0.0
 10
-39.08262897203841
 20
-199.1891998191014
 30
0.0
 10
-38.66537511876648
 20
-199.1658908485112
 30
0.0
 10
-38.78737367520047
 20
-199.1722708216436
 30
0.0
 10
-38.78739053725441
 20
-199.1722717034528
 30
0.0
  0
SPLINE
  5
8A
330
23
100
AcDbEntity
  8
0
  6
Continuous
 62
     7
370
    25
100
AcDbSpline
210
0.0
220
0.0
230
1.0
 70
    24
 71
     3
 72
    57
 73
    53
 74
     0
 42
0.000000001
 43
0.00000001
 40
0.0
 40
0.0
 40
0.0
 40
0.0
 40
0.0274849955088424
 40
0.0548797793197446
 40
0.0820845045166459
 40
0.1090094748348122
 40
0.1355968894118204
 40
0.1618409953689162
 40
0.1862785222167935
 40
0.210407201315904
 40
0.2341806309250759
 40
0.2575361481861993
 40
0.2804103472235786
 40
0.3007437544362671
 40
0.3206113795479925
 40
0.3399930883870307
 40
0.3588739763168054
 40
0.3772553922615147
 40
0.3951629661682505
 40
0.4126520982961182
 40
0.4283721536147874
 40
0.4438430542609188
 40
0.4590963161609134
 40
0.4741648678553599
 40
0.4890876898837603
 40
0.5039105817638153
 40
0.5200265522992182
 40
0.5361520906854894
 40
0.5523587955654108
 40
0.5687120908918625
 40
0.5852700783402464
 40
0.602098515799628
 40
0.6192794934282738
 40
0.6354038507473331
 40
0.651933172079225
 40
0.6688867445561636
 40
0.686269813833027
 40
0.7040767353163142
 40
0.7222982805348637
 40
0.7426321405139193
 40
0.7634075954790964
 40
0.7845797771204365
 40
0.8061007681626178
 40
0.82793154897561
 40
0.8500504705542976
 40
0.8724591661827114
 40
0.897445261294704
 40
0.9227645152876128
 40
0.948354263523596
 40
0.9741276408474125
 40
0.9999907296564892
 40
1.0
 40
1.0
 40
1.0
 40
1.0
 10
-220.0346462077931
 20
0.0000000000000971
 30
0.0
 10
-219.9073221926194
 20
0.0000000000000971
 30
0.0
 10
-219.6530920672194
 20
0.0000000000000971
 30
0.0
 10
-217.6368223119013
 20
0.0000000000000971
 30
0.0
 10
-214.4745400916342
 20
0.0000000000000971
 30
0.0
 10
-210.0843624078389
 20
0.0000000000000971
 30
0.0
 10
-204.5296923946602
 20
0.0000000000000833
 30
0.0
 10
-197.959392276625
 20
0.0000000000000833
 30
0.0
 10
-190.4820033741359
 20
0.0000000000000694
 30
0.0
 10
-182.2063207795719
 20
0.0000000000000694
 30
0.0
 10
-173.0261904901825
 20
0.0000000000000694
 30
0.0
 10
-162.9917464647972
 20
0.0000000000000833
 30
0.0
 10
-152.4719002403653
 20
0.0000000000000833
 30
0.0
 10
-141.602056831507
 20
0.0000000000000833
 30
0.0
 10
-130.5373474363326
 20
0.0000000000000694
 30
0.0
 10
-118.9782806203521
 20
0.0000000000000694
 30
0.0
 10
-106.9832587787444
 20
0.0000000000000555
 30
0.0
 10
-94.60419617552049
 20
0.0000000000000694
 30
0.0
 10
-81.8820484237409
 20
0.0000000000000694
 30
0.0
 10
-69.20178784774511
 20
0.0000000000000833
 30
0.0
 10
-56.63597701002742
 20
0.0000000000000833
 30
0.0
 10
-44.24971509756924
 20
0.0000000000000833
 30
0.0
 10
-31.70552711147012
 20
0.0000000000000833
 30
0.0
 10
-19.05147011533728
 20
0.0000000000000833
 30
0.0
 10
-6.336865804314371
 20
0.0000000000000694
 30
0.0
 10
6.771494665072426
 20
0.0000000000000555
 30
0.0
 10
20.22305603006659
 20
0.0000000000000416
 30
0.0
 10
33.94164911462976
 20
0.0000000000000278
 30
0.0
 10
47.48244814933526
 20
0.0000000000000278
 30
0.0
 10
60.79022422282247
 20
0.0000000000000416
 30
0.0
 10
73.81457936969466
 20
0.0000000000000416
 30
0.0
 10
86.51435959065593
 20
0.0000000000000416
 30
0.0
 10
98.50699794146534
 20
0.0000000000000416
 30
0.0
 10
109.8162902467478
 20
0.0000000000000278
 30
0.0
 10
120.4692534827721
 20
0.0000000000000278
 30
0.0
 10
130.7593313742675
 20
0.0000000000000278
 30
0.0
 10
140.6511555342236
 20
0.0000000000000278
 30
0.0
 10
150.1058366189365
 20
0.0000000000000278
 30
0.0
 10
159.3633771304663
 20
0.0000000000000278
 30
0.0
 10
168.3121666911034
 20
0.0000000000000278
 30
0.0
 10
176.8582049310214
 20
0.0000000000000278
 30
0.0
 10
184.7240602473925
 20
0.0000000000000139
 30
0.0
 10
191.8796079001024
 20
0.0000000000000139
 30
0.0
 10
198.2983004331191
 20
0.0000000000000139
 30
0.0
 10
203.9597460563124
 20
0.0000000000000139
 30
0.0
 10
209.0168134729985
 20
0.0000000000000139
 30
0.0
 10
213.362653370421
 20
0.0000000000000139
 30
0.0
 10
216.8717798596637
 20
0.0000000000000139
 30
0.0
 10
219.4400174548339
 20
0.0000000000000139
 30
0.0
 10
220.8746986269079
 20
0.0000000000000139
 30
0.0
 10
221.4909602811288
 20
0.0000000000000139
 30
0.0
 10
221.3073345341242
 20
0.0000000000000139
 30
0.0
 10
221.3072687390514
 20
0.0000000000000139
 30
0.0
  0
SPLINE
  5
8B
330
23
100
AcDbEntity
  8
0
  6
Continuous
 62
     7
370
    25
100
AcDbSpline
210
0.0
220
0.0
230
1.0
 70
     8
 71
     3
 72
    28
 73
    24
 74
     0
 42
0.000000001
 43
0.00000001
 40
0.0
 40
0.0
 40
0.0
 40
0.0
 40
0.0476013270554694
 40
0.0957231530020412
 40
0.144313690793344
 40
0.1933861361606903
 40
0.2429681635519184
 40
0.2930119900753007
 40
0.3532985638072446
 40
0.4128639696950492
 40
0.4705933040853467
 40
0.5257390944643967
 40
0.5775276656415618
 40
0.6249309383949463
 40
0.6681457181721646
 40
0.7087183734545396
 40
0.7481766764370428
 40
0.7876390307272939
 40
0.8379968228477823
 40
0.890049117428248
 40
0.9440519150317429
 40
0.9999962633083495
 40
1.0
 40
1.0
 40
1.0
 40
1.0
 10
-133.0000000000001
 20
-198.2842712474618
 30
0.0
 10
-132.8715456186529
 20
-198.2876867929154
 30
0.0
 10
-132.6132322656417
 20
-198.2945552312608
 30
0.0
 10
-130.672416487463
 20
-198.3447108543743
 30
0.0
 10
-127.7617617905737
 20
-198.4181114540375
 30
0.0
 10
-123.8937943177103
 20
-198.5134131650524
 30
0.0
 10
-119.2399914436685
 20
-198.6249772934196
 30
0.0
 10
-113.5814752316672
 20
-198.7564939997393
 30
0.0
 10
-106.9622219735815
 20
-198.9042937013946
 30
0.0
 10
-99.55903427012704
 20
-199.0630388330986
 30
0.0
 10
-92.04804537602254
 20
-199.2169510745793
 30
0.0
 10
-84.70811393949394
 20
-199.357531060295
 30
0.0
 10
-77.81929816613254
 20
-199.4766023839497
 30
0.0
 10
-71.59915957056177
 20
-199.5679685205881
 30
0.0
 10
-66.14950151034859
 20
-199.6344703181544
 30
0.0
 10
-61.4632496615777
 20
-199.6782428393986
 30
0.0
 10
-57.48884496496104
 20
-199.7031181048644
 30
0.0
 10
-53.89900568002615
 20
-199.714111144487
 30
0.0
 10
-50.892481883996
 20
-199.7120159059084
 30
0.0
 10
-48.61346095225706
 20
-199.7005785225542
 30
0.0
 10
-47.36275441265968
 20
-199.6890625265169
 30
0.0
 10
-46.84753908543528
 20
-199.6821751497939
 30
0.0
 10
-47.00011376938472
 20
-199.6839889399607
 30
0.0
 10
-47.00012395962711
 20
-199.6839890611011
 30
0.0
  0
SPLINE
  5
8C
330
23
100
AcDbEntity
  8
0
  6
Continuous
 62
     7
370
    25
100
AcDbSpline
210
0.0
220
0.0
230
1.0
 70
    24
 71
     3
 72
    28
 73
    24
 74
     0
 42
0.000000001
 43
0.00000001
 40
0.0
 40
0.0
 40
0.0
 40
0.0
 40
0.0475678419602351
 40
0.0957063983999419
 40
0.1443771687820931
 40
0.1935567999606509
 40
0.2432347241675593
 40
0.2933597096423544
 40
0.3537254808163625
 40
0.4133441551127267
 40
0.4710775634614606
 40
0.526144794651268
 40
0.5778144082908782
 40
0.6251324493436481
 40
0.6683497832509647
 40
0.7090199296233017
 40
0.7485979420742708
 40
0.7881496228377015
 40
0.8385423764729132
 40
0.8905485995236714
 40
0.9443697026264918
 40
0.9999965070277177
 40
0.9999999999999999
 40
0.9999999999999999
 40
0.9999999999999999
 40
0.9999999999999999
 10
-133.0000000000001
 20
-205.0
 30
0.0
 10
-132.8704978413406
 20
-205.0
 30
0.0
 10
-132.6099397693414
 20
-205.0000000000001
 30
0.0
 10
-130.6556329226783
 20
-204.9999999999999
 30
0.0
 10
-127.7305485075629
 20
-205.0
 30
0.0
 10
-123.8493311030849
 20
-205.0000000000001
 30
0.0
 10
-119.1852122816848
 20
-205.0000000000003
 30
0.0
 10
-113.5212458910934
 20
-204.9999999999998
 30
0.0
 10
-106.9037748146404
 20
-205.0000000000002
 30
0.0
 10
-99.50787713505773
 20
-205.0000000000002
 30
0.0
 10
-92.00950751510867
 20
-204.9999999999997
 30
0.0
 10
-84.68600474743936
 20
-204.9999999999997
 30
0.0
 10
-77.81655250599933
 20
-204.9999999999999
 30
0.0
 10
-71.61786458951727
 20
-205.0000000000005
 30
0.0
 10
-66.18966211018375
 20
-205.0000000000001
 30
0.0
 10
-61.52150601078994
 20
-205.0000000000001
 30
0.0
 10
-57.5585334285888
 20
-205.0000000000002
 30
0.0
 10
-53.97283690086324
 20
-204.9999999999995
 30
0.0
 10
-50.95488251645466
 20
-205.0000000000016
 30
0.0
 10
-48.65042871907237
 20
-204.9999999999944
 30
0.0
 10
-47.37388127080129
 20
-205.0000000000215
 30
0.0
 10
-46.84385476817146
 20
-204.9999999999529
 30
0.0
 10
-47.00011018150407
 20
-205.0
 30
0.0
 10
-47.00011999262955
 20
-205.0
 30
0.0
  0
LINE
  5
8D
330
23
100
AcDbEntity
  8
0
  6
Continuous
 62
     7
370
    25
100
AcDbLine
 10
-136.5573826693
 20
-194.7268885782
 30
0.0
 11
-133.0
 21
-198.2842712475
 31
0.0
  0
LINE
  5
8E
330
23
100
AcDbEntity
  8
0
  6
Continuous
 62
     7
370
    25
100
AcDbLine
 10
-133.0
 20
-198.2842712475
 30
0.0
 11
-133.0
 21
-205.0
 31
0.0
  0
LINE
  5
8F
330
23
100
AcDbEntity
  8
0
  6
Continuous
 62
     7
370
    25
100
AcDbLine
 10
-47.000090559
 20
-205.0
 30
0.0
 11
-47.0000933874
 21
-199.6839886977
 31
0.0
  0
VIEWPORT
  5
F0
330
23
100
AcDbEntity
  8
0
100
AcDbViewport
 10
0.0
 20
0.0
 30
0.0
 40
205.6
 41
156.0
 68
     1
 69
     1
 12
0.0
 22
-0.473744661
 13
0.0
 23
0.0
 14
10.0
 24
10.0
 15
10.0
 25
10.0
 16
0.0
 26
0.0
 36
1.0
 17
0.0
 27
0.0
 37
0.0
 42
50.0
 43
0.0
 44
0.0
 45
497.3859817834
 50
0.0
 51
0.0
 72
   100
 90
   557152
  1

281
     0
 71
     1
 74
     0
110
0.0
120
0.0
130
0.0
111
1.0
121
0.0
131
0.0
112
0.0
122
1.0
132
0.0
 79
     0
146
0.0
170
     0
 61
     5
348
2F
292
     1
282
     1
141
0.0
142
0.0
 63
   256
361
F1
  0
ENDBLK
  5
25
330
23
100
AcDbEntity
  8
0
100
AcDbBlockEnd
  0
BLOCK
  5
92
330
90
100
AcDbEntity
  8
0
100
AcDbBlockBegin
  2
*Paper_Space1
 70
     0
 10
0.0
 20
0.0
 30
0.0
  3
*Paper_Space1
  1

  0
SPLINE
  5
94
330
90
100
AcDbEntity
  8
0
  6
Continuous
 62
     7
370
    25
100
AcDbSpline
210
0.0
220
0.0
230
1.0
 70
     8
 71
     3
 72
    57
 73
    53
 74
     0
 42
0.000000001
 43
0.00000001
 40
0.0
 40
0.0
 40
0.0
 40
0.0
 40
0.0148830040792098
 40
0.0268025794926378
 40
0.0357577760019939
 40
0.0424819068287257
 40
0.0492000943344642
 40
0.0770047045089651
 40
0.1034193361807249
 40
0.1311555634328881
 40
0.1660070624293006
 40
0.2036062351921666
 40
0.2441117511939979
 40
0.277007025786183
 40
0.3115513525444521
 40
0.3455529580988168
 40
0.3778745831043792
 40
0.4085144084210151
 40
0.4460909523812755
 40
0.4807771022697876
 40
0.5127606517218167
 40
0.5420048990575937
 40
0.5702322646034843
 40
0.597443019077316
 40
0.6233296971306754
 40
0.6356897443036019
 40
0.647121699721038
 40
0.6586533180187004
 40
0.6726756830270182
 40
0.6892940787917978
 40
0.7083194853087789
 40
0.7252149516089728
 40
0.7424716982475957
 40
0.7600914398146845
 40
0.778076007408197
 40
0.7964273313562802
 40
0.8151474452945779
 40
0.8340170316237467
 40
0.8506467738000132
 40
0.861863844477365
 40
0.8712206553490898
 40
0.8787130394689446
 40
0.8843376067482291
 40
0.8884948224061163
 40
0.893208156969301
 40
0.9005423078809345
 40
0.9105023192062028
 40
0.9230950424144936
 40
0.9383292505505394
 40
0.9562157592261918
 40
0.9767675643861231
 40
1.0
 40
1.0
 40
1.0
 40
1.0
 10
-321.3380816296554
 20
0.0000000000000555
 30
0.0
 10
-320.5877580097361
 20
-1.636326261956561
 30
0.0
 10
-319.2365114226185
 20
-4.583161758242457
 30
0.0
 10
-317.3652030580748
 20
-8.481020614607774
 30
0.0
 10
-315.8921327262102
 20
-11.4751170324208
 30
0.0
 10
-314.6765686016417
 20
-13.89562113222907
 30
0.0
 10
-312.4080556531828
 20
-18.33745959060278
 30
0.0
 10
-308.9421807846805
 20
-24.83938712535218
 30
0.0
 10
-304.0426941298296
 20
-33.44971819524467
 30
0.0
 10
-298.4667853357789
 20
-42.64756973711135
 30
0.0
 10
-291.8642946574142
 20
-52.79098579727512
 30
0.0
 10
-284.0036279382479
 20
-63.93931275388021
 30
0.0
 10
-275.8509739699641
 20
-74.56882657090264
 30
0.0
 10
-267.5451628009887
 20
-84.58750976742883
 30
0.0
 10
-259.4241475996431
 20
-93.71554413434127
 30
0.0
 10
-251.0418299696055
 20
-102.4885387724899
 30
0.0
 10
-242.7077830153991
 20
-110.6286071404642
 30
0.0
 10
-233.8040095143533
 20
-118.769563813151
 30
0.0
 10
-224.4098031048362
 20
-126.7611395307948
 30
0.0
 10
-214.605701534434
 20
-134.4779529293381
 30
0.0
 10
-205.3503624477884
 20
-141.246964691343
 30
0.0
 10
-196.5288696443341
 20
-147.2669472588274
 30
0.0
 10
-188.0180992053879
 20
-152.6992695830671
 30
0.0
 10
-179.7041283165784
 20
-157.6637906850817
 30
0.0
 10
-172.9095464854003
 20
-161.460924523042
 30
0.0
 10
-167.7003587189522
 20
-164.2315551011507
 30
0.0
 10
-163.9740710172646
 20
-166.1519687203847
 30
0.0
 10
-160.0461491080869
 20
-168.1144364203122
 30
0.0
 10
-155.5283738554652
 20
-170.2930928606368
 30
0.0
 10
-150.1675426825773
 20
-172.7676909926836
 30
0.0
 10
-144.4517956905813
 20
-175.2706977756513
 30
0.0
 10
-138.6328911816288
 20
-177.6819584643358
 30
0.0
 10
-132.9387026875784
 20
-179.9158917133862
 30
0.0
 10
-127.0977079807815
 20
-182.0772886166643
 30
0.0
 10
-121.110926550204
 20
-184.1581737690814
 30
0.0
 10
-114.9798329163618
 20
-186.1503440944172
 30
0.0
 10
-108.7308397447648
 20
-188.0379126217247
 30
0.0
 10
-102.6593105413035
 20
-189.7323813537092
 30
0.0
 10
-97.41734121919592
 20
-191.0824384711389
 30
0.0
 10
-93.23697618917159
 20
-192.088808401425
 30
0.0
 10
-90.0802366004902
 20
-192.8096680963154
 30
0.0
 10
-87.54943983970028
 20
-193.3619555783119
 30
0.0
 10
-85.6025685009737
 20
-193.771506957227
 30
0.0
 10
-83.96208221731477
 20
-194.1069599106948
 30
0.0
 10
-82.1366537406334
 20
-194.470513624564
 30
0.0
 10
-79.65901284419718
 20
-194.9461446959702
 30
0.0
 10
-76.29739232059576
 20
-195.5568313943088
 30
0.0
 10
-72.05044693916605
 20
-196.2712809161169
 30
0.0
 10
-66.91828194321764
 20
-197.0504578529884
 30
0.0
 10
-60.90275738746706
 20
-197.8429124643912
 30
0.0
 10
-54.00518289086695
 20
-198.6071637164536
 30
0.0
 10
-49.13050928153891
 20
-198.9846785024307
 30
0.0
 10
-46.54394985362883
 20
-199.1849923094876
 30
0.0
  0
SPLINE
  5
95
330
90
100
AcDbEntity
  8
0
  6
Continuous
 62
     7
370
    25
100
AcDbSpline
210
0.0
220
0.0
230
1.0
 70
     8
 71
     3
 72
    63
 73
    59
 74
     0
 42
0.000000001
 43
0.00000001
 40
0.0
 40
0.0
 40
0.0
 40
0.0
 40
0.0219180353688004
 40
0.041213713812132
 40
0.0579004502639389
 40
0.0719895967786014
 40
0.0834906146284995
 40
0.0922745374421065
 40
0.0985799144760906
 40
0.1040765410765076
 40
0.1101108629289965
 40
0.1266364258927461
 40
0.1461884196964777
 40
0.1672807727322988
 40
0.2055331077489633
 40
0.244552256520318
 40
0.2836481172780347
 40
0.2960186886584187
 40
0.3083559180004252
 40
0.3206600624408945
 40
0.3329026437041759
 40
0.3436345771174669
 40
0.3520483952694839
 40
0.3578610459738022
 40
0.3616176305201838
 40
0.3649579580356558
 40
0.3695378013144153
 40
0.3753565515283341
 40
0.3874384096840394
 40
0.4027784678579635
 40
0.4213712598543077
 40
0.4432104751548767
 40
0.4673437845003943
 40
0.4906016620384253
 40
0.5127316828769377
 40
0.5399531854689426
 40
0.5652603426795896
 40
0.5886584608445569
 40
0.6101523474491093
 40
0.6297464603848025
 40
0.6486995574807167
 40
0.6811508501581176
 40
0.7169043285217089
 40
0.7559555251404965
 40
0.7876977968910792
 40
0.8182007786882255
 40
0.8467503067556722
 40
0.8733498819124508
 40
0.8980058096380156
 40
0.9241632148531717
 40
0.9503024050924037
 40
0.9560601551718813
 40
0.9616843935051214
 40
0.9671751619107162
 40
0.9725325021272414
 40
0.9789904479605238
 40
0.9881443714599233
 40
1.0
 40
1.0
 40
1.0
 40
1.0
 10
46.54394985450262
 20
-199.1849923094904
 30
0.0
 10
48.97983007278499
 20
-198.997483537116
 30
0.0
 10
53.56015255642454
 20
-198.6449002534472
 30
0.0
 10
60.02260483877541
 20
-197.9447878103245
 30
0.0
 10
65.62360213337011
 20
-197.2284384607247
 30
0.0
 10
70.36234255926526
 20
-196.534008425392
 30
0.0
 10
74.2224096113566
 20
-195.9101742527238
 30
0.0
 10
77.21361182863981
 20
-195.3906368829214
 30
0.0
 10
79.53717465082433
 20
-194.9661747436091
 30
0.0
 10
81.55645651329623
 20
-194.5830236045628
 30
0.0
 10
84.73313030284872
 20
-193.9582810057477
 30
0.0
 10
89.50593441915262
 20
-192.9549940374688
 30
0.0
 10
95.99244579840706
 20
-191.4498421143948
 30
0.0
 10
104.9221922780892
 20
-189.1567941469269
 30
0.0
 10
115.9752058405699
 20
-185.9163309065615
 30
0.0
 10
128.8731674559378
 20
-181.5189466372161
 30
0.0
 10
138.7838926194831
 20
-177.6516573465607
 30
0.0
 10
145.7152745822067
 20
-174.7168346974322
 30
0.0
 10
149.7185617904772
 20
-172.9571512853639
 30
0.0
 10
153.689793719417
 20
-171.1469755635796
 30
0.0
 10
157.4698513454804
 20
-169.362068465361
 30
0.0
 10
160.8171301968094
 20
-167.729689637655
 30
0.0
 10
163.4675675014407
 20
-166.4026013242292
 30
0.0
 10
165.3706144222352
 20
-165.4311621988145
 30
0.0
 10
166.7333142477835
 20
-164.7265515188062
 30
0.0
 10
167.9608100144576
 20
-164.085822925143
 30
0.0
 10
169.40070073712
 20
-163.326322654223
 30
0.0
 10
171.7493941944984
 20
-162.0704523149923
 30
0.0
 10
175.2052422615307
 20
-160.1791911641683
 30
0.0
 10
179.9545610856848
 20
-157.4877329415843
 30
0.0
 10
185.6584352123056
 20
-154.1159817825545
 30
0.0
 10
192.186704097717
 20
-150.0630015281934
 30
0.0
 10
199.0910713035778
 20
-145.5373234965484
 30
0.0
 10
205.9184304409882
 20
-140.8108961229346
 30
0.0
 10
212.9376795431813
 20
-135.6961792652752
 30
0.0
 10
220.0249672995263
 20
-130.2417419226119
 30
0.0
 10
227.0843514688469
 20
-124.4896376009724
 30
0.0
 10
233.4782698405043
 20
-119.000834468834
 30
0.0
 10
239.2345981788548
 20
-113.8186006548814
 30
0.0
 10
244.4900095106552
 20
-108.8782294214398
 30
0.0
 10
250.5854455532508
 20
-102.9120548180635
 30
0.0
 10
257.8753161155354
 20
-95.3840048568328
 30
0.0
 10
266.5209064658964
 20
-85.79946104179703
 30
0.0
 10
274.7443031788777
 20
-75.94171699284354
 30
0.0
 10
282.2217915465389
 20
-66.2812641307814
 30
0.0
 10
288.648835093165
 20
-57.40511734930931
 30
0.0
 10
294.4589662280407
 20
-48.8468948978365
 30
0.0
 10
299.6473965455107
 20
-40.7196887790632
 30
0.0
 10
304.4728654751597
 20
-32.70489474308133
 30
0.0
 10
309.0623906231247
 20
-24.61438611668418
 30
0.0
 10
312.3620291251859
 20
-18.41910197961724
 30
0.0
 10
314.4294385566076
 20
-14.38098954282359
 30
0.0
 10
315.3486596355147
 20
-12.5596752892321
 30
0.0
 10
316.2360153387922
 20
-10.77649762307117
 30
0.0
 10
317.15807043749
 20
-8.897904772322413
 30
0.0
 10
318.2611301332205
 20
-6.615072171646558
 30
0.0
 10
319.6845548480505
 20
-3.614468114455205
 30
0.0
 10
320.7415962149419
 20
-1.30386599371346
 30
0.0
 10
321.33808155522
 20
0.0000000000000555
 30
0.0
  0
SPLINE
  5
96
330
90
100
AcDbEntity
  8
0
  6
Continuous
 62
     7
370
    25
100
AcDbSpline
210
0.0
220
0.0
230
1.0
 70
     8
 71
     3
 72
     9
 73
     5
 74
     0
 42
0.000000001
 43
0.00000001
 40
0.0
 40
0.0
 40
0.0
 40
0.0
 40
0.4905124355663301
 40
1.0
 40
1.0
 40
1.0
 40
1.0
 10
-46.31257412972202
 20
-199.1997737128088
 30
0.0
 10
-45.36013720646435
 20
-199.2594577142289
 30
0.0
 10
-43.41841900688802
 20
-199.3811345507216
 30
0.0
 10
-41.21658623965527
 20
-199.4944262117889
 30
0.0
 10
-40.09477982578763
 20
-199.5521469042568
 30
0.0
  0
SPLINE
  5
97
330
90
100
AcDbEntity
  8
0
  6
Continuous
 62
     7
370
    25
100
AcDbSpline
210
0.0
220
0.0
230
1.0
 70
     8
 71
     3
 72
     9
 73
     5
 74
     0
 42
0.000000001
 43
0.00000001
 40
0.0
 40
0.0
 40
0.0
 40
0.0
 40
0.4985494466935086
 40
0.9999999999999999
 40
0.9999999999999999
 40
0.9999999999999999
 40
0.9999999999999999
 10
40.09477982625296
 20
-199.5521469042761
 30
0.0
 10
41.2161030483223
 20
-199.4944106354092
 30
0.0
 10
43.46527457886194
 20
-199.3786021248393
 30
0.0
 10
45.44862465799415
 20
-199.2542244690426
 30
0.0
 10
46.44317665257548
 20
-199.1918552247243
 30
0.0
  0
LWPOLYLINE
  5
98
330
90
100
AcDbEntity
  8
0
  6
Continuous
 62
     7
370
    25
100
AcDbPolyline
 90
        3
 70
   128
 43
0.0
 10
-41.6461293096
 20
-199.3613684858
 10
-41.6499349993
 20
-202.1804305142
 10
-41.6537257317
 20
-205.0
  0
LWPOLYLINE
  5
99
330
90
100
AcDbEntity
  8
0
  6
Continuous
 62
     7
370
    25
100
AcDbPolyline
 90
        3
 70
   128
 43
0.0
 10
41.653725732
 20
-205.0
 10
41.6499349996
 20
-202.1804305142
 10
41.6461293099
 20
-199.3613684858
  0
SPLINE
  5
9A
330
90
100
AcDbEntity
  8
0
  6
Continuous
 62
     7
370
    25
100
AcDbSpline
210
0.0
220
0.0
230
1.0
 70
     8
 71
     3
 72
    27
 73
    23
 74
     0
 42
0.000000001
 43
0.00000001
 40
0.0
 40
0.0
 40
0.0
 40
0.0
 40
0.0043677885095952
 40
0.0524418709973555
 40
0.099294391437729
 40
0.1459868505426124
 40
0.1932060433998966
 40
0.2511505452210505
 40
0.310777097878375
 40
0.3720744071308228
 40
0.4352851553629083
 40
0.5000024663051685
 40
0.5646731625414738
 40
0.6279111854892546
 40
0.6892289072195442
 40
0.7488554872627966
 40
0.8067999890866866
 40
0.854019181946351
 40
0.9007116410536792
 40
0.9475641614965412
 40
0.9956382439867228
 40
1.0
 40
1.0
 40
1.0
 40
1.0
 10
-46.50890950416895
 20
-199.183173921911
 30
0.0
 10
-46.45583504668222
 20
-199.1882359189963
 30
0.0
 10
-45.81859635102203
 20
-199.2490128081604
 30
0.0
 10
-43.92955950900462
 20
-199.3171389694714
 30
0.0
 10
-40.84453617972134
 20
-199.3859336936675
 30
0.0
 10
-37.11603813375914
 20
-199.4076256163266
 30
0.0
 10
-32.59716274525567
 20
-199.3977048044862
 30
0.0
 10
-27.19892601841466
 20
-199.3576907468483
 30
0.0
 10
-20.95323447398589
 20
-199.2979297695871
 30
0.0
 10
-14.26330085697469
 20
-199.2354867995141
 30
0.0
 10
-7.23137277948581
 20
-199.1863115718963
 30
0.0
 10
-0.0018207507474893
 20
-199.165161648974
 30
0.0
 10
7.228804200605055
 20
-199.1863332546085
 30
0.0
 10
14.26072314936622
 20
-199.2354844413491
 30
0.0
 10
20.9525413444678
 20
-199.2979176325797
 30
0.0
 10
27.19891948173337
 20
-199.3576921034808
 30
0.0
 10
32.5971641675029
 20
-199.3977045331042
 30
0.0
 10
37.11603711575212
 20
-199.4076256353697
 30
0.0
 10
40.84453899013739
 20
-199.385933863006
 30
0.0
 10
43.92954912561313
 20
-199.3171382620535
 30
0.0
 10
45.81850604903924
 20
-199.2490186298446
 30
0.0
 10
46.45568394815096
 20
-199.1882495924326
 30
0.0
 10
46.5086861430676
 20
-199.1831946582136
 30
0.0
  0
SPLINE
  5
9B
330
90
100
AcDbEntity
  8
0
  6
Continuous
 62
     7
370
    25
100
AcDbSpline
210
0.0
220
0.0
230
1.0
 70
    24
 71
     3
 72
    58
 73
    54
 74
     0
 42
0.000000001
 43
0.00000001
 40
0.0
 40
0.0
 40
0.0
 40
0.0
 40
0.0003085870251911
 40
0.0165418695310447
 40
0.0327847895344214
 40
0.0491094668615995
 40
0.065581801701923
 40
0.0822603186666646
 40
0.0992112543121547
 40
0.1165172963503847
 40
0.1327590266892812
 40
0.1494086688700725
 40
0.1664856504205806
 40
0.1839952551800493
 40
0.2019317974666431
 40
0.220285981632971
 40
0.2407678565997539
 40
0.2616945410272598
 40
0.2830208399984639
 40
0.3046984874368371
 40
0.3266881796792108
 40
0.3489681101322283
 40
0.3715399239689822
 40
0.3967078987912297
 40
0.4222114576368761
 40
0.4479874797173233
 40
0.4739484675652709
 40
0.4999998199296493
 40
0.5276250255310986
 40
0.5551369288264332
 40
0.5824333949522765
 40
0.6094188867946235
 40
0.6360143450812162
 40
0.662206685436509
 40
0.6865392797641715
 40
0.7105084548536044
 40
0.7340677922287241
 40
0.7571553935092876
 40
0.7797099823335794
 40
0.7997117009249517
 40
0.8192152775777812
 40
0.8382091494299099
 40
0.856688353233779
 40
0.8746652286593329
 40
0.8921779768417188
 40
0.9092963832024963
 40
0.9247112835701166
 40
0.9399235217639513
 40
0.9549782963620844
 40
0.9699221752061388
 40
0.9848071736972352
 40
0.9996892135142169
 40
1.0
 40
1.0
 40
1.0
 40
1.0
 10
-321.3268508831742
 20
0.0000000000000555
 30
0.0
 10
-321.3305849000297
 20
0.0000000000000555
 30
0.0
 10
-321.5307476243448
 20
0.0000000000000555
 30
0.0
 10
-320.7801497177993
 20
0.0000000000000416
 30
0.0
 10
-318.8998377588508
 20
0.0000000000000278
 30
0.0
 10
-315.5993571051202
 20
0.0000000000000278
 30
0.0
 10
-311.0935895110725
 20
0.0000000000000416
 30
0.0
 10
-305.3605955510446
 20
0.0000000000000416
 30
0.0
 10
-298.4369653828995
 20
0.0000000000000416
 30
0.0
 10
-290.5756778570349
 20
0.0000000000000416
 30
0.0
 10
-281.906204970272
 20
0.0000000000000278
 30
0.0
 10
-272.5412572228103
 20
0.0000000000000278
 30
0.0
 10
-262.2646422354209
 20
0.0000000000000278
 30
0.0
 10
-251.1121172090084
 20
0.0000000000000278
 30
0.0
 10
-239.1223804389822
 20
0.0000000000000278
 30
0.0
 10
-225.9355019582196
 20
0.0000000000000278
 30
0.0
 10
-211.5267284982504
 20
0.0000000000000278
 30
0.0
 10
-195.9082637827934
 20
0.0000000000000278
 30
0.0
 10
-179.5597960321556
 20
0.0000000000000139
 30
0.0
 10
-162.5610820703635
 20
0.0000000000000139
 30
0.0
 10
-144.9827778044532
 20
0.0000000000000139
 30
0.0
 10
-126.8804650084595
 20
0.0000000000000139
 30
0.0
 10
-107.6666592581215
 20
0.0000000000000139
 30
0.0
 10
-87.34134771816413
 20
0.0000000000000139
 30
0.0
 10
-65.93532974636548
 20
0.0000000000000139
 30
0.0
 10
-44.16520062431255
 20
0.0000000000000139
 30
0.0
 10
-22.14598694032464
 20
0.0000000000000139
 30
0.0
 10
0.4457544702277382
 20
0.0000000000000139
 30
0.0
 10
23.4779164251417
 20
0.0000000000000139
 30
0.0
 10
46.80600365521448
 20
0.0000000000000139
 30
0.0
 10
69.84104826008468
 20
0.0000000000000139
 30
0.0
 10
92.45042669258143
 20
0.0000000000000139
 30
0.0
 10
114.5245815606225
 20
0.0000000000000278
 30
0.0
 10
135.5815287195792
 20
0.0000000000000278
 30
0.0
 10
155.589727330368
 20
0.0000000000000278
 30
0.0
 10
174.5189609915379
 20
0.0000000000000278
 30
0.0
 10
192.6881211176812
 20
0.0000000000000278
 30
0.0
 10
209.9941274214698
 20
0.0000000000000278
 30
0.0
 10
225.8520087751069
 20
0.0000000000000278
 30
0.0
 10
240.2441959452318
 20
0.0000000000000416
 30
0.0
 10
253.2036807774952
 20
0.0000000000000416
 30
0.0
 10
265.1588922737894
 20
0.0000000000000416
 30
0.0
 10
276.06044583547
 20
0.0000000000000416
 30
0.0
 10
285.8642965185061
 20
0.0000000000000416
 30
0.0
 10
294.5346937783294
 20
0.0000000000000416
 30
0.0
 10
301.8438254061076
 20
0.0000000000000416
 30
0.0
 10
307.8695636997155
 20
0.0000000000000416
 30
0.0
 10
312.7063294394005
 20
0.0000000000000416
 30
0.0
 10
316.5035976471058
 20
0.0000000000000416
 30
0.0
 10
319.2882806732693
 20
0.0000000000000416
 30
0.0
 10
320.8532563000642
 20
0.0000000000000416
 30
0.0
 10
321.5310363811361
 20
0.0000000000000555
 30
0.0
 10
321.3298478490364
 20
0.0000000000000555
 30
0.0
 10
321.3257323095293
 20
0.0000000000000555
 30
0.0
  0
SPLINE
  5
9C
330
90
100
AcDbEntity
  8
0
  6
Continuous
 62
     7
370
    25
100
AcDbSpline
210
0.0
220
0.0
230
1.0
 70
     8
 71
     3
 72
    25
 73
    21
 74
     0
 42
0.000000001
 43
0.00000001
 40
0.0
 40
0.0
 40
0.0
 40
0.0
 40
0.0102032143581599
 40
0.0666372235347233
 40
0.1196208928332106
 40
0.1711493338917048
 40
0.2226830655368874
 40
0.2884451061463662
 40
0.356419990784417
 40
0.4269420295689891
 40
0.4999995316619014
 40
0.5729929242192077
 40
0.643576278973055
 40
0.7115548938505589
 40
0.7773169344637847
 40
0.8288506661121346
 40
0.8803791071739017
 40
0.933362776475687
 40
0.989796785655207
 40
1.0
 40
1.0
 40
1.0
 40
1.0
 10
-39.99679176566899
 20
-199.5523430554005
 30
0.0
 10
-39.92331121817391
 20
-199.5574049309917
 30
0.0
 10
-39.44340954238784
 20
-199.5904640556393
 30
0.0
 10
-37.73695103814863
 20
-199.6335388847517
 30
0.0
 10
-34.87736534729763
 20
-199.6784788083114
 30
0.0
 10
-31.27703645788048
 20
-199.7030537632471
 30
0.0
 10
-26.74177721374398
 20
-199.7141434640936
 30
0.0
 10
-21.13963825474382
 20
-199.7119564977419
 30
0.0
 10
-14.51628690438798
 20
-199.7007863214907
 30
0.0
 10
-7.398724812988995
 20
-199.6882505298293
 30
0.0
 10
-0.0022372311862696
 20
-199.6818186071497
 30
0.0
 10
7.39633736282059
 20
-199.6882602544882
 30
0.0
 10
14.51402498859242
 20
-199.7007799820544
 30
0.0
 10
21.13953249332523
 20
-199.7119570926497
 30
0.0
 10
26.74177579889775
 20
-199.7141433354683
 30
0.0
 10
31.2770367980553
 20
-199.703053794079
 30
0.0
 10
34.87736525439244
 20
-199.6784787997806
 30
0.0
 10
37.7369510675402
 20
-199.6335388873352
 30
0.0
 10
39.44340954215414
 20
-199.5904640555539
 30
0.0
 10
39.92331121867434
 20
-199.5574049309931
 30
0.0
 10
39.99679176619707
 20
-199.5523430554211
 30
0.0
  0
SPLINE
  5
9D
330
90
100
AcDbEntity
  8
0
  6
Continuous
 62
     7
370
    25
100
AcDbSpline
210
0.0
220
0.0
230
1.0
 70
    24
 71
     3
 72
    27
 73
    23
 74
     0
 42
0.000000001
 43
0.00000001
 40
0.0
 40
0.0
 40
0.0
 40
0.0
 40
0.0536355645741904
 40
0.1036639232271582
 40
0.1493566914110543
 40
0.1923563723766057
 40
0.2342013633697988
 40
0.2760185144296642
 40
0.3292977013165743
 40
0.3842827751083656
 40
0.4411866829883102
 40
0.49999972045534
 40
0.5587615743059312
 40
0.6157142545439
 40
0.6707022986869219
 40
0.7239814855770088
 40
0.7657986366395536
 40
0.8076436276355027
 40
0.8506433086038172
 40
0.896336076790185
 40
0.9463644354445534
 40
1.0
 40
1.0
 40
1.0
 40
1.0
 10
-41.64439248117498
 20
-204.9999999999996
 30
0.0
 10
-41.5621472837404
 20
-204.9999999999997
 30
0.0
 10
-41.40318820686022
 20
-204.9999999999999
 30
0.0
 10
-39.94575597641975
 20
-205.0000000000004
 30
0.0
 10
-37.72697657141794
 20
-205.0000000000001
 30
0.0
 10
-34.76971269800439
 20
-205.0
 30
0.0
 10
-31.16358163293184
 20
-205.0000000000002
 30
0.0
 10
-26.61693225071423
 20
-204.9999999999998
 30
0.0
 10
-21.02895989844592
 20
-205.0000000000002
 30
0.0
 10
-14.43215131918935
 20
-204.9999999999998
 30
0.0
 10
-7.353525602437718
 20
-205.0000000000003
 30
0.0
 10
-0.0021921536538985
 20
-204.9999999999999
 30
0.0
 10
7.35118331057601
 20
-205.0000000000001
 30
0.0
 10
14.42993575045582
 20
-204.9999999999999
 30
0.0
 10
21.02885601005612
 20
-204.9999999999999
 30
0.0
 10
26.61693089811477
 20
-205.0000000000001
 30
0.0
 10
31.16358195861109
 20
-204.9999999999997
 30
0.0
 10
34.76971260941114
 20
-205.0000000000001
 30
0.0
 10
37.72697659827725
 20
-204.9999999999998
 30
0.0
 10
39.94575596947545
 20
-205.0000000000002
 30
0.0
 10
41.40318820956173
 20
-205.0000000000001
 30
0.0
 10
41.56214728476148
 20
-204.9999999999995
 30
0.0
 10
41.64439248131164
 20
-204.9999999999993
 30
0.0
  0
VIEWPORT
  5
F2
330
90
100
AcDbEntity
  8
0
100
AcDbViewport
 10
0.0
 20
0.0
 30
0.0
 40
205.6
 41
156.0
 68
     1
 69
     1
 12
0.0
 22
-0.473744661
 13
0.0
 23
0.0
 14
10.0
 24
10.0
 15
10.0
 25
10.0
 16
0.0
 26
0.0
 36
1.0
 17
0.0
 27
0.0
 37
0.0
 42
50.0
 43
0.0
 44
0.0
 45
497.3859817834
 50
0.0
 51
0.0
 72
   100
 90
   557152
  1

281
     0
 71
     1
 74
     0
110
0.0
120
0.0
130
0.0
111
1.0
121
0.0
131
0.0
112
0.0
122
1.0
132
0.0
 79
     0
146
0.0
170
     0
 61
     5
348
2F
292
     1
282
     1
141
0.0
142
0.0
 63
   256
361
F3
  0
ENDBLK
  5
93
330
90
100
AcDbEntity
  8
0
100
AcDbBlockEnd
  0
BLOCK
  5
A0
330
9E
100
AcDbEntity
  8
0
100
AcDbBlockBegin
  2
*Paper_Space2
 70
     0
 10
0.0
 20
0.0
 30
0.0
  3
*Paper_Space2
  1

  0
SPLINE
  5
A2
330
9E
100
AcDbEntity
  8
0
  6
Continuous
 62
     7
370
    25
100
AcDbSpline
210
0.0
220
0.0
230
1.0
 70
     8
 71
     3
 72
    63
 73
    59
 74
     0
 42
0.000000001
 43
0.00000001
 40
0.0
 40
0.0
 40
0.0
 40
0.0
 40
0.0108681107407252
 40
0.0195132003464855
 40
0.0259347517884559
 40
0.0308185253834253
 40
0.0357486235457754
 40
0.0407885302788174
 40
0.0459382767670328
 40
0.0751569113734216
 40
0.1013139052665372
 40
0.1284845113431547
 40
0.1547286021078662
 40
0.1828538067640917
 40
0.2128634431364972
 40
0.2440431636968571
 40
0.2741622829734576
 40
0.3023588637543439
 40
0.3286308509794085
 40
0.3529763793358722
 40
0.37565887270601
 40
0.3995907791173624
 40
0.4261642866059367
 40
0.4553869724310717
 40
0.4872672682468182
 40
0.5093971955839149
 40
0.53265497485523
 40
0.5567881822352496
 40
0.5786273052630835
 40
0.5972200187031359
 40
0.6125600120638738
 40
0.624641819172594
 40
0.6318324777377607
 40
0.63701602998134
 40
0.6413013350640047
 40
0.6485802857586176
 40
0.6591931664619461
 40
0.6727600364774191
 40
0.687243930408167
 40
0.7017736556401254
 40
0.7163496286594865
 40
0.746175232423788
 40
0.7761144085869037
 40
0.8056742685681493
 40
0.8347850645928789
 40
0.8632006206021783
 40
0.8713540373379847
 40
0.8789515924888704
 40
0.8859920541692744
 40
0.8924742756659031
 40
0.8983971981588526
 40
0.904004963884602
 40
0.9116206269647721
 40
0.9229875776145208
 40
0.9374957871319393
 40
0.955157073037401
 40
0.9759859688814571
 40
1.0
 40
1.0
 40
1.0
 40
1.0
 10
-321.33808155522
 20
0.0000000000000555
 30
0.0
 10
-320.7916078170211
 20
-1.195418146692717
 30
0.0
 10
-319.8104389835446
 20
-3.341737258700961
 30
0.0
 10
-318.4700985610086
 20
-6.176742041114166
 30
0.0
 10
-317.4239947391782
 20
-8.35020465472007
 30
0.0
 10
-316.5621508161799
 20
-10.11414017572083
 30
0.0
 10
-315.7657099342368
 20
-11.72397896966915
 30
0.0
 10
-314.946719101033
 20
-13.35848444229379
 30
0.0
 10
-312.7901684051114
 20
-17.60741304375463
 30
0.0
 10
-309.3644529977423
 20
-24.07455977355433
 30
0.0
 10
-304.4473043889171
 20
-32.75661579645867
 30
0.0
 10
-299.4822650130497
 20
-40.99222916720174
 30
0.0
 10
-294.1670888905251
 20
-49.28688872051077
 30
0.0
 10
-288.4325031164269
 20
-57.71026340279239
 30
0.0
 10
-282.1031376971119
 20
-66.43624189826693
 30
0.0
 10
-275.3604126785113
 20
-75.14219682231052
 30
0.0
 10
-268.4912911815507
 20
-83.45421096705823
 30
0.0
 10
-261.7709224501356
 20
-91.10445224147448
 30
0.0
 10
-255.3158816710886
 20
-98.04747023097893
 30
0.0
 10
-249.1488856935751
 20
-104.34041732073
 30
0.0
 10
-243.0349160954282
 20
-110.2806457937996
 30
0.0
 10
-236.5809248313268
 20
-116.2519564532612
 30
0.0
 10
-229.3836513568782
 20
-122.5652591869053
 30
0.0
 10
-221.2757684681434
 20
-129.2664558635468
 30
0.0
 10
-213.3880408413388
 20
-135.3680154777253
 30
0.0
 10
-205.9184361147497
 20
-140.8108917553902
 30
0.0
 10
-199.0910694848545
 20
-145.5373248469077
 30
0.0
 10
-192.1867052767528
 20
-150.0630008188799
 30
0.0
 10
-185.6584326719914
 20
-154.1159831151453
 30
0.0
 10
-179.9545682270877
 20
-157.4877292522274
 30
0.0
 10
-175.2052225843458
 20
-160.1792013183409
 30
0.0
 10
-171.6068084963446
 20
-162.1484858060245
 30
0.0
 10
-169.0506061613357
 20
-163.5128643966785
 30
0.0
 10
-167.3030517118563
 20
-164.4305942720911
 30
0.0
 10
-165.5370952138746
 20
-165.3464063725841
 30
0.0
 10
-163.1899352589767
 20
-166.5448847023962
 30
0.0
 10
-159.8466448830987
 20
-168.2109810900474
 30
0.0
 10
-155.7160345137124
 20
-170.2016435609004
 30
0.0
 10
-151.1411701246796
 20
-172.3203512656148
 30
0.0
 10
-146.4319325033603
 20
-174.4107838571076
 30
0.0
 10
-140.0325010930558
 20
-177.1295718981008
 30
0.0
 10
-131.8990214673347
 20
-180.3516181541127
 30
0.0
 10
-122.0487132484523
 20
-183.8801654656003
 30
0.0
 10
-112.1640521978387
 20
-187.0545107297843
 30
0.0
 10
-102.3655329047495
 20
-189.8469658061454
 30
0.0
 10
-94.91876484966491
 20
-191.707244929161
 30
0.0
 10
-89.9104863573841
 20
-192.846996188343
 30
0.0
 10
-87.32669676650825
 20
-193.4103839134654
 30
0.0
 10
-84.9332188659382
 20
-193.9111335511289
 30
0.0
 10
-82.73053826469929
 20
-194.3540410118555
 30
0.0
 10
-80.69147042715838
 20
-194.748867707158
 30
0.0
 10
-78.52507007506146
 20
-195.1533640741104
 30
0.0
 10
-75.75545705966744
 20
-195.6486083832004
 30
0.0
 10
-71.99140401780859
 20
-196.2790743260765
 30
0.0
 10
-67.10836521234154
 20
-197.0225214913576
 30
0.0
 10
-61.17675524472321
 20
-197.8098862607137
 30
0.0
 10
-54.19733687245235
 20
-198.5904899298156
 30
0.0
 10
-49.21308713754552
 20
-198.9776581628275
 30
0.0
 10
-46.54394985450262
 20
-199.1849923094904
 30
0.0
  0
SPLINE
  5
A3
330
9E
100
AcDbEntity
  8
0
  6
Continuous
 62
     7
370
    25
100
AcDbSpline
210
0.0
220
0.0
230
1.0
 70
     8
 71
     3
 72
    61
 73
    57
 74
     0
 42
0.000000001
 43
0.00000001
 40
0.0
 40
0.0
 40
0.0
 40
0.0
 40
0.0217089480521222
 40
0.040848311699324
 40
0.057431134169756
 40
0.0714684746475068
 40
0.0829695721500584
 40
0.0918039218995179
 40
0.0982049158254088
 40
0.1036052139798848
 40
0.1095320085806258
 40
0.1257584079419098
 40
0.144952248816627
 40
0.1658147831440844
 40
0.2036461032392195
 40
0.2422348545343
 40
0.2809556270371552
 40
0.2932081161667222
 40
0.3054278772964871
 40
0.3176151622054115
 40
0.3297702128989325
 40
0.3409859155949372
 40
0.3499406312136954
 40
0.3563053574521485
 40
0.3606550084308745
 40
0.3637347842203401
 40
0.3678627483748528
 40
0.3732048491209654
 40
0.3844604152808963
 40
0.3989095058197956
 40
0.4165470243450406
 40
0.4373670357866944
 40
0.4610233431275261
 40
0.484345921108483
 40
0.5065625178215144
 40
0.533930105563172
 40
0.5594207047669152
 40
0.5830396003330371
 40
0.604791558005202
 40
0.6246809751840011
 40
0.6432994805593342
 40
0.6748261479226787
 40
0.7095891320237248
 40
0.7475842076559736
 40
0.7787497592539828
 40
0.809498632114138
 40
0.8383323750115151
 40
0.865254370956751
 40
0.8902680051092909
 40
0.9158647212622784
 40
0.940123431762946
 40
0.947551623890986
 40
0.9567724767197164
 40
0.9685881132894048
 40
0.9829976538377583
 40
1.0
 40
1.0
 40
1.0
 40
1.0
 10
46.54394985362883
 20
-199.1849923094876
 30
0.0
 10
48.95656861365598
 20
-198.9994430189826
 30
0.0
 10
53.49623598420791
 20
-198.6503070205024
 30
0.0
 10
59.90602927677605
 20
-197.9581556696867
 30
0.0
 10
65.47181615442435
 20
-197.249042414032
 30
0.0
 10
70.19283398310701
 20
-196.5599796459511
 30
0.0
 10
74.05238810853497
 20
-195.9386156891646
 30
0.0
 10
77.05983227984349
 20
-195.4180286462524
 30
0.0
 10
79.38814107991608
 20
-194.993876406776
 30
0.0
 10
81.39519115845857
 20
-194.6140645626033
 30
0.0
 10
84.51469883388027
 20
-194.0025302065966
 30
0.0
 10
89.20074009166001
 20
-193.0215878553384
 30
0.0
 10
95.58599284069925
 20
-191.5481329237803
 30
0.0
 10
104.4046948688753
 20
-189.2981380919575
 30
0.0
 10
115.3408335598666
 20
-186.1144891920408
 30
0.0
 10
128.113714148688
 20
-181.7931918886701
 30
0.0
 10
137.9293116569204
 20
-177.9943946537321
 30
0.0
 10
144.8008399985303
 20
-175.1094956597401
 30
0.0
 10
148.7700860985405
 20
-173.3797156208002
 30
0.0
 10
152.7111431834677
 20
-171.5988892117736
 30
0.0
 10
156.5258720530939
 20
-169.8133861269532
 30
0.0
 10
159.9772850056423
 20
-168.1437239686153
 30
0.0
 10
162.7982132259626
 20
-166.7404334976308
 30
0.0
 10
164.8815805589073
 20
-165.6821966130377
 30
0.0
 10
166.3388569851015
 20
-164.9312195000282
 30
0.0
 10
167.5554800298232
 20
-164.2980075041295
 30
0.0
 10
168.871927955763
 20
-163.6062666238108
 30
0.0
 10
171.0397453708306
 20
-162.452897520394
 30
0.0
 10
174.271892813471
 20
-160.6957220495169
 30
0.0
 10
178.7535254421765
 20
-158.1778241271601
 30
0.0
 10
184.1772396262121
 20
-155.0058529170204
 30
0.0
 10
190.476893493264
 20
-151.1445888880774
 30
0.0
 10
197.2639052425273
 20
-146.7587012815981
 30
0.0
 10
204.0878097592094
 20
-142.1020672896088
 30
0.0
 10
211.1669462771789
 20
-137.0150886616859
 30
0.0
 10
218.3267570590259
 20
-131.5781807437425
 30
0.0
 10
225.4716221815945
 20
-125.8305071708208
 30
0.0
 10
231.9579605394655
 20
-120.3299545346121
 30
0.0
 10
237.812787312259
 20
-115.1198266482543
 30
0.0
 10
243.1144222187885
 20
-110.1902937617639
 30
0.0
 10
249.158737935801
 20
-104.3385353358458
 30
0.0
 10
256.3038223605868
 20
-97.04947568056318
 30
0.0
 10
264.7738105749059
 20
-87.79194681022068
 30
0.0
 10
272.8704274165045
 20
-78.24461261145704
 30
0.0
 10
280.3283553507346
 20
-68.78513683718005
 30
0.0
 10
286.8309036177013
 20
-59.97394036094396
 30
0.0
 10
292.7735561173393
 20
-51.38367110518749
 30
0.0
 10
298.093466698718
 20
-43.20381598336257
 30
0.0
 10
302.9910849489224
 20
-35.21632476563168
 30
0.0
 10
307.520289786054
 20
-27.3820031574282
 30
0.0
 10
310.8330675624301
 20
-21.30054376848031
 30
0.0
 10
313.1283769330653
 20
-16.92021296499734
 30
0.0
 10
314.6996896761088
 20
-13.85929439458467
 30
0.0
 10
316.6147196983567
 20
-10.02602476608427
 30
0.0
 10
318.8936557675898
 20
-5.321972998018038
 30
0.0
 10
320.4796362467875
 20
-1.868996404757073
 30
0.0
 10
321.3380816296554
 20
0.0000000000000555
 30
0.0
  0
SPLINE
  5
A4
330
9E
100
AcDbEntity
  8
0
  6
Continuous
 62
     7
370
    25
100
AcDbSpline
210
0.0
220
0.0
230
1.0
 70
     8
 71
     3
 72
     9
 73
     5
 74
     0
 42
0.000000001
 43
0.00000001
 40
0.0
 40
0.0
 40
0.0
 40
0.0
 40
0.655099080969202
 40
1.0
 40
1.0
 40
1.0
 40
1.0
 10
-46.44317665257548
 20
-199.1918552247243
 30
0.0
 10
-45.45545158545146
 20
-199.2544445450843
 30
0.0
 10
-43.94770245891826
 20
-199.3499863069006
 30
0.0
 10
-42.23647828904996
 20
-199.4389687515994
 30
0.0
 10
-41.64627550019466
 20
-199.4696588785536
 30
0.0
  0
SPLINE
  5
A5
330
9E
100
AcDbEntity
  8
0
  6
Continuous
 62
     7
370
    25
100
AcDbSpline
210
0.0
220
0.0
230
1.0
 70
     8
 71
     3
 72
     9
 73
     5
 74
     0
 42
0.000000001
 43
0.00000001
 40
0.0
 40
0.0
 40
0.0
 40
0.0
 40
0.3449009189994527
 40
1.0
 40
1.0
 40
1.0
 40
1.0
 10
41.64627549989003
 20
-199.4696588785221
 30
0.0
 10
42.23647828863231
 20
-199.4389687515721
 30
0.0
 10
43.94770245832847
 20
-199.3499863068774
 30
0.0
 10
45.45545158465266
 20
-199.2544445450759
 30
0.0
 10
46.44317665168701
 20
-199.1918552247226
 30
0.0
  0
LWPOLYLINE
  5
A6
330
9E
100
AcDbEntity
  8
0
  6
Continuous
 62
     7
370
    25
100
AcDbPolyline
 90
        3
 70
   128
 43
0.0
 10
-41.6461293099
 20
-199.3613684858
 10
-41.6499349996
 20
-202.1804305142
 10
-41.653725732
 20
-205.0
  0
LWPOLYLINE
  5
A7
330
9E
100
AcDbEntity
  8
0
  6
Continuous
 62
     7
370
    25
100
AcDbPolyline
 90
        3
 70
   128
 43
0.0
 10
41.6537257317
 20
-205.0
 10
41.6499349993
 20
-202.1804305142
 10
41.6461293096
 20
-199.3613684858
  0
SPLINE
  5
A8
330
9E
100
AcDbEntity
  8
0
  6
Continuous
 62
     7
370
    25
100
AcDbSpline
210
0.0
220
0.0
230
1.0
 70
    24
 71
     3
 72
    31
 73
    27
 74
     0
 42
0.000000001
 43
0.00000001
 40
0.0
 40
0.0
 40
0.0
 40
0.0
 40
0.054576577624644
 40
0.1089740231212257
 40
0.1629940718415585
 40
0.2164586151462094
 40
0.2692528786575078
 40
0.3213654389632217
 40
0.3698906999747587
 40
0.4178026862586595
 40
0.4650092585155682
 40
0.5113859879698384
 40
0.5568069704460209
 40
0.5971827375353688
 40
0.6366336075119917
 40
0.6751196002279705
 40
0.7126111197514152
 40
0.7491108446225564
 40
0.7846696678748865
 40
0.81939759704108
 40
0.8506126947145374
 40
0.8813330493809627
 40
0.9116212417820223
 40
0.9415426576679499
 40
0.9711747001599969
 40
1.0
 40
1.0
 40
1.0
 40
1.0
 10
0.0000000000014901
 20
0.0000000000000971
 30
0.0
 10
7.854060999231306
 20
0.0000000000000971
 30
0.0
 10
23.5364042713223
 20
0.0000000000000971
 30
0.0
 10
46.92085270518886
 20
0.0000000000000971
 30
0.0
 10
70.00736101574742
 20
0.0000000000000971
 30
0.0
 10
92.66105113917617
 20
0.0000000000000971
 30
0.0
 10
114.7735923875817
 20
0.0000000000000833
 30
0.0
 10
135.8632671786216
 20
0.0000000000000833
 30
0.0
 10
155.8987075556696
 20
0.0000000000000694
 30
0.0
 10
174.8501613412841
 20
0.0000000000000694
 30
0.0
 10
193.0352159070594
 20
0.0000000000000694
 30
0.0
 10
210.3508120431067
 20
0.0000000000000833
 30
0.0
 10
226.2101842539444
 20
0.0000000000000833
 30
0.0
 10
240.5982226247341
 20
0.0000000000000833
 30
0.0
 10
253.5502020850857
 20
0.0000000000000694
 30
0.0
 10
265.4926022913253
 20
0.0000000000000694
 30
0.0
 10
276.3757383752005
 20
0.0000000000000555
 30
0.0
 10
286.1556866315831
 20
0.0000000000000694
 30
0.0
 10
294.7972753745863
 20
0.0000000000000694
 30
0.0
 10
302.0743927261679
 20
0.0000000000000833
 30
0.0
 10
308.0672942540161
 20
0.0000000000000833
 30
0.0
 10
312.8642574051051
 20
0.0000000000000833
 30
0.0
 10
316.6365229202
 20
0.0000000000000833
 30
0.0
 10
319.3322026622162
 20
0.0000000000000833
 30
0.0
 10
321.0263453630139
 20
0.0000000000000694
 30
0.0
 10
321.2276084166915
 20
0.0000000000000694
 30
0.0
 10
321.3268511745304
 20
0.0000000000000555
 30
0.0
  0
SPLINE
  5
A9
330
9E
100
AcDbEntity
  8
0
  6
Continuous
 62
     7
370
    25
100
AcDbSpline
210
0.0
220
0.0
230
1.0
 70
    24
 71
     3
 72
    32
 73
    28
 74
     0
 42
0.000000001
 43
0.00000001
 40
0.0
 40
0.0
 40
0.0
 40
0.0
 40
0.0315030691084127
 40
0.0638653205156857
 40
0.0965896990260618
 40
0.1297730054561164
 40
0.1634960964090741
 40
0.197855816178328
 40
0.2329838900089837
 40
0.2659646802383796
 40
0.2997625028438154
 40
0.3343977676805138
 40
0.3698646464576636
 40
0.4061370241136175
 40
0.4431836085812468
 40
0.4844351466151785
 40
0.5264855326255632
 40
0.5692415023412213
 40
0.6126057675072865
 40
0.6564999723548335
 40
0.7008820650722316
 40
0.745758395255845
 40
0.7957034777284125
 40
0.8462295970558649
 40
0.8972264547736344
 40
0.948538559791277
 40
1.0
 40
1.0
 40
1.0
 40
1.0
 10
-321.3257323667821
 20
0.0000000000000555
 30
0.0
 10
-321.2066650983733
 20
0.0000000000000694
 30
0.0
 10
-320.9652832433645
 20
0.0000000000000833
 30
0.0
 10
-318.9470575353077
 20
0.0000000000000971
 30
0.0
 10
-315.7422643163089
 20
0.000000000000111
 30
0.0
 10
-311.2633305113717
 20
0.0000000000001249
 30
0.0
 10
-305.5727918392905
 20
0.000000000000111
 30
0.0
 10
-298.683155823016
 20
0.0000000000000971
 30
0.0
 10
-290.8525411617795
 20
0.0000000000000694
 30
0.0
 10
-282.2077443369711
 20
0.0000000000000694
 30
0.0
 10
-272.8623240677962
 20
0.0000000000000833
 30
0.0
 10
-262.6005909758073
 20
0.0000000000000833
 30
0.0
 10
-251.4583061890467
 20
0.0000000000000833
 30
0.0
 10
-239.4744400377108
 20
0.0000000000000694
 30
0.0
 10
-226.2905512364801
 20
0.0000000000000694
 30
0.0
 10
-211.8801408788125
 20
0.0000000000000694
 30
0.0
 10
-196.2535954105146
 20
0.0000000000000833
 30
0.0
 10
-179.8919185251663
 20
0.0000000000000971
 30
0.0
 10
-162.8748144619057
 20
0.0000000000000971
 30
0.0
 10
-145.2729433746231
 20
0.0000000000000971
 30
0.0
 10
-127.142142893529
 20
0.0000000000000971
 30
0.0
 10
-107.8960291988241
 20
0.0000000000000833
 30
0.0
 10
-87.53258296221804
 20
0.0000000000000971
 30
0.0
 10
-66.08166452164943
 20
0.0000000000000971
 30
0.0
 10
-44.2639387351492
 20
0.0000000000000971
 30
0.0
 10
-22.195591502545
 20
0.0000000000000971
 30
0.0
 10
-7.405693992080808
 20
0.0000000000000971
 30
0.0
 10
0.0000000000014901
 20
0.0000000000000971
 30
0.0
  0
SPLINE
  5
AA
330
9E
100
AcDbEntity
  8
0
  6
Continuous
 62
     7
370
    25
100
AcDbSpline
210
0.0
220
0.0
230
1.0
 70
     8
 71
     3
 72
    22
 73
    18
 74
     0
 42
0.000000001
 43
0.00000001
 40
0.0
 40
0.0
 40
0.0
 40
0.0
 40
0.0637069103228325
 40
0.1278370381714357
 40
0.1923195076924976
 40
0.2570790610841643
 40
0.322170080780677
 40
0.3875780528146086
 40
0.4531980121378192
 40
0.5296728393267365
 40
0.6052941906946183
 40
0.6791356812048241
 40
0.7505968771321686
 40
0.8192174887186645
 40
0.8844368170593774
 40
0.9455127122246064
 40
1.0
 40
1.0
 40
1.0
 40
1.0
 10
0.0000000000141135
 20
-194.7268885781961
 30
0.0
 10
2.117790236237278
 20
-194.7356249548946
 30
0.0
 10
6.36743960543804
 20
-194.753155745759
 30
0.0
 10
12.59772369194477
 20
-194.883296822582
 30
0.0
 10
18.57750080986512
 20
-195.0759494480066
 30
0.0
 10
24.20300062053303
 20
-195.329455796554
 30
0.0
 10
29.3959689863269
 20
-195.6306508177375
 30
0.0
 10
34.09779668290046
 20
-195.969616840786
 30
0.0
 10
38.48809525085541
 20
-196.3558298799209
 30
0.0
 10
42.38884437546715
 20
-196.7812914661623
 30
0.0
 10
45.62912784993897
 20
-197.2340602785306
 30
0.0
 10
47.97579167180629
 20
-197.6781268129175
 30
0.0
 10
49.40005373554777
 20
-198.096151943485
 30
0.0
 10
49.91110911804648
 20
-198.4715939361072
 30
0.0
 10
49.53649427118956
 20
-198.786025137311
 30
0.0
 10
48.44350625214868
 20
-199.0282621255491
 30
0.0
 10
47.07588517275895
 20
-199.1384488565363
 30
0.0
 10
46.43106074490731
 20
-199.1904011822473
 30
0.0
  0
SPLINE
  5
AB
330
9E
100
AcDbEntity
  8
0
  6
Continuous
 62
     7
370
    25
100
AcDbSpline
210
0.0
220
0.0
230
1.0
 70
     8
 71
     3
 72
    22
 73
    18
 74
     0
 42
0.000000001
 43
0.00000001
 40
0.0
 40
0.0
 40
0.0
 40
0.0
 40
0.0544872877793601
 40
0.1155631829467999
 40
0.1807825112890151
 40
0.2494031228766782
 40
0.3208643188048856
 40
0.3947058093154732
 40
0.4703271606830734
 40
0.546801987871193
 40
0.6124219471934805
 40
0.677829919226344
 40
0.7429209389216466
 40
0.8076804923119294
 40
0.8721629618314082
 40
0.9362930896779385
 40
0.9999999999999999
 40
0.9999999999999999
 40
0.9999999999999999
 40
0.9999999999999999
 10
-46.43106074579824
 20
-199.1904011822497
 30
0.0
 10
-47.07588517363389
 20
-199.1384488565388
 30
0.0
 10
-48.44350625296324
 20
-199.0282621255539
 30
0.0
 10
-49.53649427181482
 20
-198.7860251373167
 30
0.0
 10
-49.91110911839281
 20
-198.4715939361134
 30
0.0
 10
-49.40005373558211
 20
-198.0961519434917
 30
0.0
 10
-47.97579167153069
 20
-197.678126812926
 30
0.0
 10
-45.62912784939594
 20
-197.23406027854
 30
0.0
 10
-42.3888443747196
 20
-196.7812914661708
 30
0.0
 10
-38.48809524997842
 20
-196.3558298799288
 30
0.0
 10
-34.09779668197294
 20
-195.9696168407926
 30
0.0
 10
-29.39596898541591
 20
-195.6306508177427
 30
0.0
 10
-24.20300061970461
 20
-195.3294557965588
 30
0.0
 10
-18.57750080918356
 20
-195.0759494480105
 30
0.0
 10
-12.59772369147745
 20
-194.8832968225851
 30
0.0
 10
-6.367439605199062
 20
-194.7531557457591
 30
0.0
 10
-2.117790236153294
 20
-194.7356249548947
 30
0.0
 10
0.0000000000141135
 20
-194.7268885781961
 30
0.0
  0
SPLINE
  5
AC
330
9E
100
AcDbEntity
  8
0
  6
Continuous
 62
     7
370
    25
100
AcDbSpline
210
0.0
220
0.0
230
1.0
 70
     8
 71
     3
 72
    18
 73
    14
 74
     0
 42
0.000000001
 43
0.00000001
 40
0.0
 40
0.0
 40
0.0
 40
0.0
 40
0.0903070176638023
 40
0.18160150154883
 40
0.2737852036859461
 40
0.3668831584011756
 40
0.4609478683662789
 40
0.5558886821075648
 40
0.6702615581527344
 40
0.7832662681977551
 40
0.8927876690282207
 40
0.9974076906516095
 40
1.0
 40
1.0
 40
1.0
 40
1.0
 10
0.0000000000144134
 20
-198.2842712474618
 30
0.0
 10
2.124482223142185
 20
-198.2876867850129
 30
0.0
 10
6.396676917580015
 20
-198.2945552074672
 30
0.0
 10
12.58844160894051
 20
-198.3447109511553
 30
0.0
 10
18.42072377147593
 20
-198.4181110857556
 30
0.0
 10
23.75828630958958
 20
-198.5134145607803
 30
0.0
 10
28.50576268736888
 20
-198.6249720052282
 30
0.0
 10
32.87399507195435
 20
-198.7565156589426
 30
0.0
 10
36.60099557373983
 20
-198.9041947957474
 30
0.0
 10
39.49956454207959
 20
-199.0633960973238
 30
0.0
 10
41.13582194552652
 20
-199.2156877525146
 30
0.0
 10
41.81437364562246
 20
-199.3171287772828
 30
0.0
 10
41.6371913243511
 20
-199.360142711676
 30
0.0
 10
41.63290719598977
 20
-199.3611827545817
 30
0.0
  0
SPLINE
  5
AD
330
9E
100
AcDbEntity
  8
0
  6
Continuous
 62
     7
370
    25
100
AcDbSpline
210
0.0
220
0.0
230
1.0
 70
     8
 71
     3
 72
    18
 73
    14
 74
     0
 42
0.000000001
 43
0.00000001
 40
0.0
 40
0.0
 40
0.0
 40
0.0
 40
0.0025923093830627
 40
0.1072123310058641
 40
0.2167337318348602
 40
0.3297384418770625
 40
0.4441113179182156
 40
0.5390521316556799
 40
0.6331168416167264
 40
0.726214796327645
 40
0.8183984984601634
 40
0.9096929823398174
 40
1.0
 40
1.0
 40
1.0
 40
1.0
 10
-41.63290719612161
 20
-199.3611827546248
 30
0.0
 10
-41.63719132453846
 20
-199.3601427117052
 30
0.0
 10
-41.81437364579283
 20
-199.3171287772994
 30
0.0
 10
-41.13582194547268
 20
-199.215687752517
 30
0.0
 10
-39.49956454160306
 20
-199.063396097327
 30
0.0
 10
-36.60099557301009
 20
-198.9041947957496
 30
0.0
 10
-32.87399507105227
 20
-198.7565156589455
 30
0.0
 10
-28.50576268641307
 20
-198.6249720052299
 30
0.0
 10
-23.75828630867323
 20
-198.5134145607815
 30
0.0
 10
-18.42072377069256
 20
-198.4181110857569
 30
0.0
 10
-12.58844160838236
 20
-198.3447109511565
 30
0.0
 10
-6.396676917289145
 20
-198.2945552074671
 30
0.0
 10
-2.124482223039722
 20
-198.287686785013
 30
0.0
 10
0.0000000000144134
 20
-198.2842712474618
 30
0.0
  0
SPLINE
  5
AE
330
9E
100
AcDbEntity
  8
0
  6
Continuous
 62
     7
370
    25
100
AcDbSpline
210
0.0
220
0.0
230
1.0
 70
    24
 71
     3
 72
    18
 73
    14
 74
     0
 42
0.000000001
 43
0.00000001
 40
0.0
 40
0.0
 40
0.0
 40
0.0
 40
0.0902470749638459
 40
0.181576925817649
 40
0.2739165082375958
 40
0.3672215159647882
 40
0.4614718995263752
 40
0.5565704605560537
 40
0.6710981341247909
 40
0.7842083940555843
 40
0.8937418733234078
 40
0.9982170047660412
 40
0.9999999999999999
 40
0.9999999999999999
 40
0.9999999999999999
 40
0.9999999999999999
 10
0.0000000000146534
 20
-205.0
 30
0.0
 10
2.120421231959279
 20
-205.0
 30
0.0
 10
6.38670430971245
 20
-205.0
 30
0.0
 10
12.56973586185868
 20
-204.9999999999999
 30
0.0
 10
18.39625503663535
 20
-205.0
 30
0.0
 10
23.73058165053385
 20
-205.0000000000001
 30
0.0
 10
28.47535157403942
 20
-205.0000000000003
 30
0.0
 10
32.84244020798214
 20
-204.9999999999997
 30
0.0
 10
36.57472605395696
 20
-205.0000000000003
 30
0.0
 10
39.48665578265031
 20
-205.0000000000004
 30
0.0
 10
41.13481377256739
 20
-204.9999999999993
 30
0.0
 10
41.82506491444231
 20
-205.0000000000007
 30
0.0
 10
41.64737410596494
 20
-204.9999999999996
 30
0.0
 10
41.64439248117498
 20
-204.9999999999996
 30
0.0
  0
SPLINE
  5
AF
330
9E
100
AcDbEntity
  8
0
  6
Continuous
 62
     7
370
    25
100
AcDbSpline
210
0.0
220
0.0
230
1.0
 70
    24
 71
     3
 72
    18
 73
    14
 74
     0
 42
0.000000001
 43
0.00000001
 40
0.0
 40
0.0
 40
0.0
 40
0.0
 40
0.0017829952683849
 40
0.1062581267105075
 40
0.2157916059769212
 40
0.3289018659049456
 40
0.4434295394696959
 40
0.5385281004955682
 40
0.632778484053111
 40
0.7260834917760004
 40
0.8184230741913513
 40
0.909752925039765
 40
1.0
 40
1.0
 40
1.0
 40
1.0
 10
-41.64439248131164
 20
-204.9999999999993
 30
0.0
 10
-41.64737410615796
 20
-204.9999999999993
 30
0.0
 10
-41.82506491461991
 20
-204.9999999999988
 30
0.0
 10
-41.13481377252066
 20
-204.9999999999992
 30
0.0
 10
-39.48665578217489
 20
-205.0000000000003
 30
0.0
 10
-36.57472605322391
 20
-204.9999999999996
 30
0.0
 10
-32.84244020707258
 20
-205.0000000000003
 30
0.0
 10
-28.47535157307348
 20
-204.9999999999999
 30
0.0
 10
-23.73058164960628
 20
-204.9999999999999
 30
0.0
 10
-18.39625503584135
 20
-205.0000000000001
 30
0.0
 10
-12.56973586129234
 20
-205.0
 30
0.0
 10
-6.386704309417136
 20
-204.9999999999999
 30
0.0
 10
-2.120421231855194
 20
-205.0
 30
0.0
 10
0.0000000000146534
 20
-205.0
 30
0.0
  0
VIEWPORT
  5
F4
330
9E
100
AcDbEntity
  8
0
100
AcDbViewport
 10
0.0
 20
0.0
 30
0.0
 40
205.6
 41
156.0
 68
     1
 69
     1
 12
0.0
 22
-0.473744661
 13
0.0
 23
0.0
 14
10.0
 24
10.0
 15
10.0
 25
10.0
 16
0.0
 26
0.0
 36
1.0
 17
0.0
 27
0.0
 37
0.0
 42
50.0
 43
0.0
 44
0.0
 45
497.3859817834
 50
0.0
 51
0.0
 72
   100
 90
   557152
  1

281
     0
 71
     1
 74
     0
110
0.0
120
0.0
130
0.0
111
1.0
121
0.0
131
0.0
112
0.0
122
1.0
132
0.0
 79
     0
146
0.0
170
     0
 61
     5
348
2F
292
     1
282
     1
141
0.0
142
0.0
 63
   256
361
F5
  0
ENDBLK
  5
A1
330
9E
100
AcDbEntity
  8
0
100
AcDbBlockEnd
  0
BLOCK
  5
B2
330
B0
100
AcDbEntity
  8
0
100
AcDbBlockBegin
  2
*Paper_Space3
 70
     0
 10
0.0
 20
0.0
 30
0.0
  3
*Paper_Space3
  1

  0
SPLINE
  5
B4
330
B0
100
AcDbEntity
  8
0
  6
Continuous
 62
     7
370
    25
100
AcDbSpline
210
0.0
220
0.0
230
1.0
 70
     8
 71
     3
 72
    36
 73
    32
 74
     0
 42
0.000000001
 43
0.00000001
 40
0.0
 40
0.0
 40
0.0
 40
0.0
 40
0.0482548729434025
 40
0.0940029420453281
 40
0.1372439525526295
 40
0.1779780502886008
 40
0.2162051183655735
 40
0.2519249206995351
 40
0.2851374656569924
 40
0.3158427478259203
 40
0.3440406291735417
 40
0.3697310131966268
 40
0.3929138914366615
 40
0.4135892644546627
 40
0.4321148981942226
 40
0.4521991552199262
 40
0.4748228325477818
 40
0.4999858554612299
 40
0.5276882117103218
 40
0.5579299018735532
 40
0.5907108096026148
 40
0.6260307660595517
 40
0.6638897830336496
 40
0.6991000079921701
 40
0.7362541814069021
 40
0.7753522403999741
 40
0.8163942926146907
 40
0.8593801336754282
 40
0.9043096312562933
 40
0.951182993341462
 40
1.0
 40
1.0
 40
1.0
 40
1.0
 10
-221.3074661265793
 20
0.0000000000000139
 30
0.0
 10
-219.3656423333084
 20
-5.226061833181806
 30
0.0
 10
-215.5828710116394
 20
-15.40669557365587
 30
0.0
 10
-209.0428044740669
 20
-29.85974858509402
 30
0.0
 10
-202.222055467261
 20
-43.20626415309234
 30
0.0
 10
-195.180945392693
 20
-55.44633203126101
 30
0.0
 10
-188.060531494913
 20
-66.62100998793868
 30
0.0
 10
-180.967023524723
 20
-76.76858300036794
 30
0.0
 10
-174.0010043477428
 20
-85.93316858748929
 30
0.0
 10
-167.2529160589028
 20
-94.16224999578334
 30
0.0
 10
-160.8028777707357
 20
-101.5041626708298
 30
0.0
 10
-154.7213455145952
 20
-108.0069706995602
 30
0.0
 10
-149.0698758163558
 20
-113.7174483251084
 30
0.0
 10
-143.8725549527892
 20
-118.7094108437209
 30
0.0
 10
-138.827421866839
 20
-123.3403589220009
 30
0.0
 10
-133.5111466704461
 20
-128.0062937240291
 30
0.0
 10
-127.492809795701
 20
-133.031327310193
 30
0.0
 10
-120.647081815359
 20
-138.4336920803235
 30
0.0
 10
-112.9319443855762
 20
-144.1481771739446
 30
0.0
 10
-104.3053527319962
 20
-150.1014076500944
 30
0.0
 10
-94.72567056812241
 20
-156.210487427959
 30
0.0
 10
-84.15283932478371
 20
-162.3822008138036
 30
0.0
 10
-73.0795430500789
 20
-168.2323297185347
 30
0.0
 10
-61.57871502306268
 20
-173.7010670527502
 30
0.0
 10
-49.7274360552123
 20
-178.7411961058919
 30
0.0
 10
-37.03406140180734
 20
-183.4906149710743
 30
0.0
 10
-23.4926018325076
 20
-187.8532546353503
 30
0.0
 10
-9.104808095827801
 20
-191.7341804095425
 30
0.0
 10
6.12195344428689
 20
-195.0050900022576
 30
0.0
 10
22.16239631649833
 20
-197.6351600262052
 30
0.0
 10
33.17115613560946
 20
-198.653007937673
 30
0.0
 10
38.78733996317089
 20
-199.1722690600183
 30
0.0
  0
SPLINE
  5
B5
330
B0
100
AcDbEntity
  8
0
  6
Continuous
 62
     7
370
    25
100
AcDbSpline
210
0.0
220
0.0
230
1.0
 70
     8
 71
     3
 72
    30
 73
    26
 74
     0
 42
0.000000001
 43
0.00000001
 40
0.0
 40
0.0
 40
0.0
 40
0.0
 40
0.0560906990112972
 40
0.1087632243933441
 40
0.158017426119732
 40
0.2038532948486272
 40
0.2462706102819486
 40
0.2852692746012546
 40
0.320849239077941
 40
0.353010371405112
 40
0.3817525818706697
 40
0.4070758368590813
 40
0.4291004619565083
 40
0.4523072917817078
 40
0.484711487322748
 40
0.522085945738203
 40
0.5644305341015073
 40
0.6117449777482781
 40
0.6640289963932915
 40
0.7113967588314213
 40
0.7622156332077287
 40
0.8164855783427336
 40
0.8742063703542039
 40
0.9353778714013297
 40
0.9999999999999999
 40
0.9999999999999999
 40
0.9999999999999999
 40
0.9999999999999999
 10
136.5573826692656
 20
-194.7268885781961
 30
0.0
 10
139.6458026151464
 20
-192.021385122181
 30
0.0
 10
145.6344338412799
 20
-186.7752519009804
 30
0.0
 10
153.8330116277706
 20
-178.6093793542368
 30
0.0
 10
161.1578988147114
 20
-170.6504359310112
 30
0.0
 10
167.6364440465946
 20
-162.9455143823781
 30
0.0
 10
173.3381348967046
 20
-155.5792860308812
 30
0.0
 10
178.3215178402542
 20
-148.6143962847493
 30
0.0
 10
182.646794029987
 20
-142.1078300764106
 30
0.0
 10
186.3707938362876
 20
-136.1074479318172
 30
0.0
 10
189.5468540398022
 20
-130.653720227346
 30
0.0
 10
192.2284810708809
 20
-125.7727850112351
 30
0.0
 10
194.6155702730137
 20
-121.1938269606845
 30
0.0
 10
197.1366142654714
 20
-116.1016241426423
 30
0.0
 10
199.9990197051025
 20
-109.9267229246726
 30
0.0
 10
203.209133962477
 20
-102.373318344133
 30
0.0
 10
206.5291476922003
 20
-93.68699084285501
 30
0.0
 10
209.8349317463635
 20
-83.83563530314247
 30
0.0
 10
212.7854464972368
 20
-73.4882086456487
 30
0.0
 10
215.3164284117707
 20
-62.76745559619311
 30
0.0
 10
217.3858801731899
 20
-51.79964195962985
 30
0.0
 10
219.0287210310694
 20
-39.99286186111028
 30
0.0
 10
220.1121701804239
 20
-27.36210015997084
 30
0.0
 10
220.5800464952061
 20
-13.92885077151143
 30
0.0
 10
220.2197408020425
 20
-4.727087684794837
 30
0.0
 10
220.0346462077931
 20
0.0000000000000971
 30
0.0
  0
SPLINE
  5
B6
330
B0
100
AcDbEntity
  8
0
  6
Continuous
 62
     7
370
    25
100
AcDbSpline
210
0.0
220
0.0
230
1.0
 70
     8
 71
     3
 72
     9
 73
     5
 74
     0
 42
0.000000001
 43
0.00000001
 40
0.0
 40
0.0
 40
0.0
 40
0.0
 40
0.5000000001591003
 40
1.0
 40
1.0
 40
1.0
 40
1.0
 10
38.78733995651143
 20
-199.1722690593039
 30
0.0
 10
40.15525490791936
 20
-199.2716355319471
 30
0.0
 10
42.89108480986468
 20
-199.4703684771703
 30
0.0
 10
45.63042386250902
 20
-199.6127819576194
 30
0.0
 10
47.00009338839536
 20
-199.6839886978213
 30
0.0
  0
LWPOLYLINE
  5
BA
330
B0
100
AcDbEntity
  8
0
  6
Continuous
 62
     7
370
    25
100
AcDbPolyline
 90
       26
 70
   128
 43
0.0
 10
38.7873905373
 20
-199.1722717035
 10
39.1529754575
 20
-199.1913900387
 10
40.2366582703
 20
-199.2385269348
 10
42.03115334
 20
-199.2983406793
 10
44.5465340137
 20
-199.3554922049
 10
47.787096183
 20
-199.3946424443
 10
51.0427727047
 20
-199.4024502816
 10
54.798605034
 20
-199.3782283205
 10
59.0585522215
 20
-199.3130997858
 10
63.8522690812
 20
-199.1981879026
 10
69.2170299982
 20
-199.0246158958
 10
75.1834131727
 20
-198.7835069902
 10
81.6632034095
 20
-198.4702296148
 10
88.471935825
 20
-198.0971330152
 10
95.4376349215
 20
-197.6808116408
 10
102.3987719897
 20
-197.2378599411
 10
109.1833385702
 20
-196.7848723657
 10
115.5861832067
 20
-196.3384433642
 10
120.6173235052
 20
-195.9735889066
 10
125.1209869552
 20
-195.6361949826
 10
129.0050822907
 20
-195.3367117409
 10
132.1791361581
 20
-195.0855893307
 10
134.5552567835
 20
-194.8932779008
 10
136.0431922021
 20
-194.7702276004
 10
136.5573826693
 20
-194.7268885782
 10
136.5573826693
 20
-194.7268885782
  0
LWPOLYLINE
  5
BC
330
B0
100
AcDbEntity
  8
0
  6
Continuous
 62
     7
370
    25
100
AcDbPolyline
 90
       22
 70
   128
 43
0.0
 10
47.0001239596
 20
-199.6839890611
 10
47.4573575622
 20
-199.6894245756
 10
48.8168330713
 20
-199.7007731738
 10
51.0923472132
 20
-199.7105959392
 10
54.3155753357
 20
-199.7114543189
 10
57.5973306954
 20
-199.7006879572
 10
61.5188504764
 20
-199.6756151754
 10
66.1181222893
 20
-199.6324274344
 10
71.4692464211
 20
-199.5673161951
 10
77.6494108518
 20
-199.4764729181
 10
84.5567749765
 20
-199.3580584363
 10
91.9054481821
 20
-199.2181110692
 10
99.4259859584
 20
-199.0646385084
 10
106.8513888459
 20
-198.9056484454
 10
113.8627541169
 20
-198.7491485718
 10
119.1535648524
 20
-198.6264113925
 10
123.7844489355
 20
-198.5155984889
 10
127.6189936762
 20
-198.4213439419
 10
130.5226791102
 20
-198.3482818321
 10
132.3601699018
 20
-198.3010462404
 10
133.0
 20
-198.2842712475
 10
133.0
 20
-198.2842712475
  0
LINE
  5
BE
330
B0
100
AcDbEntity
  8
0
  6
Continuous
 62
     7
370
    25
100
AcDbLine
 10
133.0
 20
-198.2842712475
 30
0.0
 11
136.5573826693
 21
-194.7268885782
 31
0.0
  0
LINE
  5
BF
330
B0
100
AcDbEntity
  8
0
  6
Continuous
 62
     7
370
    25
100
AcDbLine
 10
47.0000933874
 20
-199.6839886977
 30
0.0
 11
47.000090559
 21
-205.0
 31
0.0
  0
LINE
  5
C0
330
B0
100
AcDbEntity
  8
0
  6
Continuous
 62
     7
370
    25
100
AcDbLine
 10
133.0
 20
-205.0
 30
0.0
 11
133.0
 21
-198.2842712475
 31
0.0
  0
LINE
  5
C1
330
B0
100
AcDbEntity
  8
0
  6
Continuous
 62
     7
370
    25
100
AcDbLine
 10
-221.3072687391
 20
0.0
 30
0.0
 11
220.0346462078
 21
0.0
 31
0.0
  0
LINE
  5
C2
330
B0
100
AcDbEntity
  8
0
  6
Continuous
 62
     7
370
    25
100
AcDbLine
 10
47.0001199926
 20
-205.0
 30
0.0
 11
133.0
 21
-205.0
 31
0.0
  0
VIEWPORT
  5
F6
330
B0
100
AcDbEntity
  8
0
100
AcDbViewport
 10
0.0
 20
0.0
 30
0.0
 40
205.6
 41
156.0
 68
     1
 69
     1
 12
0.0
 22
-0.473744661
 13
0.0
 23
0.0
 14
10.0
 24
10.0
 15
10.0
 25
10.0
 16
0.0
 26
0.0
 36
1.0
 17
0.0
 27
0.0
 37
0.0
 42
50.0
 43
0.0
 44
0.0
 45
497.3859817834
 50
0.0
 51
0.0
 72
   100
 90
   557152
  1

281
     0
 71
     1
 74
     0
110
0.0
120
0.0
130
0.0
111
1.0
121
0.0
131
0.0
112
0.0
122
1.0
132
0.0
 79
     0
146
0.0
170
     0
 61
     5
348
2F
292
     1
282
     1
141
0.0
142
0.0
 63
   256
361
F7
  0
ENDBLK
  5
B3
330
B0
100
AcDbEntity
  8
0
100
AcDbBlockEnd
  0
BLOCK
  5
C5
330
C3
100
AcDbEntity
  8
0
100
AcDbBlockBegin
  2
*Paper_Space4
 70
     0
 10
0.0
 20
0.0
 30
0.0
  3
*Paper_Space4
  1

  0
LWPOLYLINE
  5
C7
330
C3
100
AcDbEntity
  8
0
  6
Continuous
 62
     7
370
    25
100
AcDbPolyline
 90
        3
 70
   128
 43
0.0
 10
41.3347391136
 20
-89.8133662283
 10
41.3378083494
 20
-89.7867043349
 10
41.3417089532
 20
-89.7529632642
  0
LWPOLYLINE
  5
C8
330
C3
100
AcDbEntity
  8
0
  6
Continuous
 62
     7
370
    25
100
AcDbPolyline
 90
        3
 70
   128
 43
0.0
 10
-41.3417089536
 20
-89.7529632584
 10
-41.3378083498
 20
-89.7867043288
 10
-41.3347391141
 20
-89.8133662216
  0
SPLINE
  5
C9
330
C3
100
AcDbEntity
  8
0
  6
Continuous
 62
     7
370
    25
100
AcDbSpline
210
0.0
220
0.0
230
1.0
 70
     8
 71
     3
 72
    28
 73
    24
 74
     0
 42
0.000000001
 43
0.00000001
 40
0.0
 40
0.0
 40
0.0
 40
0.0
 40
0.0179109929204955
 40
0.037141140161998
 40
0.0623318577046863
 40
0.0901961463342302
 40
0.1210495972820051
 40
0.1551527064852996
 40
0.1912859631991703
 40
0.2537688482418905
 40
0.319129989042114
 40
0.3874089915600867
 40
0.458633673901885
 40
0.5177472009981892
 40
0.5787677449243458
 40
0.641665512280089
 40
0.7031198663540518
 40
0.7609116310761185
 40
0.815170967740077
 40
0.8660446347686037
 40
0.9136932724722716
 40
0.9582842552538758
 40
1.0
 40
1.0
 40
1.0
 40
1.0
 10
-104.6632217026819
 20
-207.0143621346104
 30
0.0
 10
-103.6627333620995
 20
-207.265107824127
 30
0.0
 10
-101.5880701732432
 20
-207.7850667588825
 30
0.0
 10
-97.70633403495746
 20
-208.7131894785599
 30
0.0
 10
-92.98325736377387
 20
-209.8003918952562
 30
0.0
 10
-87.29303171977986
 20
-211.0449224226338
 30
0.0
 10
-80.87399452636123
 20
-212.3644164415459
 30
0.0
 10
-73.79735441602524
 20
-213.7101994801686
 30
0.0
 10
-64.46529233631058
 20
-215.3176457289981
 30
0.0
 10
-52.88037552323048
 20
-217.018281962762
 30
0.0
 10
-38.95654496183066
 20
-218.6016578527414
 30
0.0
 10
-24.35889508345463
 20
-219.7534821716927
 30
0.0
 10
-10.17285096568761
 20
-220.3526075803239
 30
0.0
 10
3.505125536378639
 20
-220.4538591505986
 30
0.0
 10
16.5830603536259
 20
-220.1276414973032
 30
0.0
 10
29.80937372133383
 20
-219.3656617717551
 30
0.0
 10
42.76857616926114
 20
-218.1978468985888
 30
0.0
 10
55.05527795207605
 20
-216.7122487839583
 30
0.0
 10
66.51873626585761
 20
-214.998480276931
 30
0.0
 10
77.17916181377089
 20
-213.1238426248933
 30
0.0
 10
87.04947333925779
 20
-211.1434683848562
 30
0.0
 10
96.17171395820004
 20
-209.1199382506555
 30
0.0
 10
101.8962889661733
 20
-207.7004578975755
 30
0.0
 10
104.6632217030903
 20
-207.0143621345053
 30
0.0
  0
SPLINE
  5
CA
330
C3
100
AcDbEntity
  8
0
  6
Continuous
 62
     7
370
    25
100
AcDbSpline
210
0.0
220
0.0
230
1.0
 70
    11
 71
     3
 72
    47
 73
    43
 74
     0
 42
0.000000001
 43
0.00000001
 40
0.0
 40
0.0
 40
0.0
 40
0.0
 40
0.0062500000000001
 40
0.03125
 40
0.046875
 40
0.078125
 40
0.09375
 40
0.125
 40
0.15625
 40
0.171875
 40
0.203125
 40
0.2500000000002257
 40
0.2578125
 40
0.296875
 40
0.328125
 40
0.34375
 40
0.375
 40
0.40625
 40
0.421875
 40
0.453125
 40
0.46875
 40
0.5000000000014923
 40
0.515625
 40
0.546875
 40
0.578125
 40
0.59375
 40
0.625
 40
0.65625
 40
0.671875
 40
0.703125
 40
0.7421875
 40
0.7500000000000442
 40
0.796875
 40
0.828125
 40
0.84375
 40
0.875
 40
0.90625
 40
0.921875
 40
0.953125
 40
0.96875
 40
0.99375
 40
1.0
 40
1.0
 40
1.0
 40
1.0
 10
-0.0000000000146534
 20
-133.0000000000001
 30
0.0
 10
-0.633741199317669
 20
-133.0000000000003
 30
0.0
 10
-3.804591195825937
 20
-132.9002450180099
 30
0.0
 10
-8.544703741655677
 20
-132.0235805052882
 30
0.0
 10
-15.52357937130366
 20
-129.3986235128474
 30
0.0
 10
-21.13778786437391
 20
-125.9536427692693
 30
0.0
 10
-27.35593971980295
 20
-120.48366635087
 30
0.0
 10
-32.70689224273541
 20
-113.9974058009108
 30
0.0
 10
-36.73403254827146
 20
-106.5386964588841
 30
0.0
 10
-39.67402214821946
 20
-98.76340096858912
 30
0.0
 10
-41.86224376081058
 20
-89.298826688363
 30
0.0
 10
-41.78149849344013
 20
-81.00191808683074
 30
0.0
 10
-40.3508562421645
 20
-72.92821785256491
 30
0.0
 10
-38.32929266924442
 20
-67.06747150164517
 30
0.0
 10
-34.98148047836001
 20
-61.83303116896089
 30
0.0
 10
-31.31551974112776
 20
-57.71825116594633
 30
0.0
 10
-27.06037137180688
 20
-54.22393714033517
 30
0.0
 10
-22.1201426957799
 20
-51.5333278192405
 30
0.0
 10
-16.76516682738181
 20
-49.42548855786214
 30
0.0
 10
-12.21114814941347
 20
-48.20250431703209
 30
0.0
 10
-6.236663214767468
 20
-47.23877536294366
 30
0.0
 10
-1.247241909246218
 20
-46.92055621168689
 30
0.0
 10
4.988967635998114
 20
-47.11936653658542
 30
0.0
 10
11.07264347974548
 20
-47.89675825680083
 30
0.0
 10
16.76516682747362
 20
-49.42548855793019
 30
0.0
 10
22.12014269614878
 20
-51.53332781947058
 30
0.0
 10
27.06037137243599
 20
-54.22393714079819
 30
0.0
 10
31.31551974195853
 20
-57.71825116673121
 30
0.0
 10
34.98148047931963
 20
-61.83303117012004
 30
0.0
 10
38.32929267025087
 20
-67.06747150326618
 30
0.0
 10
40.35085624303584
 20
-72.92821785460855
 30
0.0
 10
41.78149849393998
 20
-81.00191808907911
 30
0.0
 10
41.86224376083926
 20
-89.29882669064378
 30
0.0
 10
39.67402214777904
 20
-98.7634009706595
 30
0.0
 10
36.73403254752861
 20
-106.5386964606676
 30
0.0
 10
32.70689224179415
 20
-113.9974058022885
 30
0.0
 10
27.35593971882714
 20
-120.4836663518127
 30
0.0
 10
21.1377878634872
 20
-125.9536427698176
 30
0.0
 10
15.52357937059601
 20
-129.3986235131289
 30
0.0
 10
8.54470374124948
 20
-132.0235805053606
 30
0.0
 10
3.804591195749863
 20
-132.9002450180149
 30
0.0
 10
0.6337411992883509
 20
-132.9999999999998
 30
0.0
 10
-0.0000000000146534
 20
-133.0000000000001
 30
0.0
  0
SPLINE
  5
CB
330
C3
100
AcDbEntity
  8
0
  6
Continuous
 62
     7
370
    25
100
AcDbSpline
210
0.0
220
0.0
230
1.0
 70
    11
 71
     3
 72
    47
 73
    43
 74
     0
 42
0.000000001
 43
0.00000001
 40
0.0
 40
0.0
 40
0.0
 40
0.0
 40
0.0062500000000001
 40
0.03125
 40
0.046875
 40
0.078125
 40
0.09375
 40
0.125
 40
0.15625
 40
0.171875
 40
0.203125
 40
0.2500000000002257
 40
0.2578125
 40
0.296875
 40
0.328125
 40
0.34375
 40
0.375
 40
0.40625
 40
0.421875
 40
0.453125
 40
0.46875
 40
0.5000000000014923
 40
0.515625
 40
0.546875
 40
0.578125
 40
0.59375
 40
0.625
 40
0.65625
 40
0.671875
 40
0.703125
 40
0.7421875
 40
0.7500000000000442
 40
0.796875
 40
0.828125
 40
0.84375
 40
0.875
 40
0.90625
 40
0.921875
 40
0.953125
 40
0.96875
 40
0.99375
 40
1.0
 40
1.0
 40
1.0
 40
1.0
 10
-0.000000000015467
 20
-113.0
 30
0.0
 10
-0.389711239756113
 20
-113.0
 30
0.0
 10
-2.340482425621977
 20
-112.9470050368053
 30
0.0
 10
-5.258631048271918
 20
-112.4802060119359
 30
0.0
 10
-9.52085474772439
 20
-111.0733907247487
 30
0.0
 10
-12.87884239582399
 20
-109.226467899154
 30
0.0
 10
-16.44496564035722
 20
-106.3004572320674
 30
0.0
 10
-19.35287483896364
 20
-102.8320352448439
 30
0.0
 10
-21.34732884353473
 20
-98.81855738510083
 30
0.0
 10
-22.62562550321271
 20
-94.63752300693714
 30
0.0
 10
-23.29668560311622
 20
-89.56888395515263
 30
0.0
 10
-22.60431641337841
 20
-85.17638183404884
 30
0.0
 10
-21.20102504724452
 20
-80.89095884342723
 30
0.0
 10
-19.69564731690707
 20
-77.8538460281756
 30
0.0
 10
-17.66066059859467
 20
-75.14751129909536
 30
0.0
 10
-15.61424723199113
 20
-73.00879840193836
 30
0.0
 10
-13.3783793236952
 20
-71.16966715876097
 30
0.0
 10
-10.90520997505399
 20
-69.69727752220024
 30
0.0
 10
-8.252366770323615
 20
-68.49788846994753
 30
0.0
 10
-6.01610314212007
 20
-67.7646573987013
 30
0.0
 10
-3.088087887774008
 20
-67.16151341404185
 30
0.0
 10
-0.6176175777176889
 20
-66.94627011968619
 30
0.0
 10
2.470470309950224
 20
-67.08079717862313
 30
0.0
 10
5.457037234952512
 20
-67.58134963084521
 30
0.0
 10
8.252366770483333
 20
-68.49788846999724
 30
0.0
 10
10.90520997549836
 20
-69.69727752242162
 30
0.0
 10
13.37837932440531
 20
-71.16966715923198
 30
0.0
 10
15.61424723290423
 20
-73.00879840275596
 30
0.0
 10
17.66066059963373
 20
-75.14751130031627
 30
0.0
 10
19.69564731798465
 20
-77.85384602989436
 30
0.0
 10
21.20102504817047
 20
-80.89095884559727
 30
0.0
 10
22.60431641390434
 20
-85.17638183644225
 30
0.0
 10
23.29668560314019
 20
-89.56888395758469
 30
0.0
 10
22.62562550273817
 20
-94.63752300915634
 30
0.0
 10
21.34732884274
 20
-98.81855738701614
 30
0.0
 10
19.3528748379604
 20
-102.8320352463276
 30
0.0
 10
16.44496563931929
 20
-106.300457233087
 30
0.0
 10
12.87884239488229
 20
-109.2264678997516
 30
0.0
 10
9.52085474697375
 20
-111.0733907250592
 30
0.0
 10
5.258631047841656
 20
-112.4802060120197
 30
0.0
 10
2.340482425541508
 20
-112.9470050368137
 30
0.0
 10
0.3897112397251721
 20
-113.0
 30
0.0
 10
-0.000000000015467
 20
-113.0
 30
0.0
  0
SPLINE
  5
CC
330
C3
100
AcDbEntity
  8
0
  6
Continuous
 62
     7
370
    25
100
AcDbSpline
210
0.0
220
0.0
230
1.0
 70
     8
 71
     3
 72
    17
 73
    13
 74
     0
 42
0.000000001
 43
0.00000001
 40
0.0
 40
0.0
 40
0.0
 40
0.0
 40
0.0978697363077697
 40
0.1968096337301931
 40
0.29671321656825
 40
0.3976076156358026
 40
0.4995497304161202
 40
0.6024413178705597
 40
0.7263922965306457
 40
0.8488605327735442
 40
0.9675537517129582
 40
1.0
 40
1.0
 40
1.0
 40
1.0
 10
-0.0000000000144134
 20
-133.0000000000001
 30
0.0
 10
-2.124483981875057
 20
-132.8715457336517
 30
0.0
 10
-6.396682213009576
 20
-132.6132326118957
 30
0.0
 10
-12.58842006957146
 20
-130.6724150790613
 30
0.0
 10
-18.42080573548612
 20
-127.7617671499807
 30
0.0
 10
-23.75797567942294
 20
-123.8937740064358
 30
0.0
 10
-28.50693961577893
 20
-119.240068399865
 30
0.0
 10
-32.86917464659134
 20
-113.5811600369638
 30
0.0
 10
-36.62300780033401
 20
-106.9636612941211
 30
0.0
 10
-39.42005259003525
 20
-99.5538351965474
 30
0.0
 10
-40.96112411878705
 20
-93.77565662563138
 30
0.0
 10
-41.17783726383779
 20
-90.50468827847025
 30
0.0
 10
-41.22436070765043
 20
-89.80248485617007
 30
0.0
  0
SPLINE
  5
CD
330
C3
100
AcDbEntity
  8
0
  6
Continuous
 62
     7
370
    25
100
AcDbSpline
210
0.0
220
0.0
230
1.0
 70
     8
 71
     3
 72
    17
 73
    13
 74
     0
 42
0.000000001
 43
0.00000001
 40
0.0
 40
0.0
 40
0.0
 40
0.0
 40
0.0324462482197273
 40
0.151139467170338
 40
0.2736077034233779
 40
0.3975586820924668
 40
0.5004502695538513
 40
0.6023923843407565
 40
0.7032867834145085
 40
0.8031903662583473
 40
0.9021302636856078
 40
1.0
 40
1.0
 40
1.0
 40
1.0
 10
41.22436070729845
 20
-89.80248486290515
 30
0.0
 10
41.17783726353406
 20
-90.504688283672
 30
0.0
 10
40.96112411833887
 20
-93.77565662926219
 30
0.0
 10
39.4200525895184
 20
-99.55383519851081
 30
0.0
 10
36.62300779961507
 20
-106.9636612958238
 30
0.0
 10
32.86917464568693
 20
-113.5811600383232
 30
0.0
 10
28.50693961482369
 20
-119.2400684008732
 30
0.0
 10
23.75797567850643
 20
-123.8937740071196
 30
0.0
 10
18.42080573470278
 20
-127.7617671503804
 30
0.0
 10
12.5884200690133
 20
-130.672415079227
 30
0.0
 10
6.396682212718706
 20
-132.613232611936
 30
0.0
 10
2.124483981772594
 20
-132.8715457336643
 30
0.0
 10
-0.0000000000144134
 20
-133.0000000000001
 30
0.0
  0
SPLINE
  5
CE
330
C3
100
AcDbEntity
  8
0
  6
Continuous
 62
     7
370
    25
100
AcDbSpline
210
0.0
220
0.0
230
1.0
 70
    11
 71
     3
 72
    47
 73
    43
 74
     0
 42
0.000000001
 43
0.00000001
 40
0.0
 40
0.0
 40
0.0
 40
0.0
 40
0.0062500000000001
 40
0.03125
 40
0.046875
 40
0.078125
 40
0.09375
 40
0.125
 40
0.15625
 40
0.171875
 40
0.203125
 40
0.2500000000002257
 40
0.2578125
 40
0.296875
 40
0.328125
 40
0.34375
 40
0.375
 40
0.40625
 40
0.421875
 40
0.453125
 40
0.46875
 40
0.5000000000014923
 40
0.515625
 40
0.546875
 40
0.578125
 40
0.59375
 40
0.625
 40
0.65625
 40
0.671875
 40
0.703125
 40
0.7421875
 40
0.7500000000000442
 40
0.796875
 40
0.828125
 40
0.84375
 40
0.875
 40
0.90625
 40
0.921875
 40
0.953125
 40
0.96875
 40
0.99375
 40
1.0
 40
1.0
 40
1.0
 40
1.0
 10
-0.0000000000141135
 20
-136.5573826692656
 30
0.0
 10
-0.7395005772843809
 20
-136.557382669266
 30
0.0
 10
-4.43910066932801
 20
-136.449614954116
 30
0.0
 10
-9.96825459124382
 20
-135.5016544139824
 30
0.0
 10
-18.11909041682125
 20
-132.6557449099829
 30
0.0
 10
-24.70183641886409
 20
-128.9093847761918
 30
0.0
 10
-32.06011161233356
 20
-122.9297186944462
 30
0.0
 10
-38.46185661778495
 20
-115.8085089545739
 30
0.0
 10
-43.35538406691523
 20
-107.5756704689146
 30
0.0
 10
-46.9979225370397
 20
-98.95472414751228
 30
0.0
 10
-49.82140112566712
 20
-88.40471542402211
 30
0.0
 10
-50.00177043682018
 20
-79.02379377534199
 30
0.0
 10
-48.5789284902238
 20
-69.77863534471068
 30
0.0
 10
-46.36373656169669
 20
-62.95416714855943
 30
0.0
 10
-42.48496057049181
 20
-56.75385968952244
 30
0.0
 10
-38.14423306066393
 20
-51.82639136277035
 30
0.0
 10
-33.03153459411934
 20
-47.59725753049974
 30
0.0
 10
-27.02468223560415
 20
-44.31731695855872
 30
0.0
 10
-20.49655474895581
 20
-41.74416879002955
 30
0.0
 10
-14.93343559662802
 20
-40.25172648102159
 30
0.0
 10
-7.623388817805383
 20
-39.076967107587
 30
0.0
 10
-1.524527218629215
 20
-38.69084278946986
 30
0.0
 10
6.098108873618372
 20
-38.93204332000587
 30
0.0
 10
13.54265580840523
 20
-39.87861590375081
 30
0.0
 10
20.49655474906962
 20
-41.74416879009994
 30
0.0
 10
27.02468223598106
 20
-44.31731695878528
 30
0.0
 10
33.03153459474256
 20
-47.59725753095014
 30
0.0
 10
38.14423306147683
 20
-51.82639136352959
 30
0.0
 10
42.48496057142445
 20
-56.7538596906407
 30
0.0
 10
46.36373656266996
 20
-62.9541671501206
 30
0.0
 10
48.57892849106342
 20
-69.77863534667692
 30
0.0
 10
50.00177043729972
 20
-79.02379377750403
 30
0.0
 10
49.82140112569195
 20
-88.40471542621462
 30
0.0
 10
46.99792253661239
 20
-98.95472414950181
 30
0.0
 10
43.35538406619735
 20
-107.575670470628
 30
0.0
 10
38.46185661687654
 20
-115.8085089558971
 30
0.0
 10
32.06011161139271
 20
-122.9297186953513
 30
0.0
 10
24.70183641800986
 20
-128.9093847767179
 30
0.0
 10
18.11909041613987
 20
-132.6557449102527
 30
0.0
 10
9.968254590852872
 20
-135.5016544140514
 30
0.0
 10
4.439100669254775
 20
-136.4496149541206
 30
0.0
 10
0.7395005772561407
 20
-136.5573826692654
 30
0.0
 10
-0.0000000000141135
 20
-136.5573826692656
 30
0.0
  0
SPLINE
  5
CF
330
C3
100
AcDbEntity
  8
0
  6
Continuous
 62
     7
370
    25
100
AcDbSpline
210
0.0
220
0.0
230
1.0
 70
     8
 71
     3
 72
    97
 73
    93
 74
     0
 42
0.000000001
 43
0.00000001
 40
0.0
 40
0.0
 40
0.0
 40
0.0
 40
0.0069868568164694
 40
0.0219495879963416
 40
0.0358823219032795
 40
0.0496389703360975
 40
0.0631930779535252
 40
0.0765089183527509
 40
0.0895503415092771
 40
0.1011431656882266
 40
0.1124704303401531
 40
0.1235206562323661
 40
0.1342853456827275
 40
0.1447652677625931
 40
0.1549750350485591
 40
0.1649462332683177
 40
0.1739088156573121
 40
0.1827293457929933
 40
0.1914257920654981
 40
0.2000169282483274
 40
0.2085249785824123
 40
0.2169760550592472
 40
0.2261643632918915
 40
0.2353581265086282
 40
0.2445981657321485
 40
0.2539217815670631
 40
0.2633620999179681
 40
0.2729566117787898
 40
0.2827521197715214
 40
0.2919452096183506
 40
0.3013691843606853
 40
0.3110350403028011
 40
0.3209457681857024
 40
0.3310981498187859
 40
0.3414869237108272
 40
0.3530800060285545
 40
0.3649248579085035
 40
0.3769958982750031
 40
0.3892658077249583
 40
0.4017123397304885
 40
0.4143231513966063
 40
0.4270991739186795
 40
0.4413446667926473
 40
0.4557801058123702
 40
0.4703697635603454
 40
0.4850641150129775
 40
0.499809614286758
 40
0.5154459407022419
 40
0.5310181361256312
 40
0.5464683905233937
 40
0.5617426282980142
 40
0.5767961005848135
 40
0.5916214014093374
 40
0.6053940550117027
 40
0.6189610072731763
 40
0.632295984563284
 40
0.6453639513680086
 40
0.6581302242461786
 40
0.6694515300593358
 40
0.6804908792396746
 40
0.6912417270146564
 40
0.7017012641035093
 40
0.7118764749649157
 40
0.7217889820775356
 40
0.731478285152115
 40
0.7402033754659271
 40
0.7488137556144249
 40
0.7573350087455
 40
0.7657934930330095
 40
0.7742186500602048
 40
0.7826421324285802
 40
0.7918633413691857
 40
0.8011553330062483
 40
0.8105513001662509
 40
0.8200790367244329
 40
0.8297617585835296
 40
0.839627272102035
 40
0.8497133988103646
 40
0.8591829880283258
 40
0.8688871671674216
 40
0.878831796394847
 40
0.889015202266168
 40
0.8994298865102858
 40
0.9100668644115693
 40
0.9219111870331136
 40
0.9339848783911856
 40
0.9462611600389795
 40
0.9587120981458348
 40
0.9713151948595344
 40
0.98405837607939
 40
0.9969434649293727
 40
0.9999999999999999
 40
0.9999999999999999
 40
0.9999999999999999
 40
0.9999999999999999
 10
-104.6240659456648
 20
-206.8623660973282
 30
0.0
 10
-108.0267155358645
 20
-206.0342291598402
 30
0.0
 10
-118.7163229748997
 20
-203.4325922492958
 30
0.0
 10
-135.8534070110479
 20
-197.9204357921974
 30
0.0
 10
-155.9012347862474
 20
-190.4919881964748
 30
0.0
 10
-174.8494984093969
 20
-182.2037016043283
 30
0.0
 10
-193.0353891417778
 20
-173.0268749264366
 30
0.0
 10
-210.3507668519594
 20
-162.991567904398
 30
0.0
 10
-226.2101947776708
 20
-152.4719418704338
 30
0.0
 10
-240.598220051919
 20
-141.6020464980839
 30
0.0
 10
-253.5502026066639
 20
-130.5373501059363
 30
0.0
 10
-265.4926026711703
 20
-118.9782799322131
 30
0.0
 10
-276.3757364324339
 20
-106.9832589558894
 30
0.0
 10
-286.155693748093
 20
-94.60419612989122
 30
0.0
 10
-294.7972497678958
 20
-81.88204843556048
 30
0.0
 10
-302.0744819317483
 20
-69.20178784495936
 30
0.0
 10
-308.0670003156832
 20
-56.63597701072777
 30
0.0
 10
-312.8653325080547
 20
-44.24971509738569
 30
0.0
 10
-316.6325904660645
 20
-31.70552711151835
 30
0.0
 10
-319.3466295362643
 20
-19.05147011532461
 30
0.0
 10
-320.9848708646792
 20
-6.336865804317687
 30
0.0
 10
-321.5407877915415
 20
6.771494665073384
 30
0.0
 10
-320.8702573423712
 20
20.22305603006632
 30
0.0
 10
-318.8755601320148
 20
33.9416491146299
 30
0.0
 10
-315.6059387511866
 20
47.48244814933515
 30
0.0
 10
-311.0917956124659
 20
60.79022422282258
 30
0.0
 10
-305.3610872744429
 20
73.81457936969409
 30
0.0
 10
-298.436829354923
 20
86.51435959065827
 30
0.0
 10
-290.575712085784
 20
98.50699794145675
 30
0.0
 10
-281.9061958035617
 20
109.8162902467777
 30
0.0
 10
-272.5412597734178
 20
120.4692534826565
 30
0.0
 10
-262.2646415258066
 20
130.7593313747157
 30
0.0
 10
-251.1121174061726
 20
140.6511555324877
 30
0.0
 10
-239.1223803844316
 20
150.1058366256507
 30
0.0
 10
-225.9355019748809
 20
159.3633771035193
 30
0.0
 10
-211.5267284934716
 20
168.3121668056854
 30
0.0
 10
-195.9082637841121
 20
176.8582044911554
 30
0.0
 10
-179.5597960317931
 20
184.724061933951
 30
0.0
 10
-162.5610820704626
 20
191.8796014557298
 30
0.0
 10
-144.9827778044261
 20
198.2983249913531
 30
0.0
 10
-126.8804650084668
 20
203.9596525892807
 30
0.0
 10
-107.6666592581193
 20
209.0171844387376
 30
0.0
 10
-87.34134771816478
 20
213.361082384311
 30
0.0
 10
-65.93532974636527
 20
216.8777348998639
 30
0.0
 10
-44.16520062431258
 20
219.417476154752
 30
0.0
 10
-22.1459869403247
 20
220.9595865522548
 30
0.0
 10
0.4457544702278353
 20
221.4920343082447
 30
0.0
 10
23.47791642514165
 20
220.9172637213928
 30
0.0
 10
46.80600365521432
 20
219.1856649076818
 30
0.0
 10
69.84104826008559
 20
216.3340563239402
 30
0.0
 10
92.45042669257833
 20
212.3878300010322
 30
0.0
 10
114.5245815606334
 20
207.3651241662315
 30
0.0
 10
135.5815287195409
 20
201.3973643059572
 30
0.0
 10
155.5897273304988
 20
194.5724148208912
 30
0.0
 10
174.5189609910597
 20
186.9838403825332
 30
0.0
 10
192.6881211194188
 20
178.5263553438915
 30
0.0
 10
209.9941274151872
 20
169.2389058867995
 30
0.0
 10
225.8520087968778
 20
159.4558287575297
 30
0.0
 10
240.2441958748334
 20
149.3008197046065
 30
0.0
 10
253.2036810311507
 20
138.9200790079398
 30
0.0
 10
265.1588913641199
 20
128.0274811992119
 30
0.0
 10
276.0604490935173
 20
116.6722591359676
 30
0.0
 10
285.8642848437009
 20
104.8970258504881
 30
0.0
 10
294.5347357379904
 20
92.73360663128102
 30
0.0
 10
301.8436790007225
 20
80.5453296788978
 30
0.0
 10
307.8700476278083
 20
68.40165964192524
 30
0.0
 10
312.7045513252544
 20
56.36434160262583
 30
0.0
 10
316.5101413582952
 20
44.10250172629063
 30
0.0
 10
319.2640901457183
 20
31.65690833567437
 30
0.0
 10
320.9431577640975
 20
19.07013174448242
 30
0.0
 10
321.5422259971481
 20
6.002428901372889
 30
0.0
 10
320.9150104482903
 20
-7.502984958420394
 30
0.0
 10
318.9642154634921
 20
-21.37257739037405
 30
0.0
 10
315.7375758435533
 20
-35.15877489430628
 30
0.0
 10
311.2646162143909
 20
-48.79750120549883
 30
0.0
 10
305.5724379039403
 20
-62.22903219060577
 30
0.0
 10
298.6832539861141
 20
-75.40317386861533
 30
0.0
 10
290.8525164342988
 20
-87.91302115065733
 30
0.0
 10
282.2077509617853
 20
-99.77026130991281
 30
0.0
 10
272.8623222118743
 20
-110.9903594469725
 30
0.0
 10
262.6005915475179
 20
-121.8751271137285
 30
0.0
 10
251.4583058130719
 20
-132.3820445809597
 30
0.0
 10
239.4744409806556
 20
-142.4651543264591
 30
0.0
 10
226.2905476080358
 20
-152.3761764202426
 30
0.0
 10
211.8801562089227
 20
-161.9967447676872
 30
0.0
 10
196.253536775373
 20
-171.2236014908048
 30
0.0
 10
179.8921425817316
 20
-179.7532579608211
 30
0.0
 10
162.8739611568841
 20
-187.5401555725553
 30
0.0
 10
145.2761848076823
 20
-194.5759795120588
 30
0.0
 10
127.1298436800948
 20
-200.7293190553788
 30
0.0
 10
113.36102514467
 20
-204.9116973127493
 30
0.0
 10
105.5779651516173
 20
-206.7170445678244
 30
0.0
 10
104.085695860607
 20
-207.06318917814
 30
0.0
  0
VIEWPORT
  5
F8
330
C3
100
AcDbEntity
  8
0
100
AcDbViewport
 10
0.0
 20
0.0
 30
0.0
 40
205.6
 41
156.0
 68
     1
 69
     1
 12
0.0
 22
-0.473744661
 13
0.0
 23
0.0
 14
10.0
 24
10.0
 15
10.0
 25
10.0
 16
0.0
 26
0.0
 36
1.0
 17
0.0
 27
0.0
 37
0.0
 42
50.0
 43
0.0
 44
0.0
 45
497.3859817834
 50
0.0
 51
0.0
 72
   100
 90
   557152
  1

281
     0
 71
     1
 74
     0
110
0.0
120
0.0
130
0.0
111
1.0
121
0.0
131
0.0
112
0.0
122
1.0
132
0.0
 79
     0
146
0.0
170
     0
 61
     5
348
2F
292
     1
282
     1
141
0.0
142
0.0
 63
   256
361
F9
  0
ENDBLK
  5
C6
330
C3
100
AcDbEntity
  8
0
100
AcDbBlockEnd
  0
BLOCK
  5
D2
330
D0
100
AcDbEntity
  8
0
100
AcDbBlockBegin
  2
*Paper_Space5
 70
     0
 10
0.0
 20
0.0
 30
0.0
  3
*Paper_Space5
  1

  0
SPLINE
  5
D4
330
D0
100
AcDbEntity
  8
0
  6
Continuous
 62
     7
370
    25
100
AcDbSpline
210
0.0
220
0.0
230
1.0
 70
     8
 71
     3
 72
   136
 73
   132
 74
     0
 42
0.000000001
 43
0.00000001
 40
0.0
 40
0.0
 40
0.0
 40
0.0
 40
0.0067402560360645
 40
0.0120055488491646
 40
0.0158031751803628
 40
0.01891826130515
 40
0.0219527220965778
 40
0.0249392641500483
 40
0.0281571620763459
 40
0.0330549181723282
 40
0.037616934186479
 40
0.0413145069624623
 40
0.0448946339266849
 40
0.0520430934470599
 40
0.0605111164460287
 40
0.069274787862345
 40
0.0776297940012543
 40
0.087793899868845
 40
0.0979184482701897
 40
0.1081963249918865
 40
0.1187456843474988
 40
0.1300926415881835
 40
0.142177000622649
 40
0.153674982538811
 40
0.1661984740350881
 40
0.1778953287607905
 40
0.1898245809524957
 40
0.2006887888486011
 40
0.2042666729874452
 40
0.2091255652499639
 40
0.2150387897920062
 40
0.2201930470583463
 40
0.2243382132872049
 40
0.2280960928209353
 40
0.2318461331978889
 40
0.236258593144574
 40
0.2412088156638808
 40
0.2458091432197647
 40
0.2498896709344586
 40
0.254643917354315
 40
0.272629286859304
 40
0.2924197049725031
 40
0.3130441844816021
 40
0.3323584958956115
 40
0.3501259845436554
 40
0.3688763921351925
 40
0.387463547081417
 40
0.3920614759345444
 40
0.3971586627968505
 40
0.4025638932079099
 40
0.4071067931814765
 40
0.4099346401255498
 40
0.4124760837677968
 40
0.4160725174601262
 40
0.4208370568721494
 40
0.4285190205453212
 40
0.4357349916596142
 40
0.4418923685738318
 40
0.4468118731061353
 40
0.4511558708168559
 40
0.4583103192660798
 40
0.46585410364257
 40
0.474392729920467
 40
0.4801104022219491
 40
0.4859660103025733
 40
0.4909383033060439
 40
0.4949820258983755
 40
0.50166955424222
 40
0.5083861479609584
 40
0.5153751693882483
 40
0.5237117234893317
 40
0.5334996707640124
 40
0.5447006099971319
 40
0.5572643537111958
 40
0.5725818355252472
 40
0.5880333474785951
 40
0.6023901967528642
 40
0.6157146360761785
 40
0.6280693059799399
 40
0.6410079833091709
 40
0.6529272522568031
 40
0.6648488204563423
 40
0.677102873875545
 40
0.6897116058475871
 40
0.6955109992157799
 40
0.7006966549391904
 40
0.705259642304474
 40
0.7092102910149658
 40
0.7127862935010699
 40
0.717353057897611
 40
0.7242743938328288
 40
0.7318579457543816
 40
0.7395637120589085
 40
0.7469217270920262
 40
0.7526023865926398
 40
0.7577847241679038
 40
0.7625166723470244
 40
0.7669291452471901
 40
0.7719282851223107
 40
0.777892567438986
 40
0.7835830174961497
 40
0.7885400606239024
 40
0.7933628724228529
 40
0.7987212125665568
 40
0.8044471076614679
 40
0.8211925358363371
 40
0.837361837403569
 40
0.8530529210198194
 40
0.8683259665144543
 40
0.8766251017396901
 40
0.8845404561016813
 40
0.8930232330986903
 40
0.9030212374982339
 40
0.9132602332130408
 40
0.9228295682040751
 40
0.9307722924251817
 40
0.9350944242775829
 40
0.9394507881836199
 40
0.9440275037317545
 40
0.9489913381822109
 40
0.9549061576961823
 40
0.9613971874159934
 40
0.9669076405535417
 40
0.9714096337168416
 40
0.9752789372281675
 40
0.9770589162224698
 40
0.9796127668071619
 40
0.9831901148722213
 40
0.9877855814588388
 40
0.9933918853596865
 40
0.9999999999999999
 40
0.9999999999999999
 40
0.9999999999999999
 40
0.9999999999999999
 10
-266.0701922366161
 20
12.75874747415062
 30
0.0
 10
-265.3748092320941
 20
11.39676857623868
 30
0.0
 10
-264.1362131631915
 20
8.970851207087808
 30
0.0
 10
-262.4612792318301
 20
5.800124048812652
 30
0.0
 10
-261.1528001589236
 20
3.366385117883494
 30
0.0
 10
-260.0716922684742
 20
1.385651576238489
 30
0.0
 10
-259.0690423253445
 20
-0.4278727143410543
 30
0.0
 10
-258.0454637776007
 20
-2.256047710191819
 30
0.0
 10
-256.8039179423506
 20
-4.445173801335314
 30
0.0
 10
-255.3689010519362
 20
-6.933540666449037
 30
0.0
 10
-253.8579683657231
 20
-9.503546860778005
 30
0.0
 10
-252.4821870292703
 20
-11.80502015868562
 30
0.0
 10
-250.7855188322353
 20
-14.60222173618893
 30
0.0
 10
-248.4966076470889
 20
-18.29624509058959
 30
0.0
 10
-245.5295880942769
 20
-22.94065864415683
 30
0.0
 10
-242.3400585725514
 20
-27.77021878148692
 30
0.0
 10
-238.8650194836124
 20
-32.86352863999879
 30
0.0
 10
-235.1318380496069
 20
-38.14841686540014
 30
0.0
 10
-231.0520293217649
 20
-43.71121062866607
 30
0.0
 10
-226.8238666356375
 20
-49.26555515311848
 30
0.0
 10
-222.3277934197049
 20
-54.95427514468587
 30
0.0
 10
-217.469668830118
 20
-60.86603928896292
 30
0.0
 10
-212.3563390465397
 20
-66.83664585837386
 30
0.0
 10
-206.9585132817184
 20
-72.88587770443613
 30
0.0
 10
-201.4937349651866
 20
-78.76152136806495
 30
0.0
 10
-195.8505570884985
 20
-84.58245312640028
 30
0.0
 10
-190.3666592172224
 20
-90.01684135709851
 30
0.0
 10
-186.0969647734856
 20
-94.08851021422119
 30
0.0
 10
-182.9412000835031
 20
-97.02599245894936
 30
0.0
 10
-180.5834301441627
 20
-99.1899655626388
 30
0.0
 10
-177.9441221715501
 20
-101.5692680932208
 30
0.0
 10
-175.4014761989371
 20
-103.8196279736703
 30
0.0
 10
-173.2056832182992
 20
-105.7332469846005
 30
0.0
 10
-171.236928786208
 20
-107.4267073946022
 30
0.0
 10
-169.2130730834387
 20
-109.1461067462692
 30
0.0
 10
-166.9766248289102
 20
-111.0207124855713
 30
0.0
 10
-164.58206835133
 20
-112.9971822808221
 30
0.0
 10
-162.2296443977407
 20
-114.9086732873866
 30
0.0
 10
-159.9003450068767
 20
-116.774626271015
 30
0.0
 10
-155.230398027372
 20
-120.4619857879498
 30
0.0
 10
-147.7143221492282
 20
-126.1794512653968
 30
0.0
 10
-137.1979775873389
 20
-133.7011256259108
 30
0.0
 10
-126.2197697546875
 20
-141.0524339705261
 30
0.0
 10
-115.4108045962869
 20
-147.8307670897412
 30
0.0
 10
-104.7647343075848
 20
-154.1065386531485
 30
0.0
 10
-94.09080695627503
 20
-160.0198851395139
 30
0.0
 10
-85.83814245137661
 20
-164.3059483764405
 30
0.0
 10
-80.22427236668214
 20
-167.104182526888
 30
0.0
 10
-77.21334288744973
 20
-168.5789776229989
 30
0.0
 10
-74.19818272774278
 20
-170.0277928630291
 30
0.0
 10
-71.62586559590908
 20
-171.2412528495875
 30
0.0
 10
-69.62439661423379
 20
-172.1724576590355
 30
0.0
 10
-67.81281900497757
 20
-173.0067996492304
 30
0.0
 10
-65.6060934830309
 20
-174.0113231918021
 30
0.0
 10
-62.34565967169662
 20
-175.4718005018822
 30
0.0
 10
-58.32697066900299
 20
-177.2284951888903
 30
0.0
 10
-54.00414204469448
 20
-179.0623166526736
 30
0.0
 10
-50.22556983127205
 20
-180.6214839542446
 30
0.0
 10
-47.02558665513561
 20
-181.9111137052587
 30
0.0
 10
-43.60784967001615
 20
-183.2609593080648
 30
0.0
 10
-39.62806172572691
 20
-184.7929590716687
 30
0.0
 10
-34.74470438038676
 20
-186.6100158178325
 30
0.0
 10
-30.1382004231906
 20
-188.2589386591558
 30
0.0
 10
-25.87088204819324
 20
-189.7325988378503
 30
0.0
 10
-22.34549218037191
 20
-190.9137928249176
 30
0.0
 10
-19.16421049508656
 20
-191.9488736552164
 30
0.0
 10
-15.79691990600741
 20
-193.0171694022494
 30
0.0
 10
-12.04690800405231
 20
-194.170597333191
 30
0.0
 10
-7.646610571021658
 20
-195.4704519867357
 30
0.0
 10
-2.873770037510353
 20
-196.8203275041938
 30
0.0
 10
2.55667430764539
 20
-198.2792480486781
 30
0.0
 10
8.917873875770255
 20
-199.8806681771322
 30
0.0
 10
16.2340049284971
 20
-201.576668691765
 30
0.0
 10
24.81626686307496
 20
-203.3681362842788
 30
0.0
 10
34.41766455522319
 20
-205.1043172262185
 30
0.0
 10
44.50031933027064
 20
-206.6012983249927
 30
0.0
 10
54.19483014954999
 20
-207.7171130354903
 30
0.0
 10
63.23152125368314
 20
-208.4638135807427
 30
0.0
 10
71.96859008177806
 20
-208.9114528806538
 30
0.0
 10
80.39531423022598
 20
-209.0706780940766
 30
0.0
 10
88.70740931780534
 20
-208.9499066203514
 30
0.0
 10
96.8445450615894
 20
-208.5587671659214
 30
0.0
 10
105.1139367345307
 20
-207.865830101268
 30
0.0
 10
111.9806068100024
 20
-207.0245634032216
 30
0.0
 10
117.2443912425901
 20
-206.2209099286178
 30
0.0
 10
120.7010129878284
 20
-205.6293325962354
 30
0.0
 10
123.7318256749647
 20
-205.0600415702627
 30
0.0
 10
126.3904995153031
 20
-204.5213198553587
 30
0.0
 10
129.0174719218193
 20
-203.9544860196129
 30
0.0
 10
132.2622010379156
 20
-203.208130375981
 30
0.0
 10
136.3565923210094
 20
-202.1828028720563
 30
0.0
 10
141.0866318972958
 20
-200.873451599017
 30
0.0
 10
145.855933724021
 20
-199.4178333953535
 30
0.0
 10
150.185413587581
 20
-197.9724463500825
 30
0.0
 10
153.9448207624289
 20
-196.6220137474358
 30
0.0
 10
157.14137222856
 20
-195.405330363532
 30
0.0
 10
160.1272214973837
 20
-194.2088566971494
 30
0.0
 10
163.1021976114507
 20
-192.9560404637346
 30
0.0
 10
166.208198988049
 20
-191.5859931619991
 30
0.0
 10
169.2996074953903
 20
-190.1552478332548
 30
0.0
 10
172.3732775500491
 20
-188.6610718256569
 30
0.0
 10
175.4382483404903
 20
-187.0995028113788
 30
0.0
 10
178.422329943705
 20
-185.508617629622
 30
0.0
 10
181.2509194836708
 20
-183.9383163591739
 30
0.0
 10
186.2520542102583
 20
-181.0418777801292
 30
0.0
 10
193.3187448292896
 20
-176.5736754080321
 30
0.0
 10
201.7397354324739
 20
-170.5444670339297
 30
0.0
 10
209.6245100176948
 20
-164.2403208734769
 30
0.0
 10
215.9138074858641
 20
-158.6603953608508
 30
0.0
 10
220.7837767968396
 20
-153.9956168790287
 30
0.0
 10
224.5074334979286
 20
-150.2376717145635
 30
0.0
 10
228.3763068266173
 20
-146.1233254694748
 30
0.0
 10
232.4571517168624
 20
-141.5207502993023
 30
0.0
 10
236.5347494236014
 20
-136.6156545547704
 30
0.0
 10
240.1864086058698
 20
-131.9357656902692
 30
0.0
 10
242.9605060962495
 20
-128.1734408223585
 30
0.0
 10
245.0141123944437
 20
-125.2743766140646
 30
0.0
 10
246.6196049743303
 20
-122.9421488386589
 30
0.0
 10
248.2682370092824
 20
-120.4750710861266
 30
0.0
 10
250.0608602128027
 20
-117.7051309566288
 30
0.0
 10
252.0185553137829
 20
-114.5663224546525
 30
0.0
 10
253.97902540705
 20
-111.2858965650629
 30
0.0
 10
255.7304637097506
 20
-108.228768974826
 30
0.0
 10
257.1599422022178
 20
-105.64272649904
 30
0.0
 10
258.1853183602234
 20
-103.7304938123251
 30
0.0
 10
259.0033641112734
 20
-102.1725281565373
 30
0.0
 10
259.7736989182103
 20
-100.6814416229929
 30
0.0
 10
260.797727462119
 20
-98.65377605745584
 30
0.0
 10
262.0801513781533
 20
-96.03223806849986
 30
0.0
 10
263.6024654135674
 20
-92.80584941713163
 30
0.0
 10
264.6568585696369
 20
-90.42488892902256
 30
0.0
 10
265.227295126055
 20
-89.13676704205257
 30
0.0
  0
SPLINE
  5
D5
330
D0
100
AcDbEntity
  8
0
  6
Continuous
 62
     7
370
    25
100
AcDbSpline
210
0.0
220
0.0
230
1.0
 70
    11
 71
     3
 72
    47
 73
    43
 74
     0
 42
0.000000001
 43
0.00000001
 40
0.0
 40
0.0
 40
0.0
 40
0.0
 40
0.0062500000000001
 40
0.03125
 40
0.046875
 40
0.078125
 40
0.09375
 40
0.125
 40
0.15625
 40
0.171875
 40
0.203125
 40
0.2500000000002257
 40
0.2578125
 40
0.296875
 40
0.328125
 40
0.34375
 40
0.375
 40
0.40625
 40
0.421875
 40
0.453125
 40
0.46875
 40
0.5000000000014923
 40
0.515625
 40
0.546875
 40
0.578125
 40
0.59375
 40
0.625
 40
0.65625
 40
0.671875
 40
0.703125
 40
0.7421875
 40
0.7500000000000442
 40
0.796875
 40
0.828125
 40
0.84375
 40
0.875
 40
0.90625
 40
0.921875
 40
0.953125
 40
0.96875
 40
0.99375
 40
1.0
 40
1.0
 40
1.0
 40
1.0
 10
141.4213562373093
 20
81.640811182271
 30
0.0
 10
138.6299199302947
 20
83.25227306137992
 30
0.0
 10
124.4852221794207
 20
91.20208375102655
 30
0.0
 10
101.9801983812868
 20
102.2724196698634
 30
0.0
 10
65.84912578323558
 20
117.1600355389768
 30
0.0
 10
33.26999396552159
 20
127.8281641562585
 30
0.0
 10
-8.377424545554153
 20
138.14325392482
 30
0.0
 10
-50.32836681877104
 20
145.2744886977724
 30
0.0
 10
-90.63158706853852
 20
147.640100228233
 30
0.0
 10
-128.3044920772578
 20
146.483183889735
 30
0.0
 10
-169.69560222845
 20
140.9023072055228
 30
0.0
 10
-201.0263673671298
 20
129.4783995910778
 30
0.0
 10
-227.8897731634289
 20
112.7582786940602
 30
0.0
 10
-244.8820185067312
 20
95.97197096214356
 30
0.0
 10
-253.7438122913297
 20
74.06860748791127
 30
0.0
 10
-255.7478631516967
 20
52.32050033752942
 30
0.0
 10
-251.6507387275319
 20
29.0559304688759
 30
0.0
 10
-239.2970246706845
 20
4.836165797456021
 30
0.0
 10
-221.4289243692705
 20
-19.20633109070978
 30
0.0
 10
-202.9493748849212
 20
-38.01377039488555
 30
0.0
 10
-174.9173372035557
 20
-60.68583545499556
 30
0.0
 10
-148.8662662922068
 20
-77.88165753329133
 30
0.0
 10
-112.8080415362675
 20
-97.35073116833843
 30
0.0
 10
-73.99365918705028
 20
-114.4931760859589
 30
0.0
 10
-33.26994614405422
 20
-127.8281971386987
 30
0.0
 10
8.377392582954945
 20
-138.1432318810175
 30
0.0
 10
50.33180138878559
 20
-145.2748792046535
 30
0.0
 10
90.6315849830115
 20
-147.6400987896094
 30
0.0
 10
128.3044934740201
 20
-146.4831848535254
 30
0.0
 10
166.2463429464491
 20
-141.3673801946415
 30
0.0
 10
195.3242314593928
 20
-131.5579657572092
 30
0.0
 10
224.287468588785
 20
-116.0500516862384
 30
0.0
 10
244.0764011700328
 20
-97.96318596143976
 30
0.0
 10
253.7438106218122
 20
-74.06860668157636
 30
0.0
 10
255.7478656437366
 20
-52.32050154147959
 30
0.0
 10
251.6500622764765
 20
-29.0539477338093
 30
0.0
 10
239.2970628558081
 20
-4.836184249071243
 30
0.0
 10
221.4288672358167
 20
19.20635869745498
 30
0.0
 10
202.9491241303545
 20
38.01389116623745
 30
0.0
 10
177.1602227603068
 20
58.87191540156277
 30
0.0
 10
157.9837606824235
 20
71.86378910041839
 30
0.0
 10
144.2127925443238
 20
80.02934930316206
 30
0.0
 10
141.4213562373093
 20
81.640811182271
 30
0.0
  0
SPLINE
  5
D6
330
D0
100
AcDbEntity
  8
0
  6
Continuous
 62
     7
370
    25
100
AcDbSpline
210
0.0
220
0.0
230
1.0
 70
    11
 71
     3
 72
    47
 73
    43
 74
     0
 42
0.000000001
 43
0.00000001
 40
0.0
 40
0.0
 40
0.0
 40
0.0
 40
0.0062500000000001
 40
0.03125
 40
0.046875
 40
0.078125
 40
0.09375
 40
0.125
 40
0.15625
 40
0.171875
 40
0.203125
 40
0.2500000000002257
 40
0.2578125
 40
0.296875
 40
0.328125
 40
0.34375
 40
0.375
 40
0.40625
 40
0.421875
 40
0.453125
 40
0.46875
 40
0.5000000000014923
 40
0.515625
 40
0.546875
 40
0.578125
 40
0.59375
 40
0.625
 40
0.65625
 40
0.671875
 40
0.703125
 40
0.7421875
 40
0.7500000000000442
 40
0.796875
 40
0.828125
 40
0.84375
 40
0.875
 40
0.90625
 40
0.921875
 40
0.953125
 40
0.96875
 40
0.99375
 40
1.0
 40
1.0
 40
1.0
 40
1.0
 10
155.5879904295126
 20
89.81903502304161
 30
0.0
 10
152.6113854469998
 20
91.53739250317906
 30
0.0
 10
137.503369218537
 20
100.0001089807209
 30
0.0
 10
113.285490772369
 20
111.6822669982488
 30
0.0
 10
74.09921194773719
 20
127.2279140646632
 30
0.0
 10
38.5075779262163
 20
138.2053208650848
 30
0.0
 10
-7.132919135816651
 20
148.6100051839981
 30
0.0
 10
-53.21974038113493
 20
155.5557199707887
 30
0.0
 10
-97.64919439636698
 20
157.4325881152622
 30
0.0
 10
-139.2779892588833
 20
155.5838524639206
 30
0.0
 10
-185.1039874648544
 20
148.9439837208235
 30
0.0
 10
-219.6276841529042
 20
136.243240038355
 30
0.0
 10
-248.9521250493149
 20
117.9265311420668
 30
0.0
 10
-267.2912594643346
 20
99.6779761751493
 30
0.0
 10
-276.6947942235493
 20
76.01804828385998
 30
0.0
 10
-278.7039678005146
 20
52.6384863040044
 30
0.0
 10
-274.1650185337212
 20
27.72404431747645
 30
0.0
 10
-260.8795988511533
 20
1.860942919778799
 30
0.0
 10
-241.7455086225005
 20
-23.80191600375146
 30
0.0
 10
-222.0025035740821
 20
-43.87485499311011
 30
0.0
 10
-192.1322287837364
 20
-68.03674074306785
 30
0.0
 10
-164.4122032605431
 20
-86.33864904046426
 30
0.0
 10
-126.0356907914706
 20
-107.0568380521983
 30
0.0
 10
-84.69449239459496
 20
-125.3099688117711
 30
0.0
 10
-41.23059525726852
 20
-139.5567115794235
 30
0.0
 10
3.223596970138021
 20
-150.602586750398
 30
0.0
 10
48.02465692048563
 20
-158.2720962830817
 30
0.0
 10
91.18241251616767
 20
-160.8923759206174
 30
0.0
 10
131.6813898726127
 20
-159.732504703221
 30
0.0
 10
172.6660278547162
 20
-154.3039596365877
 30
0.0
 10
204.276877323584
 20
-143.7170026885226
 30
0.0
 10
236.0057856527412
 20
-126.7883632952559
 30
0.0
 10
258.006502828215
 20
-106.8582574214752
 30
0.0
 10
269.5083390947368
 20
-80.40347176312035
 30
0.0
 10
272.7107901648477
 20
-56.37168002005971
 30
0.0
 10
269.4596069070026
 20
-30.7231021623933
 30
0.0
 10
257.4279723487095
 20
-4.117746568388717
 30
0.0
 10
239.4045775992567
 20
22.22995155899558
 30
0.0
 10
220.3890909179813
 20
42.77656453266314
 30
0.0
 10
193.4603225742824
 20
65.39832178047551
 30
0.0
 10
173.2240387023854
 20
79.37900542022342
 30
0.0
 10
158.5645954120253
 20
88.10067754290417
 30
0.0
 10
155.5879904295126
 20
89.81903502304161
 30
0.0
  0
SPLINE
  5
D7
330
D0
100
AcDbEntity
  8
0
  6
Continuous
 62
     7
370
    25
100
AcDbSpline
210
0.0
220
0.0
230
1.0
 70
    11
 71
     3
 72
    47
 73
    43
 74
     0
 42
0.000000001
 43
0.00000001
 40
0.0
 40
0.0
 40
0.0
 40
0.0
 40
0.0062500000000001
 40
0.03125
 40
0.046875
 40
0.078125
 40
0.09375
 40
0.125
 40
0.15625
 40
0.171875
 40
0.203125
 40
0.2500000000002257
 40
0.2578125
 40
0.296875
 40
0.328125
 40
0.34375
 40
0.375
 40
0.40625
 40
0.421875
 40
0.453125
 40
0.46875
 40
0.5000000000014923
 40
0.515625
 40
0.546875
 40
0.578125
 40
0.59375
 40
0.625
 40
0.65625
 40
0.671875
 40
0.703125
 40
0.7421875
 40
0.7500000000000442
 40
0.796875
 40
0.828125
 40
0.84375
 40
0.875
 40
0.90625
 40
0.921875
 40
0.953125
 40
0.96875
 40
0.99375
 40
1.0
 40
1.0
 40
1.0
 40
1.0
 10
86.97413408592168
 20
-96.76824726232472
 30
0.0
 10
86.57875468628308
 20
-96.5399995933016
 30
0.0
 10
84.54584450453733
 20
-95.42850265904897
 30
0.0
 10
81.11166319176073
 20
-93.99278832116276
 30
0.0
 10
75.36017368838344
 20
-92.32041623294337
 30
0.0
 10
70.0795574627929
 20
-91.4354144224987
 30
0.0
 10
63.49299606700612
 20
-91.06051496676076
 30
0.0
 10
57.02394322110138
 20
-91.38876663448714
 30
0.0
 10
50.92859258622713
 20
-92.57133758297074
 30
0.0
 10
45.38991306420955
 20
-94.27133308607655
 30
0.0
 10
39.56632360093537
 20
-96.84760984800212
 30
0.0
 10
35.8099330233734
 20
-99.82963099412463
 30
0.0
 10
32.89081189161119
 20
-103.1535049571071
 30
0.0
 10
31.33465818712414
 20
-105.8180866456201
 30
0.0
 10
30.65358737529708
 20
-108.5941271828695
 30
0.0
 10
30.56029828628867
 20
-111.0456122423485
 30
0.0
 10
30.96034721017747
 20
-113.4306402558992
 30
0.0
 10
31.97999031816619
 20
-115.7442610269239
 30
0.0
 10
33.45005605418748
 20
-117.9978947030933
 30
0.0
 10
34.97814133675056
 20
-119.7384872285233
 30
0.0
 10
37.34427798701535
 20
-121.8117316960561
 30
0.0
 10
39.61988187617416
 20
-123.3775506751097
 30
0.0
 10
42.9086509447693
 20
-125.117607217465
 30
0.0
 10
46.43041973420425
 20
-126.5643587399833
 30
0.0
 10
50.19932146476529
 20
-127.6670398109286
 30
0.0
 10
54.10315248244761
 20
-128.5156906963725
 30
0.0
 10
58.11089545537695
 20
-129.1043181333255
 30
0.0
 10
62.24233280298339
 20
-129.3352614611797
 30
0.0
 10
66.48888960406077
 20
-129.2814068161674
 30
0.0
 10
71.29765389886289
 20
-128.8882330050281
 30
0.0
 10
75.9133448844619
 20
-127.9898845927725
 30
0.0
 10
81.67108732938831
 20
-126.3047118327631
 30
0.0
 10
86.83665916346071
 20
-124.1361937100631
 30
0.0
 10
91.29938495400094
 20
-120.7743070724364
 30
0.0
 10
94.24418261201261
 20
-117.5768954431851
 30
0.0
 10
96.29267753604596
 20
-114.0581244210197
 30
0.0
 10
96.86128771154611
 20
-110.3236197046304
 30
0.0
 10
96.21187244047997
 20
-106.5212787464064
 30
0.0
 10
94.67883823240294
 20
-103.4728438875575
 30
0.0
 10
91.7818909163159
 20
-100.152579671554
 30
0.0
 10
89.29489126677241
 20
-98.17006899899167
 30
0.0
 10
87.36951348556028
 20
-96.99649493134785
 30
0.0
 10
86.97413408592168
 20
-96.76824726232472
 30
0.0
  0
SPLINE
  5
D8
330
D0
100
AcDbEntity
  8
0
  6
Continuous
 62
     7
370
    25
100
AcDbSpline
210
0.0
220
0.0
230
1.0
 70
     8
 71
     3
 72
    22
 73
    18
 74
     0
 42
0.000000001
 43
0.00000001
 40
0.0
 40
0.0
 40
0.0
 40
0.0
 40
0.0694579598054012
 40
0.1386010275102305
 40
0.2061113488874514
 40
0.2715387674755077
 40
0.3355346977552386
 40
0.4144162449873165
 40
0.4911554585643636
 40
0.5645658918901254
 40
0.6342033260487119
 40
0.6977457210543633
 40
0.7548167235193851
 40
0.8185303849409955
 40
0.8801375838798553
 40
0.941952370668566
 40
1.0
 40
1.0
 40
1.0
 40
1.0
 10
79.90306627403811
 20
-109.0156959402853
 30
0.0
 10
78.72867595916787
 20
-108.4177030313199
 30
0.0
 10
76.38521950298755
 20
-107.224428252466
 30
0.0
 10
72.2107659627666
 20
-106.0069543250828
 30
0.0
 10
67.83796251845612
 20
-105.2558009466667
 30
0.0
 10
63.39838696614687
 20
-105.03130454472
 30
0.0
 10
58.71857505028545
 20
-105.3286706545631
 30
0.0
 10
53.99748888866519
 20
-106.2400398462183
 30
0.0
 10
49.54825604333841
 20
-107.7784844619399
 30
0.0
 10
45.94918118895658
 20
-109.7657710282971
 30
0.0
 10
43.34883544237293
 20
-112.0071807352208
 30
0.0
 10
41.65207582735434
 20
-114.2864778025871
 30
0.0
 10
40.7060370694698
 20
-116.625150485676
 30
0.0
 10
40.5039586612632
 20
-119.0042710406419
 30
0.0
 10
41.11449560251185
 20
-121.4165846208042
 30
0.0
 10
42.38153708785298
 20
-123.6740816955706
 30
0.0
 10
43.76154718296209
 20
-125.0135382887809
 30
0.0
 10
44.42986605277558
 20
-125.662217685918
 30
0.0
  0
SPLINE
  5
D9
330
D0
100
AcDbEntity
  8
0
  6
Continuous
 62
     7
370
    25
100
AcDbSpline
210
0.0
220
0.0
230
1.0
 70
     8
 71
     3
 72
    14
 73
    10
 74
     0
 42
0.000000001
 43
0.00000001
 40
0.0
 40
0.0
 40
0.0
 40
0.0
 40
0.1136308968146046
 40
0.282345726714678
 40
0.419222637347745
 40
0.5591612691920312
 40
0.7035548921199093
 40
0.8514406945000998
 40
1.0
 40
1.0
 40
1.0
 40
1.0
 10
82.6705803522784
 20
-125.7203540676405
 30
0.0
 10
83.32656603284202
 20
-125.1422155203044
 30
0.0
 10
84.95653427990555
 20
-123.7056788664072
 30
0.0
 10
86.27120323317396
 20
-121.2383229759893
 30
0.0
 10
86.80964670898464
 20
-118.5453731340732
 30
0.0
 10
86.41479641083812
 20
-115.9802485325043
 30
0.0
 10
85.11528631922232
 20
-113.45650054328
 30
0.0
 10
83.00587724333162
 20
-111.0464716011401
 30
0.0
 10
80.93890193956464
 20
-109.6936456700671
 30
0.0
 10
79.90306627403811
 20
-109.0156959402853
 30
0.0
  0
SPLINE
  5
DA
330
D0
100
AcDbEntity
  8
0
  6
Continuous
 62
     7
370
    25
100
AcDbSpline
210
0.0
220
0.0
230
1.0
 70
     8
 71
     3
 72
    17
 73
    13
 74
     0
 42
0.000000001
 43
0.00000001
 40
0.0
 40
0.0
 40
0.0
 40
0.0
 40
0.1089308209617387
 40
0.2173677970805065
 40
0.3232441394244246
 40
0.4258538682450202
 40
0.5262185959590928
 40
0.6499284158649342
 40
0.7702784169038552
 40
0.8854078965427036
 40
0.994620186878764
 40
1.0
 40
1.0
 40
1.0
 40
1.0
 10
79.90306627406908
 20
-121.2638081185894
 30
0.0
 10
78.7286743197594
 20
-120.6658147790806
 30
0.0
 10
76.38521459216749
 20
-119.4725391411096
 30
0.0
 10
72.21078531004599
 20
-118.2550715841659
 30
0.0
 10
67.83789278411936
 20
-117.5038948120036
 30
0.0
 10
63.39863625985806
 20
-117.2794821900808
 30
0.0
 10
58.71757717336533
 20
-117.5765207801804
 30
0.0
 10
54.00213869739473
 20
-118.4893731117549
 30
0.0
 10
49.53184545158667
 20
-120.0222870512697
 30
0.0
 10
46.00623918133187
 20
-122.0288672179768
 30
0.0
 10
43.98473391792941
 20
-123.5713998006451
 30
0.0
 10
43.3447938073514
 20
-124.444337861343
 30
0.0
 10
43.31475021708798
 20
-124.4853201235695
 30
0.0
  0
SPLINE
  5
DB
330
D0
100
AcDbEntity
  8
0
  6
Continuous
 62
     7
370
    25
100
AcDbSpline
210
0.0
220
0.0
230
1.0
 70
     8
 71
     3
 72
     9
 73
     5
 74
     0
 42
0.000000001
 43
0.00000001
 40
0.0
 40
0.0
 40
0.0
 40
0.0
 40
0.3284352507344467
 40
1.0
 40
1.0
 40
1.0
 40
1.0
 10
83.90457648872281
 20
-124.5374382080812
 30
0.0
 10
83.57326744943815
 20
-124.1386625957298
 30
0.0
 10
82.56451751000932
 20
-122.9244944713899
 30
0.0
 10
80.97232597982202
 20
-121.9310023834943
 30
0.0
 10
79.90306627406906
 20
-121.2638081185894
 30
0.0
  0
VIEWPORT
  5
FA
330
D0
100
AcDbEntity
  8
0
100
AcDbViewport
 10
0.0
 20
0.0
 30
0.0
 40
205.6
 41
156.0
 68
     1
 69
     1
 12
0.0
 22
-0.473744661
 13
0.0
 23
0.0
 14
10.0
 24
10.0
 15
10.0
 25
10.0
 16
0.0
 26
0.0
 36
1.0
 17
0.0
 27
0.0
 37
0.0
 42
50.0
 43
0.0
 44
0.0
 45
497.3859817834
 50
0.0
 51
0.0
 72
   100
 90
   557152
  1

281
     0
 71
     1
 74
     0
110
0.0
120
0.0
130
0.0
111
1.0
121
0.0
131
0.0
112
0.0
122
1.0
132
0.0
 79
     0
146
0.0
170
     0
 61
     5
348
2F
292
     1
282
     1
141
0.0
142
0.0
 63
   256
361
FB
  0
ENDBLK
  5
D3
330
D0
100
AcDbEntity
  8
0
100
AcDbBlockEnd
  0
BLOCK
  5
DE
330
DC
100
AcDbEntity
  8
0
100
AcDbBlockBegin
  2
*Paper_Space6
 70
     0
 10
0.0
 20
0.0
 30
0.0
  3
*Paper_Space6
  1

  0
SPLINE
  5
E0
330
DC
100
AcDbEntity
  8
0
  6
Continuous
 62
     7
370
    25
100
AcDbSpline
210
0.0
220
0.0
230
1.0
 70
     8
 71
     3
 72
   145
 73
   141
 74
     0
 42
0.000000001
 43
0.00000001
 40
0.0
 40
0.0
 40
0.0
 40
0.0
 40
0.0061727461043293
 40
0.0111004811638897
 40
0.0147834372852395
 40
0.0172219629393847
 40
0.019186191669127
 40
0.0215191593936143
 40
0.0242211962682223
 40
0.0272578976068084
 40
0.0328716478667022
 40
0.0372380131689117
 40
0.042600468151063
 40
0.0482348492024947
 40
0.052847374508814
 40
0.0567879272170082
 40
0.0618391604613707
 40
0.0675526957236844
 40
0.0722530758438098
 40
0.0796071684787608
 40
0.0889168812060007
 40
0.0958997857739113
 40
0.1037100820237384
 40
0.1100116095712823
 40
0.1178752443054426
 40
0.1267974434592418
 40
0.1346324122986406
 40
0.1459366218501577
 40
0.1551732216213074
 40
0.1647278817759249
 40
0.1734733411895295
 40
0.1837470471515527
 40
0.1923349173144314
 40
0.197686400306274
 40
0.2033322052677543
 40
0.2083947383241166
 40
0.2124908072896675
 40
0.2175127630637416
 40
0.2236475160062159
 40
0.2301777954699148
 40
0.2354206885885496
 40
0.240589757154184
 40
0.2466150408560845
 40
0.2548229573758091
 40
0.262050236889643
 40
0.2686831200067869
 40
0.2753274892302582
 40
0.2827477597222095
 40
0.2913435404533912
 40
0.2984137696881365
 40
0.3043992263260104
 40
0.3095395616023099
 40
0.3142829598880705
 40
0.3193726531780056
 40
0.3256077962994965
 40
0.3333141882002513
 40
0.3403441531025447
 40
0.3460004207662013
 40
0.3518698279039013
 40
0.3599201459217418
 40
0.3640455864299823
 40
0.3672919824132374
 40
0.3697984743158806
 40
0.3728044312220463
 40
0.3766083554256558
 40
0.3812049843580967
 40
0.3859895314276641
 40
0.3913659646534953
 40
0.3959498472161697
 40
0.4004302522380874
 40
0.4060696170511494
 40
0.4125897320559175
 40
0.4183181819622435
 40
0.4230046311090548
 40
0.4283111958098895
 40
0.4331948704718387
 40
0.4385005860235637
 40
0.444915012941146
 40
0.4506385536162391
 40
0.4568015288075817
 40
0.4633929829225273
 40
0.4694765978748993
 40
0.4741707925402577
 40
0.4774700161457957
 40
0.4808134989462629
 40
0.485001078537146
 40
0.4900223503228257
 40
0.5087928639100929
 40
0.5266564942337614
 40
0.5418004753246679
 40
0.5557452597273629
 40
0.570963402998131
 40
0.5874861124346656
 40
0.6046258209181875
 40
0.6219919209778765
 40
0.6350840581412796
 40
0.6475992321062874
 40
0.6593788812724932
 40
0.6700095480168775
 40
0.6796527897564082
 40
0.689787808617486
 40
0.6948060348893617
 40
0.6992559248644339
 40
0.7048445197683632
 40
0.7115317418299156
 40
0.7186000997377746
 40
0.7231989761505004
 40
0.7270127689509499
 40
0.730798903024782
 40
0.7348909803342559
 40
0.7400473957397653
 40
0.7567061167123199
 40
0.7711647243923143
 40
0.7845235923734224
 40
0.798622966654303
 40
0.8135819088711727
 40
0.8220068501226441
 40
0.8296281970066606
 40
0.8365958339947197
 40
0.8435797366266666
 40
0.8507678257109392
 40
0.8577293861497206
 40
0.8656526125036595
 40
0.8771027064557628
 40
0.8877570748486253
 40
0.8961904025997276
 40
0.9056516832000687
 40
0.9174585193458129
 40
0.9269701066381268
 40
0.9355698215181844
 40
0.9426755464364982
 40
0.9495926328707964
 40
0.9555093566002499
 40
0.9604783957007198
 40
0.9651004477174533
 40
0.9694976816144142
 40
0.9747115808263781
 40
0.9814688969714438
 40
0.9899042830007823
 40
0.9999999999999999
 40
0.9999999999999999
 40
0.9999999999999999
 40
0.9999999999999999
 10
-297.1403290298605
 20
10.70110088415509
 30
0.0
 10
-296.4311950020832
 20
9.37803627325394
 30
0.0
 10
-295.1559556215919
 20
6.998762357935048
 30
0.0
 10
-293.4101263298766
 20
3.856397263767033
 30
0.0
 10
-292.0861514578932
 20
1.518593591793183
 30
0.0
 10
-291.1058936402731
 20
-0.1860067846789909
 30
0.0
 10
-290.2824354557065
 20
-1.602942339001601
 30
0.0
 10
-289.4200627268716
 20
-3.07158111784582
 30
0.0
 10
-288.4165754114706
 20
-4.76014396491993
 30
0.0
 10
-286.9909805545865
 20
-7.126568539863001
 30
0.0
 10
-285.3319096967261
 20
-9.825127686959464
 30
0.0
 10
-283.3426991789026
 20
-12.98643174925381
 30
0.0
 10
-281.3180684245941
 20
-16.13274462229798
 30
0.0
 10
-279.2245345676458
 20
-19.30561159104128
 30
0.0
 10
-277.2909313021945
 20
-22.16913622605884
 30
0.0
 10
-275.4117418646825
 20
-24.89932194363653
 30
0.0
 10
-273.3524557037205
 20
-27.8319761756857
 30
0.0
 10
-271.1523296298868
 20
-30.8917047408071
 30
0.0
 10
-268.5866472563966
 20
-34.37945047558244
 30
0.0
 10
-265.4478239312538
 20
-38.53604036906283
 30
0.0
 10
-261.8943157760393
 20
-43.07602478571662
 30
0.0
 10
-258.1943789928421
 20
-47.64191086444722
 30
0.0
 10
-254.894344428945
 20
-51.58898905629736
 30
0.0
 10
-251.3970872706608
 20
-55.64989693842452
 30
0.0
 10
-247.6598453244526
 20
-59.86302877204709
 30
0.0
 10
-243.5971279644932
 20
-64.28612682675447
 30
0.0
 10
-238.8798588638124
 20
-69.24687362652291
 30
0.0
 10
-234.0113271895956
 20
-74.16850766892213
 30
0.0
 10
-228.7386434406082
 20
-79.27799818735245
 30
0.0
 10
-223.8255103466938
 20
-83.85846069913775
 30
0.0
 10
-218.6392580674869
 20
-88.51538488561128
 30
0.0
 10
-213.5452324221993
 20
-92.91475456297293
 30
0.0
 10
-209.0040321192526
 20
-96.68825009108544
 30
0.0
 10
-205.2916018015573
 20
-99.68635487803381
 30
0.0
 10
-202.2206137471861
 20
-102.1112250340355
 30
0.0
 10
-199.3660895770143
 20
-104.3162002111911
 30
0.0
 10
-196.617151888382
 20
-106.4000793510808
 30
0.0
 10
-193.6390454766385
 20
-108.6158032631674
 30
0.0
 10
-190.155284157044
 20
-111.1488299281873
 30
0.0
 10
-186.5992881196562
 20
-113.667521868114
 30
0.0
 10
-183.2150140222622
 20
-116.0068859602037
 30
0.0
 10
-179.9071879990764
 20
-118.244539851325
 30
0.0
 10
-175.9715755681463
 20
-120.8454066399509
 30
0.0
 10
-171.585230131093
 20
-123.6588948378751
 30
0.0
 10
-167.039763656406
 20
-126.4813863178973
 30
0.0
 10
-162.7842429595253
 20
-129.0475722460316
 30
0.0
 10
-158.4596266933274
 20
-131.5828680142929
 30
0.0
 10
-153.6913282814632
 20
-134.2954286598498
 30
0.0
 10
-148.8011303697849
 20
-136.9830391863176
 30
0.0
 10
-144.1797342674519
 20
-139.4381656500032
 30
0.0
 10
-140.2741151759981
 20
-141.4546908790345
 30
0.0
 10
-136.8550948785404
 20
-143.177440375724
 30
0.0
 10
-133.6039346952886
 20
-144.7802122411458
 30
0.0
 10
-130.1095482653305
 20
-146.4655329482085
 30
0.0
 10
-125.9794975757303
 20
-148.4079727249346
 30
0.0
 10
-121.4000556106513
 20
-150.4958185761607
 30
0.0
 10
-116.9209579866764
 20
-152.4714775655494
 30
0.0
 10
-112.8110170097745
 20
-154.2329505907779
 30
0.0
 10
-108.4742273810039
 20
-156.0433433271519
 30
0.0
 10
-104.4834144697883
 20
-157.6573113552843
 30
0.0
 10
-101.0511988894513
 20
-159.0074126544006
 30
0.0
 10
-98.8465748792757
 20
-159.8600558007612
 30
0.0
 10
-96.88890993793325
 20
-160.6072150582132
 30
0.0
 10
-94.81163017158688
 20
-161.3900055033355
 30
0.0
 10
-92.26533686185871
 20
-162.3345844561742
 30
0.0
 10
-89.31507159194373
 20
-163.4079505886606
 30
0.0
 10
-85.9993601029632
 20
-164.5882679424267
 30
0.0
 10
-82.67077783454033
 20
-165.7453442454445
 30
0.0
 10
-79.39481669946727
 20
-166.8576952435688
 30
0.0
 10
-76.05378502623226
 20
-167.9679174356767
 30
0.0
 10
-72.27813123751308
 20
-169.1925751339315
 30
0.0
 10
-68.20720950498459
 20
-170.4749913088629
 30
0.0
 10
-64.33549680725386
 20
-171.6588449812022
 30
0.0
 10
-60.7309649957329
 20
-172.7330514633916
 30
0.0
 10
-57.31524899035789
 20
-173.725935210634
 30
0.0
 10
-53.74267941424459
 20
-174.7379992117146
 30
0.0
 10
-49.91847101490713
 20
-175.7933769370496
 30
0.0
 10
-45.90710091712652
 20
-176.8672414702236
 30
0.0
 10
-41.67235774913431
 20
-177.9650007760843
 30
0.0
 10
-37.37333184528033
 20
-179.0438424206489
 30
0.0
 10
-32.96612058161288
 20
-180.1107830436531
 30
0.0
 10
-28.88542729559436
 20
-181.0626784047745
 30
0.0
 10
-25.57058507183202
 20
-181.8109999327264
 30
0.0
 10
-22.90075368400849
 20
-182.3988061090737
 30
0.0
 10
-20.35559540891806
 20
-182.9473732540446
 30
0.0
 10
-17.40248165869322
 20
-183.5683508880941
 30
0.0
 10
-10.80781367055945
 20
-184.9124863577262
 30
0.0
 10
-0.9208586814437453
 20
-186.7624813934933
 30
0.0
 10
11.46581716181347
 20
-188.7475527705277
 30
0.0
 10
22.75401207617628
 20
-190.2690736198182
 30
0.0
 10
33.42524406738503
 20
-191.4568705792259
 30
0.0
 10
44.45803767762194
 20
-192.4141066859995
 30
0.0
 10
56.30808649610452
 20
-193.1101522800378
 30
0.0
 10
68.70626228558613
 20
-193.4460549974858
 30
0.0
 10
80.2798032450217
 20
-193.3559120295678
 30
0.0
 10
90.73158157901925
 20
-192.923922972148
 30
0.0
 10
99.79642015656295
 20
-192.274671488604
 30
0.0
 10
108.1341793010944
 20
-191.4292321182293
 30
0.0
 10
115.7998581524776
 20
-190.4349260695878
 30
0.0
 10
123.1036431166491
 20
-189.288967897553
 30
0.0
 10
128.9696508871287
 20
-188.2054025311573
 30
0.0
 10
133.5703186705753
 20
-187.2555073225771
 30
0.0
 10
137.071091367859
 20
-186.4840581483523
 30
0.0
 10
140.9417340810951
 20
-185.5733711436037
 30
0.0
 10
145.3978748189828
 20
-184.4417182580346
 30
0.0
 10
149.5974388335298
 20
-183.2851792323503
 30
0.0
 10
153.1122212304209
 20
-182.251749655864
 30
0.0
 10
155.8443376027147
 20
-181.4114815060964
 30
0.0
 10
158.4613986498883
 20
-180.5743075772202
 30
0.0
 10
161.3649811591764
 20
-179.6076432635613
 30
0.0
 10
167.0922080646845
 20
-177.6125194509759
 30
0.0
 10
175.0039563913939
 20
-174.5611838104882
 30
0.0
 10
184.4524690933696
 20
-170.3941987523919
 30
0.0
 10
193.1417303281793
 20
-166.1149692216883
 30
0.0
 10
201.7126824769135
 20
-161.4402058903478
 30
0.0
 10
209.0697297005483
 20
-156.9959880036415
 30
0.0
 10
214.9978594932419
 20
-153.123469443362
 30
0.0
 10
219.3252908997218
 20
-150.1452136716788
 30
0.0
 10
223.3094119692909
 20
-147.2727850217817
 30
0.0
 10
227.1492062045327
 20
-144.3809138351761
 30
0.0
 10
230.917741004169
 20
-141.4160571107778
 30
0.0
 10
234.7823492625072
 20
-138.2420466385725
 30
0.0
 10
239.2947232867666
 20
-134.3668912249544
 30
0.0
 10
244.3141854245285
 20
-129.8014370416617
 30
0.0
 10
249.2599119291789
 20
-125.0009920469049
 30
0.0
 10
253.7474100046142
 20
-120.3959214662907
 30
0.0
 10
258.2776545151122
 20
-115.499689883193
 30
0.0
 10
262.8305393732146
 20
-110.2673220318303
 30
0.0
 10
267.0987181928292
 20
-105.050790167639
 30
0.0
 10
270.6041463253808
 20
-100.533745849284
 30
0.0
 10
273.6249153762272
 20
-96.45809052941178
 30
0.0
 10
276.2271160196497
 20
-92.79994166800371
 30
0.0
 10
278.4933794474939
 20
-89.49001229833846
 30
0.0
 10
280.4281698528115
 20
-86.57030407142281
 30
0.0
 10
282.1369978843807
 20
-83.91533778281307
 30
0.0
 10
283.8356153375078
 20
-81.20236799490579
 30
0.0
 10
285.7478554653885
 20
-78.05710634961534
 30
0.0
 10
288.062635497421
 20
-74.10081755850622
 30
0.0
 10
290.8431507235906
 20
-69.13481005870702
 30
0.0
 10
292.768906018682
 20
-65.41361718936936
 30
0.0
 10
293.8180546008807
 20
-63.38631692286889
 30
0.0
  0
SPLINE
  5
E1
330
DC
100
AcDbEntity
  8
0
  6
Continuous
 62
     7
370
    25
100
AcDbSpline
210
0.0
220
0.0
230
1.0
 70
    11
 71
     3
 72
    47
 73
    43
 74
     0
 42
0.000000001
 43
0.00000001
 40
0.0
 40
0.0
 40
0.0
 40
0.0
 40
0.0062500000000001
 40
0.03125
 40
0.046875
 40
0.078125
 40
0.09375
 40
0.125
 40
0.15625
 40
0.171875
 40
0.203125
 40
0.2500000000002257
 40
0.2578125
 40
0.296875
 40
0.328125
 40
0.34375
 40
0.375
 40
0.40625
 40
0.421875
 40
0.453125
 40
0.46875
 40
0.5000000000014923
 40
0.515625
 40
0.546875
 40
0.578125
 40
0.59375
 40
0.625
 40
0.65625
 40
0.671875
 40
0.703125
 40
0.7421875
 40
0.7500000000000442
 40
0.796875
 40
0.828125
 40
0.84375
 40
0.875
 40
0.90625
 40
0.921875
 40
0.953125
 40
0.96875
 40
0.99375
 40
1.0
 40
1.0
 40
1.0
 40
1.0
 10
93.33907778601183
 20
91.1018013608548
 30
0.0
 10
89.84767179031587
 20
92.0506906987039
 30
0.0
 10
72.2664949868865
 20
96.67498293883679
 30
0.0
 10
45.10137164488144
 20
102.6872416438084
 30
0.0
 10
2.965026555091108
 20
109.8802838179396
 30
0.0
 10
-33.61892040299195
 20
114.0171509497909
 30
0.0
 10
-78.68590535605483
 20
116.4735505552027
 30
0.0
 10
-122.4138225596744
 20
116.1699796989181
 30
0.0
 10
-162.1291615407501
 20
112.055041281319
 30
0.0
 10
-197.5292120937745
 20
105.3377831034202
 30
0.0
 10
-234.2180070749704
 20
94.28406373043123
 30
0.0
 10
-258.3056936782473
 20
79.78044109994043
 30
0.0
 10
-275.415491373023
 20
61.44214538607105
 30
0.0
 10
-283.0606996318093
 20
44.5491258414046
 30
0.0
 10
-280.3200359586229
 20
24.53140333407024
 30
0.0
 10
-271.1070497175949
 20
5.689277977001569
 30
0.0
 10
-255.2892012034712
 20
-13.51725529488268
 30
0.0
 10
-231.0944252686801
 20
-32.28189191863837
 30
0.0
 10
-201.7220072859766
 20
-50.05653338452566
 30
0.0
 10
-174.4439874984542
 20
-63.27599369263291
 30
0.0
 10
-136.0623255884703
 20
-78.33630054150639
 30
0.0
 10
-102.3752129126019
 20
-89.03023111225374
 30
0.0
 10
-57.96432022613273
 20
-100.13941410981
 30
0.0
 10
-12.11068651435306
 20
-108.8461762750069
 30
0.0
 10
33.61898296650788
 20
-114.0171717877161
 30
0.0
 10
78.68586354066338
 20
-116.4735366283557
 30
0.0
 10
122.4173036908582
 20
-116.1697900537481
 30
0.0
 10
162.1291588121911
 20
-112.055040372361
 30
0.0
 10
197.5292139213476
 20
-105.3377837124299
 30
0.0
 10
231.1606073603118
 20
-95.20520696926819
 30
0.0
 10
253.9220075659802
 20
-82.42044449495067
 30
0.0
 10
273.6581821148106
 20
-64.79594173356482
 30
0.0
 10
283.3098512130227
 20
-46.3689188716359
 30
0.0
 10
280.3200339510281
 20
-24.53140290076365
 30
0.0
 10
271.1070527144559
 20
-5.689278624090507
 30
0.0
 10
255.2875404499644
 20
13.51884239413424
 30
0.0
 10
231.0944711909806
 20
32.28188200026115
 30
0.0
 10
201.7219385764848
 20
50.05654822379045
 30
0.0
 10
174.4436861383987
 20
63.27605848641228
 30
0.0
 10
139.1332459218933
 20
77.1313930746582
 30
0.0
 10
114.1649964438377
 20
85.28786801912578
 30
0.0
 10
96.83048378170774
 20
90.15291202300567
 30
0.0
 10
93.33907778601183
 20
91.1018013608548
 30
0.0
  0
SPLINE
  5
E2
330
DC
100
AcDbEntity
  8
0
  6
Continuous
 62
     7
370
    25
100
AcDbSpline
210
0.0
220
0.0
230
1.0
 70
    11
 71
     3
 72
    47
 73
    43
 74
     0
 42
0.000000001
 43
0.00000001
 40
0.0
 40
0.0
 40
0.0
 40
0.0
 40
0.0062500000000001
 40
0.03125
 40
0.046875
 40
0.078125
 40
0.09375
 40
0.125
 40
0.15625
 40
0.171875
 40
0.203125
 40
0.2500000000002257
 40
0.2578125
 40
0.296875
 40
0.328125
 40
0.34375
 40
0.375
 40
0.40625
 40
0.421875
 40
0.453125
 40
0.46875
 40
0.5000000000014923
 40
0.515625
 40
0.546875
 40
0.578125
 40
0.59375
 40
0.625
 40
0.65625
 40
0.671875
 40
0.703125
 40
0.7421875
 40
0.7500000000000442
 40
0.796875
 40
0.828125
 40
0.84375
 40
0.875
 40
0.90625
 40
0.921875
 40
0.953125
 40
0.96875
 40
0.99375
 40
1.0
 40
1.0
 40
1.0
 40
1.0
 10
102.6891547900333
 20
100.2277631566419
 30
0.0
 10
98.96614794346884
 20
101.2395966431513
 30
0.0
 10
80.20220149111667
 20
106.1545212423284
 30
0.0
 10
51.08760404842158
 20
112.4276984653667
 30
0.0
 10
5.695683647996066
 20
119.7168352081395
 30
0.0
 10
-33.92459729321546
 20
123.65902976812
 30
0.0
 10
-82.8523376009525
 20
125.584332665462
 30
0.0
 10
-130.4366741559462
 20
124.4934439351289
 30
0.0
 10
-173.8440705897634
 20
119.3341989868969
 30
0.0
 10
-212.6695295002351
 20
111.4254544372256
 30
0.0
 10
-253.053491552227
 20
98.7944151626509
 30
0.0
 10
-279.5383410310769
 20
82.71672856037958
 30
0.0
 10
-298.1824572334258
 20
62.64316740328015
 30
0.0
 10
-306.3662861573904
 20
44.29888341256548
 30
0.0
 10
-303.2444294340985
 20
22.70151830171337
 30
0.0
 10
-293.2015884462459
 20
2.468024227204685
 30
0.0
 10
-276.1174563690376
 20
-18.07758219716386
 30
0.0
 10
-250.1917177146237
 20
-38.10119630789907
 30
0.0
 10
-218.7807231786543
 20
-57.0643781292853
 30
0.0
 10
-189.6481167127671
 20
-71.17029331281361
 30
0.0
 10
-148.7479565462938
 20
-87.22081661137172
 30
0.0
 10
-112.9004162619535
 20
-98.60363591812609
 30
0.0
 10
-65.63555293180285
 20
-110.4248377142318
 30
0.0
 10
-16.79955320492023
 20
-119.6939034231439
 30
0.0
 10
32.01452835212385
 20
-125.2251536031717
 30
0.0
 10
80.13696614459299
 20
-127.8774544933428
 30
0.0
 10
126.8632463629002
 20
-127.5991023677516
 30
0.0
 10
169.4360589608399
 20
-123.2669752123801
 30
0.0
 10
207.5345749336027
 20
-116.1172704152527
 30
0.0
 10
243.9129757895282
 20
-105.2552289262774
 30
0.0
 10
268.6964833075141
 20
-91.42238188930578
 30
0.0
 10
290.3480018245898
 20
-72.1661682405032
 30
0.0
 10
301.1696582567923
 20
-51.83156138978
 30
0.0
 10
298.6224653003537
 20
-27.53275408730625
 30
0.0
 10
289.3859402163032
 20
-6.561792131675778
 30
0.0
 10
273.1564886104654
 20
14.80547025064426
 30
0.0
 10
248.0488119021103
 20
35.65249058451182
 30
0.0
 10
217.3485510187111
 20
55.36837218923317
 30
0.0
 10
188.6686425017826
 20
69.98870562793876
 30
0.0
 10
151.3667641903548
 20
85.17397146127263
 30
0.0
 10
124.8800468328822
 20
94.01204020885866
 30
0.0
 10
106.4121616365977
 20
99.2159296701325
 30
0.0
 10
102.6891547900333
 20
100.2277631566419
 30
0.0
  0
SPLINE
  5
E3
330
DC
100
AcDbEntity
  8
0
  6
Continuous
 62
     7
370
    25
100
AcDbSpline
210
0.0
220
0.0
230
1.0
 70
     8
 71
     3
 72
    19
 73
    15
 74
     0
 42
0.000000001
 43
0.00000001
 40
0.0
 40
0.0
 40
0.0
 40
0.0
 40
0.0883127409991593
 40
0.1765304267350978
 40
0.2634005268306175
 40
0.3481436746476668
 40
0.4307542847707496
 40
0.5120235481246391
 40
0.6025515464850425
 40
0.6915918685847303
 40
0.7781352126630802
 40
0.8617241414008185
 40
0.9420632005956263
 40
1.0
 40
1.0
 40
1.0
 40
1.0
 10
57.40353283836787
 20
-98.26250628945039
 30
0.0
 10
55.70536151349149
 20
-97.85791101188241
 30
0.0
 10
52.31084668745309
 20
-97.0491559421608
 30
0.0
 10
46.83777453609932
 20
-96.42322008724283
 30
0.0
 10
41.34145518585468
 20
-96.22753989639402
 30
0.0
 10
35.96700708136083
 20
-96.49524082188739
 30
0.0
 10
30.86899078596618
 20
-97.1994953128175
 30
0.0
 10
25.95094022609385
 20
-98.34793388913148
 30
0.0
 10
21.35719194565833
 20
-99.94381296968314
 30
0.0
 10
17.26435088580029
 20
-101.9483124281175
 30
0.0
 10
13.93535359231802
 20
-104.2070698789689
 30
0.0
 10
11.50942058333844
 20
-106.6413170030099
 30
0.0
 10
9.981284710947753
 20
-108.9406667826214
 30
0.0
 10
9.554898041884856
 20
-110.431785393277
 30
0.0
 10
9.376244449244336
 20
-111.0565556222155
 30
0.0
  0
SPLINE
  5
E4
330
DC
100
AcDbEntity
  8
0
  6
Continuous
 62
     7
370
    25
100
AcDbSpline
210
0.0
220
0.0
230
1.0
 70
     8
 71
     3
 72
    15
 73
    11
 74
     0
 42
0.000000001
 43
0.00000001
 40
0.0
 40
0.0
 40
0.0
 40
0.0
 40
0.0643463771087542
 40
0.204919992983437
 40
0.3311164671784559
 40
0.4593958104179792
 40
0.5909865991771621
 40
0.7258801603151628
 40
0.8628662783341804
 40
1.0
 40
1.0
 40
1.0
 40
1.0
 10
74.47298076758813
 20
-115.8824602231776
 30
0.0
 10
74.63250002365753
 20
-115.4383361062542
 30
0.0
 10
75.14051129489376
 20
-114.0239610471907
 30
0.0
 10
74.98914147023903
 20
-111.6810039838377
 30
0.0
 10
74.09073810505632
 20
-108.9447995774917
 30
0.0
 10
72.33260695555971
 20
-106.3790311295645
 30
0.0
 10
69.73106717808827
 20
-103.9431169974493
 30
0.0
 10
66.31461496284008
 20
-101.7166384364234
 30
0.0
 10
62.22260739523139
 20
-99.74295244581688
 30
0.0
 10
59.01046756447052
 20
-98.75616545797317
 30
0.0
 10
57.40353283836787
 20
-98.26250628945039
 30
0.0
  0
SPLINE
  5
E5
330
DC
100
AcDbEntity
  8
0
  6
Continuous
 62
     7
370
    25
100
AcDbSpline
210
0.0
220
0.0
230
1.0
 70
     8
 71
     3
 72
    13
 73
     9
 74
     0
 42
0.000000001
 43
0.00000001
 40
0.0
 40
0.0
 40
0.0
 40
0.0
 40
0.1693879707255861
 40
0.3380080102585078
 40
0.5026462514789237
 40
0.6622048923531196
 40
0.8182725452923981
 40
1.0
 40
1.0
 40
1.0
 40
1.0
 10
52.73657894904461
 20
-111.3892693645084
 30
0.0
 10
51.30856813073656
 20
-111.058191446923
 30
0.0
 10
48.45902047244459
 20
-110.3975365746544
 30
0.0
 10
43.84865386723078
 20
-109.9953196122772
 30
0.0
 10
39.28382934530808
 20
-110.0186255587734
 30
0.0
 10
34.93748263239737
 20
-110.508645477968
 30
0.0
 10
30.67079981691511
 20
-111.4309208804516
 30
0.0
 10
28.21785936014184
 20
-112.4289427110404
 30
0.0
 10
26.89822323851779
 20
-112.9658598034132
 30
0.0
  0
SPLINE
  5
E6
330
DC
100
AcDbEntity
  8
0
  6
Continuous
 62
     7
370
    25
100
AcDbSpline
210
0.0
220
0.0
230
1.0
 70
     8
 71
     3
 72
    10
 73
     6
 74
     0
 42
0.000000001
 43
0.00000001
 40
0.0
 40
0.0
 40
0.0
 40
0.0
 40
0.1930226686846914
 40
0.5955946355409008
 40
1.0
 40
1.0
 40
1.0
 40
1.0
 10
61.13411347439501
 20
-115.3990834734289
 30
0.0
 10
60.73891357588558
 20
-115.073399744972
 30
0.0
 10
59.51947680650271
 20
-114.0684634705248
 30
0.0
 10
56.71672880371005
 20
-112.6559330029561
 30
0.0
 10
54.06530351989448
 20
-111.8121295986362
 30
0.0
 10
52.73657894904461
 20
-111.3892693645084
 30
0.0
  0
VIEWPORT
  5
FC
330
DC
100
AcDbEntity
  8
0
100
AcDbViewport
 10
0.0
 20
0.0
 30
0.0
 40
205.6
 41
156.0
 68
     1
 69
     1
 12
0.0
 22
-0.473744661
 13
0.0
 23
0.0
 14
10.0
 24
10.0
 15
10.0
 25
10.0
 16
0.0
 26
0.0
 36
1.0
 17
0.0
 27
0.0
 37
0.0
 42
50.0
 43
0.0
 44
0.0
 45
497.3859817834
 50
0.0
 51
0.0
 72
   100
 90
   557152
  1

281
     0
 71
     1
 74
     0
110
0.0
120
0.0
130
0.0
111
1.0
121
0.0
131
0.0
112
0.0
122
1.0
132
0.0
 79
     0
146
0.0
170
     0
 61
     5
348
2F
292
     1
282
     1
141
0.0
142
0.0
 63
   256
361
FD
  0
ENDBLK
  5
DF
330
DC
100
AcDbEntity
  8
0
100
AcDbBlockEnd
  0
BLOCK
  5
E9
330
E7
100
AcDbEntity
  8
0
100
AcDbBlockBegin
  2
*Paper_Space7
 70
     0
 10
0.0
 20
0.0
 30
0.0
  3
*Paper_Space7
  1

  0
SPLINE
  5
EB
330
E7
100
AcDbEntity
  8
0
  6
Continuous
 62
     7
370
    25
100
AcDbSpline
210
0.0
220
0.0
230
1.0
 70
     8
 71
     3
 72
   152
 73
   148
 74
     0
 42
0.000000001
 43
0.00000001
 40
0.0
 40
0.0
 40
0.0
 40
0.0
 40
0.0095566252225528
 40
0.0177424053919879
 40
0.024557277971283
 40
0.0300014327908923
 40
0.0341838812785817
 40
0.0392152961676855
 40
0.043991968844135
 40
0.0481331688635118
 40
0.0529800573707313
 40
0.0588549140317066
 40
0.0644099357071102
 40
0.0699477771017648
 40
0.0763909335016121
 40
0.0894939692965175
 40
0.1005431418033735
 40
0.1093852457995365
 40
0.1211092219913566
 40
0.1311729811591936
 40
0.1405884011274245
 40
0.1496415768668333
 40
0.1590025245838458
 40
0.1675442709699398
 40
0.1771057447426659
 40
0.186906104420614
 40
0.1968278348505827
 40
0.2049151094855234
 40
0.2120671011749085
 40
0.2209929514343177
 40
0.2282144796020522
 40
0.2369441912991656
 40
0.2433774781088451
 40
0.2519740379559384
 40
0.2567824339578055
 40
0.260663763623415
 40
0.2637518454731914
 40
0.266810622067296
 40
0.2716079619564383
 40
0.2752724170408279
 40
0.2779506315024738
 40
0.2809110974702638
 40
0.2849605057331627
 40
0.2888168745695407
 40
0.2914095530265706
 40
0.2937170631543065
 40
0.2958668665466102
 40
0.298346272892046
 40
0.3017439675122202
 40
0.3056431154933271
 40
0.3092501519874939
 40
0.3119706079969463
 40
0.3145964491110289
 40
0.317413530334258
 40
0.3260962633308956
 40
0.3347917949988657
 40
0.341481031930493
 40
0.3483335511989089
 40
0.3555470957731844
 40
0.3631369552513807
 40
0.371575066420492
 40
0.3812277754546079
 40
0.3879147854131805
 40
0.3967569815500795
 40
0.4056697075757701
 40
0.4130578746247254
 40
0.4221834562053177
 40
0.4299216840008989
 40
0.4383775213902146
 40
0.4419609383876831
 40
0.4451312652317047
 40
0.4480486709727984
 40
0.451550310713658
 40
0.4557563778709179
 40
0.4603110127280143
 40
0.4639348671639503
 40
0.4665193240907188
 40
0.4699099323042245
 40
0.4741712189121683
 40
0.4793117521622509
 40
0.4853213579250349
 40
0.4970666432587144
 40
0.5094921698837822
 40
0.5218540982625284
 40
0.5341562691238738
 40
0.546422511284382
 40
0.5586946215929187
 40
0.5702962436526258
 40
0.5764994567297225
 40
0.5819893906374116
 40
0.586781020011534
 40
0.5908900076613944
 40
0.5950440067506086
 40
0.6001620057243224
 40
0.6060695623074382
 40
0.6124704782533853
 40
0.6186147272788849
 40
0.6251391204040349
 40
0.6318829285978387
 40
0.6369545220232135
 40
0.6438746526149232
 40
0.649996220433681
 40
0.6558279430414933
 40
0.6631053936819238
 40
0.669097110319921
 40
0.6741229273024072
 40
0.6794047299223408
 40
0.6856468359784553
 40
0.6959571906892412
 40
0.7058272359405919
 40
0.7156393146400025
 40
0.724798737723692
 40
0.7330058711140925
 40
0.7410620803500727
 40
0.7483094527794162
 40
0.7557412795556471
 40
0.7629162043661867
 40
0.7701226273155836
 40
0.7784621095452476
 40
0.7842514375417154
 40
0.7900323468586864
 40
0.795003454608063
 40
0.799316338217161
 40
0.8035917571167875
 40
0.8084776946292775
 40
0.8212690336705815
 40
0.8311851822953251
 40
0.8404815609025352
 40
0.8529181780959091
 40
0.8615155686153724
 40
0.8712106553362061
 40
0.8822704525891709
 40
0.8935990330457819
 40
0.9025394431693473
 40
0.9109567772395631
 40
0.919299958418009
 40
0.9286127934758812
 40
0.9339710673625922
 40
0.939604376052609
 40
0.9454654066748558
 40
0.9509174304043577
 40
0.9560379489987281
 40
0.9613862036066773
 40
0.9684669467773136
 40
0.9772712173412053
 40
0.9877872210737293
 40
1.0
 40
1.0
 40
1.0
 40
1.0
 10
-310.0025832933243
 20
9.069227422416462
 30
0.0
 10
-308.9008066700814
 20
6.877905659424227
 30
0.0
 10
-306.8552971888832
 20
2.809595125330827
 30
0.0
 10
-303.8818257862056
 20
-2.745207801248775
 30
0.0
 10
-301.3362202269714
 20
-7.329894096416031
 30
0.0
 10
-299.2376653368526
 20
-10.98718412841065
 30
0.0
 10
-297.3320336844846
 20
-14.22740619521731
 30
0.0
 10
-295.4800366403895
 20
-17.30315397699012
 30
0.0
 10
-293.5980124422076
 20
-20.35226280342831
 30
0.0
 10
-291.7127493465042
 20
-23.33921904688112
 30
0.0
 10
-289.6441769092452
 20
-26.54443861384134
 30
0.0
 10
-287.3353106894291
 20
-30.02893187638149
 30
0.0
 10
-284.8848599689937
 20
-33.62562020448938
 30
0.0
 10
-282.3060152538819
 20
-37.31094014642159
 30
0.0
 10
-278.5378590515089
 20
-42.54397718688454
 30
0.0
 10
-273.7994973039129
 20
-48.82672423376506
 30
0.0
 10
-268.5129516234726
 20
-55.45220214077002
 30
0.0
 10
-263.3013716761009
 20
-61.69044845360847
 30
0.0
 10
-258.1133193136166
 20
-67.61421693448419
 30
0.0
 10
-252.6787964890053
 20
-73.51800679748588
 30
0.0
 10
-247.5899725565501
 20
-78.8061346294183
 30
0.0
 10
-242.5177442184716
 20
-83.8600752083499
 30
0.0
 10
-237.5034530799325
 20
-88.6511782585245
 30
0.0
 10
-232.2933285462445
 20
-93.43006714529908
 30
0.0
 10
-226.9014444769267
 20
-98.17462653267324
 30
0.0
 10
-221.1320200524713
 20
-103.0296561332908
 30
0.0
 10
-215.5490126246589
 20
-107.5169160550566
 30
0.0
 10
-210.415465326323
 20
-111.471929010547
 30
0.0
 10
-205.4180064498634
 20
-115.185434826335
 30
0.0
 10
-200.5343587356809
 20
-118.6772204910175
 30
0.0
 10
-195.2518446259814
 20
-122.3092346060387
 30
0.0
 10
-190.43777586864
 20
-125.4919324371507
 30
0.0
 10
-185.2725489442135
 20
-128.7802045244353
 30
0.0
 10
-180.9101559677794
 20
-131.4537532622105
 30
0.0
 10
-177.0753138683069
 20
-133.7244165931471
 30
0.0
 10
-174.4469765708894
 20
-135.2459049035456
 30
0.0
 10
-172.1988943597825
 20
-136.5236677417198
 30
0.0
 10
-169.7352601922462
 20
-137.9013506618973
 30
0.0
 10
-167.1291644144759
 20
-139.3284550630268
 30
0.0
 10
-164.5963380415781
 20
-140.6841697093178
 30
0.0
 10
-162.472988408495
 20
-141.8012665297242
 30
0.0
 10
-160.2541538466869
 20
-142.9506841294106
 30
0.0
 10
-157.7554572511308
 20
-144.2202196104701
 30
0.0
 10
-155.3305965748534
 20
-145.4253255893487
 30
0.0
 10
-153.3008568202874
 20
-146.4158698382765
 30
0.0
 10
-151.6623380639043
 20
-147.2044176200886
 30
0.0
 10
-150.0462987568964
 20
-147.9722752273593
 30
0.0
 10
-148.1718703702889
 20
-148.8510864719837
 30
0.0
 10
-145.882075133613
 20
-149.9064406318757
 30
0.0
 10
-143.3185491590451
 20
-151.062889835563
 30
0.0
 10
-140.9052568187207
 20
-152.1275589758734
 30
0.0
 10
-138.7862822790094
 20
-153.0448064774175
 30
0.0
 10
-136.8496400646495
 20
-153.8696751039763
 30
0.0
 10
-133.4910722469589
 20
-155.2766310690631
 30
0.0
 10
-128.6655588314648
 20
-157.2274442477402
 30
0.0
 10
-122.8738022075378
 20
-159.4438868622932
 30
0.0
 10
-117.4945391826588
 20
-161.4025503937438
 30
0.0
 10
-112.4534968744224
 20
-163.157705522493
 30
0.0
 10
-107.1723373049551
 20
-164.911209431073
 30
0.0
 10
-101.4876649595645
 20
-166.7047942836029
 30
0.0
 10
-95.18517833385985
 20
-168.5841019861643
 30
0.0
 10
-89.07645353667137
 20
-170.2903925403317
 30
0.0
 10
-82.85310938822313
 20
-171.9268511019168
 30
0.0
 10
-76.83830350838343
 20
-173.4186484168199
 30
0.0
 10
-70.59155171908404
 20
-174.8660531753836
 30
0.0
 10
-64.30843371076257
 20
-176.2323155117992
 30
0.0
 10
-58.3028979381
 20
-177.4563227298844
 30
0.0
 10
-52.02857489382365
 20
-178.6528907272003
 30
0.0
 10
-47.13457529525057
 20
-179.5284664845661
 30
0.0
 10
-43.36039508170331
 20
-180.1727593936818
 30
0.0
 10
-40.95989714095673
 20
-180.5718028715686
 30
0.0
 10
-38.58403943370813
 20
-180.9574328700867
 30
0.0
 10
-35.95500212310639
 20
-181.3735713396202
 30
0.0
 10
-32.91605660876498
 20
-181.8403252461769
 30
0.0
 10
-29.83773520583027
 20
-182.2972101211541
 30
0.0
 10
-27.15522618339139
 20
-182.6828100935675
 30
0.0
 10
-24.76169450806637
 20
-183.0185829694423
 30
0.0
 10
-22.22430909546912
 20
-183.3662711797448
 30
0.0
 10
-19.05391860138954
 20
-183.7878515387226
 30
0.0
 10
-15.22670885245724
 20
-184.2782591538921
 30
0.0
 10
-9.519165921711387
 20
-184.9778273266175
 30
0.0
 10
-1.937208650803492
 20
-185.8389668363553
 30
0.0
 10
7.298115899321313
 20
-186.7690145269194
 30
0.0
 10
16.7225229189045
 20
-187.5846407663688
 30
0.0
 10
26.15096400005602
 20
-188.2561254252369
 30
0.0
 10
35.59463841940956
 20
-188.7698340181858
 30
0.0
 10
44.8887471341144
 20
-189.1033126390898
 30
0.0
 10
52.64103027232724
 20
-189.2281012865549
 30
0.0
 10
58.64828663639079
 20
-189.2276078282372
 30
0.0
 10
62.89956651304902
 20
-189.1796509737486
 30
0.0
 10
66.60965216555321
 20
-189.0996029445579
 30
0.0
 10
69.97413303763857
 20
-188.9958507710989
 30
0.0
 10
73.41242188878205
 20
-188.8593883340595
 30
0.0
 10
77.30151209077688
 20
-188.6653933905864
 30
0.0
 10
81.75946191136711
 20
-188.3868874183191
 30
0.0
 10
86.47289017512512
 20
-188.0232820569766
 30
0.0
 10
91.332681880763
 20
-187.5730705087031
 30
0.0
 10
96.25347673650887
 20
-187.0376869135535
 30
0.0
 10
100.8847883007542
 20
-186.4530897490541
 30
0.0
 10
105.6066015707706
 20
-185.7810026853979
 30
0.0
 10
110.1157592563105
 20
-185.064234600582
 30
0.0
 10
114.8273576457876
 20
-184.227427612243
 30
0.0
 10
119.5544703917076
 20
-183.3051339265003
 30
0.0
 10
124.2481525892947
 20
-182.2977968802377
 30
0.0
 10
128.6927032906819
 20
-181.2536253404782
 30
0.0
 10
132.6299617964796
 20
-180.2614587827433
 30
0.0
 10
136.5984982884073
 20
-179.1969898331625
 30
0.0
 10
141.7908075914048
 20
-177.7090912050649
 30
0.0
 10
148.0191000323327
 20
-175.7573801036318
 30
0.0
 10
154.9847664526174
 20
-173.3423726881252
 30
0.0
 10
161.5951346578014
 20
-170.8316707391853
 30
0.0
 10
167.7363784758135
 20
-168.2995059684
 30
0.0
 10
173.4108704020687
 20
-165.7879591890774
 30
0.0
 10
178.5932205243186
 20
-163.3445601944022
 30
0.0
 10
183.5436610113309
 20
-160.8737025511544
 30
0.0
 10
188.2446916797015
 20
-158.4005735970197
 30
0.0
 10
192.8802113757889
 20
-155.8352439555759
 30
0.0
 10
197.6403572892157
 20
-153.0706404892357
 30
0.0
 10
202.0523312493262
 20
-150.3752556167681
 30
0.0
 10
206.1165130697544
 20
-147.7787231842276
 30
0.0
 10
209.4583842502178
 20
-145.5657699525322
 30
0.0
 10
212.4750025119135
 20
-143.5016000590615
 30
0.0
 10
215.160166061589
 20
-141.6123371720705
 30
0.0
 10
217.8131813367228
 20
-139.6975210304879
 30
0.0
 10
222.0787890851857
 20
-136.5348006879541
 30
0.0
 10
227.3255648398114
 20
-132.4419235657933
 30
0.0
 10
233.2918315766074
 20
-127.4799312202214
 30
0.0
 10
239.0415645058908
 20
-122.4359798481742
 30
0.0
 10
244.4041830937986
 20
-117.4450377267754
 30
0.0
 10
249.7021923104291
 20
-112.2268920160229
 30
0.0
 10
254.636837593913
 20
-107.1227357996739
 30
0.0
 10
259.8770629438155
 20
-101.3955138091446
 30
0.0
 10
264.8392855993499
 20
-95.64040048058938
 30
0.0
 10
269.2442382227146
 20
-90.2494055281969
 30
0.0
 10
273.0866509892728
 20
-85.32461494103035
 30
0.0
 10
276.874639113732
 20
-80.24696903460462
 30
0.0
 10
280.119432181456
 20
-75.68548680183741
 30
0.0
 10
282.906261694228
 20
-71.60817142228177
 30
0.0
 10
285.1720871257081
 20
-68.19148969773886
 30
0.0
 10
287.4019007289687
 20
-64.72010723894768
 30
0.0
 10
289.5161964816363
 20
-61.32239612488956
 30
0.0
 10
291.5200620488057
 20
-58.00417969338675
 30
0.0
 10
293.673202792703
 20
-54.33018411065301
 30
0.0
 10
296.2110221748842
 20
-49.84263588747065
 30
0.0
 10
299.258042167949
 20
-44.18965394167968
 30
0.0
 10
302.7576407593
 20
-37.34038693627792
 30
0.0
 10
305.1092195220134
 20
-32.2915426020817
 30
0.0
 10
306.3727852830077
 20
-29.57866437132288
 30
0.0
  0
SPLINE
  5
EC
330
E7
100
AcDbEntity
  8
0
  6
Continuous
 62
     7
370
    25
100
AcDbSpline
210
0.0
220
0.0
230
1.0
 70
    11
 71
     3
 72
    47
 73
    43
 74
     0
 42
0.000000001
 43
0.00000001
 40
0.0
 40
0.0
 40
0.0
 40
0.0
 40
0.0062500000000001
 40
0.03125
 40
0.046875
 40
0.078125
 40
0.09375
 40
0.125
 40
0.15625
 40
0.171875
 40
0.203125
 40
0.2500000000002257
 40
0.2578125
 40
0.296875
 40
0.328125
 40
0.34375
 40
0.375
 40
0.40625
 40
0.421875
 40
0.453125
 40
0.46875
 40
0.5000000000014923
 40
0.515625
 40
0.546875
 40
0.578125
 40
0.59375
 40
0.625
 40
0.65625
 40
0.671875
 40
0.703125
 40
0.7421875
 40
0.7500000000000442
 40
0.796875
 40
0.828125
 40
0.84375
 40
0.875
 40
0.90625
 40
0.921875
 40
0.953125
 40
0.96875
 40
0.99375
 40
1.0
 40
1.0
 40
1.0
 40
1.0
 10
70.71067810243261
 20
62.36095643343842
 30
0.0
 10
67.01795496779303
 20
62.82619581772342
 30
0.0
 10
48.46004515776736
 20
65.07010167298594
 30
0.0
 10
20.05819325109357
 20
67.80967994990547
 30
0.0
 10
-23.48356263345132
 20
70.689443354824
 30
0.0
 10
-60.78068112918214
 20
71.83572658285092
 30
0.0
 10
-106.0913653809008
 20
71.55253524751556
 30
0.0
 10
-149.4095323266609
 20
69.55213071231816
 30
0.0
 10
-187.829403158013
 20
65.26967191493371
 30
0.0
 10
-221.3413698183553
 20
59.49412866256235
 30
0.0
 10
-255.0892553961804
 20
50.88042495687237
 30
0.0
 10
-275.503384478708
 20
40.5714103998768
 30
0.0
 10
-288.0711373312472
 20
28.08780664864429
 30
0.0
 10
-291.5947692271195
 20
16.92315996613797
 30
0.0
 10
-284.0610311725847
 20
4.18058861957854
 30
0.0
 10
-270.3875392972686
 20
-7.539763448370637
 30
0.0
 10
-250.072409687527
 20
-19.2214418601379
 30
0.0
 10
-221.5511365555508
 20
-30.2734585069527
 30
0.0
 10
-188.1301834497875
 20
-40.475907692647
 30
0.0
 10
-157.8830021813737
 20
-47.83941447190306
 30
0.0
 10
-116.1749704065776
 20
-55.92669564410596
 30
0.0
 10
-80.1754313038065
 20
-61.40364367744233
 30
0.0
 10
-33.4348280560782
 20
-66.7045086689547
 30
0.0
 10
14.15963354506483
 20
-70.40292921149621
 30
0.0
 10
60.78074822234022
 20
-71.83573738219408
 30
0.0
 10
106.0913205381745
 20
-71.55252802993435
 30
0.0
 10
149.4129410412464
 20
-69.55186518933576
 30
0.0
 10
187.8294002318655
 20
-65.26967144384236
 30
0.0
 10
221.3413717783189
 20
-59.49412897822172
 30
0.0
 10
252.2769314559996
 20
-51.59823357736931
 30
0.0
 10
271.7883664829645
 20
-42.4478607555284
 30
0.0
 10
287.1339350868675
 20
-30.31422889298119
 30
0.0
 10
292.2796548584385
 20
-18.08157557731295
 30
0.0
 10
284.0610290762416
 20
-4.180588424191472
 30
0.0
 10
270.3875424266735
 20
7.539763156533846
 30
0.0
 10
250.0703800324195
 20
19.22239255329827
 30
0.0
 10
221.5511845095389
 20
30.27345403324711
 30
0.0
 10
188.1301117006361
 20
40.47591438579026
 30
0.0
 10
157.8826875594137
 20
47.83944364098336
 30
0.0
 10
119.5120172876836
 20
55.27967589259086
 30
0.0
 10
92.77444624075348
 20
59.48701192509459
 30
0.0
 10
74.4034012370721
 20
61.89571704915342
 30
0.0
 10
70.71067810243261
 20
62.36095643343842
 30
0.0
  0
SPLINE
  5
ED
330
E7
100
AcDbEntity
  8
0
  6
Continuous
 62
     7
370
    25
100
AcDbSpline
210
0.0
220
0.0
230
1.0
 70
    11
 71
     3
 72
    47
 73
    43
 74
     0
 42
0.000000001
 43
0.00000001
 40
0.0
 40
0.0
 40
0.0
 40
0.0
 40
0.0062500000000001
 40
0.03125
 40
0.046875
 40
0.078125
 40
0.09375
 40
0.125
 40
0.15625
 40
0.171875
 40
0.203125
 40
0.2500000000002257
 40
0.2578125
 40
0.296875
 40
0.328125
 40
0.34375
 40
0.375
 40
0.40625
 40
0.421875
 40
0.453125
 40
0.46875
 40
0.5000000000014923
 40
0.515625
 40
0.546875
 40
0.578125
 40
0.59375
 40
0.625
 40
0.65625
 40
0.671875
 40
0.703125
 40
0.7421875
 40
0.7500000000000442
 40
0.796875
 40
0.828125
 40
0.84375
 40
0.875
 40
0.90625
 40
0.921875
 40
0.953125
 40
0.96875
 40
0.99375
 40
1.0
 40
1.0
 40
1.0
 40
1.0
 10
77.79399519690878
 20
68.6078549300563
 30
0.0
 10
73.85631692927728
 20
69.1039557602434
 30
0.0
 10
54.05484993188356
 20
71.48567634908295
 30
0.0
 10
23.65578672875101
 20
74.3123307852904
 30
0.0
 10
-23.13958407388866
 20
77.11939101185389
 30
0.0
 10
-63.40283620740095
 20
78.0152874392195
 30
0.0
 10
-112.4168180922612
 20
77.23161303466352
 30
0.0
 10
-159.3723599231765
 20
74.56635478208767
 30
0.0
 10
-201.2047047555915
 20
69.46078590119583
 30
0.0
 10
-237.8291536040458
 20
62.77862057584599
 30
0.0
 10
-274.8644113327378
 20
52.99936797070801
 30
0.0
 10
-297.278687161608
 20
41.58048775827816
 30
0.0
 10
-310.9516187488123
 20
27.91911724521406
 30
0.0
 10
-314.6607003407157
 20
15.80020471448948
 30
0.0
 10
-306.3688072083027
 20
2.058898275078394
 30
0.0
 10
-291.5372327353749
 20
-10.52075170834657
 30
0.0
 10
-269.6435294585452
 20
-23.01012356628913
 30
0.0
 10
-239.1018446114779
 20
-34.79920907844677
 30
0.0
 10
-203.3721746892482
 20
-45.68079036776644
 30
0.0
 10
-171.0714999127689
 20
-53.5370213262107
 30
0.0
 10
-126.6262215126825
 20
-62.15625245905086
 30
0.0
 10
-88.31721705418664
 20
-67.98641665741171
 30
0.0
 10
-38.57338361086724
 20
-73.62671721209331
 30
0.0
 10
12.11570889960482
 20
-77.56312237508693
 30
0.0
 10
61.88412278149659
 20
-79.09994257970078
 30
0.0
 10
110.2738437002539
 20
-78.81640836143649
 30
0.0
 10
156.5733486776556
 20
-76.70840278356954
 30
0.0
 10
197.7764551145615
 20
-72.16848173231696
 30
0.0
 10
233.862105049378
 20
-66.00379904246437
 30
0.0
 10
267.3480845467301
 20
-57.5260098043962
 30
0.0
 10
288.6139948910812
 20
-47.61904978159429
 30
0.0
 10
305.4677379096811
 20
-34.35842384046047
 30
0.0
 10
311.3156690060896
 20
-20.85238037690837
 30
0.0
 10
302.9443285070626
 20
-5.352434117879945
 30
0.0
 10
288.7355026197712
 20
7.734121836538529
 30
0.0
 10
267.4922931613106
 20
20.78646359255453
 30
0.0
 10
237.5643446699907
 20
33.13813114119684
 30
0.0
 10
202.3589139382462
 20
44.53245417603291
 30
0.0
 10
170.3837354729533
 20
52.73774452820945
 30
0.0
 10
129.7171199093771
 20
60.94985882454787
 30
0.0
 10
101.3088539929326
 20
65.53223143788905
 30
0.0
 10
81.7316734645402
 20
68.11175409986924
 30
0.0
 10
77.79399519690878
 20
68.6078549300563
 30
0.0
  0
VIEWPORT
  5
FE
330
E7
100
AcDbEntity
  8
0
100
AcDbViewport
 10
0.0
 20
0.0
 30
0.0
 40
205.6
 41
156.0
 68
     1
 69
     1
 12
0.0
 22
-0.473744661
 13
0.0
 23
0.0
 14
10.0
 24
10.0
 15
10.0
 25
10.0
 16
0.0
 26
0.0
 36
1.0
 17
0.0
 27
0.0
 37
0.0
 42
50.0
 43
0.0
 44
0.0
 45
497.3859817834
 50
0.0
 51
0.0
 72
   100
 90
   557152
  1

281
     0
 71
     1
 74
     0
110
0.0
120
0.0
130
0.0
111
1.0
121
0.0
131
0.0
112
0.0
122
1.0
132
0.0
 79
     0
146
0.0
170
     0
 61
     5
348
2F
292
     1
282
     1
141
0.0
142
0.0
 63
   256
361
FF
  0
ENDBLK
  5
EA
330
E7
100
AcDbEntity
  8
0
100
AcDbBlockEnd
  0
ENDSEC
  0
SECTION
  2
ENTITIES
  0
SPLINE
  5
73
330
1F
100
AcDbEntity
  8
0
  6
Continuous
 62
     7
370
    25
100
AcDbSpline
210
0.0
220
0.0
230
1.0
 70
     8
 71
     3
 72
    27
 73
    23
 74
     0
 42
0.000000001
 43
0.00000001
 40
0.0
 40
0.0
 40
0.0
 40
0.0
 40
0.019070886279087
 40
0.0395463536526022
 40
0.0663683903577788
 40
0.0960371352481915
 40
0.1288886168461328
 40
0.1652002004779186
 40
0.2036734014177719
 40
0.2702025994523115
 40
0.3397964454645077
 40
0.4124971102467538
 40
0.48833421337068
 40
0.5512758580790381
 40
0.616248015626929
 40
0.6832189632309721
 40
0.7486530239258027
 40
0.8101873105920937
 40
0.86796041360519
 40
0.9221285952785057
 40
0.9728628987869322
 40
1.0
 40
1.0
 40
1.0
 40
1.0
 10
104.6632217030868
 20
207.0143621345062
 30
0.0
 10
103.6627333624612
 20
207.2651078240346
 30
0.0
 10
101.588070173521
 20
207.7850667588131
 30
0.0
 10
97.70633403512939
 20
208.7131894785172
 30
0.0
 10
92.9832573638483
 20
209.8003918952424
 30
0.0
 10
87.29303171981728
 20
211.0449224226052
 30
0.0
 10
80.87399452622213
 20
212.3644164416551
 30
0.0
 10
73.79735441645481
 20
213.7101994797207
 30
0.0
 10
64.46529233380708
 20
215.3176457313505
 30
0.0
 10
52.88037554036084
 20
217.018281946361
 30
0.0
 10
38.95654489440329
 20
218.6016579171298
 30
0.0
 10
24.35889535157558
 20
219.7534819155242
 30
0.0
 10
10.17284999416029
 20
220.3526085084573
 30
0.0
 10
-3.505122554122867
 20
220.4538563014983
 30
0.0
 10
-16.58307210743662
 20
220.1276527262658
 30
0.0
 10
-29.80932882051539
 20
219.3656188758536
 30
0.0
 10
-42.76873519649713
 20
218.1979988248598
 30
0.0
 10
-55.05473755957372
 20
216.7117325213187
 30
0.0
 10
-66.52057073647546
 20
215.0002328340009
 30
0.0
 10
-77.17294547522079
 20
213.117903861218
 30
0.0
 10
-85.74927011008633
 20
211.4244505037038
 30
0.0
 10
-90.70588567843862
 20
210.3035316800904
 30
0.0
 10
-92.43319724850355
 20
209.9129070640735
 30
0.0
  0
SPLINE
  5
74
330
1F
100
AcDbEntity
  8
0
  6
Continuous
 62
     7
370
    25
100
AcDbSpline
210
0.0
220
0.0
230
1.0
 70
     8
 71
     3
 72
     9
 73
     5
 74
     0
 42
0.000000001
 43
0.00000001
 40
0.0
 40
0.0
 40
0.0
 40
0.0
 40
0.2819916187294911
 40
1.0
 40
1.0
 40
1.0
 40
1.0
 10
-92.98771643492634
 20
209.78938606953
 30
0.0
 10
-94.10376765992233
 20
209.5439986029716
 30
0.0
 10
-98.06151374480363
 20
208.6738044189602
 30
0.0
 10
-101.9041655210428
 20
207.7078939481837
 30
0.0
 10
-104.6632217026865
 20
207.0143621346093
 30
0.0
  0
SPLINE
  5
75
330
1F
100
AcDbEntity
  8
0
  6
Continuous
 62
     7
370
    25
100
AcDbSpline
210
0.0
220
0.0
230
1.0
 70
    11
 71
     3
 72
    47
 73
    43
 74
     0
 42
0.000000001
 43
0.00000001
 40
0.0
 40
0.0
 40
0.0
 40
0.0
 40
0.0062500000000001
 40
0.03125
 40
0.046875
 40
0.078125
 40
0.09375
 40
0.125
 40
0.15625
 40
0.171875
 40
0.203125
 40
0.2500000000002257
 40
0.2578125
 40
0.296875
 40
0.328125
 40
0.34375
 40
0.375
 40
0.40625
 40
0.421875
 40
0.453125
 40
0.46875
 40
0.5000000000014923
 40
0.515625
 40
0.546875
 40
0.578125
 40
0.59375
 40
0.625
 40
0.65625
 40
0.671875
 40
0.703125
 40
0.7421875
 40
0.7500000000000442
 40
0.796875
 40
0.828125
 40
0.84375
 40
0.875
 40
0.90625
 40
0.921875
 40
0.953125
 40
0.96875
 40
0.99375
 40
1.0
 40
1.0
 40
1.0
 40
1.0
 10
-0.0000000000006362
 20
199.9999999999999
 30
0.0
 10
-3.94768708388131
 20
199.9999999999999
 30
0.0
 10
-23.68704373531275
 20
199.7357332564771
 30
0.0
 10
-53.16030504817634
 20
197.3820846924905
 30
0.0
 10
-96.94433853191211
 20
190.0690652849752
 30
0.0
 10
-133.0484152298468
 20
180.0992919159579
 30
0.0
 10
-175.132309568406
 20
163.2848421583255
 30
0.0
 10
-213.5309949853119
 20
142.3559360581172
 30
0.0
 10
-244.9272598765344
 20
116.7548402648086
 30
0.0
 10
-270.1489455793255
 20
88.6989927702756
 30
0.0
 10
-292.5809894682123
 20
52.59516732166766
 30
0.0
 10
-300.7422975368904
 20
16.44808241169866
 30
0.0
 10
-299.2574925619124
 20
-23.02731537193736
 30
0.0
 10
-290.7116523216571
 20
-55.60381943186195
 30
0.0
 10
-270.14894774751
 20
-88.69899296314172
 30
0.0
 10
-244.9272566397064
 20
-116.7548399773617
 30
0.0
 10
-213.5339019161864
 20
-142.3539857734976
 30
0.0
 10
-175.1322599664741
 20
-163.2848377583371
 30
0.0
 10
-133.0484894441826
 20
-180.0992985005259
 30
0.0
 10
-96.94466377228848
 20
-190.0690946651085
 30
0.0
 10
-49.35251543910425
 20
-198.0179551283519
 30
0.0
 10
-9.868849444998252
 20
-200.6598433252851
 30
0.0
 10
39.47539777999489
 20
-199.0100600653314
 30
0.0
 10
87.91870735431485
 20
-192.5615437062534
 30
0.0
 10
133.0484894441826
 20
-180.0992985005259
 30
0.0
 10
175.1322599664756
 20
-163.2848377583364
 30
0.0
 10
213.5339019161869
 20
-142.3539857734967
 30
0.0
 10
244.9272566397063
 20
-116.7548399773611
 30
0.0
 10
270.1489477475109
 20
-88.69899296314077
 30
0.0
 10
290.7116523216593
 20
-55.60381943186169
 30
0.0
 10
299.2574925619123
 20
-23.02731537193678
 30
0.0
 10
300.7422975368905
 20
16.44808241169923
 30
0.0
 10
292.5809894682097
 20
52.59516732166747
 30
0.0
 10
270.1489455793213
 20
88.69899277027612
 30
0.0
 10
244.9272598765363
 20
116.7548402648084
 30
0.0
 10
213.5309949853091
 20
142.3559360581181
 30
0.0
 10
175.1323095684039
 20
163.2848421583269
 30
0.0
 10
133.0484152298466
 20
180.0992919159568
 30
0.0
 10
96.94433853191157
 20
190.0690652849763
 30
0.0
 10
53.1603050481747
 20
197.3820846924896
 30
0.0
 10
23.68704373531136
 20
199.735733256477
 30
0.0
 10
3.947687083879967
 20
199.9999999999999
 30
0.0
 10
-0.0000000000006362
 20
199.9999999999999
 30
0.0
  0
SPLINE
  5
76
330
1F
100
AcDbEntity
  8
0
  6
Continuous
 62
     7
370
    25
100
AcDbSpline
210
0.0
220
0.0
230
1.0
 70
    11
 71
     3
 72
    47
 73
    43
 74
     0
 42
0.000000001
 43
0.00000001
 40
0.0
 40
0.0
 40
0.0
 40
0.0
 40
0.0062500000000001
 40
0.03125
 40
0.046875
 40
0.078125
 40
0.09375
 40
0.125
 40
0.15625
 40
0.171875
 40
0.203125
 40
0.2500000000002257
 40
0.2578125
 40
0.296875
 40
0.328125
 40
0.34375
 40
0.375
 40
0.40625
 40
0.421875
 40
0.453125
 40
0.46875
 40
0.5000000000014923
 40
0.515625
 40
0.546875
 40
0.578125
 40
0.59375
 40
0.625
 40
0.65625
 40
0.671875
 40
0.703125
 40
0.7421875
 40
0.7500000000000442
 40
0.796875
 40
0.828125
 40
0.84375
 40
0.875
 40
0.90625
 40
0.921875
 40
0.953125
 40
0.96875
 40
0.99375
 40
1.0
 40
1.0
 40
1.0
 40
1.0
 10
-0.0000000000014901
 20
220.0346462077931
 30
0.0
 10
-4.209555136098668
 20
220.0346462077934
 30
0.0
 10
-25.258327620557
 20
219.7174572414067
 30
0.0
 10
-56.69216724763666
 20
216.9020447180126
 30
0.0
 10
-103.4425654388303
 20
208.2346759364782
 30
0.0
 10
-142.0556307888438
 20
196.5135697462371
 30
0.0
 10
-187.0728004054563
 20
176.9853294242732
 30
0.0
 10
-228.1687546162612
 20
152.9046759832844
 30
0.0
 10
-261.8840565633272
 20
123.7872414931775
 30
0.0
 10
-289.0555848351286
 20
92.08676348516096
 30
0.0
 10
-313.3264325010409
 20
51.54986297890378
 30
0.0
 10
-322.1815162350459
 20
11.58106663341366
 30
0.0
 10
-320.4813010082367
 20
-31.59017061810774
 30
0.0
 10
-311.0967812957409
 20
-66.91014294250746
 30
0.0
 10
-288.7655690495492
 20
-102.5399615794272
 30
0.0
 10
-261.5491677906018
 20
-132.5977633600807
 30
0.0
 10
-227.8225043421536
 20
-159.9053831965061
 30
0.0
 10
-186.7491606985207
 20
-182.1903061432328
 30
0.0
 10
-141.7854549698848
 20
-200.0943219668373
 30
0.0
 10
-103.238149097099
 20
-210.7208023381492
 30
0.0
 10
-52.52132286346344
 20
-219.1946808514666
 30
0.0
 10
-10.50270752407659
 20
-222.0112601466251
 30
0.0
 10
42.01083009512994
 20
-220.2522133554889
 30
0.0
 10
93.60132262826411
 20
-213.3774224310047
 30
0.0
 10
141.7854549693249
 20
-200.0943219668692
 30
0.0
 10
186.7491606980556
 20
-182.1903061432609
 30
0.0
 10
227.8225043417907
 20
-159.9053831965243
 30
0.0
 10
261.5491677903448
 20
-132.5977633600815
 30
0.0
 10
288.7655690493943
 20
-102.5399615794056
 30
0.0
 10
311.0967812956889
 20
-66.91014294245788
 30
0.0
 10
320.4813010082536
 20
-31.5901706180156
 30
0.0
 10
322.181516235103
 20
11.58106663352174
 30
0.0
 10
313.3264325010989
 20
51.54986297901563
 30
0.0
 10
289.0555848351767
 20
92.08676348524745
 30
0.0
 10
261.884056563361
 20
123.7872414932501
 30
0.0
 10
228.168754616268
 20
152.9046759833382
 30
0.0
 10
187.0728004054444
 20
176.9853294243067
 30
0.0
 10
142.0556307888206
 20
196.5135697462503
 30
0.0
 10
103.4425654388037
 20
208.2346759364824
 30
0.0
 10
56.69216724761525
 20
216.9020447180085
 30
0.0
 10
25.25832762055157
 20
219.7174572414034
 30
0.0
 10
4.209555136095613
 20
220.0346462077928
 30
0.0
 10
-0.0000000000014901
 20
220.0346462077931
 30
0.0
  0
SPLINE
  5
77
330
1F
100
AcDbEntity
  8
0
  6
Continuous
 62
     7
370
    25
100
AcDbSpline
210
0.0
220
0.0
230
1.0
 70
    11
 71
     3
 72
    47
 73
    43
 74
     0
 42
0.000000001
 43
0.00000001
 40
0.0
 40
0.0
 40
0.0
 40
0.0
 40
0.0062500000000001
 40
0.03125
 40
0.046875
 40
0.078125
 40
0.09375
 40
0.125
 40
0.15625
 40
0.171875
 40
0.203125
 40
0.2500000000002257
 40
0.2578125
 40
0.296875
 40
0.328125
 40
0.34375
 40
0.375
 40
0.40625
 40
0.421875
 40
0.453125
 40
0.46875
 40
0.5000000000014923
 40
0.515625
 40
0.546875
 40
0.578125
 40
0.59375
 40
0.625
 40
0.65625
 40
0.671875
 40
0.703125
 40
0.7421875
 40
0.7500000000000442
 40
0.796875
 40
0.828125
 40
0.84375
 40
0.875
 40
0.90625
 40
0.921875
 40
0.953125
 40
0.96875
 40
0.99375
 40
1.0
 40
1.0
 40
1.0
 40
1.0
 10
-0.0000000000336689
 20
123.0
 30
0.0
 10
-0.559150909285513
 20
123.0
 30
0.0
 10
-3.358083169826622
 20
122.9239631104299
 30
0.0
 10
-7.544990381214236
 20
122.2542045336406
 30
0.0
 10
-13.66035870302287
 20
120.2357383959265
 30
0.0
 10
-18.47833712919977
 20
117.5857977381859
 30
0.0
 10
-23.59494529848462
 20
113.387601452146
 30
0.0
 10
-27.7671883221875
 20
108.4112222054622
 30
0.0
 10
-30.62874743710865
 20
102.6526537851247
 30
0.0
 10
-32.46289889206145
 20
96.6539295424021
 30
0.0
 10
-33.42517482253837
 20
89.38040627222362
 30
0.0
 10
-32.42873319962723
 20
83.07162614895385
 30
0.0
 10
-30.42152481965786
 20
76.93615707423648
 30
0.0
 10
-28.25810526120537
 20
72.57200384176129
 30
0.0
 10
-25.33938520929149
 20
68.69010421082514
 30
0.0
 10
-22.40258144656323
 20
65.62136975319976
 30
0.0
 10
-19.19833677571482
 20
62.98287969612768
 30
0.0
 10
-15.64343798680048
 20
60.86997401931124
 30
0.0
 10
-11.84351915134622
 20
59.14904208531829
 30
0.0
 10
-8.630986909087133
 20
58.09754877412265
 30
0.0
 10
-4.418404952781283
 20
57.2311893590493
 30
0.0
 10
-0.8913734349168005
 20
56.92234772382218
 30
0.0
 10
3.565493738314427
 20
57.11650237091133
 30
0.0
 10
7.827853848500443
 20
57.83467544628652
 30
0.0
 10
11.8435191518948
 20
59.14904208550301
 30
0.0
 10
15.64343798793428
 20
60.86997401988263
 30
0.0
 10
19.19833677739193
 20
62.98287969724713
 30
0.0
 10
22.40258144864898
 20
65.62136975506984
 30
0.0
 10
25.33938521162226
 20
68.69010421356789
 30
0.0
 10
28.25810526359004
 20
72.57200384556477
 30
0.0
 10
30.42152482169819
 20
76.93615707901397
 30
0.0
 10
32.42873320077608
 20
83.07162615420222
 30
0.0
 10
33.42517482258887
 20
89.38040627754708
 30
0.0
 10
32.46289889102562
 20
96.65392954724447
 30
0.0
 10
30.62874743537653
 20
102.6526537892982
 30
0.0
 10
27.76718832000404
 20
108.4112222086911
 30
0.0
 10
23.59494529622732
 20
113.3876014543634
 30
0.0
 10
18.47833712715247
 20
117.5857977394843
 30
0.0
 10
13.66035870139093
 20
120.2357383966014
 30
0.0
 10
7.544990380278503
 20
122.2542045338232
 30
0.0
 10
3.358083169651562
 20
122.9239631104486
 30
0.0
 10
0.5591509092181651
 20
123.0
 30
0.0
 10
-0.0000000000336689
 20
123.0
 30
0.0
  0
SPLINE
  5
78
330
1F
100
AcDbEntity
  8
0
  6
Continuous
 62
     7
370
    25
100
AcDbSpline
210
0.0
220
0.0
230
1.0
 70
    11
 71
     3
 72
    47
 73
    43
 74
     0
 42
0.000000001
 43
0.00000001
 40
0.0
 40
0.0
 40
0.0
 40
0.0
 40
0.0062500000000001
 40
0.03125
 40
0.046875
 40
0.078125
 40
0.09375
 40
0.125
 40
0.15625
 40
0.171875
 40
0.203125
 40
0.2500000000002257
 40
0.2578125
 40
0.296875
 40
0.328125
 40
0.34375
 40
0.375
 40
0.40625
 40
0.421875
 40
0.453125
 40
0.46875
 40
0.5000000000014923
 40
0.515625
 40
0.546875
 40
0.578125
 40
0.59375
 40
0.625
 40
0.65625
 40
0.671875
 40
0.703125
 40
0.7421875
 40
0.7500000000000442
 40
0.796875
 40
0.828125
 40
0.84375
 40
0.875
 40
0.90625
 40
0.921875
 40
0.953125
 40
0.96875
 40
0.99375
 40
1.0
 40
1.0
 40
1.0
 40
1.0
 10
-0.0000000000592582
 20
113.0
 30
0.0
 10
-0.389711239756113
 20
113.0
 30
0.0
 10
-2.340482425470168
 20
112.9470050368053
 30
0.0
 10
-5.258631048271918
 20
112.4802060119359
 30
0.0
 10
-9.52085474772439
 20
111.0733907247487
 30
0.0
 10
-12.87884239582399
 20
109.226467899154
 30
0.0
 10
-16.44496564035722
 20
106.3004572320674
 30
0.0
 10
-19.35287483896364
 20
102.8320352448438
 30
0.0
 10
-21.34732884353474
 20
98.81855738510087
 30
0.0
 10
-22.6256255032127
 20
94.6375230069371
 30
0.0
 10
-23.29668560311633
 20
89.56888395515291
 30
0.0
 10
-22.60431641337687
 20
85.17638183404391
 30
0.0
 10
-21.20102504724661
 20
80.89095884343395
 30
0.0
 10
-19.69564731695816
 20
77.85384602827737
 30
0.0
 10
-17.66066059874322
 20
75.14751129927913
 30
0.0
 10
-15.61424723223877
 20
73.00879840217067
 30
0.0
 10
-13.37837932404396
 20
71.1696671590106
 30
0.0
 10
-10.90520997547913
 20
69.69727752242655
 30
0.0
 10
-8.252366770779696
 20
68.49788847012029
 30
0.0
 10
-6.016103142547089
 20
67.76465739881345
 30
0.0
 10
-3.08808788806794
 20
67.16151341407812
 30
0.0
 10
-0.6176175778216315
 20
66.94627011967276
 30
0.0
 10
2.470470310296771
 20
67.08079717864425
 30
0.0
 10
5.457037235924905
 20
67.58134963104065
 30
0.0
 10
8.252366772158684
 20
68.4978884706054
 30
0.0
 10
10.90520997781699
 20
69.69727752361483
 30
0.0
 10
13.37837932726429
 20
71.16966716117406
 30
0.0
 10
15.61424723611204
 20
73.00879840565179
 30
0.0
 10
17.66066060298611
 20
75.1475113042762
 30
0.0
 10
19.69564732124079
 20
77.8538460351306
 30
0.0
 10
21.20102505087926
 20
80.89095885195854
 30
0.0
 10
22.60431641542059
 20
85.17638184336073
 30
0.0
 10
23.29668560320241
 20
89.56888396457035
 30
0.0
 10
22.62562550138355
 20
94.6375230154843
 30
0.0
 10
21.34732884048219
 20
98.81855739245432
 30
0.0
 10
19.35287483512151
 20
102.8320352505239
 30
0.0
 10
16.44496563638868
 20
106.3004572359661
 30
0.0
 10
12.87884239222631
 20
109.2264679014359
 30
0.0
 10
9.520854744856566
 20
111.0733907259346
 30
0.0
 10
5.258631046626813
 20
112.4802060122571
 30
0.0
 10
2.340482425162277
 20
112.947005036838
 30
0.0
 10
0.3897112396375897
 20
113.0
 30
0.0
 10
-0.0000000000592582
 20
113.0
 30
0.0
  0
SPLINE
  5
79
330
1B
100
AcDbEntity
 67
     1
  8
0
  6
Continuous
 62
     7
370
    25
100
AcDbSpline
210
0.0
220
0.0
230
1.0
 70
     8
 71
     3
 72
    57
 73
    53
 74
     0
 42
0.000000001
 43
0.00000001
 40
0.0
 40
0.0
 40
0.0
 40
0.0
 40
0.0148830040792098
 40
0.0268025794926378
 40
0.0357577760019939
 40
0.0424819068287257
 40
0.0492000943344642
 40
0.0770047045089651
 40
0.1034193361807249
 40
0.1311555634328881
 40
0.1660070624293006
 40
0.2036062351921666
 40
0.2441117511939979
 40
0.277007025786183
 40
0.3115513525444521
 40
0.3455529580988168
 40
0.3778745831043792
 40
0.4085144084210151
 40
0.4460909523812755
 40
0.4807771022697876
 40
0.5127606517218167
 40
0.5420048990575937
 40
0.5702322646034843
 40
0.597443019077316
 40
0.6233296971306754
 40
0.6356897443036019
 40
0.647121699721038
 40
0.6586533180187004
 40
0.6726756830270182
 40
0.6892940787917978
 40
0.7083194853087789
 40
0.7252149516089728
 40
0.7424716982475957
 40
0.7600914398146845
 40
0.778076007408197
 40
0.7964273313562802
 40
0.8151474452945779
 40
0.8340170316237467
 40
0.8506467738000132
 40
0.861863844477365
 40
0.8712206553490898
 40
0.8787130394689446
 40
0.8843376067482291
 40
0.8884948224061163
 40
0.893208156969301
 40
0.9005423078809345
 40
0.9105023192062028
 40
0.9230950424144936
 40
0.9383292505505394
 40
0.9562157592261918
 40
0.9767675643861231
 40
1.0
 40
1.0
 40
1.0
 40
1.0
 10
-321.3380816296554
 20
0.0000000000000555
 30
0.0
 10
-320.5877580097361
 20
-1.636326261956561
 30
0.0
 10
-319.2365114226185
 20
-4.583161758242457
 30
0.0
 10
-317.3652030580748
 20
-8.481020614607774
 30
0.0
 10
-315.8921327262102
 20
-11.4751170324208
 30
0.0
 10
-314.6765686016417
 20
-13.89562113222907
 30
0.0
 10
-312.4080556531828
 20
-18.33745959060278
 30
0.0
 10
-308.9421807846805
 20
-24.83938712535218
 30
0.0
 10
-304.0426941298296
 20
-33.44971819524467
 30
0.0
 10
-298.4667853357789
 20
-42.64756973711135
 30
0.0
 10
-291.8642946574142
 20
-52.79098579727512
 30
0.0
 10
-284.0036279382479
 20
-63.93931275388021
 30
0.0
 10
-275.8509739699641
 20
-74.56882657090264
 30
0.0
 10
-267.5451628009887
 20
-84.58750976742883
 30
0.0
 10
-259.4241475996431
 20
-93.71554413434127
 30
0.0
 10
-251.0418299696055
 20
-102.4885387724899
 30
0.0
 10
-242.7077830153991
 20
-110.6286071404642
 30
0.0
 10
-233.8040095143533
 20
-118.769563813151
 30
0.0
 10
-224.4098031048362
 20
-126.7611395307948
 30
0.0
 10
-214.605701534434
 20
-134.4779529293381
 30
0.0
 10
-205.3503624477884
 20
-141.246964691343
 30
0.0
 10
-196.5288696443341
 20
-147.2669472588274
 30
0.0
 10
-188.0180992053879
 20
-152.6992695830671
 30
0.0
 10
-179.7041283165784
 20
-157.6637906850817
 30
0.0
 10
-172.9095464854003
 20
-161.460924523042
 30
0.0
 10
-167.7003587189522
 20
-164.2315551011507
 30
0.0
 10
-163.9740710172646
 20
-166.1519687203847
 30
0.0
 10
-160.0461491080869
 20
-168.1144364203122
 30
0.0
 10
-155.5283738554652
 20
-170.2930928606368
 30
0.0
 10
-150.1675426825773
 20
-172.7676909926836
 30
0.0
 10
-144.4517956905813
 20
-175.2706977756513
 30
0.0
 10
-138.6328911816288
 20
-177.6819584643358
 30
0.0
 10
-132.9387026875784
 20
-179.9158917133862
 30
0.0
 10
-127.0977079807815
 20
-182.0772886166643
 30
0.0
 10
-121.110926550204
 20
-184.1581737690814
 30
0.0
 10
-114.9798329163618
 20
-186.1503440944172
 30
0.0
 10
-108.7308397447648
 20
-188.0379126217247
 30
0.0
 10
-102.6593105413035
 20
-189.7323813537092
 30
0.0
 10
-97.41734121919592
 20
-191.0824384711389
 30
0.0
 10
-93.23697618917159
 20
-192.088808401425
 30
0.0
 10
-90.0802366004902
 20
-192.8096680963154
 30
0.0
 10
-87.54943983970028
 20
-193.3619555783119
 30
0.0
 10
-85.6025685009737
 20
-193.771506957227
 30
0.0
 10
-83.96208221731477
 20
-194.1069599106948
 30
0.0
 10
-82.1366537406334
 20
-194.470513624564
 30
0.0
 10
-79.65901284419718
 20
-194.9461446959702
 30
0.0
 10
-76.29739232059576
 20
-195.5568313943088
 30
0.0
 10
-72.05044693916605
 20
-196.2712809161169
 30
0.0
 10
-66.91828194321764
 20
-197.0504578529884
 30
0.0
 10
-60.90275738746706
 20
-197.8429124643912
 30
0.0
 10
-54.00518289086695
 20
-198.6071637164536
 30
0.0
 10
-49.13050928153891
 20
-198.9846785024307
 30
0.0
 10
-46.54394985362883
 20
-199.1849923094876
 30
0.0
  0
SPLINE
  5
7A
330
1B
100
AcDbEntity
 67
     1
  8
0
  6
Continuous
 62
     7
370
    25
100
AcDbSpline
210
0.0
220
0.0
230
1.0
 70
     8
 71
     3
 72
    63
 73
    59
 74
     0
 42
0.000000001
 43
0.00000001
 40
0.0
 40
0.0
 40
0.0
 40
0.0
 40
0.0219180353688004
 40
0.041213713812132
 40
0.0579004502639389
 40
0.0719895967786014
 40
0.0834906146284995
 40
0.0922745374421065
 40
0.0985799144760906
 40
0.1040765410765076
 40
0.1101108629289965
 40
0.1266364258927461
 40
0.1461884196964777
 40
0.1672807727322988
 40
0.2055331077489633
 40
0.244552256520318
 40
0.2836481172780347
 40
0.2960186886584187
 40
0.3083559180004252
 40
0.3206600624408945
 40
0.3329026437041759
 40
0.3436345771174669
 40
0.3520483952694839
 40
0.3578610459738022
 40
0.3616176305201838
 40
0.3649579580356558
 40
0.3695378013144153
 40
0.3753565515283341
 40
0.3874384096840394
 40
0.4027784678579635
 40
0.4213712598543077
 40
0.4432104751548767
 40
0.4673437845003943
 40
0.4906016620384253
 40
0.5127316828769377
 40
0.5399531854689426
 40
0.5652603426795896
 40
0.5886584608445569
 40
0.6101523474491093
 40
0.6297464603848025
 40
0.6486995574807167
 40
0.6811508501581176
 40
0.7169043285217089
 40
0.7559555251404965
 40
0.7876977968910792
 40
0.8182007786882255
 40
0.8467503067556722
 40
0.8733498819124508
 40
0.8980058096380156
 40
0.9241632148531717
 40
0.9503024050924037
 40
0.9560601551718813
 40
0.9616843935051214
 40
0.9671751619107162
 40
0.9725325021272414
 40
0.9789904479605238
 40
0.9881443714599233
 40
1.0
 40
1.0
 40
1.0
 40
1.0
 10
46.54394985450262
 20
-199.1849923094904
 30
0.0
 10
48.97983007278499
 20
-198.997483537116
 30
0.0
 10
53.56015255642454
 20
-198.6449002534472
 30
0.0
 10
60.02260483877541
 20
-197.9447878103245
 30
0.0
 10
65.62360213337011
 20
-197.2284384607247
 30
0.0
 10
70.36234255926526
 20
-196.534008425392
 30
0.0
 10
74.2224096113566
 20
-195.9101742527238
 30
0.0
 10
77.21361182863981
 20
-195.3906368829214
 30
0.0
 10
79.53717465082433
 20
-194.9661747436091
 30
0.0
 10
81.55645651329623
 20
-194.5830236045628
 30
0.0
 10
84.73313030284872
 20
-193.9582810057477
 30
0.0
 10
89.50593441915262
 20
-192.9549940374688
 30
0.0
 10
95.99244579840706
 20
-191.4498421143948
 30
0.0
 10
104.9221922780892
 20
-189.1567941469269
 30
0.0
 10
115.9752058405699
 20
-185.9163309065615
 30
0.0
 10
128.8731674559378
 20
-181.5189466372161
 30
0.0
 10
138.7838926194831
 20
-177.6516573465607
 30
0.0
 10
145.7152745822067
 20
-174.7168346974322
 30
0.0
 10
149.7185617904772
 20
-172.9571512853639
 30
0.0
 10
153.689793719417
 20
-171.1469755635796
 30
0.0
 10
157.4698513454804
 20
-169.362068465361
 30
0.0
 10
160.8171301968094
 20
-167.729689637655
 30
0.0
 10
163.4675675014407
 20
-166.4026013242292
 30
0.0
 10
165.3706144222352
 20
-165.4311621988145
 30
0.0
 10
166.7333142477835
 20
-164.7265515188062
 30
0.0
 10
167.9608100144576
 20
-164.085822925143
 30
0.0
 10
169.40070073712
 20
-163.326322654223
 30
0.0
 10
171.7493941944984
 20
-162.0704523149923
 30
0.0
 10
175.2052422615307
 20
-160.1791911641683
 30
0.0
 10
179.9545610856848
 20
-157.4877329415843
 30
0.0
 10
185.6584352123056
 20
-154.1159817825545
 30
0.0
 10
192.186704097717
 20
-150.0630015281934
 30
0.0
 10
199.0910713035778
 20
-145.5373234965484
 30
0.0
 10
205.9184304409882
 20
-140.8108961229346
 30
0.0
 10
212.9376795431813
 20
-135.6961792652752
 30
0.0
 10
220.0249672995263
 20
-130.2417419226119
 30
0.0
 10
227.0843514688469
 20
-124.4896376009724
 30
0.0
 10
233.4782698405043
 20
-119.000834468834
 30
0.0
 10
239.2345981788548
 20
-113.8186006548814
 30
0.0
 10
244.4900095106552
 20
-108.8782294214398
 30
0.0
 10
250.5854455532508
 20
-102.9120548180635
 30
0.0
 10
257.8753161155354
 20
-95.3840048568328
 30
0.0
 10
266.5209064658964
 20
-85.79946104179703
 30
0.0
 10
274.7443031788777
 20
-75.94171699284354
 30
0.0
 10
282.2217915465389
 20
-66.2812641307814
 30
0.0
 10
288.648835093165
 20
-57.40511734930931
 30
0.0
 10
294.4589662280407
 20
-48.8468948978365
 30
0.0
 10
299.6473965455107
 20
-40.7196887790632
 30
0.0
 10
304.4728654751597
 20
-32.70489474308133
 30
0.0
 10
309.0623906231247
 20
-24.61438611668418
 30
0.0
 10
312.3620291251859
 20
-18.41910197961724
 30
0.0
 10
314.4294385566076
 20
-14.38098954282359
 30
0.0
 10
315.3486596355147
 20
-12.5596752892321
 30
0.0
 10
316.2360153387922
 20
-10.77649762307117
 30
0.0
 10
317.15807043749
 20
-8.897904772322413
 30
0.0
 10
318.2611301332205
 20
-6.615072171646558
 30
0.0
 10
319.6845548480505
 20
-3.614468114455205
 30
0.0
 10
320.7415962149419
 20
-1.30386599371346
 30
0.0
 10
321.33808155522
 20
0.0000000000000555
 30
0.0
  0
SPLINE
  5
7B
330
1B
100
AcDbEntity
 67
     1
  8
0
  6
Continuous
 62
     7
370
    25
100
AcDbSpline
210
0.0
220
0.0
230
1.0
 70
     8
 71
     3
 72
     9
 73
     5
 74
     0
 42
0.000000001
 43
0.00000001
 40
0.0
 40
0.0
 40
0.0
 40
0.0
 40
0.4905124355663301
 40
1.0
 40
1.0
 40
1.0
 40
1.0
 10
-46.31257412972202
 20
-199.1997737128088
 30
0.0
 10
-45.36013720646435
 20
-199.2594577142289
 30
0.0
 10
-43.41841900688802
 20
-199.3811345507216
 30
0.0
 10
-41.21658623965527
 20
-199.4944262117889
 30
0.0
 10
-40.09477982578763
 20
-199.5521469042568
 30
0.0
  0
SPLINE
  5
7C
330
1B
100
AcDbEntity
 67
     1
  8
0
  6
Continuous
 62
     7
370
    25
100
AcDbSpline
210
0.0
220
0.0
230
1.0
 70
     8
 71
     3
 72
     9
 73
     5
 74
     0
 42
0.000000001
 43
0.00000001
 40
0.0
 40
0.0
 40
0.0
 40
0.0
 40
0.4985494466935086
 40
0.9999999999999999
 40
0.9999999999999999
 40
0.9999999999999999
 40
0.9999999999999999
 10
40.09477982625296
 20
-199.5521469042761
 30
0.0
 10
41.2161030483223
 20
-199.4944106354092
 30
0.0
 10
43.46527457886194
 20
-199.3786021248393
 30
0.0
 10
45.44862465799415
 20
-199.2542244690426
 30
0.0
 10
46.44317665257548
 20
-199.1918552247243
 30
0.0
  0
LWPOLYLINE
  5
7D
330
1B
100
AcDbEntity
 67
     1
  8
0
  6
Continuous
 62
     7
370
    25
100
AcDbPolyline
 90
        3
 70
   128
 43
0.0
 10
-41.6461293096
 20
-199.3613684858
 10
-41.6499349993
 20
-202.1804305142
 10
-41.6537257317
 20
-205.0
  0
LWPOLYLINE
  5
7E
330
1B
100
AcDbEntity
 67
     1
  8
0
  6
Continuous
 62
     7
370
    25
100
AcDbPolyline
 90
        3
 70
   128
 43
0.0
 10
41.653725732
 20
-205.0
 10
41.6499349996
 20
-202.1804305142
 10
41.6461293099
 20
-199.3613684858
  0
SPLINE
  5
7F
330
1B
100
AcDbEntity
 67
     1
  8
0
  6
Continuous
 62
     7
370
    25
100
AcDbSpline
210
0.0
220
0.0
230
1.0
 70
     8
 71
     3
 72
    27
 73
    23
 74
     0
 42
0.000000001
 43
0.00000001
 40
0.0
 40
0.0
 40
0.0
 40
0.0
 40
0.0043677885095952
 40
0.0524418709973555
 40
0.099294391437729
 40
0.1459868505426124
 40
0.1932060433998966
 40
0.2511505452210505
 40
0.310777097878375
 40
0.3720744071308228
 40
0.4352851553629083
 40
0.5000024663051685
 40
0.5646731625414738
 40
0.6279111854892546
 40
0.6892289072195442
 40
0.7488554872627966
 40
0.8067999890866866
 40
0.854019181946351
 40
0.9007116410536792
 40
0.9475641614965412
 40
0.9956382439867228
 40
1.0
 40
1.0
 40
1.0
 40
1.0
 10
-46.50890950416895
 20
-199.183173921911
 30
0.0
 10
-46.45583504668222
 20
-199.1882359189963
 30
0.0
 10
-45.81859635102203
 20
-199.2490128081604
 30
0.0
 10
-43.92955950900462
 20
-199.3171389694714
 30
0.0
 10
-40.84453617972134
 20
-199.3859336936675
 30
0.0
 10
-37.11603813375914
 20
-199.4076256163266
 30
0.0
 10
-32.59716274525567
 20
-199.3977048044862
 30
0.0
 10
-27.19892601841466
 20
-199.3576907468483
 30
0.0
 10
-20.95323447398589
 20
-199.2979297695871
 30
0.0
 10
-14.26330085697469
 20
-199.2354867995141
 30
0.0
 10
-7.23137277948581
 20
-199.1863115718963
 30
0.0
 10
-0.0018207507474893
 20
-199.165161648974
 30
0.0
 10
7.228804200605055
 20
-199.1863332546085
 30
0.0
 10
14.26072314936622
 20
-199.2354844413491
 30
0.0
 10
20.9525413444678
 20
-199.2979176325797
 30
0.0
 10
27.19891948173337
 20
-199.3576921034808
 30
0.0
 10
32.5971641675029
 20
-199.3977045331042
 30
0.0
 10
37.11603711575212
 20
-199.4076256353697
 30
0.0
 10
40.84453899013739
 20
-199.385933863006
 30
0.0
 10
43.92954912561313
 20
-199.3171382620535
 30
0.0
 10
45.81850604903924
 20
-199.2490186298446
 30
0.0
 10
46.45568394815096
 20
-199.1882495924326
 30
0.0
 10
46.5086861430676
 20
-199.1831946582136
 30
0.0
  0
SPLINE
  5
80
330
1B
100
AcDbEntity
 67
     1
  8
0
  6
Continuous
 62
     7
370
    25
100
AcDbSpline
210
0.0
220
0.0
230
1.0
 70
    24
 71
     3
 72
    58
 73
    54
 74
     0
 42
0.000000001
 43
0.00000001
 40
0.0
 40
0.0
 40
0.0
 40
0.0
 40
0.0003085870251911
 40
0.0165418695310447
 40
0.0327847895344214
 40
0.0491094668615995
 40
0.065581801701923
 40
0.0822603186666646
 40
0.0992112543121547
 40
0.1165172963503847
 40
0.1327590266892812
 40
0.1494086688700725
 40
0.1664856504205806
 40
0.1839952551800493
 40
0.2019317974666431
 40
0.220285981632971
 40
0.2407678565997539
 40
0.2616945410272598
 40
0.2830208399984639
 40
0.3046984874368371
 40
0.3266881796792108
 40
0.3489681101322283
 40
0.3715399239689822
 40
0.3967078987912297
 40
0.4222114576368761
 40
0.4479874797173233
 40
0.4739484675652709
 40
0.4999998199296493
 40
0.5276250255310986
 40
0.5551369288264332
 40
0.5824333949522765
 40
0.6094188867946235
 40
0.6360143450812162
 40
0.662206685436509
 40
0.6865392797641715
 40
0.7105084548536044
 40
0.7340677922287241
 40
0.7571553935092876
 40
0.7797099823335794
 40
0.7997117009249517
 40
0.8192152775777812
 40
0.8382091494299099
 40
0.856688353233779
 40
0.8746652286593329
 40
0.8921779768417188
 40
0.9092963832024963
 40
0.9247112835701166
 40
0.9399235217639513
 40
0.9549782963620844
 40
0.9699221752061388
 40
0.9848071736972352
 40
0.9996892135142169
 40
1.0
 40
1.0
 40
1.0
 40
1.0
 10
-321.3268508831742
 20
0.0000000000000555
 30
0.0
 10
-321.3305849000297
 20
0.0000000000000555
 30
0.0
 10
-321.5307476243448
 20
0.0000000000000555
 30
0.0
 10
-320.7801497177993
 20
0.0000000000000416
 30
0.0
 10
-318.8998377588508
 20
0.0000000000000278
 30
0.0
 10
-315.5993571051202
 20
0.0000000000000278
 30
0.0
 10
-311.0935895110725
 20
0.0000000000000416
 30
0.0
 10
-305.3605955510446
 20
0.0000000000000416
 30
0.0
 10
-298.4369653828995
 20
0.0000000000000416
 30
0.0
 10
-290.5756778570349
 20
0.0000000000000416
 30
0.0
 10
-281.906204970272
 20
0.0000000000000278
 30
0.0
 10
-272.5412572228103
 20
0.0000000000000278
 30
0.0
 10
-262.2646422354209
 20
0.0000000000000278
 30
0.0
 10
-251.1121172090084
 20
0.0000000000000278
 30
0.0
 10
-239.1223804389822
 20
0.0000000000000278
 30
0.0
 10
-225.9355019582196
 20
0.0000000000000278
 30
0.0
 10
-211.5267284982504
 20
0.0000000000000278
 30
0.0
 10
-195.9082637827934
 20
0.0000000000000278
 30
0.0
 10
-179.5597960321556
 20
0.0000000000000139
 30
0.0
 10
-162.5610820703635
 20
0.0000000000000139
 30
0.0
 10
-144.9827778044532
 20
0.0000000000000139
 30
0.0
 10
-126.8804650084595
 20
0.0000000000000139
 30
0.0
 10
-107.6666592581215
 20
0.0000000000000139
 30
0.0
 10
-87.34134771816413
 20
0.0000000000000139
 30
0.0
 10
-65.93532974636548
 20
0.0000000000000139
 30
0.0
 10
-44.16520062431255
 20
0.0000000000000139
 30
0.0
 10
-22.14598694032464
 20
0.0000000000000139
 30
0.0
 10
0.4457544702277382
 20
0.0000000000000139
 30
0.0
 10
23.4779164251417
 20
0.0000000000000139
 30
0.0
 10
46.80600365521448
 20
0.0000000000000139
 30
0.0
 10
69.84104826008468
 20
0.0000000000000139
 30
0.0
 10
92.45042669258143
 20
0.0000000000000139
 30
0.0
 10
114.5245815606225
 20
0.0000000000000278
 30
0.0
 10
135.5815287195792
 20
0.0000000000000278
 30
0.0
 10
155.589727330368
 20
0.0000000000000278
 30
0.0
 10
174.5189609915379
 20
0.0000000000000278
 30
0.0
 10
192.6881211176812
 20
0.0000000000000278
 30
0.0
 10
209.9941274214698
 20
0.0000000000000278
 30
0.0
 10
225.8520087751069
 20
0.0000000000000278
 30
0.0
 10
240.2441959452318
 20
0.0000000000000416
 30
0.0
 10
253.2036807774952
 20
0.0000000000000416
 30
0.0
 10
265.1588922737894
 20
0.0000000000000416
 30
0.0
 10
276.06044583547
 20
0.0000000000000416
 30
0.0
 10
285.8642965185061
 20
0.0000000000000416
 30
0.0
 10
294.5346937783294
 20
0.0000000000000416
 30
0.0
 10
301.8438254061076
 20
0.0000000000000416
 30
0.0
 10
307.8695636997155
 20
0.0000000000000416
 30
0.0
 10
312.7063294394005
 20
0.0000000000000416
 30
0.0
 10
316.5035976471058
 20
0.0000000000000416
 30
0.0
 10
319.2882806732693
 20
0.0000000000000416
 30
0.0
 10
320.8532563000642
 20
0.0000000000000416
 30
0.0
 10
321.5310363811361
 20
0.0000000000000555
 30
0.0
 10
321.3298478490364
 20
0.0000000000000555
 30
0.0
 10
321.3257323095293
 20
0.0000000000000555
 30
0.0
  0
SPLINE
  5
81
330
1B
100
AcDbEntity
 67
     1
  8
0
  6
Continuous
 62
     7
370
    25
100
AcDbSpline
210
0.0
220
0.0
230
1.0
 70
     8
 71
     3
 72
    25
 73
    21
 74
     0
 42
0.000000001
 43
0.00000001
 40
0.0
 40
0.0
 40
0.0
 40
0.0
 40
0.0102032143581599
 40
0.0666372235347233
 40
0.1196208928332106
 40
0.1711493338917048
 40
0.2226830655368874
 40
0.2884451061463662
 40
0.356419990784417
 40
0.4269420295689891
 40
0.4999995316619014
 40
0.5729929242192077
 40
0.643576278973055
 40
0.7115548938505589
 40
0.7773169344637847
 40
0.8288506661121346
 40
0.8803791071739017
 40
0.933362776475687
 40
0.989796785655207
 40
1.0
 40
1.0
 40
1.0
 40
1.0
 10
-39.99679176566899
 20
-199.5523430554005
 30
0.0
 10
-39.92331121817391
 20
-199.5574049309917
 30
0.0
 10
-39.44340954238784
 20
-199.5904640556393
 30
0.0
 10
-37.73695103814863
 20
-199.6335388847517
 30
0.0
 10
-34.87736534729763
 20
-199.6784788083114
 30
0.0
 10
-31.27703645788048
 20
-199.7030537632471
 30
0.0
 10
-26.74177721374398
 20
-199.7141434640936
 30
0.0
 10
-21.13963825474382
 20
-199.7119564977419
 30
0.0
 10
-14.51628690438798
 20
-199.7007863214907
 30
0.0
 10
-7.398724812988995
 20
-199.6882505298293
 30
0.0
 10
-0.0022372311862696
 20
-199.6818186071497
 30
0.0
 10
7.39633736282059
 20
-199.6882602544882
 30
0.0
 10
14.51402498859242
 20
-199.7007799820544
 30
0.0
 10
21.13953249332523
 20
-199.7119570926497
 30
0.0
 10
26.74177579889775
 20
-199.7141433354683
 30
0.0
 10
31.2770367980553
 20
-199.703053794079
 30
0.0
 10
34.87736525439244
 20
-199.6784787997806
 30
0.0
 10
37.7369510675402
 20
-199.6335388873352
 30
0.0
 10
39.44340954215414
 20
-199.5904640555539
 30
0.0
 10
39.92331121867434
 20
-199.5574049309931
 30
0.0
 10
39.99679176619707
 20
-199.5523430554211
 30
0.0
  0
SPLINE
  5
82
330
1B
100
AcDbEntity
 67
     1
  8
0
  6
Continuous
 62
     7
370
    25
100
AcDbSpline
210
0.0
220
0.0
230
1.0
 70
    24
 71
     3
 72
    27
 73
    23
 74
     0
 42
0.000000001
 43
0.00000001
 40
0.0
 40
0.0
 40
0.0
 40
0.0
 40
0.0536355645741904
 40
0.1036639232271582
 40
0.1493566914110543
 40
0.1923563723766057
 40
0.2342013633697988
 40
0.2760185144296642
 40
0.3292977013165743
 40
0.3842827751083656
 40
0.4411866829883102
 40
0.49999972045534
 40
0.5587615743059312
 40
0.6157142545439
 40
0.6707022986869219
 40
0.7239814855770088
 40
0.7657986366395536
 40
0.8076436276355027
 40
0.8506433086038172
 40
0.896336076790185
 40
0.9463644354445534
 40
1.0
 40
1.0
 40
1.0
 40
1.0
 10
-41.64439248117498
 20
-204.9999999999996
 30
0.0
 10
-41.5621472837404
 20
-204.9999999999997
 30
0.0
 10
-41.40318820686022
 20
-204.9999999999999
 30
0.0
 10
-39.94575597641975
 20
-205.0000000000004
 30
0.0
 10
-37.72697657141794
 20
-205.0000000000001
 30
0.0
 10
-34.76971269800439
 20
-205.0
 30
0.0
 10
-31.16358163293184
 20
-205.0000000000002
 30
0.0
 10
-26.61693225071423
 20
-204.9999999999998
 30
0.0
 10
-21.02895989844592
 20
-205.0000000000002
 30
0.0
 10
-14.43215131918935
 20
-204.9999999999998
 30
0.0
 10
-7.353525602437718
 20
-205.0000000000003
 30
0.0
 10
-0.0021921536538985
 20
-204.9999999999999
 30
0.0
 10
7.35118331057601
 20
-205.0000000000001
 30
0.0
 10
14.42993575045582
 20
-204.9999999999999
 30
0.0
 10
21.02885601005612
 20
-204.9999999999999
 30
0.0
 10
26.61693089811477
 20
-205.0000000000001
 30
0.0
 10
31.16358195861109
 20
-204.9999999999997
 30
0.0
 10
34.76971260941114
 20
-205.0000000000001
 30
0.0
 10
37.72697659827725
 20
-204.9999999999998
 30
0.0
 10
39.94575596947545
 20
-205.0000000000002
 30
0.0
 10
41.40318820956173
 20
-205.0000000000001
 30
0.0
 10
41.56214728476148
 20
-204.9999999999995
 30
0.0
 10
41.64439248131164
 20
-204.9999999999993
 30
0.0
  0
VIEWPORT
  5
EE
330
1B
100
AcDbEntity
 67
     1
  8
0
100
AcDbViewport
 10
0.0
 20
0.0
 30
0.0
 40
205.6
 41
156.0
 68
     1
 69
     1
 12
0.0
 22
-0.473744661
 13
0.0
 23
0.0
 14
10.0
 24
10.0
 15
10.0
 25
10.0
 16
0.0
 26
0.0
 36
1.0
 17
0.0
 27
0.0
 37
0.0
 42
50.0
 43
0.0
 44
0.0
 45
497.3859817834
 50
0.0
 51
0.0
 72
   100
 90
   557152
  1

281
     0
 71
     1
 74
     0
110
0.0
120
0.0
130
0.0
111
1.0
121
0.0
131
0.0
112
0.0
122
1.0
132
0.0
 79
     0
146
0.0
170
     0
 61
     5
348
2F
292
     1
282
     1
141
0.0
142
0.0
 63
   256
361
EF
  0
ENDSEC
  0
SECTION
  2
OBJECTS
  0
DICTIONARY
  5
C
330
0
100
AcDbDictionary
281
     1
  3
ACAD_DETAILVIEWSTYLE
350
107
  3
ACAD_GROUP
350
D
  3
ACAD_LAYOUT
350
1A
  3
ACAD_MATERIAL
350
43
  3
ACAD_MLEADERSTYLE
350
6B
  3
ACAD_MLINESTYLE
350
17
  3
ACAD_PLOTSETTINGS
350
19
  3
ACAD_PLOTSTYLENAME
350
E
  3
ACAD_SCALELIST
350
47
  3
ACAD_SECTIONVIEWSTYLE
350
108
  3
ACAD_TABLESTYLE
350
69
  3
ACAD_VISUALSTYLE
350
2A
  3
ACDB_RECOMPOSE_DATA
350
104
  3
AcDbVariableDictionary
350
100
  0
SUN
  5
6D
330
29
100
AcDbSun
 90
        1
290
     0
 63
     7
421
 16777215
 40
1.0
291
     1
 91
  2455826
 92
 54000000
292
     0
 70
     2
 71
   256
280
     1
  0
SUN
  5
F1
330
F0
100
AcDbSun
 90
        1
290
     0
 63
     7
421
 16777215
 40
1.0
291
     1
 91
  2455826
 92
 54000000
292
     0
 70
     2
 71
   256
280
     1
  0
SUN
  5
F3
330
F2
100
AcDbSun
 90
        1
290
     0
 63
     7
421
 16777215
 40
1.0
291
     1
 91
  2455826
 92
 54000000
292
     0
 70
     2
 71
   256
280
     1
  0
SUN
  5
F5
330
F4
100
AcDbSun
 90
        1
290
     0
 63
     7
421
 16777215
 40
1.0
291
     1
 91
  2455826
 92
 54000000
292
     0
 70
     2
 71
   256
280
     1
  0
SUN
  5
F7
330
F6
100
AcDbSun
 90
        1
290
     0
 63
     7
421
 16777215
 40
1.0
291
     1
 91
  2455826
 92
 54000000
292
     0
 70
     2
 71
   256
280
     1
  0
SUN
  5
F9
330
F8
100
AcDbSun
 90
        1
290
     0
 63
     7
421
 16777215
 40
1.0
291
     1
 91
  2455826
 92
 54000000
292
     0
 70
     2
 71
   256
280
     1
  0
SUN
  5
FB
330
FA
100
AcDbSun
 90
        1
290
     0
 63
     7
421
 16777215
 40
1.0
291
     1
 91
  2455826
 92
 54000000
292
     0
 70
     2
 71
   256
280
     1
  0
SUN
  5
FD
330
FC
100
AcDbSun
 90
        1
290
     0
 63
     7
421
 16777215
 40
1.0
291
     1
 91
  2455826
 92
 54000000
292
     0
 70
     2
 71
   256
280
     1
  0
SUN
  5
FF
330
FE
100
AcDbSun
 90
        1
290
     0
 63
     7
421
 16777215
 40
1.0
291
     1
 91
  2455826
 92
 54000000
292
     0
 70
     2
 71
   256
280
     1
  0
SUN
  5
EF
330
EE
100
AcDbSun
 90
        1
290
     0
 63
     7
421
 16777215
 40
1.0
291
     1
 91
  2455826
 92
 54000000
292
     0
 70
     2
 71
   256
280
     1
  0
DICTIONARY
  5
107
102
{ACAD_REACTORS
330
C
102
}
330
C
100
AcDbDictionary
281
     1
  0
DICTIONARY
  5
D
102
{ACAD_REACTORS
330
C
102
}
330
C
100
AcDbDictionary
281
     1
  0
DICTIONARY
  5
1A
102
{ACAD_REACTORS
330
C
102
}
330
C
100
AcDbDictionary
281
     1
  3
_Dimetrisch
350
E8
  3
_Isometrisch
350
D1
  3
_Links
350
26
  3
_Normal auf
350
91
  3
_Rechts
350
B1
  3
_Rückseite
350
9F
  3
_Trimetrisch
350
DD
  3
_Unten
350
C4
  3
_Vorderseite
350
1E
  3
Model
350
22
  0
DICTIONARY
  5
43
102
{ACAD_REACTORS
330
C
102
}
330
C
100
AcDbDictionary
281
     1
  3
ByBlock
350
45
  3
ByLayer
350
44
  3
Global
350
46
  0
DICTIONARY
  5
6B
102
{ACAD_REACTORS
330
C
102
}
330
C
100
AcDbDictionary
281
     1
  3
Standard
350
6C
  0
DICTIONARY
  5
17
102
{ACAD_REACTORS
330
C
102
}
330
C
100
AcDbDictionary
281
     1
  3
Standard
350
18
  0
DICTIONARY
  5
19
102
{ACAD_REACTORS
330
C
102
}
330
C
100
AcDbDictionary
281
     1
  0
ACDBDICTIONARYWDFLT
  5
E
102
{ACAD_REACTORS
330
C
102
}
330
C
100
AcDbDictionary
281
     1
  3
Normal
350
F
100
AcDbDictionaryWithDefault
340
F
  0
DICTIONARY
  5
47
102
{ACAD_REACTORS
330
C
102
}
330
C
100
AcDbDictionary
281
     1
  3
A0
350
48
  3
A1
350
49
  3
A2
350
4A
  3
A3
350
4B
  3
A4
350
4C
  3
A5
350
4D
  3
A6
350
4E
  3
A7
350
4F
  3
A8
350
50
  3
A9
350
51
  3
B0
350
52
  3
B1
350
53
  3
B2
350
54
  3
B3
350
55
  3
B4
350
56
  3
B5
350
57
  3
B6
350
58
  3
B7
350
59
  3
B8
350
5A
  3
B9
350
5B
  3
C0
350
5C
  3
C1
350
5D
  3
C2
350
5E
  3
C3
350
5F
  3
C4
350
60
  3
C5
350
61
  3
C6
350
62
  3
C7
350
63
  3
C8
350
64
  3
C9
350
65
  3
D0
350
66
  3
D1
350
67
  3
D2
350
68
  0
DICTIONARY
  5
108
102
{ACAD_REACTORS
330
C
102
}
330
C
100
AcDbDictionary
281
     1
  0
DICTIONARY
  5
69
102
{ACAD_REACTORS
330
C
102
}
330
C
100
AcDbDictionary
281
     1
  3
Standard
350
6A
  0
DICTIONARY
  5
2A
102
{ACAD_REACTORS
330
C
102
}
330
C
100
AcDbDictionary
281
     1
  3
2dWireframe
350
2F
  3
Basic
350
32
  3
Brighten
350
36
  3
ColorChange
350
3A
  3
Conceptual
350
34
  3
Dim
350
35
  3
EdgeColorOff
350
3D
  3
Facepattern
350
39
  3
Flat
350
2B
  3
FlatWithEdges
350
2C
  3
Gouraud
350
2D
  3
GouraudWithEdges
350
2E
  3
Hidden
350
31
  3
JitterOff
350
3B
  3
Linepattern
350
38
  3
OverhangOff
350
3C
  3
Realistic
350
33
  3
Shaded
350
42
  3
Shaded with edges
350
41
  3
Shades of Gray
350
3E
  3
Sketchy
350
3F
  3
Thicken
350
37
  3
Wireframe
350
30
  3
X-Ray
350
40
  0
XRECORD
  5
104
102
{ACAD_REACTORS
330
C
102
}
330
C
100
AcDbXrecord
280
     1
 90
        1
330
6A
  0
DICTIONARY
  5
100
102
{ACAD_REACTORS
330
C
102
}
330
C
100
AcDbDictionary
281
     1
  3
CANNOSCALE
350
101
  3
CMLEADERSTYLE
350
106
  3
CTABLESTYLE
350
105
  0
LAYOUT
  5
E8
102
{ACAD_REACTORS
330
1A
102
}
330
1A
100
AcDbPlotSettings
  1

  2
none_device
  4
ISO_A4_(210.00_x_297.00_MM)
  6

 40
7.5
 41
20.0
 42
7.5
 43
20.0
 44
210.0
 45
297.0
 46
0.0
 47
0.0
 48
0.0
 49
0.0
140
0.0
141
0.0
142
1.0
143
2.5006854599
 70
   688
 72
     1
 73
     1
 74
     1
  7

 75
     0
 76
     0
 77
     2
 78
   300
147
0.3998903565
148
321.3380816297
149
205.0
100
AcDbLayout
  1
_Dimetrisch
 70
     1
 71
     9
 10
0.0
 20
0.0
 11
0.0
 21
0.0
 12
0.0
 22
0.0
 32
0.0
 14
0.0
 24
0.0
 34
0.0
 15
0.0
 25
0.0
 35
0.0
146
0.0
 13
0.0
 23
0.0
 33
0.0
 16
1.0
 26
0.0
 36
0.0
 17
0.0
 27
1.0
 37
0.0
 76
     0
330
E7
331
FE
  0
LAYOUT
  5
D1
102
{ACAD_REACTORS
330
1A
102
}
330
1A
100
AcDbPlotSettings
  1

  2
none_device
  4
ISO_A4_(210.00_x_297.00_MM)
  6

 40
7.5
 41
20.0
 42
7.5
 43
20.0
 44
210.0
 45
297.0
 46
0.0
 47
0.0
 48
0.0
 49
0.0
140
0.0
141
0.0
142
1.0
143
2.5006854599
 70
   688
 72
     1
 73
     1
 74
     1
  7

 75
     0
 76
     0
 77
     2
 78
   300
147
0.3998903565
148
321.3380816297
149
205.0
100
AcDbLayout
  1
_Isometrisch
 70
     1
 71
     7
 10
0.0
 20
0.0
 11
0.0
 21
0.0
 12
0.0
 22
0.0
 32
0.0
 14
0.0
 24
0.0
 34
0.0
 15
0.0
 25
0.0
 35
0.0
146
0.0
 13
0.0
 23
0.0
 33
0.0
 16
1.0
 26
0.0
 36
0.0
 17
0.0
 27
1.0
 37
0.0
 76
     0
330
D0
331
FA
  0
LAYOUT
  5
26
102
{ACAD_REACTORS
330
1A
102
}
330
1A
100
AcDbPlotSettings
  1

  2
none_device
  4
ISO_A4_(210.00_x_297.00_MM)
  6

 40
7.5
 41
20.0
 42
7.5
 43
20.0
 44
210.0
 45
297.0
 46
0.0
 47
0.0
 48
0.0
 49
0.0
140
0.0
141
0.0
142
1.0
143
2.5006854599
 70
   688
 72
     1
 73
     1
 74
     1
  7

 75
     0
 76
     0
 77
     2
 78
   300
147
0.3998903565
148
321.3380816297
149
205.0
100
AcDbLayout
  1
_Links
 70
     1
 71
     2
 10
0.0
 20
0.0
 11
0.0
 21
0.0
 12
0.0
 22
0.0
 32
0.0
 14
0.0
 24
0.0
 34
0.0
 15
0.0
 25
0.0
 35
0.0
146
0.0
 13
0.0
 23
0.0
 33
0.0
 16
1.0
 26
0.0
 36
0.0
 17
0.0
 27
1.0
 37
0.0
 76
     0
330
23
331
F0
  0
LAYOUT
  5
91
102
{ACAD_REACTORS
330
1A
102
}
330
1A
100
AcDbPlotSettings
  1

  2
none_device
  4
ISO_A4_(210.00_x_297.00_MM)
  6

 40
7.5
 41
20.0
 42
7.5
 43
20.0
 44
210.0
 45
297.0
 46
0.0
 47
0.0
 48
0.0
 49
0.0
140
0.0
141
0.0
142
1.0
143
2.5006854599
 70
   688
 72
     1
 73
     1
 74
     1
  7

 75
     0
 76
     0
 77
     2
 78
   300
147
0.3998903565
148
321.3380816297
149
205.0
100
AcDbLayout
  1
_Normal auf
 70
     1
 71
     3
 10
0.0
 20
0.0
 11
0.0
 21
0.0
 12
0.0
 22
0.0
 32
0.0
 14
0.0
 24
0.0
 34
0.0
 15
0.0
 25
0.0
 35
0.0
146
0.0
 13
0.0
 23
0.0
 33
0.0
 16
1.0
 26
0.0
 36
0.0
 17
0.0
 27
1.0
 37
0.0
 76
     0
330
90
331
F2
  0
LAYOUT
  5
B1
102
{ACAD_REACTORS
330
1A
102
}
330
1A
100
AcDbPlotSettings
  1

  2
none_device
  4
ISO_A4_(210.00_x_297.00_MM)
  6

 40
7.5
 41
20.0
 42
7.5
 43
20.0
 44
210.0
 45
297.0
 46
0.0
 47
0.0
 48
0.0
 49
0.0
140
0.0
141
0.0
142
1.0
143
2.5006854599
 70
   688
 72
     1
 73
     1
 74
     1
  7

 75
     0
 76
     0
 77
     2
 78
   300
147
0.3998903565
148
321.3380816297
149
205.0
100
AcDbLayout
  1
_Rechts
 70
     1
 71
     5
 10
0.0
 20
0.0
 11
0.0
 21
0.0
 12
0.0
 22
0.0
 32
0.0
 14
0.0
 24
0.0
 34
0.0
 15
0.0
 25
0.0
 35
0.0
146
0.0
 13
0.0
 23
0.0
 33
0.0
 16
1.0
 26
0.0
 36
0.0
 17
0.0
 27
1.0
 37
0.0
 76
     0
330
B0
331
F6
  0
LAYOUT
  5
9F
102
{ACAD_REACTORS
330
1A
102
}
330
1A
100
AcDbPlotSettings
  1

  2
none_device
  4
ISO_A4_(210.00_x_297.00_MM)
  6

 40
7.5
 41
20.0
 42
7.5
 43
20.0
 44
210.0
 45
297.0
 46
0.0
 47
0.0
 48
0.0
 49
0.0
140
0.0
141
0.0
142
1.0
143
2.5006854599
 70
   688
 72
     1
 73
     1
 74
     1
  7

 75
     0
 76
     0
 77
     2
 78
   300
147
0.3998903565
148
321.3380816297
149
205.0
100
AcDbLayout
  1
_Rückseite
 70
     1
 71
     4
 10
0.0
 20
0.0
 11
0.0
 21
0.0
 12
0.0
 22
0.0
 32
0.0
 14
0.0
 24
0.0
 34
0.0
 15
0.0
 25
0.0
 35
0.0
146
0.0
 13
0.0
 23
0.0
 33
0.0
 16
1.0
 26
0.0
 36
0.0
 17
0.0
 27
1.0
 37
0.0
 76
     0
330
9E
331
F4
  0
LAYOUT
  5
DD
102
{ACAD_REACTORS
330
1A
102
}
330
1A
100
AcDbPlotSettings
  1

  2
none_device
  4
ISO_A4_(210.00_x_297.00_MM)
  6

 40
7.5
 41
20.0
 42
7.5
 43
20.0
 44
210.0
 45
297.0
 46
0.0
 47
0.0
 48
0.0
 49
0.0
140
0.0
141
0.0
142
1.0
143
2.5006854599
 70
   688
 72
     1
 73
     1
 74
     1
  7

 75
     0
 76
     0
 77
     2
 78
   300
147
0.3998903565
148
321.3380816297
149
205.0
100
AcDbLayout
  1
_Trimetrisch
 70
     1
 71
     8
 10
0.0
 20
0.0
 11
0.0
 21
0.0
 12
0.0
 22
0.0
 32
0.0
 14
0.0
 24
0.0
 34
0.0
 15
0.0
 25
0.0
 35
0.0
146
0.0
 13
0.0
 23
0.0
 33
0.0
 16
1.0
 26
0.0
 36
0.0
 17
0.0
 27
1.0
 37
0.0
 76
     0
330
DC
331
FC
  0
LAYOUT
  5
C4
102
{ACAD_REACTORS
330
1A
102
}
330
1A
100
AcDbPlotSettings
  1

  2
none_device
  4
ISO_A4_(210.00_x_297.00_MM)
  6

 40
7.5
 41
20.0
 42
7.5
 43
20.0
 44
210.0
 45
297.0
 46
0.0
 47
0.0
 48
0.0
 49
0.0
140
0.0
141
0.0
142
1.0
143
2.5006854599
 70
   688
 72
     1
 73
     1
 74
     1
  7

 75
     0
 76
     0
 77
     2
 78
   300
147
0.3998903565
148
321.3380816297
149
205.0
100
AcDbLayout
  1
_Unten
 70
     1
 71
     6
 10
0.0
 20
0.0
 11
0.0
 21
0.0
 12
0.0
 22
0.0
 32
0.0
 14
0.0
 24
0.0
 34
0.0
 15
0.0
 25
0.0
 35
0.0
146
0.0
 13
0.0
 23
0.0
 33
0.0
 16
1.0
 26
0.0
 36
0.0
 17
0.0
 27
1.0
 37
0.0
 76
     0
330
C3
331
F8
  0
LAYOUT
  5
1E
102
{ACAD_REACTORS
330
1A
102
}
330
1A
100
AcDbPlotSettings
  1

  2
none_device
  4
ISO_A4_(210.00_x_297.00_MM)
  6

 40
7.5
 41
20.0
 42
7.5
 43
20.0
 44
210.0
 45
297.0
 46
0.0
 47
0.0
 48
0.0
 49
0.0
140
0.0
141
0.0
142
1.0
143
2.5006854599
 70
   688
 72
     1
 73
     1
 74
     1
  7

 75
     0
 76
     0
 77
     2
 78
   300
147
0.3998903565
148
321.3380816297
149
205.0
100
AcDbLayout
  1
_Vorderseite
 70
     1
 71
     1
 10
-371.3517908269
 20
-223.755140949
 11
371.3517907525
 21
301.3888056223
 12
0.0
 22
0.0
 32
0.0
 14
-321.3380816297
 24
-205.0
 34
0.0
 15
321.3380815552
 25
0.0
 35
0.0
146
0.0
 13
0.0
 23
0.0
 33
0.0
 16
1.0
 26
0.0
 36
0.0
 17
0.0
 27
1.0
 37
0.0
 76
     0
330
1B
331
EE
  0
LAYOUT
  5
22
102
{ACAD_REACTORS
330
1A
102
}
330
1A
100
AcDbPlotSettings
  1

  2
none_device
  4
ANSI_A_(11.00_x_8.50_Inches)
  6

 40
6.35
 41
19.05
 42
6.35000508
 43
19.05000254
 44
279.4
 45
215.9
 46
133.34999746
 47
89.103897236
 48
0.0
 49
0.0
140
0.0
141
0.0
142
0.0169447825
143
1.0
 70
  1696
 72
     0
 73
     0
 74
     0
  7

 75
     0
 76
     0
 77
     2
 78
   300
147
0.0179189148
148
-1300.4909072572
149
0.0
100
AcDbLayout
  1
Model
 70
     1
 71
     0
 10
0.0
 20
0.0
 11
420.0
 21
297.0
 12
0.0
 22
0.0
 32
0.0
 14
-321.337851479
 24
-221.3074660611
 34
0.0
 15
321.337851479
 25
220.3599767391
 35
0.0
146
0.0
 13
0.0
 23
0.0
 33
0.0
 16
1.0
 26
0.0
 36
0.0
 17
0.0
 27
1.0
 37
0.0
 76
     0
330
1F
331
29
  0
MATERIAL
  5
45
102
{ACAD_REACTORS
330
43
102
}
330
43
100
AcDbMaterial
  1
ByBlock
 72
     1
 94
      127
  0
MATERIAL
  5
44
102
{ACAD_REACTORS
330
43
102
}
330
43
100
AcDbMaterial
  1
ByLayer
 72
     1
 94
      127
  0
MATERIAL
  5
46
102
{ACAD_REACTORS
330
43
102
}
330
43
100
AcDbMaterial
  1
Global
 72
     1
 94
      127
  0
MLEADERSTYLE
  5
6C
102
{ACAD_REACTORS
330
6B
102
}
330
6B
100
AcDbMLeaderStyle
179
     2
170
     2
171
     1
172
     0
 90
        2
 40
0.0
 41
0.0
173
     1
 91
-1056964608
340
14
 92
       -2
290
     1
 42
2.0
291
     1
 43
8.0
  3
Standard
341
0
 44
4.0
300

342
11
174
     1
178
     6
175
     1
176
     0
 93
-1056964608
 45
4.0
292
     0
297
     0
 46
4.0
343
0
 94
-1056964608
 47
1.0
 49
1.0
140
1.0
293
     1
141
0.0
294
     1
177
     0
142
1.0
295
     0
296
     0
143
3.75
271
     0
272
     9
273
     9
298
     0
  0
MLINESTYLE
  5
18
102
{ACAD_REACTORS
330
17
102
}
330
17
100
AcDbMlineStyle
  2
Standard
 70
     0
  3

 62
   256
 51
90.0
 52
90.0
 71
     2
 49
0.5
 62
   256
  6
BYLAYER
 49
-0.5
 62
   256
  6
BYLAYER
  0
ACDBPLACEHOLDER
  5
F
102
{ACAD_REACTORS
330
E
102
}
330
E
  0
SCALE
  5
48
102
{ACAD_REACTORS
330
47
102
}
330
47
100
AcDbScale
 70
     0
300
1:1
140
1.0
141
1.0
290
     1
  0
SCALE
  5
49
102
{ACAD_REACTORS
330
47
102
}
330
47
100
AcDbScale
 70
     0
300
1:2
140
1.0
141
2.0
290
     0
  0
SCALE
  5
4A
102
{ACAD_REACTORS
330
47
102
}
330
47
100
AcDbScale
 70
     0
300
1:4
140
1.0
141
4.0
290
     0
  0
SCALE
  5
4B
102
{ACAD_REACTORS
330
47
102
}
330
47
100
AcDbScale
 70
     0
300
1:5
140
1.0
141
5.0
290
     0
  0
SCALE
  5
4C
102
{ACAD_REACTORS
330
47
102
}
330
47
100
AcDbScale
 70
     0
300
1:8
140
1.0
141
8.0
290
     0
  0
SCALE
  5
4D
102
{ACAD_REACTORS
330
47
102
}
330
47
100
AcDbScale
 70
     0
300
1:10
140
1.0
141
10.0
290
     0
  0
SCALE
  5
4E
102
{ACAD_REACTORS
330
47
102
}
330
47
100
AcDbScale
 70
     0
300
1:16
140
1.0
141
16.0
290
     0
  0
SCALE
  5
4F
102
{ACAD_REACTORS
330
47
102
}
330
47
100
AcDbScale
 70
     0
300
1:20
140
1.0
141
20.0
290
     0
  0
SCALE
  5
50
102
{ACAD_REACTORS
330
47
102
}
330
47
100
AcDbScale
 70
     0
300
1:30
140
1.0
141
30.0
290
     0
  0
SCALE
  5
51
102
{ACAD_REACTORS
330
47
102
}
330
47
100
AcDbScale
 70
     0
300
1:40
140
1.0
141
40.0
290
     0
  0
SCALE
  5
52
102
{ACAD_REACTORS
330
47
102
}
330
47
100
AcDbScale
 70
     0
300
1:50
140
1.0
141
50.0
290
     0
  0
SCALE
  5
53
102
{ACAD_REACTORS
330
47
102
}
330
47
100
AcDbScale
 70
     0
300
1:100
140
1.0
141
100.0
290
     0
  0
SCALE
  5
54
102
{ACAD_REACTORS
330
47
102
}
330
47
100
AcDbScale
 70
     0
300
2:1
140
2.0
141
1.0
290
     0
  0
SCALE
  5
55
102
{ACAD_REACTORS
330
47
102
}
330
47
100
AcDbScale
 70
     0
300
4:1
140
4.0
141
1.0
290
     0
  0
SCALE
  5
56
102
{ACAD_REACTORS
330
47
102
}
330
47
100
AcDbScale
 70
     0
300
8:1
140
8.0
141
1.0
290
     0
  0
SCALE
  5
57
102
{ACAD_REACTORS
330
47
102
}
330
47
100
AcDbScale
 70
     0
300
10:1
140
10.0
141
1.0
290
     0
  0
SCALE
  5
58
102
{ACAD_REACTORS
330
47
102
}
330
47
100
AcDbScale
 70
     0
300
100:1
140
100.0
141
1.0
290
     0
  0
SCALE
  5
59
102
{ACAD_REACTORS
330
47
102
}
330
47
100
AcDbScale
 70
     0
300
1/128" = 1'-0"
140
0.0078125
141
12.0
290
     0
  0
SCALE
  5
5A
102
{ACAD_REACTORS
330
47
102
}
330
47
100
AcDbScale
 70
     0
300
1/64" = 1'-0"
140
0.015625
141
12.0
290
     0
  0
SCALE
  5
5B
102
{ACAD_REACTORS
330
47
102
}
330
47
100
AcDbScale
 70
     0
300
1/32" = 1'-0"
140
0.03125
141
12.0
290
     0
  0
SCALE
  5
5C
102
{ACAD_REACTORS
330
47
102
}
330
47
100
AcDbScale
 70
     0
300
1/16" = 1'-0"
140
0.0625
141
12.0
290
     0
  0
SCALE
  5
5D
102
{ACAD_REACTORS
330
47
102
}
330
47
100
AcDbScale
 70
     0
300
3/32" = 1'-0"
140
0.09375
141
12.0
290
     0
  0
SCALE
  5
5E
102
{ACAD_REACTORS
330
47
102
}
330
47
100
AcDbScale
 70
     0
300
1/8" = 1'-0"
140
0.125
141
12.0
290
     0
  0
SCALE
  5
5F
102
{ACAD_REACTORS
330
47
102
}
330
47
100
AcDbScale
 70
     0
300
3/16" = 1'-0"
140
0.1875
141
12.0
290
     0
  0
SCALE
  5
60
102
{ACAD_REACTORS
330
47
102
}
330
47
100
AcDbScale
 70
     0
300
1/4" = 1'-0"
140
0.25
141
12.0
290
     0
  0
SCALE
  5
61
102
{ACAD_REACTORS
330
47
102
}
330
47
100
AcDbScale
 70
     0
300
3/8" = 1'-0"
140
0.375
141
12.0
290
     0
  0
SCALE
  5
62
102
{ACAD_REACTORS
330
47
102
}
330
47
100
AcDbScale
 70
     0
300
1/2" = 1'-0"
140
0.5
141
12.0
290
     0
  0
SCALE
  5
63
102
{ACAD_REACTORS
330
47
102
}
330
47
100
AcDbScale
 70
     0
300
3/4" = 1'-0"
140
0.75
141
12.0
290
     0
  0
SCALE
  5
64
102
{ACAD_REACTORS
330
47
102
}
330
47
100
AcDbScale
 70
     0
300
1" = 1'-0"
140
1.0
141
12.0
290
     0
  0
SCALE
  5
65
102
{ACAD_REACTORS
330
47
102
}
330
47
100
AcDbScale
 70
     0
300
1-1/2" = 1'-0"
140
1.5
141
12.0
290
     0
  0
SCALE
  5
66
102
{ACAD_REACTORS
330
47
102
}
330
47
100
AcDbScale
 70
     0
300
3" = 1'-0"
140
3.0
141
12.0
290
     0
  0
SCALE
  5
67
102
{ACAD_REACTORS
330
47
102
}
330
47
100
AcDbScale
 70
     0
300
6" = 1'-0"
140
6.0
141
12.0
290
     0
  0
SCALE
  5
68
102
{ACAD_REACTORS
330
47
102
}
330
47
100
AcDbScale
 70
     0
300
1'-0" = 1'-0"
140
12.0
141
12.0
290
     0
  0
TABLESTYLE
  5
6A
102
{ACAD_REACTORS
330
69
102
}
102
{ACAD_XDICTIONARY
360
102
102
}
330
69
100
AcDbTableStyle
  3
Standard
 70
     0
 71
     0
 40
0.06
 41
0.06
280
     0
281
     0
  7
STANDARD
140
4.5
170
     2
 62
     0
 63
   257
283
     0
 90
        4
 91
        0
  1

274
    -2
284
     1
 64
     0
275
    -2
285
     1
 65
     0
276
    -2
286
     1
 66
     0
277
    -2
287
     1
 67
     0
278
    -2
288
     1
 68
     0
279
    -2
289
     1
 69
     0
  7
STANDARD
140
6.0
170
     5
 62
     0
 63
   257
283
     0
 90
        4
 91
        0
  1

274
    -2
284
     1
 64
     0
275
    -2
285
     1
 65
     0
276
    -2
286
     1
 66
     0
277
    -2
287
     1
 67
     0
278
    -2
288
     1
 68
     0
279
    -2
289
     1
 69
     0
  7
STANDARD
140
4.5
170
     5
 62
     0
 63
   257
283
     0
 90
        4
 91
        0
  1

274
    -2
284
     1
 64
     0
275
    -2
285
     1
 65
     0
276
    -2
286
     1
 66
     0
277
    -2
287
     1
 67
     0
278
    -2
288
     1
 68
     0
279
    -2
289
     1
 69
     0
  0
VISUALSTYLE
  5
2F
102
{ACAD_REACTORS
330
2A
102
}
330
2A
100
AcDbVisualStyle
  2
2dWireframe
 70
     4
177
     3
291
     0
 70
    58
 90
        0
176
     1
 90
        2
176
     1
 90
        0
176
     1
 90
        0
176
     1
 40
0.6
176
     1
 40
30.0
176
     1
 62
     7
420
 16777215
176
     1
 90
        1
176
     1
 90
        4
176
     1
 62
     7
176
     1
 62
   257
176
     1
 90
        1
176
     1
 90
        1
176
     1
 40
1.0
176
     1
 90
        0
176
     1
 62
   257
176
     1
 40
1.0
176
     1
 90
        1
176
     1
 90
        6
176
     1
 90
        2
176
     1
 62
     7
176
     1
 90
        5
176
     1
 90
        0
176
     1
 90
        0
176
     1
290
     0
176
     1
 90
        1
176
     1
 40
0.0
176
     1
 90
        0
176
     1
290
     1
176
     1
290
     1
176
     1
290
     0
176
     1
290
     0
176
     1
290
     0
176
     1
290
     0
176
     1
290
     0
176
     1
290
     0
176
     1
290
     0
176
     1
 90
       50
176
     1
 40
0.0
176
     1
 40
1.0
176
     1
 90
        0
176
     1
 62
    18
420
        0
176
     1
 90
       50
176
     1
 90
        3
176
     1
 62
     5
420
      255
176
     1
290
     0
176
     1
 90
       50
176
     1
 90
       50
176
     1
 90
       50
176
     1
290
     0
176
     1
 90
       50
176
     1
 62
   256
176
     0
 40
1.0
176
     0
 90
        2
176
     1
  1
strokes_ogs.tif
176
     1
290
     0
176
     1
 40
1.0
176
     1
 40
1.0
176
     1
  0
VISUALSTYLE
  5
32
102
{ACAD_REACTORS
330
2A
102
}
330
2A
100
AcDbVisualStyle
  2
Basic
 70
     7
177
     3
291
     1
 70
    58
 90
        1
176
     1
 90
        0
176
     1
 90
        1
176
     1
 90
        0
176
     1
 40
0.6
176
     1
 40
30.0
176
     1
 62
     7
420
 16777215
176
     1
 90
        0
176
     1
 90
        4
176
     1
 62
     7
176
     1
 62
   257
176
     1
 90
        1
176
     1
 90
        1
176
     1
 40
1.0
176
     1
 90
        8
176
     1
 62
     7
176
     1
 40
1.0
176
     1
 90
        1
176
     1
 90
        6
176
     1
 90
        2
176
     1
 62
     7
176
     1
 90
        5
176
     1
 90
        0
176
     1
 90
        0
176
     1
290
     0
176
     1
 90
        1
176
     1
 40
0.0
176
     1
 90
        0
176
     1
290
     0
176
     1
290
     1
176
     1
290
     1
176
     1
290
     0
176
     1
290
     0
176
     1
290
     0
176
     1
290
     0
176
     1
290
     0
176
     1
290
     0
176
     1
 90
       50
176
     1
 40
0.0
176
     1
 40
1.0
176
     1
 90
        0
176
     1
 62
    18
420
        0
176
     1
 90
       50
176
     1
 90
        3
176
     1
 62
     5
420
      255
176
     1
290
     0
176
     1
 90
       50
176
     1
 90
       50
176
     1
 90
       50
176
     1
290
     0
176
     1
 90
       50
176
     1
 62
   256
176
     0
 40
1.0
176
     0
 90
        2
176
     1
  1
strokes_ogs.tif
176
     1
290
     0
176
     1
 40
1.0
176
     1
 40
1.0
176
     1
  0
VISUALSTYLE
  5
36
102
{ACAD_REACTORS
330
2A
102
}
330
2A
100
AcDbVisualStyle
  2
Brighten
 70
    12
177
     3
291
     1
 70
    58
 90
        2
176
     1
 90
        2
176
     1
 90
        0
176
     1
 90
        0
176
     1
 40
0.6
176
     1
 40
30.0
176
     1
 62
     7
420
 16777215
176
     1
 90
        1
176
     1
 90
        4
176
     1
 62
     7
176
     1
 62
   257
176
     1
 90
        1
176
     1
 90
        1
176
     1
 40
1.0
176
     1
 90
        8
176
     1
 62
     7
176
     1
 40
1.0
176
     1
 90
        1
176
     1
 90
        6
176
     1
 90
        2
176
     1
 62
     7
176
     1
 90
        5
176
     1
 90
        0
176
     1
 90
        0
176
     1
290
     0
176
     1
 90
        1
176
     1
 40
50.0
176
     1
 90
        0
176
     1
290
     0
176
     1
290
     1
176
     1
290
     1
176
     1
290
     0
176
     1
290
     0
176
     1
290
     0
176
     1
290
     0
176
     1
290
     0
176
     1
290
     0
176
     1
 90
       50
176
     1
 40
0.0
176
     1
 40
1.0
176
     1
 90
        0
176
     1
 62
    18
420
        0
176
     1
 90
       50
176
     1
 90
        3
176
     1
 62
     5
420
      255
176
     1
290
     0
176
     1
 90
       50
176
     1
 90
       50
176
     1
 90
       50
176
     1
290
     0
176
     1
 90
       50
176
     1
 62
   256
176
     0
 40
1.0
176
     0
 90
        2
176
     1
  1
strokes_ogs.tif
176
     1
290
     0
176
     1
 40
1.0
176
     1
 40
1.0
176
     1
  0
VISUALSTYLE
  5
3A
102
{ACAD_REACTORS
330
2A
102
}
330
2A
100
AcDbVisualStyle
  2
ColorChange
 70
    16
177
     3
291
     1
 70
    58
 90
        2
176
     1
 90
        2
176
     1
 90
        3
176
     1
 90
        0
176
     1
 40
0.6
176
     1
 40
30.0
176
     1
 62
     8
420
  8421504
176
     1
 90
        1
176
     1
 90
        4
176
     1
 62
     7
176
     1
 62
   257
176
     1
 90
        1
176
     1
 90
        1
176
     1
 40
1.0
176
     1
 90
        8
176
     1
 62
     8
420
  8421504
176
     1
 40
1.0
176
     1
 90
        1
176
     1
 90
        6
176
     1
 90
        2
176
     1
 62
     7
176
     1
 90
        5
176
     1
 90
        0
176
     1
 90
        0
176
     1
290
     0
176
     1
 90
        1
176
     1
 40
0.0
176
     1
 90
        0
176
     1
290
     0
176
     1
290
     1
176
     1
290
     1
176
     1
290
     0
176
     1
290
     0
176
     1
290
     0
176
     1
290
     0
176
     1
290
     0
176
     1
290
     0
176
     1
 90
       50
176
     1
 40
0.0
176
     1
 40
1.0
176
     1
 90
        0
176
     1
 62
    18
420
        0
176
     1
 90
       50
176
     1
 90
        3
176
     1
 62
     5
420
      255
176
     1
290
     0
176
     1
 90
       50
176
     1
 90
       50
176
     1
 90
       50
176
     1
290
     0
176
     1
 90
       50
176
     1
 62
   256
176
     0
 40
1.0
176
     0
 90
        2
176
     1
  1
strokes_ogs.tif
176
     1
290
     0
176
     1
 40
1.0
176
     1
 40
1.0
176
     1
  0
VISUALSTYLE
  5
34
102
{ACAD_REACTORS
330
2A
102
}
330
2A
100
AcDbVisualStyle
  2
Conceptual
 70
     9
177
     3
291
     0
 70
    58
 90
        3
176
     1
 90
        2
176
     1
 90
        0
176
     1
 90
        0
176
     1
 40
0.6
176
     1
 40
30.0
176
     1
 62
     7
420
 16777215
176
     1
 90
        2
176
     1
 90
        2
176
     1
 62
     7
176
     1
 62
   257
176
     1
 90
        1
176
     1
 90
        1
176
     1
 40
179.0
176
     1
 90
        8
176
     1
 62
     7
176
     1
 40
1.0
176
     1
 90
        1
176
     1
 90
        6
176
     1
 90
        2
176
     1
 62
     7
176
     1
 90
        3
176
     1
 90
        0
176
     1
 90
        0
176
     1
290
     0
176
     1
 90
        1
176
     1
 40
0.0
176
     1
 90
        0
176
     1
290
     0
176
     1
290
     1
176
     1
290
     1
176
     1
290
     0
176
     1
290
     0
176
     1
290
     0
176
     1
290
     0
176
     1
290
     0
176
     1
290
     0
176
     1
 90
       50
176
     1
 40
0.0
176
     1
 40
1.0
176
     1
 90
        0
176
     1
 62
    18
420
        0
176
     1
 90
       50
176
     1
 90
        3
176
     1
 62
     5
420
      255
176
     1
290
     0
176
     1
 90
       50
176
     1
 90
       50
176
     1
 90
       50
176
     1
290
     0
176
     1
 90
       50
176
     1
 62
   256
176
     0
 40
1.0
176
     0
 90
        2
176
     1
  1
strokes_ogs.tif
176
     1
290
     0
176
     1
 40
1.0
176
     1
 40
1.0
176
     1
  0
VISUALSTYLE
  5
35
102
{ACAD_REACTORS
330
2A
102
}
330
2A
100
AcDbVisualStyle
  2
Dim
 70
    11
177
     3
291
     1
 70
    58
 90
        2
176
     1
 90
        2
176
     1
 90
        0
176
     1
 90
        0
176
     1
 40
0.6
176
     1
 40
30.0
176
     1
 62
     7
420
 16777215
176
     1
 90
        1
176
     1
 90
        4
176
     1
 62
     7
176
     1
 62
   257
176
     1
 90
        1
176
     1
 90
        1
176
     1
 40
1.0
176
     1
 90
        8
176
     1
 62
     7
176
     1
 40
1.0
176
     1
 90
        1
176
     1
 90
        6
176
     1
 90
        2
176
     1
 62
     7
176
     1
 90
        5
176
     1
 90
        0
176
     1
 90
        0
176
     1
290
     0
176
     1
 90
        1
176
     1
 40
-50.0
176
     1
 90
        0
176
     1
290
     0
176
     1
290
     1
176
     1
290
     1
176
     1
290
     0
176
     1
290
     0
176
     1
290
     0
176
     1
290
     0
176
     1
290
     0
176
     1
290
     0
176
     1
 90
       50
176
     1
 40
0.0
176
     1
 40
1.0
176
     1
 90
        0
176
     1
 62
    18
420
        0
176
     1
 90
       50
176
     1
 90
        3
176
     1
 62
     5
420
      255
176
     1
290
     0
176
     1
 90
       50
176
     1
 90
       50
176
     1
 90
       50
176
     1
290
     0
176
     1
 90
       50
176
     1
 62
   256
176
     0
 40
1.0
176
     0
 90
        2
176
     1
  1
strokes_ogs.tif
176
     1
290
     0
176
     1
 40
1.0
176
     1
 40
1.0
176
     1
  0
VISUALSTYLE
  5
3D
102
{ACAD_REACTORS
330
2A
102
}
330
2A
100
AcDbVisualStyle
  2
EdgeColorOff
 70
    22
177
     3
291
     1
 70
    58
 90
        2
176
     0
 90
        2
176
     0
 90
        0
176
     0
 90
        0
176
     0
 40
0.6
176
     0
 40
30.0
176
     0
 62
     7
420
 16777215
176
     0
 90
        1
176
     0
 90
        4
176
     0
 62
     7
176
     0
 62
   257
176
     0
 90
        1
176
     0
 90
        1
176
     0
 40
1.0
176
     0
 90
        8
176
     2
 62
     7
176
     0
 40
1.0
176
     0
 90
        1
176
     0
 90
        6
176
     0
 90
        2
176
     0
 62
     7
176
     0
 90
        5
176
     0
 90
        0
176
     0
 90
        0
176
     0
290
     0
176
     0
 90
        1
176
     0
 40
0.0
176
     0
 90
        0
176
     0
290
     0
176
     0
290
     1
176
     0
290
     1
176
     0
290
     0
176
     0
290
     0
176
     0
290
     0
176
     0
290
     0
176
     0
290
     0
176
     0
290
     0
176
     0
 90
       50
176
     0
 40
0.0
176
     0
 40
1.0
176
     0
 90
        0
176
     0
 62
    18
420
        0
176
     0
 90
       50
176
     0
 90
        3
176
     0
 62
     5
420
      255
176
     0
290
     0
176
     0
 90
       50
176
     0
 90
       50
176
     0
 90
       50
176
     0
290
     0
176
     0
 90
       50
176
     0
 62
   256
176
     0
 40
1.0
176
     0
 90
        2
176
     0
  1
strokes_ogs.tif
176
     0
290
     0
176
     0
 40
1.0
176
     0
 40
1.0
176
     0
  0
VISUALSTYLE
  5
39
102
{ACAD_REACTORS
330
2A
102
}
330
2A
100
AcDbVisualStyle
  2
Facepattern
 70
    15
177
     3
291
     1
 70
    58
 90
        2
176
     1
 90
        2
176
     1
 90
        0
176
     1
 90
        0
176
     1
 40
0.6
176
     1
 40
30.0
176
     1
 62
     7
420
 16777215
176
     1
 90
        1
176
     1
 90
        4
176
     1
 62
     7
176
     1
 62
   257
176
     1
 90
        1
176
     1
 90
        1
176
     1
 40
1.0
176
     1
 90
        8
176
     1
 62
     7
176
     1
 40
1.0
176
     1
 90
        1
176
     1
 90
        6
176
     1
 90
        2
176
     1
 62
     7
176
     1
 90
        5
176
     1
 90
        0
176
     1
 90
        0
176
     1
290
     0
176
     1
 90
        1
176
     1
 40
0.0
176
     1
 90
        0
176
     1
290
     0
176
     1
290
     1
176
     1
290
     1
176
     1
290
     0
176
     1
290
     0
176
     1
290
     0
176
     1
290
     0
176
     1
290
     0
176
     1
290
     0
176
     1
 90
       50
176
     1
 40
0.0
176
     1
 40
1.0
176
     1
 90
        0
176
     1
 62
    18
420
        0
176
     1
 90
       50
176
     1
 90
        3
176
     1
 62
     5
420
      255
176
     1
290
     0
176
     1
 90
       50
176
     1
 90
       50
176
     1
 90
       50
176
     1
290
     0
176
     1
 90
       50
176
     1
 62
   256
176
     0
 40
1.0
176
     0
 90
        2
176
     1
  1
strokes_ogs.tif
176
     1
290
     0
176
     1
 40
1.0
176
     1
 40
1.0
176
     1
  0
VISUALSTYLE
  5
2B
102
{ACAD_REACTORS
330
2A
102
}
330
2A
100
AcDbVisualStyle
  2
Flat
 70
     0
177
     3
291
     1
 70
    58
 90
        2
176
     1
 90
        1
176
     1
 90
        1
176
     1
 90
        2
176
     1
 40
0.6
176
     1
 40
30.0
176
     1
 62
     7
420
 16777215
176
     1
 90
        0
176
     1
 90
        0
176
     1
 62
     7
176
     1
 62
   257
176
     1
 90
        1
176
     1
 90
        1
176
     1
 40
1.0
176
     1
 90
        8
176
     1
 62
     7
176
     1
 40
1.0
176
     1
 90
        1
176
     1
 90
        6
176
     1
 90
        2
176
     1
 62
     7
176
     1
 90
        5
176
     1
 90
        0
176
     1
 90
        0
176
     1
290
     0
176
     1
 90
       13
176
     1
 40
0.0
176
     1
 90
        0
176
     1
290
     0
176
     1
290
     1
176
     1
290
     1
176
     1
290
     0
176
     1
290
     0
176
     1
290
     0
176
     1
290
     0
176
     1
290
     0
176
     1
290
     0
176
     1
 90
       50
176
     1
 40
0.0
176
     1
 40
1.0
176
     1
 90
        0
176
     1
 62
    18
420
        0
176
     1
 90
       50
176
     1
 90
        3
176
     1
 62
     5
420
      255
176
     1
290
     0
176
     1
 90
       50
176
     1
 90
       50
176
     1
 90
       50
176
     1
290
     0
176
     1
 90
       50
176
     1
 62
   256
176
     0
 40
1.0
176
     0
 90
        2
176
     1
  1
strokes_ogs.tif
176
     1
290
     0
176
     1
 40
1.0
176
     1
 40
1.0
176
     1
  0
VISUALSTYLE
  5
2C
102
{ACAD_REACTORS
330
2A
102
}
330
2A
100
AcDbVisualStyle
  2
FlatWithEdges
 70
     1
177
     3
291
     1
 70
    58
 90
        2
176
     1
 90
        1
176
     1
 90
        1
176
     1
 90
        2
176
     1
 40
0.6
176
     1
 40
30.0
176
     1
 62
     7
420
 16777215
176
     1
 90
        1
176
     1
 90
        0
176
     1
 62
     7
176
     1
 62
   257
176
     1
 90
        1
176
     1
 90
        1
176
     1
 40
1.0
176
     1
 90
        0
176
     1
 62
   257
176
     1
 40
1.0
176
     1
 90
        1
176
     1
 90
        6
176
     1
 90
        2
176
     1
 62
     7
176
     1
 90
        5
176
     1
 90
        0
176
     1
 90
        0
176
     1
290
     0
176
     1
 90
       13
176
     1
 40
0.0
176
     1
 90
        0
176
     1
290
     0
176
     1
290
     1
176
     1
290
     1
176
     1
290
     0
176
     1
290
     0
176
     1
290
     0
176
     1
290
     0
176
     1
290
     0
176
     1
290
     0
176
     1
 90
       50
176
     1
 40
0.0
176
     1
 40
1.0
176
     1
 90
        0
176
     1
 62
    18
420
        0
176
     1
 90
       50
176
     1
 90
        3
176
     1
 62
     5
420
      255
176
     1
290
     0
176
     1
 90
       50
176
     1
 90
       50
176
     1
 90
       50
176
     1
290
     0
176
     1
 90
       50
176
     1
 62
   256
176
     0
 40
1.0
176
     0
 90
        2
176
     1
  1
strokes_ogs.tif
176
     1
290
     0
176
     1
 40
1.0
176
     1
 40
1.0
176
     1
  0
VISUALSTYLE
  5
2D
102
{ACAD_REACTORS
330
2A
102
}
330
2A
100
AcDbVisualStyle
  2
Gouraud
 70
     2
177
     3
291
     1
 70
    58
 90
        2
176
     1
 90
        2
176
     1
 90
        1
176
     1
 90
        2
176
     1
 40
0.6
176
     1
 40
30.0
176
     1
 62
     7
420
 16777215
176
     1
 90
        0
176
     1
 90
        0
176
     1
 62
     7
176
     1
 62
   257
176
     1
 90
        1
176
     1
 90
        1
176
     1
 40
1.0
176
     1
 90
        0
176
     1
 62
     7
176
     1
 40
1.0
176
     1
 90
        1
176
     1
 90
        6
176
     1
 90
        2
176
     1
 62
     7
176
     1
 90
        5
176
     1
 90
        0
176
     1
 90
        0
176
     1
290
     0
176
     1
 90
       13
176
     1
 40
0.0
176
     1
 90
        0
176
     1
290
     0
176
     1
290
     1
176
     1
290
     1
176
     1
290
     0
176
     1
290
     0
176
     1
290
     0
176
     1
290
     0
176
     1
290
     0
176
     1
290
     0
176
     1
 90
       50
176
     1
 40
0.0
176
     1
 40
1.0
176
     1
 90
        0
176
     1
 62
    18
420
        0
176
     1
 90
       50
176
     1
 90
        3
176
     1
 62
     5
420
      255
176
     1
290
     0
176
     1
 90
       50
176
     1
 90
       50
176
     1
 90
       50
176
     1
290
     0
176
     1
 90
       50
176
     1
 62
   256
176
     0
 40
1.0
176
     0
 90
        2
176
     1
  1
strokes_ogs.tif
176
     1
290
     0
176
     1
 40
1.0
176
     1
 40
1.0
176
     1
  0
VISUALSTYLE
  5
2E
102
{ACAD_REACTORS
330
2A
102
}
330
2A
100
AcDbVisualStyle
  2
GouraudWithEdges
 70
     3
177
     3
291
     1
 70
    58
 90
        2
176
     1
 90
        2
176
     1
 90
        1
176
     1
 90
        2
176
     1
 40
0.6
176
     1
 40
30.0
176
     1
 62
     7
420
 16777215
176
     1
 90
        1
176
     1
 90
        0
176
     1
 62
     7
176
     1
 62
   257
176
     1
 90
        1
176
     1
 90
        1
176
     1
 40
1.0
176
     1
 90
        0
176
     1
 62
   257
176
     1
 40
1.0
176
     1
 90
        1
176
     1
 90
        6
176
     1
 90
        2
176
     1
 62
     7
176
     1
 90
        5
176
     1
 90
        0
176
     1
 90
        0
176
     1
290
     0
176
     1
 90
       13
176
     1
 40
0.0
176
     1
 90
        0
176
     1
290
     0
176
     1
290
     1
176
     1
290
     1
176
     1
290
     0
176
     1
290
     0
176
     1
290
     0
176
     1
290
     0
176
     1
290
     0
176
     1
290
     0
176
     1
 90
       50
176
     1
 40
0.0
176
     1
 40
1.0
176
     1
 90
        0
176
     1
 62
    18
420
        0
176
     1
 90
       50
176
     1
 90
        3
176
     1
 62
     5
420
      255
176
     1
290
     0
176
     1
 90
       50
176
     1
 90
       50
176
     1
 90
       50
176
     1
290
     0
176
     1
 90
       50
176
     1
 62
   256
176
     0
 40
1.0
176
     0
 90
        2
176
     1
  1
strokes_ogs.tif
176
     1
290
     0
176
     1
 40
1.0
176
     1
 40
1.0
176
     1
  0
VISUALSTYLE
  5
31
102
{ACAD_REACTORS
330
2A
102
}
330
2A
100
AcDbVisualStyle
  2
Hidden
 70
     6
177
     3
291
     0
 70
    58
 90
        1
176
     1
 90
        2
176
     1
 90
        2
176
     1
 90
        0
176
     1
 40
0.6
176
     1
 40
30.0
176
     1
 62
     7
420
 16777215
176
     1
 90
        2
176
     1
 90
        2
176
     1
 62
     7
176
     1
 62
   257
176
     1
 90
        2
176
     1
 90
        1
176
     1
 40
40.0
176
     1
 90
        0
176
     1
 62
   257
176
     1
 40
1.0
176
     1
 90
        1
176
     1
 90
        6
176
     1
 90
        2
176
     1
 62
     7
176
     1
 90
        3
176
     1
 90
        0
176
     1
 90
        0
176
     1
290
     0
176
     1
 90
        1
176
     1
 40
0.0
176
     1
 90
        0
176
     1
290
     0
176
     1
290
     1
176
     1
290
     1
176
     1
290
     0
176
     1
290
     0
176
     1
290
     0
176
     1
290
     0
176
     1
290
     0
176
     1
290
     0
176
     1
 90
       50
176
     1
 40
0.0
176
     1
 40
1.0
176
     1
 90
        0
176
     1
 62
    18
420
        0
176
     1
 90
       50
176
     1
 90
        3
176
     1
 62
     5
420
      255
176
     1
290
     0
176
     1
 90
       50
176
     1
 90
       50
176
     1
 90
       50
176
     1
290
     0
176
     1
 90
       50
176
     1
 62
   256
176
     0
 40
1.0
176
     0
 90
        2
176
     1
  1
strokes_ogs.tif
176
     1
290
     0
176
     1
 40
1.0
176
     1
 40
1.0
176
     1
  0
VISUALSTYLE
  5
3B
102
{ACAD_REACTORS
330
2A
102
}
330
2A
100
AcDbVisualStyle
  2
JitterOff
 70
    20
177
     3
291
     1
 70
    58
 90
        2
176
     0
 90
        2
176
     0
 90
        0
176
     0
 90
        0
176
     0
 40
0.6
176
     0
 40
30.0
176
     0
 62
     7
420
 16777215
176
     0
 90
        1
176
     0
 90
        4
176
     0
 62
     7
176
     0
 62
   257
176
     0
 90
        1
176
     0
 90
        1
176
     0
 40
1.0
176
     0
 90
       10
176
     2
 62
     7
176
     0
 40
1.0
176
     0
 90
        1
176
     0
 90
        6
176
     0
 90
        2
176
     0
 62
     7
176
     0
 90
        5
176
     0
 90
        0
176
     0
 90
        0
176
     0
290
     0
176
     0
 90
        1
176
     0
 40
0.0
176
     0
 90
        0
176
     0
290
     0
176
     0
290
     1
176
     0
290
     1
176
     0
290
     0
176
     0
290
     0
176
     0
290
     0
176
     0
290
     0
176
     0
290
     0
176
     0
290
     0
176
     0
 90
       50
176
     0
 40
0.0
176
     0
 40
1.0
176
     0
 90
        0
176
     0
 62
    18
420
        0
176
     0
 90
       50
176
     0
 90
        3
176
     0
 62
     5
420
      255
176
     0
290
     0
176
     0
 90
       50
176
     0
 90
       50
176
     0
 90
       50
176
     0
290
     0
176
     0
 90
       50
176
     0
 62
   256
176
     0
 40
1.0
176
     0
 90
        2
176
     0
  1
strokes_ogs.tif
176
     0
290
     0
176
     0
 40
1.0
176
     0
 40
1.0
176
     0
  0
VISUALSTYLE
  5
38
102
{ACAD_REACTORS
330
2A
102
}
330
2A
100
AcDbVisualStyle
  2
Linepattern
 70
    14
177
     3
291
     1
 70
    58
 90
        2
176
     1
 90
        2
176
     1
 90
        0
176
     1
 90
        0
176
     1
 40
0.6
176
     1
 40
30.0
176
     1
 62
     7
420
 16777215
176
     1
 90
        1
176
     1
 90
        4
176
     1
 62
     7
176
     1
 62
   257
176
     1
 90
        7
176
     1
 90
        7
176
     1
 40
1.0
176
     1
 90
        8
176
     1
 62
     7
176
     1
 40
1.0
176
     1
 90
        1
176
     1
 90
        6
176
     1
 90
        2
176
     1
 62
     7
176
     1
 90
        5
176
     1
 90
        0
176
     1
 90
        0
176
     1
290
     0
176
     1
 90
        1
176
     1
 40
0.0
176
     1
 90
        0
176
     1
290
     0
176
     1
290
     1
176
     1
290
     1
176
     1
290
     0
176
     1
290
     0
176
     1
290
     0
176
     1
290
     0
176
     1
290
     0
176
     1
290
     0
176
     1
 90
       50
176
     1
 40
0.0
176
     1
 40
1.0
176
     1
 90
        0
176
     1
 62
    18
420
        0
176
     1
 90
       50
176
     1
 90
        3
176
     1
 62
     5
420
      255
176
     1
290
     0
176
     1
 90
       50
176
     1
 90
       50
176
     1
 90
       50
176
     1
290
     0
176
     1
 90
       50
176
     1
 62
   256
176
     0
 40
1.0
176
     0
 90
        2
176
     1
  1
strokes_ogs.tif
176
     1
290
     0
176
     1
 40
1.0
176
     1
 40
1.0
176
     1
  0
VISUALSTYLE
  5
3C
102
{ACAD_REACTORS
330
2A
102
}
330
2A
100
AcDbVisualStyle
  2
OverhangOff
 70
    21
177
     3
291
     1
 70
    58
 90
        2
176
     0
 90
        2
176
     0
 90
        0
176
     0
 90
        0
176
     0
 40
0.6
176
     0
 40
30.0
176
     0
 62
     7
420
 16777215
176
     0
 90
        1
176
     0
 90
        4
176
     0
 62
     7
176
     0
 62
   257
176
     0
 90
        1
176
     0
 90
        1
176
     0
 40
1.0
176
     0
 90
        9
176
     2
 62
     7
176
     0
 40
1.0
176
     0
 90
        1
176
     0
 90
        6
176
     0
 90
        2
176
     0
 62
     7
176
     0
 90
        5
176
     0
 90
        0
176
     0
 90
        0
176
     0
290
     0
176
     0
 90
        1
176
     0
 40
0.0
176
     0
 90
        0
176
     0
290
     0
176
     0
290
     1
176
     0
290
     1
176
     0
290
     0
176
     0
290
     0
176
     0
290
     0
176
     0
290
     0
176
     0
290
     0
176
     0
290
     0
176
     0
 90
       50
176
     0
 40
0.0
176
     0
 40
1.0
176
     0
 90
        0
176
     0
 62
    18
420
        0
176
     0
 90
       50
176
     0
 90
        3
176
     0
 62
     5
420
      255
176
     0
290
     0
176
     0
 90
       50
176
     0
 90
       50
176
     0
 90
       50
176
     0
290
     0
176
     0
 90
       50
176
     0
 62
   256
176
     0
 40
1.0
176
     0
 90
        2
176
     0
  1
strokes_ogs.tif
176
     0
290
     0
176
     0
 40
1.0
176
     0
 40
1.0
176
     0
  0
VISUALSTYLE
  5
33
102
{ACAD_REACTORS
330
2A
102
}
330
2A
100
AcDbVisualStyle
  2
Realistic
 70
     8
177
     3
291
     0
 70
    58
 90
        2
176
     1
 90
        3
176
     1
 90
        0
176
     1
 90
        2
176
     1
 40
0.6
176
     1
 40
30.0
176
     1
 62
     7
420
 16777215
176
     1
 90
        0
176
     1
 90
        0
176
     1
 62
     7
176
     1
 62
   257
176
     1
 90
        1
176
     1
 90
        1
176
     1
 40
1.0
176
     1
 90
        8
176
     1
 62
   257
176
     1
 40
1.0
176
     1
 90
        1
176
     1
 90
        6
176
     1
 90
        2
176
     1
 62
     7
176
     1
 90
        3
176
     1
 90
        0
176
     1
 90
        0
176
     1
290
     0
176
     1
 90
       13
176
     1
 40
0.0
176
     1
 90
        0
176
     1
290
     0
176
     1
290
     1
176
     1
290
     1
176
     1
290
     0
176
     1
290
     0
176
     1
290
     0
176
     1
290
     0
176
     1
290
     0
176
     1
290
     0
176
     1
 90
       50
176
     1
 40
0.0
176
     1
 40
1.0
176
     1
 90
        0
176
     1
 62
    18
420
        0
176
     1
 90
       50
176
     1
 90
        3
176
     1
 62
     5
420
      255
176
     1
290
     0
176
     1
 90
       50
176
     1
 90
       50
176
     1
 90
       50
176
     1
290
     0
176
     1
 90
       50
176
     1
 62
   256
176
     0
 40
1.0
176
     0
 90
        2
176
     1
  1
strokes_ogs.tif
176
     1
290
     0
176
     1
 40
1.0
176
     1
 40
1.0
176
     1
  0
VISUALSTYLE
  5
42
102
{ACAD_REACTORS
330
2A
102
}
330
2A
100
AcDbVisualStyle
  2
Shaded
 70
    27
177
     3
291
     0
 70
    58
 90
        2
176
     1
 90
        2
176
     1
 90
        1
176
     1
 90
        2
176
     1
 40
0.6
176
     1
 40
30.0
176
     1
 62
     7
420
 16777215
176
     1
 90
        0
176
     1
 90
        4
176
     1
 62
     7
176
     1
 62
   257
176
     1
 90
        1
176
     1
 90
        1
176
     1
 40
1.0
176
     1
 90
        8
176
     1
 62
   257
176
     1
 40
1.0
176
     1
 90
        1
176
     1
 90
        6
176
     1
 90
        2
176
     1
 62
     8
420
  7895160
176
     1
 90
        3
176
     1
 90
        0
176
     1
 90
        0
176
     1
290
     0
176
     1
 90
        5
176
     1
 40
0.0
176
     1
 90
        0
176
     1
290
     0
176
     1
290
     1
176
     1
290
     1
176
     1
290
     0
176
     1
290
     0
176
     1
290
     0
176
     1
290
     0
176
     1
290
     0
176
     1
290
     0
176
     1
 90
       50
176
     1
 40
0.0
176
     1
 40
1.0
176
     1
 90
        0
176
     1
 62
    18
420
        0
176
     1
 90
       50
176
     1
 90
        3
176
     1
 62
     5
420
      255
176
     1
290
     0
176
     1
 90
       50
176
     1
 90
       50
176
     1
 90
       50
176
     1
290
     0
176
     1
 90
       50
176
     1
 62
   256
176
     0
 40
1.0
176
     0
 90
        2
176
     1
  1
strokes_ogs.tif
176
     1
290
     0
176
     1
 40
1.0
176
     1
 40
1.0
176
     1
  0
VISUALSTYLE
  5
41
102
{ACAD_REACTORS
330
2A
102
}
330
2A
100
AcDbVisualStyle
  2
Shaded with edges
 70
    26
177
     3
291
     0
 70
    58
 90
        2
176
     1
 90
        2
176
     1
 90
        1
176
     1
 90
        2
176
     1
 40
0.6
176
     1
 40
30.0
176
     1
 62
     7
420
 16777215
176
     1
 90
        1
176
     1
 90
       10
176
     1
 62
     7
176
     1
 62
   257
176
     1
 90
        2
176
     1
 90
        1
176
     1
 40
1.0
176
     1
 90
        8
176
     1
 62
   257
176
     1
 40
1.0
176
     1
 90
        1
176
     1
 90
        6
176
     1
 90
        2
176
     1
 62
     7
176
     1
 90
        3
176
     1
 90
        0
176
     1
 90
        0
176
     1
290
     0
176
     1
 90
        5
176
     1
 40
0.0
176
     1
 90
        0
176
     1
290
     0
176
     1
290
     1
176
     1
290
     1
176
     1
290
     0
176
     1
290
     0
176
     1
290
     0
176
     1
290
     0
176
     1
290
     0
176
     1
290
     0
176
     1
 90
       50
176
     1
 40
0.0
176
     1
 40
1.0
176
     1
 90
        0
176
     1
 62
    18
420
        0
176
     1
 90
       50
176
     1
 90
        3
176
     1
 62
     5
420
      255
176
     1
290
     0
176
     1
 90
       50
176
     1
 90
       50
176
     1
 90
       50
176
     1
290
     0
176
     1
 90
       50
176
     1
 62
   256
176
     0
 40
1.0
176
     0
 90
        2
176
     1
  1
strokes_ogs.tif
176
     1
290
     0
176
     1
 40
1.0
176
     1
 40
1.0
176
     1
  0
VISUALSTYLE
  5
3E
102
{ACAD_REACTORS
330
2A
102
}
330
2A
100
AcDbVisualStyle
  2
Shades of Gray
 70
    23
177
     3
291
     0
 70
    58
 90
        2
176
     1
 90
        2
176
     1
 90
        3
176
     1
 90
        0
176
     1
 40
0.6
176
     1
 40
30.0
176
     1
 62
     7
420
 16777215
176
     1
 90
        2
176
     1
 90
        2
176
     1
 62
     7
176
     1
 62
     7
176
     1
 90
        1
176
     1
 90
        1
176
     1
 40
40.0
176
     1
 90
        8
176
     1
 62
     7
176
     1
 40
1.0
176
     1
 90
        1
176
     1
 90
        6
176
     1
 90
        2
176
     1
 62
     7
176
     1
 90
        3
176
     1
 90
        0
176
     1
 90
        0
176
     1
290
     0
176
     1
 90
        1
176
     1
 40
0.0
176
     1
 90
        0
176
     1
290
     0
176
     1
290
     1
176
     1
290
     1
176
     1
290
     0
176
     1
290
     0
176
     1
290
     0
176
     1
290
     0
176
     1
290
     0
176
     1
290
     0
176
     1
 90
       50
176
     1
 40
0.0
176
     1
 40
1.0
176
     1
 90
        0
176
     1
 62
    18
420
        0
176
     1
 90
       50
176
     1
 90
        3
176
     1
 62
     5
420
      255
176
     1
290
     0
176
     1
 90
       50
176
     1
 90
       50
176
     1
 90
       50
176
     1
290
     0
176
     1
 90
       50
176
     1
 62
   256
176
     0
 40
1.0
176
     0
 90
        2
176
     1
  1
strokes_ogs.tif
176
     1
290
     0
176
     1
 40
1.0
176
     1
 40
1.0
176
     1
  0
VISUALSTYLE
  5
3F
102
{ACAD_REACTORS
330
2A
102
}
330
2A
100
AcDbVisualStyle
  2
Sketchy
 70
    24
177
     3
291
     0
 70
    58
 90
        1
176
     1
 90
        2
176
     1
 90
        2
176
     1
 90
        0
176
     1
 40
0.6
176
     1
 40
30.0
176
     1
 62
     7
420
 16777215
176
     1
 90
        2
176
     1
 90
        2
176
     1
 62
     7
176
     1
 62
     7
176
     1
 90
        1
176
     1
 90
        1
176
     1
 40
40.0
176
     1
 90
       11
176
     1
 62
     7
176
     1
 40
1.0
176
     1
 90
        1
176
     1
 90
        6
176
     1
 90
        2
176
     1
 62
     7
176
     1
 90
        6
176
     1
 90
        0
176
     1
 90
        0
176
     1
290
     0
176
     1
 90
        1
176
     1
 40
0.0
176
     1
 90
        0
176
     1
290
     0
176
     1
290
     1
176
     1
290
     1
176
     1
290
     0
176
     1
290
     0
176
     1
290
     0
176
     1
290
     0
176
     1
290
     0
176
     1
290
     0
176
     1
 90
       50
176
     1
 40
0.0
176
     1
 40
1.0
176
     1
 90
        0
176
     1
 62
    18
420
        0
176
     1
 90
       50
176
     1
 90
        3
176
     1
 62
     5
420
      255
176
     1
290
     0
176
     1
 90
       50
176
     1
 90
       50
176
     1
 90
       50
176
     1
290
     0
176
     1
 90
       50
176
     1
 62
   256
176
     0
 40
1.0
176
     0
 90
        2
176
     1
  1
strokes_ogs.tif
176
     1
290
     0
176
     1
 40
1.0
176
     1
 40
1.0
176
     1
  0
VISUALSTYLE
  5
37
102
{ACAD_REACTORS
330
2A
102
}
330
2A
100
AcDbVisualStyle
  2
Thicken
 70
    13
177
     3
291
     1
 70
    58
 90
        2
176
     1
 90
        2
176
     1
 90
        0
176
     1
 90
        0
176
     1
 40
0.6
176
     1
 40
30.0
176
     1
 62
     7
420
 16777215
176
     1
 90
        1
176
     1
 90
        4
176
     1
 62
     7
176
     1
 62
   257
176
     1
 90
        1
176
     1
 90
        1
176
     1
 40
1.0
176
     1
 90
       12
176
     1
 62
     7
176
     1
 40
1.0
176
     1
 90
        1
176
     1
 90
        6
176
     1
 90
        2
176
     1
 62
     7
176
     1
 90
        5
176
     1
 90
        0
176
     1
 90
        0
176
     1
290
     0
176
     1
 90
        1
176
     1
 40
0.0
176
     1
 90
        0
176
     1
290
     0
176
     1
290
     1
176
     1
290
     1
176
     1
290
     0
176
     1
290
     0
176
     1
290
     0
176
     1
290
     0
176
     1
290
     0
176
     1
290
     0
176
     1
 90
       50
176
     1
 40
0.0
176
     1
 40
1.0
176
     1
 90
        0
176
     1
 62
    18
420
        0
176
     1
 90
       50
176
     1
 90
        3
176
     1
 62
     5
420
      255
176
     1
290
     0
176
     1
 90
       50
176
     1
 90
       50
176
     1
 90
       50
176
     1
290
     0
176
     1
 90
       50
176
     1
 62
   256
176
     0
 40
1.0
176
     0
 90
        2
176
     1
  1
strokes_ogs.tif
176
     1
290
     0
176
     1
 40
1.0
176
     1
 40
1.0
176
     1
  0
VISUALSTYLE
  5
30
102
{ACAD_REACTORS
330
2A
102
}
330
2A
100
AcDbVisualStyle
  2
Wireframe
 70
     5
177
     3
291
     0
 70
    58
 90
        0
176
     1
 90
        2
176
     1
 90
        0
176
     1
 90
        0
176
     1
 40
0.6
176
     1
 40
30.0
176
     1
 62
     7
420
 16777215
176
     1
 90
        1
176
     1
 90
        4
176
     1
 62
     7
176
     1
 62
   257
176
     1
 90
        1
176
     1
 90
        1
176
     1
 40
1.0
176
     1
 90
        0
176
     1
 62
   257
176
     1
 40
1.0
176
     1
 90
        1
176
     1
 90
        6
176
     1
 90
        2
176
     1
 62
     7
176
     1
 90
        3
176
     1
 90
        0
176
     1
 90
        0
176
     1
290
     0
176
     1
 90
        1
176
     1
 40
0.0
176
     1
 90
        0
176
     1
290
     0
176
     1
290
     1
176
     1
290
     1
176
     1
290
     0
176
     1
290
     0
176
     1
290
     0
176
     1
290
     0
176
     1
290
     0
176
     1
290
     0
176
     1
 90
       50
176
     1
 40
0.0
176
     1
 40
1.0
176
     1
 90
        0
176
     1
 62
    18
420
        0
176
     1
 90
       50
176
     1
 90
        3
176
     1
 62
     5
420
      255
176
     1
290
     0
176
     1
 90
       50
176
     1
 90
       50
176
     1
 90
       50
176
     1
290
     0
176
     1
 90
       50
176
     1
 62
   256
176
     0
 40
1.0
176
     0
 90
        2
176
     1
  1
strokes_ogs.tif
176
     1
290
     0
176
     1
 40
1.0
176
     1
 40
1.0
176
     1
  0
VISUALSTYLE
  5
40
102
{ACAD_REACTORS
330
2A
102
}
330
2A
100
AcDbVisualStyle
  2
X-Ray
 70
    25
177
     3
291
     0
 70
    58
 90
        2
176
     1
 90
        2
176
     1
 90
        1
176
     1
 90
        1
176
     1
 40
0.5
176
     1
 40
30.0
176
     1
 62
     7
420
 16777215
176
     1
 90
        1
176
     1
 90
        0
176
     1
 62
     7
176
     1
 62
   257
176
     1
 90
        1
176
     1
 90
        1
176
     1
 40
1.0
176
     1
 90
        8
176
     1
 62
     7
176
     1
 40
1.0
176
     1
 90
        1
176
     1
 90
        6
176
     1
 90
        2
176
     1
 62
     7
176
     1
 90
        3
176
     1
 90
        0
176
     1
 90
        0
176
     1
290
     0
176
     1
 90
       13
176
     1
 40
0.0
176
     1
 90
        0
176
     1
290
     0
176
     1
290
     1
176
     1
290
     1
176
     1
290
     0
176
     1
290
     0
176
     1
290
     0
176
     1
290
     0
176
     1
290
     0
176
     1
290
     0
176
     1
 90
       50
176
     1
 40
0.0
176
     1
 40
1.0
176
     1
 90
        0
176
     1
 62
    18
420
        0
176
     1
 90
       50
176
     1
 90
        3
176
     1
 62
     5
420
      255
176
     1
290
     0
176
     1
 90
       50
176
     1
 90
       50
176
     1
 90
       50
176
     1
290
     0
176
     1
 90
       50
176
     1
 62
   256
176
     0
 40
1.0
176
     0
 90
        2
176
     1
  1
strokes_ogs.tif
176
     1
290
     0
176
     1
 40
1.0
176
     1
 40
1.0
176
     1
  0
DICTIONARYVAR
  5
101
102
{ACAD_REACTORS
330
100
102
}
330
100
100
DictionaryVariables
280
     0
  1
1:1
  0
DICTIONARYVAR
  5
106
102
{ACAD_REACTORS
330
100
102
}
330
100
100
DictionaryVariables
280
     0
  1
Standard
  0
DICTIONARYVAR
  5
105
102
{ACAD_REACTORS
330
100
102
}
330
100
100
DictionaryVariables
280
     0
  1
Standard
  0
DICTIONARY
  5
102
330
6A
100
AcDbDictionary
280
     1
281
     1
  3
ACAD_ROUNDTRIP_2008_TABLESTYLE_CELLSTYLEMAP
360
103
  0
CELLSTYLEMAP
  5
103
102
{ACAD_REACTORS
330
102
102
}
330
102
100
AcDbCellStyleMap
 90
        3
300
CELLSTYLE
  1
TABLEFORMAT_BEGIN
 90
        5
170
     1
 91
        0
 92
    32768
 62
   257
 93
        1
300
CONTENTFORMAT
  1
CONTENTFORMAT_BEGIN
 90
        0
 91
        0
 92
        4
 93
        0
300

 40
0.0
140
1.0
 94
        5
 62
     0
340
11
144
6.0
309
CONTENTFORMAT_END
171
     1
301
MARGIN
  1
CELLMARGIN_BEGIN
 40
1.5
 40
1.5
 40
1.5
 40
1.5
 40
1.5
 40
1.5
309
CELLMARGIN_END
 94
        6
 95
        1
302
GRIDFORMAT
  1
GRIDFORMAT_BEGIN
 90
        0
 91
        1
 62
     0
 92
       -2
340
14
 93
        0
 40
0.045
309
GRIDFORMAT_END
 95
        2
302
GRIDFORMAT
  1
GRIDFORMAT_BEGIN
 90
        0
 91
        1
 62
     0
 92
       -2
340
14
 93
        0
 40
0.045
309
GRIDFORMAT_END
 95
        4
302
GRIDFORMAT
  1
GRIDFORMAT_BEGIN
 90
        0
 91
        1
 62
     0
 92
       -2
340
14
 93
        0
 40
0.045
309
GRIDFORMAT_END
 95
        8
302
GRIDFORMAT
  1
GRIDFORMAT_BEGIN
 90
        0
 91
        1
 62
     0
 92
       -2
340
14
 93
        0
 40
0.045
309
GRIDFORMAT_END
 95
       16
302
GRIDFORMAT
  1
GRIDFORMAT_BEGIN
 90
        0
 91
        1
 62
     0
 92
       -2
340
14
 93
        0
 40
0.045
309
GRIDFORMAT_END
 95
       32
302
GRIDFORMAT
  1
GRIDFORMAT_BEGIN
 90
        0
 91
        1
 62
     0
 92
       -2
340
14
 93
        0
 40
0.045
309
GRIDFORMAT_END
309
TABLEFORMAT_END
  1
CELLSTYLE_BEGIN
 90
        1
 91
        1
300
_TITLE
309
CELLSTYLE_END
300
CELLSTYLE
  1
TABLEFORMAT_BEGIN
 90
        5
170
     1
 91
        0
 92
        0
 62
   257
 93
        1
300
CONTENTFORMAT
  1
CONTENTFORMAT_BEGIN
 90
        0
 91
        0
 92
        4
 93
        0
300

 40
0.0
140
1.0
 94
        5
 62
     0
340
11
144
4.5
309
CONTENTFORMAT_END
171
     1
301
MARGIN
  1
CELLMARGIN_BEGIN
 40
1.5
 40
1.5
 40
1.5
 40
1.5
 40
1.5
 40
1.5
309
CELLMARGIN_END
 94
        6
 95
        1
302
GRIDFORMAT
  1
GRIDFORMAT_BEGIN
 90
        0
 91
        1
 62
     0
 92
       -2
340
14
 93
        0
 40
0.045
309
GRIDFORMAT_END
 95
        2
302
GRIDFORMAT
  1
GRIDFORMAT_BEGIN
 90
        0
 91
        1
 62
     0
 92
       -2
340
14
 93
        0
 40
0.045
309
GRIDFORMAT_END
 95
        4
302
GRIDFORMAT
  1
GRIDFORMAT_BEGIN
 90
        0
 91
        1
 62
     0
 92
       -2
340
14
 93
        0
 40
0.045
309
GRIDFORMAT_END
 95
        8
302
GRIDFORMAT
  1
GRIDFORMAT_BEGIN
 90
        0
 91
        1
 62
     0
 92
       -2
340
14
 93
        0
 40
0.045
309
GRIDFORMAT_END
 95
       16
302
GRIDFORMAT
  1
GRIDFORMAT_BEGIN
 90
        0
 91
        1
 62
     0
 92
       -2
340
14
 93
        0
 40
0.045
309
GRIDFORMAT_END
 95
       32
302
GRIDFORMAT
  1
GRIDFORMAT_BEGIN
 90
        0
 91
        1
 62
     0
 92
       -2
340
14
 93
        0
 40
0.045
309
GRIDFORMAT_END
309
TABLEFORMAT_END
  1
CELLSTYLE_BEGIN
 90
        2
 91
        1
300
_HEADER
309
CELLSTYLE_END
300
CELLSTYLE
  1
TABLEFORMAT_BEGIN
 90
        5
170
     1
 91
        0
 92
        0
 62
   257
 93
        1
300
CONTENTFORMAT
  1
CONTENTFORMAT_BEGIN
 90
        0
 91
        0
 92
        4
 93
        0
300

 40
0.0
140
1.0
 94
        2
 62
     0
340
11
144
4.5
309
CONTENTFORMAT_END
171
     1
301
MARGIN
  1
CELLMARGIN_BEGIN
 40
1.5
 40
1.5
 40
1.5
 40
1.5
 40
1.5
 40
1.5
309
CELLMARGIN_END
 94
        6
 95
        1
302
GRIDFORMAT
  1
GRIDFORMAT_BEGIN
 90
        0
 91
        1
 62
     0
 92
       -2
340
14
 93
        0
 40
0.045
309
GRIDFORMAT_END
 95
        2
302
GRIDFORMAT
  1
GRIDFORMAT_BEGIN
 90
        0
 91
        1
 62
     0
 92
       -2
340
14
 93
        0
 40
0.045
309
GRIDFORMAT_END
 95
        4
302
GRIDFORMAT
  1
GRIDFORMAT_BEGIN
 90
        0
 91
        1
 62
     0
 92
       -2
340
14
 93
        0
 40
0.045
309
GRIDFORMAT_END
 95
        8
302
GRIDFORMAT
  1
GRIDFORMAT_BEGIN
 90
        0
 91
        1
 62
     0
 92
       -2
340
14
 93
        0
 40
0.045
309
GRIDFORMAT_END
 95
       16
302
GRIDFORMAT
  1
GRIDFORMAT_BEGIN
 90
        0
 91
        1
 62
     0
 92
       -2
340
14
 93
        0
 40
0.045
309
GRIDFORMAT_END
 95
       32
302
GRIDFORMAT
  1
GRIDFORMAT_BEGIN
 90
        0
 91
        1
 62
     0
 92
       -2
340
14
 93
        0
 40
0.045
309
GRIDFORMAT_END
309
TABLEFORMAT_END
  1
CELLSTYLE_BEGIN
 90
        3
 91
        2
300
_DATA
309
CELLSTYLE_END
  0
ENDSEC
  0
EOF
