  0
SECTION
  2
HEADER
  9
$ACADVER
  1
AC1027
  9
$ACADMAINTVER
 70
   105
  9
$DWGCODEPAGE
  3
ANSI_1252
  9
$REQUIREDVERSIONS
160
                 0
  9
$INSBASE
 10
0.0
 20
0.0
 30
0.0
  9
$EXTMIN
 10
-260.2198154272
 20
-186.6575334935
 30
0.0
  9
$EXTMAX
 10
260.2198154271
 20
185.0004141961
 30
0.0
  9
$LIMMIN
 10
0.0
 20
0.0
  9
$LIMMAX
 10
420.0
 20
297.0
  9
$ORTHOMODE
 70
     0
  9
$REGENMODE
 70
     1
  9
$FILLMODE
 70
     1
  9
$QTEXTMODE
 70
     0
  9
$MIRRTEXT
 70
     1
  9
$LTSCALE
 40
1.0
  9
$ATTMODE
 70
     1
  9
$TEXTSIZE
 40
3.5
  9
$TRACEWID
 40
1.0
  9
$TEXTSTYLE
  7
STANDARD
  9
$CLAYER
  8
0
  9
$CELTYPE
  6
ByLayer
  9
$CECOLOR
 62
   256
  9
$CELTSCALE
 40
1.0
  9
$DISPSILH
 70
     0
  9
$DIMSCALE
 40
1.0
  9
$DIMASZ
 40
6.0
  9
$DIMEXO
 40
1.0
  9
$DIMDLI
 40
3.75
  9
$DIMRND
 40
0.0
  9
$DIMDLE
 40
0.0
  9
$DIMEXE
 40
1.0
  9
$DIMTP
 40
0.0
  9
$DIMTM
 40
0.0
  9
$DIMTXT
 40
3.5
  9
$DIMCEN
 40
2.5
  9
$DIMTSZ
 40
0.0
  9
$DIMTOL
 70
     0
  9
$DIMLIM
 70
     0
  9
$DIMTIH
 70
     1
  9
$DIMTOH
 70
     1
  9
$DIMSE1
 70
     0
  9
$DIMSE2
 70
     0
  9
$DIMTAD
 70
     1
  9
$DIMZIN
 70
     0
  9
$DIMBLK
  1

  9
$DIMASO
 70
     1
  9
$DIMSHO
 70
     1
  9
$DIMPOST
  1

  9
$DIMAPOST
  1

  9
$DIMALT
 70
     0
  9
$DIMALTD
 70
     3
  9
$DIMALTF
 40
0.0393700787
  9
$DIMLFAC
 40
1.0
  9
$DIMTOFL
 70
     1
  9
$DIMTVP
 40
0.0
  9
$DIMTIX
 70
     0
  9
$DIMSOXD
 70
     0
  9
$DIMSAH
 70
     0
  9
$DIMBLK1
  1

  9
$DIMBLK2
  1

  9
$DIMSTYLE
  2
ISO-25
  9
$DIMCLRD
 70
     0
  9
$DIMCLRE
 70
     0
  9
$DIMCLRT
 70
     0
  9
$DIMTFAC
 40
1.0
  9
$DIMGAP
 40
1.524
  9
$DIMJUST
 70
     0
  9
$DIMSD1
 70
     0
  9
$DIMSD2
 70
     0
  9
$DIMTOLJ
 70
     0
  9
$DIMTZIN
 70
     0
  9
$DIMALTZ
 70
     0
  9
$DIMALTTZ
 70
     0
  9
$DIMUPT
 70
     0
  9
$DIMDEC
 70
     2
  9
$DIMTDEC
 70
     2
  9
$DIMALTU
 70
     2
  9
$DIMALTTD
 70
     3
  9
$DIMTXSTY
  7
STANDARD
  9
$DIMAUNIT
 70
     0
  9
$DIMADEC
 70
     2
  9
$DIMALTRND
 40
0.0
  9
$DIMAZIN
 70
     0
  9
$DIMDSEP
 70
    44
  9
$DIMATFIT
 70
     3
  9
$DIMFRAC
 70
     0
  9
$DIMLDRBLK
  1

  9
$DIMLUNIT
 70
     2
  9
$DIMLWD
 70
    -2
  9
$DIMLWE
 70
    -2
  9
$DIMTMOVE
 70
     0
  9
$DIMFXL
 40
1.0
  9
$DIMFXLON
 70
     0
  9
$DIMJOGANG
 40
0.7853981634
  9
$DIMTFILL
 70
     0
  9
$DIMTFILLCLR
 70
     0
  9
$DIMARCSYM
 70
     0
  9
$DIMLTYPE
  6

  9
$DIMLTEX1
  6

  9
$DIMLTEX2
  6

  9
$DIMTXTDIRECTION
 70
     0
  9
$LUNITS
 70
     2
  9
$LUPREC
 70
     2
  9
$SKETCHINC
 40
1.0
  9
$FILLETRAD
 40
10.0
  9
$AUNITS
 70
     0
  9
$AUPREC
 70
     2
  9
$MENU
  1
.
  9
$ELEVATION
 40
0.0
  9
$PELEVATION
 40
0.0
  9
$THICKNESS
 40
0.0
  9
$LIMCHECK
 70
     0
  9
$CHAMFERA
 40
0.0
  9
$CHAMFERB
 40
0.0
  9
$CHAMFERC
 40
0.0
  9
$CHAMFERD
 40
0.0
  9
$SKPOLY
 70
     0
  9
$TDCREATE
 40
2458299.407556852
  9
$TDUCREATE
 40
2458299.324223518
  9
$TDUPDATE
 40
2458299.407584051
  9
$TDUUPDATE
 40
2458299.324250718
  9
$TDINDWG
 40
0.0000000116
  9
$TDUSRTIMER
 40
0.0000000116
  9
$USRTIMER
 70
     1
  9
$ANGBASE
 50
0.0
  9
$ANGDIR
 70
     0
  9
$PDMODE
 70
     0
  9
$PDSIZE
 40
-1.0
  9
$PLINEWID
 40
0.0
  9
$SPLFRAME
 70
     0
  9
$SPLINETYPE
 70
     6
  9
$SPLINESEGS
 70
     8
  9
$HANDSEED
  5
10B
  9
$SURFTAB1
 70
     6
  9
$SURFTAB2
 70
     6
  9
$SURFTYPE
 70
     6
  9
$SURFU
 70
     6
  9
$SURFV
 70
     6
  9
$UCSBASE
  2

  9
$UCSNAME
  2

  9
$UCSORG
 10
0.0
 20
0.0
 30
0.0
  9
$UCSXDIR
 10
1.0
 20
0.0
 30
0.0
  9
$UCSYDIR
 10
0.0
 20
1.0
 30
0.0
  9
$UCSORTHOREF
  2

  9
$UCSORTHOVIEW
 70
     0
  9
$UCSORGTOP
 10
0.0
 20
0.0
 30
0.0
  9
$UCSORGBOTTOM
 10
0.0
 20
0.0
 30
0.0
  9
$UCSORGLEFT
 10
0.0
 20
0.0
 30
0.0
  9
$UCSORGRIGHT
 10
0.0
 20
0.0
 30
0.0
  9
$UCSORGFRONT
 10
0.0
 20
0.0
 30
0.0
  9
$UCSORGBACK
 10
0.0
 20
0.0
 30
0.0
  9
$PUCSBASE
  2

  9
$PUCSNAME
  2

  9
$PUCSORG
 10
0.0
 20
0.0
 30
0.0
  9
$PUCSXDIR
 10
1.0
 20
0.0
 30
0.0
  9
$PUCSYDIR
 10
0.0
 20
1.0
 30
0.0
  9
$PUCSORTHOREF
  2

  9
$PUCSORTHOVIEW
 70
     0
  9
$PUCSORGTOP
 10
0.0
 20
0.0
 30
0.0
  9
$PUCSORGBOTTOM
 10
0.0
 20
0.0
 30
0.0
  9
$PUCSORGLEFT
 10
0.0
 20
0.0
 30
0.0
  9
$PUCSORGRIGHT
 10
0.0
 20
0.0
 30
0.0
  9
$PUCSORGFRONT
 10
0.0
 20
0.0
 30
0.0
  9
$PUCSORGBACK
 10
0.0
 20
0.0
 30
0.0
  9
$USERI1
 70
     0
  9
$USERI2
 70
     0
  9
$USERI3
 70
     0
  9
$USERI4
 70
     0
  9
$USERI5
 70
     0
  9
$USERR1
 40
0.0
  9
$USERR2
 40
0.0
  9
$USERR3
 40
0.0
  9
$USERR4
 40
0.0
  9
$USERR5
 40
0.0
  9
$WORLDVIEW
 70
     1
  9
$SHADEDGE
 70
     3
  9
$SHADEDIF
 70
    70
  9
$TILEMODE
 70
     1
  9
$MAXACTVP
 70
    64
  9
$PINSBASE
 10
0.0
 20
0.0
 30
0.0
  9
$PLIMCHECK
 70
     0
  9
$PEXTMIN
 10
-260.2205717012
 20
-175.0
 30
0.0
  9
$PEXTMAX
 10
260.2205713663
 20
0.0
 30
0.0
  9
$PLIMMIN
 10
-300.721827971
 20
-190.1879711012
  9
$PLIMMAX
 10
300.7218276362
 20
235.0752197322
  9
$UNITMODE
 70
     0
  9
$VISRETAIN
 70
     1
  9
$PLINEGEN
 70
     0
  9
$PSLTSCALE
 70
     1
  9
$TREEDEPTH
 70
  3020
  9
$CMLSTYLE
  2
Standard
  9
$CMLJUST
 70
     0
  9
$CMLSCALE
 40
20.0
  9
$PROXYGRAPHICS
 70
     1
  9
$MEASUREMENT
 70
     1
  9
$CELWEIGHT
370
    -1
  9
$ENDCAPS
280
     0
  9
$JOINSTYLE
280
     0
  9
$LWDISPLAY
290
     1
  9
$INSUNITS
 70
     4
  9
$HYPERLINKBASE
  1

  9
$STYLESHEET
  1

  9
$XEDIT
290
     1
  9
$CEPSNTYPE
380
     0
  9
$PSTYLEMODE
290
     1
  9
$FINGERPRINTGUID
  2
{254F7334-B627-40F0-918D-ECC12C819C91}
  9
$VERSIONGUID
  2
{FAEB1C32-E019-11D5-929B-00C0DF256EC4}
  9
$EXTNAMES
290
     1
  9
$PSVPSCALE
 40
0.0
  9
$OLESTARTUP
290
     0
  9
$SORTENTS
280
   127
  9
$INDEXCTL
280
     0
  9
$HIDETEXT
280
     1
  9
$XCLIPFRAME
280
     2
  9
$HALOGAP
280
     0
  9
$OBSCOLOR
 70
   257
  9
$OBSLTYPE
280
     0
  9
$INTERSECTIONDISPLAY
280
     0
  9
$INTERSECTIONCOLOR
 70
   257
  9
$DIMASSOC
280
     2
  9
$PROJECTNAME
  1

  9
$CAMERADISPLAY
290
     0
  9
$LENSLENGTH
 40
50.0
  9
$CAMERAHEIGHT
 40
0.0
  9
$STEPSPERSEC
 40
2.0
  9
$STEPSIZE
 40
6.0
  9
$3DDWFPREC
 40
2.0
  9
$PSOLWIDTH
 40
5.0
  9
$PSOLHEIGHT
 40
80.0
  9
$LOFTANG1
 40
1.5707963268
  9
$LOFTANG2
 40
1.5707963268
  9
$LOFTMAG1
 40
0.0
  9
$LOFTMAG2
 40
0.0
  9
$LOFTPARAM
 70
     7
  9
$LOFTNORMALS
280
     1
  9
$LATITUDE
 40
37.795
  9
$LONGITUDE
 40
-122.394
  9
$NORTHDIRECTION
 40
0.0
  9
$TIMEZONE
 70
 -8000
  9
$LIGHTGLYPHDISPLAY
280
     1
  9
$TILEMODELIGHTSYNCH
280
     1
  9
$CMATERIAL
347
44
  9
$SOLIDHIST
280
     0
  9
$SHOWHIST
280
     1
  9
$DWFFRAME
280
     2
  9
$DGNFRAME
280
     2
  9
$REALWORLDSCALE
290
     1
  9
$INTERFERECOLOR
 62
   256
  9
$CSHADOW
280
     0
  9
$SHADOWPLANELOCATION
 40
0.0
  0
ENDSEC
  0
SECTION
  2
CLASSES
  0
CLASS
  1
ACDBDICTIONARYWDFLT
  2
AcDbDictionaryWithDefault
  3
ObjectDBX Classes
 90
        0
 91
        4
280
     0
281
     0
  0
CLASS
  1
VISUALSTYLE
  2
AcDbVisualStyle
  3
ObjectDBX Classes
 90
     4095
 91
        4
280
     0
281
     0
  0
CLASS
  1
MATERIAL
  2
AcDbMaterial
  3
ObjectDBX Classes
 90
     1153
 91
        4
280
     0
281
     0
  0
CLASS
  1
SCALE
  2
AcDbScale
  3
ObjectDBX Classes
 90
     1153
 91
        4
280
     0
281
     0
  0
CLASS
  1
TABLESTYLE
  2
AcDbTableStyle
  3
ObjectDBX Classes
 90
     4095
 91
        4
280
     0
281
     0
  0
CLASS
  1
MLEADERSTYLE
  2
AcDbMLeaderStyle
  3
ACDB_MLEADERSTYLE_CLASS
 90
     4095
 91
        4
280
     0
281
     0
  0
CLASS
  1
SUN
  2
AcDbSun
  3
SCENEOE
 90
     1153
 91
        4
280
     0
281
     0
  0
CLASS
  1
DICTIONARYVAR
  2
AcDbDictionaryVar
  3
ObjectDBX Classes
 90
        0
 91
        4
280
     0
281
     0
  0
CLASS
  1
CELLSTYLEMAP
  2
AcDbCellStyleMap
  3
ObjectDBX Classes
 90
     1152
 91
        4
280
     0
281
     0
  0
ENDSEC
  0
SECTION
  2
TABLES
  0
TABLE
  2
VPORT
  5
8
330
0
100
AcDbSymbolTable
 70
     1
  0
VPORT
  5
29
330
8
100
AcDbSymbolTableRecord
100
AcDbViewportTableRecord
  2
*Active
 70
     0
 10
0.0
 20
0.0
 11
1.0
 21
1.0
 12
0.0
 22
-0.8285596487
 13
0.0
 23
0.0
 14
10.0
 24
10.0
 15
10.0
 25
10.0
 16
0.0
 26
0.0
 36
1.0
 17
0.0
 27
0.0
 37
0.0
 40
379.0911066434
 41
1.4003188526
 42
50.0
 43
0.0
 44
0.0
 50
0.0
 51
0.0
 71
     0
 72
   100
 73
     1
 74
     3
 75
     0
 76
     0
 77
     0
 78
     0
281
     0
 65
     1
110
0.0
120
0.0
130
0.0
111
1.0
121
0.0
131
0.0
112
0.0
122
1.0
132
0.0
 79
     0
146
0.0
348
2F
 60
     3
 61
     5
292
     1
282
     1
141
0.0
142
0.0
 63
   250
361
6D
  0
ENDTAB
  0
TABLE
  2
LTYPE
  5
5
330
0
100
AcDbSymbolTable
 70
     6
  0
LTYPE
  5
14
330
5
100
AcDbSymbolTableRecord
100
AcDbLinetypeTableRecord
  2
ByBlock
 70
     0
  3

 72
    65
 73
     0
 40
0.0
  0
LTYPE
  5
15
330
5
100
AcDbSymbolTableRecord
100
AcDbLinetypeTableRecord
  2
ByLayer
 70
     0
  3

 72
    65
 73
     0
 40
0.0
  0
LTYPE
  5
16
330
5
100
AcDbSymbolTableRecord
100
AcDbLinetypeTableRecord
  2
Continuous
 70
     0
  3
Solid line
 72
    65
 73
     0
 40
0.0
  0
LTYPE
  5
6E
330
5
100
AcDbSymbolTableRecord
100
AcDbLinetypeTableRecord
  2
HIDDEN
 70
     0
  3
Hidden __ __ __ __ __ __ __ __ __ __ __ __ __ __
 72
    65
 73
     2
 40
1.905
 49
1.27
 74
     0
 49
-0.635
 74
     0
  0
LTYPE
  5
6F
330
5
100
AcDbSymbolTableRecord
100
AcDbLinetypeTableRecord
  2
PHANTOM
 70
     0
  3
Phantom ______  __  __  ______  __  __  ______
 72
    65
 73
     6
 40
12.7
 49
6.35
 74
     0
 49
-1.27
 74
     0
 49
1.27
 74
     0
 49
-1.27
 74
     0
 49
1.27
 74
     0
 49
-1.27
 74
     0
  0
LTYPE
  5
70
330
5
100
AcDbSymbolTableRecord
100
AcDbLinetypeTableRecord
  2
CENTER
 70
     0
  3
Center ____ _ ____ _ ____ _ ____ _ ____ _ ____
 72
    65
 73
     4
 40
10.16
 49
6.35
 74
     0
 49
-1.27
 74
     0
 49
1.27
 74
     0
 49
-1.27
 74
     0
  0
LTYPE
  5
71
330
5
100
AcDbSymbolTableRecord
100
AcDbLinetypeTableRecord
  2
CENTERX2
 70
     0
  3
Center (2x) ________  __  ________  __  _____
 72
    65
 73
     4
 40
20.32
 49
12.7
 74
     0
 49
-2.54
 74
     0
 49
2.54
 74
     0
 49
-2.54
 74
     0
  0
LTYPE
  5
72
330
5
100
AcDbSymbolTableRecord
100
AcDbLinetypeTableRecord
  2
DOT2
 70
     0
  3
Dot (.5x) ........................................
 72
    65
 73
     2
 40
0.635
 49
0.0
 74
     0
 49
-0.635
 74
     0
  0
ENDTAB
  0
TABLE
  2
LAYER
  5
2
330
0
100
AcDbSymbolTable
 70
     1
  0
LAYER
  5
10
330
2
100
AcDbSymbolTableRecord
100
AcDbLayerTableRecord
  2
0
 70
     0
 62
     7
  6
Continuous
370
    -3
390
F
347
46
348
0
  0
ENDTAB
  0
TABLE
  2
STYLE
  5
3
330
0
100
AcDbSymbolTable
 70
     1
  0
STYLE
  5
11
330
3
100
AcDbSymbolTableRecord
100
AcDbTextStyleTableRecord
  2
STANDARD
 70
     0
 40
0.0
 41
1.0
 50
0.0
 71
     0
 42
3.5
  3
GOTHIC.TTF
  4

1001
ACAD
1000
CENTURY GOTHIC
1071
       34
  0
ENDTAB
  0
TABLE
  2
VIEW
  5
6
330
0
100
AcDbSymbolTable
 70
     0
  0
ENDTAB
  0
TABLE
  2
UCS
  5
7
330
0
100
AcDbSymbolTable
 70
     0
  0
ENDTAB
  0
TABLE
  2
APPID
  5
9
330
0
100
AcDbSymbolTable
 70
     1
  0
APPID
  5
12
330
9
100
AcDbSymbolTableRecord
100
AcDbRegAppTableRecord
  2
ACAD
 70
     0
  0
ENDTAB
  0
TABLE
  2
DIMSTYLE
  5
A
330
0
100
AcDbSymbolTable
 70
     1
100
AcDbDimStyleTable
  0
DIMSTYLE
105
27
330
A
100
AcDbSymbolTableRecord
100
AcDbDimStyleTableRecord
  2
ISO-25
 70
     0
 41
2.5
 42
0.625
 43
3.75
 44
1.25
 73
     0
 74
     0
 77
     1
 78
     8
140
2.5
141
2.5
143
0.0393700787
147
0.625
171
     3
172
     1
178
     0
271
     2
272
     2
274
     3
278
    44
283
     0
284
     8
340
11
  0
ENDTAB
  0
TABLE
  2
BLOCK_RECORD
  5
1
330
0
100
AcDbSymbolTable
 70
     8
  0
BLOCK_RECORD
  5
1F
330
1
100
AcDbSymbolTableRecord
100
AcDbBlockTableRecord
  2
*Model_Space
340
22
 70
     0
280
     1
281
     0
  0
BLOCK_RECORD
  5
1B
330
1
100
AcDbSymbolTableRecord
100
AcDbBlockTableRecord
  2
*Paper_Space
340
1E
 70
     0
280
     1
281
     0
  0
BLOCK_RECORD
  5
23
330
1
100
AcDbSymbolTableRecord
100
AcDbBlockTableRecord
  2
*Paper_Space0
340
26
 70
     0
280
     1
281
     0
  0
BLOCK_RECORD
  5
8A
330
1
100
AcDbSymbolTableRecord
100
AcDbBlockTableRecord
  2
*Paper_Space1
340
8B
 70
     0
280
     1
281
     0
  0
BLOCK_RECORD
  5
97
330
1
100
AcDbSymbolTableRecord
100
AcDbBlockTableRecord
  2
*Paper_Space2
340
98
 70
     0
280
     1
281
     0
  0
BLOCK_RECORD
  5
A7
330
1
100
AcDbSymbolTableRecord
100
AcDbBlockTableRecord
  2
*Paper_Space3
340
A8
 70
     0
280
     1
281
     0
  0
BLOCK_RECORD
  5
B5
330
1
100
AcDbSymbolTableRecord
100
AcDbBlockTableRecord
  2
*Paper_Space4
340
B6
 70
     0
280
     1
281
     0
  0
BLOCK_RECORD
  5
C3
330
1
100
AcDbSymbolTableRecord
100
AcDbBlockTableRecord
  2
*Paper_Space5
340
C4
 70
     0
280
     1
281
     0
  0
BLOCK_RECORD
  5
D7
330
1
100
AcDbSymbolTableRecord
100
AcDbBlockTableRecord
  2
*Paper_Space6
340
D8
 70
     0
280
     1
281
     0
  0
BLOCK_RECORD
  5
E9
330
1
100
AcDbSymbolTableRecord
100
AcDbBlockTableRecord
  2
*Paper_Space7
340
EA
 70
     0
280
     1
281
     0
  0
ENDTAB
  0
ENDSEC
  0
SECTION
  2
BLOCKS
  0
BLOCK
  5
20
330
1F
100
AcDbEntity
  8
0
100
AcDbBlockBegin
  2
*Model_Space
 70
     0
 10
0.0
 20
0.0
 30
0.0
  3
*Model_Space
  1

  0
ENDBLK
  5
21
330
1F
100
AcDbEntity
  8
0
100
AcDbBlockEnd
  0
BLOCK
  5
1C
330
1B
100
AcDbEntity
 67
     1
  8
0
100
AcDbBlockBegin
  2
*Paper_Space
 70
     0
 10
0.0
 20
0.0
 30
0.0
  3
*Paper_Space
  1

  0
ENDBLK
  5
1D
330
1B
100
AcDbEntity
 67
     1
  8
0
100
AcDbBlockEnd
  0
BLOCK
  5
24
330
23
100
AcDbEntity
  8
0
100
AcDbBlockBegin
  2
*Paper_Space0
 70
     0
 10
0.0
 20
0.0
 30
0.0
  3
*Paper_Space0
  1

  0
SPLINE
  5
82
330
23
100
AcDbEntity
  8
0
  6
Continuous
 62
     7
370
    25
100
AcDbSpline
210
0.0
220
0.0
230
1.0
 70
     8
 71
     3
 72
    26
 73
    22
 74
     0
 42
0.000000001
 43
0.00000001
 40
0.0
 40
0.0
 40
0.0
 40
0.0
 40
0.0746688453641363
 40
0.1431459751570309
 40
0.2054312943580437
 40
0.2615247336636145
 40
0.3114262545217468
 40
0.3462908640255897
 40
0.3773328172818706
 40
0.4045520976033065
 40
0.4280182695263536
 40
0.4524568522031436
 40
0.4891159375512288
 40
0.5319971344567429
 40
0.581100405153872
 40
0.6364256961771015
 40
0.6979729312254563
 40
0.7644773557238709
 40
0.8369833886072421
 40
0.9154909732673857
 40
1.0
 40
1.0
 40
1.0
 40
1.0
 10
-185.0004141960883
 20
0.000000000000111
 30
0.0
 10
-184.9964659342493
 20
-4.360156077945682
 30
0.0
 10
-184.9888968096917
 20
-12.71891387807879
 30
0.0
 10
-184.6080090256612
 20
-24.70970804811588
 30
0.0
 10
-184.0404016485503
 20
-35.60605617127888
 30
0.0
 10
-183.3293159870785
 20
-45.40685562697787
 30
0.0
 10
-182.5885898833154
 20
-53.59862862019293
 30
0.0
 10
-181.8833449067442
 20
-60.32395450505691
 30
0.0
 10
-181.2562809884
 20
-65.72541022732567
 30
0.0
 10
-180.6594874337026
 20
-70.46008888767267
 30
0.0
 10
-180.0737923987602
 20
-74.80736121810067
 30
0.0
 10
-179.375043519322
 20
-79.69541831543171
 30
0.0
 10
-178.4540497674573
 20
-85.69665975756038
 30
0.0
 10
-177.2151651571851
 20
-93.10557062660256
 30
0.0
 10
-175.6651885799681
 20
-101.5666023577621
 30
0.0
 10
-173.7514984793385
 20
-111.067713928033
 30
0.0
 10
-171.4306501613816
 20
-121.5213285363872
 30
0.0
 10
-168.6477635147946
 20
-132.8975769097679
 30
0.0
 10
-165.3352165379084
 20
-145.1598620244954
 30
0.0
 10
-161.4375656626065
 20
-158.350788303845
 30
0.0
 10
-158.4215877426717
 20
-167.3795929861685
 30
0.0
 10
-156.8580823030533
 20
-172.060192648639
 30
0.0
  0
SPLINE
  5
83
330
23
100
AcDbEntity
  8
0
  6
Continuous
 62
     7
370
    25
100
AcDbSpline
210
0.0
220
0.0
230
1.0
 70
     8
 71
     3
 72
    32
 73
    28
 74
     0
 42
0.000000001
 43
0.00000001
 40
0.0
 40
0.0
 40
0.0
 40
0.0
 40
0.040935466264794
 40
0.0809758174816098
 40
0.1202428148633869
 40
0.1590393210452618
 40
0.1990844857745839
 40
0.251276538749024
 40
0.3058444671222226
 40
0.3613307591542986
 40
0.4156153176089452
 40
0.4553557368446833
 40
0.4944160480012399
 40
0.5327962854272047
 40
0.555135605837238
 40
0.5789400684138015
 40
0.6050869372537414
 40
0.6335761315733465
 40
0.6687928956105641
 40
0.7070342104966727
 40
0.7482997907668913
 40
0.7925895965939592
 40
0.8302006639235536
 40
0.8697472191177741
 40
0.9112292505212553
 40
0.9546469208348882
 40
1.0
 40
1.0
 40
1.0
 40
1.0
 10
-67.00014256280673
 20
-170.310511949113
 30
0.0
 10
-62.56844948047743
 20
-170.2923349419971
 30
0.0
 10
-53.801968897408
 20
-170.2563783951469
 30
0.0
 10
-40.80756911222775
 20
-169.3980331755037
 30
0.0
 10
-28.09790715706797
 20
-167.9927350222096
 30
0.0
 10
-15.46823063988959
 20
-165.9795698710034
 30
0.0
 10
-1.577890309301022
 20
-163.0882172716805
 30
0.0
 10
13.78578979661645
 20
-158.9896295387965
 30
0.0
 10
30.43985135915759
 20
-153.3782481978244
 30
0.0
 10
46.89688703177648
 20
-146.5926295233514
 30
0.0
 10
61.42866127723268
 20
-139.443741054929
 30
0.0
 10
73.97890128403347
 20
-132.3623376257537
 30
0.0
 10
84.72204151960084
 20
-125.6112613793811
 30
0.0
 10
93.59194830337448
 20
-119.4422964955278
 30
0.0
 10
100.9079403565867
 20
-113.9473123531246
 30
0.0
 10
107.0326279659371
 20
-109.0758382401713
 30
0.0
 10
113.5169044108299
 20
-103.5927584054184
 30
0.0
 10
120.7343091662617
 20
-97.07102698146699
 30
0.0
 10
128.6342407321673
 20
-89.36192242625984
 30
0.0
 10
137.1332100783463
 20
-80.3024860263236
 30
0.0
 10
145.8274651094622
 20
-70.09919019392456
 30
0.0
 10
153.9439858825714
 20
-59.51491912791211
 30
0.0
 10
161.4220098843826
 20
-48.69876743758255
 30
0.0
 10
168.2331902313148
 20
-37.80611093904675
 30
0.0
 10
174.7992800816109
 20
-26.04005704999232
 30
0.0
 10
181.0853068981071
 20
-13.40943216748421
 30
0.0
 10
184.7733222264547
 20
-4.534310158010521
 30
0.0
 10
186.6575335475356
 20
0.0000000000000694
 30
0.0
  0
SPLINE
  5
84
330
23
100
AcDbEntity
  8
0
  6
Continuous
 62
     7
370
    25
100
AcDbSpline
210
0.0
220
0.0
230
1.0
 70
     8
 71
     3
 72
     9
 73
     5
 74
     0
 42
0.000000001
 43
0.00000001
 40
0.0
 40
0.0
 40
0.0
 40
0.0
 40
0.5000000000000294
 40
1.0
 40
1.0
 40
1.0
 40
1.0
 10
-156.8580823030533
 20
-172.060192648639
 30
0.0
 10
-156.6894078767807
 20
-172.5505414654947
 30
0.0
 10
-156.3520590242356
 20
-173.5312390992063
 30
0.0
 10
-156.0103127670141
 20
-174.5104130330688
 30
0.0
 10
-155.8394396384032
 20
-175.0
 30
0.0
  0
SPLINE
  5
86
330
23
100
AcDbEntity
  8
0
  6
Continuous
 62
     7
370
    25
100
AcDbSpline
210
0.0
220
0.0
230
1.0
 70
     8
 71
     3
 72
    28
 73
    24
 74
     0
 42
0.000000001
 43
0.00000001
 40
0.0
 40
0.0
 40
0.0
 40
0.0
 40
0.0062500000000001
 40
0.03125
 40
0.0625
 40
0.078125
 40
0.125
 40
0.140625
 40
0.171875
 40
0.203125
 40
0.234375
 40
0.2500000000001855
 40
0.265625
 40
0.28125
 40
0.296875
 40
0.328125
 40
0.34375
 40
0.375
 40
0.40625
 40
0.421875
 40
0.453125
 40
0.46875
 40
0.4999998620121444
 40
0.4999998620121444
 40
0.4999998620121444
 40
0.4999998620121444
 10
-156.8580823030533
 20
-172.060192648639
 30
0.0
 10
-156.8580823030534
 20
-172.060192648639
 30
0.0
 10
-156.730211805024
 20
-172.0531678356648
 30
0.0
 10
-155.2343264204352
 20
-171.9720407519484
 30
0.0
 10
-151.2662410437674
 20
-171.7661474320538
 30
0.0
 10
-144.1757411208409
 20
-171.4108727553697
 30
0.0
 10
-136.4054271265556
 20
-171.038273699677
 30
0.0
 10
-125.9408295153908
 20
-170.5706507621494
 30
0.0
 10
-116.8346095958782
 20
-170.1830124615751
 30
0.0
 10
-106.1230731078372
 20
-169.7686825496375
 30
0.0
 10
-97.90331107068316
 20
-169.5054043966761
 30
0.0
 10
-92.00302583763181
 20
-169.3677599783168
 30
0.0
 10
-88.08781412898853
 20
-169.3069607265062
 30
0.0
 10
-84.68843010453953
 20
-169.283932031118
 30
0.0
 10
-80.69884302954077
 20
-169.2973698384519
 30
0.0
 10
-77.46460328356008
 20
-169.3676947364884
 30
0.0
 10
-74.15594469075307
 20
-169.5033921947378
 30
0.0
 10
-71.52258416281697
 20
-169.6752222248504
 30
0.0
 10
-69.67809693455192
 20
-169.8641389805446
 30
0.0
 10
-68.33584106906531
 20
-170.042553252747
 30
0.0
 10
-67.62999083796791
 20
-170.1675556726443
 30
0.0
 10
-67.11332506867612
 20
-170.2783297268535
 30
0.0
 10
-67.0001684454278
 20
-170.3105117596466
 30
0.0
 10
-67.00014256245856
 20
-170.3105119491167
 30
0.0
  0
SPLINE
  5
87
330
23
100
AcDbEntity
  8
0
  6
Continuous
 62
     7
370
    25
100
AcDbSpline
210
0.0
220
0.0
230
1.0
 70
    24
 71
     3
 72
    52
 73
    48
 74
     0
 42
0.000000001
 43
0.00000001
 40
0.0
 40
0.0
 40
0.0
 40
0.0
 40
0.027119968066484
 40
0.0541629737034751
 40
0.0810393862140521
 40
0.107680920415774
 40
0.1340580108226252
 40
0.1601464120837804
 40
0.1844897345579936
 40
0.2085866915907653
 40
0.2323822566048737
 40
0.2558172851438933
 40
0.2788369439956598
 40
0.3027447197601615
 40
0.3260863930571489
 40
0.3488304182672738
 40
0.3709574213457521
 40
0.3924692113469161
 40
0.4134303502372799
 40
0.4327699848948956
 40
0.4517653561896527
 40
0.4704581994552277
 40
0.4888973398436788
 40
0.5071386981872802
 40
0.5236078620284726
 40
0.5400379082050146
 40
0.5564941465554795
 40
0.5730360210149765
 40
0.5897269136249593
 40
0.6066387611563776
 40
0.6238546022889343
 40
0.6432333125606199
 40
0.6631468585282734
 40
0.6836256986809918
 40
0.7046725982642289
 40
0.7262770815129715
 40
0.7497777733336402
 40
0.773834000187733
 40
0.798379768916071
 40
0.8233501441320158
 40
0.8487007859921707
 40
0.8744291826915842
 40
0.9052411563617444
 40
0.9365353614912069
 40
0.9681769119079574
 40
0.9999908196246653
 40
1.0
 40
1.0
 40
1.0
 40
1.0
 10
-185.0004141960883
 20
0.000000000000111
 30
0.0
 10
-184.8881451527381
 20
0.000000000000111
 30
0.0
 10
-184.6639256688587
 20
0.0000000000001249
 30
0.0
 10
-182.8896534028533
 20
0.0000000000001249
 30
0.0
 10
-180.1118297003164
 20
0.0000000000001249
 30
0.0
 10
-176.2597312381588
 20
0.0000000000001249
 30
0.0
 10
-171.3974731339293
 20
0.000000000000111
 30
0.0
 10
-165.6581379939987
 20
0.000000000000111
 30
0.0
 10
-159.1381273463493
 20
0.0000000000001249
 30
0.0
 10
-151.9370677721224
 20
0.0000000000001249
 30
0.0
 10
-143.9665335269131
 20
0.0000000000001388
 30
0.0
 10
-135.2730518793587
 20
0.0000000000001249
 30
0.0
 10
-125.7204554915506
 20
0.0000000000001249
 30
0.0
 10
-115.3070361298757
 20
0.0000000000000971
 30
0.0
 10
-104.0665507841104
 20
0.0000000000000833
 30
0.0
 10
-92.29177666479585
 20
0.0000000000000694
 30
0.0
 10
-80.06229167375878
 20
0.0000000000000694
 30
0.0
 10
-67.44273651299204
 20
0.0000000000000694
 30
0.0
 10
-54.72673912549665
 20
0.0000000000000694
 30
0.0
 10
-41.99358449881576
 20
0.0000000000000694
 30
0.0
 10
-29.3188601419224
 20
0.0000000000000833
 30
0.0
 10
-16.50636998915264
 20
0.0000000000000833
 30
0.0
 10
-3.628970341554464
 20
0.0000000000000833
 30
0.0
 10
8.852247827652878
 20
0.0000000000000833
 30
0.0
 10
20.856849681096
 20
0.0000000000000833
 30
0.0
 10
32.34042544072727
 20
0.0000000000000833
 30
0.0
 10
43.64585345749781
 20
0.0000000000000971
 30
0.0
 10
54.72906763166302
 20
0.0000000000000833
 30
0.0
 10
65.55150334966918
 20
0.0000000000000694
 30
0.0
 10
76.08390263214623
 20
0.0000000000000694
 30
0.0
 10
86.65822489217848
 20
0.0000000000000833
 30
0.0
 10
97.20885963213993
 20
0.0000000000000833
 30
0.0
 10
107.6494497659823
 20
0.0000000000000833
 30
0.0
 10
117.6233624007073
 20
0.0000000000000833
 30
0.0
 10
127.0810468122354
 20
0.0000000000000833
 30
0.0
 10
136.1540344339465
 20
0.0000000000000833
 30
0.0
 10
144.7296730567728
 20
0.0000000000000833
 30
0.0
 10
152.7227752445803
 20
0.0000000000000833
 30
0.0
 10
159.9369811624003
 20
0.0000000000000833
 30
0.0
 10
166.3381592464778
 20
0.0000000000000833
 30
0.0
 10
171.8976464547372
 20
0.0000000000000833
 30
0.0
 10
176.8872332846792
 20
0.0000000000000833
 30
0.0
 10
181.0821111173871
 20
0.0000000000000833
 30
0.0
 10
184.3021715504403
 20
0.0000000000000833
 30
0.0
 10
186.1337033339638
 20
0.0000000000000833
 30
0.0
 10
186.8429723578642
 20
0.0000000000000694
 30
0.0
 10
186.6574264854166
 20
0.0000000000000694
 30
0.0
 10
186.6573729588467
 20
0.0000000000000694
 30
0.0
  0
SPLINE
  5
88
330
23
100
AcDbEntity
  8
0
  6
Continuous
 62
     7
370
    25
100
AcDbSpline
210
0.0
220
0.0
230
1.0
 70
    24
 71
     3
 72
    31
 73
    27
 74
     0
 42
0.000000001
 43
0.00000001
 40
0.0
 40
0.0
 40
0.0
 40
0.0
 40
0.0366597343825408
 40
0.0739818491970327
 40
0.1121142508032713
 40
0.151057032051987
 40
0.2041100248861418
 40
0.2585552061426349
 40
0.31407723929396
 40
0.3699684644883763
 40
0.4251015589383073
 40
0.4784428555370558
 40
0.5292240626455301
 40
0.5768444217701935
 40
0.6207004868542121
 40
0.6594015368892451
 40
0.6934100445864607
 40
0.7243705289324268
 40
0.7535323205575878
 40
0.7820238073032361
 40
0.8106120053969608
 40
0.8547161025823661
 40
0.9008672145609592
 40
0.9493058468481375
 40
0.9999948153741438
 40
1.0
 40
1.0
 40
1.0
 40
1.0
 10
-155.8394396384032
 20
-175.0
 30
0.0
 10
-155.7469129519617
 20
-175.0
 30
0.0
 10
-155.5601877757346
 20
-175.0
 30
0.0
 10
-154.146484955667
 20
-174.9999999999999
 30
0.0
 10
-152.0041298941972
 20
-175.0
 30
0.0
 10
-148.8044732690676
 20
-175.0000000000001
 30
0.0
 10
-144.3768388394789
 20
-174.9999999999998
 30
0.0
 10
-138.6648492490087
 20
-174.9999999999998
 30
0.0
 10
-132.2706494500687
 20
-174.9999999999997
 30
0.0
 10
-125.4192217925209
 20
-175.0000000000004
 30
0.0
 10
-118.3613157394301
 20
-175.0000000000005
 30
0.0
 10
-111.3232028043359
 20
-175.0000000000004
 30
0.0
 10
-104.511491817262
 20
-175.0000000000003
 30
0.0
 10
-98.10251367968654
 20
-175.0
 30
0.0
 10
-92.29248250054604
 20
-175.0000000000001
 30
0.0
 10
-87.21849008962525
 20
-175.0
 30
0.0
 10
-82.9095051423061
 20
-175.0000000000001
 30
0.0
 10
-79.2924128239361
 20
-175.0000000000003
 30
0.0
 10
-76.2733241504732
 20
-174.9999999999999
 30
0.0
 10
-73.77700133585876
 20
-175.0000000000002
 30
0.0
 10
-71.39638141972596
 20
-175.0000000000001
 30
0.0
 10
-69.3878115064162
 20
-175.0000000000001
 30
0.0
 10
-67.92906992093536
 20
-175.0000000000007
 30
0.0
 10
-67.1937890359329
 20
-174.9999999999967
 30
0.0
 10
-66.91430342807152
 20
-175.0000000000074
 30
0.0
 10
-67.00015903226787
 20
-175.0000000000001
 30
0.0
 10
-67.00016781294883
 20
-175.0000000000001
 30
0.0
  0
LINE
  5
89
330
23
100
AcDbEntity
  8
0
  6
Continuous
 62
     7
370
    25
100
AcDbLine
 10
-67.0001414695
 20
-175.0
 30
0.0
 11
-67.0001425561
 21
-170.3105119481
 31
0.0
  0
VIEWPORT
  5
F2
330
23
100
AcDbEntity
  8
0
100
AcDbViewport
 10
0.0
 20
0.0
 30
0.0
 40
205.6
 41
156.0
 68
     1
 69
     1
 12
0.0
 22
-0.8285596487
 13
0.0
 23
0.0
 14
10.0
 24
10.0
 15
10.0
 25
10.0
 16
0.0
 26
0.0
 36
1.0
 17
0.0
 27
0.0
 37
0.0
 42
50.0
 43
0.0
 44
0.0
 45
402.7838232565
 50
0.0
 51
0.0
 72
   100
 90
   557152
  1

281
     0
 71
     1
 74
     0
110
0.0
120
0.0
130
0.0
111
1.0
121
0.0
131
0.0
112
0.0
122
1.0
132
0.0
 79
     0
146
0.0
170
     0
 61
     5
348
2F
292
     1
282
     1
141
0.0
142
0.0
 63
   256
361
F3
  0
ENDBLK
  5
25
330
23
100
AcDbEntity
  8
0
100
AcDbBlockEnd
  0
BLOCK
  5
8C
330
8A
100
AcDbEntity
  8
0
100
AcDbBlockBegin
  2
*Paper_Space1
 70
     0
 10
0.0
 20
0.0
 30
0.0
  3
*Paper_Space1
  1

  0
SPLINE
  5
8E
330
8A
100
AcDbEntity
  8
0
  6
Continuous
 62
     7
370
    25
100
AcDbSpline
210
0.0
220
0.0
230
1.0
 70
     8
 71
     3
 72
   137
 73
   133
 74
     0
 42
0.000000001
 43
0.00000001
 40
0.0
 40
0.0
 40
0.0
 40
0.0
 40
0.0072413798209844
 40
0.0129254061291112
 40
0.0170510881471411
 40
0.0196215042936981
 40
0.0216142458065077
 40
0.0237887249332286
 40
0.0261450262620764
 40
0.03354538696214
 40
0.0415527330343107
 40
0.0563702804802655
 40
0.0718275044291004
 40
0.0993125842441658
 40
0.126087295757452
 40
0.136014654246749
 40
0.1466639343573287
 40
0.1580395300310431
 40
0.1701448060126331
 40
0.1829833319641901
 40
0.1965589390042594
 40
0.2103813364418533
 40
0.2175988280232134
 40
0.2235911576488404
 40
0.2283558188072058
 40
0.2318908016918285
 40
0.2342999263070304
 40
0.2375367396842855
 40
0.2423957327814128
 40
0.2488804684349753
 40
0.2559802521860318
 40
0.2667618628630737
 40
0.2766519356536341
 40
0.2859103315695019
 40
0.2959088347863599
 40
0.3026766912931724
 40
0.3098198954459214
 40
0.3172342758551595
 40
0.3236092796459809
 40
0.3285498808901909
 40
0.3315675702449744
 40
0.3341689771159506
 40
0.33783890661793
 40
0.3426542833160624
 40
0.348620622339088
 40
0.3552634043110516
 40
0.3703011699464862
 40
0.3844178097196875
 40
0.3956796986493945
 40
0.4056646643872076
 40
0.4143904471088019
 40
0.4202927961487292
 40
0.4263135138894842
 40
0.4295641893545109
 40
0.4334015524231551
 40
0.4434793859901356
 40
0.4509675324519382
 40
0.459898956407841
 40
0.4671693057226349
 40
0.4734766326554321
 40
0.48043460270233
 40
0.4885050289247717
 40
0.4978211794596563
 40
0.5036199851742525
 40
0.5093870369557048
 40
0.5147105423148786
 40
0.5195799094371778
 40
0.524004382241134
 40
0.5280787788089683
 40
0.5328967305649359
 40
0.538330178252486
 40
0.5439367489525286
 40
0.5493539205224368
 40
0.5540573312138165
 40
0.5576641358886154
 40
0.5606954425933497
 40
0.5634716027658084
 40
0.5665104645825455
 40
0.5708887513985633
 40
0.5762467873891425
 40
0.5816922663678035
 40
0.5857521150828727
 40
0.5884895789529364
 40
0.5925231301322308
 40
0.5979535694350746
 40
0.6047035771338556
 40
0.6117509078560339
 40
0.6187608154982251
 40
0.6317506440710823
 40
0.6442802322578757
 40
0.6557936732653443
 40
0.6661839714405955
 40
0.675195825253929
 40
0.683891679011257
 40
0.6897628017415869
 40
0.6958483871251678
 40
0.7030790330278429
 40
0.711661748556489
 40
0.71774596940454
 40
0.7243602841569057
 40
0.7315029105659461
 40
0.7389681776186658
 40
0.7455676297206378
 40
0.751174406776173
 40
0.7557033779736607
 40
0.7591572067625912
 40
0.7618030241022425
 40
0.7648129904953674
 40
0.7683255722360015
 40
0.7723401885511798
 40
0.776856167455872
 40
0.787327941823259
 40
0.7978509917925936
 40
0.8083529422999784
 40
0.827054719969492
 40
0.8461924614834633
 40
0.8663266565191262
 40
0.8823735267940541
 40
0.8989990975660629
 40
0.9152862281456631
 40
0.9304849252241468
 40
0.9446002331331347
 40
0.9588505327445824
 40
0.9713947351669812
 40
0.9736458485634548
 40
0.9758290505028301
 40
0.9779463677083549
 40
0.9799978290353113
 40
0.9825215915584173
 40
0.986677404828387
 40
0.9925039053285996
 40
0.9999999999999999
 40
0.9999999999999999
 40
0.9999999999999999
 40
0.9999999999999999
 10
-260.2205717012023
 20
0.0000000000000833
 30
0.0
 10
-259.5723181134144
 20
-1.510142821178742
 30
0.0
 10
-258.4152263568777
 20
-4.205652483596167
 30
0.0
 10
-256.8249478705316
 20
-7.72921119088453
 30
0.0
 10
-255.6459657235357
 20
-10.27478380955196
 30
0.0
 10
-254.8051183646442
 20
-12.05470329464224
 30
0.0
 10
-254.1458899035484
 20
-13.43235335450392
 30
0.0
 10
-253.5013962229898
 20
-14.76342321810244
 30
0.0
 10
-252.310409594694
 20
-17.19213354463007
 30
0.0
 10
-250.4983532685534
 20
-20.78872429698904
 30
0.0
 10
-247.312569282659
 20
-26.85209476014217
 30
0.0
 10
-243.0862873322034
 20
-34.42296585712139
 30
0.0
 10
-236.3350916082191
 20
-45.60943996103383
 30
0.0
 10
-227.5592723827424
 20
-58.68260204412295
 30
0.0
 10
-218.7831677360202
 20
-70.16212522663501
 30
0.0
 10
-211.9761182647579
 20
-78.32981909436359
 30
0.0
 10
-207.2559516266022
 20
-83.72793021123637
 30
0.0
 10
-202.0753502460378
 20
-89.35587299755548
 30
0.0
 10
-196.4102449733843
 20
-95.18129622923011
 30
0.0
 10
-190.2373726800321
 20
-101.1669024277198
 30
0.0
 10
-183.6159016456062
 20
-107.1975956558688
 30
0.0
 10
-177.7726182702575
 20
-112.1801444718746
 30
0.0
 10
-173.1279183319131
 20
-115.9419248520441
 30
0.0
 10
-170.0056846290249
 20
-118.3890415168774
 30
0.0
 10
-167.5006864568303
 20
-120.2999784412085
 30
0.0
 10
-165.6104985187639
 20
-121.7118394937897
 30
0.0
 10
-163.9778786310957
 20
-122.9128859017182
 30
0.0
 10
-162.0951211626996
 20
-124.2778668208499
 30
0.0
 10
-159.4664279556872
 20
-126.1437587923958
 30
0.0
 10
-156.1143131426785
 20
-128.4529080744063
 30
0.0
 10
-151.6447511015828
 20
-131.4215294830555
 30
0.0
 10
-146.4872387493025
 20
-134.682802504393
 30
0.0
 10
-140.8538629018365
 20
-138.0418289066908
 30
0.0
 10
-135.2998271091408
 20
-141.1715055187061
 30
0.0
 10
-130.2838355062215
 20
-143.83549320291
 30
0.0
 10
-125.6374085695674
 20
-146.1742940610907
 30
0.0
 10
-121.4675499215291
 20
-148.1785087514555
 30
0.0
 10
-117.3510823974981
 20
-150.0602890873656
 30
0.0
 10
-113.6511787008631
 20
-151.6701132123142
 30
0.0
 10
-110.8080791744257
 20
-152.8561247399563
 30
0.0
 10
-108.7067546529639
 20
-153.7063193798789
 30
0.0
 10
-106.8460989488255
 20
-154.4426591234392
 30
0.0
 10
-104.6125311630992
 20
-155.3044343310078
 30
0.0
 10
-101.6928289766634
 20
-156.3918005889342
 30
0.0
 10
-98.16414020291619
 20
-157.6461966203194
 30
0.0
 10
-92.55335025089198
 20
-159.5303532419187
 30
0.0
 10
-85.24761599347659
 20
-161.738109029388
 30
0.0
 10
-76.964315770192
 20
-163.8680041364782
 30
0.0
 10
-69.70205239574415
 20
-165.451251065523
 30
0.0
 10
-63.49453027445996
 20
-166.599666634113
 30
0.0
 10
-58.35103440325651
 20
-167.399703193256
 30
0.0
 10
-53.97200164702431
 20
-167.978841275854
 30
0.0
 10
-50.62514241148195
 20
-168.3562454636206
 30
0.0
 10
-47.65920505550696
 20
-168.644250776054
 30
0.0
 10
-43.7371394190523
 20
-168.9787394743519
 30
0.0
 10
-38.91739539463747
 20
-169.2869326798032
 30
0.0
 10
-33.09331718466122
 20
-169.5662698660135
 30
0.0
 10
-27.77177029389072
 20
-169.7709147101376
 30
0.0
 10
-22.60775004930223
 20
-169.9354065294404
 30
0.0
 10
-17.89912722327848
 20
-170.0658754690627
 30
0.0
 10
-13.11529654045223
 20
-170.1733184481022
 30
0.0
 10
-7.583775481448153
 20
-170.2563088536958
 30
0.0
 10
-2.284553072262568
 20
-170.2907868203143
 30
0.0
 10
2.497213767488744
 20
-170.2845791027715
 30
0.0
 10
6.365984742267856
 20
-170.2575352844058
 30
0.0
 10
10.01592425632532
 20
-170.2139421393059
 30
0.0
 10
13.34322002270227
 20
-170.1593686890177
 30
0.0
 10
16.36964277653048
 20
-170.0974985444342
 30
0.0
 10
19.334207976947
 20
-170.0260424968235
 30
0.0
 10
22.59986744232155
 20
-169.9344136514695
 30
0.0
 10
26.22086172579928
 20
-169.8207509493065
 30
0.0
 10
29.95799010577901
 20
-169.6878350111757
 30
0.0
 10
33.46184366381985
 20
-169.5450096553657
 30
0.0
 10
36.46150553011032
 20
-169.4043868439416
 30
0.0
 10
38.9228320984065
 20
-169.273343342463
 30
0.0
 10
41.01526034140248
 20
-169.148604535268
 30
0.0
 10
43.01280004145825
 20
-169.0158747229389
 30
0.0
 10
45.33855533994014
 20
-168.843063780428
 30
0.0
 10
48.25289433310878
 20
-168.5931519104625
 30
0.0
 10
51.61983622438256
 20
-168.2505105783705
 30
0.0
 10
54.86975686176493
 20
-167.8624433656047
 30
0.0
 10
57.56228398374162
 20
-167.4982366412947
 30
0.0
 10
59.87697350559466
 20
-167.1589117349639
 30
0.0
 10
62.3975871684556
 20
-166.7622857406801
 30
0.0
 10
65.74666410531123
 20
-166.1859622453275
 30
0.0
 10
69.70282265934924
 20
-165.4300079539683
 30
0.0
 10
73.99094603566891
 20
-164.5189292732319
 30
0.0
 10
79.56195370061602
 20
-163.213801632309
 30
0.0
 10
86.24626022313383
 20
-161.4406418779351
 30
0.0
 10
93.8137824344281
 20
-159.1339929452087
 30
0.0
 10
100.8052146162451
 20
-156.7412962342147
 30
0.0
 10
107.0211367599061
 20
-154.4007654721392
 30
0.0
 10
112.6199216926068
 20
-152.1216523249221
 30
0.0
 10
117.2793684240509
 20
-150.0942102562478
 30
0.0
 10
121.3373198510615
 20
-148.2340610111904
 30
0.0
 10
125.0873980625256
 20
-146.442689006407
 30
0.0
 10
129.3353085230779
 20
-144.3214753402342
 30
0.0
 10
133.5496953386713
 20
-142.1074093670487
 30
0.0
 10
137.6150593719945
 20
-139.872201313866
 30
0.0
 10
141.3803811828925
 20
-137.7210996569146
 30
0.0
 10
145.3778544702203
 20
-135.3431601802954
 30
0.0
 10
149.3395472108613
 20
-132.8858828879856
 30
0.0
 10
152.9832371851808
 20
-130.5352671342799
 30
0.0
 10
156.058246109349
 20
-128.4840931138531
 30
0.0
 10
158.5367459764285
 20
-126.7850592903974
 30
0.0
 10
160.4626681134017
 20
-125.4364848745267
 30
0.0
 10
162.1008411444008
 20
-124.2708523446224
 30
0.0
 10
163.7395061298716
 20
-123.0875749565439
 30
0.0
 10
165.611649099117
 20
-121.7127385751674
 30
0.0
 10
167.7374644167378
 20
-120.1212298648493
 30
0.0
 10
171.0677043753659
 20
-117.5734348533758
 30
0.0
 10
175.4835766848799
 20
-114.0656195042562
 30
0.0
 10
180.8384983379709
 20
-109.586008111657
 30
0.0
 10
187.4639306899939
 20
-103.7539131584107
 30
0.0
 10
195.3026707265585
 20
-96.35574658958875
 30
0.0
 10
204.3260378737058
 20
-87.04502999399654
 30
0.0
 10
212.5421471833356
 20
-77.75335934163753
 30
0.0
 10
220.0258232647996
 20
-68.54471832281159
 30
0.0
 10
226.6538238990793
 20
-59.73607595082281
 30
0.0
 10
232.8525065800881
 20
-50.82381125850375
 30
0.0
 10
238.4342995697804
 20
-42.15802956285899
 30
0.0
 10
243.4979963362219
 20
-33.69771062473211
 30
0.0
 10
248.0021913800229
 20
-25.59991585415503
 30
0.0
 10
251.0298882557714
 20
-19.75345511998709
 30
0.0
 10
252.7433814024335
 20
-16.30779859947235
 30
0.0
 10
253.3980924975141
 20
-14.97490457825891
 30
0.0
 10
254.026775724865
 20
-13.67950482364719
 30
0.0
 10
254.6829728499393
 20
-12.31138961725688
 30
0.0
 10
255.529842859509
 20
-10.52286346019514
 30
0.0
 10
256.7232058672465
 20
-7.952344658788219
 30
0.0
 10
258.3561299056981
 20
-4.341466049519557
 30
0.0
 10
259.5492500774442
 20
-1.563212707681047
 30
0.0
 10
260.2205713663191
 20
0.0000000000000278
 30
0.0
  0
SPLINE
  5
8F
330
8A
100
AcDbEntity
  8
0
  6
Continuous
 62
     7
370
    25
100
AcDbSpline
210
0.0
220
0.0
230
1.0
 70
     8
 71
     3
 72
    11
 73
     7
 74
     0
 42
0.000000001
 43
0.00000001
 40
0.0
 40
0.0
 40
0.0
 40
0.0
 40
0.1217170880277706
 40
0.3976538634420989
 40
0.7260958657433738
 40
1.0
 40
1.0
 40
1.0
 40
1.0
 10
-44.1422037321836
 20
-168.8751520813509
 30
0.0
 10
-44.15108827927432
 20
-168.8799695912913
 30
0.0
 10
-44.18011439658292
 20
-168.8957085600017
 30
0.0
 10
-43.40948837178967
 20
-169.0505143572073
 30
0.0
 10
-42.09885800874721
 20
-169.3300356960181
 30
0.0
 10
-40.72741777666271
 20
-169.6735222949551
 30
0.0
 10
-40.10378440930948
 20
-169.8297155429905
 30
0.0
  0
SPLINE
  5
90
330
8A
100
AcDbEntity
  8
0
  6
Continuous
 62
     7
370
    25
100
AcDbSpline
210
0.0
220
0.0
230
1.0
 70
     8
 71
     3
 72
    11
 73
     7
 74
     0
 42
0.000000001
 43
0.00000001
 40
0.0
 40
0.0
 40
0.0
 40
0.0
 40
0.2326760354868473
 40
0.5648814707689231
 40
0.8535062289925655
 40
1.0
 40
1.0
 40
1.0
 40
1.0
 10
40.10376313794664
 20
-169.8238662217751
 30
0.0
 10
40.48973116964258
 20
-169.7246649075012
 30
0.0
 10
41.42676875049183
 20
-169.4838279678826
 30
0.0
 10
42.48845664604632
 20
-169.230824908292
 30
0.0
 10
43.29015604351368
 20
-169.0474180858348
 30
0.0
 10
43.57501198230946
 20
-168.9850168036339
 30
0.0
 10
43.67091601273952
 20
-168.9640078175044
 30
0.0
  0
SPLINE
  5
91
330
8A
100
AcDbEntity
  8
0
  6
Continuous
 62
     7
370
    25
100
AcDbSpline
210
0.0
220
0.0
230
1.0
 70
     8
 71
     3
 72
     9
 73
     5
 74
     0
 42
0.000000001
 43
0.00000001
 40
0.0
 40
0.0
 40
0.0
 40
0.0
 40
0.5000993285806987
 40
0.9999999999999999
 40
0.9999999999999999
 40
0.9999999999999999
 40
0.9999999999999999
 10
-40.10322077013431
 20
-169.6747184201045
 30
0.0
 10
-40.10644793604616
 20
-170.5624476755324
 30
0.0
 10
-40.1129009859253
 20
-172.3375535488942
 30
0.0
 10
-40.11936614152832
 20
-174.1126353938718
 30
0.0
 10
-40.1225980771551
 20
-175.0000000000002
 30
0.0
  0
SPLINE
  5
92
330
8A
100
AcDbEntity
  8
0
  6
Continuous
 62
     7
370
    25
100
AcDbSpline
210
0.0
220
0.0
230
1.0
 70
     8
 71
     3
 72
     9
 73
     5
 74
     0
 42
0.000000001
 43
0.00000001
 40
0.0
 40
0.0
 40
0.0
 40
0.0
 40
0.499900671419215
 40
1.0
 40
1.0
 40
1.0
 40
1.0
 10
40.12259807654657
 20
-175.0000000000002
 30
0.0
 10
40.11936614092085
 20
-174.1126353938937
 30
0.0
 10
40.11290098531995
 20
-172.3375535489598
 30
0.0
 10
40.10644793544284
 20
-170.5624476756416
 30
0.0
 10
40.103220769532
 20
-169.6747184202353
 30
0.0
  0
SPLINE
  5
93
330
8A
100
AcDbEntity
  8
0
  6
Continuous
 62
     7
370
    25
100
AcDbSpline
210
0.0
220
0.0
230
1.0
 70
     8
 71
     3
 72
    10
 73
     6
 74
     0
 42
0.000000001
 43
0.00000001
 40
0.0
 40
0.0
 40
0.0
 40
0.0
 40
0.3329296817333482
 40
0.7308411887813308
 40
1.0
 40
1.0
 40
1.0
 40
1.0
 10
-40.03943902863584
 20
-169.6780770933357
 30
0.0
 10
-40.03002052951504
 20
-169.6234070804882
 30
0.0
 10
-40.00934521135735
 20
-169.5033964615124
 30
0.0
 10
-39.33785282495425
 20
-169.3753915333531
 30
0.0
 10
-38.40509648786161
 20
-169.3347499989052
 30
0.0
 10
-38.02873498597241
 20
-169.3183513872468
 30
0.0
  0
SPLINE
  5
94
330
8A
100
AcDbEntity
  8
0
  6
Continuous
 62
     7
370
    25
100
AcDbSpline
210
0.0
220
0.0
230
1.0
 70
     8
 71
     3
 72
    10
 73
     6
 74
     0
 42
0.000000001
 43
0.00000001
 40
0.0
 40
0.0
 40
0.0
 40
0.0
 40
0.269018951651369
 40
0.6670066060560713
 40
0.9999999999999999
 40
0.9999999999999999
 40
0.9999999999999999
 40
0.9999999999999999
 10
38.02948148351764
 20
-169.3183915366496
 30
0.0
 10
38.40556496389585
 20
-169.3347794591292
 30
0.0
 10
39.33802776735632
 20
-169.3754117360982
 30
0.0
 10
40.00933427655623
 20
-169.5033974707011
 30
0.0
 10
40.03001710690335
 20
-169.623407396404
 30
0.0
 10
40.03943902815455
 20
-169.6780770934599
 30
0.0
  0
SPLINE
  5
95
330
8A
100
AcDbEntity
  8
0
  6
Continuous
 62
     7
370
    25
100
AcDbSpline
210
0.0
220
0.0
230
1.0
 70
    24
 71
     3
 72
    53
 73
    49
 74
     0
 42
0.000000001
 43
0.00000001
 40
0.0
 40
0.0
 40
0.0
 40
0.0
 40
0.000644637420357
 40
0.0173310883342883
 40
0.0339779054819063
 40
0.050651260371738
 40
0.0674113812166362
 40
0.0843224862934809
 40
0.1014574614760747
 40
0.1189004410207878
 40
0.1385348256709052
 40
0.1587111024094033
 40
0.1794601315815996
 40
0.2007847149164084
 40
0.2226742384360732
 40
0.2464849882889706
 40
0.270858602665871
 40
0.2957282177222034
 40
0.3210280413417333
 40
0.3467131486802185
 40
0.372780994793032
 40
0.4039994884072923
 40
0.4357065758355671
 40
0.4677655912756346
 40
0.4999992380238323
 40
0.5273541712904709
 40
0.55459779158439
 40
0.5816304869308719
 40
0.608359808744242
 40
0.6347098149382051
 40
0.6606692221062015
 40
0.684795339419162
 40
0.70857314235825
 40
0.731959664017033
 40
0.7548980531003162
 40
0.7773329120476132
 40
0.8005305137694676
 40
0.8230917324144617
 40
0.8450047699609058
 40
0.8662776254042431
 40
0.8869567396721239
 40
0.9071450476933844
 40
0.9258464717073099
 40
0.9443319642881187
 40
0.9626895831770164
 40
0.981000353021748
 40
0.999350745585312
 40
1.0
 40
1.0
 40
1.0
 40
1.0
 10
-260.1987808888368
 20
0.0000000000000833
 30
0.0
 10
-260.2060385316868
 20
0.0000000000000833
 30
0.0
 10
-260.4011603867933
 20
0.0000000000000833
 30
0.0
 10
-259.7373494122716
 20
0.0000000000000833
 30
0.0
 10
-258.2078190781706
 20
0.0000000000000833
 30
0.0
 10
-255.5107898889244
 20
0.0000000000000971
 30
0.0
 10
-251.8432373695615
 20
0.0000000000000833
 30
0.0
 10
-247.1812535783157
 20
0.0000000000000694
 30
0.0
 10
-241.5565022563617
 20
0.0000000000000694
 30
0.0
 10
-234.7589229910722
 20
0.0000000000000833
 30
0.0
 10
-226.6980274907824
 20
0.0000000000000833
 30
0.0
 10
-217.3079106722738
 20
0.0000000000000833
 30
0.0
 10
-206.8763215588741
 20
0.0000000000000833
 30
0.0
 10
-195.4555530690898
 20
0.0000000000000833
 30
0.0
 10
-182.8426965657701
 20
0.0000000000000833
 30
0.0
 10
-169.0464925598737
 20
0.0000000000000833
 30
0.0
 10
-154.1185234735991
 20
0.0000000000000833
 30
0.0
 10
-138.419424660381
 20
0.0000000000000833
 30
0.0
 10
-122.04567298939
 20
0.0000000000000833
 30
0.0
 10
-105.0756055233105
 20
0.0000000000000833
 30
0.0
 10
-86.50541827576937
 20
0.0000000000000833
 30
0.0
 10
-66.31042668204604
 20
0.0000000000000833
 30
0.0
 10
-44.52810677512006
 20
0.0000000000000833
 30
0.0
 10
-22.36306876290473
 20
0.0000000000000833
 30
0.0
 10
-1.130532372514857
 20
0.0000000000000694
 30
0.0
 10
18.9850918779099
 20
0.0000000000000694
 30
0.0
 10
37.84986769429494
 20
0.0000000000000694
 30
0.0
 10
56.47887983813996
 20
0.0000000000000694
 30
0.0
 10
74.76566193741247
 20
0.0000000000000694
 30
0.0
 10
92.62194319617127
 20
0.0000000000000555
 30
0.0
 10
109.6575174135412
 20
0.0000000000000555
 30
0.0
 10
125.8464090732234
 20
0.0000000000000555
 30
0.0
 10
141.1640503428239
 20
0.0000000000000555
 30
0.0
 10
155.8683965875994
 20
0.0000000000000555
 30
0.0
 10
169.8767125301122
 20
0.0000000000000555
 30
0.0
 10
183.3586533955988
 20
0.0000000000000555
 30
0.0
 10
196.1750220078096
 20
0.0000000000000278
 30
0.0
 10
208.1967101727202
 20
0.0000000000000139
 30
0.0
 10
219.0991004074326
 20
0.0000000000000139
 30
0.0
 10
228.8210632988119
 20
0.0000000000000416
 30
0.0
 10
237.3111201419106
 20
0.0000000000000416
 30
0.0
 10
244.3961129453119
 20
0.0000000000000416
 30
0.0
 10
250.1254511148422
 20
0.0000000000000416
 30
0.0
 10
254.5455401320658
 20
0.0000000000000278
 30
0.0
 10
257.7913705592846
 20
0.0000000000000139
 30
0.0
 10
259.6579756506906
 20
0.0000000000000139
 30
0.0
 10
260.400480053518
 20
0.0000000000000416
 30
0.0
 10
260.2072784135179
 20
0.0000000000000278
 30
0.0
 10
260.2006763425511
 20
0.0000000000000278
 30
0.0
  0
SPLINE
  5
96
330
8A
100
AcDbEntity
  8
0
  6
Continuous
 62
     7
370
    25
100
AcDbSpline
210
0.0
220
0.0
230
1.0
 70
    24
 71
     3
 72
    31
 73
    27
 74
     0
 42
0.000000001
 43
0.00000001
 40
0.0
 40
0.0
 40
0.0
 40
0.0
 40
0.0402205999689921
 40
0.0878729235800141
 40
0.1299240049258366
 40
0.1668763491731139
 40
0.2005168277792435
 40
0.2322029156427384
 40
0.2631606758513151
 40
0.294223518913234
 40
0.3421453447228359
 40
0.3922913785450504
 40
0.4449229444778783
 40
0.4999996397327466
 40
0.5550106642771254
 40
0.6077047660399081
 40
0.6578546552665526
 40
0.705776481072517
 40
0.7368393241318324
 40
0.7677970843376419
 40
0.7994831721981932
 40
0.8331236508013437
 40
0.8700759950456186
 40
0.9121270763893738
 40
0.9597793999995269
 40
1.0
 40
1.0
 40
1.0
 40
1.0
 10
-40.05984743382952
 20
-175.0000000000002
 30
0.0
 10
-40.05294437862561
 20
-175.0000000000001
 30
0.0
 10
-40.03786276266594
 20
-175.0000000000001
 30
0.0
 10
-39.22723811917582
 20
-175.0000000000001
 30
0.0
 10
-37.86874203956677
 20
-175.0
 30
0.0
 10
-36.04478883400661
 20
-175.0000000000001
 30
0.0
 10
-33.81225410713594
 20
-175.0000000000003
 30
0.0
 10
-31.18470151348468
 20
-175.0
 30
0.0
 10
-28.19693578496339
 20
-175.0000000000002
 30
0.0
 10
-24.30208558462716
 20
-175.0
 30
0.0
 10
-19.31919769054456
 20
-175.0000000000002
 30
0.0
 10
-13.23560293258355
 20
-175.0
 30
0.0
 10
-6.739008925149359
 20
-174.9999999999999
 30
0.0
 10
-0.0027597192054619
 20
-175.0000000000002
 30
0.0
 10
6.736101135309376
 20
-175.0
 30
0.0
 10
13.23273938548789
 20
-175.0000000000001
 30
0.0
 10
19.31905500598536
 20
-175.0000000000001
 30
0.0
 10
24.30208459651539
 20
-174.9999999999997
 30
0.0
 10
28.19693599771196
 20
-175.0000000000005
 30
0.0
 10
31.18470145331278
 20
-175.0
 30
0.0
 10
33.81225412243126
 20
-174.9999999999997
 30
0.0
 10
36.04478882724133
 20
-174.9999999999997
 30
0.0
 10
37.86874203966462
 20
-175.0000000000003
 30
0.0
 10
39.22723811736585
 20
-174.9999999999997
 30
0.0
 10
40.0378627619761
 20
-175.0000000000003
 30
0.0
 10
40.05294437807628
 20
-175.0000000000001
 30
0.0
 10
40.05984743334749
 20
-175.0000000000001
 30
0.0
  0
VIEWPORT
  5
F4
330
8A
100
AcDbEntity
  8
0
100
AcDbViewport
 10
0.0
 20
0.0
 30
0.0
 40
205.6
 41
156.0
 68
     1
 69
     1
 12
0.0
 22
-0.8285596487
 13
0.0
 23
0.0
 14
10.0
 24
10.0
 15
10.0
 25
10.0
 16
0.0
 26
0.0
 36
1.0
 17
0.0
 27
0.0
 37
0.0
 42
50.0
 43
0.0
 44
0.0
 45
402.7838232565
 50
0.0
 51
0.0
 72
   100
 90
   557152
  1

281
     0
 71
     1
 74
     0
110
0.0
120
0.0
130
0.0
111
1.0
121
0.0
131
0.0
112
0.0
122
1.0
132
0.0
 79
     0
146
0.0
170
     0
 61
     5
348
2F
292
     1
282
     1
141
0.0
142
0.0
 63
   256
361
F5
  0
ENDBLK
  5
8D
330
8A
100
AcDbEntity
  8
0
100
AcDbBlockEnd
  0
BLOCK
  5
99
330
97
100
AcDbEntity
  8
0
100
AcDbBlockBegin
  2
*Paper_Space2
 70
     0
 10
0.0
 20
0.0
 30
0.0
  3
*Paper_Space2
  1

  0
SPLINE
  5
9B
330
97
100
AcDbEntity
  8
0
  6
Continuous
 62
     7
370
    25
100
AcDbSpline
210
0.0
220
0.0
230
1.0
 70
     8
 71
     3
 72
    61
 73
    57
 74
     0
 42
0.000000001
 43
0.00000001
 40
0.0
 40
0.0
 40
0.0
 40
0.0
 40
0.0178009281499302
 40
0.0314746339271666
 40
0.0410183559618232
 40
0.0466888266453163
 40
0.0516063321396025
 40
0.05668664180817
 40
0.0619301476311565
 40
0.0772329128878704
 40
0.0938437344959663
 40
0.1265311037781677
 40
0.1623018353374859
 40
0.1967885734393889
 40
0.2336907608422205
 40
0.271216760314274
 40
0.3074544699809118
 40
0.3517090365793098
 40
0.3938743390871598
 40
0.4349229480435666
 40
0.4761029167919991
 40
0.4942681759990346
 40
0.5123409384104455
 40
0.5282933742107334
 40
0.5413964103780845
 40
0.5481717271022403
 40
0.5541959670485594
 40
0.5621173278935099
 40
0.5724514977815849
 40
0.5852044053914306
 40
0.6062681928970917
 40
0.6291759931097639
 40
0.649917169551178
 40
0.6684364840259456
 40
0.6847245283996757
 40
0.6987727033885629
 40
0.7173809176187228
 40
0.7352418942104305
 40
0.7526958963931615
 40
0.7729700750483652
 40
0.7960615376945746
 40
0.8213444379379603
 40
0.8486874556548138
 40
0.876864789202997
 40
0.8929878515774039
 40
0.9091969885028135
 40
0.9247222708189655
 40
0.9372124940956891
 40
0.9464898199284437
 40
0.9515414138890379
 40
0.9586558832751494
 40
0.9680012589036514
 40
0.9790234725138618
 40
0.9888034757533695
 40
0.9970488905958287
 40
1.0
 40
1.0
 40
1.0
 40
1.0
 10
-260.2205713663191
 20
0.0000000000000278
 30
0.0
 10
-259.5272291395491
 20
-1.613836565864613
 30
0.0
 10
-258.301299087474
 20
-4.467334692537545
 30
0.0
 10
-256.6326809220429
 20
-8.15038029010412
 30
0.0
 10
-255.4322261890702
 20
-10.73086012373546
 30
0.0
 10
-254.5818807728723
 20
-12.52339465718341
 30
0.0
 10
-253.912929970872
 20
-13.91542036161987
 30
0.0
 10
-253.2557980079336
 20
-15.2661785735345
 30
0.0
 10
-252.1398093537856
 20
-17.53154554038549
 30
0.0
 10
-250.4892722332397
 20
-20.80020817792194
 30
0.0
 10
-247.5332737457366
 20
-26.43711112264618
 30
0.0
 10
-243.4669866539868
 20
-33.7617917273941
 30
0.0
 10
-238.2579988801303
 20
-42.45024681428862
 30
0.0
 10
-232.5368652789077
 20
-51.29091857518141
 30
0.0
 10
-226.4221258958315
 20
-60.05188964371466
 30
0.0
 10
-219.9000690682073
 20
-68.70136752352644
 30
0.0
 10
-212.6255004994198
 20
-77.6465914470392
 30
0.0
 10
-204.7139709611409
 20
-86.61236687079679
 30
0.0
 10
-196.114070616565
 20
-95.54016512111482
 30
0.0
 10
-187.3828448837452
 20
-103.8640844617991
 30
0.0
 10
-180.0857262442759
 20
-110.2522095999995
 30
0.0
 10
-174.3279556209411
 20
-114.9860667795815
 30
0.0
 10
-170.3943354743253
 20
-118.0965382642728
 30
0.0
 10
-166.7984851056209
 20
-120.8361782806491
 30
0.0
 10
-164.0351864915348
 20
-122.8748035933245
 30
0.0
 10
-162.0217356574856
 20
-124.3274578123447
 30
0.0
 10
-160.4011336490405
 20
-125.4798562632897
 30
0.0
 10
-158.4879677123461
 20
-126.8187685054804
 30
0.0
 10
-156.0288437271709
 20
-128.5037974282505
 30
0.0
 10
-152.5015910504438
 20
-130.8562431430252
 30
0.0
 10
-147.9257658825637
 20
-133.7873633648208
 30
0.0
 10
-142.646569762116
 20
-136.9917042520815
 30
0.0
 10
-137.5217956321371
 20
-139.934956369362
 30
0.0
 10
-132.901972558519
 20
-142.4548966465043
 30
0.0
 10
-128.8077434077522
 20
-144.5850967663599
 30
0.0
 10
-124.6788381172899
 20
-146.64391159158
 30
0.0
 10
-120.3831663098948
 20
-148.6867634823612
 30
0.0
 10
-115.7659429381916
 20
-150.7646298500503
 30
0.0
 10
-110.9798250700322
 20
-152.8015212173258
 30
0.0
 10
-105.6955650824451
 20
-154.9134028545915
 30
0.0
 10
-99.68550567638951
 20
-157.1371455685428
 30
0.0
 10
-92.99247738663053
 20
-159.3934329014404
 30
0.0
 10
-85.81139049271415
 20
-161.5586145570099
 30
0.0
 10
-79.40967560007333
 20
-163.2494815112991
 30
0.0
 10
-73.99093845112192
 20
-164.5189281934049
 30
0.0
 10
-69.70290068786296
 20
-165.4299971584154
 30
0.0
 10
-65.7463979125887
 20
-166.1860008791781
 30
0.0
 10
-62.39828693236261
 20
-166.7621838917459
 30
0.0
 10
-59.98723162020558
 20
-167.1415442110911
 30
0.0
 10
-58.00504390917223
 20
-167.4337863978994
 30
0.0
 10
-55.95644435942273
 20
-167.7179842305267
 30
0.0
 10
-53.33407076064383
 20
-168.0500209824327
 30
0.0
 10
-50.46282348617848
 20
-168.3725422319835
 30
0.0
 10
-47.63977327064389
 20
-168.6454266780929
 30
0.0
 10
-45.55611510158743
 20
-168.8258508656245
 30
0.0
 10
-44.44887273087569
 20
-168.9058082948104
 30
0.0
 10
-44.15703275438585
 20
-168.9268829708442
 30
0.0
  0
SPLINE
  5
9C
330
97
100
AcDbEntity
  8
0
  6
Continuous
 62
     7
370
    25
100
AcDbSpline
210
0.0
220
0.0
230
1.0
 70
     8
 71
     3
 72
    63
 73
    59
 74
     0
 42
0.000000001
 43
0.00000001
 40
0.0
 40
0.0
 40
0.0
 40
0.0
 40
0.0050054178596623
 40
0.0138150935392702
 40
0.0212778735979369
 40
0.037763588919698
 40
0.0543924466329382
 40
0.0730230805151171
 40
0.0940589052142198
 40
0.1174564789203092
 40
0.1321925723084185
 40
0.1473831434282639
 40
0.1630268709992108
 40
0.1791226078698019
 40
0.1956693843263614
 40
0.2112127875189867
 40
0.2236276623043695
 40
0.2322574752572376
 40
0.2383486839320423
 40
0.2450975105855243
 40
0.2541419060192053
 40
0.2654753168952592
 40
0.2790722745879611
 40
0.3086218763097408
 40
0.3354273549264317
 40
0.3596159971186788
 40
0.3846783670532475
 40
0.4123205157091957
 40
0.4273809000990007
 40
0.4415292671191445
 40
0.4524964099259782
 40
0.4602713875914142
 40
0.4652637884541538
 40
0.4715406309628061
 40
0.4801520380046029
 40
0.4957989211927433
 40
0.5158434735172859
 40
0.5400318599612491
 40
0.5645338925968602
 40
0.6057855614021922
 40
0.6438529112771356
 40
0.6787571233157507
 40
0.7105205226988053
 40
0.7494523491540898
 40
0.7890432431743212
 40
0.8292958158246745
 40
0.8696819521993464
 40
0.8869026678350878
 40
0.9037404898732428
 40
0.9201965527649842
 40
0.9358425909390274
 40
0.9421124877280181
 40
0.947874945317465
 40
0.9531302288649127
 40
0.9586636409200961
 40
0.9680951247176665
 40
0.9818748884079744
 40
1.0
 40
1.0
 40
1.0
 40
1.0
 10
43.69232651395444
 20
-168.9592826768851
 30
0.0
 10
44.18252373293107
 20
-168.9245025225426
 30
0.0
 10
45.53548179212277
 20
-168.8285083220537
 30
0.0
 10
47.66073783400218
 20
-168.643289259126
 30
0.0
 10
50.88707751432747
 20
-168.3312941118036
 30
0.0
 10
54.77027305162913
 20
-167.8849275488801
 30
0.0
 10
59.51710350329842
 20
-167.2290555897187
 30
0.0
 10
64.62809048777916
 20
-166.398743069974
 30
0.0
 10
70.31150850561784
 20
-165.3210984070278
 30
0.0
 10
75.60295547145455
 20
-164.1588007437753
 30
0.0
 10
80.3659838121542
 20
-162.990727234602
 30
0.0
 10
84.43081681459174
 20
-161.9120851939031
 30
0.0
 10
88.6086369722285
 20
-160.7168366128104
 30
0.0
 10
92.89640532427808
 20
-159.3984167497773
 30
0.0
 10
97.1608092363219
 20
-157.9930910140743
 30
0.0
 10
101.0877326955006
 20
-156.613447568171
 30
0.0
 10
104.3090039929159
 20
-155.4201715429377
 30
0.0
 10
106.6907900792739
 20
-154.5033904886533
 30
0.0
 10
108.5653234315203
 20
-153.7628546092468
 30
0.0
 10
110.4627356637029
 20
-152.9965495206349
 30
0.0
 10
112.8080490923829
 20
-152.0239160977312
 30
0.0
 10
115.7353471010589
 20
-150.7687749951745
 30
0.0
 10
120.4128314479188
 20
-148.6823367695905
 30
0.0
 10
126.3790077432102
 20
-145.8406206089598
 30
0.0
 10
133.1722137848616
 20
-142.3320362747238
 30
0.0
 10
139.5085923027945
 20
-138.8242306150851
 30
0.0
 10
145.8270158087488
 20
-135.0952715945415
 30
0.0
 10
151.31347791461
 20
-131.6381417939479
 30
0.0
 10
155.8577148394621
 20
-128.6243373997287
 30
0.0
 10
159.041198355545
 20
-126.4395259608368
 30
0.0
 10
161.6277371516805
 20
-124.6122348223891
 30
0.0
 10
163.4828506380981
 20
-123.2733670742973
 30
0.0
 10
164.9627255560372
 20
-122.1897930301262
 30
0.0
 10
166.4955810153092
 20
-121.0531679484216
 30
0.0
 10
168.8362715463134
 20
-119.2885979889054
 30
0.0
 10
172.201679593511
 20
-116.682830441586
 30
0.0
 10
176.6927642584655
 20
-113.0680744168268
 30
0.0
 10
181.7652371229311
 20
-108.7877600472258
 30
0.0
 10
188.2764678000145
 20
-103.0044760625662
 30
0.0
 10
195.5872355265815
 20
-96.0525315895797
 30
0.0
 10
203.3371240638444
 20
-88.05796975340795
 30
0.0
 10
210.1825934162036
 20
-80.45178931608447
 30
0.0
 10
216.8306593757841
 20
-72.5471855983154
 30
0.0
 10
223.4879553060578
 20
-64.03914783745819
 30
0.0
 10
230.3102876569171
 20
-54.58302564769595
 30
0.0
 10
236.846956149483
 20
-44.72908388667935
 30
0.0
 10
241.856251265714
 20
-36.48992576005356
 30
0.0
 10
245.4922558631823
 20
-30.11283733525616
 30
0.0
 10
247.8888713547335
 20
-25.7430834023367
 30
0.0
 10
250.1432232904983
 20
-21.47083000919668
 30
0.0
 10
251.8593179451485
 20
-18.09282390637074
 30
0.0
 10
253.0715381453453
 20
-15.64294810150374
 30
0.0
 10
253.8197932526154
 20
-14.10846419016536
 30
0.0
 10
254.5283094217824
 20
-12.63568047759078
 30
0.0
 10
255.3842727061693
 20
-10.83275833368111
 30
0.0
 10
256.5819136747035
 20
-8.261155524981536
 30
0.0
 10
258.267957721966
 20
-4.54377960490325
 30
0.0
 10
259.5131690317056
 20
-1.64614299410594
 30
0.0
 10
260.2205717012022
 20
0.0000000000000833
 30
0.0
  0
SPLINE
  5
9D
330
97
100
AcDbEntity
  8
0
  6
Continuous
 62
     7
370
    25
100
AcDbSpline
210
0.0
220
0.0
230
1.0
 70
     8
 71
     3
 72
    13
 73
     9
 74
     0
 42
0.000000001
 43
0.00000001
 40
0.0
 40
0.0
 40
0.0
 40
0.0
 40
0.2632300884575912
 40
0.4954290993637943
 40
0.6971668684065387
 40
0.869506814549717
 40
0.9448556058571081
 40
1.0
 40
1.0
 40
1.0
 40
1.0
 10
39.41212084798626
 20
-170.0002515450616
 30
0.0
 10
40.04180628841259
 20
-169.8380899543923
 30
0.0
 10
41.22694622610312
 20
-169.5328833145
 30
0.0
 10
42.49950504797768
 20
-169.2277536164018
 30
0.0
 10
43.37274934511754
 20
-169.0292020351085
 30
0.0
 10
43.80886194930204
 20
-168.9323152839621
 30
0.0
 10
44.04620520264429
 20
-168.8830069130133
 30
0.0
 10
44.07911625153641
 20
-168.8722447136538
 30
0.0
 10
44.09302394982351
 20
-168.8676967752978
 30
0.0
  0
SPLINE
  5
9E
330
97
100
AcDbEntity
  8
0
  6
Continuous
 62
     7
370
    25
100
AcDbSpline
210
0.0
220
0.0
230
1.0
 70
     8
 71
     3
 72
    11
 73
     7
 74
     0
 42
0.000000001
 43
0.00000001
 40
0.0
 40
0.0
 40
0.0
 40
0.0
 40
0.1099679351166374
 40
0.3592689816780751
 40
0.6560070108206897
 40
0.9999999999999999
 40
0.9999999999999999
 40
0.9999999999999999
 40
0.9999999999999999
 10
-44.14220373127695
 20
-168.875152081344
 30
0.0
 10
-44.15098178720984
 20
-168.8800037943888
 30
0.0
 10
-44.17965999429608
 20
-168.895854505809
 30
0.0
 10
-43.41462501634588
 20
-169.048864556655
 30
0.0
 10
-41.91513952675888
 20
-169.3718381138988
 30
0.0
 10
-40.28649871473633
 20
-169.7807282949876
 30
0.0
 10
-39.4121208475709
 20
-170.0002515451764
 30
0.0
  0
SPLINE
  5
9F
330
97
100
AcDbEntity
  8
0
  6
Continuous
 62
     7
370
    25
100
AcDbSpline
210
0.0
220
0.0
230
1.0
 70
     8
 71
     3
 72
     9
 73
     5
 74
     0
 42
0.000000001
 43
0.00000001
 40
0.0
 40
0.0
 40
0.0
 40
0.0
 40
0.500099328580785
 40
1.0
 40
1.0
 40
1.0
 40
1.0
 10
-40.103220769532
 20
-169.6747184202353
 30
0.0
 10
-40.10644793544284
 20
-170.5624476756416
 30
0.0
 10
-40.11290098531993
 20
-172.3375535489598
 30
0.0
 10
-40.11936614092085
 20
-174.1126353938937
 30
0.0
 10
-40.12259807654657
 20
-175.0000000000002
 30
0.0
  0
SPLINE
  5
A0
330
97
100
AcDbEntity
  8
0
  6
Continuous
 62
     7
370
    25
100
AcDbSpline
210
0.0
220
0.0
230
1.0
 70
     8
 71
     3
 72
     9
 73
     5
 74
     0
 42
0.000000001
 43
0.00000001
 40
0.0
 40
0.0
 40
0.0
 40
0.0
 40
0.4999006714193012
 40
0.9999999999999999
 40
0.9999999999999999
 40
0.9999999999999999
 40
0.9999999999999999
 10
40.1225980771551
 20
-175.0000000000002
 30
0.0
 10
40.11936614152832
 20
-174.1126353938717
 30
0.0
 10
40.1129009859253
 20
-172.3375535488942
 30
0.0
 10
40.10644793604617
 20
-170.5624476755324
 30
0.0
 10
40.10322077013431
 20
-169.6747184201045
 30
0.0
  0
SPLINE
  5
A1
330
97
100
AcDbEntity
  8
0
  6
Continuous
 62
     7
370
    25
100
AcDbSpline
210
0.0
220
0.0
230
1.0
 70
    24
 71
     3
 72
    29
 73
    25
 74
     0
 42
0.000000001
 43
0.00000001
 40
0.0
 40
0.0
 40
0.0
 40
0.0
 40
0.0535436070912095
 40
0.1069352654015263
 40
0.1599980148841133
 40
0.2125970384562292
 40
0.2646739642657091
 40
0.3161809241316174
 40
0.3642425328569138
 40
0.4118177363488019
 40
0.4587978943086241
 40
0.5050662364094866
 40
0.5505145041180284
 40
0.5977162024688916
 40
0.6438002310636679
 40
0.6887043086251934
 40
0.732390184509546
 40
0.7748614303763286
 40
0.8162455124732739
 40
0.8544282196525882
 40
0.8919312393709288
 40
0.9288369707042352
 40
0.9652418103278859
 40
1.0
 40
1.0
 40
1.0
 40
1.0
 10
-0.0000000000014474
 20
0.000000000000111
 30
0.0
 10
6.365888458682212
 20
0.000000000000111
 30
0.0
 10
19.07959993288753
 20
0.0000000000001249
 30
0.0
 10
38.03333331391092
 20
0.0000000000001249
 30
0.0
 10
56.74377680971807
 20
0.0000000000001249
 30
0.0
 10
75.10675160160251
 20
0.0000000000001249
 30
0.0
 10
93.03555659019716
 20
0.000000000000111
 30
0.0
 10
110.135662039626
 20
0.000000000000111
 30
0.0
 10
126.3765837212108
 20
0.0000000000001249
 30
0.0
 10
141.7349352699123
 20
0.0000000000001249
 30
0.0
 10
156.466725072217
 20
0.0000000000001388
 30
0.0
 10
170.4877502222862
 20
0.0000000000001249
 30
0.0
 10
183.9715033495108
 20
0.0000000000001249
 30
0.0
 10
196.7771399499609
 20
0.0000000000000971
 30
0.0
 10
208.7754987390744
 20
0.0000000000000833
 30
0.0
 10
219.64388254344
 20
0.0000000000000694
 30
0.0
 10
229.3219482410347
 20
0.0000000000000694
 30
0.0
 10
237.7559198255916
 20
0.0000000000000694
 30
0.0
 10
244.7776439256665
 20
0.0000000000000694
 30
0.0
 10
250.4333998948294
 20
0.0000000000000694
 30
0.0
 10
254.7940766274324
 20
0.0000000000000833
 30
0.0
 10
257.9117442296466
 20
0.0000000000000833
 30
0.0
 10
259.8648563172534
 20
0.0000000000000971
 30
0.0
 10
260.0892029366967
 20
0.0000000000000833
 30
0.0
 10
260.1987806546223
 20
0.0000000000000833
 30
0.0
  0
SPLINE
  5
A2
330
97
100
AcDbEntity
  8
0
  6
Continuous
 62
     7
370
    25
100
AcDbSpline
210
0.0
220
0.0
230
1.0
 70
    24
 71
     3
 72
    30
 73
    26
 74
     0
 42
0.000000001
 43
0.00000001
 40
0.0
 40
0.0
 40
0.0
 40
0.0
 40
0.0314627150935981
 40
0.0645047526682045
 40
0.0979445130804719
 40
0.1318581838165278
 40
0.1663073192841056
 40
0.2013697615822556
 40
0.2371591306184588
 40
0.2774910940452463
 40
0.3189132862471461
 40
0.3614136066072384
 40
0.4049581645436307
 40
0.4494923892580371
 40
0.4977209146872118
 40
0.5468648254813743
 40
0.5967938753002557
 40
0.6473677438239945
 40
0.6984761630645032
 40
0.7501477938164279
 40
0.7993806651167277
 40
0.8490669867827672
 40
0.8991529522583424
 40
0.9495133243479842
 40
1.0
 40
1.0
 40
1.0
 40
1.0
 10
-260.2006762725706
 20
0.0000000000000278
 30
0.0
 10
-260.1116267566558
 20
0.0000000000000278
 30
0.0
 10
-259.9290577386224
 20
0.0000000000000278
 30
0.0
 10
-258.3190609294126
 20
0.0000000000000139
 30
0.0
 10
-255.7406061083723
 20
0.0000000000000139
 30
0.0
 10
-252.1278833214686
 20
0.0000000000000278
 30
0.0
 10
-247.5334844534537
 20
0.0000000000000278
 30
0.0
 10
-241.9669113463007
 20
0.0000000000000139
 30
0.0
 10
-235.2233302095326
 20
0.0000000000000139
 30
0.0
 10
-227.2092212373825
 20
0.0000000000000139
 30
0.0
 10
-217.8577066234334
 20
0.0
 30
0.0
 10
-207.4559704715343
 20
0.0000000000000139
 30
0.0
 10
-196.0557169403567
 20
0.0000000000000416
 30
0.0
 10
-183.4557369574761
 20
0.0000000000000971
 30
0.0
 10
-169.6610578343251
 20
0.000000000000111
 30
0.0
 10
-154.7182888927575
 20
0.000000000000111
 30
0.0
 10
-138.9879548752213
 20
0.0000000000000971
 30
0.0
 10
-122.5683957921623
 20
0.0000000000000971
 30
0.0
 10
-105.5379592481081
 20
0.0000000000000971
 30
0.0
 10
-88.30143869201689
 20
0.000000000000111
 30
0.0
 10
-70.94712159719255
 20
0.0000000000000971
 30
0.0
 10
-53.5606100140161
 20
0.0000000000000971
 30
0.0
 10
-35.8791432313652
 20
0.0000000000000971
 30
0.0
 10
-17.99225605128818
 20
0.000000000000111
 30
0.0
 10
-6.002424146708901
 20
0.000000000000111
 30
0.0
 10
-0.0000000000014474
 20
0.000000000000111
 30
0.0
  0
SPLINE
  5
A3
330
97
100
AcDbEntity
  8
0
  6
Continuous
 62
     7
370
    25
100
AcDbSpline
210
0.0
220
0.0
230
1.0
 70
     8
 71
     3
 72
    17
 73
    13
 74
     0
 42
0.000000001
 43
0.00000001
 40
0.0
 40
0.0
 40
0.0
 40
0.0
 40
0.0762362541922727
 40
0.1539114821839559
 40
0.2333859080893301
 40
0.3147095843233034
 40
0.4258068425542539
 40
0.5401782897489067
 40
0.6571010135446942
 40
0.7750215405149569
 40
0.8915038345982945
 40
1.0
 40
1.0
 40
1.0
 40
1.0
 10
-0.0000000000197716
 20
-172.060192648639
 30
0.0
 10
1.650251743092589
 20
-172.0550341072004
 30
0.0
 10
4.981904044876651
 20
-172.0446196558722
 30
0.0
 10
9.860062709050553
 20
-171.9677854400311
 30
0.0
 10
14.54891974240394
 20
-171.8543023811178
 30
0.0
 10
19.47042986775552
 20
-171.6880578692017
 30
0.0
 10
24.38447151765515
 20
-171.4634778227857
 30
0.0
 10
29.01524659468773
 20
-171.1835540330427
 30
0.0
 10
32.8977583023359
 20
-170.8815737054566
 30
0.0
 10
35.94891479268004
 20
-170.5723877057581
 30
0.0
 10
38.21545868564109
 20
-170.2699468913998
 30
0.0
 10
39.04006700517144
 20
-170.0809990681241
 30
0.0
 10
39.43773547899853
 20
-169.9898787256107
 30
0.0
  0
SPLINE
  5
A4
330
97
100
AcDbEntity
  8
0
  6
Continuous
 62
     7
370
    25
100
AcDbSpline
210
0.0
220
0.0
230
1.0
 70
     8
 71
     3
 72
    17
 73
    13
 74
     0
 42
0.000000001
 43
0.00000001
 40
0.0
 40
0.0
 40
0.0
 40
0.0
 40
0.1084961653771502
 40
0.2249784594607306
 40
0.3428989864327406
 40
0.4598217102314071
 40
0.5741931574295709
 40
0.6852904156643387
 40
0.7666140919013442
 40
0.8460885178104093
 40
0.9237637458063902
 40
1.0
 40
1.0
 40
1.0
 40
1.0
 10
-39.43773547871606
 20
-169.9898787256686
 30
0.0
 10
-39.0400670051211
 20
-170.0809990681626
 30
0.0
 10
-38.2154586859746
 20
-170.2699468914204
 30
0.0
 10
-35.948914793501
 20
-170.5723877057589
 30
0.0
 10
-32.89775830342683
 20
-170.8815737054563
 30
0.0
 10
-29.01524659591438
 20
-171.1835540330418
 30
0.0
 10
-24.38447151888693
 20
-171.4634778227852
 30
0.0
 10
-19.47042986885881
 20
-171.6880578692005
 30
0.0
 10
-14.54891974328918
 20
-171.8543023811177
 30
0.0
 10
-9.860062709642508
 20
-171.9677854400313
 30
0.0
 10
-4.981904045172971
 20
-172.0446196558711
 30
0.0
 10
-1.650251743196141
 20
-172.0550341072001
 30
0.0
 10
-0.0000000000197716
 20
-172.060192648639
 30
0.0
  0
SPLINE
  5
A5
330
97
100
AcDbEntity
  8
0
  6
Continuous
 62
     7
370
    25
100
AcDbSpline
210
0.0
220
0.0
230
1.0
 70
    24
 71
     3
 72
    19
 73
    15
 74
     0
 42
0.000000001
 43
0.00000001
 40
0.0
 40
0.0
 40
0.0
 40
0.0
 40
0.0679100242819894
 40
0.1370470697624504
 40
0.2076851243644914
 40
0.2798243600886863
 40
0.3781019415355261
 40
0.4789584710069081
 40
0.5818098059387732
 40
0.6853450476428317
 40
0.7874758962672873
 40
0.8862875436582458
 40
0.9803567742702274
 40
1.0
 40
1.0
 40
1.0
 40
1.0
 10
-0.0000000000200823
 20
-175.0
 30
0.0
 10
1.650453155280443
 20
-175.0
 30
0.0
 10
4.981180409549967
 20
-175.0
 30
0.0
 10
9.860438486303174
 20
-174.9999999999999
 30
0.0
 10
14.55229677860092
 20
-175.0
 30
0.0
 10
19.47652952099075
 20
-175.0000000000002
 30
0.0
 10
24.39412328196433
 20
-175.0
 30
0.0
 10
29.02915420832542
 20
-174.9999999999997
 30
0.0
 10
32.91070833215228
 20
-174.9999999999998
 30
0.0
 10
35.97393271199881
 20
-175.0000000000003
 30
0.0
 10
38.23537164328175
 20
-175.0000000000006
 30
0.0
 10
39.58130576464551
 20
-175.0000000000004
 30
0.0
 10
40.17363850978138
 20
-175.0000000000004
 30
0.0
 10
40.07660880279582
 20
-175.0000000000002
 30
0.0
 10
40.05984743382951
 20
-175.0000000000002
 30
0.0
  0
SPLINE
  5
A6
330
97
100
AcDbEntity
  8
0
  6
Continuous
 62
     7
370
    25
100
AcDbSpline
210
0.0
220
0.0
230
1.0
 70
    24
 71
     3
 72
    19
 73
    15
 74
     0
 42
0.000000001
 43
0.00000001
 40
0.0
 40
0.0
 40
0.0
 40
0.0
 40
0.0196432256757487
 40
0.1137124562891712
 40
0.2125241036826211
 40
0.3146549523109213
 40
0.4181901940202309
 40
0.5210415289583401
 40
0.6218980584364634
 40
0.72017563989023
 40
0.7923148756197187
 40
0.8629529302275991
 40
0.932089975714397
 40
1.0
 40
1.0
 40
1.0
 40
1.0
 10
-40.05984743334749
 20
-175.0000000000001
 30
0.0
 10
-40.07660880229058
 20
-175.0000000000002
 30
0.0
 10
-40.17363850936368
 20
-175.0000000000001
 30
0.0
 10
-39.58130576460466
 20
-175.0000000000002
 30
0.0
 10
-38.23537164376341
 20
-175.0000000000005
 30
0.0
 10
-35.97393271283607
 20
-175.0000000000008
 30
0.0
 10
-32.91070833325994
 20
-174.9999999999995
 30
0.0
 10
-29.02915420957208
 20
-174.9999999999995
 30
0.0
 10
-24.39412328321573
 20
-175.0
 30
0.0
 10
-19.47652952211152
 20
-174.9999999999998
 30
0.0
 10
-14.55229677949996
 20
-175.0
 30
0.0
 10
-9.860438486904346
 20
-175.0000000000001
 30
0.0
 10
-4.981180409851056
 20
-175.0000000000001
 30
0.0
 10
-1.650453155385657
 20
-175.0
 30
0.0
 10
-0.0000000000200823
 20
-175.0
 30
0.0
  0
VIEWPORT
  5
F6
330
97
100
AcDbEntity
  8
0
100
AcDbViewport
 10
0.0
 20
0.0
 30
0.0
 40
205.6
 41
156.0
 68
     1
 69
     1
 12
0.0
 22
-0.8285596487
 13
0.0
 23
0.0
 14
10.0
 24
10.0
 15
10.0
 25
10.0
 16
0.0
 26
0.0
 36
1.0
 17
0.0
 27
0.0
 37
0.0
 42
50.0
 43
0.0
 44
0.0
 45
402.7838232565
 50
0.0
 51
0.0
 72
   100
 90
   557152
  1

281
     0
 71
     1
 74
     0
110
0.0
120
0.0
130
0.0
111
1.0
121
0.0
131
0.0
112
0.0
122
1.0
132
0.0
 79
     0
146
0.0
170
     0
 61
     5
348
2F
292
     1
282
     1
141
0.0
142
0.0
 63
   256
361
F7
  0
ENDBLK
  5
9A
330
97
100
AcDbEntity
  8
0
100
AcDbBlockEnd
  0
BLOCK
  5
A9
330
A7
100
AcDbEntity
  8
0
100
AcDbBlockBegin
  2
*Paper_Space3
 70
     0
 10
0.0
 20
0.0
 30
0.0
  3
*Paper_Space3
  1

  0
SPLINE
  5
AB
330
A7
100
AcDbEntity
  8
0
  6
Continuous
 62
     7
370
    25
100
AcDbSpline
210
0.0
220
0.0
230
1.0
 70
     8
 71
     3
 72
    32
 73
    28
 74
     0
 42
0.000000001
 43
0.00000001
 40
0.0
 40
0.0
 40
0.0
 40
0.0
 40
0.0453526734700245
 40
0.0887699554013056
 40
0.1302516157372282
 40
0.1697978171772281
 40
0.2074085480660442
 40
0.2516979577092812
 40
0.292963168848153
 40
0.331204141655755
 40
0.3664205906698601
 40
0.4022716637887673
 40
0.434328866143177
 40
0.4631251284557026
 40
0.4917927747219992
 40
0.5376113898132736
 40
0.5843746082282745
 40
0.6277070880532587
 40
0.6718201667215687
 40
0.7162652265381372
 40
0.7593516444094773
 40
0.8009172950879141
 40
0.8409621016028239
 40
0.8797582607398619
 40
0.9190249068681359
 40
0.9590648999135972
 40
1.0
 40
1.0
 40
1.0
 40
1.0
 10
-186.6575335475356
 20
0.0000000000000694
 30
0.0
 10
-184.7733222274837
 20
-4.534310157241691
 30
0.0
 10
-181.0853069011503
 20
-13.4094321652105
 30
0.0
 10
-174.7992800702558
 20
-26.04005705847651
 30
0.0
 10
-168.2331902710451
 20
-37.80611090936166
 30
0.0
 10
-161.4220097464185
 20
-48.69876754066441
 30
0.0
 10
-153.943986406716
 20
-59.51491873628999
 30
0.0
 10
-145.8274628270667
 20
-70.09919189924871
 30
0.0
 10
-137.1332176707964
 20
-80.30248035351703
 30
0.0
 10
-128.6342155145268
 20
-89.36194126797695
 30
0.0
 10
-120.1638963628654
 20
-97.62768099730485
 30
0.0
 10
-111.8461734372609
 20
-105.0769020055568
 30
0.0
 10
-103.7681539665141
 20
-111.7375609953579
 30
0.0
 10
-96.07015659163655
 20
-117.6257814478414
 30
0.0
 10
-86.95978972325187
 20
-124.1083354790001
 30
0.0
 10
-75.93005464135415
 20
-131.2337846896569
 30
0.0
 10
-63.14131598842197
 20
-138.5208874832797
 30
0.0
 10
-50.14320283202456
 20
-145.0221558187671
 30
0.0
 10
-37.0505985938137
 20
-150.7297921896578
 30
0.0
 10
-23.69790248439167
 20
-155.7238768850806
 30
0.0
 10
-10.36449082004841
 20
-159.9255821803293
 30
0.0
 10
2.70413126751302
 20
-163.322636997614
 30
0.0
 10
15.46827653037532
 20
-165.9795829028202
 30
0.0
 10
28.09789487440289
 20
-167.9927315342221
 30
0.0
 10
40.80757247425959
 20
-169.3980341302415
 30
0.0
 10
53.80196802796245
 20
-170.2563781482449
 30
0.0
 10
62.56844918853431
 20
-170.2923348590921
 30
0.0
 10
67.00014256280673
 20
-170.310511949113
 30
0.0
  0
SPLINE
  5
AC
330
A7
100
AcDbEntity
  8
0
  6
Continuous
 62
     7
370
    25
100
AcDbSpline
210
0.0
220
0.0
230
1.0
 70
     8
 71
     3
 72
    26
 73
    22
 74
     0
 42
0.000000001
 43
0.00000001
 40
0.0
 40
0.0
 40
0.0
 40
0.0
 40
0.0746688453641362
 40
0.1431459751570307
 40
0.2054312943580434
 40
0.2615247336636141
 40
0.3114262545217468
 40
0.3462908640255894
 40
0.3773328172818705
 40
0.404552097603306
 40
0.4280182695263531
 40
0.452456852203143
 40
0.4891159375512285
 40
0.5319971344567425
 40
0.5811004051538716
 40
0.6364256961771013
 40
0.6979729312254559
 40
0.7644773557238709
 40
0.836983388607242
 40
0.9154909732673856
 40
1.0
 40
1.0
 40
1.0
 40
1.0
 10
156.8580823030533
 20
-172.060192648639
 30
0.0
 10
158.2434799528544
 20
-167.9259877716712
 30
0.0
 10
160.8993948340065
 20
-160.0003959706126
 30
0.0
 10
164.3586069650622
 20
-148.5130955146927
 30
0.0
 10
167.2921404051621
 20
-138.0037205517598
 30
0.0
 10
169.740631851239
 20
-128.4870928703135
 30
0.0
 10
171.6483936486912
 20
-120.4862013664031
 30
0.0
 10
173.1225794618333
 20
-113.8866441901275
 30
0.0
 10
174.2490889478975
 20
-108.5668782690435
 30
0.0
 10
175.1918570777152
 20
-103.8887875455673
 30
0.0
 10
176.0217182172127
 20
-99.58145125987839
 30
0.0
 10
176.9167101209449
 20
-94.72549186182547
 30
0.0
 10
177.9556975155866
 20
-88.7435495742844
 30
0.0
 10
179.141841129377
 20
-81.32601233673417
 30
0.0
 10
180.3683082420372
 20
-72.81206708396367
 30
0.0
 10
181.5813831684741
 20
-63.19636221667319
 30
0.0
 10
182.7119832743807
 20
-52.54806945701056
 30
0.0
 10
183.6985719561036
 20
-40.87801684728778
 30
0.0
 10
184.4653912507899
 20
-28.19935004520477
 30
0.0
 10
184.9734604871194
 20
-14.45402050735547
 30
0.0
 10
184.9912117888991
 20
-4.934822973089961
 30
0.0
 10
185.0004141960883
 20
0.000000000000111
 30
0.0
  0
SPLINE
  5
AE
330
A7
100
AcDbEntity
  8
0
  6
Continuous
 62
     7
370
    25
100
AcDbSpline
210
0.0
220
0.0
230
1.0
 70
     8
 71
     3
 72
     9
 73
     5
 74
     0
 42
0.000000001
 43
0.00000001
 40
0.0
 40
0.0
 40
0.0
 40
0.0
 40
0.4999999999999707
 40
1.0
 40
1.0
 40
1.0
 40
1.0
 10
155.8394396384032
 20
-175.0
 30
0.0
 10
156.010312767014
 20
-174.5104130330688
 30
0.0
 10
156.3520590242356
 20
-173.5312390992063
 30
0.0
 10
156.6894078767807
 20
-172.5505414654948
 30
0.0
 10
156.8580823030533
 20
-172.060192648639
 30
0.0
  0
LWPOLYLINE
  5
AF
330
A7
100
AcDbEntity
  8
0
  6
Continuous
 62
     7
370
    25
100
AcDbPolyline
 90
       26
 70
   128
 43
0.0
 10
67.0001436258
 20
-170.3105116897
 10
67.0001425621
 20
-170.3105119491
 10
67.2376272007
 20
-170.2523659033
 10
68.0103832871
 20
-170.1027997953
 10
69.443127852
 20
-169.8991216694
 10
71.6803588221
 20
-169.67863957
 10
73.6884729743
 20
-169.5407396884
 10
76.1573088002
 20
-169.4230069624
 10
79.1376673299
 20
-169.3364956274
 10
82.7148006578
 20
-169.2922599188
 10
86.9826726319
 20
-169.3013540719
 10
92.0880262042
 20
-169.374832322
 10
98.0342747415
 20
-169.519557886
 10
104.5619361327
 20
-169.7256299069
 10
111.5010027959
 20
-169.9789565093
 10
118.6762037096
 20
-170.2654458177
 10
125.8814711374
 20
-170.5710059567
 10
132.86971872
 20
-170.8815450509
 10
139.3666927834
 20
-171.1829712247
 10
145.1408712137
 20
-171.4611926028
 10
149.9781168122
 20
-171.7021173097
 10
152.8704395567
 20
-171.8498577555
 10
155.0364263119
 20
-171.962747134
 10
156.3906181203
 20
-172.034840435
 10
156.8580823031
 20
-172.0601926486
 10
156.8580823031
 20
-172.0601926486
  0
LINE
  5
B2
330
A7
100
AcDbEntity
  8
0
  6
Continuous
 62
     7
370
    25
100
AcDbLine
 10
67.0001425561
 20
-170.3105119481
 30
0.0
 11
67.0001414695
 21
-175.0
 31
0.0
  0
LINE
  5
B3
330
A7
100
AcDbEntity
  8
0
  6
Continuous
 62
     7
370
    25
100
AcDbLine
 10
-186.6573729588
 20
0.0
 30
0.0
 11
185.0004141961
 21
0.0
 31
0.0
  0
LINE
  5
B4
330
A7
100
AcDbEntity
  8
0
  6
Continuous
 62
     7
370
    25
100
AcDbLine
 10
67.0001678129
 20
-175.0
 30
0.0
 11
155.8394396384
 21
-175.0
 31
0.0
  0
VIEWPORT
  5
F8
330
A7
100
AcDbEntity
  8
0
100
AcDbViewport
 10
0.0
 20
0.0
 30
0.0
 40
205.6
 41
156.0
 68
     1
 69
     1
 12
0.0
 22
-0.8285596487
 13
0.0
 23
0.0
 14
10.0
 24
10.0
 15
10.0
 25
10.0
 16
0.0
 26
0.0
 36
1.0
 17
0.0
 27
0.0
 37
0.0
 42
50.0
 43
0.0
 44
0.0
 45
402.7838232565
 50
0.0
 51
0.0
 72
   100
 90
   557152
  1

281
     0
 71
     1
 74
     0
110
0.0
120
0.0
130
0.0
111
1.0
121
0.0
131
0.0
112
0.0
122
1.0
132
0.0
 79
     0
146
0.0
170
     0
 61
     5
348
2F
292
     1
282
     1
141
0.0
142
0.0
 63
   256
361
F9
  0
ENDBLK
  5
AA
330
A7
100
AcDbEntity
  8
0
100
AcDbBlockEnd
  0
BLOCK
  5
B7
330
B5
100
AcDbEntity
  8
0
100
AcDbBlockBegin
  2
*Paper_Space4
 70
     0
 10
0.0
 20
0.0
 30
0.0
  3
*Paper_Space4
  1

  0
LWPOLYLINE
  5
B9
330
B5
100
AcDbEntity
  8
0
  6
Continuous
 62
     7
370
    25
100
AcDbPolyline
 90
        3
 70
   128
 43
0.0
 10
39.8728490146
 20
-108.099458792
 10
39.8895425563
 20
-107.9053445514
 10
39.906149338
 20
-107.7114444197
  0
LWPOLYLINE
  5
BA
330
B5
100
AcDbEntity
  8
0
  6
Continuous
 62
     7
370
    25
100
AcDbPolyline
 90
        3
 70
   128
 43
0.0
 10
-39.9061493385
 20
-107.7114444206
 10
-39.8895425567
 20
-107.9053445524
 10
-39.872849015
 20
-108.099458793
  0
SPLINE
  5
BB
330
B5
100
AcDbEntity
  8
0
  6
Continuous
 62
     7
370
    25
100
AcDbSpline
210
0.0
220
0.0
230
1.0
 70
     8
 71
     3
 72
    18
 73
    14
 74
     0
 42
0.000000001
 43
0.00000001
 40
0.0
 40
0.0
 40
0.0
 40
0.0
 40
0.0333985678764128
 40
0.0707553408275059
 40
0.1132909743866898
 40
0.1618494697482833
 40
0.2369476875762306
 40
0.3247973793994764
 40
0.423797271726693
 40
0.571002480144841
 40
0.715038749669691
 40
0.8575201806182663
 40
1.0
 40
1.0
 40
1.0
 40
1.0
 10
-31.42984053375331
 20
-183.4392645391408
 30
0.0
 10
-30.93274259729933
 20
-183.4875187442235
 30
0.0
 10
-29.87963355236659
 20
-183.5897459636547
 30
0.0
 10
-27.75721171001191
 20
-183.780043775168
 30
0.0
 10
-25.19622716138965
 20
-183.9927000265106
 30
0.0
 10
-21.72645752809129
 20
-184.2524313441657
 30
0.0
 10
-17.20225140403535
 20
-184.5385091385172
 30
0.0
 10
-11.53778038405166
 20
-184.8051381763128
 30
0.0
 10
-4.292512980339928
 20
-185.0072901467657
 30
0.0
 10
4.173853390647323
 20
-185.0251793487004
 30
0.0
 10
13.51085790302315
 20
-184.7551850298861
 30
0.0
 10
22.62807819331453
 20
-184.2422914033093
 30
0.0
 10
28.49593081482137
 20
-183.7069391513611
 30
0.0
 10
31.42984053307896
 20
-183.4392645391997
 30
0.0
  0
SPLINE
  5
BC
330
B5
100
AcDbEntity
  8
0
  6
Continuous
 62
     7
370
    25
100
AcDbSpline
210
0.0
220
0.0
230
1.0
 70
     8
 71
     3
 72
    18
 73
    14
 74
     0
 42
0.000000001
 43
0.00000001
 40
0.0
 40
0.0
 40
0.0
 40
0.0
 40
0.0721189185166907
 40
0.1455990953387227
 40
0.2207812997473361
 40
0.2977128809475852
 40
0.4028100450026076
 40
0.5110045669955732
 40
0.621612577311912
 40
0.7331645018669304
 40
0.843355869014202
 40
0.9500604613194462
 40
1.0
 40
1.0
 40
1.0
 40
1.0
 10
0.0000000000197716
 20
-156.8580823030533
 30
0.0
 10
-1.650251445938559
 20
-156.7641566803879
 30
0.0
 10
-4.981903147805723
 20
-156.574532571063
 30
0.0
 10
-9.860066411954937
 20
-155.1393556541551
 30
0.0
 10
-14.54890536567156
 20
-152.964838582106
 30
0.0
 10
-19.47049342197367
 20
-149.7154181273764
 30
0.0
 10
-24.38413188544593
 20
-145.217695727133
 30
0.0
 10
-29.0165543564237
 20
-139.4173343568212
 30
0.0
 10
-32.89274693514528
 20
-132.9218035813415
 30
0.0
 10
-35.96768161678735
 20
-125.9606588671837
 30
0.0
 10
-38.17574114974997
 20
-118.7845900772018
 30
0.0
 10
-39.452318947981
 20
-112.8011456526776
 30
0.0
 10
-39.70010404600234
 20
-109.2298559878669
 30
0.0
 10
-39.77910013356225
 20
-108.0912971588007
 30
0.0
  0
SPLINE
  5
BD
330
B5
100
AcDbEntity
  8
0
  6
Continuous
 62
     7
370
    25
100
AcDbSpline
210
0.0
220
0.0
230
1.0
 70
     8
 71
     3
 72
    18
 73
    14
 74
     0
 42
0.000000001
 43
0.00000001
 40
0.0
 40
0.0
 40
0.0
 40
0.0
 40
0.0499395386501061
 40
0.1566441309552104
 40
0.2668354981036729
 40
0.3783874226613175
 40
0.488995432981345
 40
0.5971899549785761
 40
0.7022871190381266
 40
0.7792187002419154
 40
0.8544009046546763
 40
0.9278810814814151
 40
1.0
 40
1.0
 40
1.0
 40
1.0
 10
39.77910013314856
 20
-108.0912971577982
 30
0.0
 10
39.70010404570711
 20
-109.2298559861898
 30
0.0
 10
39.45231894795467
 20
-112.8011456503644
 30
0.0
 10
38.17574115019762
 20
-118.784590074389
 30
0.0
 10
35.9676816176187
 20
-125.9606588646785
 30
0.0
 10
32.89274693623333
 20
-132.9218035792502
 30
0.0
 10
29.01655435765113
 20
-139.4173343552126
 30
0.0
 10
24.38413188667749
 20
-145.2176957260229
 30
0.0
 10
19.47049342307701
 20
-149.71541812668
 30
0.0
 10
14.5489053665568
 20
-152.9648385817329
 30
0.0
 10
9.860066412546892
 20
-155.1393556539929
 30
0.0
 10
4.981903148102043
 20
-156.574532571014
 30
0.0
 10
1.650251446042111
 20
-156.7641566803728
 30
0.0
 10
0.0000000000197716
 20
-156.8580823030533
 30
0.0
  0
SPLINE
  5
BE
330
B5
100
AcDbEntity
  8
0
  6
Continuous
 62
     7
370
    25
100
AcDbSpline
210
0.0
220
0.0
230
1.0
 70
    11
 71
     3
 72
    49
 73
    45
 74
     0
 42
0.000000001
 43
0.00000001
 40
0.0
 40
0.0
 40
0.0
 40
0.0
 40
0.0062500000000001
 40
0.03125
 40
0.0625
 40
0.078125
 40
0.125
 40
0.140625
 40
0.171875
 40
0.203125
 40
0.234375
 40
0.2500000000001855
 40
0.265625
 40
0.28125
 40
0.296875
 40
0.328125
 40
0.34375
 40
0.375
 40
0.40625
 40
0.421875
 40
0.453125
 40
0.46875
 40
0.4999999999999999
 40
0.515625
 40
0.546875
 40
0.578125
 40
0.59375
 40
0.625
 40
0.65625
 40
0.671875
 40
0.703125
 40
0.71875
 40
0.734375
 40
0.75
 40
0.765625
 40
0.796875
 40
0.828125
 40
0.859375
 40
0.875
 40
0.921875
 40
0.9375
 40
0.96875
 40
0.99375
 40
1.0
 40
1.0
 40
1.0
 40
1.0
 10
0.0000000000200823
 20
-155.8394396384032
 30
0.0
 10
-0.6563541106491412
 20
-155.8394396384034
 30
0.0
 10
-3.943323690120635
 20
-155.7133958400259
 30
0.0
 10
-10.51149399416483
 20
-154.2388623582206
 30
0.0
 10
-17.57470283242811
 20
-150.3272604495927
 30
0.0
 10
-25.71730180781658
 20
-143.3416012598823
 30
0.0
 10
-31.23873810861585
 20
-135.6921730448455
 30
0.0
 10
-36.04080434989542
 20
-125.3953276553879
 30
0.0
 10
-38.86434654192103
 20
-116.4377458124213
 30
0.0
 10
-40.31506098046658
 20
-105.9006949582268
 30
0.0
 10
-40.07372212502445
 20
-97.81602688820537
 30
0.0
 10
-39.12926989770978
 20
-92.00496314682309
 30
0.0
 10
-38.11760442975739
 20
-88.14544035153162
 30
0.0
 10
-36.87803699382437
 20
-84.79106327412909
 30
0.0
 10
-34.91056681890741
 20
-80.84526771411232
 30
0.0
 10
-32.5099981879975
 20
-77.63161898411153
 30
0.0
 10
-28.99158397363087
 20
-74.32844809668723
 30
0.0
 10
-24.97863510604781
 20
-71.68243381606888
 30
0.0
 10
-20.37607348719279
 20
-69.80394601113966
 30
0.0
 10
-15.42759209546831
 20
-68.41945018805117
 30
0.0
 10
-11.24179538089696
 20
-67.67705894595636
 30
0.0
 10
-5.753403792892434
 20
-67.12483518014888
 30
0.0
 10
-1.150591414705998
 20
-66.95860457684014
 30
0.0
 10
4.602365658854895
 20
-67.06242087502649
 30
0.0
 10
10.19534620200508
 20
-67.49146113539217
 30
0.0
 10
15.42759209492524
 20
-68.41945018787952
 30
0.0
 10
20.37607348634249
 20
-69.80394601076222
 30
0.0
 10
24.97863510489972
 20
-71.68243381540985
 30
0.0
 10
28.99158397223916
 20
-74.32844809564722
 30
0.0
 10
32.50999818642695
 20
-77.63161898261653
 30
0.0
 10
34.91056681725846
 20
-80.84526771219672
 30
0.0
 10
36.8780369922151
 20
-84.79106327178764
 30
0.0
 10
38.11760442823279
 20
-88.14544034885603
 30
0.0
 10
39.12926989639512
 20
-92.00496314392163
 30
0.0
 10
40.0737221240903
 20
-97.8160268851387
 30
0.0
 10
40.31506098007338
 20
-105.9006949550654
 30
0.0
 10
38.8643465423001
 20
-116.4377458094277
 30
0.0
 10
36.04080435075957
 20
-125.3953276527875
 30
0.0
 10
31.23873810985739
 20
-135.6921730429191
 30
0.0
 10
25.71730180912425
 20
-143.3416012586448
 30
0.0
 10
17.57470283349076
 20
-150.3272604490291
 30
0.0
 10
10.51149399489161
 20
-154.2388623580571
 30
0.0
 10
3.94332369022653
 20
-155.7133958400117
 30
0.0
 10
0.656354110689294
 20
-155.8394396384031
 30
0.0
 10
0.0000000000200823
 20
-155.8394396384032
 30
0.0
  0
SPLINE
  5
C0
330
B5
100
AcDbEntity
  8
0
  6
Continuous
 62
     7
370
    25
100
AcDbSpline
210
0.0
220
0.0
230
1.0
 70
     8
 71
     3
 72
    28
 73
    24
 74
     0
 42
0.000000001
 43
0.00000001
 40
0.0
 40
0.0
 40
0.0
 40
0.0
 40
0.0062500000000001
 40
0.03125
 40
0.0625
 40
0.078125
 40
0.125
 40
0.140625
 40
0.171875
 40
0.203125
 40
0.234375
 40
0.2500000000001855
 40
0.265625
 40
0.28125
 40
0.296875
 40
0.328125
 40
0.34375
 40
0.375
 40
0.40625
 40
0.421875
 40
0.453125
 40
0.46875
 40
0.4993278977735635
 40
0.4993278977735635
 40
0.4993278977735635
 40
0.4993278977735635
 10
0.0000000000215431
 20
-133.0
 30
0.0
 10
-0.4297819081462713
 20
-133.0
 30
0.0
 10
-2.584213647492513
 20
-132.9352942626329
 30
0.0
 10
-6.899052309632008
 20
-132.1751940972847
 30
0.0
 10
-11.46572188337288
 20
-130.1310860132766
 30
0.0
 10
-16.50321705981009
 20
-126.4881545908167
 30
0.0
 10
-19.62175188422993
 20
-122.5081723319284
 30
0.0
 10
-21.97807694602212
 20
-117.166690312519
 30
0.0
 10
-23.06949293852156
 20
-112.5698120560823
 30
0.0
 10
-23.02548408615999
 20
-107.2670297757292
 30
0.0
 10
-22.07099658067865
 20
-103.2752803955627
 30
0.0
 10
-20.91507200600306
 20
-100.3759113984979
 30
0.0
 10
-19.93743595187576
 20
-98.47488006879908
 30
0.0
 10
-18.92231421140311
 20
-96.86393042798066
 30
0.0
 10
-17.4961907608695
 20
-94.95700706359584
 30
0.0
 10
-15.9885415657866
 20
-93.37428084466664
 30
0.0
 10
-14.00015592353328
 20
-91.67891604835881
 30
0.0
 10
-11.9056502207543
 20
-90.2388714321131
 30
0.0
 10
-9.655458445555302
 20
-89.0949865695433
 30
0.0
 10
-7.287690849386408
 20
-88.1661065976711
 30
0.0
 10
-5.31780275146036
 20
-87.59824784972209
 30
0.0
 10
-2.765506275946415
 20
-87.13222390788493
 30
0.0
 10
-1.14452431714734
 20
-87.00383989196791
 30
0.0
 10
-0.0708021401039682
 20
-87.00025469765215
 30
0.0
  0
SPLINE
  5
C1
330
B5
100
AcDbEntity
  8
0
  6
Continuous
 62
     7
370
    25
100
AcDbSpline
210
0.0
220
0.0
230
1.0
 70
     8
 71
     3
 72
    94
 73
    90
 74
     0
 42
0.000000001
 43
0.00000001
 40
0.0
 40
0.0
 40
0.0
 40
0.0
 40
0.00507154537541
 40
0.0191310893720896
 40
0.0330677642203694
 40
0.0468661036726149
 40
0.0605134245414211
 40
0.0732478627115775
 40
0.0858534226037328
 40
0.0983013188067712
 40
0.1105606117714896
 40
0.122602617239578
 40
0.1351092129428355
 40
0.1473196700693573
 40
0.1592174865274689
 40
0.1707925273992408
 40
0.182045739034152
 40
0.1930108949802293
 40
0.2031278123419289
 40
0.2130646392285828
 40
0.2228432081581956
 40
0.2324890604627156
 40
0.2420314493544672
 40
0.2506467708198095
 40
0.2592416291177933
 40
0.2678501890220273
 40
0.2765035467445031
 40
0.285234858592822
 40
0.2940817560103824
 40
0.3030876780525364
 40
0.313225036584165
 40
0.3236421774712512
 40
0.3343550341077089
 40
0.345365053044119
 40
0.3566667542157945
 40
0.3689603968466727
 40
0.3815446500358258
 40
0.3943849915521118
 40
0.4074474525045924
 40
0.4207088379084906
 40
0.434167833792598
 40
0.45028614196597
 40
0.4666567142544271
 40
0.4832089892290869
 40
0.4998514274664569
 40
0.5139749546904707
 40
0.5280410103138315
 40
0.5419981640360867
 40
0.5557986840604203
 40
0.5694033610013522
 40
0.5828063691638178
 40
0.5952628380339104
 40
0.6075394699621999
 40
0.6196140808597389
 40
0.6314573180387482
 40
0.6430405793839875
 40
0.6550176497082647
 40
0.6666661513746208
 40
0.6779799929889041
 40
0.6889633044836868
 40
0.6996400636073179
 40
0.7100634163227416
 40
0.7197190813033112
 40
0.7292632595021579
 40
0.7387414156949795
 40
0.7481953834262816
 40
0.7576698086210567
 40
0.7663415083562483
 40
0.7750964561278144
 40
0.7839567861011719
 40
0.792942685211233
 40
0.8020704631551103
 40
0.8113607452804407
 40
0.8208436367632006
 40
0.8315301518586744
 40
0.8425055382431422
 40
0.8537665896897213
 40
0.8653043264170119
 40
0.8771042891324308
 40
0.8898831082436522
 40
0.9029044714486884
 40
0.9161338681667703
 40
0.9295341185760149
 40
0.9430760056381444
 40
0.9567671234296339
 40
0.9698120579590234
 40
0.9829771404744467
 40
0.9962481141798979
 40
1.0
 40
1.0
 40
1.0
 40
1.0
 10
-31.25163235202175
 20
-183.3273221336646
 30
0.0
 10
-33.51946109503681
 20
-183.1386870884018
 30
0.0
 10
-42.07425675428038
 20
-182.427110311996
 30
0.0
 10
-56.73949233965833
 20
-180.0624783318203
 30
0.0
 10
-75.10788333215639
 20
-176.2727672612492
 30
0.0
 10
-93.03525760123689
 20
-171.394029181627
 30
0.0
 10
-110.1357358915866
 20
-165.6589886666575
 30
0.0
 10
-126.3765647217875
 20
-159.1379085094651
 30
0.0
 10
-141.7349402743634
 20
-151.93712537595
 30
0.0
 10
-156.4667237482151
 20
-143.9665184252952
 30
0.0
 10
-170.4877506111795
 20
-135.2730558156094
 30
0.0
 10
-183.9715030791887
 20
-125.720454398819
 30
0.0
 10
-196.7771406517096
 20
-115.3070364197988
 30
0.0
 10
-208.7754963034753
 20
-104.0665507093295
 30
0.0
 10
-219.643891258018
 20
-92.29177668403497
 30
0.0
 10
-229.3219170455853
 20
-80.06229166881596
 30
0.0
 10
-237.7560315400797
 20
-67.4427365142669
 30
0.0
 10
-244.7772516827847
 20
-54.72673912518763
 30
0.0
 10
-250.4347294785985
 20
-41.99358449889417
 30
0.0
 10
-254.7892322974971
 20
-29.31886014190192
 30
0.0
 10
-257.9294154808002
 20
-16.506369989158
 30
0.0
 10
-259.8228605446981
 20
-3.628970341553027
 30
0.0
 10
-260.4196400998412
 20
8.852247827652446
 30
0.0
 10
-259.8216963391456
 20
20.85684968109626
 30
0.0
 10
-258.1852054801943
 20
32.3404254407268
 30
0.0
 10
-255.5168863624484
 20
43.64585345749938
 30
0.0
 10
-251.8415846435362
 20
54.72906763165703
 30
0.0
 10
-247.1817042616386
 20
65.55150334969215
 30
0.0
 10
-241.5563788855115
 20
76.08390263205834
 30
0.0
 10
-234.7589609475091
 20
86.65822489253084
 30
0.0
 10
-226.6980165008352
 20
97.20885963062278
 30
0.0
 10
-217.307913742022
 20
107.6494497718653
 30
0.0
 10
-206.8763207018249
 20
117.6233623778179
 30
0.0
 10
-195.4555533075657
 20
127.0810469011984
 30
0.0
 10
-182.8426964948865
 20
136.1540340797652
 30
0.0
 10
-169.0464925800397
 20
144.7296745215543
 30
0.0
 10
-154.1185234680221
 20
152.72276960194
 30
0.0
 10
-138.419424661916
 20
159.9370028348199
 30
0.0
 10
-122.0456729889691
 20
166.3380763353861
 30
0.0
 10
-105.0756055234253
 20
171.8979629188788
 30
0.0
 10
-86.5054182757315
 20
176.8859329111137
 30
0.0
 10
-66.31042668205707
 20
181.0880794407698
 30
0.0
 10
-44.52810677511707
 20
184.2795403070144
 30
0.0
 10
-22.36306876290556
 20
186.2193236990932
 30
0.0
 10
-1.130532372514794
 20
186.8438340429519
 30
0.0
 10
18.98509187791042
 20
186.3422061834092
 30
0.0
 10
37.84986769429283
 20
184.9405770189128
 30
0.0
 10
56.4788798381476
 20
182.6293180773048
 30
0.0
 10
74.76566193738456
 20
179.4266372540328
 30
0.0
 10
92.62194319627336
 20
175.344980684503
 30
0.0
 10
109.6575174131776
 20
170.4887550403971
 30
0.0
 10
125.8464090744668
 20
164.9274021550231
 30
0.0
 10
141.1640503382787
 20
158.7353675280897
 30
0.0
 10
155.8683966041278
 20
151.8249295486797
 30
0.0
 10
169.8767124702655
 20
144.2254754141377
 30
0.0
 10
183.358653616772
 20
135.8073075071346
 30
0.0
 10
196.1750211603576
 20
126.5503819592302
 30
0.0
 10
208.1967131987459
 20
116.4682177144087
 30
0.0
 10
219.0990896003065
 20
105.8119496921668
 30
0.0
 10
228.8211019022105
 20
94.63854758494595
 30
0.0
 10
237.3109817932921
 20
82.99128240077347
 30
0.0
 10
244.396600526755
 20
71.12698626172167
 30
0.0
 10
250.1237866845306
 20
59.11305029069693
 30
0.0
 10
254.5516700568052
 20
47.01177278964195
 30
0.0
 10
257.7686809690532
 20
34.62649616278805
 30
0.0
 10
259.7425140148762
 20
22.01436505741814
 30
0.0
 10
260.4168386312517
 20
9.62811959026382
 30
0.0
 10
259.8959984922523
 20
-2.446402870986506
 30
0.0
 10
258.3337364357773
 20
-14.15149045743273
 30
0.0
 10
255.7365938431163
 20
-25.81472650300935
 30
0.0
 10
252.1289830903816
 20
-37.38048834040757
 30
0.0
 10
247.5331822327337
 20
-48.79776485256898
 30
0.0
 10
241.9669944796536
 20
-60.02342659661799
 30
0.0
 10
235.2233045708231
 20
-71.4041157625073
 30
0.0
 10
227.2092286598687
 20
-82.86765224929306
 30
0.0
 10
217.8577045572184
 20
-94.31799437791281
 30
0.0
 10
207.4559710400583
 20
-105.353398255591
 30
0.0
 10
196.0557168057935
 20
-115.9056065299039
 30
0.0
 10
183.4557369072613
 20
-126.1119481620948
 30
0.0
 10
169.6610582203857
 20
-135.8437306307215
 30
0.0
 10
154.7182873684102
 20
-144.9949210699885
 30
0.0
 10
138.9879607051956
 20
-153.3267832641118
 30
0.0
 10
122.5683736322204
 20
-160.7842179921043
 30
0.0
 10
105.5380432752312
 20
-167.3195270082389
 30
0.0
 10
88.3011277086531
 20
-172.7773289343542
 30
0.0
 10
70.94822523708494
 20
-177.2220747463373
 30
0.0
 10
53.55642810368364
 20
-180.5956023621981
 30
0.0
 10
40.15351234344755
 20
-182.6546432151302
 30
0.0
 10
32.53949368413044
 20
-183.2602186051158
 30
0.0
 10
30.86134268963963
 20
-183.3936891137151
 30
0.0
  0
ARC
  5
C2
330
B5
100
AcDbEntity
  8
0
  6
Continuous
 62
     7
370
    25
100
AcDbCircle
 10
-0.1032596223
 20
-110.0002317957
 30
0.0
 40
23.00000000000002
100
AcDbArc
 50
270.2572330621
 51
89.9191444626
  0
VIEWPORT
  5
FA
330
B5
100
AcDbEntity
  8
0
100
AcDbViewport
 10
0.0
 20
0.0
 30
0.0
 40
205.6
 41
156.0
 68
     1
 69
     1
 12
0.0
 22
-0.8285596487
 13
0.0
 23
0.0
 14
10.0
 24
10.0
 15
10.0
 25
10.0
 16
0.0
 26
0.0
 36
1.0
 17
0.0
 27
0.0
 37
0.0
 42
50.0
 43
0.0
 44
0.0
 45
402.7838232565
 50
0.0
 51
0.0
 72
   100
 90
   557152
  1

281
     0
 71
     1
 74
     0
110
0.0
120
0.0
130
0.0
111
1.0
121
0.0
131
0.0
112
0.0
122
1.0
132
0.0
 79
     0
146
0.0
170
     0
 61
     5
348
2F
292
     1
282
     1
141
0.0
142
0.0
 63
   256
361
FB
  0
ENDBLK
  5
B8
330
B5
100
AcDbEntity
  8
0
100
AcDbBlockEnd
  0
BLOCK
  5
C5
330
C3
100
AcDbEntity
  8
0
100
AcDbBlockBegin
  2
*Paper_Space5
 70
     0
 10
0.0
 20
0.0
 30
0.0
  3
*Paper_Space5
  1

  0
SPLINE
  5
C7
330
C3
100
AcDbEntity
  8
0
  6
Continuous
 62
     7
370
    25
100
AcDbSpline
210
0.0
220
0.0
230
1.0
 70
     8
 71
     3
 72
   118
 73
   114
 74
     0
 42
0.000000001
 43
0.00000001
 40
0.0
 40
0.0
 40
0.0
 40
0.0
 40
0.0094690714755749
 40
0.0170611782168269
 40
0.0227803791372759
 40
0.026814358101286
 40
0.0306261013248269
 40
0.046321480119085
 40
0.0753545795158223
 40
0.093027697837942
 40
0.1110005391175999
 40
0.1287269733413622
 40
0.1386506062722887
 40
0.148997035104619
 40
0.1598262235491569
 40
0.171056774538425
 40
0.1825246420049708
 40
0.1939934678127888
 40
0.2042537719722839
 40
0.2141573432010921
 40
0.22352138050027
 40
0.2329281712778586
 40
0.2440155762348455
 40
0.2566866579931233
 40
0.2667855452928352
 40
0.2745807594698912
 40
0.2815643189349776
 40
0.2895054714323186
 40
0.3008706151006583
 40
0.3078816829976844
 40
0.3132812122459061
 40
0.3176409458667331
 40
0.3220424819722271
 40
0.3266046212323866
 40
0.3322930080055864
 40
0.338260192996142
 40
0.3445490494400601
 40
0.3496389385349864
 40
0.3534970008527046
 40
0.3574373625486499
 40
0.3623404931922612
 40
0.3681833822795565
 40
0.3742149615652906
 40
0.3788826796516594
 40
0.3823587532585669
 40
0.386204720438215
 40
0.3908137976517447
 40
0.3995109812305797
 40
0.4090225568007816
 40
0.4187861738626729
 40
0.426902293270627
 40
0.4329738161746234
 40
0.4400712347730089
 40
0.4479790728548877
 40
0.4548853454117227
 40
0.4612692024332661
 40
0.4675028987321391
 40
0.4750645487682129
 40
0.4836750984738133
 40
0.4925006704523716
 40
0.501474752853491
 40
0.5217507850121835
 40
0.5426248025866858
 40
0.5651008929074209
 40
0.589053468704114
 40
0.6118577812584822
 40
0.6330428743302196
 40
0.652691096511656
 40
0.6686969940434713
 40
0.6835205484828755
 40
0.6965878372773667
 40
0.7079412541340764
 40
0.7137031993449744
 40
0.7189630343138088
 40
0.7237447183906379
 40
0.7292595161090117
 40
0.7365930755947767
 40
0.7452764065938245
 40
0.7547072413259994
 40
0.7640769043512672
 40
0.7729828601970208
 40
0.7822699551971734
 40
0.7910739208293514
 40
0.7984260701810896
 40
0.8072171124911764
 40
0.8152650825915403
 40
0.8202977821072
 40
0.8267966756567149
 40
0.8350331783960054
 40
0.8419702406668133
 40
0.8475799172505274
 40
0.8543381060233458
 40
0.8625143615038677
 40
0.871841373758557
 40
0.8786965664910265
 40
0.883985153354996
 40
0.8887681424022207
 40
0.8935497107618089
 40
0.8987084351813033
 40
0.9050463166607289
 40
0.9167002928614784
 40
0.9287786072364679
 40
0.939554282205586
 40
0.9463388634917107
 40
0.9524928353963976
 40
0.9596664033773622
 40
0.9684923324520864
 40
0.973096545415078
 40
0.9767015866353472
 40
0.9796418880734012
 40
0.9844835565007419
 40
0.9917573915774158
 40
1.0
 40
1.0
 40
1.0
 40
1.0
 10
-218.165366488641
 20
2.99959714799429
 30
0.0
 10
-217.3075298155019
 20
1.463138848929457
 30
0.0
 10
-215.7618973425496
 20
-1.305220111152958
 30
0.0
 10
-213.6273395527851
 20
-4.961859338563245
 30
0.0
 10
-211.9730853825268
 20
-7.728875923967579
 30
0.0
 10
-210.6610982708738
 20
-9.880891277754676
 30
0.0
 10
-208.35976165818
 20
-13.59934096016405
 30
0.0
 10
-203.4875474226719
 20
-21.18388014715067
 30
0.0
 10
-196.8581168424226
 20
-30.68160340921004
 30
0.0
 10
-189.611538548253
 20
-40.22977576192285
 30
0.0
 10
-183.4014683710854
 20
-47.91708347798117
 30
0.0
 10
-177.9026260629185
 20
-54.31831591145757
 30
0.0
 10
-173.2053332515231
 20
-59.53621651105786
 30
0.0
 10
-169.2912471634738
 20
-63.73852013149947
 30
0.0
 10
-165.1397530552105
 20
-68.04101475243083
 30
0.0
 10
-160.7679544817728
 20
-72.40924242545657
 30
0.0
 10
-156.2347841498423
 20
-76.77255309861799
 30
0.0
 10
-151.7577705767705
 20
-80.92306279915634
 30
0.0
 10
-147.4251438546937
 20
-84.80007619587113
 30
0.0
 10
-143.3284859387372
 20
-88.34796065444868
 30
0.0
 10
-139.3012713734961
 20
-91.72880631728268
 30
0.0
 10
-135.0611565421707
 20
-95.18232441829403
 30
0.0
 10
-130.2949446599659
 20
-98.93851883698638
 30
0.0
 10
-125.3652287073549
 20
-102.6782595617638
 30
0.0
 10
-120.8574224765633
 20
-105.9754255038594
 30
0.0
 10
-117.1534583086158
 20
-108.607921350585
 30
0.0
 10
-113.7464402212614
 20
-110.9724893495783
 30
0.0
 10
-109.7770743931855
 20
-113.6618117821402
 30
0.0
 10
-105.7694054488409
 20
-116.2935853496616
 30
0.0
 10
-102.109506122371
 20
-118.6261700476576
 30
0.0
 10
-99.5123445765803
 20
-120.2480404261549
 30
0.0
 10
-97.31211250447937
 20
-121.6001144204849
 30
0.0
 10
-95.2331204168864
 20
-122.8592942905783
 30
0.0
 10
-92.93709610328916
 20
-124.2293209663604
 30
0.0
 10
-90.38712235650932
 20
-125.7250019198226
 30
0.0
 10
-87.54997672653855
 20
-127.3567683637276
 30
0.0
 10
-84.79034222578277
 20
-128.9113059640951
 30
0.0
 10
-82.35300084202531
 20
-130.2578953976152
 30
0.0
 10
-80.28450786838964
 20
-131.3832837635837
 30
0.0
 10
-78.2437214961993
 20
-132.4787836477794
 30
0.0
 10
-75.87616367480732
 20
-133.7304047308031
 30
0.0
 10
-73.15897684830611
 20
-135.1402127226521
 30
0.0
 10
-70.46395230955723
 20
-136.5096015614642
 30
0.0
 10
-68.14254222973443
 20
-137.6668781242095
 30
0.0
 10
-66.17222075700852
 20
-138.634825505526
 30
0.0
 10
-64.20888774639343
 20
-139.5866049308346
 30
0.0
 10
-61.37799254963769
 20
-140.9378981949388
 30
0.0
 10
-57.59162636974305
 20
-142.7012237427316
 30
0.0
 10
-52.91821982494393
 20
-144.8037794850278
 30
0.0
 10
-48.30756464948353
 20
-146.8015266018577
 30
0.0
 10
-44.24313099726633
 20
-148.5001005375401
 30
0.0
 10
-40.61593243029549
 20
-149.9717113897618
 30
0.0
 10
-37.01293268677044
 20
-151.3928421474612
 30
0.0
 10
-33.24906066462075
 20
-152.8289880525246
 30
0.0
 10
-29.58245776250481
 20
-154.1812638623011
 30
0.0
 10
-26.17786413440117
 20
-155.3976081580263
 30
0.0
 10
-22.65380689727556
 20
-156.6178431113212
 30
0.0
 10
-18.74835231721958
 20
-157.9233893945025
 30
0.0
 10
-14.37846851673221
 20
-159.3226207184135
 30
0.0
 10
-9.71810544025195
 20
-160.743454815509
 30
0.0
 10
-2.9479159352322
 20
-162.7003888348179
 30
0.0
 10
6.047421849476001
 20
-165.0643040291828
 30
0.0
 10
17.54788207070634
 20
-167.6479730681135
 30
0.0
 10
29.70957271014184
 20
-169.870983767727
 30
0.0
 10
42.20575099207385
 20
-171.5562448797456
 30
0.0
 10
54.67973076821833
 20
-172.590572593522
 30
0.0
 10
66.47136044078725
 20
-172.9484861578011
 30
0.0
 10
77.04430500479343
 20
-172.7114316107796
 30
0.0
 10
86.41629176938449
 20
-172.0260666661683
 30
0.0
 10
94.51381926654909
 20
-171.046012296141
 30
0.0
 10
101.7033279276274
 20
-169.8326796818786
 30
0.0
 10
107.192586346049
 20
-168.6605994905861
 30
0.0
 10
111.234818990029
 20
-167.6637701060661
 30
0.0
 10
114.073463380907
 20
-166.90181329304
 30
0.0
 10
116.8479186339863
 20
-166.1008527514637
 30
0.0
 10
119.9428739517182
 20
-165.1423958261346
 30
0.0
 10
123.6740571102339
 20
-163.8880949257637
 30
0.0
 10
128.0296770997305
 20
-162.2757967301925
 30
0.0
 10
132.6602504897806
 20
-160.3773327357817
 30
0.0
 10
137.2480596008665
 20
-158.2992523576534
 30
0.0
 10
141.7052597383641
 20
-156.087263554575
 30
0.0
 10
145.9665799876275
 20
-153.7829776121166
 30
0.0
 10
149.9011570930553
 20
-151.473876914502
 30
0.0
 10
153.6664220473979
 20
-149.1021370427614
 30
0.0
 10
157.2041837527296
 20
-146.7171575149986
 30
0.0
 10
160.3538289866811
 20
-144.4440030079164
 30
0.0
 10
163.1067461300865
 20
-142.3526651049852
 30
0.0
 10
165.8441747683775
 20
-140.1800146296445
 30
0.0
 10
168.8054025329805
 20
-137.6965219455382
 30
0.0
 10
171.5630269119066
 20
-135.2502246626163
 30
0.0
 10
173.9849624849985
 20
-133.0060443022463
 30
0.0
 10
176.5571361413471
 20
-130.5203798920515
 30
0.0
 10
179.5429039714527
 20
-127.4828343445072
 30
0.0
 10
182.4541499570027
 20
-124.3401567375491
 30
0.0
 10
184.9485776521728
 20
-121.4965338208429
 30
0.0
 10
186.8358214781829
 20
-119.257061666963
 30
0.0
 10
188.4525116134205
 20
-117.2751733740448
 30
0.0
 10
190.0377228992377
 20
-115.2705000743226
 30
0.0
 10
191.7568472177508
 20
-113.0245880498946
 30
0.0
 10
194.1347762154471
 20
-109.7995492701106
 30
0.0
 10
197.1127138874008
 20
-105.5163023967176
 30
0.0
 10
200.3414010670975
 20
-100.4962888040939
 30
0.0
 10
202.9697054726748
 20
-96.0886369897121
 30
0.0
 10
204.9793439610463
 20
-92.51342398372154
 30
0.0
 10
206.6204107675864
 20
-89.46282156133917
 30
0.0
 10
208.3644614758646
 20
-86.0687650833429
 30
0.0
 10
209.9094933069639
 20
-82.88945661429398
 30
0.0
 10
211.1422387539546
 20
-80.22939958809249
 30
0.0
 10
211.9314485009248
 20
-78.47493348283302
 30
0.0
 10
212.7187997504083
 20
-76.68262720712421
 30
0.0
 10
213.725960019244
 20
-74.32031164956054
 30
0.0
 10
215.0501658962867
 20
-71.09213038203225
 30
0.0
 10
215.9956401600805
 20
-68.5790689781982
 30
0.0
 10
216.4978927626474
 20
-67.24408644210969
 30
0.0
  0
SPLINE
  5
C9
330
C3
100
AcDbEntity
  8
0
  6
Continuous
 62
     7
370
    25
100
AcDbSpline
210
0.0
220
0.0
230
1.0
 70
    11
 71
     3
 72
    49
 73
    45
 74
     0
 42
0.000000001
 43
0.00000001
 40
0.0
 40
0.0
 40
0.0
 40
0.0
 40
0.0062500000000001
 40
0.03125
 40
0.0625
 40
0.078125
 40
0.125
 40
0.140625
 40
0.171875
 40
0.203125
 40
0.234375
 40
0.2500000000001855
 40
0.265625
 40
0.28125
 40
0.296875
 40
0.328125
 40
0.34375
 40
0.375
 40
0.40625
 40
0.421875
 40
0.453125
 40
0.46875
 40
0.4999999999999999
 40
0.515625
 40
0.546875
 40
0.578125
 40
0.59375
 40
0.625
 40
0.65625
 40
0.671875
 40
0.703125
 40
0.71875
 40
0.734375
 40
0.75
 40
0.765625
 40
0.796875
 40
0.828125
 40
0.859375
 40
0.875
 40
0.921875
 40
0.9375
 40
0.96875
 40
0.99375
 40
1.0
 40
1.0
 40
1.0
 40
1.0
 10
116.6726188957805
 20
67.35366922537337
 30
0.0
 10
114.4394698501688
 20
68.64283872866054
 30
0.0
 10
103.1190400293099
 20
74.99999041146418
 30
0.0
 10
79.06089122141607
 20
86.77500330392313
 30
0.0
 10
49.53296150631988
 20
97.93862675790821
 30
0.0
 10
9.848563124491076
 20
109.6055245071005
 30
0.0
 10
-24.36264805491131
 20
116.0550172439405
 30
0.0
 10
-63.96027595139778
 20
119.1707181499383
 30
0.0
 10
-95.45585311701255
 20
118.897723127524
 30
0.0
 10
-129.2004476853906
 20
114.064014929227
 30
0.0
 10
-153.5133087252406
 20
106.3467659915966
 30
0.0
 10
-169.9855456331218
 20
98.13056672893549
 30
0.0
 10
-180.6598581885584
 20
90.99865177479138
 30
0.0
 10
-189.5702647707121
 20
83.00209000554467
 30
0.0
 10
-198.9816009049045
 20
71.33910768674967
 30
0.0
 10
-204.5630413182807
 20
58.34970377325948
 30
0.0
 10
-206.6622439984655
 20
40.664905289372
 30
0.0
 10
-203.8365609350296
 20
21.7903965814521
 30
0.0
 10
-194.3241151376451
 20
2.202594311920686
 30
0.0
 10
-180.3268753768326
 20
-17.20299647543554
 30
0.0
 10
-165.7194785512291
 20
-32.35069069955085
 30
0.0
 10
-143.4343657345438
 20
-50.56946167466303
 30
0.0
 10
-122.6402114319438
 20
-64.35308007423069
 30
0.0
 10
-93.7644673039282
 20
-79.91150277681685
 30
0.0
 10
-62.59896668340216
 20
-93.55965094760352
 30
0.0
 10
-29.79969279666041
 20
-104.1004893138273
 30
0.0
 10
3.815418665267023
 20
-112.1809238308577
 30
0.0
 10
37.74616387161647
 20
-117.6723419015677
 30
0.0
 10
70.44131450929876
 20
-119.3035740123377
 30
0.0
 10
101.075603294001
 20
-118.0917300998918
 30
0.0
 10
123.5763488348415
 20
-114.8696331335127
 30
0.0
 10
143.7794158231528
 20
-109.4365844289345
 30
0.0
 10
157.6313679812173
 20
-104.292716199372
 30
0.0
 10
169.9855456379334
 20
-98.13056672615784
 30
0.0
 10
184.21796231796
 20
-88.62134676867566
 30
0.0
 10
197.5860780357711
 20
-74.58583084472636
 30
0.0
 10
205.9592134708462
 20
-55.10549105109332
 30
0.0
 10
206.4321059587679
 20
-36.92348136834276
 30
0.0
 10
201.034968897353
 20
-14.06425735596568
 30
0.0
 10
189.8629092781707
 20
5.685454473467411
 30
0.0
 10
169.6530598305821
 20
28.59477002080396
 30
0.0
 10
150.3150014928165
 20
45.64088100865468
 30
0.0
 10
129.9178708317124
 20
59.52935469097756
 30
0.0
 10
118.9057679413922
 20
66.06449972208623
 30
0.0
 10
116.6726188957805
 20
67.35366922537337
 30
0.0
  0
SPLINE
  5
CA
330
C3
100
AcDbEntity
  8
0
  6
Continuous
 62
     7
370
    25
100
AcDbSpline
210
0.0
220
0.0
230
1.0
 70
    11
 71
     3
 72
    49
 73
    45
 74
     0
 42
0.000000001
 43
0.00000001
 40
0.0
 40
0.0
 40
0.0
 40
0.0
 40
0.0062500000000001
 40
0.03125
 40
0.0625
 40
0.078125
 40
0.125
 40
0.140625
 40
0.171875
 40
0.203125
 40
0.234375
 40
0.2500000000001855
 40
0.265625
 40
0.28125
 40
0.296875
 40
0.328125
 40
0.34375
 40
0.375
 40
0.40625
 40
0.421875
 40
0.453125
 40
0.46875
 40
0.4999999999999999
 40
0.515625
 40
0.546875
 40
0.578125
 40
0.59375
 40
0.625
 40
0.65625
 40
0.671875
 40
0.703125
 40
0.71875
 40
0.734375
 40
0.75
 40
0.765625
 40
0.796875
 40
0.828125
 40
0.859375
 40
0.875
 40
0.921875
 40
0.9375
 40
0.96875
 40
0.99375
 40
1.0
 40
1.0
 40
1.0
 40
1.0
 10
130.8150474003753
 20
75.51791942012315
 30
0.0
 10
128.4026735463991
 20
76.9105532029803
 30
0.0
 10
116.1423581385507
 20
83.76003066799866
 30
0.0
 10
89.7878952926455
 20
96.27662215112403
 30
0.0
 10
56.93144173089029
 20
107.8468926805161
 30
0.0
 10
12.43858283564042
 20
119.6224968989132
 30
0.0
 10
-26.13241345792153
 20
125.726607266276
 30
0.0
 10
-70.94435732542583
 20
128.0606060603886
 30
0.0
 10
-106.6790586238241
 20
126.9306890861595
 30
0.0
 10
-145.0323986491745
 20
120.8109969061815
 30
0.0
 10
-172.4805388020941
 20
111.8684412829521
 30
0.0
 10
-190.8903646812886
 20
102.605221330981
 30
0.0
 10
-202.6934458630506
 20
94.66496706092192
 30
0.0
 10
-212.4352316604025
 20
85.84266012392877
 30
0.0
 10
-222.5972651832987
 20
73.05417556705862
 30
0.0
 10
-228.4415361031781
 20
58.91096489278574
 30
0.0
 10
-230.3641473029572
 20
39.78245706991415
 30
0.0
 10
-226.9075637645642
 20
19.47015300553595
 30
0.0
 10
-216.2917672051536
 20
-1.53991671767123
 30
0.0
 10
-200.8935570411789
 20
-22.35366727217501
 30
0.0
 10
-184.9529052974173
 20
-38.61110213741911
 30
0.0
 10
-160.8103221144129
 20
-58.16096580345685
 30
0.0
 10
-138.3942703640373
 20
-72.9597463947978
 30
0.0
 10
-107.3626307638904
 20
-89.71338871479301
 30
0.0
 10
-73.92407626271985
 20
-104.4704539491393
 30
0.0
 10
-38.72188304761585
 20
-115.9733819170224
 30
0.0
 10
-2.667503024015569
 20
-124.8625794327921
 30
0.0
 10
33.72694862174249
 20
-130.9909483405409
 30
0.0
 10
68.91270372984353
 20
-132.9863915430579
 30
0.0
 10
102.0478414131789
 20
-131.8764917223187
 30
0.0
 10
126.5472554456778
 20
-128.5026659341854
 30
0.0
 10
148.6999607417179
 20
-122.6362488516291
 30
0.0
 10
163.9823004698911
 20
-117.0124356170596
 30
0.0
 10
177.7367146100647
 20
-110.1986618860928
 30
0.0
 10
193.7828208376017
 20
-99.57089562441494
 30
0.0
 10
209.2734599695739
 20
-83.72542159455786
 30
0.0
 10
219.8742263671447
 20
-61.58450968050211
 30
0.0
 10
221.8315120508725
 20
-40.95530572589178
 30
0.0
 10
217.7884694826424
 20
-15.08592117650358
 30
0.0
 10
207.2146945008618
 20
7.180641026688125
 30
0.0
 10
186.8165395222291
 20
32.86582174250194
 30
0.0
 10
166.7740714648561
 20
51.83344864643706
 30
0.0
 10
145.0923498187827
 20
67.0475562060186
 30
0.0
 10
133.2274212543516
 20
74.125285637266
 30
0.0
 10
130.8150474003753
 20
75.51791942012315
 30
0.0
  0
SPLINE
  5
CB
330
C3
100
AcDbEntity
  8
0
  6
Continuous
 62
     7
370
    25
100
AcDbSpline
210
0.0
220
0.0
230
1.0
 70
    11
 71
     3
 72
    49
 73
    45
 74
     0
 42
0.000000001
 43
0.00000001
 40
0.0
 40
0.0
 40
0.0
 40
0.0
 40
0.0062500000000001
 40
0.03125
 40
0.0625
 40
0.078125
 40
0.125
 40
0.140625
 40
0.171875
 40
0.203125
 40
0.234375
 40
0.2500000000001855
 40
0.265625
 40
0.28125
 40
0.296875
 40
0.328125
 40
0.34375
 40
0.375
 40
0.40625
 40
0.421875
 40
0.453125
 40
0.46875
 40
0.4999999999999999
 40
0.515625
 40
0.546875
 40
0.578125
 40
0.59375
 40
0.625
 40
0.65625
 40
0.671875
 40
0.703125
 40
0.71875
 40
0.734375
 40
0.75
 40
0.765625
 40
0.796875
 40
0.828125
 40
0.859375
 40
0.875
 40
0.921875
 40
0.9375
 40
0.96875
 40
0.99375
 40
1.0
 40
1.0
 40
1.0
 40
1.0
 10
101.1162697096193
 20
-64.10794178750587
 30
0.0
 10
100.6802368332114
 20
-63.85622536589025
 30
0.0
 10
98.42894074043188
 20
-62.63233485610815
 30
0.0
 10
93.28103473145204
 20
-60.55059230192361
 30
0.0
 10
86.57165039798696
 20
-59.07262214240092
 30
0.0
 10
77.77061741432188
 20
-58.25709126717018
 30
0.0
 10
70.56255680358858
 20
-58.76017470238022
 30
0.0
 10
62.75607038313535
 20
-60.50932321782373
 30
0.0
 10
56.98394969326181
 20
-62.56216327949872
 30
0.0
 10
51.64870674545089
 20
-65.69373072925048
 30
0.0
 10
48.56690904605076
 20
-68.59113744367957
 30
0.0
 10
46.79898087138432
 20
-70.96476519851952
 30
0.0
 10
45.86125436787633
 20
-72.65223867773011
 30
0.0
 10
45.25731579125451
 20
-74.18945400628671
 30
0.0
 10
44.76897853379057
 20
-76.14217091101845
 30
0.0
 10
44.69254252456886
 20
-77.95162430894061
 30
0.0
 10
44.99122075036838
 20
-80.10978122269819
 30
0.0
 10
45.65781494904597
 20
-82.181550118262
 30
0.0
 10
46.78168617029039
 20
-84.1703481718487
 30
0.0
 10
48.23381078721005
 20
-86.09634843521708
 30
0.0
 10
49.65942074979203
 20
-87.58443163139235
 30
0.0
 10
51.80549799462173
 20
-89.37459917749605
 30
0.0
 10
53.8421315522537
 20
-90.75058785392139
 30
0.0
 10
56.75828293214823
 20
-92.30779445227607
 30
0.0
 10
59.80496142586948
 20
-93.60760161666131
 30
0.0
 10
63.02710518015275
 20
-94.63633550896446
 30
0.0
 10
66.36339698733094
 20
-95.474629206897
 30
0.0
 10
69.80846954457827
 20
-96.12342625291586
 30
0.0
 10
73.3972673887368
 20
-96.5082428925348
 30
0.0
 10
77.1357098839105
 20
-96.68066616170312
 30
0.0
 10
80.27011472375378
 20
-96.6365405922555
 30
0.0
 10
83.65268612529228
 20
-96.35462949340359
 30
0.0
 10
86.31550969971843
 20
-96.00598317357297
 30
0.0
 10
89.23861622688176
 20
-95.4646451850788
 30
0.0
 10
93.35030560592689
 20
-94.44404197311187
 30
0.0
 10
98.36930506328049
 20
-92.66495802907839
 30
0.0
 10
103.7939267599636
 20
-89.58498783332328
 30
0.0
 10
107.3499353450389
 20
-86.25281348623618
 30
0.0
 10
110.3798777413466
 20
-81.74622480162209
 30
0.0
 10
111.2513382340013
 20
-77.5850999841174
 30
0.0
 10
109.8386442534083
 20
-72.50437179047603
 30
0.0
 10
107.2784474422172
 20
-68.63112666031871
 30
0.0
 10
103.6723728457478
 20
-65.65930377962117
 30
0.0
 10
101.5523025860272
 20
-64.35965820912146
 30
0.0
 10
101.1162697096193
 20
-64.10794178750587
 30
0.0
  0
SPLINE
  5
CC
330
C3
100
AcDbEntity
  8
0
  6
Continuous
 62
     7
370
    25
100
AcDbSpline
210
0.0
220
0.0
230
1.0
 70
     8
 71
     3
 72
    24
 73
    20
 74
     0
 42
0.000000001
 43
0.00000001
 40
0.0
 40
0.0
 40
0.0
 40
0.0
 40
0.0638451006004369
 40
0.1277949348084184
 40
0.19065807809619
 40
0.2515279029863279
 40
0.3107963369348655
 40
0.3689576941729193
 40
0.433026135221788
 40
0.4947483939160988
 40
0.5535532963699679
 40
0.6093410767085317
 40
0.6791743334084204
 40
0.7390019518899444
 40
0.7903471808540414
 40
0.8600734934189884
 40
0.927281661828693
 40
0.9952582032339775
 40
1.0
 40
1.0
 40
1.0
 40
1.0
 10
94.04520189780487
 20
-76.35539046550635
 30
0.0
 10
92.96698953305727
 20
-75.8010548779697
 30
0.0
 10
90.80879606845797
 20
-74.69147435252596
 30
0.0
 10
86.9848397713093
 20
-73.51201089632819
 30
0.0
 10
82.95928962571583
 20
-72.72637996375536
 30
0.0
 10
78.84669204584657
 20
-72.39705741068417
 30
0.0
 10
74.80957836959125
 20
-72.50311718190665
 30
0.0
 10
70.79721513538442
 20
-73.02328697046754
 30
0.0
 10
66.95436518713544
 20
-73.95950752676961
 30
0.0
 10
63.4466560170919
 20
-75.27616006253281
 30
0.0
 10
60.54119051934416
 20
-76.86075120920452
 30
0.0
 10
58.04635616192082
 20
-78.79444137772862
 30
0.0
 10
56.18747939967452
 20
-80.97497248795452
 30
0.0
 10
55.0728299418349
 20
-83.25420056941871
 30
0.0
 10
54.63404610725365
 20
-85.60238635918624
 30
0.0
 10
54.94661611784465
 20
-88.07297355067422
 30
0.0
 10
56.31410141395965
 20
-90.62068983662999
 30
0.0
 10
57.59307727019001
 20
-92.32505232512456
 30
0.0
 10
58.62873913181721
 20
-93.05930526336779
 30
0.0
 10
58.69627227668348
 20
-93.10718422066469
 30
0.0
  0
SPLINE
  5
CD
330
C3
100
AcDbEntity
  8
0
  6
Continuous
 62
     7
370
    25
100
AcDbSpline
210
0.0
220
0.0
230
1.0
 70
     8
 71
     3
 72
    15
 73
    11
 74
     0
 42
0.000000001
 43
0.00000001
 40
0.0
 40
0.0
 40
0.0
 40
0.0
 40
0.068926747718557
 40
0.2066838180760623
 40
0.3317397434258353
 40
0.4591760551527934
 40
0.5900556054071153
 40
0.7252210989158903
 40
0.8627231461946724
 40
1.0
 40
1.0
 40
1.0
 40
1.0
 10
96.87397673024229
 20
-93.03550813962802
 30
0.0
 10
97.28522418452665
 20
-92.69155650632266
 30
0.0
 10
98.51839123271856
 20
-91.66018277757347
 30
0.0
 10
99.79843682542415
 20
-89.76903416058525
 30
0.0
 10
100.7231765579207
 20
-87.46174952040141
 30
0.0
 10
100.9006119389065
 20
-85.1287837836486
 30
0.0
 10
100.3318971423184
 20
-82.7552972124756
 30
0.0
 10
98.97050778390161
 20
-80.43121058931962
 30
0.0
 10
96.92752800350934
 20
-78.22373787796381
 30
0.0
 10
95.00545219096783
 20
-76.97783257814304
 30
0.0
 10
94.04520189780487
 20
-76.35539046550635
 30
0.0
  0
SPLINE
  5
CF
330
C3
100
AcDbEntity
  8
0
  6
Continuous
 62
     7
370
    25
100
AcDbSpline
210
0.0
220
0.0
230
1.0
 70
     8
 71
     3
 72
    11
 73
     7
 74
     0
 42
0.000000001
 43
0.00000001
 40
0.0
 40
0.0
 40
0.0
 40
0.0
 40
0.2592397952295508
 40
0.5258271883991358
 40
0.7892247021002026
 40
1.0
 40
1.0
 40
1.0
 40
1.0
 10
94.04520189781553
 20
-80.43809452494133
 30
0.0
 10
94.88925319963123
 20
-80.97655418865362
 30
0.0
 10
96.60127863347863
 20
-82.06873500443251
 30
0.0
 10
98.51278445741698
 20
-83.99141354130415
 30
0.0
 10
99.89241714920455
 20
-85.9161518763234
 30
0.0
 10
100.2905276923219
 20
-87.22397327797421
 30
0.0
 10
100.4674924323274
 20
-87.80531501412739
 30
0.0
  0
SPLINE
  5
D0
330
C3
100
AcDbEntity
  8
0
  6
Continuous
 62
     7
370
    25
100
AcDbSpline
210
0.0
220
0.0
230
1.0
 70
     8
 71
     3
 72
    18
 73
    14
 74
     0
 42
0.000000001
 43
0.00000001
 40
0.0
 40
0.0
 40
0.0
 40
0.0
 40
0.1003527133233208
 40
0.2008700485422993
 40
0.2996793062227613
 40
0.3953554353182968
 40
0.4885144734458216
 40
0.5799333913342295
 40
0.6806371546180827
 40
0.7776531523117576
 40
0.8700836044960133
 40
0.9577716976304247
 40
1.0
 40
1.0
 40
1.0
 40
1.0
 10
94.04520189782086
 20
-88.6035026438019
 30
0.0
 10
92.96698978249326
 20
-88.04916712978975
 30
0.0
 10
90.80879681717742
 20
-86.93958675153334
 30
0.0
 10
86.98483679417355
 20
-85.76012219713542
 30
0.0
 10
82.95930043558457
 20
-84.97449532790633
 30
0.0
 10
78.84665352771182
 20
-84.64515823584902
 30
0.0
 10
74.80971698244768
 20
-84.75127021355125
 30
0.0
 10
70.79668637476567
 20
-85.2712433030256
 30
0.0
 10
66.95653024084082
 20
-86.20825782197647
 30
0.0
 10
63.43908238471315
 20
-87.52204001988595
 30
0.0
 10
60.56742049311616
 20
-89.11659429268144
 30
0.0
 10
58.55528055390175
 20
-90.57073000405347
 30
0.0
 10
57.7731190647231
 20
-91.54944059882236
 30
0.0
 10
57.518883625549
 20
-91.86756277861252
 30
0.0
  0
LINE
  5
D3
330
C3
100
AcDbEntity
  8
0
  6
Continuous
 62
     7
370
    25
100
AcDbLine
 10
216.5605322817
 20
-67.0801672436
 30
0.0
 11
216.7653687264
 21
-66.5441378111
 31
0.0
  0
LINE
  5
D4
330
C3
100
AcDbEntity
  8
0
  6
Continuous
 62
     7
370
    25
100
AcDbLine
 10
94.0452018978
 20
-88.6035026438
 30
0.0
 11
94.0452018978
 21
-80.4380945249
 31
0.0
  0
ARC
  5
D5
330
C3
100
AcDbEntity
  8
0
  6
Continuous
 62
     7
370
    25
100
AcDbCircle
 10
88.6351203357
 20
-91.5842897821
 30
0.0
 40
12.38978011183199
100
AcDbArc
 50
16.4584167904
 51
64.1092353179
  0
ARC
  5
D6
330
C3
100
AcDbEntity
  8
0
  6
Continuous
 62
     7
370
    25
100
AcDbCircle
 10
85.9861373199
 20
-102.961015257
 30
0.0
 40
16.46471045322493
100
AcDbArc
 50
42.0963418424
 51
60.6939175995
  0
VIEWPORT
  5
FC
330
C3
100
AcDbEntity
  8
0
100
AcDbViewport
 10
0.0
 20
0.0
 30
0.0
 40
205.6
 41
156.0
 68
     1
 69
     1
 12
0.0
 22
-0.8285596487
 13
0.0
 23
0.0
 14
10.0
 24
10.0
 15
10.0
 25
10.0
 16
0.0
 26
0.0
 36
1.0
 17
0.0
 27
0.0
 37
0.0
 42
50.0
 43
0.0
 44
0.0
 45
402.7838232565
 50
0.0
 51
0.0
 72
   100
 90
   557152
  1

281
     0
 71
     1
 74
     0
110
0.0
120
0.0
130
0.0
111
1.0
121
0.0
131
0.0
112
0.0
122
1.0
132
0.0
 79
     0
146
0.0
170
     0
 61
     5
348
2F
292
     1
282
     1
141
0.0
142
0.0
 63
   256
361
FD
  0
ENDBLK
  5
C6
330
C3
100
AcDbEntity
  8
0
100
AcDbBlockEnd
  0
BLOCK
  5
D9
330
D7
100
AcDbEntity
  8
0
100
AcDbBlockBegin
  2
*Paper_Space6
 70
     0
 10
0.0
 20
0.0
 30
0.0
  3
*Paper_Space6
  1

  0
SPLINE
  5
DB
330
D7
100
AcDbEntity
  8
0
  6
Continuous
 62
     7
370
    25
100
AcDbSpline
210
0.0
220
0.0
230
1.0
 70
     8
 71
     3
 72
   113
 73
   109
 74
     0
 42
0.000000001
 43
0.00000001
 40
0.0
 40
0.0
 40
0.0
 40
0.0
 40
0.0084434039198341
 40
0.0148997874025018
 40
0.01936664031429
 40
0.0229419083046517
 40
0.0271952874348008
 40
0.0337644219958573
 40
0.0404653122860918
 40
0.0468816848048848
 40
0.0547156650755357
 40
0.061372546089561
 40
0.0677452079039418
 40
0.0746351392785822
 40
0.0834344011253391
 40
0.0929658262250306
 40
0.1022931772872741
 40
0.1102034227212245
 40
0.1171302539789218
 40
0.1240543758294285
 40
0.1311414815943217
 40
0.1439500652391288
 40
0.1570760505685221
 40
0.171290474806621
 40
0.1858527553037001
 40
0.1999212838255841
 40
0.2088113455981362
 40
0.2178290575339202
 40
0.2276251763640023
 40
0.2381091359311039
 40
0.2487529130781226
 40
0.258861267983747
 40
0.2760981443793575
 40
0.2971436413444895
 40
0.3162339927515603
 40
0.3373316077159655
 40
0.3545631626542872
 40
0.3760046019185449
 40
0.3982794976951886
 40
0.4147755304551555
 40
0.432220189585199
 40
0.447025561992852
 40
0.4642224517922356
 40
0.4829895234722824
 40
0.5030870849648783
 40
0.5185485677360354
 40
0.5323572463507155
 40
0.5445404487734788
 40
0.5562573733705806
 40
0.5685224728679318
 40
0.5785246352532887
 40
0.5888254561414322
 40
0.5996180408983411
 40
0.6115847921886666
 40
0.6249321667834382
 40
0.6353534259512912
 40
0.6465597674924078
 40
0.6579453430737151
 40
0.6676225249981469
 40
0.6754887825199195
 40
0.6815200952662328
 40
0.6872617733922576
 40
0.6933924417427427
 40
0.6997830058777716
 40
0.7059274388541679
 40
0.7119093201117196
 40
0.7186104090330233
 40
0.7261065303657646
 40
0.7314932880316513
 40
0.7360579568050543
 40
0.7404661134035534
 40
0.7463337525230871
 40
0.7601159093837451
 40
0.7694076842385424
 40
0.7791812166534732
 40
0.7898941252559813
 40
0.8020864066441293
 40
0.8143066784318151
 40
0.8236481430972089
 40
0.8327020726232254
 40
0.8413056843034857
 40
0.8505374268834193
 40
0.8609004796437908
 40
0.8719296310908029
 40
0.8778158649012742
 40
0.8827497729553
 40
0.887396290944624
 40
0.8919222808020355
 40
0.8965691319367922
 40
0.9018226914188829
 40
0.908581579504897
 40
0.9162362077411039
 40
0.9224591810963103
 40
0.9278259600077261
 40
0.9329046004222771
 40
0.9391699662076628
 40
0.9449488752033551
 40
0.9505323576315302
 40
0.955778517857606
 40
0.9602955375667569
 40
0.9646198541248662
 40
0.9703685509119895
 40
0.9755954183182128
 40
0.9800840265228915
 40
0.9837148417336739
 40
0.9874587650261746
 40
0.9928834098169529
 40
1.0
 40
1.0
 40
1.0
 40
1.0
 10
-242.597617295099
 20
3.826909347043161
 30
0.0
 10
-241.7802919709561
 20
2.370374672090128
 30
0.0
 10
-240.3379858010706
 20
-0.1999224743241268
 30
0.0
 10
-238.3971461779973
 20
-3.50165560564504
 30
0.0
 10
-236.9188789273494
 20
-5.958927875926834
 30
0.0
 10
-235.6459370356651
 20
-8.034671404179642
 30
0.0
 10
-234.135387288082
 20
-10.45417946213126
 30
0.0
 10
-232.2638992510292
 20
-13.3787013239452
 30
0.0
 10
-230.1163202928884
 20
-16.63598256853767
 30
0.0
 10
-227.7832317299033
 20
-20.07295459489098
 30
0.0
 10
-225.4043130154284
 20
-23.46946315320417
 30
0.0
 10
-222.9789389370972
 20
-26.82502715289584
 30
0.0
 10
-220.6191001638109
 20
-29.99968786424487
 30
0.0
 10
-217.9560493311298
 20
-33.4822912718218
 30
0.0
 10
-214.8469490660347
 20
-37.41539585904386
 30
0.0
 10
-211.3559866081695
 20
-41.66501544358648
 30
0.0
 10
-207.8968111160744
 20
-45.71410989597688
 30
0.0
 10
-204.7101185718436
 20
-49.3139710152652
 30
0.0
 10
-201.790037374257
 20
-52.51375299084027
 30
0.0
 10
-198.9365119999265
 20
-55.5532956822686
 30
0.0
 10
-195.2250215269989
 20
-59.39540350298515
 30
0.0
 10
-190.5582686061404
 20
-64.03470000647394
 30
0.0
 10
-184.7346474072682
 20
-69.52696423666153
 30
0.0
 10
-178.4986477164221
 20
-75.09149804999977
 30
0.0
 10
-171.9602004029096
 20
-80.59630566557924
 30
0.0
 10
-166.1003702250518
 20
-85.25262865464454
 30
0.0
 10
-161.0203404989997
 20
-89.10629762009457
 30
0.0
 10
-156.562749224527
 20
-92.36715832699701
 30
0.0
 10
-151.7888804198301
 20
-95.72813523241457
 30
0.0
 10
-146.6846590987834
 20
-99.17567155458242
 30
0.0
 10
-141.4633526574218
 20
-102.5521402854603
 30
0.0
 10
-135.0458511338751
 20
-106.527607770504
 30
0.0
 10
-126.7358929644642
 20
-111.3884114392751
 30
0.0
 10
-116.7227573182327
 20
-116.7868925133128
 30
0.0
 10
-105.8544403417794
 20
-122.1605055783237
 30
0.0
 10
-95.5181089491464
 20
-126.8376859860042
 30
0.0
 10
-84.65913763554153
 20
-131.3491054852751
 30
0.0
 10
-73.44218405804146
 20
-135.6161596517706
 30
0.0
 10
-62.26504552842911
 20
-139.4564009975674
 30
0.0
 10
-51.73642708196861
 20
-142.7535545861963
 30
0.0
 10
-42.521866033683
 20
-145.4035653846175
 30
0.0
 10
-33.11678354296221
 20
-147.8874126110158
 30
0.0
 10
-23.3892375292127
 20
-150.234975541235
 30
0.0
 10
-12.56266753684387
 20
-152.5731409651576
 30
0.0
 10
-1.993446374609631
 20
-154.5637934673204
 30
0.0
 10
7.676010536173257
 20
-156.1335236840133
 30
0.0
 10
15.8308523281442
 20
-157.2764075891673
 30
0.0
 10
23.25997285700027
 20
-158.1659399644722
 30
0.0
 10
30.41737585411339
 20
-158.8844282300165
 30
0.0
 10
37.17755672233496
 20
-159.4272598180943
 30
0.0
 10
43.6619847713367
 20
-159.8209130309166
 30
0.0
 10
49.83934382060687
 20
-160.0806791711829
 30
0.0
 10
56.40910580114399
 20
-160.2228997578561
 30
0.0
 10
63.62343986337751
 20
-160.2231184756012
 30
0.0
 10
70.70851814046084
 20
-160.0402050073358
 30
0.0
 10
77.59867944087516
 20
-159.6822130510109
 30
0.0
 10
84.06695913887441
 20
-159.1817673692514
 30
0.0
 10
90.36386271989491
 20
-158.5190884354718
 30
0.0
 10
96.02400554503603
 20
-157.7687287737968
 30
0.0
 10
100.6313741123449
 20
-157.0481135646694
 30
0.0
 10
104.4653966558278
 20
-156.3730975959785
 30
0.0
 10
107.9402488002087
 20
-155.7015538686106
 30
0.0
 10
111.461036923406
 20
-154.9585563546525
 30
0.0
 10
115.037223545196
 20
-154.1349228060943
 30
0.0
 10
118.5621322698622
 20
-153.252985081543
 30
0.0
 10
122.1172190972667
 20
-152.2930741422762
 30
0.0
 10
125.8876988821697
 20
-151.1949349141505
 30
0.0
 10
129.5175722250739
 20
-150.0491055225644
 30
0.0
 10
132.7272956829554
 20
-148.9624755191126
 30
0.0
 10
135.346749550517
 20
-148.0282494884603
 30
0.0
 10
138.0119752855182
 20
-147.0336423361415
 30
0.0
 10
142.279762098163
 20
-145.3595849965661
 30
0.0
 10
147.3690712754777
 20
-143.1729704981557
 30
0.0
 10
153.0484700950962
 20
-140.4690168009928
 30
0.0
 10
158.0370411795314
 20
-137.8973078355074
 30
0.0
 10
163.399676690621
 20
-134.8999644500575
 30
0.0
 10
169.0044407287498
 20
-131.4836013379452
 30
0.0
 10
174.2301902649986
 20
-128.0051947122311
 30
0.0
 10
178.8326632501157
 20
-124.7045040437348
 30
0.0
 10
182.7908183345911
 20
-121.6851918060849
 30
0.0
 10
186.6293384102973
 20
-118.5829923672845
 30
0.0
 10
190.5503725909944
 20
-115.2278452197037
 30
0.0
 10
194.6848607072326
 20
-111.4645649797489
 30
0.0
 10
198.2369389337615
 20
-108.0101274843295
 30
0.0
 10
201.0135623456139
 20
-105.1664704498292
 30
0.0
 10
202.9395423461011
 20
-103.1279051609892
 30
0.0
 10
204.668589608602
 20
-101.2439705567891
 30
0.0
 10
206.3346223952506
 20
-99.37792394379606
 30
0.0
 10
208.0487984426341
 20
-97.4045066507868
 30
0.0
 10
209.9928840546741
 20
-95.09923963660475
 30
0.0
 10
212.2389265835459
 20
-92.33920195678701
 30
0.0
 10
214.5447084715721
 20
-89.38164956127325
 30
0.0
 10
216.6372593586428
 20
-86.58428664794155
 30
0.0
 10
218.4100939099112
 20
-84.13104242955094
 30
0.0
 10
220.1487555237653
 20
-81.64876401520206
 30
0.0
 10
221.8906045041461
 20
-79.07590735709894
 30
0.0
 10
223.6434697783162
 20
-76.39082363800668
 30
0.0
 10
225.2545039938877
 20
-73.83615925426858
 30
0.0
 10
226.7076039624775
 20
-71.45438180524381
 30
0.0
 10
228.0169340992134
 20
-69.2425768554463
 30
0.0
 10
229.3439325414323
 20
-66.93817616260667
 30
0.0
 10
230.6959075386436
 20
-64.51512564587543
 30
0.0
 10
232.0292696544465
 20
-62.04125054789968
 30
0.0
 10
233.1549907274029
 20
-59.88642777811637
 30
0.0
 10
234.1359363536769
 20
-57.95885895762939
 30
0.0
 10
235.1707260717811
 20
-55.87445545234364
 30
0.0
 10
236.4596841204334
 20
-53.20595874705639
 30
0.0
 10
237.4132626379643
 20
-51.11944573506373
 30
0.0
 10
237.9543758162747
 20
-49.93544287976776
 30
0.0
  0
SPLINE
  5
DC
330
D7
100
AcDbEntity
  8
0
  6
Continuous
 62
     7
370
    25
100
AcDbSpline
210
0.0
220
0.0
230
1.0
 70
    11
 71
     3
 72
    49
 73
    45
 74
     0
 42
0.000000001
 43
0.00000001
 40
0.0
 40
0.0
 40
0.0
 40
0.0
 40
0.0062500000000001
 40
0.03125
 40
0.0625
 40
0.078125
 40
0.125
 40
0.140625
 40
0.171875
 40
0.203125
 40
0.234375
 40
0.2500000000001855
 40
0.265625
 40
0.28125
 40
0.296875
 40
0.328125
 40
0.34375
 40
0.375
 40
0.40625
 40
0.421875
 40
0.453125
 40
0.46875
 40
0.4999999999999999
 40
0.515625
 40
0.546875
 40
0.578125
 40
0.59375
 40
0.625
 40
0.65625
 40
0.671875
 40
0.703125
 40
0.71875
 40
0.734375
 40
0.75
 40
0.765625
 40
0.796875
 40
0.828125
 40
0.859375
 40
0.875
 40
0.921875
 40
0.9375
 40
0.96875
 40
0.99375
 40
1.0
 40
1.0
 40
1.0
 40
1.0
 10
77.00473917346022
 20
75.15898612270507
 30
0.0
 10
74.21161437690344
 20
75.9180975929844
 30
0.0
 10
60.14358963239359
 20
79.61452198804389
 30
0.0
 10
31.13408488286344
 20
85.99114467289553
 30
0.0
 10
-2.788324454459437
 20
91.01452935566392
 30
0.0
 10
-46.67154125061256
 20
94.92179072690254
 30
0.0
 10
-82.6562427605328
 20
95.214567896766
 30
0.0
 10
-122.0812619830177
 20
91.84631800577472
 30
0.0
 10
-152.0318741235327
 20
86.82223204597037
 30
0.0
 10
-181.7976250226169
 20
77.56862832097778
 30
0.0
 10
-201.0770817670314
 20
67.29204691661702
 30
0.0
 10
-212.6104585362482
 20
57.7829669410776
 30
0.0
 10
-219.1593895498543
 20
50.08012256693828
 30
0.0
 10
-223.5807128741121
 20
41.90862799693718
 30
0.0
 10
-226.6046571816203
 20
30.53581145543491
 30
0.0
 10
-225.2909140423652
 20
18.61504291252719
 30
0.0
 10
-218.2478634103927
 20
3.221850351658867
 30
0.0
 10
-205.8909417257087
 20
-12.43618678655639
 30
0.0
 10
-186.7806472365453
 20
-27.68495639174792
 30
0.0
 10
-163.4788936327742
 20
-42.0961480222736
 30
0.0
 10
-141.7727992502212
 20
-52.78524956748358
 30
0.0
 10
-111.1602121353707
 20
-64.92401448495335
 30
0.0
 10
-84.24134592066494
 20
-73.50924403826772
 30
0.0
 10
-48.69338311548634
 20
-82.37780315795888
 30
0.0
 10
-11.93523882480721
 20
-89.26977895806426
 30
0.0
 10
24.79389856921287
 20
-93.26465874482662
 30
0.0
 10
61.04358381092975
 20
-95.03827215952133
 30
0.0
 10
96.27012558109756
 20
-94.55709035205243
 30
0.0
 10
128.3411034134331
 20
-90.97360432783042
 30
0.0
 10
156.988485861614
 20
-85.2803067246743
 30
0.0
 10
176.8366668603364
 20
-79.11089571728472
 30
0.0
 10
193.3584343900066
 20
-71.4064983041994
 30
0.0
 10
203.9604259990413
 20
-64.91477693829934
 30
0.0
 10
212.6104585394239
 20
-57.78296693797803
 30
0.0
 10
221.342366490183
 20
-47.51250776579737
 30
0.0
 10
226.9326162329157
 20
-33.51549322260411
 30
0.0
 10
224.964859792079
 20
-15.63740216943263
 30
0.0
 10
216.1136597565095
 20
-0.0678150824323515
 30
0.0
 10
199.2612021280316
 20
18.59544713618956
 30
0.0
 10
178.4825007359044
 20
33.72974658250441
 30
0.0
 10
147.4526215556799
 20
50.18225950416758
 30
0.0
 10
120.2555981319391
 20
61.769827014829
 30
0.0
 10
93.66239079795486
 20
70.50483005227507
 30
0.0
 10
79.79786397001695
 20
74.39987465242578
 30
0.0
 10
77.00473917346022
 20
75.15898612270507
 30
0.0
  0
SPLINE
  5
DD
330
D7
100
AcDbEntity
  8
0
  6
Continuous
 62
     7
370
    25
100
AcDbSpline
210
0.0
220
0.0
230
1.0
 70
    11
 71
     3
 72
    49
 73
    45
 74
     0
 42
0.000000001
 43
0.00000001
 40
0.0
 40
0.0
 40
0.0
 40
0.0
 40
0.0062500000000001
 40
0.03125
 40
0.0625
 40
0.078125
 40
0.125
 40
0.140625
 40
0.171875
 40
0.203125
 40
0.234375
 40
0.2500000000001855
 40
0.265625
 40
0.28125
 40
0.296875
 40
0.328125
 40
0.34375
 40
0.375
 40
0.40625
 40
0.421875
 40
0.453125
 40
0.46875
 40
0.4999999999999999
 40
0.515625
 40
0.546875
 40
0.578125
 40
0.59375
 40
0.625
 40
0.65625
 40
0.671875
 40
0.703125
 40
0.71875
 40
0.734375
 40
0.75
 40
0.765625
 40
0.796875
 40
0.828125
 40
0.859375
 40
0.875
 40
0.921875
 40
0.9375
 40
0.96875
 40
0.99375
 40
1.0
 40
1.0
 40
1.0
 40
1.0
 10
86.3388402554673
 20
84.2693549288391
 30
0.0
 10
83.32154893613173
 20
85.0893900567023
 30
0.0
 10
68.10367184299619
 20
89.06247003062597
 30
0.0
 10
36.52087556602284
 20
95.72184949790372
 30
0.0
 10
-0.7896086845479156
 20
100.5854790058497
 30
0.0
 10
-49.32236048791896
 20
103.85389056648
 30
0.0
 10
-89.2956020793971
 20
103.1890266581119
 30
0.0
 10
-133.3023173606288
 20
98.36123445150966
 30
0.0
 10
-166.8644583696491
 20
91.96184678395188
 30
0.0
 10
-200.375333980869
 20
80.91099518582881
 30
0.0
 10
-222.0232390116207
 20
69.1130420914208
 30
0.0
 10
-234.8720347051807
 20
58.41675814530281
 30
0.0
 10
-242.08577615197
 20
49.85319778561143
 30
0.0
 10
-246.8788836956738
 20
40.85139275020777
 30
0.0
 10
-250.0441568291749
 20
28.40503839362357
 30
0.0
 10
-248.3911612399137
 20
15.46082512398031
 30
0.0
 10
-240.4407111844617
 20
-1.136065085970805
 30
0.0
 10
-226.745377599684
 20
-17.9236453790559
 30
0.0
 10
-205.8532459289743
 20
-34.21684928924817
 30
0.0
 10
-180.4925331646881
 20
-49.615173750837
 30
0.0
 10
-156.9448626404261
 20
-61.04734863119091
 30
0.0
 10
-123.8766168135076
 20
-74.03811041252459
 30
0.0
 10
-94.88880265187429
 20
-83.24188732152783
 30
0.0
 10
-56.66959201177905
 20
-92.8012311598322
 30
0.0
 10
-17.17242640399579
 20
-100.2926074885813
 30
0.0
 10
22.34467773293876
 20
-104.741981397136
 30
0.0
 10
61.33860613441565
 20
-106.8338694512533
 30
0.0
 10
99.24482928565396
 20
-106.5207984853382
 30
0.0
 10
133.8816365772742
 20
-102.8688584499709
 30
0.0
 10
164.9704444951128
 20
-96.88200204707044
 30
0.0
 10
186.6504829967007
 20
-90.27920747689625
 30
0.0
 10
204.8131620233668
 20
-81.90882668655733
 30
0.0
 10
216.536151207198
 20
-74.79041499154796
 30
0.0
 10
226.1905342597072
 20
-66.89016872367748
 30
0.0
 10
236.0828931743987
 20
-55.39038860984761
 30
0.0
 10
242.7748808327409
 20
-39.52773764017442
 30
0.0
 10
241.5740556193523
 20
-19.04298953969331
 30
0.0
 10
232.8888879221468
 20
-1.161688616088827
 30
0.0
 10
215.7899307820509
 20
20.27331601848403
 30
0.0
 10
194.2950497956542
 20
37.64389854100422
 30
0.0
 10
161.6649699998205
 20
56.43380549995736
 30
0.0
 10
132.8118052203899
 20
69.55203808287833
 30
0.0
 10
104.3130506039309
 20
79.22153675653637
 30
0.0
 10
89.35613157480282
 20
83.44931980097594
 30
0.0
 10
86.3388402554673
 20
84.2693549288391
 30
0.0
  0
SPLINE
  5
DE
330
D7
100
AcDbEntity
  8
0
  6
Continuous
 62
     7
370
    25
100
AcDbSpline
210
0.0
220
0.0
230
1.0
 70
     8
 71
     3
 72
    27
 73
    23
 74
     0
 42
0.000000001
 43
0.00000001
 40
0.0
 40
0.0
 40
0.0
 40
0.0
 40
0.0590073085485436
 40
0.11811930949327
 40
0.1762226334574999
 40
0.2324637411653279
 40
0.287256747904165
 40
0.3410248134977477
 40
0.4002335555746972
 40
0.4572844551515222
 40
0.5116385898562237
 40
0.5632056241845127
 40
0.6122055384482916
 40
0.6568822786981859
 40
0.6955107862107736
 40
0.7305993743681451
 40
0.782537693152246
 40
0.8324429127032623
 40
0.8822173710246592
 40
0.9330131488010491
 40
0.9860974842077067
 40
1.0
 40
1.0
 40
1.0
 40
1.0
 10
66.73744061692742
 20
-63.43730713228957
 30
0.0
 10
64.85264949695045
 20
-62.99472503930055
 30
0.0
 10
61.07972320854716
 20
-62.10877561195226
 30
0.0
 10
54.9720579793202
 20
-61.50114740864626
 30
0.0
 10
48.87774031066301
 20
-61.41883062923169
 30
0.0
 10
42.99901101625617
 20
-61.91424306355167
 30
0.0
 10
37.54273208534453
 20
-62.92478461160003
 30
0.0
 10
32.42330174362747
 20
-64.43622909521754
 30
0.0
 10
27.84414930499234
 20
-66.42078423575171
 30
0.0
 10
24.00183380295955
 20
-68.79626758058798
 30
0.0
 10
21.1827674871927
 20
-71.36832781390356
 30
0.0
 10
19.36299332627453
 20
-74.01292111453292
 30
0.0
 10
18.44636682116935
 20
-76.59816517028257
 30
0.0
 10
18.25620843047988
 20
-78.98866055245703
 30
0.0
 10
18.64148334332236
 20
-81.11934124959237
 30
0.0
 10
19.56645039972543
 20
-83.33834737957329
 30
0.0
 10
21.25015775007169
 20
-85.66379028184383
 30
0.0
 10
23.9123890069699
 20
-88.03977231142126
 30
0.0
 10
27.2289254024987
 20
-90.16521809030131
 30
0.0
 10
31.24631845825633
 20
-92.00932322482663
 30
0.0
 10
34.65503593174353
 20
-93.24947010920239
 30
0.0
 10
36.83280721727141
 20
-93.69993454012862
 30
0.0
 10
37.28478397311464
 20
-93.79342436317192
 30
0.0
  0
SPLINE
  5
DF
330
D7
100
AcDbEntity
  8
0
  6
Continuous
 62
     7
370
    25
100
AcDbSpline
210
0.0
220
0.0
230
1.0
 70
     8
 71
     3
 72
    22
 73
    18
 74
     0
 42
0.000000001
 43
0.00000001
 40
0.0
 40
0.0
 40
0.0
 40
0.0
 40
0.0074313171044177
 40
0.055101538257567
 40
0.1075809793663146
 40
0.1682773538661208
 40
0.2348470527656591
 40
0.3049043579635715
 40
0.3787481275966681
 40
0.4562556347694793
 40
0.5366947169749113
 40
0.609742272055765
 40
0.6841822790294004
 40
0.7605896291486306
 40
0.8395269260498864
 40
0.9198345788719209
 40
1.0
 40
1.0
 40
1.0
 40
1.0
 10
61.42820263620509
 20
-94.64585673052989
 30
0.0
 10
61.61451706723022
 20
-94.62295474461877
 30
0.0
 10
62.99599650147012
 20
-94.45314169060394
 30
0.0
 10
65.53000090990427
 20
-93.84464657555388
 30
0.0
 10
69.17768571632551
 20
-92.83390175356935
 30
0.0
 10
72.89696337185642
 20
-91.39482435542249
 30
0.0
 10
76.52479865593972
 20
-89.54881777623562
 30
0.0
 10
79.73606816939125
 20
-87.28170302459704
 30
0.0
 10
82.26766335951005
 20
-84.63171696914678
 30
0.0
 10
83.90650497405196
 20
-81.65731825178824
 30
0.0
 10
84.50294665682979
 20
-78.59036381630732
 30
0.0
 10
84.03614157124204
 20
-75.5606962415232
 30
0.0
 10
82.5763736615655
 20
-72.67052241850372
 30
0.0
 10
80.05252414287914
 20
-69.89146881369686
 30
0.0
 10
76.48100911729288
 20
-67.34681946409073
 30
0.0
 10
72.05998684894409
 20
-65.09297598617269
 30
0.0
 10
68.51057404690768
 20
-63.98887055059075
 30
0.0
 10
66.7374406169274
 20
-63.43730713228955
 30
0.0
  0
SPLINE
  5
E0
330
D7
100
AcDbEntity
  8
0
  6
Continuous
 62
     7
370
    25
100
AcDbSpline
210
0.0
220
0.0
230
1.0
 70
     8
 71
     3
 72
    21
 73
    17
 74
     0
 42
0.000000001
 43
0.00000001
 40
0.0
 40
0.0
 40
0.0
 40
0.0
 40
0.0772832068291968
 40
0.1546931915783549
 40
0.2307877588819115
 40
0.3044694544607471
 40
0.3762126985971042
 40
0.4466158486998163
 40
0.5241694046381407
 40
0.5988829541474505
 40
0.6700651027567052
 40
0.7375950858861784
 40
0.8221268349215455
 40
0.8945469606590287
 40
0.9566993249345361
 40
1.0
 40
1.0
 40
1.0
 40
1.0
 10
62.07048672769059
 20
-76.56407020737099
 30
0.0
 10
60.75675163859407
 20
-76.25560338989942
 30
0.0
 10
58.12712636605634
 20
-75.63816373582085
 30
0.0
 10
53.87030588439448
 20
-75.21456963108284
 30
0.0
 10
49.62239410373704
 20
-75.15733160146048
 30
0.0
 10
45.5247942804691
 20
-75.50227551874833
 30
0.0
 10
41.72207388271305
 20
-76.20684013269235
 30
0.0
 10
38.15489727250255
 20
-77.26060782790337
 30
0.0
 10
34.96248915506041
 20
-78.64322571558506
 30
0.0
 10
32.28513284405329
 20
-80.29907858521831
 30
0.0
 10
30.31949638327895
 20
-82.09185408886266
 30
0.0
 10
28.92756904889625
 20
-84.11911960670504
 30
0.0
 10
28.25767792214592
 20
-86.26258984969287
 30
0.0
 10
28.39002209826018
 20
-88.36818519758069
 30
0.0
 10
28.93824145783989
 20
-90.067039371634
 30
0.0
 10
29.72341860512035
 20
-90.99730095544193
 30
0.0
 10
30.04582468023865
 20
-91.37928098008688
 30
0.0
  0
SPLINE
  5
E1
330
D7
100
AcDbEntity
  8
0
  6
Continuous
 62
     7
370
    25
100
AcDbSpline
210
0.0
220
0.0
230
1.0
 70
     8
 71
     3
 72
    16
 73
    12
 74
     0
 42
0.000000001
 43
0.00000001
 40
0.0
 40
0.0
 40
0.0
 40
0.0
 40
0.0040429068294021
 40
0.1282933786043817
 40
0.2572668509713021
 40
0.374349022438517
 40
0.4936598032674417
 40
0.616194276556646
 40
0.7427414149124042
 40
0.8714761248556517
 40
1.0
 40
1.0
 40
1.0
 40
1.0
 10
72.69595190664336
 20
-91.40765828691316
 30
0.0
 10
72.71605928576922
 20
-91.3867580317783
 30
0.0
 10
73.35412583337676
 20
-90.7235311858256
 30
0.0
 10
73.98646392605052
 20
-89.25093248518611
 30
0.0
 10
74.464274199553
 20
-87.12827235358098
 30
0.0
 10
74.1242483285292
 20
-85.01317379512135
 30
0.0
 10
73.11148604834744
 20
-82.99971473121944
 30
0.0
 10
71.35055468282216
 20
-81.062589187499
 30
0.0
 10
68.86165560184796
 20
-79.288894746025
 30
0.0
 10
65.78011683277695
 20
-77.71808319228582
 30
0.0
 10
63.3063543100871
 20
-76.94853097497297
 30
0.0
 10
62.07048672769059
 20
-76.56407020737099
 30
0.0
  0
SPLINE
  5
E3
330
D7
100
AcDbEntity
  8
0
  6
Continuous
 62
     7
370
    25
100
AcDbSpline
210
0.0
220
0.0
230
1.0
 70
     8
 71
     3
 72
    13
 73
     9
 74
     0
 42
0.000000001
 43
0.00000001
 40
0.0
 40
0.0
 40
0.0
 40
0.0
 40
0.1802659157766045
 40
0.3656410836657009
 40
0.5487981255024286
 40
0.7371011117018694
 40
0.9214934911947503
 40
1.0
 40
1.0
 40
1.0
 40
1.0
 10
62.07048672770394
 20
-80.84990671088529
 30
0.0
 10
63.15159081477007
 20
-81.18069901387682
 30
0.0
 10
65.34444057367928
 20
-81.85165922070793
 30
0.0
 10
68.166717938264
 20
-83.19604606469633
 30
0.0
 10
70.60928792491622
 20
-84.75652237213579
 30
0.0
 10
72.46629712512562
 20
-86.5105083218701
 30
0.0
 10
73.58865039564162
 20
-88.03914925034864
 30
0.0
 10
73.83477270734748
 20
-88.97424465040189
 30
0.0
 10
73.90826941764622
 20
-89.25348156818902
 30
0.0
  0
SPLINE
  5
E4
330
D7
100
AcDbEntity
  8
0
  6
Continuous
 62
     7
370
    25
100
AcDbSpline
210
0.0
220
0.0
230
1.0
 70
     8
 71
     3
 72
    15
 73
    11
 74
     0
 42
0.000000001
 43
0.00000001
 40
0.0
 40
0.0
 40
0.0
 40
0.0
 40
0.1350950191944565
 40
0.2704116527072231
 40
0.4034288688927465
 40
0.5322282612417021
 40
0.6576391408003556
 40
0.7807074670854692
 40
0.9162750704242483
 40
1.0
 40
1.0
 40
1.0
 40
1.0
 10
62.07048672771062
 20
-89.42157971790849
 30
0.0
 10
60.75674494864984
 20
-89.11311013449344
 30
0.0
 10
58.12710628525098
 20
-88.49566494400047
 30
0.0
 10
53.87038579401842
 20
-88.07211217933816
 30
0.0
 10
49.62210407237097
 20
-88.01472120017534
 30
0.0
 10
45.52582790928728
 20
-88.36021237421828
 30
0.0
 10
41.71835446072064
 20
-89.06281187563482
 30
0.0
 10
38.16908588697144
 20
-90.12398351000546
 30
0.0
 10
35.29757793378531
 20
-91.3137988573908
 30
0.0
 10
33.85611664419439
 20
-92.26390424197551
 30
0.0
 10
33.30577303078823
 20
-92.6266503207255
 30
0.0
  0
LWPOLYLINE
  5
E5
330
D7
100
AcDbEntity
  8
0
  6
Continuous
 62
     7
370
    25
100
AcDbPolyline
 90
        9
 70
   128
 43
0.0
 10
62.0704867277
 20
-80.8499067109
 10
64.5241095369
 20
-81.6294899765
 10
66.7691021201
 20
-82.5610378658
 10
68.7701923039
 20
-83.6299143756
 10
70.4959399843
 20
-84.8193258657
 10
71.9192310979
 20
-86.1105849119
 10
73.0177036237
 20
-87.4834039138
 10
73.7740989241
 20
-88.9162138422
 10
73.9527165141
 20
-89.4182989492
  0
LINE
  5
E7
330
D7
100
AcDbEntity
  8
0
  6
Continuous
 62
     7
370
    25
100
AcDbLine
 10
62.0704867277
 20
-89.4215797179
 30
0.0
 11
62.0704867277
 21
-80.8499067109
 31
0.0
  0
ARC
  5
E8
330
D7
100
AcDbEntity
  8
0
  6
Continuous
 62
     7
370
    25
100
AcDbCircle
 10
55.887392765
 20
-113.7080092148
 30
0.0
 40
25.06115138331732
100
AcDbArc
 50
57.2072609254
 51
75.7164810156
  0
VIEWPORT
  5
FE
330
D7
100
AcDbEntity
  8
0
100
AcDbViewport
 10
0.0
 20
0.0
 30
0.0
 40
205.6
 41
156.0
 68
     1
 69
     1
 12
0.0
 22
-0.8285596487
 13
0.0
 23
0.0
 14
10.0
 24
10.0
 15
10.0
 25
10.0
 16
0.0
 26
0.0
 36
1.0
 17
0.0
 27
0.0
 37
0.0
 42
50.0
 43
0.0
 44
0.0
 45
402.7838232565
 50
0.0
 51
0.0
 72
   100
 90
   557152
  1

281
     0
 71
     1
 74
     0
110
0.0
120
0.0
130
0.0
111
1.0
121
0.0
131
0.0
112
0.0
122
1.0
132
0.0
 79
     0
146
0.0
170
     0
 61
     5
348
2F
292
     1
282
     1
141
0.0
142
0.0
 63
   256
361
FF
  0
ENDBLK
  5
DA
330
D7
100
AcDbEntity
  8
0
100
AcDbBlockEnd
  0
BLOCK
  5
EB
330
E9
100
AcDbEntity
  8
0
100
AcDbBlockBegin
  2
*Paper_Space7
 70
     0
 10
0.0
 20
0.0
 30
0.0
  3
*Paper_Space7
  1

  0
SPLINE
  5
ED
330
E9
100
AcDbEntity
  8
0
  6
Continuous
 62
     7
370
    25
100
AcDbSpline
210
0.0
220
0.0
230
1.0
 70
     8
 71
     3
 72
   126
 73
   122
 74
     0
 42
0.000000001
 43
0.00000001
 40
0.0
 40
0.0
 40
0.0
 40
0.0
 40
0.0092575042624653
 40
0.0164031453290288
 40
0.0209341103635339
 40
0.0238694000676176
 40
0.0265075150047734
 40
0.0295004579398561
 40
0.0328484308267869
 40
0.0365516271770162
 40
0.045897779801504
 40
0.0550611688964196
 40
0.0630540583222194
 40
0.0701175631707619
 40
0.0758172402969014
 40
0.0814314078854993
 40
0.0874726708930164
 40
0.0942754779951082
 40
0.1014647623786882
 40
0.1090329411834648
 40
0.1163556750181552
 40
0.1223764050318604
 40
0.1273688582765088
 40
0.132562175522016
 40
0.1413524460667041
 40
0.151250099686923
 40
0.1623622862146656
 40
0.1738757565885513
 40
0.1834622985925373
 40
0.1920572350368133
 40
0.2001381582677005
 40
0.2052762456664791
 40
0.2111412331865938
 40
0.217952376308524
 40
0.2235055237285723
 40
0.2294641464485172
 40
0.2372035977221192
 40
0.2448795664853849
 40
0.2522807551232733
 40
0.2674296701253414
 40
0.2821632990838562
 40
0.2955556923100313
 40
0.3080618478949574
 40
0.3202617810326969
 40
0.3262518883352118
 40
0.3334716384535617
 40
0.3406746768244247
 40
0.3464344454491096
 40
0.3513164919764418
 40
0.3546842518875654
 40
0.3590623664927668
 40
0.3640183262393372
 40
0.3681315626158171
 40
0.3714347101217645
 40
0.3746772077876216
 40
0.3836357648287284
 40
0.3949523718803008
 40
0.4017718173419764
 40
0.4117948451868932
 40
0.4212047511054999
 40
0.4303658135738964
 40
0.4398798821621476
 40
0.4492179903249039
 40
0.4574314263699463
 40
0.4658269651757067
 40
0.4749496410928811
 40
0.4848240270307375
 40
0.4973528678140491
 40
0.5113523450595799
 40
0.5267636500369965
 40
0.5435004420905826
 40
0.5614931103043997
 40
0.573360477943604
 40
0.585122070884846
 40
0.5954675925312727
 40
0.6043826871259775
 40
0.6119100057760646
 40
0.6180912438270049
 40
0.6229654632007862
 40
0.626570482573445
 40
0.6298128882006999
 40
0.6355082845038864
 40
0.6435179374211712
 40
0.6526405218578456
 40
0.6613431175019453
 40
0.6686614174281433
 40
0.6790669421717044
 40
0.6874696462194102
 40
0.6947523428226441
 40
0.7042881599369799
 40
0.7146550457727422
 40
0.7232775323861785
 40
0.7314026257925383
 40
0.7398905501057352
 40
0.7517136917704157
 40
0.7641196188429686
 40
0.7759616327902606
 40
0.7863093907956046
 40
0.7966923175368122
 40
0.8097752721140422
 40
0.8184014257933058
 40
0.8263502455222012
 40
0.8332079512033742
 40
0.8401805095440112
 40
0.8488055939610656
 40
0.8580188099606492
 40
0.8667470640576406
 40
0.8754472497204605
 40
0.8828364666808468
 40
0.8923602202762007
 40
0.9015941159842336
 40
0.9112861390438082
 40
0.923063653776936
 40
0.9359459799364569
 40
0.9461070737074585
 40
0.9549388098585236
 40
0.9621751390557066
 40
0.9686490625179827
 40
0.9770196337031107
 40
0.9874760368366386
 40
1.0
 40
1.0
 40
1.0
 40
1.0
 10
-252.8115273669333
 20
4.982437329988668
 30
0.0
 10
-251.9353397702048
 20
3.251745205149661
 30
0.0
 10
-250.3828444024304
 20
0.1851741684348318
 30
0.0
 10
-248.311907707372
 20
-3.678043252425462
 30
0.0
 10
-246.8358406162605
 20
-6.356975849713439
 30
0.0
 10
-245.7989159093926
 20
-8.201862964038686
 30
0.0
 10
-244.9092949430377
 20
-9.76243143302112
 30
0.0
 10
-243.9663893554596
 20
-11.39287677386555
 30
0.0
 10
-242.8986814073916
 20
-13.20978436754676
 30
0.0
 10
-241.132522228294
 20
-16.16252419937467
 30
0.0
 10
-238.6828978297212
 20
-20.12742633052067
 30
0.0
 10
-235.6650454700999
 20
-24.79610071253015
 30
0.0
 10
-232.8274319272262
 20
-29.00853974048061
 30
0.0
 10
-230.3359551017975
 20
-32.57719754096907
 30
0.0
 10
-228.0843763927904
 20
-35.70687736200492
 30
0.0
 10
-225.9175884772529
 20
-38.64018723202175
 30
0.0
 10
-223.571592795373
 20
-41.73132433744885
 30
0.0
 10
-220.977558966821
 20
-45.04954978471705
 30
0.0
 10
-218.1308345999488
 20
-48.57613789987148
 30
0.0
 10
-215.1572991226637
 20
-52.13806439866794
 30
0.0
 10
-212.2863757977368
 20
-55.4629297988535
 30
0.0
 10
-209.7247370827841
 20
-58.3414801377009
 30
0.0
 10
-207.4257808171862
 20
-60.86135004207448
 30
0.0
 10
-204.6990358508089
 20
-63.78210479966655
 30
0.0
 10
-201.208020954242
 20
-67.4051212086017
 30
0.0
 10
-196.7608691001437
 20
-71.82964996650797
 30
0.0
 10
-191.7877980886307
 20
-76.547847049946
 30
0.0
 10
-186.737670626042
 20
-81.09855550199607
 30
0.0
 10
-181.9886053148043
 20
-85.17606616311996
 30
0.0
 10
-177.7104881385995
 20
-88.69822170766321
 30
0.0
 10
-174.0980802134553
 20
-91.55874131191129
 30
0.0
 10
-170.8988676233267
 20
-94.01432163608132
 30
0.0
 10
-167.8826811228421
 20
-96.26962212651237
 30
0.0
 10
-164.7654373138199
 20
-98.53078866163466
 30
0.0
 10
-161.5976180575162
 20
-100.7610100691044
 30
0.0
 10
-158.2361330358697
 20
-103.0619265586521
 30
0.0
 10
-154.4697368521785
 20
-105.5543347742905
 30
0.0
 10
-150.392786418146
 20
-108.1502659888713
 30
0.0
 10
-144.9234081392417
 20
-111.5015317295895
 30
0.0
 10
-138.0723141776378
 20
-115.459719327671
 30
0.0
 10
-129.9846609561812
 20
-119.7729080385427
 30
0.0
 10
-122.2432792531215
 20
-123.5896996479545
 30
0.0
 10
-114.8839913273285
 20
-126.9561086108652
 30
0.0
 10
-108.8808749035453
 20
-129.5068916717944
 30
0.0
 10
-103.8726642329198
 20
-131.5195265805051
 30
0.0
 10
-99.82910246560569
 20
-133.0785184294698
 30
0.0
 10
-95.80765680195475
 20
-134.5591345087612
 30
0.0
 10
-92.2382470086288
 20
-135.8190386786889
 30
0.0
 10
-89.42596015060252
 20
-136.7773791082906
 30
0.0
 10
-86.88757023199979
 20
-137.6188245392226
 30
0.0
 10
-84.32995849093611
 20
-138.4447005399646
 30
0.0
 10
-81.61314545351857
 20
-139.2944006674023
 30
0.0
 10
-79.10680759510801
 20
-140.0540067270382
 30
0.0
 10
-76.94712094073044
 20
-140.6917715784924
 30
0.0
 10
-73.80261547998849
 20
-141.5991338975263
 30
0.0
 10
-69.02887224666085
 20
-142.9175510922803
 30
0.0
 10
-63.49923053389664
 20
-144.3358085187909
 30
0.0
 10
-57.73820673216024
 20
-145.7171918476576
 30
0.0
 10
-52.38463573442001
 20
-146.9214672322146
 30
0.0
 10
-46.5185537239486
 20
-148.1464586500848
 30
0.0
 10
-40.76705098474729
 20
-149.2638747384111
 30
0.0
 10
-35.01395547613803
 20
-150.3025216110315
 30
0.0
 10
-29.46779727436374
 20
-151.2315544733625
 30
0.0
 10
-24.12481801384542
 20
-152.0655519160847
 30
0.0
 10
-18.83722250419406
 20
-152.8362954273657
 30
0.0
 10
-13.21024705198154
 20
-153.5980978852164
 30
0.0
 10
-6.722183543667925
 20
-154.4067159790199
 30
0.0
 10
0.7767707795793053
 20
-155.2468345540641
 30
0.0
 10
9.453250302546508
 20
-156.085527701913
 30
0.0
 10
19.06102087397721
 20
-156.8419400221358
 30
0.0
 10
29.57761979135228
 20
-157.4477830036215
 30
0.0
 10
39.42215864173085
 20
-157.7668205148596
 30
0.0
 10
48.25034191924365
 20
-157.8389323779273
 30
0.0
 10
55.468327694468
 20
-157.7485802103155
 30
0.0
 10
62.05568917976721
 20
-157.526923487936
 30
0.0
 10
67.73275903652181
 20
-157.221727185172
 30
0.0
 10
72.5147399920598
 20
-156.875413475004
 30
0.0
 10
76.43453672364444
 20
-156.525781088235
 30
0.0
 10
79.52273783459454
 20
-156.2059386978086
 30
0.0
 10
81.99877375419399
 20
-155.9211985538347
 30
0.0
 10
84.63495235708326
 20
-155.593333641198
 30
0.0
 10
88.11936543255294
 20
-155.1175590616622
 30
0.0
 10
92.83300346742517
 20
-154.3840738124175
 30
0.0
 10
98.18291596836198
 20
-153.4178268484588
 30
0.0
 10
103.3969878380512
 20
-152.3290617810515
 30
0.0
 10
108.7029970648391
 20
-151.082266897802
 30
0.0
 10
113.9506108279689
 20
-149.6938163565244
 30
0.0
 10
119.0781661030082
 20
-148.1670456686778
 30
0.0
 10
123.9581308650989
 20
-146.5772328616376
 30
0.0
 10
129.1403864634186
 20
-144.7287372276848
 30
0.0
 10
134.4709038972063
 20
-142.6290363712527
 30
0.0
 10
139.4907682949801
 20
-140.4678586874814
 30
0.0
 10
144.0337046570862
 20
-138.3628145799448
 30
0.0
 10
149.0800764187066
 20
-135.8584893913055
 30
0.0
 10
154.7659193138319
 20
-132.8029243698048
 30
0.0
 10
160.9255237103179
 20
-129.1793032856348
 30
0.0
 10
166.5901930199288
 20
-125.5528656396008
 30
0.0
 10
171.857808668732
 20
-121.9242089809452
 30
0.0
 10
177.1672517038879
 20
-118.0153120870327
 30
0.0
 10
182.0803894972659
 20
-114.1278082178034
 30
0.0
 10
186.490895659046
 20
-110.4044145184611
 30
0.0
 10
189.896362591699
 20
-107.3875326674819
 30
0.0
 10
193.0070214887183
 20
-104.5122036252173
 30
0.0
 10
196.1426491125778
 20
-101.4981779638823
 30
0.0
 10
199.5423745404943
 20
-98.08516756712757
 30
0.0
 10
203.1038498468612
 20
-94.32844353282688
 30
0.0
 10
206.579229328924
 20
-90.47749744683969
 30
0.0
 10
209.7406402613225
 20
-86.80406068330505
 30
0.0
 10
212.9108827740142
 20
-82.95637498508599
 30
0.0
 10
216.0703310402107
 20
-78.94282470339438
 30
0.0
 10
219.4086890328254
 20
-74.48109472799268
 30
0.0
 10
222.8915146333744
 20
-69.58144920652163
 30
0.0
 10
226.6456487487709
 20
-63.98234523849468
 30
0.0
 10
230.2824181508026
 20
-58.17640034033259
 30
0.0
 10
233.4574189270429
 20
-52.76988597506291
 30
0.0
 10
235.9763994620332
 20
-48.24178055143196
 30
0.0
 10
238.0686138129318
 20
-44.30027410062733
 30
0.0
 10
240.0498960170851
 20
-40.41437496874234
 30
0.0
 10
242.2382683793946
 20
-35.92148597106993
 30
0.0
 10
244.8439812398219
 20
-30.28183449806836
 30
0.0
 10
246.6192490025064
 20
-26.05544045285122
 30
0.0
 10
247.5867439404776
 20
-23.75211757921563
 30
0.0
  0
SPLINE
  5
EE
330
E9
100
AcDbEntity
  8
0
  6
Continuous
 62
     7
370
    25
100
AcDbSpline
210
0.0
220
0.0
230
1.0
 70
    11
 71
     3
 72
    49
 73
    45
 74
     0
 42
0.000000001
 43
0.00000001
 40
0.0
 40
0.0
 40
0.0
 40
0.0
 40
0.0062500000000001
 40
0.03125
 40
0.0625
 40
0.078125
 40
0.125
 40
0.140625
 40
0.171875
 40
0.203125
 40
0.234375
 40
0.2500000000001855
 40
0.265625
 40
0.28125
 40
0.296875
 40
0.328125
 40
0.34375
 40
0.375
 40
0.40625
 40
0.421875
 40
0.453125
 40
0.46875
 40
0.4999999999999999
 40
0.515625
 40
0.546875
 40
0.578125
 40
0.59375
 40
0.625
 40
0.65625
 40
0.671875
 40
0.703125
 40
0.71875
 40
0.734375
 40
0.75
 40
0.765625
 40
0.796875
 40
0.828125
 40
0.859375
 40
0.875
 40
0.921875
 40
0.9375
 40
0.96875
 40
0.99375
 40
1.0
 40
1.0
 40
1.0
 40
1.0
 10
58.33630943450738
 20
51.44778905758665
 30
0.0
 10
55.3821309267957
 20
51.81998056501466
 30
0.0
 10
40.53346726869574
 20
53.61304525836471
 30
0.0
 10
10.2138092465334
 20
56.51047324907393
 30
0.0
 10
-24.65547158760529
 20
58.33598345569072
 30
0.0
 10
-69.14043000132436
 20
59.03343632542768
 30
0.0
 10
-104.9184299449797
 20
57.73572010406147
 30
0.0
 10
-143.2297922473653
 20
53.94478439485348
 30
0.0
 10
-171.7414868242761
 20
49.48162307668491
 30
0.0
 10
-199.0525621396632
 20
42.30982472406878
 30
0.0
 10
-215.7120748984175
 20
34.91401236395195
 30
0.0
 10
-224.8697401197805
 20
28.33092426040868
 30
0.0
 10
-229.5157363479309
 20
23.1136306555223
 30
0.0
 10
-231.9378008600355
 20
17.68320681876427
 30
0.0
 10
-232.2033426247424
 20
10.25453375869997
 30
0.0
 10
-228.0328206804971
 20
2.653051641180071
 30
0.0
 10
-217.3420081761316
 20
-6.9419286948494
 30
0.0
 10
-201.3145519834999
 20
-16.48759675015515
 30
0.0
 10
-178.6841569446589
 20
-25.49159163727316
 30
0.0
 10
-152.0960147001727
 20
-33.78462171755312
 30
0.0
 10
-127.9863910663596
 20
-39.75314289399168
 30
0.0
 10
-94.69022431071036
 20
-46.28493014938451
 30
0.0
 10
-65.91394424172762
 20
-50.68708241039725
 30
0.0
 10
-28.50687948191619
 20
-54.91491414585781
 30
0.0
 10
9.62568716956122
 20
-57.82338362392493
 30
0.0
 10
47.03273063752918
 20
-58.87248546919123
 30
0.0
 10
83.4298087303215
 20
-58.51484725565818
 30
0.0
 10
118.2693534708438
 20
-56.75138419911236
 30
0.0
 10
149.2315434471726
 20
-53.12585509122638
 30
0.0
 10
176.2891016802289
 20
-48.28672243706093
 30
0.0
 10
194.5007165983623
 20
-43.50512450613392
 30
0.0
 10
209.0423763915074
 20
-37.87507325424859
 30
0.0
 10
218.0014912469021
 20
-33.26824034642426
 30
0.0
 10
224.8697401221863
 20
-28.33092425828696
 30
0.0
 10
231.0644016912546
 20
-21.37453278360903
 30
0.0
 10
233.245377307008
 20
-12.15459620400483
 30
0.0
 10
226.9931669885163
 20
-0.7542213311478585
 30
0.0
 10
214.4657072347076
 20
8.879387430886288
 30
0.0
 10
193.2545903459362
 20
20.16945062957386
 30
0.0
 10
168.9961661797469
 20
29.03104531383559
 30
0.0
 10
134.248482230915
 20
38.31596707766968
 30
0.0
 10
104.4741370842724
 20
44.63478820939021
 30
0.0
 10
75.98498813508498
 20
49.14657346005161
 30
0.0
 10
61.29048794221899
 20
51.07559755015864
 30
0.0
 10
58.33630943450738
 20
51.44778905758665
 30
0.0
  0
SPLINE
  5
EF
330
E9
100
AcDbEntity
  8
0
  6
Continuous
 62
     7
370
    25
100
AcDbSpline
210
0.0
220
0.0
230
1.0
 70
    11
 71
     3
 72
    49
 73
    45
 74
     0
 42
0.000000001
 43
0.00000001
 40
0.0
 40
0.0
 40
0.0
 40
0.0
 40
0.0062500000000001
 40
0.03125
 40
0.0625
 40
0.078125
 40
0.125
 40
0.140625
 40
0.171875
 40
0.203125
 40
0.234375
 40
0.2500000000001855
 40
0.265625
 40
0.28125
 40
0.296875
 40
0.328125
 40
0.34375
 40
0.375
 40
0.40625
 40
0.421875
 40
0.453125
 40
0.46875
 40
0.4999999999999999
 40
0.515625
 40
0.546875
 40
0.578125
 40
0.59375
 40
0.625
 40
0.65625
 40
0.671875
 40
0.703125
 40
0.71875
 40
0.734375
 40
0.75
 40
0.765625
 40
0.796875
 40
0.828125
 40
0.859375
 40
0.875
 40
0.921875
 40
0.9375
 40
0.96875
 40
0.99375
 40
1.0
 40
1.0
 40
1.0
 40
1.0
 10
65.40752368518345
 20
57.68401384925151
 30
0.0
 10
62.2162530416109
 20
58.08607615805978
 30
0.0
 10
46.16005736290368
 20
60.00933854988205
 30
0.0
 10
13.21892253763272
 20
62.98211132623788
 30
0.0
 10
-24.97392164580505
 20
64.56513654733806
 30
0.0
 10
-73.91896888327932
 20
64.66033816230745
 30
0.0
 10
-113.4244849691276
 20
62.5829286852998
 30
0.0
 10
-155.9312463962885
 20
57.66547971630248
 30
0.0
 10
-187.6959035521323
 20
52.16996235338004
 30
0.0
 10
-218.2910321709558
 20
43.68931088597383
 30
0.0
 10
-236.9348704907891
 20
35.21865834015814
 30
0.0
 10
-247.1123071073913
 20
27.81881601715413
 30
0.0
 10
-252.210995503106
 20
22.02130687555634
 30
0.0
 10
-254.8022949263068
 20
16.04229297288432
 30
0.0
 10
-254.9498957378327
 20
7.918340110634469
 30
0.0
 10
-250.1965996366941
 20
-0.3264088337665144
 30
0.0
 10
-238.3158911383947
 20
-10.65695979381119
 30
0.0
 10
-220.6886794940089
 20
-20.87277945138528
 30
0.0
 10
-196.03898680751
 20
-30.4739593398449
 30
0.0
 10
-167.170339783493
 20
-39.31593255985327
 30
0.0
 10
-141.0546156560958
 20
-45.68563298646666
 30
0.0
 10
-105.1167991422247
 20
-52.66319771909507
 30
0.0
 10
-74.13874571908377
 20
-57.37716872010828
 30
0.0
 10
-33.91487315787037
 20
-61.93834341657767
 30
0.0
 10
7.079775341374189
 20
-65.11866910124652
 30
0.0
 10
47.3626197665572
 20
-66.34454487949309
 30
0.0
 10
86.55935171800314
 20
-66.07800335341324
 30
0.0
 10
124.0983719447055
 20
-64.31186482883088
 30
0.0
 10
157.5901693702953
 20
-60.5364349426763
 30
0.0
 10
186.9997523061247
 20
-55.40797172747595
 30
0.0
 10
206.9248908799696
 20
-50.27241330040611
 30
0.0
 10
222.9346594742046
 20
-44.14690573276048
 30
0.0
 10
232.8554228109024
 20
-39.09131748480074
 30
0.0
 10
240.535482073232
 20
-33.61903050279347
 30
0.0
 10
247.586011506058
 20
-25.82523490470273
 30
0.0
 10
250.4115628237702
 20
-15.361665523002
 30
0.0
 10
244.2934874108252
 20
-2.255585119788267
 30
0.0
 10
231.3748237417423
 20
8.869501509628453
 30
0.0
 10
209.2525129595592
 20
21.92944821413345
 30
0.0
 10
183.7456075263914
 20
32.19765289989376
 30
0.0
 10
146.8479122444518
 20
42.91762025887469
 30
0.0
 10
115.0620608117204
 20
50.1510819701903
 30
0.0
 10
84.4572965858027
 20
55.1843399387632
 30
0.0
 10
68.59879432875593
 20
57.28195154044327
 30
0.0
 10
65.40752368518345
 20
57.68401384925151
 30
0.0
  0
VIEWPORT
  5
100
330
E9
100
AcDbEntity
  8
0
100
AcDbViewport
 10
0.0
 20
0.0
 30
0.0
 40
205.6
 41
156.0
 68
     1
 69
     1
 12
0.0
 22
-0.8285596487
 13
0.0
 23
0.0
 14
10.0
 24
10.0
 15
10.0
 25
10.0
 16
0.0
 26
0.0
 36
1.0
 17
0.0
 27
0.0
 37
0.0
 42
50.0
 43
0.0
 44
0.0
 45
402.7838232565
 50
0.0
 51
0.0
 72
   100
 90
   557152
  1

281
     0
 71
     1
 74
     0
110
0.0
120
0.0
130
0.0
111
1.0
121
0.0
131
0.0
112
0.0
122
1.0
132
0.0
 79
     0
146
0.0
170
     0
 61
     5
348
2F
292
     1
282
     1
141
0.0
142
0.0
 63
   256
361
101
  0
ENDBLK
  5
EC
330
E9
100
AcDbEntity
  8
0
100
AcDbBlockEnd
  0
ENDSEC
  0
SECTION
  2
ENTITIES
  0
SPLINE
  5
73
330
1F
100
AcDbEntity
  8
0
  6
Continuous
 62
     7
370
    25
100
AcDbSpline
210
0.0
220
0.0
230
1.0
 70
     8
 71
     3
 72
    12
 73
     8
 74
     0
 42
0.000000001
 43
0.00000001
 40
0.0
 40
0.0
 40
0.0
 40
0.0
 40
0.1508213644853293
 40
0.319517204682754
 40
0.5115997609325795
 40
0.7308803766507246
 40
1.0
 40
1.0
 40
1.0
 40
1.0
 10
31.42984053307967
 20
183.4392645391997
 30
0.0
 10
30.93273331737706
 20
183.4875106174715
 30
0.0
 10
29.87960461421926
 20
183.5897206201388
 30
0.0
 10
27.75735134449084
 20
183.7801660671147
 30
0.0
 10
25.19558776479344
 20
183.9921400443321
 30
0.0
 10
22.05315339016516
 20
184.2308479385776
 30
0.0
 10
19.73562492035805
 20
184.3703262295747
 30
0.0
 10
18.45861410216798
 20
184.4471819354815
 30
0.0
  0
SPLINE
  5
74
330
1F
100
AcDbEntity
  8
0
  6
Continuous
 62
     7
370
    25
100
AcDbSpline
210
0.0
220
0.0
230
1.0
 70
     8
 71
     3
 72
     9
 73
     5
 74
     0
 42
0.000000001
 43
0.00000001
 40
0.0
 40
0.0
 40
0.0
 40
0.0
 40
0.2244585537408196
 40
1.0
 40
1.0
 40
1.0
 40
1.0
 10
-19.95988815613766
 20
184.3438601012688
 30
0.0
 10
-20.83585764517127
 20
184.2963283812051
 30
0.0
 10
-24.7384466730106
 20
184.0845667028394
 30
0.0
 10
-28.50709644169363
 20
183.7211270517644
 30
0.0
 10
-31.42984053374239
 20
183.4392645391419
 30
0.0
  0
SPLINE
  5
75
330
1F
100
AcDbEntity
  8
0
  6
Continuous
 62
     7
370
    25
100
AcDbSpline
210
0.0
220
0.0
230
1.0
 70
    11
 71
     3
 72
    49
 73
    45
 74
     0
 42
0.000000001
 43
0.00000001
 40
0.0
 40
0.0
 40
0.0
 40
0.0
 40
0.0062500000000001
 40
0.03125
 40
0.0625
 40
0.078125
 40
0.125
 40
0.140625
 40
0.171875
 40
0.203125
 40
0.234375
 40
0.2500000000001855
 40
0.265625
 40
0.28125
 40
0.296875
 40
0.328125
 40
0.34375
 40
0.375
 40
0.40625
 40
0.421875
 40
0.453125
 40
0.46875
 40
0.4999999999999999
 40
0.515625
 40
0.546875
 40
0.578125
 40
0.59375
 40
0.625
 40
0.65625
 40
0.671875
 40
0.703125
 40
0.71875
 40
0.734375
 40
0.75
 40
0.765625
 40
0.796875
 40
0.828125
 40
0.859375
 40
0.875
 40
0.921875
 40
0.9375
 40
0.96875
 40
0.99375
 40
1.0
 40
1.0
 40
1.0
 40
1.0
 10
-0.0000000000000184
 20
165.0
 30
0.0
 10
-3.158149667104579
 20
165.0
 30
0.0
 10
-18.94963498824986
 20
164.7819799365937
 30
0.0
 10
-50.38426456032173
 20
162.193249178952
 30
0.0
 10
-84.93773608188069
 20
154.9879220286223
 30
0.0
 10
-127.2893648761301
 20
141.2173364166725
 30
0.0
 10
-159.3801834102334
 20
124.9261961156548
 30
0.0
 10
-191.1962868298622
 20
100.7427971262692
 30
0.0
 10
-213.1326375360714
 20
78.13767545009767
 30
0.0
 10
-231.0729683378271
 20
48.35594295647171
 30
0.0
 10
-238.8120719734
 20
21.71146876939628
 30
0.0
 10
-240.3958640451543
 20
0.0000000034022941
 30
0.0
 10
-239.2080200405607
 20
-16.28360158609906
 30
0.0
 10
-235.7138196542926
 20
-32.37901980710733
 30
0.0
 10
-228.0829135866028
 20
-53.31956507582397
 30
0.0
 10
-216.1191581980092
 20
-73.17666919459148
 30
0.0
 10
-195.9418053117641
 20
-96.32274298132371
 30
0.0
 10
-170.8247829283036
 20
-117.4436460535052
 30
0.0
 10
-140.1058079731803
 20
-134.7099911506282
 30
0.0
 10
-106.4387915553457
 20
-148.5819212629338
 30
0.0
 10
-77.55573101783078
 20
-156.8070030987145
 30
0.0
 10
-39.48201235128379
 20
-163.3648129808905
 30
0.0
 10
-7.895079555998866
 20
-165.5443707433596
 30
0.0
 10
31.5803182239958
 20
-164.1832995538994
 30
0.0
 10
70.33496588345166
 20
-158.8632735576601
 30
0.0
 10
106.4387915553466
 20
-148.5819212629351
 30
0.0
 10
140.1058079731793
 20
-134.7099911506267
 30
0.0
 10
170.8247829283023
 20
-117.4436460535044
 30
0.0
 10
195.9418053117627
 20
-96.32274298132322
 30
0.0
 10
216.1191581980113
 20
-73.17666919459185
 30
0.0
 10
228.0829135866063
 20
-53.31956507582435
 30
0.0
 10
235.7138196542911
 20
-32.37901980710706
 30
0.0
 10
239.2080200405611
 20
-16.28360158609909
 30
0.0
 10
240.3958640451542
 20
0.000000003402301
 30
0.0
 10
238.812071973399
 20
21.71146876939629
 30
0.0
 10
231.0729683378248
 20
48.35594295647181
 30
0.0
 10
213.132637536069
 20
78.13767545009739
 30
0.0
 10
191.1962868298612
 20
100.7427971262684
 30
0.0
 10
159.3801834102346
 20
124.9261961156554
 30
0.0
 10
127.2893648761292
 20
141.2173364166723
 30
0.0
 10
84.93773608188124
 20
154.987922028622
 30
0.0
 10
50.38426456032165
 20
162.1932491789512
 30
0.0
 10
18.94963498824977
 20
164.7819799365936
 30
0.0
 10
3.158149667104486
 20
165.0
 30
0.0
 10
-0.0000000000000184
 20
165.0
 30
0.0
  0
SPLINE
  5
76
330
1F
100
AcDbEntity
  8
0
  6
Continuous
 62
     7
370
    25
100
AcDbSpline
210
0.0
220
0.0
230
1.0
 70
    11
 71
     3
 72
    49
 73
    45
 74
     0
 42
0.000000001
 43
0.00000001
 40
0.0
 40
0.0
 40
0.0
 40
0.0
 40
0.0062500000000001
 40
0.03125
 40
0.0625
 40
0.078125
 40
0.125
 40
0.140625
 40
0.171875
 40
0.203125
 40
0.234375
 40
0.2500000000001855
 40
0.265625
 40
0.28125
 40
0.296875
 40
0.328125
 40
0.34375
 40
0.375
 40
0.40625
 40
0.421875
 40
0.453125
 40
0.46875
 40
0.4999999999999999
 40
0.515625
 40
0.546875
 40
0.578125
 40
0.59375
 40
0.625
 40
0.65625
 40
0.671875
 40
0.703125
 40
0.71875
 40
0.734375
 40
0.75
 40
0.765625
 40
0.796875
 40
0.828125
 40
0.859375
 40
0.875
 40
0.921875
 40
0.9375
 40
0.96875
 40
0.99375
 40
1.0
 40
1.0
 40
1.0
 40
1.0
 10
0.0000000000014474
 20
185.0004141960883
 30
0.0
 10
-3.411611821806292
 20
185.0004141960886
 30
0.0
 10
-20.47073543238446
 20
184.7208334779157
 30
0.0
 10
-54.43744722897596
 20
181.4167064887702
 30
0.0
 10
-91.84263342332156
 20
172.3558504445998
 30
0.0
 10
-137.7275093716338
 20
155.3183219144971
 30
0.0
 10
-172.4781104003189
 20
135.5212968705845
 30
0.0
 10
-207.0238026038458
 20
106.693330300385
 30
0.0
 10
-230.9080422359698
 20
80.04107070896276
 30
0.0
 10
-250.5320752435871
 20
45.42529009042268
 30
0.0
 10
-258.9873053015559
 20
15.06298808221499
 30
0.0
 10
-260.6587074960732
 20
-9.30103516255158
 30
0.0
 10
-259.278906728826
 20
-27.3729134148373
 30
0.0
 10
-255.3611434728099
 20
-45.06764226720202
 30
0.0
 10
-246.8824581510208
 20
-67.91761321836093
 30
0.0
 10
-233.6912799520634
 20
-89.37383861439444
 30
0.0
 10
-211.6206908175522
 20
-114.1634105828036
 30
0.0
 10
-184.2964311196842
 20
-136.5993229612004
 30
0.0
 10
-151.0551658285227
 20
-154.8275847826497
 30
0.0
 10
-114.6726903972553
 20
-169.4337025637527
 30
0.0
 10
-83.48757982466283
 20
-178.0753272472513
 30
0.0
 10
-42.47000565967055
 20
-184.950132844118
 30
0.0
 10
-8.492768762335219
 20
-187.2262853412149
 30
0.0
 10
33.97107504934358
 20
-185.8047635676919
 30
0.0
 10
75.69130218149562
 20
-180.2357334181366
 30
0.0
 10
114.6726903972152
 20
-169.4337025637778
 30
0.0
 10
151.0551658284575
 20
-154.8275847826911
 30
0.0
 10
184.2964311195962
 20
-136.5993229612668
 30
0.0
 10
211.6206908174459
 20
-114.1634105829017
 30
0.0
 10
233.6912799519471
 20
-89.37383861453004
 30
0.0
 10
246.8824581509005
 20
-67.91761321852984
 30
0.0
 10
255.3611434726885
 20
-45.06764226740376
 30
0.0
 10
259.2789067287158
 20
-27.37291341505532
 30
0.0
 10
260.6587074959767
 20
-9.301035162786544
 30
0.0
 10
258.9873053014848
 20
15.06298808196756
 30
0.0
 10
250.5320752435586
 20
45.42529009015616
 30
0.0
 10
230.9080422359983
 20
80.04107070871004
 30
0.0
 10
207.0238026039111
 20
106.6933303001636
 30
0.0
 10
172.4781104004133
 20
135.5212968704186
 30
0.0
 10
137.7275093717305
 20
155.3183219143859
 30
0.0
 10
91.84263342340083
 20
172.3558504445447
 30
0.0
 10
54.43744722902946
 20
181.4167064887496
 30
0.0
 10
20.47073543239214
 20
184.7208334779116
 30
0.0
 10
3.411611821809126
 20
185.0004141960881
 30
0.0
 10
0.0000000000014474
 20
185.0004141960883
 30
0.0
  0
SPLINE
  5
77
330
1F
100
AcDbEntity
  8
0
  6
Continuous
 62
     7
370
    25
100
AcDbSpline
210
0.0
220
0.0
230
1.0
 70
    11
 71
     3
 72
    49
 73
    45
 74
     0
 42
0.000000001
 43
0.00000001
 40
0.0
 40
0.0
 40
0.0
 40
0.0
 40
0.0062500000000001
 40
0.03125
 40
0.0625
 40
0.078125
 40
0.125
 40
0.140625
 40
0.171875
 40
0.203125
 40
0.234375
 40
0.2500000000001855
 40
0.265625
 40
0.28125
 40
0.296875
 40
0.328125
 40
0.34375
 40
0.375
 40
0.40625
 40
0.421875
 40
0.453125
 40
0.46875
 40
0.4999999999999999
 40
0.515625
 40
0.546875
 40
0.578125
 40
0.59375
 40
0.625
 40
0.65625
 40
0.671875
 40
0.703125
 40
0.71875
 40
0.734375
 40
0.75
 40
0.765625
 40
0.796875
 40
0.828125
 40
0.859375
 40
0.875
 40
0.921875
 40
0.9375
 40
0.96875
 40
0.99375
 40
1.0
 40
1.0
 40
1.0
 40
1.0
 10
-0.000000000080833
 20
143.0
 30
0.0
 10
-0.6166436075374543
 20
143.0
 30
0.0
 10
-3.707666398548078
 20
142.9072093236843
 30
0.0
 10
-9.897665447990468
 20
141.8169698774054
 30
0.0
 10
-16.452249134016
 20
138.8830512438711
 30
0.0
 10
-23.67444473076857
 20
133.6587066322315
 30
0.0
 10
-28.1550976424218
 20
127.9456224697784
 30
0.0
 10
-31.53262431041257
 20
120.2831101674828
 30
0.0
 10
-33.09965220582111
 20
113.6871266996179
 30
0.0
 10
-33.03645188450856
 20
106.0787534429557
 30
0.0
 10
-31.66664338403341
 20
100.3506248394987
 30
0.0
 10
-30.00935394243969
 20
96.1931073959902
 30
0.0
 10
-28.6054782645271
 20
93.46308617901992
 30
0.0
 10
-27.14962672139998
 20
91.15313650999394
 30
0.0
 10
-25.10309413255322
 20
88.4159907486296
 30
0.0
 10
-22.9407836367689
 20
86.14558341195027
 30
0.0
 10
-20.08610819977949
 20
83.71330277267208
 30
0.0
 10
-17.07709163094192
 20
81.6469927602036
 30
0.0
 10
-13.84636050348034
 20
80.0056555561867
 30
0.0
 10
-10.46043877989394
 20
78.67334816010393
 30
0.0
 10
-7.629660549823864
 20
77.85868687377149
 30
0.0
 10
-3.91941866850741
 20
77.1834565379935
 30
0.0
 10
-0.7938835760522306
 20
76.93815624432561
 30
0.0
 10
3.175534304073945
 20
77.0927991955793
 30
0.0
 10
6.921965993314735
 20
77.65502155234955
 30
0.0
 10
10.46043878209458
 20
78.67334816079287
 30
0.0
 10
13.84636050692531
 20
80.0056555577078
 30
0.0
 10
17.0770916355912
 20
81.64699276286044
 30
0.0
 10
20.08610820541237
 20
83.71330277686356
 30
0.0
 10
22.94078364312499
 20
86.14558341797752
 30
0.0
 10
25.10309413922548
 20
88.41599075635128
 30
0.0
 10
27.14962672790572
 20
91.15313651942215
 30
0.0
 10
28.60547827068867
 20
93.46308618979945
 30
0.0
 10
30.00935394776275
 20
96.19310740770106
 30
0.0
 10
31.66664338778107
 20
100.3506248517938
 30
0.0
 10
33.03645188608674
 20
106.0787534556208
 30
0.0
 10
33.09965220429159
 20
113.6871267116085
 30
0.0
 10
31.53262430693765
 20
120.2831101778911
 30
0.0
 10
28.15509763741158
 20
127.9456224774847
 30
0.0
 10
23.67444472552475
 20
133.6587066371561
 30
0.0
 10
16.45224912973183
 20
138.8830512461117
 30
0.0
 10
9.897665445070253
 20
141.8169698780423
 30
0.0
 10
3.707666398122407
 20
142.9072093237341
 30
0.0
 10
0.6166436073757772
 20
143.0
 30
0.0
 10
-0.000000000080833
 20
143.0
 30
0.0
  0
SPLINE
  5
78
330
1F
100
AcDbEntity
  8
0
  6
Continuous
 62
     7
370
    25
100
AcDbSpline
210
0.0
220
0.0
230
1.0
 70
    11
 71
     3
 72
    49
 73
    45
 74
     0
 42
0.000000001
 43
0.00000001
 40
0.0
 40
0.0
 40
0.0
 40
0.0
 40
0.0062500000000001
 40
0.03125
 40
0.0625
 40
0.078125
 40
0.125
 40
0.140625
 40
0.171875
 40
0.203125
 40
0.234375
 40
0.2500000000001855
 40
0.265625
 40
0.28125
 40
0.296875
 40
0.328125
 40
0.34375
 40
0.375
 40
0.40625
 40
0.421875
 40
0.453125
 40
0.46875
 40
0.4999999999999999
 40
0.515625
 40
0.546875
 40
0.578125
 40
0.59375
 40
0.625
 40
0.65625
 40
0.671875
 40
0.703125
 40
0.71875
 40
0.734375
 40
0.75
 40
0.765625
 40
0.796875
 40
0.828125
 40
0.859375
 40
0.875
 40
0.921875
 40
0.9375
 40
0.96875
 40
0.99375
 40
1.0
 40
1.0
 40
1.0
 40
1.0
 10
-0.0000000000086719
 20
133.0
 30
0.0
 10
-0.4297819081883483
 20
133.0
 30
0.0
 10
-2.584213647644579
 20
132.9352942626199
 30
0.0
 10
-6.899052310378799
 20
132.1751940971185
 30
0.0
 10
-11.46572188448589
 20
130.1310860126944
 30
0.0
 10
-16.50321706118009
 20
126.4881545895322
 30
0.0
 10
-19.62175188553086
 20
122.5081723299255
 30
0.0
 10
-21.97807694692764
 20
117.1666903098093
 30
0.0
 10
-23.06949293891901
 20
112.5698120529608
 30
0.0
 10
-23.02548408574788
 20
107.2670297724305
 30
0.0
 10
-22.07099657970015
 20
103.2752803923565
 30
0.0
 10
-20.91507200462109
 20
100.3759113954577
 30
0.0
 10
-19.93743595027228
 20
98.47488006599303
 30
0.0
 10
-18.92231420970003
 20
96.86393042551137
 30
0.0
 10
-17.49619075910858
 20
94.95700706155671
 30
0.0
 10
-15.98854156408688
 20
93.37428084305337
 30
0.0
 10
-14.00015592199525
 20
91.67891604721208
 30
0.0
 10
-11.90565021944752
 20
90.23887143136285
 30
0.0
 10
-9.655458444544523
 20
89.09498656909484
 30
0.0
 10
-7.28769084869329
 20
88.16610659745164
 30
0.0
 10
-5.317802751023184
 20
87.59824784962663
 30
0.0
 10
-2.743358568042809
 20
87.12817995680317
 30
0.0
 10
-0.5486717136175603
 20
86.95745522723864
 30
0.0
 10
2.194686854456716
 20
87.06415818321713
 30
0.0
 10
4.825330726714991
 20
87.45628316268784
 30
0.0
 10
7.287690848931645
 20
88.16610659752638
 30
0.0
 10
9.65545844491749
 20
89.09498656925955
 30
0.0
 10
11.90565021995093
 20
90.23887143165035
 30
0.0
 10
14.00015592260532
 20
91.67891604766615
 30
0.0
 10
15.98854156477446
 20
93.37428084370518
 30
0.0
 10
17.49619075982864
 20
94.95700706238881
 30
0.0
 10
18.9223142104048
 20
96.86393042653361
 30
0.0
 10
19.93743595093469
 20
98.47488006715135
 30
0.0
 10
20.91507200520421
 20
100.3759113967387
 30
0.0
 10
22.07099658009716
 20
103.2752803936682
 30
0.0
 10
23.02548408591634
 20
107.2670297737919
 30
0.0
 10
23.0694929387541
 20
112.5698120542498
 30
0.0
 10
21.97807694655345
 20
117.1666903109289
 30
0.0
 10
19.62175188499392
 20
122.5081723307518
 30
0.0
 10
16.50321706061491
 20
126.4881545900621
 30
0.0
 10
11.46572188402681
 20
130.1310860129346
 30
0.0
 10
6.899052310064861
 20
132.1751940971871
 30
0.0
 10
2.584213647598832
 20
132.9352942626252
 30
0.0
 10
0.4297819081709968
 20
133.0
 30
0.0
 10
-0.0000000000086719
 20
133.0
 30
0.0
  0
SPLINE
  5
79
330
1B
100
AcDbEntity
 67
     1
  8
0
  6
Continuous
 62
     7
370
    25
100
AcDbSpline
210
0.0
220
0.0
230
1.0
 70
     8
 71
     3
 72
   137
 73
   133
 74
     0
 42
0.000000001
 43
0.00000001
 40
0.0
 40
0.0
 40
0.0
 40
0.0
 40
0.0072413798209844
 40
0.0129254061291112
 40
0.0170510881471411
 40
0.0196215042936981
 40
0.0216142458065077
 40
0.0237887249332286
 40
0.0261450262620764
 40
0.03354538696214
 40
0.0415527330343107
 40
0.0563702804802655
 40
0.0718275044291004
 40
0.0993125842441658
 40
0.126087295757452
 40
0.136014654246749
 40
0.1466639343573287
 40
0.1580395300310431
 40
0.1701448060126331
 40
0.1829833319641901
 40
0.1965589390042594
 40
0.2103813364418533
 40
0.2175988280232134
 40
0.2235911576488404
 40
0.2283558188072058
 40
0.2318908016918285
 40
0.2342999263070304
 40
0.2375367396842855
 40
0.2423957327814128
 40
0.2488804684349753
 40
0.2559802521860318
 40
0.2667618628630737
 40
0.2766519356536341
 40
0.2859103315695019
 40
0.2959088347863599
 40
0.3026766912931724
 40
0.3098198954459214
 40
0.3172342758551595
 40
0.3236092796459809
 40
0.3285498808901909
 40
0.3315675702449744
 40
0.3341689771159506
 40
0.33783890661793
 40
0.3426542833160624
 40
0.348620622339088
 40
0.3552634043110516
 40
0.3703011699464862
 40
0.3844178097196875
 40
0.3956796986493945
 40
0.4056646643872076
 40
0.4143904471088019
 40
0.4202927961487292
 40
0.4263135138894842
 40
0.4295641893545109
 40
0.4334015524231551
 40
0.4434793859901356
 40
0.4509675324519382
 40
0.459898956407841
 40
0.4671693057226349
 40
0.4734766326554321
 40
0.48043460270233
 40
0.4885050289247717
 40
0.4978211794596563
 40
0.5036199851742525
 40
0.5093870369557048
 40
0.5147105423148786
 40
0.5195799094371778
 40
0.524004382241134
 40
0.5280787788089683
 40
0.5328967305649359
 40
0.538330178252486
 40
0.5439367489525286
 40
0.5493539205224368
 40
0.5540573312138165
 40
0.5576641358886154
 40
0.5606954425933497
 40
0.5634716027658084
 40
0.5665104645825455
 40
0.5708887513985633
 40
0.5762467873891425
 40
0.5816922663678035
 40
0.5857521150828727
 40
0.5884895789529364
 40
0.5925231301322308
 40
0.5979535694350746
 40
0.6047035771338556
 40
0.6117509078560339
 40
0.6187608154982251
 40
0.6317506440710823
 40
0.6442802322578757
 40
0.6557936732653443
 40
0.6661839714405955
 40
0.675195825253929
 40
0.683891679011257
 40
0.6897628017415869
 40
0.6958483871251678
 40
0.7030790330278429
 40
0.711661748556489
 40
0.71774596940454
 40
0.7243602841569057
 40
0.7315029105659461
 40
0.7389681776186658
 40
0.7455676297206378
 40
0.751174406776173
 40
0.7557033779736607
 40
0.7591572067625912
 40
0.7618030241022425
 40
0.7648129904953674
 40
0.7683255722360015
 40
0.7723401885511798
 40
0.776856167455872
 40
0.787327941823259
 40
0.7978509917925936
 40
0.8083529422999784
 40
0.827054719969492
 40
0.8461924614834633
 40
0.8663266565191262
 40
0.8823735267940541
 40
0.8989990975660629
 40
0.9152862281456631
 40
0.9304849252241468
 40
0.9446002331331347
 40
0.9588505327445824
 40
0.9713947351669812
 40
0.9736458485634548
 40
0.9758290505028301
 40
0.9779463677083549
 40
0.9799978290353113
 40
0.9825215915584173
 40
0.986677404828387
 40
0.9925039053285996
 40
0.9999999999999999
 40
0.9999999999999999
 40
0.9999999999999999
 40
0.9999999999999999
 10
-260.2205717012023
 20
0.0000000000000833
 30
0.0
 10
-259.5723181134144
 20
-1.510142821178742
 30
0.0
 10
-258.4152263568777
 20
-4.205652483596167
 30
0.0
 10
-256.8249478705316
 20
-7.72921119088453
 30
0.0
 10
-255.6459657235357
 20
-10.27478380955196
 30
0.0
 10
-254.8051183646442
 20
-12.05470329464224
 30
0.0
 10
-254.1458899035484
 20
-13.43235335450392
 30
0.0
 10
-253.5013962229898
 20
-14.76342321810244
 30
0.0
 10
-252.310409594694
 20
-17.19213354463007
 30
0.0
 10
-250.4983532685534
 20
-20.78872429698904
 30
0.0
 10
-247.312569282659
 20
-26.85209476014217
 30
0.0
 10
-243.0862873322034
 20
-34.42296585712139
 30
0.0
 10
-236.3350916082191
 20
-45.60943996103383
 30
0.0
 10
-227.5592723827424
 20
-58.68260204412295
 30
0.0
 10
-218.7831677360202
 20
-70.16212522663501
 30
0.0
 10
-211.9761182647579
 20
-78.32981909436359
 30
0.0
 10
-207.2559516266022
 20
-83.72793021123637
 30
0.0
 10
-202.0753502460378
 20
-89.35587299755548
 30
0.0
 10
-196.4102449733843
 20
-95.18129622923011
 30
0.0
 10
-190.2373726800321
 20
-101.1669024277198
 30
0.0
 10
-183.6159016456062
 20
-107.1975956558688
 30
0.0
 10
-177.7726182702575
 20
-112.1801444718746
 30
0.0
 10
-173.1279183319131
 20
-115.9419248520441
 30
0.0
 10
-170.0056846290249
 20
-118.3890415168774
 30
0.0
 10
-167.5006864568303
 20
-120.2999784412085
 30
0.0
 10
-165.6104985187639
 20
-121.7118394937897
 30
0.0
 10
-163.9778786310957
 20
-122.9128859017182
 30
0.0
 10
-162.0951211626996
 20
-124.2778668208499
 30
0.0
 10
-159.4664279556872
 20
-126.1437587923958
 30
0.0
 10
-156.1143131426785
 20
-128.4529080744063
 30
0.0
 10
-151.6447511015828
 20
-131.4215294830555
 30
0.0
 10
-146.4872387493025
 20
-134.682802504393
 30
0.0
 10
-140.8538629018365
 20
-138.0418289066908
 30
0.0
 10
-135.2998271091408
 20
-141.1715055187061
 30
0.0
 10
-130.2838355062215
 20
-143.83549320291
 30
0.0
 10
-125.6374085695674
 20
-146.1742940610907
 30
0.0
 10
-121.4675499215291
 20
-148.1785087514555
 30
0.0
 10
-117.3510823974981
 20
-150.0602890873656
 30
0.0
 10
-113.6511787008631
 20
-151.6701132123142
 30
0.0
 10
-110.8080791744257
 20
-152.8561247399563
 30
0.0
 10
-108.7067546529639
 20
-153.7063193798789
 30
0.0
 10
-106.8460989488255
 20
-154.4426591234392
 30
0.0
 10
-104.6125311630992
 20
-155.3044343310078
 30
0.0
 10
-101.6928289766634
 20
-156.3918005889342
 30
0.0
 10
-98.16414020291619
 20
-157.6461966203194
 30
0.0
 10
-92.55335025089198
 20
-159.5303532419187
 30
0.0
 10
-85.24761599347659
 20
-161.738109029388
 30
0.0
 10
-76.964315770192
 20
-163.8680041364782
 30
0.0
 10
-69.70205239574415
 20
-165.451251065523
 30
0.0
 10
-63.49453027445996
 20
-166.599666634113
 30
0.0
 10
-58.35103440325651
 20
-167.399703193256
 30
0.0
 10
-53.97200164702431
 20
-167.978841275854
 30
0.0
 10
-50.62514241148195
 20
-168.3562454636206
 30
0.0
 10
-47.65920505550696
 20
-168.644250776054
 30
0.0
 10
-43.7371394190523
 20
-168.9787394743519
 30
0.0
 10
-38.91739539463747
 20
-169.2869326798032
 30
0.0
 10
-33.09331718466122
 20
-169.5662698660135
 30
0.0
 10
-27.77177029389072
 20
-169.7709147101376
 30
0.0
 10
-22.60775004930223
 20
-169.9354065294404
 30
0.0
 10
-17.89912722327848
 20
-170.0658754690627
 30
0.0
 10
-13.11529654045223
 20
-170.1733184481022
 30
0.0
 10
-7.583775481448153
 20
-170.2563088536958
 30
0.0
 10
-2.284553072262568
 20
-170.2907868203143
 30
0.0
 10
2.497213767488744
 20
-170.2845791027715
 30
0.0
 10
6.365984742267856
 20
-170.2575352844058
 30
0.0
 10
10.01592425632532
 20
-170.2139421393059
 30
0.0
 10
13.34322002270227
 20
-170.1593686890177
 30
0.0
 10
16.36964277653048
 20
-170.0974985444342
 30
0.0
 10
19.334207976947
 20
-170.0260424968235
 30
0.0
 10
22.59986744232155
 20
-169.9344136514695
 30
0.0
 10
26.22086172579928
 20
-169.8207509493065
 30
0.0
 10
29.95799010577901
 20
-169.6878350111757
 30
0.0
 10
33.46184366381985
 20
-169.5450096553657
 30
0.0
 10
36.46150553011032
 20
-169.4043868439416
 30
0.0
 10
38.9228320984065
 20
-169.273343342463
 30
0.0
 10
41.01526034140248
 20
-169.148604535268
 30
0.0
 10
43.01280004145825
 20
-169.0158747229389
 30
0.0
 10
45.33855533994014
 20
-168.843063780428
 30
0.0
 10
48.25289433310878
 20
-168.5931519104625
 30
0.0
 10
51.61983622438256
 20
-168.2505105783705
 30
0.0
 10
54.86975686176493
 20
-167.8624433656047
 30
0.0
 10
57.56228398374162
 20
-167.4982366412947
 30
0.0
 10
59.87697350559466
 20
-167.1589117349639
 30
0.0
 10
62.3975871684556
 20
-166.7622857406801
 30
0.0
 10
65.74666410531123
 20
-166.1859622453275
 30
0.0
 10
69.70282265934924
 20
-165.4300079539683
 30
0.0
 10
73.99094603566891
 20
-164.5189292732319
 30
0.0
 10
79.56195370061602
 20
-163.213801632309
 30
0.0
 10
86.24626022313383
 20
-161.4406418779351
 30
0.0
 10
93.8137824344281
 20
-159.1339929452087
 30
0.0
 10
100.8052146162451
 20
-156.7412962342147
 30
0.0
 10
107.0211367599061
 20
-154.4007654721392
 30
0.0
 10
112.6199216926068
 20
-152.1216523249221
 30
0.0
 10
117.2793684240509
 20
-150.0942102562478
 30
0.0
 10
121.3373198510615
 20
-148.2340610111904
 30
0.0
 10
125.0873980625256
 20
-146.442689006407
 30
0.0
 10
129.3353085230779
 20
-144.3214753402342
 30
0.0
 10
133.5496953386713
 20
-142.1074093670487
 30
0.0
 10
137.6150593719945
 20
-139.872201313866
 30
0.0
 10
141.3803811828925
 20
-137.7210996569146
 30
0.0
 10
145.3778544702203
 20
-135.3431601802954
 30
0.0
 10
149.3395472108613
 20
-132.8858828879856
 30
0.0
 10
152.9832371851808
 20
-130.5352671342799
 30
0.0
 10
156.058246109349
 20
-128.4840931138531
 30
0.0
 10
158.5367459764285
 20
-126.7850592903974
 30
0.0
 10
160.4626681134017
 20
-125.4364848745267
 30
0.0
 10
162.1008411444008
 20
-124.2708523446224
 30
0.0
 10
163.7395061298716
 20
-123.0875749565439
 30
0.0
 10
165.611649099117
 20
-121.7127385751674
 30
0.0
 10
167.7374644167378
 20
-120.1212298648493
 30
0.0
 10
171.0677043753659
 20
-117.5734348533758
 30
0.0
 10
175.4835766848799
 20
-114.0656195042562
 30
0.0
 10
180.8384983379709
 20
-109.586008111657
 30
0.0
 10
187.4639306899939
 20
-103.7539131584107
 30
0.0
 10
195.3026707265585
 20
-96.35574658958875
 30
0.0
 10
204.3260378737058
 20
-87.04502999399654
 30
0.0
 10
212.5421471833356
 20
-77.75335934163753
 30
0.0
 10
220.0258232647996
 20
-68.54471832281159
 30
0.0
 10
226.6538238990793
 20
-59.73607595082281
 30
0.0
 10
232.8525065800881
 20
-50.82381125850375
 30
0.0
 10
238.4342995697804
 20
-42.15802956285899
 30
0.0
 10
243.4979963362219
 20
-33.69771062473211
 30
0.0
 10
248.0021913800229
 20
-25.59991585415503
 30
0.0
 10
251.0298882557714
 20
-19.75345511998709
 30
0.0
 10
252.7433814024335
 20
-16.30779859947235
 30
0.0
 10
253.3980924975141
 20
-14.97490457825891
 30
0.0
 10
254.026775724865
 20
-13.67950482364719
 30
0.0
 10
254.6829728499393
 20
-12.31138961725688
 30
0.0
 10
255.529842859509
 20
-10.52286346019514
 30
0.0
 10
256.7232058672465
 20
-7.952344658788219
 30
0.0
 10
258.3561299056981
 20
-4.341466049519557
 30
0.0
 10
259.5492500774442
 20
-1.563212707681047
 30
0.0
 10
260.2205713663191
 20
0.0000000000000278
 30
0.0
  0
SPLINE
  5
7A
330
1B
100
AcDbEntity
 67
     1
  8
0
  6
Continuous
 62
     7
370
    25
100
AcDbSpline
210
0.0
220
0.0
230
1.0
 70
     8
 71
     3
 72
    11
 73
     7
 74
     0
 42
0.000000001
 43
0.00000001
 40
0.0
 40
0.0
 40
0.0
 40
0.0
 40
0.1217170880277706
 40
0.3976538634420989
 40
0.7260958657433738
 40
1.0
 40
1.0
 40
1.0
 40
1.0
 10
-44.1422037321836
 20
-168.8751520813509
 30
0.0
 10
-44.15108827927432
 20
-168.8799695912913
 30
0.0
 10
-44.18011439658292
 20
-168.8957085600017
 30
0.0
 10
-43.40948837178967
 20
-169.0505143572073
 30
0.0
 10
-42.09885800874721
 20
-169.3300356960181
 30
0.0
 10
-40.72741777666271
 20
-169.6735222949551
 30
0.0
 10
-40.10378440930948
 20
-169.8297155429905
 30
0.0
  0
SPLINE
  5
7B
330
1B
100
AcDbEntity
 67
     1
  8
0
  6
Continuous
 62
     7
370
    25
100
AcDbSpline
210
0.0
220
0.0
230
1.0
 70
     8
 71
     3
 72
    11
 73
     7
 74
     0
 42
0.000000001
 43
0.00000001
 40
0.0
 40
0.0
 40
0.0
 40
0.0
 40
0.2326760354868473
 40
0.5648814707689231
 40
0.8535062289925655
 40
1.0
 40
1.0
 40
1.0
 40
1.0
 10
40.10376313794664
 20
-169.8238662217751
 30
0.0
 10
40.48973116964258
 20
-169.7246649075012
 30
0.0
 10
41.42676875049183
 20
-169.4838279678826
 30
0.0
 10
42.48845664604632
 20
-169.230824908292
 30
0.0
 10
43.29015604351368
 20
-169.0474180858348
 30
0.0
 10
43.57501198230946
 20
-168.9850168036339
 30
0.0
 10
43.67091601273952
 20
-168.9640078175044
 30
0.0
  0
SPLINE
  5
7C
330
1B
100
AcDbEntity
 67
     1
  8
0
  6
Continuous
 62
     7
370
    25
100
AcDbSpline
210
0.0
220
0.0
230
1.0
 70
     8
 71
     3
 72
     9
 73
     5
 74
     0
 42
0.000000001
 43
0.00000001
 40
0.0
 40
0.0
 40
0.0
 40
0.0
 40
0.5000993285806987
 40
0.9999999999999999
 40
0.9999999999999999
 40
0.9999999999999999
 40
0.9999999999999999
 10
-40.10322077013431
 20
-169.6747184201045
 30
0.0
 10
-40.10644793604616
 20
-170.5624476755324
 30
0.0
 10
-40.1129009859253
 20
-172.3375535488942
 30
0.0
 10
-40.11936614152832
 20
-174.1126353938718
 30
0.0
 10
-40.1225980771551
 20
-175.0000000000002
 30
0.0
  0
SPLINE
  5
7D
330
1B
100
AcDbEntity
 67
     1
  8
0
  6
Continuous
 62
     7
370
    25
100
AcDbSpline
210
0.0
220
0.0
230
1.0
 70
     8
 71
     3
 72
     9
 73
     5
 74
     0
 42
0.000000001
 43
0.00000001
 40
0.0
 40
0.0
 40
0.0
 40
0.0
 40
0.499900671419215
 40
1.0
 40
1.0
 40
1.0
 40
1.0
 10
40.12259807654657
 20
-175.0000000000002
 30
0.0
 10
40.11936614092085
 20
-174.1126353938937
 30
0.0
 10
40.11290098531995
 20
-172.3375535489598
 30
0.0
 10
40.10644793544284
 20
-170.5624476756416
 30
0.0
 10
40.103220769532
 20
-169.6747184202353
 30
0.0
  0
SPLINE
  5
7E
330
1B
100
AcDbEntity
 67
     1
  8
0
  6
Continuous
 62
     7
370
    25
100
AcDbSpline
210
0.0
220
0.0
230
1.0
 70
     8
 71
     3
 72
    10
 73
     6
 74
     0
 42
0.000000001
 43
0.00000001
 40
0.0
 40
0.0
 40
0.0
 40
0.0
 40
0.3329296817333482
 40
0.7308411887813308
 40
1.0
 40
1.0
 40
1.0
 40
1.0
 10
-40.03943902863584
 20
-169.6780770933357
 30
0.0
 10
-40.03002052951504
 20
-169.6234070804882
 30
0.0
 10
-40.00934521135735
 20
-169.5033964615124
 30
0.0
 10
-39.33785282495425
 20
-169.3753915333531
 30
0.0
 10
-38.40509648786161
 20
-169.3347499989052
 30
0.0
 10
-38.02873498597241
 20
-169.3183513872468
 30
0.0
  0
SPLINE
  5
7F
330
1B
100
AcDbEntity
 67
     1
  8
0
  6
Continuous
 62
     7
370
    25
100
AcDbSpline
210
0.0
220
0.0
230
1.0
 70
     8
 71
     3
 72
    10
 73
     6
 74
     0
 42
0.000000001
 43
0.00000001
 40
0.0
 40
0.0
 40
0.0
 40
0.0
 40
0.269018951651369
 40
0.6670066060560713
 40
0.9999999999999999
 40
0.9999999999999999
 40
0.9999999999999999
 40
0.9999999999999999
 10
38.02948148351764
 20
-169.3183915366496
 30
0.0
 10
38.40556496389585
 20
-169.3347794591292
 30
0.0
 10
39.33802776735632
 20
-169.3754117360982
 30
0.0
 10
40.00933427655623
 20
-169.5033974707011
 30
0.0
 10
40.03001710690335
 20
-169.623407396404
 30
0.0
 10
40.03943902815455
 20
-169.6780770934599
 30
0.0
  0
SPLINE
  5
80
330
1B
100
AcDbEntity
 67
     1
  8
0
  6
Continuous
 62
     7
370
    25
100
AcDbSpline
210
0.0
220
0.0
230
1.0
 70
    24
 71
     3
 72
    53
 73
    49
 74
     0
 42
0.000000001
 43
0.00000001
 40
0.0
 40
0.0
 40
0.0
 40
0.0
 40
0.000644637420357
 40
0.0173310883342883
 40
0.0339779054819063
 40
0.050651260371738
 40
0.0674113812166362
 40
0.0843224862934809
 40
0.1014574614760747
 40
0.1189004410207878
 40
0.1385348256709052
 40
0.1587111024094033
 40
0.1794601315815996
 40
0.2007847149164084
 40
0.2226742384360732
 40
0.2464849882889706
 40
0.270858602665871
 40
0.2957282177222034
 40
0.3210280413417333
 40
0.3467131486802185
 40
0.372780994793032
 40
0.4039994884072923
 40
0.4357065758355671
 40
0.4677655912756346
 40
0.4999992380238323
 40
0.5273541712904709
 40
0.55459779158439
 40
0.5816304869308719
 40
0.608359808744242
 40
0.6347098149382051
 40
0.6606692221062015
 40
0.684795339419162
 40
0.70857314235825
 40
0.731959664017033
 40
0.7548980531003162
 40
0.7773329120476132
 40
0.8005305137694676
 40
0.8230917324144617
 40
0.8450047699609058
 40
0.8662776254042431
 40
0.8869567396721239
 40
0.9071450476933844
 40
0.9258464717073099
 40
0.9443319642881187
 40
0.9626895831770164
 40
0.981000353021748
 40
0.999350745585312
 40
1.0
 40
1.0
 40
1.0
 40
1.0
 10
-260.1987808888368
 20
0.0000000000000833
 30
0.0
 10
-260.2060385316868
 20
0.0000000000000833
 30
0.0
 10
-260.4011603867933
 20
0.0000000000000833
 30
0.0
 10
-259.7373494122716
 20
0.0000000000000833
 30
0.0
 10
-258.2078190781706
 20
0.0000000000000833
 30
0.0
 10
-255.5107898889244
 20
0.0000000000000971
 30
0.0
 10
-251.8432373695615
 20
0.0000000000000833
 30
0.0
 10
-247.1812535783157
 20
0.0000000000000694
 30
0.0
 10
-241.5565022563617
 20
0.0000000000000694
 30
0.0
 10
-234.7589229910722
 20
0.0000000000000833
 30
0.0
 10
-226.6980274907824
 20
0.0000000000000833
 30
0.0
 10
-217.3079106722738
 20
0.0000000000000833
 30
0.0
 10
-206.8763215588741
 20
0.0000000000000833
 30
0.0
 10
-195.4555530690898
 20
0.0000000000000833
 30
0.0
 10
-182.8426965657701
 20
0.0000000000000833
 30
0.0
 10
-169.0464925598737
 20
0.0000000000000833
 30
0.0
 10
-154.1185234735991
 20
0.0000000000000833
 30
0.0
 10
-138.419424660381
 20
0.0000000000000833
 30
0.0
 10
-122.04567298939
 20
0.0000000000000833
 30
0.0
 10
-105.0756055233105
 20
0.0000000000000833
 30
0.0
 10
-86.50541827576937
 20
0.0000000000000833
 30
0.0
 10
-66.31042668204604
 20
0.0000000000000833
 30
0.0
 10
-44.52810677512006
 20
0.0000000000000833
 30
0.0
 10
-22.36306876290473
 20
0.0000000000000833
 30
0.0
 10
-1.130532372514857
 20
0.0000000000000694
 30
0.0
 10
18.9850918779099
 20
0.0000000000000694
 30
0.0
 10
37.84986769429494
 20
0.0000000000000694
 30
0.0
 10
56.47887983813996
 20
0.0000000000000694
 30
0.0
 10
74.76566193741247
 20
0.0000000000000694
 30
0.0
 10
92.62194319617127
 20
0.0000000000000555
 30
0.0
 10
109.6575174135412
 20
0.0000000000000555
 30
0.0
 10
125.8464090732234
 20
0.0000000000000555
 30
0.0
 10
141.1640503428239
 20
0.0000000000000555
 30
0.0
 10
155.8683965875994
 20
0.0000000000000555
 30
0.0
 10
169.8767125301122
 20
0.0000000000000555
 30
0.0
 10
183.3586533955988
 20
0.0000000000000555
 30
0.0
 10
196.1750220078096
 20
0.0000000000000278
 30
0.0
 10
208.1967101727202
 20
0.0000000000000139
 30
0.0
 10
219.0991004074326
 20
0.0000000000000139
 30
0.0
 10
228.8210632988119
 20
0.0000000000000416
 30
0.0
 10
237.3111201419106
 20
0.0000000000000416
 30
0.0
 10
244.3961129453119
 20
0.0000000000000416
 30
0.0
 10
250.1254511148422
 20
0.0000000000000416
 30
0.0
 10
254.5455401320658
 20
0.0000000000000278
 30
0.0
 10
257.7913705592846
 20
0.0000000000000139
 30
0.0
 10
259.6579756506906
 20
0.0000000000000139
 30
0.0
 10
260.400480053518
 20
0.0000000000000416
 30
0.0
 10
260.2072784135179
 20
0.0000000000000278
 30
0.0
 10
260.2006763425511
 20
0.0000000000000278
 30
0.0
  0
SPLINE
  5
81
330
1B
100
AcDbEntity
 67
     1
  8
0
  6
Continuous
 62
     7
370
    25
100
AcDbSpline
210
0.0
220
0.0
230
1.0
 70
    24
 71
     3
 72
    31
 73
    27
 74
     0
 42
0.000000001
 43
0.00000001
 40
0.0
 40
0.0
 40
0.0
 40
0.0
 40
0.0402205999689921
 40
0.0878729235800141
 40
0.1299240049258366
 40
0.1668763491731139
 40
0.2005168277792435
 40
0.2322029156427384
 40
0.2631606758513151
 40
0.294223518913234
 40
0.3421453447228359
 40
0.3922913785450504
 40
0.4449229444778783
 40
0.4999996397327466
 40
0.5550106642771254
 40
0.6077047660399081
 40
0.6578546552665526
 40
0.705776481072517
 40
0.7368393241318324
 40
0.7677970843376419
 40
0.7994831721981932
 40
0.8331236508013437
 40
0.8700759950456186
 40
0.9121270763893738
 40
0.9597793999995269
 40
1.0
 40
1.0
 40
1.0
 40
1.0
 10
-40.05984743382952
 20
-175.0000000000002
 30
0.0
 10
-40.05294437862561
 20
-175.0000000000001
 30
0.0
 10
-40.03786276266594
 20
-175.0000000000001
 30
0.0
 10
-39.22723811917582
 20
-175.0000000000001
 30
0.0
 10
-37.86874203956677
 20
-175.0
 30
0.0
 10
-36.04478883400661
 20
-175.0000000000001
 30
0.0
 10
-33.81225410713594
 20
-175.0000000000003
 30
0.0
 10
-31.18470151348468
 20
-175.0
 30
0.0
 10
-28.19693578496339
 20
-175.0000000000002
 30
0.0
 10
-24.30208558462716
 20
-175.0
 30
0.0
 10
-19.31919769054456
 20
-175.0000000000002
 30
0.0
 10
-13.23560293258355
 20
-175.0
 30
0.0
 10
-6.739008925149359
 20
-174.9999999999999
 30
0.0
 10
-0.0027597192054619
 20
-175.0000000000002
 30
0.0
 10
6.736101135309376
 20
-175.0
 30
0.0
 10
13.23273938548789
 20
-175.0000000000001
 30
0.0
 10
19.31905500598536
 20
-175.0000000000001
 30
0.0
 10
24.30208459651539
 20
-174.9999999999997
 30
0.0
 10
28.19693599771196
 20
-175.0000000000005
 30
0.0
 10
31.18470145331278
 20
-175.0
 30
0.0
 10
33.81225412243126
 20
-174.9999999999997
 30
0.0
 10
36.04478882724133
 20
-174.9999999999997
 30
0.0
 10
37.86874203966462
 20
-175.0000000000003
 30
0.0
 10
39.22723811736585
 20
-174.9999999999997
 30
0.0
 10
40.0378627619761
 20
-175.0000000000003
 30
0.0
 10
40.05294437807628
 20
-175.0000000000001
 30
0.0
 10
40.05984743334749
 20
-175.0000000000001
 30
0.0
  0
VIEWPORT
  5
F0
330
1B
100
AcDbEntity
 67
     1
  8
0
100
AcDbViewport
 10
0.0
 20
0.0
 30
0.0
 40
205.6
 41
156.0
 68
     1
 69
     1
 12
0.0
 22
-0.8285596487
 13
0.0
 23
0.0
 14
10.0
 24
10.0
 15
10.0
 25
10.0
 16
0.0
 26
0.0
 36
1.0
 17
0.0
 27
0.0
 37
0.0
 42
50.0
 43
0.0
 44
0.0
 45
402.7838232565
 50
0.0
 51
0.0
 72
   100
 90
   557152
  1

281
     0
 71
     1
 74
     0
110
0.0
120
0.0
130
0.0
111
1.0
121
0.0
131
0.0
112
0.0
122
1.0
132
0.0
 79
     0
146
0.0
170
     0
 61
     5
348
2F
292
     1
282
     1
141
0.0
142
0.0
 63
   256
361
F1
  0
ENDSEC
  0
SECTION
  2
OBJECTS
  0
DICTIONARY
  5
C
330
0
100
AcDbDictionary
281
     1
  3
ACAD_DETAILVIEWSTYLE
350
109
  3
ACAD_GROUP
350
D
  3
ACAD_LAYOUT
350
1A
  3
ACAD_MATERIAL
350
43
  3
ACAD_MLEADERSTYLE
350
6B
  3
ACAD_MLINESTYLE
350
17
  3
ACAD_PLOTSETTINGS
350
19
  3
ACAD_PLOTSTYLENAME
350
E
  3
ACAD_SCALELIST
350
47
  3
ACAD_SECTIONVIEWSTYLE
350
10A
  3
ACAD_TABLESTYLE
350
69
  3
ACAD_VISUALSTYLE
350
2A
  3
ACDB_RECOMPOSE_DATA
350
106
  3
AcDbVariableDictionary
350
102
  0
SUN
  5
6D
330
29
100
AcDbSun
 90
        1
290
     0
 63
     7
421
 16777215
 40
1.0
291
     1
 91
  2455826
 92
 54000000
292
     0
 70
     2
 71
   256
280
     1
  0
SUN
  5
F3
330
F2
100
AcDbSun
 90
        1
290
     0
 63
     7
421
 16777215
 40
1.0
291
     1
 91
  2455826
 92
 54000000
292
     0
 70
     2
 71
   256
280
     1
  0
SUN
  5
F5
330
F4
100
AcDbSun
 90
        1
290
     0
 63
     7
421
 16777215
 40
1.0
291
     1
 91
  2455826
 92
 54000000
292
     0
 70
     2
 71
   256
280
     1
  0
SUN
  5
F7
330
F6
100
AcDbSun
 90
        1
290
     0
 63
     7
421
 16777215
 40
1.0
291
     1
 91
  2455826
 92
 54000000
292
     0
 70
     2
 71
   256
280
     1
  0
SUN
  5
F9
330
F8
100
AcDbSun
 90
        1
290
     0
 63
     7
421
 16777215
 40
1.0
291
     1
 91
  2455826
 92
 54000000
292
     0
 70
     2
 71
   256
280
     1
  0
SUN
  5
FB
330
FA
100
AcDbSun
 90
        1
290
     0
 63
     7
421
 16777215
 40
1.0
291
     1
 91
  2455826
 92
 54000000
292
     0
 70
     2
 71
   256
280
     1
  0
SUN
  5
FD
330
FC
100
AcDbSun
 90
        1
290
     0
 63
     7
421
 16777215
 40
1.0
291
     1
 91
  2455826
 92
 54000000
292
     0
 70
     2
 71
   256
280
     1
  0
SUN
  5
FF
330
FE
100
AcDbSun
 90
        1
290
     0
 63
     7
421
 16777215
 40
1.0
291
     1
 91
  2455826
 92
 54000000
292
     0
 70
     2
 71
   256
280
     1
  0
SUN
  5
101
330
100
100
AcDbSun
 90
        1
290
     0
 63
     7
421
 16777215
 40
1.0
291
     1
 91
  2455826
 92
 54000000
292
     0
 70
     2
 71
   256
280
     1
  0
SUN
  5
F1
330
F0
100
AcDbSun
 90
        1
290
     0
 63
     7
421
 16777215
 40
1.0
291
     1
 91
  2455826
 92
 54000000
292
     0
 70
     2
 71
   256
280
     1
  0
DICTIONARY
  5
109
102
{ACAD_REACTORS
330
C
102
}
330
C
100
AcDbDictionary
281
     1
  0
DICTIONARY
  5
D
102
{ACAD_REACTORS
330
C
102
}
330
C
100
AcDbDictionary
281
     1
  0
DICTIONARY
  5
1A
102
{ACAD_REACTORS
330
C
102
}
330
C
100
AcDbDictionary
281
     1
  3
_Dimetrisch
350
EA
  3
_Isometrisch
350
C4
  3
_Links
350
26
  3
_Normal auf
350
8B
  3
_Rechts
350
A8
  3
_Rückseite
350
98
  3
_Trimetrisch
350
D8
  3
_Unten
350
B6
  3
_Vorderseite
350
1E
  3
Model
350
22
  0
DICTIONARY
  5
43
102
{ACAD_REACTORS
330
C
102
}
330
C
100
AcDbDictionary
281
     1
  3
ByBlock
350
45
  3
ByLayer
350
44
  3
Global
350
46
  0
DICTIONARY
  5
6B
102
{ACAD_REACTORS
330
C
102
}
330
C
100
AcDbDictionary
281
     1
  3
Standard
350
6C
  0
DICTIONARY
  5
17
102
{ACAD_REACTORS
330
C
102
}
330
C
100
AcDbDictionary
281
     1
  3
Standard
350
18
  0
DICTIONARY
  5
19
102
{ACAD_REACTORS
330
C
102
}
330
C
100
AcDbDictionary
281
     1
  0
ACDBDICTIONARYWDFLT
  5
E
102
{ACAD_REACTORS
330
C
102
}
330
C
100
AcDbDictionary
281
     1
  3
Normal
350
F
100
AcDbDictionaryWithDefault
340
F
  0
DICTIONARY
  5
47
102
{ACAD_REACTORS
330
C
102
}
330
C
100
AcDbDictionary
281
     1
  3
A0
350
48
  3
A1
350
49
  3
A2
350
4A
  3
A3
350
4B
  3
A4
350
4C
  3
A5
350
4D
  3
A6
350
4E
  3
A7
350
4F
  3
A8
350
50
  3
A9
350
51
  3
B0
350
52
  3
B1
350
53
  3
B2
350
54
  3
B3
350
55
  3
B4
350
56
  3
B5
350
57
  3
B6
350
58
  3
B7
350
59
  3
B8
350
5A
  3
B9
350
5B
  3
C0
350
5C
  3
C1
350
5D
  3
C2
350
5E
  3
C3
350
5F
  3
C4
350
60
  3
C5
350
61
  3
C6
350
62
  3
C7
350
63
  3
C8
350
64
  3
C9
350
65
  3
D0
350
66
  3
D1
350
67
  3
D2
350
68
  0
DICTIONARY
  5
10A
102
{ACAD_REACTORS
330
C
102
}
330
C
100
AcDbDictionary
281
     1
  0
DICTIONARY
  5
69
102
{ACAD_REACTORS
330
C
102
}
330
C
100
AcDbDictionary
281
     1
  3
Standard
350
6A
  0
DICTIONARY
  5
2A
102
{ACAD_REACTORS
330
C
102
}
330
C
100
AcDbDictionary
281
     1
  3
2dWireframe
350
2F
  3
Basic
350
32
  3
Brighten
350
36
  3
ColorChange
350
3A
  3
Conceptual
350
34
  3
Dim
350
35
  3
EdgeColorOff
350
3D
  3
Facepattern
350
39
  3
Flat
350
2B
  3
FlatWithEdges
350
2C
  3
Gouraud
350
2D
  3
GouraudWithEdges
350
2E
  3
Hidden
350
31
  3
JitterOff
350
3B
  3
Linepattern
350
38
  3
OverhangOff
350
3C
  3
Realistic
350
33
  3
Shaded
350
42
  3
Shaded with edges
350
41
  3
Shades of Gray
350
3E
  3
Sketchy
350
3F
  3
Thicken
350
37
  3
Wireframe
350
30
  3
X-Ray
350
40
  0
XRECORD
  5
106
102
{ACAD_REACTORS
330
C
102
}
330
C
100
AcDbXrecord
280
     1
 90
        1
330
6A
  0
DICTIONARY
  5
102
102
{ACAD_REACTORS
330
C
102
}
330
C
100
AcDbDictionary
281
     1
  3
CANNOSCALE
350
103
  3
CMLEADERSTYLE
350
108
  3
CTABLESTYLE
350
107
  0
LAYOUT
  5
EA
102
{ACAD_REACTORS
330
1A
102
}
330
1A
100
AcDbPlotSettings
  1

  2
none_device
  4
ISO_A4_(210.00_x_297.00_MM)
  6

 40
7.5
 41
20.0
 42
7.5
 43
20.0
 44
210.0
 45
297.0
 46
0.0
 47
0.0
 48
0.0
 49
0.0
140
0.0
141
0.0
142
1.0
143
2.0250628135
 70
   688
 72
     1
 73
     1
 74
     1
  7

 75
     0
 76
     0
 77
     2
 78
   300
147
0.4938118429
148
260.2205717012
149
175.0
100
AcDbLayout
  1
_Dimetrisch
 70
     1
 71
     9
 10
0.0
 20
0.0
 11
0.0
 21
0.0
 12
0.0
 22
0.0
 32
0.0
 14
0.0
 24
0.0
 34
0.0
 15
0.0
 25
0.0
 35
0.0
146
0.0
 13
0.0
 23
0.0
 33
0.0
 16
1.0
 26
0.0
 36
0.0
 17
0.0
 27
1.0
 37
0.0
 76
     0
330
E9
331
100
  0
LAYOUT
  5
C4
102
{ACAD_REACTORS
330
1A
102
}
330
1A
100
AcDbPlotSettings
  1

  2
none_device
  4
ISO_A4_(210.00_x_297.00_MM)
  6

 40
7.5
 41
20.0
 42
7.5
 43
20.0
 44
210.0
 45
297.0
 46
0.0
 47
0.0
 48
0.0
 49
0.0
140
0.0
141
0.0
142
1.0
143
2.0250628135
 70
   688
 72
     1
 73
     1
 74
     1
  7

 75
     0
 76
     0
 77
     2
 78
   300
147
0.4938118429
148
260.2205717012
149
175.0
100
AcDbLayout
  1
_Isometrisch
 70
     1
 71
     7
 10
0.0
 20
0.0
 11
0.0
 21
0.0
 12
0.0
 22
0.0
 32
0.0
 14
0.0
 24
0.0
 34
0.0
 15
0.0
 25
0.0
 35
0.0
146
0.0
 13
0.0
 23
0.0
 33
0.0
 16
1.0
 26
0.0
 36
0.0
 17
0.0
 27
1.0
 37
0.0
 76
     0
330
C3
331
FC
  0
LAYOUT
  5
26
102
{ACAD_REACTORS
330
1A
102
}
330
1A
100
AcDbPlotSettings
  1

  2
none_device
  4
ISO_A4_(210.00_x_297.00_MM)
  6

 40
7.5
 41
20.0
 42
7.5
 43
20.0
 44
210.0
 45
297.0
 46
0.0
 47
0.0
 48
0.0
 49
0.0
140
0.0
141
0.0
142
1.0
143
2.0250628135
 70
   688
 72
     1
 73
     1
 74
     1
  7

 75
     0
 76
     0
 77
     2
 78
   300
147
0.4938118429
148
260.2205717012
149
175.0
100
AcDbLayout
  1
_Links
 70
     1
 71
     2
 10
0.0
 20
0.0
 11
0.0
 21
0.0
 12
0.0
 22
0.0
 32
0.0
 14
0.0
 24
0.0
 34
0.0
 15
0.0
 25
0.0
 35
0.0
146
0.0
 13
0.0
 23
0.0
 33
0.0
 16
1.0
 26
0.0
 36
0.0
 17
0.0
 27
1.0
 37
0.0
 76
     0
330
23
331
F2
  0
LAYOUT
  5
8B
102
{ACAD_REACTORS
330
1A
102
}
330
1A
100
AcDbPlotSettings
  1

  2
none_device
  4
ISO_A4_(210.00_x_297.00_MM)
  6

 40
7.5
 41
20.0
 42
7.5
 43
20.0
 44
210.0
 45
297.0
 46
0.0
 47
0.0
 48
0.0
 49
0.0
140
0.0
141
0.0
142
1.0
143
2.0250628135
 70
   688
 72
     1
 73
     1
 74
     1
  7

 75
     0
 76
     0
 77
     2
 78
   300
147
0.4938118429
148
260.2205717012
149
175.0
100
AcDbLayout
  1
_Normal auf
 70
     1
 71
     3
 10
0.0
 20
0.0
 11
0.0
 21
0.0
 12
0.0
 22
0.0
 32
0.0
 14
0.0
 24
0.0
 34
0.0
 15
0.0
 25
0.0
 35
0.0
146
0.0
 13
0.0
 23
0.0
 33
0.0
 16
1.0
 26
0.0
 36
0.0
 17
0.0
 27
1.0
 37
0.0
 76
     0
330
8A
331
F4
  0
LAYOUT
  5
A8
102
{ACAD_REACTORS
330
1A
102
}
330
1A
100
AcDbPlotSettings
  1

  2
none_device
  4
ISO_A4_(210.00_x_297.00_MM)
  6

 40
7.5
 41
20.0
 42
7.5
 43
20.0
 44
210.0
 45
297.0
 46
0.0
 47
0.0
 48
0.0
 49
0.0
140
0.0
141
0.0
142
1.0
143
2.0250628135
 70
   688
 72
     1
 73
     1
 74
     1
  7

 75
     0
 76
     0
 77
     2
 78
   300
147
0.4938118429
148
260.2205717012
149
175.0
100
AcDbLayout
  1
_Rechts
 70
     1
 71
     5
 10
0.0
 20
0.0
 11
0.0
 21
0.0
 12
0.0
 22
0.0
 32
0.0
 14
0.0
 24
0.0
 34
0.0
 15
0.0
 25
0.0
 35
0.0
146
0.0
 13
0.0
 23
0.0
 33
0.0
 16
1.0
 26
0.0
 36
0.0
 17
0.0
 27
1.0
 37
0.0
 76
     0
330
A7
331
F8
  0
LAYOUT
  5
98
102
{ACAD_REACTORS
330
1A
102
}
330
1A
100
AcDbPlotSettings
  1

  2
none_device
  4
ISO_A4_(210.00_x_297.00_MM)
  6

 40
7.5
 41
20.0
 42
7.5
 43
20.0
 44
210.0
 45
297.0
 46
0.0
 47
0.0
 48
0.0
 49
0.0
140
0.0
141
0.0
142
1.0
143
2.0250628135
 70
   688
 72
     1
 73
     1
 74
     1
  7

 75
     0
 76
     0
 77
     2
 78
   300
147
0.4938118429
148
260.2205717012
149
175.0
100
AcDbLayout
  1
_Rückseite
 70
     1
 71
     4
 10
0.0
 20
0.0
 11
0.0
 21
0.0
 12
0.0
 22
0.0
 32
0.0
 14
0.0
 24
0.0
 34
0.0
 15
0.0
 25
0.0
 35
0.0
146
0.0
 13
0.0
 23
0.0
 33
0.0
 16
1.0
 26
0.0
 36
0.0
 17
0.0
 27
1.0
 37
0.0
 76
     0
330
97
331
F6
  0
LAYOUT
  5
D8
102
{ACAD_REACTORS
330
1A
102
}
330
1A
100
AcDbPlotSettings
  1

  2
none_device
  4
ISO_A4_(210.00_x_297.00_MM)
  6

 40
7.5
 41
20.0
 42
7.5
 43
20.0
 44
210.0
 45
297.0
 46
0.0
 47
0.0
 48
0.0
 49
0.0
140
0.0
141
0.0
142
1.0
143
2.0250628135
 70
   688
 72
     1
 73
     1
 74
     1
  7

 75
     0
 76
     0
 77
     2
 78
   300
147
0.4938118429
148
260.2205717012
149
175.0
100
AcDbLayout
  1
_Trimetrisch
 70
     1
 71
     8
 10
0.0
 20
0.0
 11
0.0
 21
0.0
 12
0.0
 22
0.0
 32
0.0
 14
0.0
 24
0.0
 34
0.0
 15
0.0
 25
0.0
 35
0.0
146
0.0
 13
0.0
 23
0.0
 33
0.0
 16
1.0
 26
0.0
 36
0.0
 17
0.0
 27
1.0
 37
0.0
 76
     0
330
D7
331
FE
  0
LAYOUT
  5
B6
102
{ACAD_REACTORS
330
1A
102
}
330
1A
100
AcDbPlotSettings
  1

  2
none_device
  4
ISO_A4_(210.00_x_297.00_MM)
  6

 40
7.5
 41
20.0
 42
7.5
 43
20.0
 44
210.0
 45
297.0
 46
0.0
 47
0.0
 48
0.0
 49
0.0
140
0.0
141
0.0
142
1.0
143
2.0250628135
 70
   688
 72
     1
 73
     1
 74
     1
  7

 75
     0
 76
     0
 77
     2
 78
   300
147
0.4938118429
148
260.2205717012
149
175.0
100
AcDbLayout
  1
_Unten
 70
     1
 71
     6
 10
0.0
 20
0.0
 11
0.0
 21
0.0
 12
0.0
 22
0.0
 32
0.0
 14
0.0
 24
0.0
 34
0.0
 15
0.0
 25
0.0
 35
0.0
146
0.0
 13
0.0
 23
0.0
 33
0.0
 16
1.0
 26
0.0
 36
0.0
 17
0.0
 27
1.0
 37
0.0
 76
     0
330
B5
331
FA
  0
LAYOUT
  5
1E
102
{ACAD_REACTORS
330
1A
102
}
330
1A
100
AcDbPlotSettings
  1

  2
none_device
  4
ISO_A4_(210.00_x_297.00_MM)
  6

 40
7.5
 41
20.0
 42
7.5
 43
20.0
 44
210.0
 45
297.0
 46
0.0
 47
0.0
 48
0.0
 49
0.0
140
0.0
141
0.0
142
1.0
143
2.0250628135
 70
   688
 72
     1
 73
     1
 74
     1
  7

 75
     0
 76
     0
 77
     2
 78
   300
147
0.4938118429
148
260.2205717012
149
175.0
100
AcDbLayout
  1
_Vorderseite
 70
     1
 71
     1
 10
-300.721827971
 20
-190.1879711012
 11
300.7218276362
 21
235.0752197322
 12
0.0
 22
0.0
 32
0.0
 14
-260.2205717012
 24
-175.0
 34
0.0
 15
260.2205713663
 25
0.0
 35
0.0
146
0.0
 13
0.0
 23
0.0
 33
0.0
 16
1.0
 26
0.0
 36
0.0
 17
0.0
 27
1.0
 37
0.0
 76
     0
330
1B
331
F0
  0
LAYOUT
  5
22
102
{ACAD_REACTORS
330
1A
102
}
330
1A
100
AcDbPlotSettings
  1

  2
none_device
  4
ANSI_A_(11.00_x_8.50_Inches)
  6

 40
6.35
 41
19.05
 42
6.35000508
 43
19.05000254
 44
279.4
 45
215.9
 46
133.34999746
 47
89.3403659822
 48
0.0
 49
0.0
140
0.0
141
0.0
142
0.0209246171
143
1.0
 70
  1696
 72
     0
 73
     0
 74
     0
  7

 75
     0
 76
     0
 77
     2
 78
   300
147
0.0179189148
148
-1300.4909072572
149
0.0
100
AcDbLayout
  1
Model
 70
     1
 71
     0
 10
0.0
 20
0.0
 11
420.0
 21
297.0
 12
0.0
 22
0.0
 32
0.0
 14
-260.2198154272
 24
-186.6575334935
 34
0.0
 15
260.2198154271
 25
185.0004141961
 35
0.0
146
0.0
 13
0.0
 23
0.0
 33
0.0
 16
1.0
 26
0.0
 36
0.0
 17
0.0
 27
1.0
 37
0.0
 76
     0
330
1F
331
29
  0
MATERIAL
  5
45
102
{ACAD_REACTORS
330
43
102
}
330
43
100
AcDbMaterial
  1
ByBlock
 72
     1
 94
      127
  0
MATERIAL
  5
44
102
{ACAD_REACTORS
330
43
102
}
330
43
100
AcDbMaterial
  1
ByLayer
 72
     1
 94
      127
  0
MATERIAL
  5
46
102
{ACAD_REACTORS
330
43
102
}
330
43
100
AcDbMaterial
  1
Global
 72
     1
 94
      127
  0
MLEADERSTYLE
  5
6C
102
{ACAD_REACTORS
330
6B
102
}
330
6B
100
AcDbMLeaderStyle
179
     2
170
     2
171
     1
172
     0
 90
        2
 40
0.0
 41
0.0
173
     1
 91
-1056964608
340
14
 92
       -2
290
     1
 42
2.0
291
     1
 43
8.0
  3
Standard
341
0
 44
4.0
300

342
11
174
     1
178
     6
175
     1
176
     0
 93
-1056964608
 45
4.0
292
     0
297
     0
 46
4.0
343
0
 94
-1056964608
 47
1.0
 49
1.0
140
1.0
293
     1
141
0.0
294
     1
177
     0
142
1.0
295
     0
296
     0
143
3.75
271
     0
272
     9
273
     9
298
     0
  0
MLINESTYLE
  5
18
102
{ACAD_REACTORS
330
17
102
}
330
17
100
AcDbMlineStyle
  2
Standard
 70
     0
  3

 62
   256
 51
90.0
 52
90.0
 71
     2
 49
0.5
 62
   256
  6
BYLAYER
 49
-0.5
 62
   256
  6
BYLAYER
  0
ACDBPLACEHOLDER
  5
F
102
{ACAD_REACTORS
330
E
102
}
330
E
  0
SCALE
  5
48
102
{ACAD_REACTORS
330
47
102
}
330
47
100
AcDbScale
 70
     0
300
1:1
140
1.0
141
1.0
290
     1
  0
SCALE
  5
49
102
{ACAD_REACTORS
330
47
102
}
330
47
100
AcDbScale
 70
     0
300
1:2
140
1.0
141
2.0
290
     0
  0
SCALE
  5
4A
102
{ACAD_REACTORS
330
47
102
}
330
47
100
AcDbScale
 70
     0
300
1:4
140
1.0
141
4.0
290
     0
  0
SCALE
  5
4B
102
{ACAD_REACTORS
330
47
102
}
330
47
100
AcDbScale
 70
     0
300
1:5
140
1.0
141
5.0
290
     0
  0
SCALE
  5
4C
102
{ACAD_REACTORS
330
47
102
}
330
47
100
AcDbScale
 70
     0
300
1:8
140
1.0
141
8.0
290
     0
  0
SCALE
  5
4D
102
{ACAD_REACTORS
330
47
102
}
330
47
100
AcDbScale
 70
     0
300
1:10
140
1.0
141
10.0
290
     0
  0
SCALE
  5
4E
102
{ACAD_REACTORS
330
47
102
}
330
47
100
AcDbScale
 70
     0
300
1:16
140
1.0
141
16.0
290
     0
  0
SCALE
  5
4F
102
{ACAD_REACTORS
330
47
102
}
330
47
100
AcDbScale
 70
     0
300
1:20
140
1.0
141
20.0
290
     0
  0
SCALE
  5
50
102
{ACAD_REACTORS
330
47
102
}
330
47
100
AcDbScale
 70
     0
300
1:30
140
1.0
141
30.0
290
     0
  0
SCALE
  5
51
102
{ACAD_REACTORS
330
47
102
}
330
47
100
AcDbScale
 70
     0
300
1:40
140
1.0
141
40.0
290
     0
  0
SCALE
  5
52
102
{ACAD_REACTORS
330
47
102
}
330
47
100
AcDbScale
 70
     0
300
1:50
140
1.0
141
50.0
290
     0
  0
SCALE
  5
53
102
{ACAD_REACTORS
330
47
102
}
330
47
100
AcDbScale
 70
     0
300
1:100
140
1.0
141
100.0
290
     0
  0
SCALE
  5
54
102
{ACAD_REACTORS
330
47
102
}
330
47
100
AcDbScale
 70
     0
300
2:1
140
2.0
141
1.0
290
     0
  0
SCALE
  5
55
102
{ACAD_REACTORS
330
47
102
}
330
47
100
AcDbScale
 70
     0
300
4:1
140
4.0
141
1.0
290
     0
  0
SCALE
  5
56
102
{ACAD_REACTORS
330
47
102
}
330
47
100
AcDbScale
 70
     0
300
8:1
140
8.0
141
1.0
290
     0
  0
SCALE
  5
57
102
{ACAD_REACTORS
330
47
102
}
330
47
100
AcDbScale
 70
     0
300
10:1
140
10.0
141
1.0
290
     0
  0
SCALE
  5
58
102
{ACAD_REACTORS
330
47
102
}
330
47
100
AcDbScale
 70
     0
300
100:1
140
100.0
141
1.0
290
     0
  0
SCALE
  5
59
102
{ACAD_REACTORS
330
47
102
}
330
47
100
AcDbScale
 70
     0
300
1/128" = 1'-0"
140
0.0078125
141
12.0
290
     0
  0
SCALE
  5
5A
102
{ACAD_REACTORS
330
47
102
}
330
47
100
AcDbScale
 70
     0
300
1/64" = 1'-0"
140
0.015625
141
12.0
290
     0
  0
SCALE
  5
5B
102
{ACAD_REACTORS
330
47
102
}
330
47
100
AcDbScale
 70
     0
300
1/32" = 1'-0"
140
0.03125
141
12.0
290
     0
  0
SCALE
  5
5C
102
{ACAD_REACTORS
330
47
102
}
330
47
100
AcDbScale
 70
     0
300
1/16" = 1'-0"
140
0.0625
141
12.0
290
     0
  0
SCALE
  5
5D
102
{ACAD_REACTORS
330
47
102
}
330
47
100
AcDbScale
 70
     0
300
3/32" = 1'-0"
140
0.09375
141
12.0
290
     0
  0
SCALE
  5
5E
102
{ACAD_REACTORS
330
47
102
}
330
47
100
AcDbScale
 70
     0
300
1/8" = 1'-0"
140
0.125
141
12.0
290
     0
  0
SCALE
  5
5F
102
{ACAD_REACTORS
330
47
102
}
330
47
100
AcDbScale
 70
     0
300
3/16" = 1'-0"
140
0.1875
141
12.0
290
     0
  0
SCALE
  5
60
102
{ACAD_REACTORS
330
47
102
}
330
47
100
AcDbScale
 70
     0
300
1/4" = 1'-0"
140
0.25
141
12.0
290
     0
  0
SCALE
  5
61
102
{ACAD_REACTORS
330
47
102
}
330
47
100
AcDbScale
 70
     0
300
3/8" = 1'-0"
140
0.375
141
12.0
290
     0
  0
SCALE
  5
62
102
{ACAD_REACTORS
330
47
102
}
330
47
100
AcDbScale
 70
     0
300
1/2" = 1'-0"
140
0.5
141
12.0
290
     0
  0
SCALE
  5
63
102
{ACAD_REACTORS
330
47
102
}
330
47
100
AcDbScale
 70
     0
300
3/4" = 1'-0"
140
0.75
141
12.0
290
     0
  0
SCALE
  5
64
102
{ACAD_REACTORS
330
47
102
}
330
47
100
AcDbScale
 70
     0
300
1" = 1'-0"
140
1.0
141
12.0
290
     0
  0
SCALE
  5
65
102
{ACAD_REACTORS
330
47
102
}
330
47
100
AcDbScale
 70
     0
300
1-1/2" = 1'-0"
140
1.5
141
12.0
290
     0
  0
SCALE
  5
66
102
{ACAD_REACTORS
330
47
102
}
330
47
100
AcDbScale
 70
     0
300
3" = 1'-0"
140
3.0
141
12.0
290
     0
  0
SCALE
  5
67
102
{ACAD_REACTORS
330
47
102
}
330
47
100
AcDbScale
 70
     0
300
6" = 1'-0"
140
6.0
141
12.0
290
     0
  0
SCALE
  5
68
102
{ACAD_REACTORS
330
47
102
}
330
47
100
AcDbScale
 70
     0
300
1'-0" = 1'-0"
140
12.0
141
12.0
290
     0
  0
TABLESTYLE
  5
6A
102
{ACAD_REACTORS
330
69
102
}
102
{ACAD_XDICTIONARY
360
104
102
}
330
69
100
AcDbTableStyle
  3
Standard
 70
     0
 71
     0
 40
0.06
 41
0.06
280
     0
281
     0
  7
STANDARD
140
4.5
170
     2
 62
     0
 63
   257
283
     0
 90
        4
 91
        0
  1

274
    -2
284
     1
 64
     0
275
    -2
285
     1
 65
     0
276
    -2
286
     1
 66
     0
277
    -2
287
     1
 67
     0
278
    -2
288
     1
 68
     0
279
    -2
289
     1
 69
     0
  7
STANDARD
140
6.0
170
     5
 62
     0
 63
   257
283
     0
 90
        4
 91
        0
  1

274
    -2
284
     1
 64
     0
275
    -2
285
     1
 65
     0
276
    -2
286
     1
 66
     0
277
    -2
287
     1
 67
     0
278
    -2
288
     1
 68
     0
279
    -2
289
     1
 69
     0
  7
STANDARD
140
4.5
170
     5
 62
     0
 63
   257
283
     0
 90
        4
 91
        0
  1

274
    -2
284
     1
 64
     0
275
    -2
285
     1
 65
     0
276
    -2
286
     1
 66
     0
277
    -2
287
     1
 67
     0
278
    -2
288
     1
 68
     0
279
    -2
289
     1
 69
     0
  0
VISUALSTYLE
  5
2F
102
{ACAD_REACTORS
330
2A
102
}
330
2A
100
AcDbVisualStyle
  2
2dWireframe
 70
     4
177
     3
291
     0
 70
    58
 90
        0
176
     1
 90
        2
176
     1
 90
        0
176
     1
 90
        0
176
     1
 40
0.6
176
     1
 40
30.0
176
     1
 62
     7
420
 16777215
176
     1
 90
        1
176
     1
 90
        4
176
     1
 62
     7
176
     1
 62
   257
176
     1
 90
        1
176
     1
 90
        1
176
     1
 40
1.0
176
     1
 90
        0
176
     1
 62
   257
176
     1
 40
1.0
176
     1
 90
        1
176
     1
 90
        6
176
     1
 90
        2
176
     1
 62
     7
176
     1
 90
        5
176
     1
 90
        0
176
     1
 90
        0
176
     1
290
     0
176
     1
 90
        1
176
     1
 40
0.0
176
     1
 90
        0
176
     1
290
     1
176
     1
290
     1
176
     1
290
     0
176
     1
290
     0
176
     1
290
     0
176
     1
290
     0
176
     1
290
     0
176
     1
290
     0
176
     1
290
     0
176
     1
 90
       50
176
     1
 40
0.0
176
     1
 40
1.0
176
     1
 90
        0
176
     1
 62
    18
420
        0
176
     1
 90
       50
176
     1
 90
        3
176
     1
 62
     5
420
      255
176
     1
290
     0
176
     1
 90
       50
176
     1
 90
       50
176
     1
 90
       50
176
     1
290
     0
176
     1
 90
       50
176
     1
 62
   256
176
     0
 40
1.0
176
     0
 90
        2
176
     1
  1
strokes_ogs.tif
176
     1
290
     0
176
     1
 40
1.0
176
     1
 40
1.0
176
     1
  0
VISUALSTYLE
  5
32
102
{ACAD_REACTORS
330
2A
102
}
330
2A
100
AcDbVisualStyle
  2
Basic
 70
     7
177
     3
291
     1
 70
    58
 90
        1
176
     1
 90
        0
176
     1
 90
        1
176
     1
 90
        0
176
     1
 40
0.6
176
     1
 40
30.0
176
     1
 62
     7
420
 16777215
176
     1
 90
        0
176
     1
 90
        4
176
     1
 62
     7
176
     1
 62
   257
176
     1
 90
        1
176
     1
 90
        1
176
     1
 40
1.0
176
     1
 90
        8
176
     1
 62
     7
176
     1
 40
1.0
176
     1
 90
        1
176
     1
 90
        6
176
     1
 90
        2
176
     1
 62
     7
176
     1
 90
        5
176
     1
 90
        0
176
     1
 90
        0
176
     1
290
     0
176
     1
 90
        1
176
     1
 40
0.0
176
     1
 90
        0
176
     1
290
     0
176
     1
290
     1
176
     1
290
     1
176
     1
290
     0
176
     1
290
     0
176
     1
290
     0
176
     1
290
     0
176
     1
290
     0
176
     1
290
     0
176
     1
 90
       50
176
     1
 40
0.0
176
     1
 40
1.0
176
     1
 90
        0
176
     1
 62
    18
420
        0
176
     1
 90
       50
176
     1
 90
        3
176
     1
 62
     5
420
      255
176
     1
290
     0
176
     1
 90
       50
176
     1
 90
       50
176
     1
 90
       50
176
     1
290
     0
176
     1
 90
       50
176
     1
 62
   256
176
     0
 40
1.0
176
     0
 90
        2
176
     1
  1
strokes_ogs.tif
176
     1
290
     0
176
     1
 40
1.0
176
     1
 40
1.0
176
     1
  0
VISUALSTYLE
  5
36
102
{ACAD_REACTORS
330
2A
102
}
330
2A
100
AcDbVisualStyle
  2
Brighten
 70
    12
177
     3
291
     1
 70
    58
 90
        2
176
     1
 90
        2
176
     1
 90
        0
176
     1
 90
        0
176
     1
 40
0.6
176
     1
 40
30.0
176
     1
 62
     7
420
 16777215
176
     1
 90
        1
176
     1
 90
        4
176
     1
 62
     7
176
     1
 62
   257
176
     1
 90
        1
176
     1
 90
        1
176
     1
 40
1.0
176
     1
 90
        8
176
     1
 62
     7
176
     1
 40
1.0
176
     1
 90
        1
176
     1
 90
        6
176
     1
 90
        2
176
     1
 62
     7
176
     1
 90
        5
176
     1
 90
        0
176
     1
 90
        0
176
     1
290
     0
176
     1
 90
        1
176
     1
 40
50.0
176
     1
 90
        0
176
     1
290
     0
176
     1
290
     1
176
     1
290
     1
176
     1
290
     0
176
     1
290
     0
176
     1
290
     0
176
     1
290
     0
176
     1
290
     0
176
     1
290
     0
176
     1
 90
       50
176
     1
 40
0.0
176
     1
 40
1.0
176
     1
 90
        0
176
     1
 62
    18
420
        0
176
     1
 90
       50
176
     1
 90
        3
176
     1
 62
     5
420
      255
176
     1
290
     0
176
     1
 90
       50
176
     1
 90
       50
176
     1
 90
       50
176
     1
290
     0
176
     1
 90
       50
176
     1
 62
   256
176
     0
 40
1.0
176
     0
 90
        2
176
     1
  1
strokes_ogs.tif
176
     1
290
     0
176
     1
 40
1.0
176
     1
 40
1.0
176
     1
  0
VISUALSTYLE
  5
3A
102
{ACAD_REACTORS
330
2A
102
}
330
2A
100
AcDbVisualStyle
  2
ColorChange
 70
    16
177
     3
291
     1
 70
    58
 90
        2
176
     1
 90
        2
176
     1
 90
        3
176
     1
 90
        0
176
     1
 40
0.6
176
     1
 40
30.0
176
     1
 62
     8
420
  8421504
176
     1
 90
        1
176
     1
 90
        4
176
     1
 62
     7
176
     1
 62
   257
176
     1
 90
        1
176
     1
 90
        1
176
     1
 40
1.0
176
     1
 90
        8
176
     1
 62
     8
420
  8421504
176
     1
 40
1.0
176
     1
 90
        1
176
     1
 90
        6
176
     1
 90
        2
176
     1
 62
     7
176
     1
 90
        5
176
     1
 90
        0
176
     1
 90
        0
176
     1
290
     0
176
     1
 90
        1
176
     1
 40
0.0
176
     1
 90
        0
176
     1
290
     0
176
     1
290
     1
176
     1
290
     1
176
     1
290
     0
176
     1
290
     0
176
     1
290
     0
176
     1
290
     0
176
     1
290
     0
176
     1
290
     0
176
     1
 90
       50
176
     1
 40
0.0
176
     1
 40
1.0
176
     1
 90
        0
176
     1
 62
    18
420
        0
176
     1
 90
       50
176
     1
 90
        3
176
     1
 62
     5
420
      255
176
     1
290
     0
176
     1
 90
       50
176
     1
 90
       50
176
     1
 90
       50
176
     1
290
     0
176
     1
 90
       50
176
     1
 62
   256
176
     0
 40
1.0
176
     0
 90
        2
176
     1
  1
strokes_ogs.tif
176
     1
290
     0
176
     1
 40
1.0
176
     1
 40
1.0
176
     1
  0
VISUALSTYLE
  5
34
102
{ACAD_REACTORS
330
2A
102
}
330
2A
100
AcDbVisualStyle
  2
Conceptual
 70
     9
177
     3
291
     0
 70
    58
 90
        3
176
     1
 90
        2
176
     1
 90
        0
176
     1
 90
        0
176
     1
 40
0.6
176
     1
 40
30.0
176
     1
 62
     7
420
 16777215
176
     1
 90
        2
176
     1
 90
        2
176
     1
 62
     7
176
     1
 62
   257
176
     1
 90
        1
176
     1
 90
        1
176
     1
 40
179.0
176
     1
 90
        8
176
     1
 62
     7
176
     1
 40
1.0
176
     1
 90
        1
176
     1
 90
        6
176
     1
 90
        2
176
     1
 62
     7
176
     1
 90
        3
176
     1
 90
        0
176
     1
 90
        0
176
     1
290
     0
176
     1
 90
        1
176
     1
 40
0.0
176
     1
 90
        0
176
     1
290
     0
176
     1
290
     1
176
     1
290
     1
176
     1
290
     0
176
     1
290
     0
176
     1
290
     0
176
     1
290
     0
176
     1
290
     0
176
     1
290
     0
176
     1
 90
       50
176
     1
 40
0.0
176
     1
 40
1.0
176
     1
 90
        0
176
     1
 62
    18
420
        0
176
     1
 90
       50
176
     1
 90
        3
176
     1
 62
     5
420
      255
176
     1
290
     0
176
     1
 90
       50
176
     1
 90
       50
176
     1
 90
       50
176
     1
290
     0
176
     1
 90
       50
176
     1
 62
   256
176
     0
 40
1.0
176
     0
 90
        2
176
     1
  1
strokes_ogs.tif
176
     1
290
     0
176
     1
 40
1.0
176
     1
 40
1.0
176
     1
  0
VISUALSTYLE
  5
35
102
{ACAD_REACTORS
330
2A
102
}
330
2A
100
AcDbVisualStyle
  2
Dim
 70
    11
177
     3
291
     1
 70
    58
 90
        2
176
     1
 90
        2
176
     1
 90
        0
176
     1
 90
        0
176
     1
 40
0.6
176
     1
 40
30.0
176
     1
 62
     7
420
 16777215
176
     1
 90
        1
176
     1
 90
        4
176
     1
 62
     7
176
     1
 62
   257
176
     1
 90
        1
176
     1
 90
        1
176
     1
 40
1.0
176
     1
 90
        8
176
     1
 62
     7
176
     1
 40
1.0
176
     1
 90
        1
176
     1
 90
        6
176
     1
 90
        2
176
     1
 62
     7
176
     1
 90
        5
176
     1
 90
        0
176
     1
 90
        0
176
     1
290
     0
176
     1
 90
        1
176
     1
 40
-50.0
176
     1
 90
        0
176
     1
290
     0
176
     1
290
     1
176
     1
290
     1
176
     1
290
     0
176
     1
290
     0
176
     1
290
     0
176
     1
290
     0
176
     1
290
     0
176
     1
290
     0
176
     1
 90
       50
176
     1
 40
0.0
176
     1
 40
1.0
176
     1
 90
        0
176
     1
 62
    18
420
        0
176
     1
 90
       50
176
     1
 90
        3
176
     1
 62
     5
420
      255
176
     1
290
     0
176
     1
 90
       50
176
     1
 90
       50
176
     1
 90
       50
176
     1
290
     0
176
     1
 90
       50
176
     1
 62
   256
176
     0
 40
1.0
176
     0
 90
        2
176
     1
  1
strokes_ogs.tif
176
     1
290
     0
176
     1
 40
1.0
176
     1
 40
1.0
176
     1
  0
VISUALSTYLE
  5
3D
102
{ACAD_REACTORS
330
2A
102
}
330
2A
100
AcDbVisualStyle
  2
EdgeColorOff
 70
    22
177
     3
291
     1
 70
    58
 90
        2
176
     0
 90
        2
176
     0
 90
        0
176
     0
 90
        0
176
     0
 40
0.6
176
     0
 40
30.0
176
     0
 62
     7
420
 16777215
176
     0
 90
        1
176
     0
 90
        4
176
     0
 62
     7
176
     0
 62
   257
176
     0
 90
        1
176
     0
 90
        1
176
     0
 40
1.0
176
     0
 90
        8
176
     2
 62
     7
176
     0
 40
1.0
176
     0
 90
        1
176
     0
 90
        6
176
     0
 90
        2
176
     0
 62
     7
176
     0
 90
        5
176
     0
 90
        0
176
     0
 90
        0
176
     0
290
     0
176
     0
 90
        1
176
     0
 40
0.0
176
     0
 90
        0
176
     0
290
     0
176
     0
290
     1
176
     0
290
     1
176
     0
290
     0
176
     0
290
     0
176
     0
290
     0
176
     0
290
     0
176
     0
290
     0
176
     0
290
     0
176
     0
 90
       50
176
     0
 40
0.0
176
     0
 40
1.0
176
     0
 90
        0
176
     0
 62
    18
420
        0
176
     0
 90
       50
176
     0
 90
        3
176
     0
 62
     5
420
      255
176
     0
290
     0
176
     0
 90
       50
176
     0
 90
       50
176
     0
 90
       50
176
     0
290
     0
176
     0
 90
       50
176
     0
 62
   256
176
     0
 40
1.0
176
     0
 90
        2
176
     0
  1
strokes_ogs.tif
176
     0
290
     0
176
     0
 40
1.0
176
     0
 40
1.0
176
     0
  0
VISUALSTYLE
  5
39
102
{ACAD_REACTORS
330
2A
102
}
330
2A
100
AcDbVisualStyle
  2
Facepattern
 70
    15
177
     3
291
     1
 70
    58
 90
        2
176
     1
 90
        2
176
     1
 90
        0
176
     1
 90
        0
176
     1
 40
0.6
176
     1
 40
30.0
176
     1
 62
     7
420
 16777215
176
     1
 90
        1
176
     1
 90
        4
176
     1
 62
     7
176
     1
 62
   257
176
     1
 90
        1
176
     1
 90
        1
176
     1
 40
1.0
176
     1
 90
        8
176
     1
 62
     7
176
     1
 40
1.0
176
     1
 90
        1
176
     1
 90
        6
176
     1
 90
        2
176
     1
 62
     7
176
     1
 90
        5
176
     1
 90
        0
176
     1
 90
        0
176
     1
290
     0
176
     1
 90
        1
176
     1
 40
0.0
176
     1
 90
        0
176
     1
290
     0
176
     1
290
     1
176
     1
290
     1
176
     1
290
     0
176
     1
290
     0
176
     1
290
     0
176
     1
290
     0
176
     1
290
     0
176
     1
290
     0
176
     1
 90
       50
176
     1
 40
0.0
176
     1
 40
1.0
176
     1
 90
        0
176
     1
 62
    18
420
        0
176
     1
 90
       50
176
     1
 90
        3
176
     1
 62
     5
420
      255
176
     1
290
     0
176
     1
 90
       50
176
     1
 90
       50
176
     1
 90
       50
176
     1
290
     0
176
     1
 90
       50
176
     1
 62
   256
176
     0
 40
1.0
176
     0
 90
        2
176
     1
  1
strokes_ogs.tif
176
     1
290
     0
176
     1
 40
1.0
176
     1
 40
1.0
176
     1
  0
VISUALSTYLE
  5
2B
102
{ACAD_REACTORS
330
2A
102
}
330
2A
100
AcDbVisualStyle
  2
Flat
 70
     0
177
     3
291
     1
 70
    58
 90
        2
176
     1
 90
        1
176
     1
 90
        1
176
     1
 90
        2
176
     1
 40
0.6
176
     1
 40
30.0
176
     1
 62
     7
420
 16777215
176
     1
 90
        0
176
     1
 90
        0
176
     1
 62
     7
176
     1
 62
   257
176
     1
 90
        1
176
     1
 90
        1
176
     1
 40
1.0
176
     1
 90
        8
176
     1
 62
     7
176
     1
 40
1.0
176
     1
 90
        1
176
     1
 90
        6
176
     1
 90
        2
176
     1
 62
     7
176
     1
 90
        5
176
     1
 90
        0
176
     1
 90
        0
176
     1
290
     0
176
     1
 90
       13
176
     1
 40
0.0
176
     1
 90
        0
176
     1
290
     0
176
     1
290
     1
176
     1
290
     1
176
     1
290
     0
176
     1
290
     0
176
     1
290
     0
176
     1
290
     0
176
     1
290
     0
176
     1
290
     0
176
     1
 90
       50
176
     1
 40
0.0
176
     1
 40
1.0
176
     1
 90
        0
176
     1
 62
    18
420
        0
176
     1
 90
       50
176
     1
 90
        3
176
     1
 62
     5
420
      255
176
     1
290
     0
176
     1
 90
       50
176
     1
 90
       50
176
     1
 90
       50
176
     1
290
     0
176
     1
 90
       50
176
     1
 62
   256
176
     0
 40
1.0
176
     0
 90
        2
176
     1
  1
strokes_ogs.tif
176
     1
290
     0
176
     1
 40
1.0
176
     1
 40
1.0
176
     1
  0
VISUALSTYLE
  5
2C
102
{ACAD_REACTORS
330
2A
102
}
330
2A
100
AcDbVisualStyle
  2
FlatWithEdges
 70
     1
177
     3
291
     1
 70
    58
 90
        2
176
     1
 90
        1
176
     1
 90
        1
176
     1
 90
        2
176
     1
 40
0.6
176
     1
 40
30.0
176
     1
 62
     7
420
 16777215
176
     1
 90
        1
176
     1
 90
        0
176
     1
 62
     7
176
     1
 62
   257
176
     1
 90
        1
176
     1
 90
        1
176
     1
 40
1.0
176
     1
 90
        0
176
     1
 62
   257
176
     1
 40
1.0
176
     1
 90
        1
176
     1
 90
        6
176
     1
 90
        2
176
     1
 62
     7
176
     1
 90
        5
176
     1
 90
        0
176
     1
 90
        0
176
     1
290
     0
176
     1
 90
       13
176
     1
 40
0.0
176
     1
 90
        0
176
     1
290
     0
176
     1
290
     1
176
     1
290
     1
176
     1
290
     0
176
     1
290
     0
176
     1
290
     0
176
     1
290
     0
176
     1
290
     0
176
     1
290
     0
176
     1
 90
       50
176
     1
 40
0.0
176
     1
 40
1.0
176
     1
 90
        0
176
     1
 62
    18
420
        0
176
     1
 90
       50
176
     1
 90
        3
176
     1
 62
     5
420
      255
176
     1
290
     0
176
     1
 90
       50
176
     1
 90
       50
176
     1
 90
       50
176
     1
290
     0
176
     1
 90
       50
176
     1
 62
   256
176
     0
 40
1.0
176
     0
 90
        2
176
     1
  1
strokes_ogs.tif
176
     1
290
     0
176
     1
 40
1.0
176
     1
 40
1.0
176
     1
  0
VISUALSTYLE
  5
2D
102
{ACAD_REACTORS
330
2A
102
}
330
2A
100
AcDbVisualStyle
  2
Gouraud
 70
     2
177
     3
291
     1
 70
    58
 90
        2
176
     1
 90
        2
176
     1
 90
        1
176
     1
 90
        2
176
     1
 40
0.6
176
     1
 40
30.0
176
     1
 62
     7
420
 16777215
176
     1
 90
        0
176
     1
 90
        0
176
     1
 62
     7
176
     1
 62
   257
176
     1
 90
        1
176
     1
 90
        1
176
     1
 40
1.0
176
     1
 90
        0
176
     1
 62
     7
176
     1
 40
1.0
176
     1
 90
        1
176
     1
 90
        6
176
     1
 90
        2
176
     1
 62
     7
176
     1
 90
        5
176
     1
 90
        0
176
     1
 90
        0
176
     1
290
     0
176
     1
 90
       13
176
     1
 40
0.0
176
     1
 90
        0
176
     1
290
     0
176
     1
290
     1
176
     1
290
     1
176
     1
290
     0
176
     1
290
     0
176
     1
290
     0
176
     1
290
     0
176
     1
290
     0
176
     1
290
     0
176
     1
 90
       50
176
     1
 40
0.0
176
     1
 40
1.0
176
     1
 90
        0
176
     1
 62
    18
420
        0
176
     1
 90
       50
176
     1
 90
        3
176
     1
 62
     5
420
      255
176
     1
290
     0
176
     1
 90
       50
176
     1
 90
       50
176
     1
 90
       50
176
     1
290
     0
176
     1
 90
       50
176
     1
 62
   256
176
     0
 40
1.0
176
     0
 90
        2
176
     1
  1
strokes_ogs.tif
176
     1
290
     0
176
     1
 40
1.0
176
     1
 40
1.0
176
     1
  0
VISUALSTYLE
  5
2E
102
{ACAD_REACTORS
330
2A
102
}
330
2A
100
AcDbVisualStyle
  2
GouraudWithEdges
 70
     3
177
     3
291
     1
 70
    58
 90
        2
176
     1
 90
        2
176
     1
 90
        1
176
     1
 90
        2
176
     1
 40
0.6
176
     1
 40
30.0
176
     1
 62
     7
420
 16777215
176
     1
 90
        1
176
     1
 90
        0
176
     1
 62
     7
176
     1
 62
   257
176
     1
 90
        1
176
     1
 90
        1
176
     1
 40
1.0
176
     1
 90
        0
176
     1
 62
   257
176
     1
 40
1.0
176
     1
 90
        1
176
     1
 90
        6
176
     1
 90
        2
176
     1
 62
     7
176
     1
 90
        5
176
     1
 90
        0
176
     1
 90
        0
176
     1
290
     0
176
     1
 90
       13
176
     1
 40
0.0
176
     1
 90
        0
176
     1
290
     0
176
     1
290
     1
176
     1
290
     1
176
     1
290
     0
176
     1
290
     0
176
     1
290
     0
176
     1
290
     0
176
     1
290
     0
176
     1
290
     0
176
     1
 90
       50
176
     1
 40
0.0
176
     1
 40
1.0
176
     1
 90
        0
176
     1
 62
    18
420
        0
176
     1
 90
       50
176
     1
 90
        3
176
     1
 62
     5
420
      255
176
     1
290
     0
176
     1
 90
       50
176
     1
 90
       50
176
     1
 90
       50
176
     1
290
     0
176
     1
 90
       50
176
     1
 62
   256
176
     0
 40
1.0
176
     0
 90
        2
176
     1
  1
strokes_ogs.tif
176
     1
290
     0
176
     1
 40
1.0
176
     1
 40
1.0
176
     1
  0
VISUALSTYLE
  5
31
102
{ACAD_REACTORS
330
2A
102
}
330
2A
100
AcDbVisualStyle
  2
Hidden
 70
     6
177
     3
291
     0
 70
    58
 90
        1
176
     1
 90
        2
176
     1
 90
        2
176
     1
 90
        0
176
     1
 40
0.6
176
     1
 40
30.0
176
     1
 62
     7
420
 16777215
176
     1
 90
        2
176
     1
 90
        2
176
     1
 62
     7
176
     1
 62
   257
176
     1
 90
        2
176
     1
 90
        1
176
     1
 40
40.0
176
     1
 90
        0
176
     1
 62
   257
176
     1
 40
1.0
176
     1
 90
        1
176
     1
 90
        6
176
     1
 90
        2
176
     1
 62
     7
176
     1
 90
        3
176
     1
 90
        0
176
     1
 90
        0
176
     1
290
     0
176
     1
 90
        1
176
     1
 40
0.0
176
     1
 90
        0
176
     1
290
     0
176
     1
290
     1
176
     1
290
     1
176
     1
290
     0
176
     1
290
     0
176
     1
290
     0
176
     1
290
     0
176
     1
290
     0
176
     1
290
     0
176
     1
 90
       50
176
     1
 40
0.0
176
     1
 40
1.0
176
     1
 90
        0
176
     1
 62
    18
420
        0
176
     1
 90
       50
176
     1
 90
        3
176
     1
 62
     5
420
      255
176
     1
290
     0
176
     1
 90
       50
176
     1
 90
       50
176
     1
 90
       50
176
     1
290
     0
176
     1
 90
       50
176
     1
 62
   256
176
     0
 40
1.0
176
     0
 90
        2
176
     1
  1
strokes_ogs.tif
176
     1
290
     0
176
     1
 40
1.0
176
     1
 40
1.0
176
     1
  0
VISUALSTYLE
  5
3B
102
{ACAD_REACTORS
330
2A
102
}
330
2A
100
AcDbVisualStyle
  2
JitterOff
 70
    20
177
     3
291
     1
 70
    58
 90
        2
176
     0
 90
        2
176
     0
 90
        0
176
     0
 90
        0
176
     0
 40
0.6
176
     0
 40
30.0
176
     0
 62
     7
420
 16777215
176
     0
 90
        1
176
     0
 90
        4
176
     0
 62
     7
176
     0
 62
   257
176
     0
 90
        1
176
     0
 90
        1
176
     0
 40
1.0
176
     0
 90
       10
176
     2
 62
     7
176
     0
 40
1.0
176
     0
 90
        1
176
     0
 90
        6
176
     0
 90
        2
176
     0
 62
     7
176
     0
 90
        5
176
     0
 90
        0
176
     0
 90
        0
176
     0
290
     0
176
     0
 90
        1
176
     0
 40
0.0
176
     0
 90
        0
176
     0
290
     0
176
     0
290
     1
176
     0
290
     1
176
     0
290
     0
176
     0
290
     0
176
     0
290
     0
176
     0
290
     0
176
     0
290
     0
176
     0
290
     0
176
     0
 90
       50
176
     0
 40
0.0
176
     0
 40
1.0
176
     0
 90
        0
176
     0
 62
    18
420
        0
176
     0
 90
       50
176
     0
 90
        3
176
     0
 62
     5
420
      255
176
     0
290
     0
176
     0
 90
       50
176
     0
 90
       50
176
     0
 90
       50
176
     0
290
     0
176
     0
 90
       50
176
     0
 62
   256
176
     0
 40
1.0
176
     0
 90
        2
176
     0
  1
strokes_ogs.tif
176
     0
290
     0
176
     0
 40
1.0
176
     0
 40
1.0
176
     0
  0
VISUALSTYLE
  5
38
102
{ACAD_REACTORS
330
2A
102
}
330
2A
100
AcDbVisualStyle
  2
Linepattern
 70
    14
177
     3
291
     1
 70
    58
 90
        2
176
     1
 90
        2
176
     1
 90
        0
176
     1
 90
        0
176
     1
 40
0.6
176
     1
 40
30.0
176
     1
 62
     7
420
 16777215
176
     1
 90
        1
176
     1
 90
        4
176
     1
 62
     7
176
     1
 62
   257
176
     1
 90
        7
176
     1
 90
        7
176
     1
 40
1.0
176
     1
 90
        8
176
     1
 62
     7
176
     1
 40
1.0
176
     1
 90
        1
176
     1
 90
        6
176
     1
 90
        2
176
     1
 62
     7
176
     1
 90
        5
176
     1
 90
        0
176
     1
 90
        0
176
     1
290
     0
176
     1
 90
        1
176
     1
 40
0.0
176
     1
 90
        0
176
     1
290
     0
176
     1
290
     1
176
     1
290
     1
176
     1
290
     0
176
     1
290
     0
176
     1
290
     0
176
     1
290
     0
176
     1
290
     0
176
     1
290
     0
176
     1
 90
       50
176
     1
 40
0.0
176
     1
 40
1.0
176
     1
 90
        0
176
     1
 62
    18
420
        0
176
     1
 90
       50
176
     1
 90
        3
176
     1
 62
     5
420
      255
176
     1
290
     0
176
     1
 90
       50
176
     1
 90
       50
176
     1
 90
       50
176
     1
290
     0
176
     1
 90
       50
176
     1
 62
   256
176
     0
 40
1.0
176
     0
 90
        2
176
     1
  1
strokes_ogs.tif
176
     1
290
     0
176
     1
 40
1.0
176
     1
 40
1.0
176
     1
  0
VISUALSTYLE
  5
3C
102
{ACAD_REACTORS
330
2A
102
}
330
2A
100
AcDbVisualStyle
  2
OverhangOff
 70
    21
177
     3
291
     1
 70
    58
 90
        2
176
     0
 90
        2
176
     0
 90
        0
176
     0
 90
        0
176
     0
 40
0.6
176
     0
 40
30.0
176
     0
 62
     7
420
 16777215
176
     0
 90
        1
176
     0
 90
        4
176
     0
 62
     7
176
     0
 62
   257
176
     0
 90
        1
176
     0
 90
        1
176
     0
 40
1.0
176
     0
 90
        9
176
     2
 62
     7
176
     0
 40
1.0
176
     0
 90
        1
176
     0
 90
        6
176
     0
 90
        2
176
     0
 62
     7
176
     0
 90
        5
176
     0
 90
        0
176
     0
 90
        0
176
     0
290
     0
176
     0
 90
        1
176
     0
 40
0.0
176
     0
 90
        0
176
     0
290
     0
176
     0
290
     1
176
     0
290
     1
176
     0
290
     0
176
     0
290
     0
176
     0
290
     0
176
     0
290
     0
176
     0
290
     0
176
     0
290
     0
176
     0
 90
       50
176
     0
 40
0.0
176
     0
 40
1.0
176
     0
 90
        0
176
     0
 62
    18
420
        0
176
     0
 90
       50
176
     0
 90
        3
176
     0
 62
     5
420
      255
176
     0
290
     0
176
     0
 90
       50
176
     0
 90
       50
176
     0
 90
       50
176
     0
290
     0
176
     0
 90
       50
176
     0
 62
   256
176
     0
 40
1.0
176
     0
 90
        2
176
     0
  1
strokes_ogs.tif
176
     0
290
     0
176
     0
 40
1.0
176
     0
 40
1.0
176
     0
  0
VISUALSTYLE
  5
33
102
{ACAD_REACTORS
330
2A
102
}
330
2A
100
AcDbVisualStyle
  2
Realistic
 70
     8
177
     3
291
     0
 70
    58
 90
        2
176
     1
 90
        3
176
     1
 90
        0
176
     1
 90
        2
176
     1
 40
0.6
176
     1
 40
30.0
176
     1
 62
     7
420
 16777215
176
     1
 90
        0
176
     1
 90
        0
176
     1
 62
     7
176
     1
 62
   257
176
     1
 90
        1
176
     1
 90
        1
176
     1
 40
1.0
176
     1
 90
        8
176
     1
 62
   257
176
     1
 40
1.0
176
     1
 90
        1
176
     1
 90
        6
176
     1
 90
        2
176
     1
 62
     7
176
     1
 90
        3
176
     1
 90
        0
176
     1
 90
        0
176
     1
290
     0
176
     1
 90
       13
176
     1
 40
0.0
176
     1
 90
        0
176
     1
290
     0
176
     1
290
     1
176
     1
290
     1
176
     1
290
     0
176
     1
290
     0
176
     1
290
     0
176
     1
290
     0
176
     1
290
     0
176
     1
290
     0
176
     1
 90
       50
176
     1
 40
0.0
176
     1
 40
1.0
176
     1
 90
        0
176
     1
 62
    18
420
        0
176
     1
 90
       50
176
     1
 90
        3
176
     1
 62
     5
420
      255
176
     1
290
     0
176
     1
 90
       50
176
     1
 90
       50
176
     1
 90
       50
176
     1
290
     0
176
     1
 90
       50
176
     1
 62
   256
176
     0
 40
1.0
176
     0
 90
        2
176
     1
  1
strokes_ogs.tif
176
     1
290
     0
176
     1
 40
1.0
176
     1
 40
1.0
176
     1
  0
VISUALSTYLE
  5
42
102
{ACAD_REACTORS
330
2A
102
}
330
2A
100
AcDbVisualStyle
  2
Shaded
 70
    27
177
     3
291
     0
 70
    58
 90
        2
176
     1
 90
        2
176
     1
 90
        1
176
     1
 90
        2
176
     1
 40
0.6
176
     1
 40
30.0
176
     1
 62
     7
420
 16777215
176
     1
 90
        0
176
     1
 90
        4
176
     1
 62
     7
176
     1
 62
   257
176
     1
 90
        1
176
     1
 90
        1
176
     1
 40
1.0
176
     1
 90
        8
176
     1
 62
   257
176
     1
 40
1.0
176
     1
 90
        1
176
     1
 90
        6
176
     1
 90
        2
176
     1
 62
     8
420
  7895160
176
     1
 90
        3
176
     1
 90
        0
176
     1
 90
        0
176
     1
290
     0
176
     1
 90
        5
176
     1
 40
0.0
176
     1
 90
        0
176
     1
290
     0
176
     1
290
     1
176
     1
290
     1
176
     1
290
     0
176
     1
290
     0
176
     1
290
     0
176
     1
290
     0
176
     1
290
     0
176
     1
290
     0
176
     1
 90
       50
176
     1
 40
0.0
176
     1
 40
1.0
176
     1
 90
        0
176
     1
 62
    18
420
        0
176
     1
 90
       50
176
     1
 90
        3
176
     1
 62
     5
420
      255
176
     1
290
     0
176
     1
 90
       50
176
     1
 90
       50
176
     1
 90
       50
176
     1
290
     0
176
     1
 90
       50
176
     1
 62
   256
176
     0
 40
1.0
176
     0
 90
        2
176
     1
  1
strokes_ogs.tif
176
     1
290
     0
176
     1
 40
1.0
176
     1
 40
1.0
176
     1
  0
VISUALSTYLE
  5
41
102
{ACAD_REACTORS
330
2A
102
}
330
2A
100
AcDbVisualStyle
  2
Shaded with edges
 70
    26
177
     3
291
     0
 70
    58
 90
        2
176
     1
 90
        2
176
     1
 90
        1
176
     1
 90
        2
176
     1
 40
0.6
176
     1
 40
30.0
176
     1
 62
     7
420
 16777215
176
     1
 90
        1
176
     1
 90
       10
176
     1
 62
     7
176
     1
 62
   257
176
     1
 90
        2
176
     1
 90
        1
176
     1
 40
1.0
176
     1
 90
        8
176
     1
 62
   257
176
     1
 40
1.0
176
     1
 90
        1
176
     1
 90
        6
176
     1
 90
        2
176
     1
 62
     7
176
     1
 90
        3
176
     1
 90
        0
176
     1
 90
        0
176
     1
290
     0
176
     1
 90
        5
176
     1
 40
0.0
176
     1
 90
        0
176
     1
290
     0
176
     1
290
     1
176
     1
290
     1
176
     1
290
     0
176
     1
290
     0
176
     1
290
     0
176
     1
290
     0
176
     1
290
     0
176
     1
290
     0
176
     1
 90
       50
176
     1
 40
0.0
176
     1
 40
1.0
176
     1
 90
        0
176
     1
 62
    18
420
        0
176
     1
 90
       50
176
     1
 90
        3
176
     1
 62
     5
420
      255
176
     1
290
     0
176
     1
 90
       50
176
     1
 90
       50
176
     1
 90
       50
176
     1
290
     0
176
     1
 90
       50
176
     1
 62
   256
176
     0
 40
1.0
176
     0
 90
        2
176
     1
  1
strokes_ogs.tif
176
     1
290
     0
176
     1
 40
1.0
176
     1
 40
1.0
176
     1
  0
VISUALSTYLE
  5
3E
102
{ACAD_REACTORS
330
2A
102
}
330
2A
100
AcDbVisualStyle
  2
Shades of Gray
 70
    23
177
     3
291
     0
 70
    58
 90
        2
176
     1
 90
        2
176
     1
 90
        3
176
     1
 90
        0
176
     1
 40
0.6
176
     1
 40
30.0
176
     1
 62
     7
420
 16777215
176
     1
 90
        2
176
     1
 90
        2
176
     1
 62
     7
176
     1
 62
     7
176
     1
 90
        1
176
     1
 90
        1
176
     1
 40
40.0
176
     1
 90
        8
176
     1
 62
     7
176
     1
 40
1.0
176
     1
 90
        1
176
     1
 90
        6
176
     1
 90
        2
176
     1
 62
     7
176
     1
 90
        3
176
     1
 90
        0
176
     1
 90
        0
176
     1
290
     0
176
     1
 90
        1
176
     1
 40
0.0
176
     1
 90
        0
176
     1
290
     0
176
     1
290
     1
176
     1
290
     1
176
     1
290
     0
176
     1
290
     0
176
     1
290
     0
176
     1
290
     0
176
     1
290
     0
176
     1
290
     0
176
     1
 90
       50
176
     1
 40
0.0
176
     1
 40
1.0
176
     1
 90
        0
176
     1
 62
    18
420
        0
176
     1
 90
       50
176
     1
 90
        3
176
     1
 62
     5
420
      255
176
     1
290
     0
176
     1
 90
       50
176
     1
 90
       50
176
     1
 90
       50
176
     1
290
     0
176
     1
 90
       50
176
     1
 62
   256
176
     0
 40
1.0
176
     0
 90
        2
176
     1
  1
strokes_ogs.tif
176
     1
290
     0
176
     1
 40
1.0
176
     1
 40
1.0
176
     1
  0
VISUALSTYLE
  5
3F
102
{ACAD_REACTORS
330
2A
102
}
330
2A
100
AcDbVisualStyle
  2
Sketchy
 70
    24
177
     3
291
     0
 70
    58
 90
        1
176
     1
 90
        2
176
     1
 90
        2
176
     1
 90
        0
176
     1
 40
0.6
176
     1
 40
30.0
176
     1
 62
     7
420
 16777215
176
     1
 90
        2
176
     1
 90
        2
176
     1
 62
     7
176
     1
 62
     7
176
     1
 90
        1
176
     1
 90
        1
176
     1
 40
40.0
176
     1
 90
       11
176
     1
 62
     7
176
     1
 40
1.0
176
     1
 90
        1
176
     1
 90
        6
176
     1
 90
        2
176
     1
 62
     7
176
     1
 90
        6
176
     1
 90
        0
176
     1
 90
        0
176
     1
290
     0
176
     1
 90
        1
176
     1
 40
0.0
176
     1
 90
        0
176
     1
290
     0
176
     1
290
     1
176
     1
290
     1
176
     1
290
     0
176
     1
290
     0
176
     1
290
     0
176
     1
290
     0
176
     1
290
     0
176
     1
290
     0
176
     1
 90
       50
176
     1
 40
0.0
176
     1
 40
1.0
176
     1
 90
        0
176
     1
 62
    18
420
        0
176
     1
 90
       50
176
     1
 90
        3
176
     1
 62
     5
420
      255
176
     1
290
     0
176
     1
 90
       50
176
     1
 90
       50
176
     1
 90
       50
176
     1
290
     0
176
     1
 90
       50
176
     1
 62
   256
176
     0
 40
1.0
176
     0
 90
        2
176
     1
  1
strokes_ogs.tif
176
     1
290
     0
176
     1
 40
1.0
176
     1
 40
1.0
176
     1
  0
VISUALSTYLE
  5
37
102
{ACAD_REACTORS
330
2A
102
}
330
2A
100
AcDbVisualStyle
  2
Thicken
 70
    13
177
     3
291
     1
 70
    58
 90
        2
176
     1
 90
        2
176
     1
 90
        0
176
     1
 90
        0
176
     1
 40
0.6
176
     1
 40
30.0
176
     1
 62
     7
420
 16777215
176
     1
 90
        1
176
     1
 90
        4
176
     1
 62
     7
176
     1
 62
   257
176
     1
 90
        1
176
     1
 90
        1
176
     1
 40
1.0
176
     1
 90
       12
176
     1
 62
     7
176
     1
 40
1.0
176
     1
 90
        1
176
     1
 90
        6
176
     1
 90
        2
176
     1
 62
     7
176
     1
 90
        5
176
     1
 90
        0
176
     1
 90
        0
176
     1
290
     0
176
     1
 90
        1
176
     1
 40
0.0
176
     1
 90
        0
176
     1
290
     0
176
     1
290
     1
176
     1
290
     1
176
     1
290
     0
176
     1
290
     0
176
     1
290
     0
176
     1
290
     0
176
     1
290
     0
176
     1
290
     0
176
     1
 90
       50
176
     1
 40
0.0
176
     1
 40
1.0
176
     1
 90
        0
176
     1
 62
    18
420
        0
176
     1
 90
       50
176
     1
 90
        3
176
     1
 62
     5
420
      255
176
     1
290
     0
176
     1
 90
       50
176
     1
 90
       50
176
     1
 90
       50
176
     1
290
     0
176
     1
 90
       50
176
     1
 62
   256
176
     0
 40
1.0
176
     0
 90
        2
176
     1
  1
strokes_ogs.tif
176
     1
290
     0
176
     1
 40
1.0
176
     1
 40
1.0
176
     1
  0
VISUALSTYLE
  5
30
102
{ACAD_REACTORS
330
2A
102
}
330
2A
100
AcDbVisualStyle
  2
Wireframe
 70
     5
177
     3
291
     0
 70
    58
 90
        0
176
     1
 90
        2
176
     1
 90
        0
176
     1
 90
        0
176
     1
 40
0.6
176
     1
 40
30.0
176
     1
 62
     7
420
 16777215
176
     1
 90
        1
176
     1
 90
        4
176
     1
 62
     7
176
     1
 62
   257
176
     1
 90
        1
176
     1
 90
        1
176
     1
 40
1.0
176
     1
 90
        0
176
     1
 62
   257
176
     1
 40
1.0
176
     1
 90
        1
176
     1
 90
        6
176
     1
 90
        2
176
     1
 62
     7
176
     1
 90
        3
176
     1
 90
        0
176
     1
 90
        0
176
     1
290
     0
176
     1
 90
        1
176
     1
 40
0.0
176
     1
 90
        0
176
     1
290
     0
176
     1
290
     1
176
     1
290
     1
176
     1
290
     0
176
     1
290
     0
176
     1
290
     0
176
     1
290
     0
176
     1
290
     0
176
     1
290
     0
176
     1
 90
       50
176
     1
 40
0.0
176
     1
 40
1.0
176
     1
 90
        0
176
     1
 62
    18
420
        0
176
     1
 90
       50
176
     1
 90
        3
176
     1
 62
     5
420
      255
176
     1
290
     0
176
     1
 90
       50
176
     1
 90
       50
176
     1
 90
       50
176
     1
290
     0
176
     1
 90
       50
176
     1
 62
   256
176
     0
 40
1.0
176
     0
 90
        2
176
     1
  1
strokes_ogs.tif
176
     1
290
     0
176
     1
 40
1.0
176
     1
 40
1.0
176
     1
  0
VISUALSTYLE
  5
40
102
{ACAD_REACTORS
330
2A
102
}
330
2A
100
AcDbVisualStyle
  2
X-Ray
 70
    25
177
     3
291
     0
 70
    58
 90
        2
176
     1
 90
        2
176
     1
 90
        1
176
     1
 90
        1
176
     1
 40
0.5
176
     1
 40
30.0
176
     1
 62
     7
420
 16777215
176
     1
 90
        1
176
     1
 90
        0
176
     1
 62
     7
176
     1
 62
   257
176
     1
 90
        1
176
     1
 90
        1
176
     1
 40
1.0
176
     1
 90
        8
176
     1
 62
     7
176
     1
 40
1.0
176
     1
 90
        1
176
     1
 90
        6
176
     1
 90
        2
176
     1
 62
     7
176
     1
 90
        3
176
     1
 90
        0
176
     1
 90
        0
176
     1
290
     0
176
     1
 90
       13
176
     1
 40
0.0
176
     1
 90
        0
176
     1
290
     0
176
     1
290
     1
176
     1
290
     1
176
     1
290
     0
176
     1
290
     0
176
     1
290
     0
176
     1
290
     0
176
     1
290
     0
176
     1
290
     0
176
     1
 90
       50
176
     1
 40
0.0
176
     1
 40
1.0
176
     1
 90
        0
176
     1
 62
    18
420
        0
176
     1
 90
       50
176
     1
 90
        3
176
     1
 62
     5
420
      255
176
     1
290
     0
176
     1
 90
       50
176
     1
 90
       50
176
     1
 90
       50
176
     1
290
     0
176
     1
 90
       50
176
     1
 62
   256
176
     0
 40
1.0
176
     0
 90
        2
176
     1
  1
strokes_ogs.tif
176
     1
290
     0
176
     1
 40
1.0
176
     1
 40
1.0
176
     1
  0
DICTIONARYVAR
  5
103
102
{ACAD_REACTORS
330
102
102
}
330
102
100
DictionaryVariables
280
     0
  1
1:1
  0
DICTIONARYVAR
  5
108
102
{ACAD_REACTORS
330
102
102
}
330
102
100
DictionaryVariables
280
     0
  1
Standard
  0
DICTIONARYVAR
  5
107
102
{ACAD_REACTORS
330
102
102
}
330
102
100
DictionaryVariables
280
     0
  1
Standard
  0
DICTIONARY
  5
104
330
6A
100
AcDbDictionary
280
     1
281
     1
  3
ACAD_ROUNDTRIP_2008_TABLESTYLE_CELLSTYLEMAP
360
105
  0
CELLSTYLEMAP
  5
105
102
{ACAD_REACTORS
330
104
102
}
330
104
100
AcDbCellStyleMap
 90
        3
300
CELLSTYLE
  1
TABLEFORMAT_BEGIN
 90
        5
170
     1
 91
        0
 92
    32768
 62
   257
 93
        1
300
CONTENTFORMAT
  1
CONTENTFORMAT_BEGIN
 90
        0
 91
        0
 92
        4
 93
        0
300

 40
0.0
140
1.0
 94
        5
 62
     0
340
11
144
6.0
309
CONTENTFORMAT_END
171
     1
301
MARGIN
  1
CELLMARGIN_BEGIN
 40
1.5
 40
1.5
 40
1.5
 40
1.5
 40
1.5
 40
1.5
309
CELLMARGIN_END
 94
        6
 95
        1
302
GRIDFORMAT
  1
GRIDFORMAT_BEGIN
 90
        0
 91
        1
 62
     0
 92
       -2
340
14
 93
        0
 40
0.045
309
GRIDFORMAT_END
 95
        2
302
GRIDFORMAT
  1
GRIDFORMAT_BEGIN
 90
        0
 91
        1
 62
     0
 92
       -2
340
14
 93
        0
 40
0.045
309
GRIDFORMAT_END
 95
        4
302
GRIDFORMAT
  1
GRIDFORMAT_BEGIN
 90
        0
 91
        1
 62
     0
 92
       -2
340
14
 93
        0
 40
0.045
309
GRIDFORMAT_END
 95
        8
302
GRIDFORMAT
  1
GRIDFORMAT_BEGIN
 90
        0
 91
        1
 62
     0
 92
       -2
340
14
 93
        0
 40
0.045
309
GRIDFORMAT_END
 95
       16
302
GRIDFORMAT
  1
GRIDFORMAT_BEGIN
 90
        0
 91
        1
 62
     0
 92
       -2
340
14
 93
        0
 40
0.045
309
GRIDFORMAT_END
 95
       32
302
GRIDFORMAT
  1
GRIDFORMAT_BEGIN
 90
        0
 91
        1
 62
     0
 92
       -2
340
14
 93
        0
 40
0.045
309
GRIDFORMAT_END
309
TABLEFORMAT_END
  1
CELLSTYLE_BEGIN
 90
        1
 91
        1
300
_TITLE
309
CELLSTYLE_END
300
CELLSTYLE
  1
TABLEFORMAT_BEGIN
 90
        5
170
     1
 91
        0
 92
        0
 62
   257
 93
        1
300
CONTENTFORMAT
  1
CONTENTFORMAT_BEGIN
 90
        0
 91
        0
 92
        4
 93
        0
300

 40
0.0
140
1.0
 94
        5
 62
     0
340
11
144
4.5
309
CONTENTFORMAT_END
171
     1
301
MARGIN
  1
CELLMARGIN_BEGIN
 40
1.5
 40
1.5
 40
1.5
 40
1.5
 40
1.5
 40
1.5
309
CELLMARGIN_END
 94
        6
 95
        1
302
GRIDFORMAT
  1
GRIDFORMAT_BEGIN
 90
        0
 91
        1
 62
     0
 92
       -2
340
14
 93
        0
 40
0.045
309
GRIDFORMAT_END
 95
        2
302
GRIDFORMAT
  1
GRIDFORMAT_BEGIN
 90
        0
 91
        1
 62
     0
 92
       -2
340
14
 93
        0
 40
0.045
309
GRIDFORMAT_END
 95
        4
302
GRIDFORMAT
  1
GRIDFORMAT_BEGIN
 90
        0
 91
        1
 62
     0
 92
       -2
340
14
 93
        0
 40
0.045
309
GRIDFORMAT_END
 95
        8
302
GRIDFORMAT
  1
GRIDFORMAT_BEGIN
 90
        0
 91
        1
 62
     0
 92
       -2
340
14
 93
        0
 40
0.045
309
GRIDFORMAT_END
 95
       16
302
GRIDFORMAT
  1
GRIDFORMAT_BEGIN
 90
        0
 91
        1
 62
     0
 92
       -2
340
14
 93
        0
 40
0.045
309
GRIDFORMAT_END
 95
       32
302
GRIDFORMAT
  1
GRIDFORMAT_BEGIN
 90
        0
 91
        1
 62
     0
 92
       -2
340
14
 93
        0
 40
0.045
309
GRIDFORMAT_END
309
TABLEFORMAT_END
  1
CELLSTYLE_BEGIN
 90
        2
 91
        1
300
_HEADER
309
CELLSTYLE_END
300
CELLSTYLE
  1
TABLEFORMAT_BEGIN
 90
        5
170
     1
 91
        0
 92
        0
 62
   257
 93
        1
300
CONTENTFORMAT
  1
CONTENTFORMAT_BEGIN
 90
        0
 91
        0
 92
        4
 93
        0
300

 40
0.0
140
1.0
 94
        2
 62
     0
340
11
144
4.5
309
CONTENTFORMAT_END
171
     1
301
MARGIN
  1
CELLMARGIN_BEGIN
 40
1.5
 40
1.5
 40
1.5
 40
1.5
 40
1.5
 40
1.5
309
CELLMARGIN_END
 94
        6
 95
        1
302
GRIDFORMAT
  1
GRIDFORMAT_BEGIN
 90
        0
 91
        1
 62
     0
 92
       -2
340
14
 93
        0
 40
0.045
309
GRIDFORMAT_END
 95
        2
302
GRIDFORMAT
  1
GRIDFORMAT_BEGIN
 90
        0
 91
        1
 62
     0
 92
       -2
340
14
 93
        0
 40
0.045
309
GRIDFORMAT_END
 95
        4
302
GRIDFORMAT
  1
GRIDFORMAT_BEGIN
 90
        0
 91
        1
 62
     0
 92
       -2
340
14
 93
        0
 40
0.045
309
GRIDFORMAT_END
 95
        8
302
GRIDFORMAT
  1
GRIDFORMAT_BEGIN
 90
        0
 91
        1
 62
     0
 92
       -2
340
14
 93
        0
 40
0.045
309
GRIDFORMAT_END
 95
       16
302
GRIDFORMAT
  1
GRIDFORMAT_BEGIN
 90
        0
 91
        1
 62
     0
 92
       -2
340
14
 93
        0
 40
0.045
309
GRIDFORMAT_END
 95
       32
302
GRIDFORMAT
  1
GRIDFORMAT_BEGIN
 90
        0
 91
        1
 62
     0
 92
       -2
340
14
 93
        0
 40
0.045
309
GRIDFORMAT_END
309
TABLEFORMAT_END
  1
CELLSTYLE_BEGIN
 90
        3
 91
        2
300
_DATA
309
CELLSTYLE_END
  0
ENDSEC
  0
EOF
