  0
SECTION
  2
HEADER
  9
$ACADVER
  1
AC1027
  9
$ACADMAINTVER
 70
   105
  9
$DWGCODEPAGE
  3
ANSI_1252
  9
$REQUIREDVERSIONS
160
                 0
  9
$INSBASE
 10
0.0
 20
0.0
 30
0.0
  9
$EXTMIN
 10
-195.0
 20
-195.0
 30
0.0
  9
$EXTMAX
 10
195.0
 20
195.0
 30
0.0
  9
$LIMMIN
 10
0.0
 20
0.0
  9
$LIMMAX
 10
420.0
 20
297.0
  9
$ORTHOMODE
 70
     0
  9
$REGENMODE
 70
     1
  9
$FILLMODE
 70
     1
  9
$QTEXTMODE
 70
     0
  9
$MIRRTEXT
 70
     1
  9
$LTSCALE
 40
1.0
  9
$ATTMODE
 70
     1
  9
$TEXTSIZE
 40
3.5
  9
$TRACEWID
 40
1.0
  9
$TEXTSTYLE
  7
STANDARD
  9
$CLAYER
  8
0
  9
$CELTYPE
  6
ByLayer
  9
$CECOLOR
 62
   256
  9
$CELTSCALE
 40
1.0
  9
$DISPSILH
 70
     0
  9
$DIMSCALE
 40
1.0
  9
$DIMASZ
 40
7.4083333333
  9
$DIMEXO
 40
1.0
  9
$DIMDLI
 40
3.75
  9
$DIMRND
 40
0.0
  9
$DIMDLE
 40
0.0
  9
$DIMEXE
 40
1.0
  9
$DIMTP
 40
0.0
  9
$DIMTM
 40
0.0
  9
$DIMTXT
 40
9.8777777778
  9
$DIMCEN
 40
2.5
  9
$DIMTSZ
 40
0.0
  9
$DIMTOL
 70
     0
  9
$DIMLIM
 70
     0
  9
$DIMTIH
 70
     1
  9
$DIMTOH
 70
     1
  9
$DIMSE1
 70
     0
  9
$DIMSE2
 70
     0
  9
$DIMTAD
 70
     1
  9
$DIMZIN
 70
     0
  9
$DIMBLK
  1

  9
$DIMASO
 70
     1
  9
$DIMSHO
 70
     1
  9
$DIMPOST
  1

  9
$DIMAPOST
  1

  9
$DIMALT
 70
     0
  9
$DIMALTD
 70
     3
  9
$DIMALTF
 40
0.0393700787
  9
$DIMLFAC
 40
1.0
  9
$DIMTOFL
 70
     1
  9
$DIMTVP
 40
0.0
  9
$DIMTIX
 70
     0
  9
$DIMSOXD
 70
     0
  9
$DIMSAH
 70
     0
  9
$DIMBLK1
  1

  9
$DIMBLK2
  1

  9
$DIMSTYLE
  2
ISO-25
  9
$DIMCLRD
 70
     0
  9
$DIMCLRE
 70
     0
  9
$DIMCLRT
 70
     0
  9
$DIMTFAC
 40
1.0
  9
$DIMGAP
 40
1.524
  9
$DIMJUST
 70
     0
  9
$DIMSD1
 70
     0
  9
$DIMSD2
 70
     0
  9
$DIMTOLJ
 70
     0
  9
$DIMTZIN
 70
     0
  9
$DIMALTZ
 70
     0
  9
$DIMALTTZ
 70
     0
  9
$DIMUPT
 70
     0
  9
$DIMDEC
 70
     2
  9
$DIMTDEC
 70
     2
  9
$DIMALTU
 70
     2
  9
$DIMALTTD
 70
     3
  9
$DIMTXSTY
  7
STANDARD
  9
$DIMAUNIT
 70
     0
  9
$DIMADEC
 70
     2
  9
$DIMALTRND
 40
0.0
  9
$DIMAZIN
 70
     0
  9
$DIMDSEP
 70
    44
  9
$DIMATFIT
 70
     3
  9
$DIMFRAC
 70
     0
  9
$DIMLDRBLK
  1

  9
$DIMLUNIT
 70
     2
  9
$DIMLWD
 70
    -2
  9
$DIMLWE
 70
    -2
  9
$DIMTMOVE
 70
     0
  9
$DIMFXL
 40
1.0
  9
$DIMFXLON
 70
     0
  9
$DIMJOGANG
 40
0.7853981634
  9
$DIMTFILL
 70
     0
  9
$DIMTFILLCLR
 70
     0
  9
$DIMARCSYM
 70
     0
  9
$DIMLTYPE
  6

  9
$DIMLTEX1
  6

  9
$DIMLTEX2
  6

  9
$DIMTXTDIRECTION
 70
     0
  9
$LUNITS
 70
     2
  9
$LUPREC
 70
     2
  9
$SKETCHINC
 40
1.0
  9
$FILLETRAD
 40
10.0
  9
$AUNITS
 70
     0
  9
$AUPREC
 70
     2
  9
$MENU
  1
.
  9
$ELEVATION
 40
0.0
  9
$PELEVATION
 40
0.0
  9
$THICKNESS
 40
0.0
  9
$LIMCHECK
 70
     0
  9
$CHAMFERA
 40
0.0
  9
$CHAMFERB
 40
0.0
  9
$CHAMFERC
 40
0.0
  9
$CHAMFERD
 40
0.0
  9
$SKPOLY
 70
     0
  9
$TDCREATE
 40
2458299.471627083
  9
$TDUCREATE
 40
2458299.38829375
  9
$TDUPDATE
 40
2458299.47165309
  9
$TDUUPDATE
 40
2458299.388319757
  9
$TDINDWG
 40
0.0000000116
  9
$TDUSRTIMER
 40
0.0000000116
  9
$USRTIMER
 70
     1
  9
$ANGBASE
 50
0.0
  9
$ANGDIR
 70
     0
  9
$PDMODE
 70
     0
  9
$PDSIZE
 40
-1.0
  9
$PLINEWID
 40
0.0
  9
$SPLFRAME
 70
     0
  9
$SPLINETYPE
 70
     6
  9
$SPLINESEGS
 70
     8
  9
$HANDSEED
  5
137
  9
$SURFTAB1
 70
     6
  9
$SURFTAB2
 70
     6
  9
$SURFTYPE
 70
     6
  9
$SURFU
 70
     6
  9
$SURFV
 70
     6
  9
$UCSBASE
  2

  9
$UCSNAME
  2

  9
$UCSORG
 10
0.0
 20
0.0
 30
0.0
  9
$UCSXDIR
 10
1.0
 20
0.0
 30
0.0
  9
$UCSYDIR
 10
0.0
 20
1.0
 30
0.0
  9
$UCSORTHOREF
  2

  9
$UCSORTHOVIEW
 70
     0
  9
$UCSORGTOP
 10
0.0
 20
0.0
 30
0.0
  9
$UCSORGBOTTOM
 10
0.0
 20
0.0
 30
0.0
  9
$UCSORGLEFT
 10
0.0
 20
0.0
 30
0.0
  9
$UCSORGRIGHT
 10
0.0
 20
0.0
 30
0.0
  9
$UCSORGFRONT
 10
0.0
 20
0.0
 30
0.0
  9
$UCSORGBACK
 10
0.0
 20
0.0
 30
0.0
  9
$PUCSBASE
  2

  9
$PUCSNAME
  2

  9
$PUCSORG
 10
0.0
 20
0.0
 30
0.0
  9
$PUCSXDIR
 10
1.0
 20
0.0
 30
0.0
  9
$PUCSYDIR
 10
0.0
 20
1.0
 30
0.0
  9
$PUCSORTHOREF
  2

  9
$PUCSORTHOVIEW
 70
     0
  9
$PUCSORGTOP
 10
0.0
 20
0.0
 30
0.0
  9
$PUCSORGBOTTOM
 10
0.0
 20
0.0
 30
0.0
  9
$PUCSORGLEFT
 10
0.0
 20
0.0
 30
0.0
  9
$PUCSORGRIGHT
 10
0.0
 20
0.0
 30
0.0
  9
$PUCSORGFRONT
 10
0.0
 20
0.0
 30
0.0
  9
$PUCSORGBACK
 10
0.0
 20
0.0
 30
0.0
  9
$USERI1
 70
     0
  9
$USERI2
 70
     0
  9
$USERI3
 70
     0
  9
$USERI4
 70
     0
  9
$USERI5
 70
     0
  9
$USERR1
 40
0.0
  9
$USERR2
 40
0.0
  9
$USERR3
 40
0.0
  9
$USERR4
 40
0.0
  9
$USERR5
 40
0.0
  9
$WORLDVIEW
 70
     1
  9
$SHADEDGE
 70
     3
  9
$SHADEDIF
 70
    70
  9
$TILEMODE
 70
     1
  9
$MAXACTVP
 70
    64
  9
$PINSBASE
 10
0.0
 20
0.0
 30
0.0
  9
$PLIMCHECK
 70
     0
  9
$PEXTMIN
 10
-195.0
 20
0.0
 30
0.0
  9
$PEXTMAX
 10
195.0
 20
160.0
 30
0.0
  9
$PLIMMIN
 10
-225.3501945526
 20
-11.3813229572
  9
$PLIMMAX
 10
225.3501945525
 20
307.2957198444
  9
$UNITMODE
 70
     0
  9
$VISRETAIN
 70
     1
  9
$PLINEGEN
 70
     0
  9
$PSLTSCALE
 70
     1
  9
$TREEDEPTH
 70
  3020
  9
$CMLSTYLE
  2
Standard
  9
$CMLJUST
 70
     0
  9
$CMLSCALE
 40
20.0
  9
$PROXYGRAPHICS
 70
     1
  9
$MEASUREMENT
 70
     1
  9
$CELWEIGHT
370
    -1
  9
$ENDCAPS
280
     0
  9
$JOINSTYLE
280
     0
  9
$LWDISPLAY
290
     1
  9
$INSUNITS
 70
     4
  9
$HYPERLINKBASE
  1

  9
$STYLESHEET
  1

  9
$XEDIT
290
     1
  9
$CEPSNTYPE
380
     0
  9
$PSTYLEMODE
290
     1
  9
$FINGERPRINTGUID
  2
{705132C7-5637-4606-B50A-0A79D2D92FF9}
  9
$VERSIONGUID
  2
{FAEB1C32-E019-11D5-929B-00C0DF256EC4}
  9
$EXTNAMES
290
     1
  9
$PSVPSCALE
 40
0.0
  9
$OLESTARTUP
290
     0
  9
$SORTENTS
280
   127
  9
$INDEXCTL
280
     0
  9
$HIDETEXT
280
     1
  9
$XCLIPFRAME
280
     2
  9
$HALOGAP
280
     0
  9
$OBSCOLOR
 70
   257
  9
$OBSLTYPE
280
     0
  9
$INTERSECTIONDISPLAY
280
     0
  9
$INTERSECTIONCOLOR
 70
   257
  9
$DIMASSOC
280
     2
  9
$PROJECTNAME
  1

  9
$CAMERADISPLAY
290
     0
  9
$LENSLENGTH
 40
50.0
  9
$CAMERAHEIGHT
 40
0.0
  9
$STEPSPERSEC
 40
2.0
  9
$STEPSIZE
 40
6.0
  9
$3DDWFPREC
 40
2.0
  9
$PSOLWIDTH
 40
5.0
  9
$PSOLHEIGHT
 40
80.0
  9
$LOFTANG1
 40
1.5707963268
  9
$LOFTANG2
 40
1.5707963268
  9
$LOFTMAG1
 40
0.0
  9
$LOFTMAG2
 40
0.0
  9
$LOFTPARAM
 70
     7
  9
$LOFTNORMALS
280
     1
  9
$LATITUDE
 40
37.795
  9
$LONGITUDE
 40
-122.394
  9
$NORTHDIRECTION
 40
0.0
  9
$TIMEZONE
 70
 -8000
  9
$LIGHTGLYPHDISPLAY
280
     1
  9
$TILEMODELIGHTSYNCH
280
     1
  9
$CMATERIAL
347
44
  9
$SOLIDHIST
280
     0
  9
$SHOWHIST
280
     1
  9
$DWFFRAME
280
     2
  9
$DGNFRAME
280
     2
  9
$REALWORLDSCALE
290
     1
  9
$INTERFERECOLOR
 62
   256
  9
$CSHADOW
280
     0
  9
$SHADOWPLANELOCATION
 40
0.0
  0
ENDSEC
  0
SECTION
  2
CLASSES
  0
CLASS
  1
ACDBDICTIONARYWDFLT
  2
AcDbDictionaryWithDefault
  3
ObjectDBX Classes
 90
        0
 91
        4
280
     0
281
     0
  0
CLASS
  1
VISUALSTYLE
  2
AcDbVisualStyle
  3
ObjectDBX Classes
 90
     4095
 91
        4
280
     0
281
     0
  0
CLASS
  1
MATERIAL
  2
AcDbMaterial
  3
ObjectDBX Classes
 90
     1153
 91
        4
280
     0
281
     0
  0
CLASS
  1
SCALE
  2
AcDbScale
  3
ObjectDBX Classes
 90
     1153
 91
        4
280
     0
281
     0
  0
CLASS
  1
TABLESTYLE
  2
AcDbTableStyle
  3
ObjectDBX Classes
 90
     4095
 91
        4
280
     0
281
     0
  0
CLASS
  1
MLEADERSTYLE
  2
AcDbMLeaderStyle
  3
ACDB_MLEADERSTYLE_CLASS
 90
     4095
 91
        4
280
     0
281
     0
  0
CLASS
  1
SUN
  2
AcDbSun
  3
SCENEOE
 90
     1153
 91
        4
280
     0
281
     0
  0
CLASS
  1
DICTIONARYVAR
  2
AcDbDictionaryVar
  3
ObjectDBX Classes
 90
        0
 91
        4
280
     0
281
     0
  0
CLASS
  1
CELLSTYLEMAP
  2
AcDbCellStyleMap
  3
ObjectDBX Classes
 90
     1152
 91
        4
280
     0
281
     0
  0
ENDSEC
  0
SECTION
  2
TABLES
  0
TABLE
  2
VPORT
  5
8
330
0
100
AcDbSymbolTable
 70
     1
  0
VPORT
  5
29
330
8
100
AcDbSymbolTableRecord
100
AcDbViewportTableRecord
  2
*Active
 70
     0
 10
0.0
 20
0.0
 11
1.0
 21
1.0
 12
0.0
 22
0.0
 13
0.0
 23
0.0
 14
10.0
 24
10.0
 15
10.0
 25
10.0
 16
0.0
 26
0.0
 36
1.0
 17
0.0
 27
0.0
 37
0.0
 40
397.8
 41
1.0
 42
50.0
 43
0.0
 44
0.0
 50
0.0
 51
0.0
 71
     0
 72
   100
 73
     1
 74
     3
 75
     0
 76
     0
 77
     0
 78
     0
281
     0
 65
     1
110
0.0
120
0.0
130
0.0
111
1.0
121
0.0
131
0.0
112
0.0
122
1.0
132
0.0
 79
     0
146
0.0
348
2F
 60
     3
 61
     5
292
     1
282
     1
141
0.0
142
0.0
 63
   250
361
6D
  0
ENDTAB
  0
TABLE
  2
LTYPE
  5
5
330
0
100
AcDbSymbolTable
 70
     6
  0
LTYPE
  5
14
330
5
100
AcDbSymbolTableRecord
100
AcDbLinetypeTableRecord
  2
ByBlock
 70
     0
  3

 72
    65
 73
     0
 40
0.0
  0
LTYPE
  5
15
330
5
100
AcDbSymbolTableRecord
100
AcDbLinetypeTableRecord
  2
ByLayer
 70
     0
  3

 72
    65
 73
     0
 40
0.0
  0
LTYPE
  5
16
330
5
100
AcDbSymbolTableRecord
100
AcDbLinetypeTableRecord
  2
Continuous
 70
     0
  3
Solid line
 72
    65
 73
     0
 40
0.0
  0
LTYPE
  5
6E
330
5
100
AcDbSymbolTableRecord
100
AcDbLinetypeTableRecord
  2
HIDDEN
 70
     0
  3
Hidden __ __ __ __ __ __ __ __ __ __ __ __ __ __
 72
    65
 73
     2
 40
1.905
 49
1.27
 74
     0
 49
-0.635
 74
     0
  0
LTYPE
  5
6F
330
5
100
AcDbSymbolTableRecord
100
AcDbLinetypeTableRecord
  2
PHANTOM
 70
     0
  3
Phantom ______  __  __  ______  __  __  ______
 72
    65
 73
     6
 40
12.7
 49
6.35
 74
     0
 49
-1.27
 74
     0
 49
1.27
 74
     0
 49
-1.27
 74
     0
 49
1.27
 74
     0
 49
-1.27
 74
     0
  0
LTYPE
  5
70
330
5
100
AcDbSymbolTableRecord
100
AcDbLinetypeTableRecord
  2
CENTER
 70
     0
  3
Center ____ _ ____ _ ____ _ ____ _ ____ _ ____
 72
    65
 73
     4
 40
10.16
 49
6.35
 74
     0
 49
-1.27
 74
     0
 49
1.27
 74
     0
 49
-1.27
 74
     0
  0
LTYPE
  5
71
330
5
100
AcDbSymbolTableRecord
100
AcDbLinetypeTableRecord
  2
CENTERX2
 70
     0
  3
Center (2x) ________  __  ________  __  _____
 72
    65
 73
     4
 40
20.32
 49
12.7
 74
     0
 49
-2.54
 74
     0
 49
2.54
 74
     0
 49
-2.54
 74
     0
  0
LTYPE
  5
72
330
5
100
AcDbSymbolTableRecord
100
AcDbLinetypeTableRecord
  2
DOT2
 70
     0
  3
Dot (.5x) ........................................
 72
    65
 73
     2
 40
0.635
 49
0.0
 74
     0
 49
-0.635
 74
     0
  0
ENDTAB
  0
TABLE
  2
LAYER
  5
2
330
0
100
AcDbSymbolTable
 70
     1
  0
LAYER
  5
10
330
2
100
AcDbSymbolTableRecord
100
AcDbLayerTableRecord
  2
0
 70
     0
 62
     7
  6
Continuous
370
    -3
390
F
347
46
348
0
  0
ENDTAB
  0
TABLE
  2
STYLE
  5
3
330
0
100
AcDbSymbolTable
 70
     1
  0
STYLE
  5
11
330
3
100
AcDbSymbolTableRecord
100
AcDbTextStyleTableRecord
  2
STANDARD
 70
     0
 40
0.0
 41
1.0
 50
0.0
 71
     0
 42
3.5
  3
GOTHIC.TTF
  4

1001
ACAD
1000
CENTURY GOTHIC
1071
       34
  0
ENDTAB
  0
TABLE
  2
VIEW
  5
6
330
0
100
AcDbSymbolTable
 70
     0
  0
ENDTAB
  0
TABLE
  2
UCS
  5
7
330
0
100
AcDbSymbolTable
 70
     0
  0
ENDTAB
  0
TABLE
  2
APPID
  5
9
330
0
100
AcDbSymbolTable
 70
     1
  0
APPID
  5
12
330
9
100
AcDbSymbolTableRecord
100
AcDbRegAppTableRecord
  2
ACAD
 70
     0
  0
ENDTAB
  0
TABLE
  2
DIMSTYLE
  5
A
330
0
100
AcDbSymbolTable
 70
     1
100
AcDbDimStyleTable
  0
DIMSTYLE
105
27
330
A
100
AcDbSymbolTableRecord
100
AcDbDimStyleTableRecord
  2
ISO-25
 70
     0
 41
2.5
 42
0.625
 43
3.75
 44
1.25
 73
     0
 74
     0
 77
     1
 78
     8
140
2.5
141
2.5
143
0.0393700787
147
0.625
171
     3
172
     1
178
     0
271
     2
272
     2
274
     3
278
    44
283
     0
284
     8
340
11
  0
ENDTAB
  0
TABLE
  2
BLOCK_RECORD
  5
1
330
0
100
AcDbSymbolTable
 70
     8
  0
BLOCK_RECORD
  5
1F
330
1
100
AcDbSymbolTableRecord
100
AcDbBlockTableRecord
  2
*Model_Space
340
22
 70
     0
280
     1
281
     0
  0
BLOCK_RECORD
  5
1B
330
1
100
AcDbSymbolTableRecord
100
AcDbBlockTableRecord
  2
*Paper_Space
340
1E
 70
     0
280
     1
281
     0
  0
BLOCK_RECORD
  5
23
330
1
100
AcDbSymbolTableRecord
100
AcDbBlockTableRecord
  2
*Paper_Space0
340
26
 70
     0
280
     1
281
     0
  0
BLOCK_RECORD
  5
9F
330
1
100
AcDbSymbolTableRecord
100
AcDbBlockTableRecord
  2
*Paper_Space1
340
A0
 70
     0
280
     1
281
     0
  0
BLOCK_RECORD
  5
B7
330
1
100
AcDbSymbolTableRecord
100
AcDbBlockTableRecord
  2
*Paper_Space2
340
B8
 70
     0
280
     1
281
     0
  0
BLOCK_RECORD
  5
D3
330
1
100
AcDbSymbolTableRecord
100
AcDbBlockTableRecord
  2
*Paper_Space3
340
D4
 70
     0
280
     1
281
     0
  0
BLOCK_RECORD
  5
EB
330
1
100
AcDbSymbolTableRecord
100
AcDbBlockTableRecord
  2
*Paper_Space4
340
EC
 70
     0
280
     1
281
     0
  0
BLOCK_RECORD
  5
F3
330
1
100
AcDbSymbolTableRecord
100
AcDbBlockTableRecord
  2
*Paper_Space5
340
F4
 70
     0
280
     1
281
     0
  0
BLOCK_RECORD
  5
103
330
1
100
AcDbSymbolTableRecord
100
AcDbBlockTableRecord
  2
*Paper_Space6
340
104
 70
     0
280
     1
281
     0
  0
BLOCK_RECORD
  5
10E
330
1
100
AcDbSymbolTableRecord
100
AcDbBlockTableRecord
  2
*Paper_Space7
340
10F
 70
     0
280
     1
281
     0
  0
ENDTAB
  0
ENDSEC
  0
SECTION
  2
BLOCKS
  0
BLOCK
  5
20
330
1F
100
AcDbEntity
  8
0
100
AcDbBlockBegin
  2
*Model_Space
 70
     0
 10
0.0
 20
0.0
 30
0.0
  3
*Model_Space
  1

  0
ENDBLK
  5
21
330
1F
100
AcDbEntity
  8
0
100
AcDbBlockEnd
  0
BLOCK
  5
1C
330
1B
100
AcDbEntity
 67
     1
  8
0
100
AcDbBlockBegin
  2
*Paper_Space
 70
     0
 10
0.0
 20
0.0
 30
0.0
  3
*Paper_Space
  1

  0
ENDBLK
  5
1D
330
1B
100
AcDbEntity
 67
     1
  8
0
100
AcDbBlockEnd
  0
BLOCK
  5
24
330
23
100
AcDbEntity
  8
0
100
AcDbBlockBegin
  2
*Paper_Space0
 70
     0
 10
0.0
 20
0.0
 30
0.0
  3
*Paper_Space0
  1

  0
LINE
  5
95
330
23
100
AcDbEntity
  8
0
  6
Continuous
 62
     7
370
    25
100
AcDbLine
 10
55.0
 20
0.0
 30
0.0
 11
55.0
 21
6.351875518
 31
0.0
  0
LINE
  5
96
330
23
100
AcDbEntity
  8
0
  6
Continuous
 62
     7
370
    25
100
AcDbLine
 10
-55.0
 20
6.351875518
 30
0.0
 11
-55.0
 21
0.0
 31
0.0
  0
LINE
  5
97
330
23
100
AcDbEntity
  8
0
  6
Continuous
 62
     7
370
    25
100
AcDbLine
 10
195.0
 20
160.0
 30
0.0
 11
-195.0
 21
160.0
 31
0.0
  0
LINE
  5
98
330
23
100
AcDbEntity
  8
0
  6
Continuous
 62
     7
370
    25
100
AcDbLine
 10
55.0
 20
0.0
 30
0.0
 11
-55.0
 21
0.0
 31
0.0
  0
LINE
  5
99
330
23
100
AcDbEntity
  8
0
  6
Continuous
 62
    60
370
    25
100
AcDbLine
 10
58.4329340544
 20
11.0999597972
 30
0.0
 11
-58.4329340544
 21
11.0999597972
 31
0.0
  0
LINE
  5
9A
330
23
100
AcDbEntity
  8
0
  6
Continuous
 62
    60
370
    25
100
AcDbLine
 10
55.0
 20
6.351875518
 30
0.0
 11
-55.0
 21
6.351875518
 31
0.0
  0
ARC
  5
9B
330
23
100
AcDbEntity
  8
0
  6
Continuous
 62
     7
370
    25
100
AcDbCircle
 10
6.4483851758
 20
207.6851594975
 30
0.0
 40
207.0152804173015
100
AcDbArc
 50
193.3174481008
 51
251.7349539812
  0
ARC
  5
9C
330
23
100
AcDbEntity
  8
0
  6
Continuous
 62
     7
370
    25
100
AcDbCircle
 10
-6.4483851758
 20
207.6851594975
 30
0.0
 40
207.0152804173015
100
AcDbArc
 50
288.2650460188
 51
346.6825518992
  0
ARC
  5
9D
330
23
100
AcDbEntity
  8
0
  6
Continuous
 62
     7
370
    25
100
AcDbCircle
 10
60.0
 20
6.351875518
 30
0.0
 40
4.999999999999986
100
AcDbArc
 50
108.2650460188
 51
180.0
  0
ARC
  5
9E
330
23
100
AcDbEntity
  8
0
  6
Continuous
 62
     7
370
    25
100
AcDbCircle
 10
-60.0
 20
6.351875518
 30
0.0
 40
4.999999999999972
100
AcDbArc
 50
0.0
 51
71.7349539812
  0
VIEWPORT
  5
11E
330
23
100
AcDbEntity
  8
0
100
AcDbViewport
 10
0.0
 20
0.0
 30
0.0
 40
205.6
 41
156.0
 68
     1
 69
     1
 12
0.0
 22
0.0
 13
0.0
 23
0.0
 14
10.0
 24
10.0
 15
10.0
 25
10.0
 16
0.0
 26
0.0
 36
1.0
 17
0.0
 27
0.0
 37
0.0
 42
50.0
 43
0.0
 44
0.0
 45
397.8
 50
0.0
 51
0.0
 72
   100
 90
   557152
  1

281
     0
 71
     1
 74
     0
110
0.0
120
0.0
130
0.0
111
1.0
121
0.0
131
0.0
112
0.0
122
1.0
132
0.0
 79
     0
146
0.0
170
     0
 61
     5
348
2F
292
     1
282
     1
141
0.0
142
0.0
 63
   256
361
11F
  0
ENDBLK
  5
25
330
23
100
AcDbEntity
  8
0
100
AcDbBlockEnd
  0
BLOCK
  5
A1
330
9F
100
AcDbEntity
  8
0
100
AcDbBlockBegin
  2
*Paper_Space1
 70
     0
 10
0.0
 20
0.0
 30
0.0
  3
*Paper_Space1
  1

  0
LINE
  5
AD
330
9F
100
AcDbEntity
  8
0
  6
Continuous
 62
     7
370
    25
100
AcDbLine
 10
55.0
 20
0.0
 30
0.0
 11
55.0
 21
6.351875518
 31
0.0
  0
LINE
  5
AE
330
9F
100
AcDbEntity
  8
0
  6
Continuous
 62
     7
370
    25
100
AcDbLine
 10
-55.0
 20
6.351875518
 30
0.0
 11
-55.0
 21
0.0
 31
0.0
  0
LINE
  5
AF
330
9F
100
AcDbEntity
  8
0
  6
Continuous
 62
     7
370
    25
100
AcDbLine
 10
195.0
 20
160.0
 30
0.0
 11
-195.0
 21
160.0
 31
0.0
  0
LINE
  5
B0
330
9F
100
AcDbEntity
  8
0
  6
Continuous
 62
     7
370
    25
100
AcDbLine
 10
55.0
 20
0.0
 30
0.0
 11
-55.0
 21
0.0
 31
0.0
  0
LINE
  5
B1
330
9F
100
AcDbEntity
  8
0
  6
Continuous
 62
    60
370
    25
100
AcDbLine
 10
58.4329340544
 20
11.0999597972
 30
0.0
 11
-58.4329340544
 21
11.0999597972
 31
0.0
  0
LINE
  5
B2
330
9F
100
AcDbEntity
  8
0
  6
Continuous
 62
    60
370
    25
100
AcDbLine
 10
55.0
 20
6.351875518
 30
0.0
 11
-55.0
 21
6.351875518
 31
0.0
  0
ARC
  5
B3
330
9F
100
AcDbEntity
  8
0
  6
Continuous
 62
     7
370
    25
100
AcDbCircle
 10
6.4483851758
 20
207.6851594975
 30
0.0
 40
207.0152804173015
100
AcDbArc
 50
193.3174481008
 51
251.7349539812
  0
ARC
  5
B4
330
9F
100
AcDbEntity
  8
0
  6
Continuous
 62
     7
370
    25
100
AcDbCircle
 10
-6.4483851758
 20
207.6851594975
 30
0.0
 40
207.0152804173015
100
AcDbArc
 50
288.2650460188
 51
346.6825518992
  0
ARC
  5
B5
330
9F
100
AcDbEntity
  8
0
  6
Continuous
 62
     7
370
    25
100
AcDbCircle
 10
60.0
 20
6.351875518
 30
0.0
 40
4.999999999999986
100
AcDbArc
 50
108.2650460188
 51
180.0
  0
ARC
  5
B6
330
9F
100
AcDbEntity
  8
0
  6
Continuous
 62
     7
370
    25
100
AcDbCircle
 10
-60.0
 20
6.351875518
 30
0.0
 40
4.999999999999972
100
AcDbArc
 50
0.0
 51
71.7349539812
  0
VIEWPORT
  5
120
330
9F
100
AcDbEntity
  8
0
100
AcDbViewport
 10
0.0
 20
0.0
 30
0.0
 40
205.6
 41
156.0
 68
     1
 69
     1
 12
0.0
 22
0.0
 13
0.0
 23
0.0
 14
10.0
 24
10.0
 15
10.0
 25
10.0
 16
0.0
 26
0.0
 36
1.0
 17
0.0
 27
0.0
 37
0.0
 42
50.0
 43
0.0
 44
0.0
 45
397.8
 50
0.0
 51
0.0
 72
   100
 90
   557152
  1

281
     0
 71
     1
 74
     0
110
0.0
120
0.0
130
0.0
111
1.0
121
0.0
131
0.0
112
0.0
122
1.0
132
0.0
 79
     0
146
0.0
170
     0
 61
     5
348
2F
292
     1
282
     1
141
0.0
142
0.0
 63
   256
361
121
  0
ENDBLK
  5
A2
330
9F
100
AcDbEntity
  8
0
100
AcDbBlockEnd
  0
BLOCK
  5
B9
330
B7
100
AcDbEntity
  8
0
100
AcDbBlockBegin
  2
*Paper_Space2
 70
     0
 10
0.0
 20
0.0
 30
0.0
  3
*Paper_Space2
  1

  0
LINE
  5
C9
330
B7
100
AcDbEntity
  8
0
  6
Continuous
 62
     7
370
    25
100
AcDbLine
 10
55.0
 20
0.0
 30
0.0
 11
55.0
 21
6.351875518
 31
0.0
  0
LINE
  5
CA
330
B7
100
AcDbEntity
  8
0
  6
Continuous
 62
     7
370
    25
100
AcDbLine
 10
-55.0
 20
6.351875518
 30
0.0
 11
-55.0
 21
0.0
 31
0.0
  0
LINE
  5
CB
330
B7
100
AcDbEntity
  8
0
  6
Continuous
 62
     7
370
    25
100
AcDbLine
 10
195.0
 20
160.0
 30
0.0
 11
-195.0
 21
160.0
 31
0.0
  0
LINE
  5
CC
330
B7
100
AcDbEntity
  8
0
  6
Continuous
 62
     7
370
    25
100
AcDbLine
 10
55.0
 20
0.0
 30
0.0
 11
-55.0
 21
0.0
 31
0.0
  0
LINE
  5
CD
330
B7
100
AcDbEntity
  8
0
  6
Continuous
 62
    60
370
    25
100
AcDbLine
 10
58.4329340544
 20
11.0999597972
 30
0.0
 11
-58.4329340544
 21
11.0999597972
 31
0.0
  0
LINE
  5
CE
330
B7
100
AcDbEntity
  8
0
  6
Continuous
 62
    60
370
    25
100
AcDbLine
 10
55.0
 20
6.351875518
 30
0.0
 11
-55.0
 21
6.351875518
 31
0.0
  0
ARC
  5
CF
330
B7
100
AcDbEntity
  8
0
  6
Continuous
 62
     7
370
    25
100
AcDbCircle
 10
6.4483851758
 20
207.6851594975
 30
0.0
 40
207.0152804173015
100
AcDbArc
 50
193.3174481008
 51
251.7349539812
  0
ARC
  5
D0
330
B7
100
AcDbEntity
  8
0
  6
Continuous
 62
     7
370
    25
100
AcDbCircle
 10
-6.4483851758
 20
207.6851594975
 30
0.0
 40
207.0152804173015
100
AcDbArc
 50
288.2650460188
 51
346.6825518992
  0
ARC
  5
D1
330
B7
100
AcDbEntity
  8
0
  6
Continuous
 62
     7
370
    25
100
AcDbCircle
 10
60.0
 20
6.351875518
 30
0.0
 40
4.999999999999986
100
AcDbArc
 50
108.2650460188
 51
180.0
  0
ARC
  5
D2
330
B7
100
AcDbEntity
  8
0
  6
Continuous
 62
     7
370
    25
100
AcDbCircle
 10
-60.0
 20
6.351875518
 30
0.0
 40
4.999999999999972
100
AcDbArc
 50
0.0
 51
71.7349539812
  0
VIEWPORT
  5
122
330
B7
100
AcDbEntity
  8
0
100
AcDbViewport
 10
0.0
 20
0.0
 30
0.0
 40
205.6
 41
156.0
 68
     1
 69
     1
 12
0.0
 22
0.0
 13
0.0
 23
0.0
 14
10.0
 24
10.0
 15
10.0
 25
10.0
 16
0.0
 26
0.0
 36
1.0
 17
0.0
 27
0.0
 37
0.0
 42
50.0
 43
0.0
 44
0.0
 45
397.8
 50
0.0
 51
0.0
 72
   100
 90
   557152
  1

281
     0
 71
     1
 74
     0
110
0.0
120
0.0
130
0.0
111
1.0
121
0.0
131
0.0
112
0.0
122
1.0
132
0.0
 79
     0
146
0.0
170
     0
 61
     5
348
2F
292
     1
282
     1
141
0.0
142
0.0
 63
   256
361
123
  0
ENDBLK
  5
BA
330
B7
100
AcDbEntity
  8
0
100
AcDbBlockEnd
  0
BLOCK
  5
D5
330
D3
100
AcDbEntity
  8
0
100
AcDbBlockBegin
  2
*Paper_Space3
 70
     0
 10
0.0
 20
0.0
 30
0.0
  3
*Paper_Space3
  1

  0
LINE
  5
E1
330
D3
100
AcDbEntity
  8
0
  6
Continuous
 62
     7
370
    25
100
AcDbLine
 10
55.0
 20
0.0
 30
0.0
 11
55.0
 21
6.351875518
 31
0.0
  0
LINE
  5
E2
330
D3
100
AcDbEntity
  8
0
  6
Continuous
 62
     7
370
    25
100
AcDbLine
 10
-55.0
 20
6.351875518
 30
0.0
 11
-55.0
 21
0.0
 31
0.0
  0
LINE
  5
E3
330
D3
100
AcDbEntity
  8
0
  6
Continuous
 62
     7
370
    25
100
AcDbLine
 10
195.0
 20
160.0
 30
0.0
 11
-195.0
 21
160.0
 31
0.0
  0
LINE
  5
E4
330
D3
100
AcDbEntity
  8
0
  6
Continuous
 62
     7
370
    25
100
AcDbLine
 10
55.0
 20
0.0
 30
0.0
 11
-55.0
 21
0.0
 31
0.0
  0
LINE
  5
E5
330
D3
100
AcDbEntity
  8
0
  6
Continuous
 62
    60
370
    25
100
AcDbLine
 10
58.4329340544
 20
11.0999597972
 30
0.0
 11
-58.4329340544
 21
11.0999597972
 31
0.0
  0
LINE
  5
E6
330
D3
100
AcDbEntity
  8
0
  6
Continuous
 62
    60
370
    25
100
AcDbLine
 10
55.0
 20
6.351875518
 30
0.0
 11
-55.0
 21
6.351875518
 31
0.0
  0
ARC
  5
E7
330
D3
100
AcDbEntity
  8
0
  6
Continuous
 62
     7
370
    25
100
AcDbCircle
 10
6.4483851758
 20
207.6851594975
 30
0.0
 40
207.0152804173015
100
AcDbArc
 50
193.3174481008
 51
251.7349539812
  0
ARC
  5
E8
330
D3
100
AcDbEntity
  8
0
  6
Continuous
 62
     7
370
    25
100
AcDbCircle
 10
-6.4483851758
 20
207.6851594975
 30
0.0
 40
207.0152804173015
100
AcDbArc
 50
288.2650460188
 51
346.6825518992
  0
ARC
  5
E9
330
D3
100
AcDbEntity
  8
0
  6
Continuous
 62
     7
370
    25
100
AcDbCircle
 10
60.0
 20
6.351875518
 30
0.0
 40
4.999999999999986
100
AcDbArc
 50
108.2650460188
 51
180.0
  0
ARC
  5
EA
330
D3
100
AcDbEntity
  8
0
  6
Continuous
 62
     7
370
    25
100
AcDbCircle
 10
-60.0
 20
6.351875518
 30
0.0
 40
4.999999999999972
100
AcDbArc
 50
0.0
 51
71.7349539812
  0
VIEWPORT
  5
124
330
D3
100
AcDbEntity
  8
0
100
AcDbViewport
 10
0.0
 20
0.0
 30
0.0
 40
205.6
 41
156.0
 68
     1
 69
     1
 12
0.0
 22
0.0
 13
0.0
 23
0.0
 14
10.0
 24
10.0
 15
10.0
 25
10.0
 16
0.0
 26
0.0
 36
1.0
 17
0.0
 27
0.0
 37
0.0
 42
50.0
 43
0.0
 44
0.0
 45
397.8
 50
0.0
 51
0.0
 72
   100
 90
   557152
  1

281
     0
 71
     1
 74
     0
110
0.0
120
0.0
130
0.0
111
1.0
121
0.0
131
0.0
112
0.0
122
1.0
132
0.0
 79
     0
146
0.0
170
     0
 61
     5
348
2F
292
     1
282
     1
141
0.0
142
0.0
 63
   256
361
125
  0
ENDBLK
  5
D6
330
D3
100
AcDbEntity
  8
0
100
AcDbBlockEnd
  0
BLOCK
  5
ED
330
EB
100
AcDbEntity
  8
0
100
AcDbBlockBegin
  2
*Paper_Space4
 70
     0
 10
0.0
 20
0.0
 30
0.0
  3
*Paper_Space4
  1

  0
CIRCLE
  5
EF
330
EB
100
AcDbEntity
  8
0
  6
Continuous
 62
     7
370
    25
100
AcDbCircle
 10
0.0
 20
0.0
 30
0.0
 40
54.99999999999999
  0
CIRCLE
  5
F0
330
EB
100
AcDbEntity
  8
0
  6
Continuous
 62
     7
370
    25
100
AcDbCircle
 10
0.0
 20
0.0
 30
0.0
 40
22.99999999999999
  0
CIRCLE
  5
F1
330
EB
100
AcDbEntity
  8
0
  6
Continuous
 62
     7
370
    25
100
AcDbCircle
 10
0.0
 20
0.0
 30
0.0
 40
58.43293405444509
  0
CIRCLE
  5
F2
330
EB
100
AcDbEntity
  8
0
  6
Continuous
 62
     7
370
    25
100
AcDbCircle
 10
0.0
 20
0.0
 30
0.0
 40
194.9999999999997
  0
VIEWPORT
  5
126
330
EB
100
AcDbEntity
  8
0
100
AcDbViewport
 10
0.0
 20
0.0
 30
0.0
 40
205.6
 41
156.0
 68
     1
 69
     1
 12
0.0
 22
0.0
 13
0.0
 23
0.0
 14
10.0
 24
10.0
 15
10.0
 25
10.0
 16
0.0
 26
0.0
 36
1.0
 17
0.0
 27
0.0
 37
0.0
 42
50.0
 43
0.0
 44
0.0
 45
397.8
 50
0.0
 51
0.0
 72
   100
 90
   557152
  1

281
     0
 71
     1
 74
     0
110
0.0
120
0.0
130
0.0
111
1.0
121
0.0
131
0.0
112
0.0
122
1.0
132
0.0
 79
     0
146
0.0
170
     0
 61
     5
348
2F
292
     1
282
     1
141
0.0
142
0.0
 63
   256
361
127
  0
ENDBLK
  5
EE
330
EB
100
AcDbEntity
  8
0
100
AcDbBlockEnd
  0
BLOCK
  5
F5
330
F3
100
AcDbEntity
  8
0
100
AcDbBlockBegin
  2
*Paper_Space5
 70
     0
 10
0.0
 20
0.0
 30
0.0
  3
*Paper_Space5
  1

  0
SPLINE
  5
F7
330
F3
100
AcDbEntity
  8
0
  6
Continuous
 62
     7
370
    25
100
AcDbSpline
210
0.0
220
0.0
230
1.0
 70
     8
 71
     3
 72
    73
 73
    69
 74
     0
 42
0.000000001
 43
0.00000001
 40
0.0
 40
0.0
 40
0.0
 40
0.0
 40
0.0086935457241338
 40
0.0240007224797703
 40
0.0392752838444695
 40
0.0545171917123964
 40
0.0697264141018277
 40
0.0849029312961056
 40
0.1000467434244785
 40
0.1151578797443274
 40
0.1302364099402916
 40
0.1452824578166012
 40
0.1602962178255833
 40
0.1752779749463403
 40
0.1902281284994952
 40
0.2051472205503691
 40
0.2200359696045615
 40
0.2348953103212824
 40
0.2497264399407495
 40
0.2645308720140963
 40
0.279310497804153
 40
0.2940676553553754
 40
0.3088052056770566
 40
0.3235266147250763
 40
0.338236038910759
 40
0.3529384107544826
 40
0.3676395201084137
 40
0.3823460851465909
 40
0.3970658059748114
 40
0.4118073918659154
 40
0.4265805500046953
 40
0.4413959182932358
 40
0.4562649170019856
 40
0.4711994859432748
 40
0.4862116712863574
 40
0.501313038287848
 40
0.5165139209518523
 40
0.5318214084619971
 40
0.5472400755204953
 40
0.5627719457753975
 40
0.5784153887187327
 40
0.5941651950963353
 40
0.6100130386810333
 40
0.6259482240084374
 40
0.6419585667877802
 40
0.6580312536332414
 40
0.6741535695085135
 40
0.6903134386150929
 40
0.7064997742088027
 40
0.7227026639492503
 40
0.7389134300437391
 40
0.7551246034093114
 40
0.7713298446942418
 40
0.7875238368133826
 40
0.8037021660819949
 40
0.819861202988768
 40
0.8359979892187982
 40
0.8521101344748255
 40
0.8681957246253001
 40
0.8842532414373444
 40
0.9002814933992678
 40
0.9162795567299238
 40
0.9322467254889079
 40
0.9481824696587607
 40
0.9640864001102649
 40
0.9799582394473775
 40
0.9957977978346948
 40
1.0
 40
1.0
 40
1.0
 40
1.0
 10
-192.2004678184337
 20
111.7729182775618
 30
0.0
 10
-191.782556042484
 20
110.3345038752639
 30
0.0
 10
-190.6288053320285
 20
106.3633986466322
 30
0.0
 10
-188.417060802793
 20
99.96515676061112
 30
0.0
 10
-185.6008382446212
 20
92.58872684587115
 30
0.0
 10
-182.4954409882464
 20
85.34636107446259
 30
0.0
 10
-179.1245105750291
 20
78.24297591848793
 30
0.0
 10
-175.4900541792555
 20
71.28967579808278
 30
0.0
 10
-171.6002655592425
 20
64.49550981207948
 30
0.0
 10
-167.4620703951738
 20
57.86965899141361
 30
0.0
 10
-163.0830914418294
 20
51.42083862592235
 30
0.0
 10
-158.4710956748421
 20
45.1574454899764
 30
0.0
 10
-153.6341115737051
 20
39.08750738206881
 30
0.0
 10
-148.5803647294695
 20
33.21868695130209
 30
0.0
 10
-143.318258933929
 20
27.5582727947295
 30
0.0
 10
-137.8563417034035
 20
22.11317607989334
 30
0.0
 10
-132.2032701511092
 20
16.88992826544725
 30
0.0
 10
-126.3677725813808
 20
11.89468166490875
 30
0.0
 10
-120.3586067253565
 20
7.133213086476957
 30
0.0
 10
-114.1845141849378
 20
2.610931341880979
 30
0.0
 10
-107.8541712384027
 20
-1.667110564332663
 30
0.0
 10
-101.3761363569356
 20
-5.696197595012761
 30
0.0
 10
-94.75879523728881
 20
-9.471928131216695
 30
0.0
 10
-88.01030471493144
 20
-12.99018162139637
 30
0.0
 10
-81.13853762037056
 20
-16.24707741769246
 30
0.0
 10
-74.151031430406
 20
-19.23892402931984
 30
0.0
 10
-67.05494438862895
 20
-21.96215846637767
 30
0.0
 10
-59.85702356736485
 20
-24.41327600777897
 30
0.0
 10
-52.56359012232809
 20
-26.58875158280891
 30
0.0
 10
-45.18054789768032
 20
-28.4849549643731
 30
0.0
 10
-37.71342288706408
 20
-30.09806313504787
 30
0.0
 10
-30.16744317153986
 20
-31.42397466153905
 30
0.0
 10
-22.54767170116007
 20
-32.45823308688359
 30
0.0
 10
-14.85920633467067
 20
-33.19596970647478
 30
0.0
 10
-7.107459863902342
 20
-33.63188069260184
 30
0.0
 10
0.7014767135571365
 20
-33.76025819785946
 30
0.0
 10
8.560203397555858
 20
-33.57510159991241
 30
0.0
 10
16.45962680323184
 20
-33.07035623038708
 30
0.0
 10
24.3887319421018
 20
-32.24021875949043
 30
0.0
 10
32.33454412585326
 20
-31.0794514347966
 30
0.0
 10
40.28201375425235
 20
-29.58373449817556
 30
0.0
 10
48.21402664301616
 20
-27.75003715074469
 30
0.0
 10
56.11176159674559
 20
-25.57690703881871
 30
0.0
 10
63.95520063754397
 20
-23.06464870729909
 30
0.0
 10
71.72370574275408
 20
-20.2153781177099
 30
0.0
 10
79.39657672780736
 20
-17.03296539208169
 30
0.0
 10
86.95352711473352
 20
-13.5228946811335
 30
0.0
 10
94.37504592809687
 20
-9.692075554663449
 30
0.0
 10
101.6426413673395
 20
-5.548636715017458
 30
0.0
 10
108.7389807988306
 20
-1.101724562807535
 30
0.0
 10
115.647949850106
 20
3.63867980916735
 30
0.0
 10
122.3546542498748
 20
8.661918947530781
 30
0.0
 10
128.8453848452798
 20
13.95679144943329
 30
0.0
 10
135.107561567289
 20
19.51166012531236
 30
0.0
 10
141.1296676343248
 20
25.31453897063646
 30
0.0
 10
146.9011813217782
 20
31.35316250753548
 30
0.0
 10
152.4125105308595
 20
37.61504074937558
 30
0.0
 10
157.6549305736058
 20
44.08750349076868
 30
0.0
 10
162.6205346245716
 20
50.7577341691801
 30
0.0
 10
167.3021666637841
 20
57.61280424330811
 30
0.0
 10
171.6934503965238
 20
64.63967703340099
 30
0.0
 10
175.788490579231
 20
71.82530431437078
 30
0.0
 10
179.5828206365966
 20
79.15636281318783
 30
0.0
 10
183.0697365128927
 20
86.62032038024594
 30
0.0
 10
186.2538193652891
 20
94.20154743791306
 30
0.0
 10
189.1005177912954
 20
101.8958600456411
 30
0.0
 10
191.0830323020776
 20
107.7611862742574
 30
0.0
 10
192.0144140483906
 20
111.0862677656909
 30
0.0
 10
192.2096990075541
 20
111.78344527195
 30
0.0
  0
SPLINE
  5
F8
330
F3
100
AcDbEntity
  8
0
  6
Continuous
 62
     7
370
    25
100
AcDbSpline
210
0.0
220
0.0
230
1.0
 70
     8
 71
     3
 72
    73
 73
    69
 74
     0
 42
0.000000001
 43
0.00000001
 40
0.0
 40
0.0
 40
0.0
 40
0.0
 40
0.0141022499144681
 40
0.0305138818592571
 40
0.046526422397976
 40
0.0622441515306228
 40
0.0777470400322241
 40
0.0930964146200081
 40
0.1083394142462232
 40
0.1235123257928253
 40
0.138643061219988
 40
0.1537530103428096
 40
0.1688583254505174
 40
0.1839675762139484
 40
0.1990907844933903
 40
0.214235223402264
 40
0.2294059794530437
 40
0.2446064040519703
 40
0.2598384741672148
 40
0.2751030815400763
 40
0.2904002650204051
 40
0.3057293972166841
 40
0.3210893342018067
 40
0.3364785352068287
 40
0.351895157869277
 40
0.3673371335496798
 40
0.3828022264031345
 40
0.3982880792334186
 40
0.413792248625481
 40
0.4293122314206349
 40
0.4448454842472013
 40
0.4603894375338284
 40
0.4759415052021412
 40
0.4914990910519145
 40
0.5070595927092642
 40
0.5226204039017642
 40
0.5381780787517959
 40
0.5537299753129933
 40
0.569273484280221
 40
0.5848059995215197
 40
0.6003249225515873
 40
0.6158276696623504
 40
0.6313116826072123
 40
0.6467744438918122
 40
0.6622134979156454
 40
0.6776264794461601
 40
0.6930111511969587
 40
0.7083654526322952
 40
0.7236875625420576
 40
0.7389759784377946
 40
0.7542296164295043
 40
0.7694479359789866
 40
0.784631094824257
 40
0.7997801404813614
 40
0.814897246130507
 40
0.8299860004940948
 40
0.8450517636804302
 40
0.860102104141753
 40
0.8751473362310784
 40
0.8901966946571059
 40
0.9052662591687703
 40
0.9203773582155294
 40
0.935557362811823
 40
0.9508411611204628
 40
0.9662730164293077
 40
0.9819089002653784
 40
0.9978193598064391
 40
1.0
 40
1.0
 40
1.0
 40
1.0
 10
167.4580121219912
 20
87.70183914779675
 30
0.0
 10
167.036378456731
 20
86.83773768561845
 30
0.0
 10
166.1240644694121
 20
84.96802965383345
 30
0.0
 10
164.3724941764829
 20
82.02485410456748
 30
0.0
 10
162.2905959022768
 20
78.92626370199376
 30
0.0
 10
159.9439827509861
 20
75.83734232197543
 30
0.0
 10
157.3394023723332
 20
72.76065026709
 30
0.0
 10
154.4717740711265
 20
69.6983657556308
 30
0.0
 10
151.3402526787851
 20
66.65576751179537
 30
0.0
 10
147.9442687054787
 20
63.639452718935
 30
0.0
 10
144.2846830892796
 20
60.65714657691913
 30
0.0
 10
140.3635234610086
 20
57.71726102721814
 30
0.0
 10
136.1843692097511
 20
54.82885847589626
 30
0.0
 10
131.7519444392966
 20
52.00111134544664
 30
0.0
 10
127.0720335726871
 20
49.24313742749691
 30
0.0
 10
122.1509890620349
 20
46.56368443719015
 30
0.0
 10
116.9961195837179
 20
43.97133575027836
 30
0.0
 10
111.6156214741898
 20
41.47442648215181
 30
0.0
 10
106.0185089711403
 20
39.08097817169558
 30
0.0
 10
100.2145453045668
 20
36.79864856337151
 30
0.0
 10
94.21417575870463
 20
34.63469342278017
 30
0.0
 10
88.02846344392931
 20
32.59593794229007
 30
0.0
 10
81.66902825284694
 20
30.68875576096771
 30
0.0
 10
75.14798925274158
 20
28.91905398694905
 30
0.0
 10
68.47791059496363
 20
27.29226290073168
 30
0.0
 10
61.67175088950219
 20
25.81332925439612
 30
0.0
 10
54.7428158949629
 20
24.48671227713169
 30
0.0
 10
47.70471430451906
 20
23.31638166010351
 30
0.0
 10
40.57131636184466
 20
22.30581692951642
 30
0.0
 10
33.35671501258359
 20
21.45800773003868
 30
0.0
 10
26.07518928223056
 20
20.77545463495027
 30
0.0
 10
18.7411695657543
 20
20.26017017738447
 30
0.0
 10
11.3692045172262
 20
19.91367986119704
 30
0.0
 10
3.973929225881745
 20
19.73702296323448
 30
0.0
 10
-3.429965604829596
 20
19.73075298095272
 30
0.0
 10
-10.82763119706616
 20
19.89493467701591
 30
0.0
 10
-18.20421955145944
 20
20.22913251167853
 30
0.0
 10
-25.54492192931469
 20
20.73240943247136
 30
0.0
 10
-32.83513099000558
 20
21.40334209825326
 30
0.0
 10
-40.0603436896511
 20
22.2400166310824
 30
0.0
 10
-47.20618757653208
 20
23.240025794505
 30
0.0
 10
-54.25845339452322
 20
24.40046595305662
 30
0.0
 10
-61.20312925654006
 20
25.71793370981204
 30
0.0
 10
-68.02643676009556
 20
27.18852239956143
 30
0.0
 10
-74.71486943219399
 20
28.80781867956879
 30
0.0
 10
-81.25523391004721
 20
30.57089953984567
 30
0.0
 10
-87.63469427608837
 20
32.47233015422779
 30
0.0
 10
-93.84081996890711
 20
34.5061631163127
 30
0.0
 10
-99.86163768024775
 20
36.66593975516324
 30
0.0
 10
-105.6856876157758
 20
38.94469440997729
 30
0.0
 10
-111.3020844363852
 20
41.33496276718593
 30
0.0
 10
-116.7005830961461
 20
43.82879563497983
 30
0.0
 10
-121.8716496469161
 20
46.41777986077796
 30
0.0
 10
-126.8065368509086
 20
49.09306849282427
 30
0.0
 10
-131.49736419802
 20
51.84542279123873
 30
0.0
 10
-135.9372013247761
 20
54.6652692372597
 30
0.0
 10
-140.1201540213112
 20
57.54277566127345
 30
0.0
 10
-144.0414485659043
 20
60.46795075482962
 30
0.0
 10
-147.6971557700066
 20
63.43048092144396
 30
0.0
 10
-151.0845909724903
 20
66.42005133805601
 30
0.0
 10
-154.2025113483296
 20
69.42659552328935
 30
0.0
 10
-157.0511740016339
 20
72.44078639650517
 30
0.0
 10
-159.6330558239985
 20
75.45446463679957
 30
0.0
 10
-161.9491992718397
 20
78.4600391768627
 30
0.0
 10
-164.0126387085542
 20
81.4549057241363
 30
0.0
 10
-165.7967744120795
 20
84.42757638045508
 30
0.0
 10
-166.9493493147467
 20
86.53409057363712
 30
0.0
 10
-167.4311977603996
 20
87.62576354806217
 30
0.0
 10
-167.4892781481709
 20
87.75735012937434
 30
0.0
  0
LWPOLYLINE
  5
F9
330
F3
100
AcDbEntity
  8
0
  6
Continuous
 62
     7
370
    25
100
AcDbPolyline
 90
      149
 70
   128
 43
0.0
 10
137.8858223314
 20
210.2463208044
 10
143.613622749
 20
206.7962878027
 10
149.0826217115
 20
203.2090277901
 10
154.2829637131
 20
199.4910052519
 10
159.2052773859
 20
195.6489203158
 10
163.8406923882
 20
191.6896966786
 10
168.1808553886
 20
187.620469129
 10
172.2179451202
 20
183.4485706899
 10
175.9446864744
 20
179.1815194045
 10
179.3543636114
 20
174.8270047874
 10
182.4408320624
 20
170.3928739684
 10
185.1985298028
 20
165.8871175509
 10
187.6224872747
 20
161.3178552126
 10
189.7083363431
 20
156.6933210729
 10
191.4523181669
 20
152.0218488551
 10
192.8512899729
 20
147.3118568677
 10
193.9027307195
 20
142.5718328347
 10
194.6047456394
 20
137.8103185997
 10
194.9560696541
 20
133.0358947334
 10
194.9560696541
 20
128.2571650701
 10
194.6047456394
 20
123.4827412037
 10
193.9027307195
 20
118.7212269688
 10
192.8512899729
 20
113.9812029358
 10
191.4523181669
 20
109.2712109484
 10
189.7083363431
 20
104.5997387305
 10
187.6224872747
 20
99.9752045908
 10
185.1985298028
 20
95.4059422525
 10
182.4408320624
 20
90.900185835
 10
179.3543636114
 20
86.466055016
 10
175.9446864744
 20
82.111540399
 10
172.2179451202
 20
77.8444891135
 10
168.1808553886
 20
73.6725906745
 10
163.8406923882
 20
69.6033631248
 10
159.2052773859
 20
65.6441394877
 10
154.2829637131
 20
61.8020545516
 10
149.0826217115
 20
58.0840320133
 10
143.613622749
 20
54.4967720008
 10
137.8858223314
 20
51.046738999
 10
131.9095423421
 20
47.7401502006
 10
125.6955524417
 20
44.5829643022
 10
119.25505066
 20
41.580870766
 10
112.5996432164
 20
38.7392795676
 10
105.7413236051
 20
36.0633114464
 10
98.6924509815
 20
33.5577886778
 10
91.4657278906
 20
31.2272263832
 10
84.0741773758
 20
29.0758243933
 10
76.5311195107
 20
27.10745968
 10
68.8501473955
 20
25.3256793694
 10
61.0451026611
 20
23.7336943503
 10
53.1300505255
 20
22.3343734871
 10
45.1192544479
 20
21.1302384507
 10
37.027150424
 20
20.1234591737
 10
28.8683209725
 20
19.3158499405
 10
20.6574688553
 20
18.7088661175
 10
12.409390583
 20
18.3036015306
 10
4.1389497501
 20
18.1007864939
 10
-4.1389497501
 20
18.1007864939
 10
-12.409390583
 20
18.3036015306
 10
-20.6574688553
 20
18.7088661175
 10
-28.8683209725
 20
19.3158499405
 10
-37.027150424
 20
20.1234591737
 10
-45.1192544479
 20
21.1302384507
 10
-53.1300505255
 20
22.3343734871
 10
-61.0451026611
 20
23.7336943503
 10
-68.8501473955
 20
25.3256793694
 10
-76.5311195107
 20
27.10745968
 10
-84.0741773758
 20
29.0758243933
 10
-91.4657278906
 20
31.2272263832
 10
-98.6924509815
 20
33.5577886778
 10
-105.7413236051
 20
36.0633114464
 10
-112.5996432164
 20
38.7392795676
 10
-119.25505066
 20
41.580870766
 10
-125.6955524417
 20
44.5829643022
 10
-131.9095423421
 20
47.7401502006
 10
-137.8858223314
 20
51.046738999
 10
-143.613622749
 20
54.4967720008
 10
-149.0826217115
 20
58.0840320133
 10
-154.2829637131
 20
61.8020545516
 10
-159.2052773859
 20
65.6441394877
 10
-163.8406923882
 20
69.6033631248
 10
-168.1808553886
 20
73.6725906745
 10
-172.2179451202
 20
77.8444891135
 10
-175.9446864744
 20
82.111540399
 10
-179.3543636114
 20
86.466055016
 10
-182.4408320624
 20
90.900185835
 10
-185.1985298028
 20
95.4059422525
 10
-187.6224872747
 20
99.9752045908
 10
-189.7083363431
 20
104.5997387305
 10
-191.4523181669
 20
109.2712109484
 10
-192.8512899729
 20
113.9812029358
 10
-193.9027307195
 20
118.7212269688
 10
-194.6047456394
 20
123.4827412037
 10
-194.9560696541
 20
128.2571650701
 10
-194.9560696541
 20
133.0358947334
 10
-194.6047456394
 20
137.8103185997
 10
-193.9027307195
 20
142.5718328347
 10
-192.8512899729
 20
147.3118568677
 10
-191.4523181669
 20
152.0218488551
 10
-189.7083363431
 20
156.6933210729
 10
-187.6224872747
 20
161.3178552126
 10
-185.1985298028
 20
165.8871175509
 10
-182.4408320624
 20
170.3928739684
 10
-179.3543636114
 20
174.8270047874
 10
-175.9446864744
 20
179.1815194045
 10
-172.2179451202
 20
183.4485706899
 10
-168.1808553886
 20
187.620469129
 10
-163.8406923882
 20
191.6896966786
 10
-159.2052773859
 20
195.6489203158
 10
-154.2829637131
 20
199.4910052519
 10
-149.0826217115
 20
203.2090277901
 10
-143.613622749
 20
206.7962878027
 10
-137.8858223314
 20
210.2463208044
 10
-131.9095423421
 20
213.5529096028
 10
-125.6955524417
 20
216.7100955013
 10
-119.25505066
 20
219.7121890374
 10
-112.5996432164
 20
222.5537802358
 10
-105.7413236051
 20
225.229748357
 10
-98.6924509815
 20
227.7352711256
 10
-91.4657278906
 20
230.0658334203
 10
-84.0741773758
 20
232.2172354101
 10
-76.5311195107
 20
234.1856001235
 10
-68.8501473955
 20
235.967380434
 10
-61.0451026611
 20
237.5593654532
 10
-53.1300505255
 20
238.9586863163
 10
-45.1192544479
 20
240.1628213528
 10
-37.027150424
 20
241.1696006298
 10
-28.8683209725
 20
241.9772098629
 10
-20.6574688553
 20
242.5841936859
 10
-12.409390583
 20
242.9894582729
 10
-4.1389497501
 20
243.1922733095
 10
4.1389497501
 20
243.1922733095
 10
12.409390583
 20
242.9894582729
 10
20.6574688553
 20
242.5841936859
 10
28.8683209725
 20
241.9772098629
 10
37.0271504241
 20
241.1696006298
 10
45.1192544479
 20
240.1628213528
 10
53.1300505255
 20
238.9586863163
 10
61.0451026611
 20
237.5593654532
 10
68.8501473955
 20
235.967380434
 10
76.5311195107
 20
234.1856001235
 10
84.0741773758
 20
232.2172354101
 10
91.4657278906
 20
230.0658334203
 10
98.6924509815
 20
227.7352711256
 10
105.7413236051
 20
225.229748357
 10
112.5996432164
 20
222.5537802358
 10
119.25505066
 20
219.7121890374
 10
125.6955524417
 20
216.7100955013
 10
131.9095423421
 20
213.5529096028
 10
137.8858223314
 20
210.2463208044
  0
LWPOLYLINE
  5
FC
330
F3
100
AcDbEntity
  8
0
  6
Continuous
 62
     7
370
    25
100
AcDbPolyline
 90
       23
 70
   128
 43
0.0
 10
-34.9007643801
 20
21.6786768451
 10
-34.8788953149
 20
21.7260154766
 10
-33.7750358729
 20
23.7040198103
 10
-32.3355049504
 20
25.6087459344
 10
-30.5746092523
 20
27.4212638249
 10
-28.5098493512
 20
29.1235598646
 10
-26.1617457587
 20
30.6987158708
 10
-23.5536349831
 20
32.1310772354
 10
-20.7114376012
 20
33.4064085077
 10
-17.6634006474
 20
34.5120348724
 10
-14.4398168823
 20
35.436968118
 10
-11.0727237297
 20
36.1720158425
 10
-7.595584874
 20
36.7098728112
 10
-4.0429576834
 20
37.0451935601
 10
-0.450149763
 20
37.1746455208
 10
3.1471319481
 20
37.0969421415
 10
6.7131360479
 20
36.8128556735
 10
10.2124219857
 20
36.3252094956
 10
13.6102122856
 20
35.6388500547
 10
16.8727381812
 20
34.7605986991
 10
19.9675752244
 20
33.6991838855
 10
22.8639655342
 20
32.4651544312
 10
25.5331234824
 20
31.0707746753
  0
LWPOLYLINE
  5
FE
330
F3
100
AcDbEntity
  8
0
  6
Continuous
 62
    60
370
    25
100
AcDbPolyline
 90
       25
 70
   128
 43
0.0
 10
122.8286737665
 20
185.2231977212
 10
128.2535137313
 20
181.9466443426
 10
133.4163391164
 20
178.5319248479
 10
138.3066025654
 20
174.9860153133
 10
142.9143135504
 20
171.3161598289
 10
147.2300587819
 20
167.5298556991
 10
151.2450214395
 20
163.6348381262
 10
154.9509991846
 20
159.6390644081
 10
158.3404209172
 20
155.5506976815
 10
161.4063622427
 20
151.3780902452
 10
164.1425596187
 20
147.1297664973
 10
166.5434231508
 20
142.8144055197
 10
168.6040480124
 20
138.4408233477
 10
170.3202244649
 20
134.0179549589
 10
171.6884464582
 20
129.55483602
 10
172.7059187931
 20
125.0605844274
 10
173.370562832
 20
120.5443816796
 10
173.6810207452
 20
116.0154541198
 10
173.6366582849
 20
111.4830540877
 10
173.2375660811
 20
106.9564410168
 10
172.4845594564
 20
102.4448625183
 10
171.37917676
 20
97.9575354884
 10
169.9236762256
 20
93.5036272792
 10
168.1210313573
 20
89.09223697
 10
167.4838157707
 20
87.7169816837
  0
LWPOLYLINE
  5
FF
330
F3
100
AcDbEntity
  8
0
  6
Continuous
 62
    60
370
    25
100
AcDbPolyline
 90
       60
 70
   128
 43
0.0
 10
-167.5205417769
 20
87.794169448
 10
-167.616544923
 20
87.9970911062
 10
-169.5054280016
 20
92.3964399823
 10
-171.0480212035
 20
96.8405686786
 10
-172.2411730991
 20
101.3203980948
 10
-173.0824461476
 20
105.826776196
 10
-173.5701216761
 20
110.3504967101
 10
-173.7032033917
 20
114.8823179352
 10
-173.481419416
 20
119.4129816203
 10
-172.9052228408
 20
123.9332318789
 10
-171.9757908029
 20
128.433834099
 10
-170.6950220786
 20
132.905593808
 10
-169.0655332051
 20
137.339375457
 10
-167.0906531346
 20
141.7261210843
 10
-164.7744164341
 20
146.0568688198
 10
-162.1215550425
 20
150.3227711941
 10
-159.1374886034
 20
154.515113213
 10
-155.8283133937
 20
158.6253301622
 10
-152.2007898687
 20
162.6450251037
 10
-148.2623288512
 20
166.5659860313
 10
-144.0209763912
 20
170.3802026464
 10
-139.4853973289
 20
174.0798827229
 10
-134.6648575923
 20
177.6574680266
 10
-129.569205268
 20
181.1056497556
 10
-124.2088504817
 20
184.4173834722
 10
-118.5947441309
 20
187.5859034942
 10
-112.7383555135
 20
190.6047367168
 10
-106.6516488956
 20
193.4677158367
 10
-100.3470590702
 20
196.1689919515
 10
-93.8374659529
 20
198.703046509
 10
-87.1361682697
 20
201.0647025809
 10
-80.2568563876
 20
203.2491354392
 10
-73.2135843465
 20
205.2518824127
 10
-66.0207411479
 20
207.068852004
 10
-58.693021358
 20
208.6963322485
 10
-51.2453950886
 20
210.1309982973
 10
-43.6930774134
 20
211.3699192097
 10
-36.0514972847
 20
212.4105639414
 10
-28.3362660128
 20
213.2508065149
 10
-20.5631453731
 20
213.8889303627
 10
-12.7480154056
 20
214.3236318342
 10
-4.9068419732
 20
214.5540228595
 10
2.9443558563
 20
214.5796327627
 10
10.7895385354
 20
214.4004092243
 10
18.6126788056
 20
214.0167183877
 10
26.3977944394
 20
213.4293441114
 10
34.1289808918
 20
212.6394863672
 10
41.7904437919
 20
211.6487587894
 10
49.3665312099
 20
210.4591853776
 10
56.8417656333
 20
209.0731963622
 10
64.2008755865
 20
207.4936232391
 10
71.4288268297
 20
205.7236929859
 10
78.5108530725
 20
203.7670214687
 10
85.4324861412
 20
201.6276060551
 10
92.179585536
 20
199.3098174484
 10
98.7383673194
 20
196.8183907578
 10
105.0954322761
 20
194.1584158253
 10
111.2377932866
 20
191.3353268273
 10
117.1529018594
 20
188.3548911729
 10
122.8286737665
 20
185.2231977212
  0
LINE
  5
100
330
F3
100
AcDbEntity
  8
0
  6
Continuous
 62
     7
370
    25
100
AcDbLine
 10
-167.4566476998
 20
87.6600366996
 30
0.0
 11
-167.5205417769
 21
87.794169448
 31
0.0
  0
ARC
  5
101
330
F3
100
AcDbEntity
  8
0
  6
Continuous
 62
     7
370
    25
100
AcDbCircle
 10
15.5615418611
 20
11.7578040732
 30
0.0
 40
21.73530017058698
100
AcDbArc
 50
27.1490720561
 51
62.692002418
  0
ARC
  5
102
330
F3
100
AcDbEntity
  8
0
  6
Continuous
 62
     7
370
    25
100
AcDbCircle
 10
0.0016112938
 20
-18.2157853592
 30
0.0
 40
38.84746695579324
100
AcDbArc
 50
79.1535169277
 51
101.271733426
  0
VIEWPORT
  5
128
330
F3
100
AcDbEntity
  8
0
100
AcDbViewport
 10
0.0
 20
0.0
 30
0.0
 40
205.6
 41
156.0
 68
     1
 69
     1
 12
0.0
 22
0.0
 13
0.0
 23
0.0
 14
10.0
 24
10.0
 15
10.0
 25
10.0
 16
0.0
 26
0.0
 36
1.0
 17
0.0
 27
0.0
 37
0.0
 42
50.0
 43
0.0
 44
0.0
 45
397.8
 50
0.0
 51
0.0
 72
   100
 90
   557152
  1

281
     0
 71
     1
 74
     0
110
0.0
120
0.0
130
0.0
111
1.0
121
0.0
131
0.0
112
0.0
122
1.0
132
0.0
 79
     0
146
0.0
170
     0
 61
     5
348
2F
292
     1
282
     1
141
0.0
142
0.0
 63
   256
361
129
  0
ENDBLK
  5
F6
330
F3
100
AcDbEntity
  8
0
100
AcDbBlockEnd
  0
BLOCK
  5
105
330
103
100
AcDbEntity
  8
0
100
AcDbBlockBegin
  2
*Paper_Space6
 70
     0
 10
0.0
 20
0.0
 30
0.0
  3
*Paper_Space6
  1

  0
SPLINE
  5
107
330
103
100
AcDbEntity
  8
0
  6
Continuous
 62
     7
370
    25
100
AcDbSpline
210
0.0
220
0.0
230
1.0
 70
     8
 71
     3
 72
    75
 73
    71
 74
     0
 42
0.000000001
 43
0.00000001
 40
0.0
 40
0.0
 40
0.0
 40
0.0
 40
0.0097991439321833
 40
0.0249325954762864
 40
0.0400306258143222
 40
0.0550930889207999
 40
0.070119818398076
 40
0.0851106318370107
 40
0.100065336329483
 40
0.1149837354058156
 40
0.1298656377403132
 40
0.1447108680536118
 40
0.1595192807440019
 40
0.1742907769045625
 40
0.1890253255303931
 40
0.203722989891551
 40
0.2183839602393943
 40
0.233008594218936
 40
0.2475974665599853
 40
0.2621514297838268
 40
0.2766716877388475
 40
0.2911598836918557
 40
0.3056182043484424
 40
0.3200495004351896
 40
0.3344574232375241
 40
0.3488465747095655
 40
0.3632226665827519
 40
0.3775926816916053
 40
0.3919650291676789
 40
0.4063496848158518
 40
0.4207583084226983
 40
0.4352043277887704
 40
0.4497029677687796
 40
0.464271172495428
 40
0.4789273186086895
 40
0.4936905678368175
 40
0.5085797101381461
 40
0.5236111988395421
 40
0.5387943870188546
 40
0.5541360860946722
 40
0.5696362258058919
 40
0.5852875647449575
 40
0.6010765539169516
 40
0.615352399678001
 40
0.6296514038559015
 40
0.6439718978681079
 40
0.6583130417932856
 40
0.6726739236339391
 40
0.6870535831800196
 40
0.7014510242257709
 40
0.7158652257234178
 40
0.7302951547207556
 40
0.7447397805613885
 40
0.7591980888277734
 40
0.7736690936685767
 40
0.7897751807193057
 40
0.8058991009691734
 40
0.821992910440606
 40
0.8380533327968531
 40
0.8540788378511576
 40
0.87006837018479
 40
0.8860212224465797
 40
0.901936955987023
 40
0.9178153375377991
 40
0.9336562884838047
 40
0.949459844360578
 40
0.9652261226147532
 40
0.980955297011708
 40
0.9966475773724194
 40
1.0
 40
1.0
 40
1.0
 40
1.0
 10
-192.9753278210942
 20
122.8413701682171
 30
0.0
 10
-192.5175186068988
 20
121.1958666217797
 30
0.0
 10
-191.3526850232872
 20
117.0091055575428
 30
0.0
 10
-189.1497850737796
 20
110.3859927879522
 30
0.0
 10
-186.414368677053
 20
102.979837569252
 30
0.0
 10
-183.3915735417823
 20
95.7052648276131
 30
0.0
 10
-180.1028414860781
 20
88.56806787830621
 30
0.0
 10
-176.550887684495
 20
81.57910445480483
 30
0.0
 10
-172.7438502461931
 20
74.74747482071744
 30
0.0
 10
-168.6888205294095
 20
68.08232744040453
 30
0.0
 10
-164.3935468533789
 20
61.59236180669041
 30
0.0
 10
-159.8659539025608
 20
55.2859468775645
 30
0.0
 10
-155.1142428603225
 20
49.17107604851029
 30
0.0
 10
-150.1468336418378
 20
43.25536680706701
 30
0.0
 10
-144.9723459052219
 20
37.54604969587882
 30
0.0
 10
-139.5995657100766
 20
32.04996162743553
 30
0.0
 10
-134.0374112619708
 20
26.77353988444503
 30
0.0
 10
-128.2948932851222
 20
21.72281825701366
 30
0.0
 10
-122.3810702283852
 20
16.90342556738729
 30
0.0
 10
-116.3049971864748
 20
12.32058737272323
 30
0.0
 10
-110.0756677704533
 20
7.979131774684838
 30
0.0
 10
-103.7019482046096
 20
3.883500577496104
 30
0.0
 10
-97.19250327262418
 20
0.0377673615521157
 30
0.0
 10
-90.5557143181484
 20
-3.554335610557791
 30
0.0
 10
-83.79959043261358
 20
-6.889379436763182
 30
0.0
 10
-76.93167524889542
 20
-9.964187193812146
 30
0.0
 10
-69.95895332388955
 20
-12.7757668948479
 30
0.0
 10
-62.88776169249838
 20
-15.32122712980216
 30
0.0
 10
-55.72371342293457
 20
-17.59767484013491
 30
0.0
 10
-48.47164058164103
 20
-19.60209621696058
 30
0.0
 10
-41.1355642221852
 20
-21.33122331708294
 30
0.0
 10
-33.71870053225279
 20
-22.7813901924698
 30
0.0
 10
-26.22351847333355
 20
-23.94838316075212
 30
0.0
 10
-18.65187849064517
 20
-24.82729185698378
 30
0.0
 10
-11.00530265368105
 20
-25.41237438926144
 30
0.0
 10
-3.28544143049643
 20
-25.69696475852412
 30
0.0
 10
4.505166621726509
 20
-25.67347214481341
 30
0.0
 10
12.36163120788796
 20
-25.33356989487251
 30
0.0
 10
20.27628212478722
 20
-24.66864016175721
 30
0.0
 10
28.23788666798344
 20
-23.67033880886475
 30
0.0
 10
36.23171023665138
 20
-22.33117402892439
 30
0.0
 10
44.23897467292885
 20
-20.64526838674648
 30
0.0
 10
51.96176724101002
 20
-18.67914659429896
 30
0.0
 10
59.37353273955012
 20
-16.47469921024904
 30
0.0
 10
66.45439998499373
 20
-14.07463558214683
 30
0.0
 10
73.45044680269733
 20
-11.40578271623548
 30
0.0
 10
80.35115491092515
 20
-8.471758642370041
 30
0.0
 10
87.1462546179519
 20
-5.276532219180327
 30
0.0
 10
93.82561718894947
 20
-1.824459261391798
 30
0.0
 10
100.3792683341003
 20
1.879724212385039
 30
0.0
 10
106.7974089913441
 20
5.830908906181584
 30
0.0
 10
113.0704364226415
 20
10.02362067544049
 30
0.0
 10
119.1889603867435
 20
14.45202455010534
 30
0.0
 10
125.1438412489487
 20
19.109951781836
 30
0.0
 10
131.1423635303029
 20
24.17336134517802
 30
0.0
 10
137.1518858584107
 20
29.6650416815368
 30
0.0
 10
143.1296918898041
 20
35.60014561676741
 30
0.0
 10
148.8517350051686
 20
41.77148919047605
 30
0.0
 10
154.3035265652749
 20
48.16038606741747
 30
0.0
 10
159.4770744027169
 20
54.7536099076631
 30
0.0
 10
164.3653223370514
 20
61.53802709541024
 30
0.0
 10
168.9619356915647
 20
68.50047043730846
 30
0.0
 10
173.2613268360784
 20
75.62772404702022
 30
0.0
 10
177.2583277037318
 20
82.90661247817532
 30
0.0
 10
180.949236183874
 20
90.32371760746341
 30
0.0
 10
184.3277852212637
 20
97.86647732639244
 30
0.0
 10
187.4000209753871
 20
105.5191465335413
 30
0.0
 10
190.1288816338137
 20
113.2778663663263
 30
0.0
 10
191.9839094121281
 20
119.051817919403
 30
0.0
 10
192.8300894869216
 20
122.2614903789038
 30
0.0
 10
192.9790418350622
 20
122.8264862513502
 30
0.0
  0
SPLINE
  5
108
330
103
100
AcDbEntity
  8
0
  6
Continuous
 62
     7
370
    25
100
AcDbSpline
210
0.0
220
0.0
230
1.0
 70
     8
 71
     3
 72
    76
 73
    72
 74
     0
 42
0.000000001
 43
0.00000001
 40
0.0
 40
0.0
 40
0.0
 40
0.0
 40
0.0077849844534262
 40
0.023869078966454
 40
0.0393251417867
 40
0.0543403720387394
 40
0.0690599175202288
 40
0.0835841671322698
 40
0.0979843845457434
 40
0.1123120760988282
 40
0.1266048107485845
 40
0.1408900288134988
 40
0.1551817921207921
 40
0.1694958351851263
 40
0.183843400570158
 40
0.1982321087982883
 40
0.2126668059573516
 40
0.2271502128888403
 40
0.2416834278672847
 40
0.2562663185424665
 40
0.2708978285637921
 40
0.2855762175146658
 40
0.3002992481818803
 40
0.315064331959505
 40
0.3298686408510835
 40
0.3447091927892526
 40
0.3595829156530376
 40
0.374486694313056
 40
0.3894174041976762
 40
0.4043719341987772
 40
0.4193472011891879
 40
0.4343401579802123
 40
0.4493477961884901
 40
0.4643671451921536
 40
0.4793952681256855
 40
0.4944292556821603
 40
0.5094662183532094
 40
0.5245031509780447
 40
0.5395363449557846
 40
0.5545629122688063
 40
0.5695799454542537
 40
0.5845845092375572
 40
0.5995736336528801
 40
0.6145443091065771
 40
0.6294934840975608
 40
0.6444180664741961
 40
0.659314929320549
 40
0.6741809228333324
 40
0.6890128938846749
 40
0.7038077153766648
 40
0.7185623279957554
 40
0.7332737975861515
 40
0.7479393921032039
 40
0.7625566830100404
 40
0.7771236770835954
 40
0.791638985959048
 40
0.8061020424545678
 40
0.8205133749225754
 40
0.8348749537961608
 40
0.8491906285080558
 40
0.8634666786585045
 40
0.8777125116964279
 40
0.8919415521260694
 40
0.9061698826225887
 40
0.9204162202406511
 40
0.9347113211655325
 40
0.9490962253162616
 40
0.9636255926609548
 40
0.9783724722281661
 40
0.9934353624132781
 40
1.0
 40
1.0
 40
1.0
 40
1.0
 10
169.2049267993435
 20
99.82016992518047
 30
0.0
 10
169.0457164499897
 20
99.45616712697738
 30
0.0
 10
168.5575710434399
 20
98.34011974290124
 30
0.0
 10
167.4705398294558
 20
96.3601921359499
 30
0.0
 10
165.9394326357685
 20
93.9170198983164
 30
0.0
 10
164.1489056156233
 20
91.4354116875222
 30
0.0
 10
162.1069298723788
 20
88.92251299398178
 30
0.0
 10
159.8021844740462
 20
86.37897165600718
 30
0.0
 10
157.2301082466427
 20
83.81128901289904
 30
0.0
 10
154.3865245036663
 20
81.22730969692367
 30
0.0
 10
151.2693019039814
 20
78.63631077326511
 30
0.0
 10
147.8783190119829
 20
76.04861288540269
 30
0.0
 10
144.2150821595668
 20
73.47483153160891
 30
0.0
 10
140.2825544698703
 20
70.92559555361335
 30
0.0
 10
136.0844200356101
 20
68.41104678736606
 30
0.0
 10
131.625604853057
 20
65.941168509691
 30
0.0
 10
126.9122010243705
 20
63.52568985486138
 30
0.0
 10
121.9513686484715
 20
61.17400352726714
 30
0.0
 10
116.75124006609
 20
58.89510576035487
 30
0.0
 10
111.3208276652394
 20
56.6975533570286
 30
0.0
 10
105.6699364042066
 20
54.58943405211245
 30
0.0
 10
99.80908175371405
 20
52.57834721621968
 30
0.0
 10
93.74941346705245
 20
50.67139253364243
 30
0.0
 10
87.50264531104554
 20
48.87516473800417
 30
0.0
 10
81.08099067621235
 20
47.19575285083629
 30
0.0
 10
74.49710381933393
 20
45.63874266201268
 30
0.0
 10
67.76402637476991
 20
44.20922143507312
 30
0.0
 10
60.89513869534511
 20
42.91178402420749
 30
0.0
 10
53.90411554244155
 20
41.75053975948838
 30
0.0
 10
46.80488563063588
 20
40.72911959737178
 30
0.0
 10
39.61159453777113
 20
39.85068314824676
 30
0.0
 10
32.33857051043969
 20
39.11792528517815
 30
0.0
 10
25.00029272223772
 20
38.53308211098889
 30
0.0
 10
17.61136157313105
 20
38.09793611734197
 30
0.0
 10
10.18647065065915
 20
37.81382041204481
 30
0.0
 10
2.740380000247664
 20
37.68162192227237
 30
0.0
 10
-4.712088686373378
 20
37.70178344596338
 30
0.0
 10
-12.15596092700118
 20
37.87429956225255
 30
0.0
 10
-19.57627303313905
 20
38.19870694917046
 30
0.0
 10
-26.95812087556378
 20
38.67408504028853
 30
0.0
 10
-34.28679979122118
 20
39.29906914872494
 30
0.0
 10
-41.54769293518376
 20
40.07184338624513
 30
0.0
 10
-48.72629760743925
 20
40.99013547839574
 30
0.0
 10
-55.80825286759289
 20
42.05121030539993
 30
0.0
 10
-62.77936878121918
 20
43.25186219092473
 30
0.0
 10
-69.62565773182844
 20
44.58840598929282
 30
0.0
 10
-76.33336827713276
 20
46.05666706165094
 30
0.0
 10
-82.88902208656053
 20
47.65197028723055
 30
0.0
 10
-89.27945455609748
 20
49.36912833140027
 30
0.0
 10
-95.49185975597365
 20
51.2024294925591
 30
0.0
 10
-101.5138404210305
 20
53.14562558071889
 30
0.0
 10
-107.3334637367196
 20
55.1919204483991
 30
0.0
 10
-112.9393236972844
 20
57.33396000668652
 30
0.0
 10
-118.3206108066511
 20
59.56382482480282
 30
0.0
 10
-123.4671898432738
 20
61.87302674002054
 30
0.0
 10
-128.3696863057178
 20
64.25251131044983
 30
0.0
 10
-133.0195819658002
 20
66.69266843561472
 30
0.0
 10
-137.4093197057962
 20
69.1833540943
 30
0.0
 10
-141.5324173103848
 20
71.71392684975349
 30
0.0
 10
-145.3835897276114
 20
74.27330392452136
 30
0.0
 10
-148.958877113749
 20
76.8500421191442
 30
0.0
 10
-152.2557804338957
 20
79.43245327804237
 30
0.0
 10
-155.2732079124729
 20
82.00860479074959
 30
0.0
 10
-158.0114719069031
 20
84.56631569458223
 30
0.0
 10
-160.4726976407913
 20
87.09361251514915
 30
0.0
 10
-162.6615864324613
 20
89.57952336666168
 30
0.0
 10
-164.5836310757867
 20
92.01379077901434
 30
0.0
 10
-166.2521718546691
 20
94.39110938938605
 30
0.0
 10
-167.6604274067536
 20
96.69774931299652
 30
0.0
 10
-168.6454700317385
 20
98.5197305384205
 30
0.0
 10
-169.0783424069936
 20
99.52600385263929
 30
0.0
 10
-169.2097328412047
 20
99.83143957745845
 30
0.0
  0
LWPOLYLINE
  5
109
330
103
100
AcDbEntity
  8
0
  6
Continuous
 62
     7
370
    25
100
AcDbPolyline
 90
      149
 70
   128
 43
0.0
 10
91.0056008414
 20
225.9710244392
 10
98.2430767159
 20
223.9017143157
 10
105.3035119258
 20
221.6760659154
 10
112.1741830898
 20
219.298090007
 10
118.8427087938
 20
216.772071864
 10
125.297071904
 20
214.1025635416
 10
131.5256412217
 20
211.2943756744
 10
137.517192444
 20
208.3525688067
 10
143.2609283907
 20
205.2824442733
 10
148.7464984613
 20
202.0895346461
 10
153.9640172878
 20
198.7795937641
 10
158.9040825486
 20
195.3585863644
 10
163.5577919123
 20
191.8326773337
 10
167.9167590799
 20
188.2082205983
 10
171.9731288981
 20
184.4917476743
 10
175.7195915142
 20
180.689955897
 10
179.1493955495
 20
176.8096963522
 10
182.2563602651
 20
172.8579615299
 10
185.0348867007
 20
168.8418727233
 10
187.4799677638
 20
164.768667196
 10
189.5871972532
 20
160.6456851394
 10
191.3527777987
 20
156.4803564461
 10
192.773527705
 20
152.2801873199
 10
193.8468866848
 20
148.0527467493
 10
194.5709204724
 20
143.8056528681
 10
194.9443243102
 20
139.5465592265
 10
194.9664252992
 20
135.2831409991
 10
194.6371836119
 20
131.0230811538
 10
193.9571925641
 20
126.7740566062
 10
192.9276775456
 20
122.5437243858
 10
191.550493812
 20
118.3397078373
 10
189.8281231416
 20
114.1695828826
 10
187.7636693627
 20
110.0408643687
 10
185.3608527605
 20
105.9609925255
 10
182.6240033729
 20
101.9373195577
 10
179.5580531877
 20
97.9770963961
 10
176.1685272541
 20
94.0874596304
 10
172.4615337271
 20
90.275418649
 10
168.4437528595
 20
86.5478430074
 10
164.1224249641
 20
82.9114500488
 10
159.5053373657
 20
79.3727927992
 10
154.6008103683
 20
75.9382481581
 10
149.4176822611
 20
72.614005407
 10
143.9652933912
 20
69.4060550562
 10
138.2534693319
 20
66.3201780489
 10
132.2925031762
 20
63.3619353442
 10
126.0931369881
 20
60.5366578952
 10
119.6665424444
 20
57.849437043
 10
113.0243007029
 20
55.3051153412
 10
106.1783815321
 20
52.9082778293
 10
99.1411217412
 20
50.6632437707
 10
91.9252029478
 20
48.5740588684
 10
84.5436287255
 20
46.6444879749
 10
77.0097011698
 20
44.8780083073
 10
69.3369969275
 20
43.2778031813
 10
61.5393427302
 20
41.8467562748
 10
53.6307904778
 20
40.5874464311
 10
45.6255919161
 20
39.5021430115
 10
37.5381729538
 20
38.5928018062
 10
29.3831076667
 20
37.8610615095
 10
21.1750920335
 20
37.3082407669
 10
12.9289174532
 20
36.9353357988
 10
4.6594440898
 20
36.743018605
 10
-3.6184259068
 20
36.7316357541
 10
-11.8897752553
 20
36.901207759
 10
-20.1396984252
 20
37.2514290392
 10
-28.3533284972
 20
37.7816684724
 10
-36.5158639549
 20
38.4909705313
 10
-44.6125953576
 20
39.3780570057
 10
-52.6289318481
 20
40.4413293058
 10
-60.5504274462
 20
41.6788713429
 10
-68.3628070813
 20
43.0884529828
 10
-76.0519923174
 20
44.667534064
 10
-83.604126723
 20
46.4132689757
 10
-91.0056008414
 20
48.3225117855
 10
-98.2430767159
 20
50.391821909
 10
-105.3035119258
 20
52.6174703093
 10
-112.1741830898
 20
54.9954462176
 10
-118.8427087938
 20
57.5214643607
 10
-125.297071904
 20
60.1909726831
 10
-131.5256412217
 20
62.9991605503
 10
-137.517192444
 20
65.940967418
 10
-143.2609283907
 20
69.0110919514
 10
-148.7464984613
 20
72.2040015786
 10
-153.9640172878
 20
75.5139424606
 10
-158.9040825486
 20
78.9349498603
 10
-163.5577919123
 20
82.460858891
 10
-167.9167590799
 20
86.0853156263
 10
-171.9731288981
 20
89.8017885504
 10
-175.7195915142
 20
93.6035803277
 10
-179.1493955495
 20
97.4838398724
 10
-182.2563602651
 20
101.4355746947
 10
-185.0348867007
 20
105.4516635013
 10
-187.4799677638
 20
109.5248690287
 10
-189.5871972532
 20
113.6478510853
 10
-191.3527777987
 20
117.8131797786
 10
-192.773527705
 20
122.0133489048
 10
-193.8468866848
 20
126.2407894754
 10
-194.5709204724
 20
130.4878833566
 10
-194.9443243102
 20
134.7469769982
 10
-194.9664252992
 20
139.0103952256
 10
-194.6371836119
 20
143.2704550709
 10
-193.9571925641
 20
147.5194796185
 10
-192.9276775456
 20
151.7498118388
 10
-191.550493812
 20
155.9538283873
 10
-189.8281231416
 20
160.1239533421
 10
-187.7636693627
 20
164.252671856
 10
-185.3608527605
 20
168.3325436992
 10
-182.6240033729
 20
172.356216667
 10
-179.5580531877
 20
176.3164398286
 10
-176.1685272541
 20
180.2060765943
 10
-172.4615337271
 20
184.0181175757
 10
-168.4437528595
 20
187.7456932173
 10
-164.1224249641
 20
191.3820861759
 10
-159.5053373657
 20
194.9207434255
 10
-154.6008103683
 20
198.3552880666
 10
-149.4176822611
 20
201.6795308177
 10
-143.9652933912
 20
204.8874811685
 10
-138.2534693319
 20
207.9733581758
 10
-132.2925031762
 20
210.9316008805
 10
-126.0931369881
 20
213.7568783295
 10
-119.6665424444
 20
216.4440991817
 10
-113.0243007029
 20
218.9884208835
 10
-106.1783815321
 20
221.3852583954
 10
-99.1411217412
 20
223.630292454
 10
-91.9252029478
 20
225.7194773563
 10
-84.5436287255
 20
227.6490482498
 10
-77.0097011698
 20
229.4155279174
 10
-69.3369969275
 20
231.0157330434
 10
-61.5393427302
 20
232.4467799498
 10
-53.6307904778
 20
233.7060897936
 10
-45.6255919161
 20
234.7913932132
 10
-37.5381729538
 20
235.7007344185
 10
-29.3831076667
 20
236.4324747152
 10
-21.1750920335
 20
236.9852954578
 10
-12.9289174532
 20
237.3582004259
 10
-4.6594440898
 20
237.5505176197
 10
3.6184259068
 20
237.5619004705
 10
11.8897752553
 20
237.3923284657
 10
20.1396984252
 20
237.0421071855
 10
28.3533284972
 20
236.5118677523
 10
36.5158639549
 20
235.8025656933
 10
44.6125953576
 20
234.915479219
 10
52.6289318481
 20
233.8522069189
 10
60.5504274462
 20
232.6146648818
 10
68.3628070813
 20
231.2050832419
 10
76.0519923174
 20
229.6260021607
 10
83.604126723
 20
227.880267249
 10
91.0056008414
 20
225.9710244392
  0
LWPOLYLINE
  5
10B
330
103
100
AcDbEntity
  8
0
  6
Continuous
 62
    60
370
    25
100
AcDbPolyline
 90
       31
 70
   128
 43
0.0
 10
81.0677781636
 20
199.1280588336
 10
87.9270487709
 20
197.1605269572
 10
94.6066894557
 20
195.0353675367
 10
101.0930540949
 20
192.756922151
 10
107.3728914173
 20
190.3298455335
 10
113.4333720749
 20
187.7590960626
 10
119.2621148532
 20
185.0499256322
 10
124.8472119645
 20
182.2078689222
 10
130.1772533756
 20
179.2387320917
 10
135.2413501171
 20
176.1485809171
 10
140.0291565297
 20
172.9437284001
 10
144.5308913992
 20
169.6307218709
 10
148.7373579392
 20
166.2163296118
 10
152.6399625796
 20
162.7075270307
 10
156.2307325227
 20
159.1114824102
 10
159.5023320313
 20
155.4355422633
 10
162.4480774151
 20
151.6872163252
 10
165.061950685
 20
147.874162211
 10
167.3386118477
 20
144.0041697717
 10
169.2734098149
 20
140.0851451802
 10
170.8623919052
 20
136.1250947791
 10
172.1023119193
 20
132.1321087245
 10
172.9906367716
 20
128.1143444581
 10
173.5255516653
 20
124.0800100421
 10
173.7059638
 20
120.0373473905
 10
173.5315046041
 20
115.9946154314
 10
173.0025304876
 20
111.9600732347
 10
172.1201221144
 20
107.9419631388
 10
170.8860821942
 20
103.9484939124
 10
169.3029317998
 20
99.9878239844
 10
169.242069713
 20
99.8517517182
  0
LWPOLYLINE
  5
10C
330
103
100
AcDbEntity
  8
0
  6
Continuous
 62
    60
370
    25
100
AcDbPolyline
 90
       52
 70
   128
 43
0.0
 10
-169.2508928022
 20
99.8714178936
 10
-170.1113473751
 20
101.897099854
 10
-171.526159771
 20
105.8746339459
 10
-172.590554051
 20
109.8810323424
 10
-173.3023557185
 20
113.9081102011
 10
-173.6601106035
 20
117.9476404328
 10
-173.6630878332
 20
121.9913705086
 10
-173.3112813255
 20
126.0310393197
 10
-172.6054098007
 20
130.0583940542
 10
-171.546915314
 20
134.0652070572
 10
-170.137960309
 20
138.0432926393
 10
-168.3814232
 20
141.9845237995
 10
-166.2808924916
 20
145.8808488284
 10
-163.8406594478
 20
149.7243077573
 10
-161.0657093248
 20
153.5070486199
 10
-157.9617111867
 20
157.2213434932
 10
-154.5350063239
 20
160.8596042857
 10
-150.7925952981
 20
164.414398239
 10
-146.7421236405
 20
167.8784631128
 10
-142.3918662326
 20
171.2447220211
 10
-137.750710401
 20
174.5062978898
 10
-132.8281377613
 20
177.6565275062
 10
-127.6342048471
 20
180.6889751319
 10
-122.1795225659
 20
183.5974456499
 10
-116.475234521
 20
186.3759972218
 10
-110.532994246
 20
189.0189534259
 10
-104.3649413973
 20
191.520914854
 10
-97.9836769534
 20
193.8767701425
 10
-91.402237472
 20
196.0817064138
 10
-84.6340684568
 20
198.1312191095
 10
-77.6929968893
 20
200.0211211927
 10
-70.5932029809
 20
201.7475517016
 10
-63.3491912039
 20
203.3069836377
 10
-55.9757606591
 20
204.6962311709
 10
-48.4879748427
 20
205.912456148
 10
-40.9011308721
 20
206.9531738912
 10
-33.2307282348
 20
207.8162582737
 10
-25.4924371237
 20
208.4999460636
 10
-17.7020664244
 20
209.0028405258
 10
-9.8755314177
 20
209.3239142759
 10
-2.0288212661
 20
209.4625113785
 10
5.822033651
 20
209.4183486878
 10
13.660994487
 20
209.1915164255
 10
21.472046694
 20
208.782477997
 10
29.23923274
 20
208.1920690443
 10
36.9466847089
 20
207.4214957391
 10
44.578656718
 20
206.4723323185
 10
52.1195570857
 20
205.3465178691
 10
59.5539801848
 20
204.0463523651
 10
66.8667379149
 20
202.5744919703
 10
74.0428907308
 20
200.933943611
 10
81.0677781636
 20
199.1280588336
  0
ARC
  5
10D
330
103
100
AcDbEntity
  8
0
  6
Continuous
 62
     7
370
    25
100
AcDbCircle
 10
-0.0063384621
 20
69.864131946
 30
0.0
 40
98.26296233510007
100
AcDbArc
 50
251.144334068
 51
288.9786711414
  0
VIEWPORT
  5
12A
330
103
100
AcDbEntity
  8
0
100
AcDbViewport
 10
0.0
 20
0.0
 30
0.0
 40
205.6
 41
156.0
 68
     1
 69
     1
 12
0.0
 22
0.0
 13
0.0
 23
0.0
 14
10.0
 24
10.0
 15
10.0
 25
10.0
 16
0.0
 26
0.0
 36
1.0
 17
0.0
 27
0.0
 37
0.0
 42
50.0
 43
0.0
 44
0.0
 45
397.8
 50
0.0
 51
0.0
 72
   100
 90
   557152
  1

281
     0
 71
     1
 74
     0
110
0.0
120
0.0
130
0.0
111
1.0
121
0.0
131
0.0
112
0.0
122
1.0
132
0.0
 79
     0
146
0.0
170
     0
 61
     5
348
2F
292
     1
282
     1
141
0.0
142
0.0
 63
   256
361
12B
  0
ENDBLK
  5
106
330
103
100
AcDbEntity
  8
0
100
AcDbBlockEnd
  0
BLOCK
  5
110
330
10E
100
AcDbEntity
  8
0
100
AcDbBlockBegin
  2
*Paper_Space7
 70
     0
 10
0.0
 20
0.0
 30
0.0
  3
*Paper_Space7
  1

  0
SPLINE
  5
112
330
10E
100
AcDbEntity
  8
0
  6
Continuous
 62
     7
370
    25
100
AcDbSpline
210
0.0
220
0.0
230
1.0
 70
     8
 71
     3
 72
    78
 73
    74
 74
     0
 42
0.000000001
 43
0.00000001
 40
0.0
 40
0.0
 40
0.0
 40
0.0
 40
0.0126024831013754
 40
0.027419114546425
 40
0.0421942880152346
 40
0.0569276160702514
 40
0.0716186205830446
 40
0.0862667308627998
 40
0.1008712813922838
 40
0.115431509234876
 40
0.129946551202695
 40
0.1444154409149364
 40
0.1588371059330871
 40
0.1732103652439491
 40
0.187533927484356
 40
0.2018063904814612
 40
0.2160262429463566
 40
0.2301918695468172
 40
0.2443015611570736
 40
0.2583535329267795
 40
0.2723459540549058
 40
0.2862769949757004
 40
0.3001449002973797
 40
0.3139480995542637
 40
0.3276853728741222
 40
0.3413560949923767
 40
0.3549605878340226
 40
0.3685006164084206
 40
0.3819800584892336
 40
0.3954057526594821
 40
0.4087884623264094
 40
0.4221437712024731
 40
0.4354925914143996
 40
0.4488610475772726
 40
0.4622803419604753
 40
0.4757891737997259
 40
0.4894423815462958
 40
0.5033240492947032
 40
0.5175509358138609
 40
0.5322229216556706
 40
0.5457939723442189
 40
0.5594637302832762
 40
0.5732100171022583
 40
0.5870145078014424
 40
0.6008669866175183
 40
0.6147628258729564
 40
0.6286996100853538
 40
0.6426752103602492
 40
0.6566871257893437
 40
0.6707324616965059
 40
0.6848081180165553
 40
0.6989109895678786
 40
0.7130381126849427
 40
0.7271867514310582
 40
0.7413544362873568
 40
0.7555389710957117
 40
0.769738421205645
 40
0.7839510919120701
 40
0.7981755029830203
 40
0.8124103627018552
 40
0.8266545432785053
 40
0.8409070585084701
 40
0.856781607731991
 40
0.8726426096150909
 40
0.8884444649678168
 40
0.9041882631791535
 40
0.9198761788284091
 40
0.9355102275331405
 40
0.9510922421576956
 40
0.9666238813665257
 40
0.9821066395313683
 40
0.9975418566593597
 40
0.9999999999999999
 40
0.9999999999999999
 40
0.9999999999999999
 40
0.9999999999999999
 10
-194.2865963207946
 20
145.373757904338
 30
0.0
 10
-193.7250395329245
 20
143.2009248965812
 30
0.0
 10
-192.503265239154
 20
138.4735107313969
 30
0.0
 10
-190.2681859573659
 20
131.2974997897821
 30
0.0
 10
-187.6627664337149
 20
123.8460882190402
 30
0.0
 10
-184.7747232697835
 20
116.5228362419635
 30
0.0
 10
-181.6208561497554
 20
109.3351390113597
 30
0.0
 10
-178.2054879748936
 20
102.2933665879023
 30
0.0
 10
-174.5367347731688
 20
95.4066892493649
 30
0.0
 10
-170.6221514795998
 20
88.68417340014564
 30
0.0
 10
-166.4698793527211
 20
82.13447163856462
 30
0.0
 10
-162.0883248699232
 20
75.76588819174053
 30
0.0
 10
-157.4862294417561
 20
69.58634453590989
 30
0.0
 10
-152.6726338144026
 20
63.60337194242549
 30
0.0
 10
-147.6568692511891
 20
57.82409712304106
 30
0.0
 10
-142.4485399030978
 20
52.25522996517227
 30
0.0
 10
-137.057505317065
 20
46.90305091892335
 30
0.0
 10
-131.4938598899326
 20
41.77339863448583
 30
0.0
 10
-125.7679089227386
 20
36.87165762907684
 30
0.0
 10
-119.8901395938706
 20
32.20274597699412
 30
0.0
 10
-113.8711846729214
 20
27.7711029719499
 30
0.0
 10
-107.7217756774639
 20
23.58067677621375
 30
0.0
 10
-101.4526806606684
 20
19.63491219751788
 30
0.0
 10
-95.07461966363759
 20
15.93673903257996
 30
0.0
 10
-88.59814799360485
 20
12.48856203901097
 30
0.0
 10
-82.03349398658816
 20
9.292254829278464
 30
0.0
 10
-75.39033443103054
 20
6.34916227956063
 30
0.0
 10
-68.67748925278535
 20
3.66012006310687
 30
0.0
 10
-61.90252160736168
 20
1.225506327792558
 30
0.0
 10
-55.07124778742718
 20
-0.9546506483558426
 30
0.0
 10
-48.18720294670133
 20
-2.880476273616872
 30
0.0
 10
-41.25117403529407
 20
-4.551932303499165
 30
0.0
 10
-34.26095666380007
 20
-5.968371864657679
 30
0.0
 10
-27.21137035982161
 20
-7.128028843217116
 30
0.0
 10
-20.09405975710652
 20
-8.027576543590042
 30
0.0
 10
-12.89588150642885
 20
-8.66179881510036
 30
0.0
 10
-5.595024178994115
 20
-9.022998162527468
 30
0.0
 10
1.843078116376268
 20
-9.099412696158119
 30
0.0
 10
9.459490519676386
 20
-8.872791351272655
 30
0.0
 10
17.00396743432384
 20
-8.338009771976088
 30
0.0
 10
24.42062479192007
 20
-7.514503248607377
 30
0.0
 10
31.63633986111585
 20
-6.433806837557468
 30
0.0
 10
38.84580115534416
 20
-5.072364735489055
 30
0.0
 10
46.02996813791965
 20
-3.432161116526222
 30
0.0
 10
53.1730273264969
 20
-1.515851987596517
 30
0.0
 10
60.2620030811671
 20
0.6738207102632704
 30
0.0
 10
67.28532871921703
 20
3.134073440961713
 30
0.0
 10
74.23182020752564
 20
5.861910599093481
 30
0.0
 10
81.09026564662038
 20
8.85396755930784
 30
0.0
 10
87.84938855710827
 20
12.10642835929328
 30
0.0
 10
94.4979529028671
 20
15.61500484860374
 30
0.0
 10
101.024887300162
 20
19.3749504089669
 30
0.0
 10
107.4193829364867
 20
23.38108789379739
 30
0.0
 10
113.6709574785027
 20
27.62784031057418
 30
0.0
 10
119.7694910327896
 20
32.10925910282651
 30
0.0
 10
125.705242955081
 20
36.81904838916424
 30
0.0
 10
131.4688571932283
 20
41.75058541378646
 30
0.0
 10
137.0513611281532
 20
46.89693729837892
 30
0.0
 10
142.444163020809
 20
52.25087728605337
 30
0.0
 10
147.6390439853004
 20
57.80489243946776
 30
0.0
 10
152.6281684733833
 20
63.55121621212891
 30
0.0
 10
157.5843727259976
 20
69.70571108575368
 30
0.0
 10
162.4681401750318
 20
76.28096740370931
 30
0.0
 10
167.2322961902374
 20
83.27986153604814
 30
0.0
 10
171.6927325468067
 20
90.44877286342617
 30
0.0
 10
175.8410815107053
 20
97.7673147138927
 30
0.0
 10
179.6740117434451
 20
105.222267688619
 30
0.0
 10
183.1896728249484
 20
112.8003898453319
 30
0.0
 10
186.3831172389127
 20
120.4893170852961
 30
0.0
 10
189.2628865284386
 20
128.273529241303
 30
0.0
 10
191.7894193871385
 20
136.1493333072124
 30
0.0
 10
193.4575776806406
 20
141.8576878694079
 30
0.0
 10
194.1869210258371
 20
144.9592490056779
 30
0.0
 10
194.287116318397
 20
145.3853334109005
 30
0.0
  0
SPLINE
  5
113
330
10E
100
AcDbEntity
  8
0
  6
Continuous
 62
     7
370
    25
100
AcDbSpline
210
0.0
220
0.0
230
1.0
 70
     8
 71
     3
 72
    38
 73
    34
 74
     0
 42
0.000000001
 43
0.00000001
 40
0.0
 40
0.0
 40
0.0
 40
0.0
 40
0.0005888019560314
 40
0.0322513007064032
 40
0.0628743919045716
 40
0.093002876294834
 40
0.1229776600107349
 40
0.1529905730272079
 40
0.1831791801409819
 40
0.2136574849635951
 40
0.2444985398426022
 40
0.2757456702880818
 40
0.3074202674119729
 40
0.3395275567857799
 40
0.3720610236406354
 40
0.4050058646884061
 40
0.4383416879519569
 40
0.4720446085563882
 40
0.5060888507482052
 40
0.5404479454330875
 40
0.5750955990430865
 40
0.610006299204012
 40
0.6451557135742482
 40
0.6805209296975979
 40
0.7160805756645108
 40
0.7518148539370975
 40
0.7877055140271775
 40
0.8237357839350703
 40
0.8598902753973969
 40
0.8961548740230072
 40
0.9325166222380445
 40
0.9689636005071266
 40
0.9999999999999999
 40
0.9999999999999999
 40
0.9999999999999999
 40
0.9999999999999999
 10
172.3350113478061
 20
124.6685117512443
 30
0.0
 10
172.3354611252935
 20
124.6694083631364
 30
0.0
 10
172.3600974378055
 20
124.7185197824408
 30
0.0
 10
172.2695609024675
 20
124.5531539519664
 30
0.0
 10
171.9973030322112
 20
124.1848337773265
 30
0.0
 10
171.4832954281198
 20
123.5687539498455
 30
0.0
 10
170.7282652759704
 20
122.7750372742066
 30
0.0
 10
169.7092362411407
 20
121.8163949344953
 30
0.0
 10
168.4136697719385
 20
120.7175088381848
 30
0.0
 10
166.8295507815225
 20
119.4971905108188
 30
0.0
 10
164.9475943340503
 20
118.1736775250966
 30
0.0
 10
162.7609836368245
 20
116.7639551166693
 30
0.0
 10
160.2654799149986
 20
115.2842058356043
 30
0.0
 10
157.4592506719613
 20
113.7497368805134
 30
0.0
 10
154.342713388081
 20
112.1749964182293
 30
0.0
 10
150.918331140631
 20
110.5735486028514
 30
0.0
 10
147.190396123247
 20
108.9580631436899
 30
0.0
 10
143.1648082010793
 20
107.3403140180569
 30
0.0
 10
138.8488604345171
 20
105.731192143267
 30
0.0
 10
134.2510385895126
 20
104.1407301559872
 30
0.0
 10
129.380839449069
 20
102.5781372286094
 30
0.0
 10
124.2486103120301
 20
101.0518409910096
 30
0.0
 10
118.8654099884472
 20
99.5695339982278
 30
0.0
 10
113.2428912530487
 20
98.13822150105975
 30
0.0
 10
107.3932000592904
 20
96.76427143962246
 30
0.0
 10
101.3289005827914
 20
95.45345412694766
 30
0.0
 10
95.06288136660973
 20
94.2110119599979
 30
0.0
 10
88.60839932281864
 20
93.04160291264094
 30
0.0
 10
81.97866202774254
 20
91.94970152000653
 30
0.0
 10
75.18818763715362
 20
90.9382658357648
 30
0.0
 10
68.24753679802869
 20
90.01388728704846
 30
0.0
 10
61.5373237707796
 20
89.21008532023951
 30
0.0
 10
57.09627688864438
 20
88.76023452838125
 30
0.0
 10
55.05378717085443
 20
88.55334285592306
 30
0.0
  0
SPLINE
  5
114
330
10E
100
AcDbEntity
  8
0
  6
Continuous
 62
     7
370
    25
100
AcDbSpline
210
0.0
220
0.0
230
1.0
 70
     8
 71
     3
 72
    37
 73
    33
 74
     0
 42
0.000000001
 43
0.00000001
 40
0.0
 40
0.0
 40
0.0
 40
0.0
 40
0.0349470994418226
 40
0.0721639429424642
 40
0.1093025452967338
 40
0.1463517355319116
 40
0.1832994108765943
 40
0.2201324176588207
 40
0.2568364298126551
 40
0.2933958285450107
 40
0.3297935886789641
 40
0.366011179837673
 40
0.4020284941343238
 40
0.4378238165704743
 40
0.4733738600906474
 40
0.5086538943331186
 40
0.543638005612321
 40
0.5782995354973128
 40
0.6126117562613344
 40
0.6465488530093186
 40
0.6800872938004459
 40
0.7132076799009031
 40
0.7458971781325053
 40
0.7781526471015892
 40
0.8099845830107133
 40
0.8414220397536529
 40
0.8725187471517817
 40
0.903360813490103
 40
0.9340767620671326
 40
0.9648211683457267
 40
0.9957888245446302
 40
1.0
 40
1.0
 40
1.0
 40
1.0
 10
-58.85814436406775
 20
88.94110439929634
 30
0.0
 10
-61.09469095254685
 20
89.18714689502661
 30
0.0
 10
-65.71304334736728
 20
89.6952118534035
 30
0.0
 10
-72.57090811459864
 20
90.57833552654844
 30
0.0
 10
-79.44386926277355
 20
91.55930138602648
 30
0.0
 10
-86.160608882324
 20
92.62589664130047
 30
0.0
 10
-92.71026089582848
 20
93.77200364956126
 30
0.0
 10
-99.07848017964113
 20
94.99439896471901
 30
0.0
 10
-105.2520804631667
 20
96.28852346012256
 30
0.0
 10
-111.2178309737134
 20
97.64956283715273
 30
0.0
 10
-116.9628196969026
 20
99.07210352926779
 30
0.0
 10
-122.474409214151
 20
100.5501603755382
 30
0.0
 10
-127.7403146188416
 20
102.0770965577153
 30
0.0
 10
-132.7486661387761
 20
103.6455634028384
 30
0.0
 10
-137.4880974782898
 20
105.2474263305923
 30
0.0
 10
-141.9478540574989
 20
106.8736868474448
 30
0.0
 10
-146.1179283474157
 20
108.5143998198017
 30
0.0
 10
-149.9892263457006
 20
110.1585893207312
 30
0.0
 10
-153.5537700015983
 20
111.7941668930973
 30
0.0
 10
-156.8049393180297
 20
113.4078575625426
 30
0.0
 10
-159.737756874336
 20
114.9851413563705
 30
0.0
 10
-162.3492132932898
 20
116.5102163488566
 30
0.0
 10
-164.6386346574535
 20
117.9660017790967
 30
0.0
 10
-166.608065487102
 20
119.3341564225195
 30
0.0
 10
-168.2627181358291
 20
120.5952415251916
 30
0.0
 10
-169.6112321516554
 20
121.728577310851
 30
0.0
 10
-170.6665939518151
 20
122.7134357811865
 30
0.0
 10
-171.4445022941768
 20
123.5254736288612
 30
0.0
 10
-171.9708050087949
 20
124.1505481420525
 30
0.0
 10
-172.2549286691893
 20
124.5334508275187
 30
0.0
 10
-172.3524185596996
 20
124.7022863289021
 30
0.0
 10
-172.3308902886778
 20
124.6608100899314
 30
0.0
 10
-172.32831318983
 20
124.6558450666114
 30
0.0
  0
LWPOLYLINE
  5
115
330
10E
100
AcDbEntity
  8
0
  6
Continuous
 62
     7
370
    25
100
AcDbPolyline
 90
      149
 70
   128
 43
0.0
 10
68.9429111499
 20
211.6513791802
 10
76.6223127776
 20
210.6212545507
 10
84.1636358187
 20
209.4834170834
 10
91.5532902993
 20
208.2399172383
 10
98.7779595628
 20
206.8929958861
 10
105.8246242666
 20
205.4450802702
 10
112.6805858447
 20
203.8987796324
 10
119.333489391
 20
202.2568805109
 10
125.7713459236
 20
200.522341719
 10
131.9825539899
 20
198.6982890127
 10
137.9559205731
 20
196.7880094584
 10
143.6806812628
 20
194.7949455089
 10
149.1465196535
 20
192.7226888001
 10
154.3435859349
 20
190.5749736788
 10
159.2625146422
 20
188.3556704727
 10
163.8944415335
 20
186.0687785162
 10
168.2310195634
 20
183.7184189433
 10
172.2644339252
 20
181.3088272606
 10
175.9874161337
 20
178.8443457153
 10
179.3932571231
 20
176.3294154697
 10
182.4758193379
 20
173.7685685981
 10
185.2295477926
 20
171.1664199197
 10
187.6494800824
 20
168.5276586822
 10
189.7312553258
 20
165.8570401117
 10
191.4711220229
 20
163.1593768435
 10
192.8659448166
 20
160.439530249
 10
193.9132101417
 20
157.7024016757
 10
194.6110307555
 20
154.9529236143
 10
194.958149138
 20
152.19605081
 10
194.9539397583
 20
149.4367513341
 10
194.5984102022
 20
146.6799976306
 10
193.8922011578
 20
143.930757556
 10
192.8365852617
 20
141.1939854269
 10
191.433464805
 20
138.4746130915
 10
189.6853683056
 20
135.7775410426
 10
187.5954459515
 20
133.1076295864
 10
185.1674639241
 20
130.4696900837
 10
182.4057976112
 20
127.8684762798
 10
179.3154237221
 20
125.3086757378
 10
175.9019113193
 20
122.7949013914
 10
172.171411783
 20
120.3316832318
 10
168.1306477256
 20
117.9234601445
 10
163.7869008768
 20
115.5745719105
 10
159.1479989623
 20
113.289251385
 10
154.2223015966
 20
111.0716168701
 10
149.0186852196
 20
108.9256646931
 10
143.5465270994
 20
106.8552620048
 10
137.8156884351
 20
104.8641398109
 10
131.8364965851
 20
102.9558862481
 10
125.6197264574
 20
101.1339401183
 10
119.1765810919
 20
99.4015846916
 10
112.5186714721
 20
97.7619417895
 10
105.657995601
 20
96.2179661594
 10
98.6069168804
 20
94.7724401498
 10
91.3781418306
 20
93.4279686962
 10
83.984697193
 20
92.186974627
 10
76.4399064544
 20
91.0516942975
 10
68.7573658378
 20
90.0241735595
 10
60.9509198006
 20
89.1062640748
 10
53.0346360862
 20
88.2996199784
 10
45.022780373
 20
87.6056948974
 10
36.9297905663
 20
87.0257393318
 10
28.770250781
 20
86.5607984007
 10
20.5588650592
 20
86.2117099591
 10
12.3104308729
 20
85.9791030879
 10
4.0398124582
 20
85.8633969604
 10
-4.2380859717
 20
85.864800087
 10
-12.5083470842
 20
85.983309939
 10
-20.7560673098
 20
86.2187129537
 10
-28.9663836991
 20
86.570584919
 10
-37.1245007072
 20
87.0382917378
 10
-45.2157168558
 20
87.6209905708
 10
-53.2254512264
 20
88.3176313553
 10
-61.1392697364
 20
89.1269586976
 10
-68.9429111499
 20
90.047514135
 10
-76.6223127776
 20
91.0776387645
 10
-84.1636358187
 20
92.2154762318
 10
-91.5532902993
 20
93.4589760769
 10
-98.7779595628
 20
94.8058974291
 10
-105.8246242666
 20
96.253813045
 10
-112.6805858447
 20
97.8001136828
 10
-119.333489391
 20
99.4420128043
 10
-125.7713459236
 20
101.1765515962
 10
-131.9825539899
 20
103.0006043025
 10
-137.9559205731
 20
104.9108838568
 10
-143.6806812628
 20
106.9039478064
 10
-149.1465196535
 20
108.9762045151
 10
-154.3435859349
 20
111.1239196364
 10
-159.2625146422
 20
113.3432228425
 10
-163.8944415335
 20
115.630114799
 10
-168.2310195634
 20
117.980474372
 10
-172.2644339252
 20
120.3900660547
 10
-175.9874161337
 20
122.8545476
 10
-179.3932571231
 20
125.3694778455
 10
-182.4758193379
 20
127.9303247171
 10
-185.2295477926
 20
130.5324733956
 10
-187.6494800824
 20
133.1712346331
 10
-189.7312553258
 20
135.8418532035
 10
-191.4711220229
 20
138.5395164718
 10
-192.8659448166
 20
141.2593630662
 10
-193.9132101417
 20
143.9964916395
 10
-194.6110307555
 20
146.7459697009
 10
-194.958149138
 20
149.5028425052
 10
-194.9539397583
 20
152.2621419812
 10
-194.5984102022
 20
155.0188956847
 10
-193.8922011578
 20
157.7681357592
 10
-192.8365852617
 20
160.5049078884
 10
-191.433464805
 20
163.2242802238
 10
-189.6853683056
 20
165.9213522726
 10
-187.5954459515
 20
168.5912637289
 10
-185.1674639241
 20
171.2292032316
 10
-182.4057976112
 20
173.8304170354
 10
-179.315423722
 20
176.3902175774
 10
-175.9019113193
 20
178.9039919238
 10
-172.171411783
 20
181.3672100835
 10
-168.1306477256
 20
183.7754331707
 10
-163.7869008768
 20
186.1243214048
 10
-159.1479989623
 20
188.4096419303
 10
-154.2223015966
 20
190.6272764452
 10
-149.0186852196
 20
192.7732286222
 10
-143.5465270994
 20
194.8436313104
 10
-137.8156884351
 20
196.8347535044
 10
-131.8364965851
 20
198.7430070672
 10
-125.6197264574
 20
200.564953197
 10
-119.1765810919
 20
202.2973086237
 10
-112.518671472
 20
203.9369515257
 10
-105.657995601
 20
205.4809271558
 10
-98.6069168804
 20
206.9264531654
 10
-91.3781418306
 20
208.270924619
 10
-83.984697193
 20
209.5119186882
 10
-76.4399064544
 20
210.6471990178
 10
-68.7573658378
 20
211.6747197558
 10
-60.9509198006
 20
212.5926292405
 10
-53.0346360862
 20
213.3992733369
 10
-45.022780373
 20
214.0931984178
 10
-36.9297905663
 20
214.6731539834
 10
-28.770250781
 20
215.1380949145
 10
-20.5588650592
 20
215.4871833562
 10
-12.3104308729
 20
215.7197902274
 10
-4.0398124582
 20
215.8354963548
 10
4.2380859717
 20
215.8340932283
 10
12.5083470842
 20
215.7155833762
 10
20.7560673098
 20
215.4801803615
 10
28.9663836991
 20
215.1283083962
 10
37.1245007072
 20
214.6606015774
 10
45.2157168558
 20
214.0779027444
 10
53.2254512264
 20
213.3812619599
 10
61.1392697364
 20
212.5719346176
 10
68.9429111499
 20
211.6513791802
  0
LWPOLYLINE
  5
117
330
10E
100
AcDbEntity
  8
0
  6
Continuous
 62
     7
370
    25
100
AcDbPolyline
 90
       40
 70
   128
 43
0.0
 10
54.926899023
 20
-0.9449140888
 10
54.8265932267
 20
-1.4546735086
 10
54.2976497212
 20
-2.9205257274
 10
53.4165651215
 20
-4.3674372162
 10
52.1890535995
 20
-5.7860241987
 10
50.6230760382
 20
-7.167086594
 10
48.7287884031
 20
-8.5016676825
 10
46.5184758765
 20
-9.7811121937
 10
44.0064731833
 20
-10.997122439
 10
41.2090716247
 20
-12.1418121254
 10
38.1444134235
 20
-13.2077575009
 10
34.8323740639
 20
-14.1880455009
 10
31.2944333923
 20
-15.0763185813
 10
27.5535363115
 20
-15.8668159505
 10
23.6339439745
 20
-16.5544109296
 10
19.5610764418
 20
-17.1346442014
 10
15.3613478222
 20
-17.6037527305
 10
11.0619949672
 20
-17.958694168
 10
6.6909008301
 20
-18.1971665824
 10
2.2764136336
 20
-18.3176233888
 10
-2.1528369788
 20
-18.3192833785
 10
-6.5681256174
 20
-18.2021357857
 10
-10.9408174409
 20
-17.9669403577
 10
-15.242553865
 20
-17.6152224269
 10
-19.4454364782
 20
-17.1492630192
 10
-23.522207974
 20
-16.5720840601
 10
-27.4464289249
 20
-15.8874287766
 10
-31.1926492521
 20
-15.099737421
 10
-34.7365732794
 20
-14.214118474
 10
-38.0552172994
 20
-13.2363155143
 10
-41.1270586322
 20
-12.1726699693
 10
-43.9321752081
 20
-11.0300799885
 10
-46.4523747695
 20
-9.8159557063
 10
-48.6713128554
 20
-8.5381711848
 10
-50.5745988006
 20
-7.2050133467
 10
-52.1498890656
 20
-5.8251282323
 10
-53.3869672884
 20
-4.407464926
 10
-54.2778105421
 20
-2.9612175183
 10
-54.8166413663
 20
-1.4957654788
 10
-54.9238156682
 20
-0.9646226923
  0
LWPOLYLINE
  5
118
330
10E
100
AcDbEntity
  8
0
  6
Continuous
 62
    60
370
    25
100
AcDbPolyline
 90
       31
 70
   128
 43
0.0
 10
61.4143368692
 20
186.1556199233
 10
68.6939684872
 20
185.1752436415
 10
75.8332622639
 20
184.0862196263
 10
82.8176330309
 20
182.8907726914
 10
89.6328121191
 20
181.5913450664
 10
96.2648765082
 20
180.1905914075
 10
102.7002772705
 20
178.6913733742
 10
108.9258672511
 20
177.0967537829
 10
114.9289279263
 20
175.4099903502
 10
120.6971953873
 20
173.634529037
 10
126.218885394
 20
171.7739970092
 10
131.4827174502
 20
169.8321952269
 10
136.4779378486
 20
167.8130906801
 10
141.1943416402
 20
165.7208082836
 10
145.6222934822
 20
163.5596224504
 10
149.7527473229
 20
161.3339483594
 10
153.5772648816
 20
159.0483329352
 10
157.0880328881
 20
156.7074455592
 10
160.2778790446
 20
154.3160685301
 10
163.1402866781
 20
151.8790872942
 10
165.6694080539
 20
149.4014804644
 10
167.8600763219
 20
146.8883096496
 10
169.7078160724
 20
144.3447091138
 10
171.2088524789
 20
141.7758752871
 10
172.3601190101
 20
139.1870561498
 10
173.1592636944
 20
136.5835405111
 10
173.604653925
 20
133.9706472043
 10
173.6953797952
 20
131.3537142205
 10
173.4312559572
 20
128.7380878041
 10
172.8128220009
 20
126.1291115298
 10
172.1583635383
 20
124.2813409896
  0
LWPOLYLINE
  5
119
330
10E
100
AcDbEntity
  8
0
  6
Continuous
 62
    60
370
    25
100
AcDbPolyline
 90
       47
 70
   128
 43
0.0
 10
-172.1613198143
 20
124.2886773077
 10
-172.8038255274
 20
126.0997281081
 10
-173.4262519529
 20
128.7085988877
 10
-173.6943784829
 20
131.3241800536
 10
-173.6076573504
 20
133.9411281234
 10
-173.1662657216
 20
136.5540968222
 10
-172.3711053344
 20
139.1577480046
 10
-171.2238006559
 20
141.7467625603
 10
-169.7266955638
 20
144.3158512812
 10
-167.882848558
 20
146.859765666
 10
-165.6960265123
 20
149.3733086435
 10
-163.1706969788
 20
151.8513451894
 10
-160.3120190611
 20
154.2888128171
 10
-157.1258328743
 20
156.6807319198
 10
-153.6186476143
 20
159.0222159438
 10
-149.7976282596
 20
161.3084813715
 10
-145.6705809337
 20
163.5348574936
 10
-141.2459369579
 20
165.6967959513
 10
-136.5327356263
 20
167.7898800281
 10
-131.5406057392
 20
169.8098336733
 10
-126.2797459318
 20
171.7525302372
 10
-120.7609038394
 20
173.6140009022
 10
-114.99535414
 20
175.3904427902
 10
-108.9948755213
 20
177.0782267324
 10
-102.7717266173
 20
178.6739046829
 10
-96.3386209647
 20
180.1742167629
 10
-89.7087010297
 20
181.5760979209
 10
-82.8955113588
 20
182.8766841941
 10
-75.9129709081
 20
184.0733185592
 10
-68.7753446076
 20
185.1635563607
 10
-61.497214219
 20
186.1451703054
 10
-54.0934485455
 20
187.016155012
 10
-46.5791730561
 20
187.7747311089
 10
-38.9697389852
 20
188.4193488685
 10
-31.2806919706
 20
188.9486913737
 10
-23.5277402946
 20
189.361677208
 10
-15.7267227933
 20
189.657462665
 10
-7.8935764985
 20
189.8354434721
 10
-0.0443040792
 20
189.8952560246
 10
7.8050588507
 20
189.836778129
 10
15.6384764927
 20
189.6601292521
 10
23.4399456233
 20
189.3656702775
 10
31.1935282881
 20
188.9540027682
 10
38.8833843619
 20
188.425967737
 10
46.4938039096
 20
187.7826439295
 10
54.0092392799
 20
187.0253456193
 10
61.4143368692
 20
186.1556199233
  0
LWPOLYLINE
  5
11A
330
10E
100
AcDbEntity
  8
0
  6
Continuous
 62
    60
370
    25
100
AcDbPolyline
 90
       28
 70
   128
 43
0.0
 10
48.1599949964
 20
-2.865865151
 10
46.5184758765
 20
-3.7925065242
 10
44.0064731833
 20
-5.0085167695
 10
41.2090716247
 20
-6.1532064558
 10
38.1444134235
 20
-7.2191518314
 10
34.8323740639
 20
-8.1994398313
 10
31.2944333923
 20
-9.0877129117
 10
27.5535363115
 20
-9.8782102809
 10
23.6339439745
 20
-10.56580526
 10
19.5610764418
 20
-11.1460385319
 10
15.3613478222
 20
-11.6151470609
 10
11.0619949672
 20
-11.9700884984
 10
6.6909008301
 20
-12.2085609129
 10
2.2764136336
 20
-12.3290177193
 10
-2.1528369788
 20
-12.3306777089
 10
-6.5681256174
 20
-12.2135301162
 10
-10.9408174409
 20
-11.9783346881
 10
-15.242553865
 20
-11.6266167573
 10
-19.4454364782
 20
-11.1606573496
 10
-23.522207974
 20
-10.5834783905
 10
-27.4464289249
 20
-9.8988231071
 10
-31.1926492521
 20
-9.1111317515
 10
-34.7365732794
 20
-8.2255128045
 10
-38.0552172994
 20
-7.2477098447
 10
-41.1270586322
 20
-6.1840642997
 10
-43.9321752081
 20
-5.0414743189
 10
-46.4523747695
 20
-3.8273500368
 10
-48.1576544204
 20
-2.8672795073
  0
ARC
  5
11B
330
10E
100
AcDbEntity
  8
0
  6
Continuous
 62
     7
370
    25
100
AcDbCircle
 10
0.0148796381
 20
150.659913498
 30
0.0
 40
159.7236089947525
100
AcDbArc
 50
258.1912248004
 51
281.6485837149
  0
VIEWPORT
  5
12C
330
10E
100
AcDbEntity
  8
0
100
AcDbViewport
 10
0.0
 20
0.0
 30
0.0
 40
205.6
 41
156.0
 68
     1
 69
     1
 12
0.0
 22
0.0
 13
0.0
 23
0.0
 14
10.0
 24
10.0
 15
10.0
 25
10.0
 16
0.0
 26
0.0
 36
1.0
 17
0.0
 27
0.0
 37
0.0
 42
50.0
 43
0.0
 44
0.0
 45
397.8
 50
0.0
 51
0.0
 72
   100
 90
   557152
  1

281
     0
 71
     1
 74
     0
110
0.0
120
0.0
130
0.0
111
1.0
121
0.0
131
0.0
112
0.0
122
1.0
132
0.0
 79
     0
146
0.0
170
     0
 61
     5
348
2F
292
     1
282
     1
141
0.0
142
0.0
 63
   256
361
12D
  0
ENDBLK
  5
111
330
10E
100
AcDbEntity
  8
0
100
AcDbBlockEnd
  0
ENDSEC
  0
SECTION
  2
ENTITIES
  0
CIRCLE
  5
73
330
1F
100
AcDbEntity
  8
0
  6
Continuous
 62
     7
370
    25
100
AcDbCircle
 10
0.0
 20
0.0
 30
0.0
 40
173.7059762889335
  0
CIRCLE
  5
74
330
1F
100
AcDbEntity
  8
0
  6
Continuous
 62
     7
370
    25
100
AcDbCircle
 10
0.0
 20
0.0
 30
0.0
 40
194.9999999999997
  0
CIRCLE
  5
75
330
1F
100
AcDbEntity
  8
0
  6
Continuous
 62
     7
370
    25
100
AcDbCircle
 10
0.0
 20
0.0
 30
0.0
 40
36.10928951853634
  0
CIRCLE
  5
76
330
1F
100
AcDbEntity
  8
0
  6
Continuous
 62
     7
370
    25
100
AcDbCircle
 10
0.0
 20
0.0
 30
0.0
 40
22.99999999999999
  0
LINE
  5
81
330
1B
100
AcDbEntity
 67
     1
  8
0
  6
Continuous
 62
     7
370
    25
100
AcDbLine
 10
55.0
 20
0.0
 30
0.0
 11
55.0
 21
6.351875518
 31
0.0
  0
LINE
  5
82
330
1B
100
AcDbEntity
 67
     1
  8
0
  6
Continuous
 62
     7
370
    25
100
AcDbLine
 10
-55.0
 20
6.351875518
 30
0.0
 11
-55.0
 21
0.0
 31
0.0
  0
LINE
  5
83
330
1B
100
AcDbEntity
 67
     1
  8
0
  6
Continuous
 62
     7
370
    25
100
AcDbLine
 10
195.0
 20
160.0
 30
0.0
 11
-195.0
 21
160.0
 31
0.0
  0
LINE
  5
84
330
1B
100
AcDbEntity
 67
     1
  8
0
  6
Continuous
 62
     7
370
    25
100
AcDbLine
 10
55.0
 20
0.0
 30
0.0
 11
-55.0
 21
0.0
 31
0.0
  0
LINE
  5
85
330
1B
100
AcDbEntity
 67
     1
  8
0
  6
Continuous
 62
    60
370
    25
100
AcDbLine
 10
58.4329340544
 20
11.0999597972
 30
0.0
 11
-58.4329340544
 21
11.0999597972
 31
0.0
  0
LINE
  5
86
330
1B
100
AcDbEntity
 67
     1
  8
0
  6
Continuous
 62
    60
370
    25
100
AcDbLine
 10
55.0
 20
6.351875518
 30
0.0
 11
-55.0
 21
6.351875518
 31
0.0
  0
ARC
  5
87
330
1B
100
AcDbEntity
 67
     1
  8
0
  6
Continuous
 62
     7
370
    25
100
AcDbCircle
 10
6.4483851758
 20
207.6851594975
 30
0.0
 40
207.0152804173015
100
AcDbArc
 50
193.3174481008
 51
251.7349539812
  0
ARC
  5
88
330
1B
100
AcDbEntity
 67
     1
  8
0
  6
Continuous
 62
     7
370
    25
100
AcDbCircle
 10
-6.4483851758
 20
207.6851594975
 30
0.0
 40
207.0152804173015
100
AcDbArc
 50
288.2650460188
 51
346.6825518992
  0
ARC
  5
89
330
1B
100
AcDbEntity
 67
     1
  8
0
  6
Continuous
 62
     7
370
    25
100
AcDbCircle
 10
60.0
 20
6.351875518
 30
0.0
 40
4.999999999999986
100
AcDbArc
 50
108.2650460188
 51
180.0
  0
ARC
  5
8A
330
1B
100
AcDbEntity
 67
     1
  8
0
  6
Continuous
 62
     7
370
    25
100
AcDbCircle
 10
-60.0
 20
6.351875518
 30
0.0
 40
4.999999999999972
100
AcDbArc
 50
0.0
 51
71.7349539812
  0
VIEWPORT
  5
11C
330
1B
100
AcDbEntity
 67
     1
  8
0
100
AcDbViewport
 10
0.0
 20
0.0
 30
0.0
 40
205.6
 41
156.0
 68
     1
 69
     1
 12
0.0
 22
0.0
 13
0.0
 23
0.0
 14
10.0
 24
10.0
 15
10.0
 25
10.0
 16
0.0
 26
0.0
 36
1.0
 17
0.0
 27
0.0
 37
0.0
 42
50.0
 43
0.0
 44
0.0
 45
397.8
 50
0.0
 51
0.0
 72
   100
 90
   557152
  1

281
     0
 71
     1
 74
     0
110
0.0
120
0.0
130
0.0
111
1.0
121
0.0
131
0.0
112
0.0
122
1.0
132
0.0
 79
     0
146
0.0
170
     0
 61
     5
348
2F
292
     1
282
     1
141
0.0
142
0.0
 63
   256
361
11D
  0
ENDSEC
  0
SECTION
  2
OBJECTS
  0
DICTIONARY
  5
C
330
0
100
AcDbDictionary
281
     1
  3
ACAD_DETAILVIEWSTYLE
350
135
  3
ACAD_GROUP
350
D
  3
ACAD_LAYOUT
350
1A
  3
ACAD_MATERIAL
350
43
  3
ACAD_MLEADERSTYLE
350
6B
  3
ACAD_MLINESTYLE
350
17
  3
ACAD_PLOTSETTINGS
350
19
  3
ACAD_PLOTSTYLENAME
350
E
  3
ACAD_SCALELIST
350
47
  3
ACAD_SECTIONVIEWSTYLE
350
136
  3
ACAD_TABLESTYLE
350
69
  3
ACAD_VISUALSTYLE
350
2A
  3
ACDB_RECOMPOSE_DATA
350
132
  3
AcDbVariableDictionary
350
12E
  0
SUN
  5
6D
330
29
100
AcDbSun
 90
        1
290
     0
 63
     7
421
 16777215
 40
1.0
291
     1
 91
  2455826
 92
 54000000
292
     0
 70
     2
 71
   256
280
     1
  0
SUN
  5
11F
330
11E
100
AcDbSun
 90
        1
290
     0
 63
     7
421
 16777215
 40
1.0
291
     1
 91
  2455826
 92
 54000000
292
     0
 70
     2
 71
   256
280
     1
  0
SUN
  5
121
330
120
100
AcDbSun
 90
        1
290
     0
 63
     7
421
 16777215
 40
1.0
291
     1
 91
  2455826
 92
 54000000
292
     0
 70
     2
 71
   256
280
     1
  0
SUN
  5
123
330
122
100
AcDbSun
 90
        1
290
     0
 63
     7
421
 16777215
 40
1.0
291
     1
 91
  2455826
 92
 54000000
292
     0
 70
     2
 71
   256
280
     1
  0
SUN
  5
125
330
124
100
AcDbSun
 90
        1
290
     0
 63
     7
421
 16777215
 40
1.0
291
     1
 91
  2455826
 92
 54000000
292
     0
 70
     2
 71
   256
280
     1
  0
SUN
  5
127
330
126
100
AcDbSun
 90
        1
290
     0
 63
     7
421
 16777215
 40
1.0
291
     1
 91
  2455826
 92
 54000000
292
     0
 70
     2
 71
   256
280
     1
  0
SUN
  5
129
330
128
100
AcDbSun
 90
        1
290
     0
 63
     7
421
 16777215
 40
1.0
291
     1
 91
  2455826
 92
 54000000
292
     0
 70
     2
 71
   256
280
     1
  0
SUN
  5
12B
330
12A
100
AcDbSun
 90
        1
290
     0
 63
     7
421
 16777215
 40
1.0
291
     1
 91
  2455826
 92
 54000000
292
     0
 70
     2
 71
   256
280
     1
  0
SUN
  5
12D
330
12C
100
AcDbSun
 90
        1
290
     0
 63
     7
421
 16777215
 40
1.0
291
     1
 91
  2455826
 92
 54000000
292
     0
 70
     2
 71
   256
280
     1
  0
SUN
  5
11D
330
11C
100
AcDbSun
 90
        1
290
     0
 63
     7
421
 16777215
 40
1.0
291
     1
 91
  2455826
 92
 54000000
292
     0
 70
     2
 71
   256
280
     1
  0
DICTIONARY
  5
135
102
{ACAD_REACTORS
330
C
102
}
330
C
100
AcDbDictionary
281
     1
  0
DICTIONARY
  5
D
102
{ACAD_REACTORS
330
C
102
}
330
C
100
AcDbDictionary
281
     1
  0
DICTIONARY
  5
1A
102
{ACAD_REACTORS
330
C
102
}
330
C
100
AcDbDictionary
281
     1
  3
_Dimetrisch
350
10F
  3
_Isometrisch
350
F4
  3
_Links
350
26
  3
_Normal auf
350
A0
  3
_Rechts
350
D4
  3
_Rückseite
350
B8
  3
_Trimetrisch
350
104
  3
_Unten
350
EC
  3
_Vorderseite
350
1E
  3
Model
350
22
  0
DICTIONARY
  5
43
102
{ACAD_REACTORS
330
C
102
}
330
C
100
AcDbDictionary
281
     1
  3
ByBlock
350
45
  3
ByLayer
350
44
  3
Global
350
46
  0
DICTIONARY
  5
6B
102
{ACAD_REACTORS
330
C
102
}
330
C
100
AcDbDictionary
281
     1
  3
Standard
350
6C
  0
DICTIONARY
  5
17
102
{ACAD_REACTORS
330
C
102
}
330
C
100
AcDbDictionary
281
     1
  3
Standard
350
18
  0
DICTIONARY
  5
19
102
{ACAD_REACTORS
330
C
102
}
330
C
100
AcDbDictionary
281
     1
  0
ACDBDICTIONARYWDFLT
  5
E
102
{ACAD_REACTORS
330
C
102
}
330
C
100
AcDbDictionary
281
     1
  3
Normal
350
F
100
AcDbDictionaryWithDefault
340
F
  0
DICTIONARY
  5
47
102
{ACAD_REACTORS
330
C
102
}
330
C
100
AcDbDictionary
281
     1
  3
A0
350
48
  3
A1
350
49
  3
A2
350
4A
  3
A3
350
4B
  3
A4
350
4C
  3
A5
350
4D
  3
A6
350
4E
  3
A7
350
4F
  3
A8
350
50
  3
A9
350
51
  3
B0
350
52
  3
B1
350
53
  3
B2
350
54
  3
B3
350
55
  3
B4
350
56
  3
B5
350
57
  3
B6
350
58
  3
B7
350
59
  3
B8
350
5A
  3
B9
350
5B
  3
C0
350
5C
  3
C1
350
5D
  3
C2
350
5E
  3
C3
350
5F
  3
C4
350
60
  3
C5
350
61
  3
C6
350
62
  3
C7
350
63
  3
C8
350
64
  3
C9
350
65
  3
D0
350
66
  3
D1
350
67
  3
D2
350
68
  0
DICTIONARY
  5
136
102
{ACAD_REACTORS
330
C
102
}
330
C
100
AcDbDictionary
281
     1
  0
DICTIONARY
  5
69
102
{ACAD_REACTORS
330
C
102
}
330
C
100
AcDbDictionary
281
     1
  3
Standard
350
6A
  0
DICTIONARY
  5
2A
102
{ACAD_REACTORS
330
C
102
}
330
C
100
AcDbDictionary
281
     1
  3
2dWireframe
350
2F
  3
Basic
350
32
  3
Brighten
350
36
  3
ColorChange
350
3A
  3
Conceptual
350
34
  3
Dim
350
35
  3
EdgeColorOff
350
3D
  3
Facepattern
350
39
  3
Flat
350
2B
  3
FlatWithEdges
350
2C
  3
Gouraud
350
2D
  3
GouraudWithEdges
350
2E
  3
Hidden
350
31
  3
JitterOff
350
3B
  3
Linepattern
350
38
  3
OverhangOff
350
3C
  3
Realistic
350
33
  3
Shaded
350
42
  3
Shaded with edges
350
41
  3
Shades of Gray
350
3E
  3
Sketchy
350
3F
  3
Thicken
350
37
  3
Wireframe
350
30
  3
X-Ray
350
40
  0
XRECORD
  5
132
102
{ACAD_REACTORS
330
C
102
}
330
C
100
AcDbXrecord
280
     1
 90
        1
330
6A
  0
DICTIONARY
  5
12E
102
{ACAD_REACTORS
330
C
102
}
330
C
100
AcDbDictionary
281
     1
  3
CANNOSCALE
350
12F
  3
CMLEADERSTYLE
350
134
  3
CTABLESTYLE
350
133
  0
LAYOUT
  5
10F
102
{ACAD_REACTORS
330
1A
102
}
330
1A
100
AcDbPlotSettings
  1

  2
none_device
  4
ISO_A4_(210.00_x_297.00_MM)
  6

 40
7.5
 41
20.0
 42
7.5
 43
20.0
 44
210.0
 45
297.0
 46
0.0
 47
0.0
 48
0.0
 49
0.0
140
0.0
141
0.0
142
1.0
143
1.5175097276
 70
   688
 72
     1
 73
     1
 74
     1
  7

 75
     0
 76
     0
 77
     2
 78
   300
147
0.658974359
148
195.0
149
0.0
100
AcDbLayout
  1
_Dimetrisch
 70
     1
 71
     9
 10
0.0
 20
0.0
 11
0.0
 21
0.0
 12
0.0
 22
0.0
 32
0.0
 14
0.0
 24
0.0
 34
0.0
 15
0.0
 25
0.0
 35
0.0
146
0.0
 13
0.0
 23
0.0
 33
0.0
 16
1.0
 26
0.0
 36
0.0
 17
0.0
 27
1.0
 37
0.0
 76
     0
330
10E
331
12C
  0
LAYOUT
  5
F4
102
{ACAD_REACTORS
330
1A
102
}
330
1A
100
AcDbPlotSettings
  1

  2
none_device
  4
ISO_A4_(210.00_x_297.00_MM)
  6

 40
7.5
 41
20.0
 42
7.5
 43
20.0
 44
210.0
 45
297.0
 46
0.0
 47
0.0
 48
0.0
 49
0.0
140
0.0
141
0.0
142
1.0
143
1.5175097276
 70
   688
 72
     1
 73
     1
 74
     1
  7

 75
     0
 76
     0
 77
     2
 78
   300
147
0.658974359
148
195.0
149
0.0
100
AcDbLayout
  1
_Isometrisch
 70
     1
 71
     7
 10
0.0
 20
0.0
 11
0.0
 21
0.0
 12
0.0
 22
0.0
 32
0.0
 14
0.0
 24
0.0
 34
0.0
 15
0.0
 25
0.0
 35
0.0
146
0.0
 13
0.0
 23
0.0
 33
0.0
 16
1.0
 26
0.0
 36
0.0
 17
0.0
 27
1.0
 37
0.0
 76
     0
330
F3
331
128
  0
LAYOUT
  5
26
102
{ACAD_REACTORS
330
1A
102
}
330
1A
100
AcDbPlotSettings
  1

  2
none_device
  4
ISO_A4_(210.00_x_297.00_MM)
  6

 40
7.5
 41
20.0
 42
7.5
 43
20.0
 44
210.0
 45
297.0
 46
0.0
 47
0.0
 48
0.0
 49
0.0
140
0.0
141
0.0
142
1.0
143
1.5175097276
 70
   688
 72
     1
 73
     1
 74
     1
  7

 75
     0
 76
     0
 77
     2
 78
   300
147
0.658974359
148
195.0
149
0.0
100
AcDbLayout
  1
_Links
 70
     1
 71
     2
 10
0.0
 20
0.0
 11
0.0
 21
0.0
 12
0.0
 22
0.0
 32
0.0
 14
0.0
 24
0.0
 34
0.0
 15
0.0
 25
0.0
 35
0.0
146
0.0
 13
0.0
 23
0.0
 33
0.0
 16
1.0
 26
0.0
 36
0.0
 17
0.0
 27
1.0
 37
0.0
 76
     0
330
23
331
11E
  0
LAYOUT
  5
A0
102
{ACAD_REACTORS
330
1A
102
}
330
1A
100
AcDbPlotSettings
  1

  2
none_device
  4
ISO_A4_(210.00_x_297.00_MM)
  6

 40
7.5
 41
20.0
 42
7.5
 43
20.0
 44
210.0
 45
297.0
 46
0.0
 47
0.0
 48
0.0
 49
0.0
140
0.0
141
0.0
142
1.0
143
1.5175097276
 70
   688
 72
     1
 73
     1
 74
     1
  7

 75
     0
 76
     0
 77
     2
 78
   300
147
0.658974359
148
195.0
149
0.0
100
AcDbLayout
  1
_Normal auf
 70
     1
 71
     3
 10
0.0
 20
0.0
 11
0.0
 21
0.0
 12
0.0
 22
0.0
 32
0.0
 14
0.0
 24
0.0
 34
0.0
 15
0.0
 25
0.0
 35
0.0
146
0.0
 13
0.0
 23
0.0
 33
0.0
 16
1.0
 26
0.0
 36
0.0
 17
0.0
 27
1.0
 37
0.0
 76
     0
330
9F
331
120
  0
LAYOUT
  5
D4
102
{ACAD_REACTORS
330
1A
102
}
330
1A
100
AcDbPlotSettings
  1

  2
none_device
  4
ISO_A4_(210.00_x_297.00_MM)
  6

 40
7.5
 41
20.0
 42
7.5
 43
20.0
 44
210.0
 45
297.0
 46
0.0
 47
0.0
 48
0.0
 49
0.0
140
0.0
141
0.0
142
1.0
143
1.5175097276
 70
   688
 72
     1
 73
     1
 74
     1
  7

 75
     0
 76
     0
 77
     2
 78
   300
147
0.658974359
148
195.0
149
0.0
100
AcDbLayout
  1
_Rechts
 70
     1
 71
     5
 10
0.0
 20
0.0
 11
0.0
 21
0.0
 12
0.0
 22
0.0
 32
0.0
 14
0.0
 24
0.0
 34
0.0
 15
0.0
 25
0.0
 35
0.0
146
0.0
 13
0.0
 23
0.0
 33
0.0
 16
1.0
 26
0.0
 36
0.0
 17
0.0
 27
1.0
 37
0.0
 76
     0
330
D3
331
124
  0
LAYOUT
  5
B8
102
{ACAD_REACTORS
330
1A
102
}
330
1A
100
AcDbPlotSettings
  1

  2
none_device
  4
ISO_A4_(210.00_x_297.00_MM)
  6

 40
7.5
 41
20.0
 42
7.5
 43
20.0
 44
210.0
 45
297.0
 46
0.0
 47
0.0
 48
0.0
 49
0.0
140
0.0
141
0.0
142
1.0
143
1.5175097276
 70
   688
 72
     1
 73
     1
 74
     1
  7

 75
     0
 76
     0
 77
     2
 78
   300
147
0.658974359
148
195.0
149
0.0
100
AcDbLayout
  1
_Rückseite
 70
     1
 71
     4
 10
0.0
 20
0.0
 11
0.0
 21
0.0
 12
0.0
 22
0.0
 32
0.0
 14
0.0
 24
0.0
 34
0.0
 15
0.0
 25
0.0
 35
0.0
146
0.0
 13
0.0
 23
0.0
 33
0.0
 16
1.0
 26
0.0
 36
0.0
 17
0.0
 27
1.0
 37
0.0
 76
     0
330
B7
331
122
  0
LAYOUT
  5
104
102
{ACAD_REACTORS
330
1A
102
}
330
1A
100
AcDbPlotSettings
  1

  2
none_device
  4
ISO_A4_(210.00_x_297.00_MM)
  6

 40
7.5
 41
20.0
 42
7.5
 43
20.0
 44
210.0
 45
297.0
 46
0.0
 47
0.0
 48
0.0
 49
0.0
140
0.0
141
0.0
142
1.0
143
1.5175097276
 70
   688
 72
     1
 73
     1
 74
     1
  7

 75
     0
 76
     0
 77
     2
 78
   300
147
0.658974359
148
195.0
149
0.0
100
AcDbLayout
  1
_Trimetrisch
 70
     1
 71
     8
 10
0.0
 20
0.0
 11
0.0
 21
0.0
 12
0.0
 22
0.0
 32
0.0
 14
0.0
 24
0.0
 34
0.0
 15
0.0
 25
0.0
 35
0.0
146
0.0
 13
0.0
 23
0.0
 33
0.0
 16
1.0
 26
0.0
 36
0.0
 17
0.0
 27
1.0
 37
0.0
 76
     0
330
103
331
12A
  0
LAYOUT
  5
EC
102
{ACAD_REACTORS
330
1A
102
}
330
1A
100
AcDbPlotSettings
  1

  2
none_device
  4
ISO_A4_(210.00_x_297.00_MM)
  6

 40
7.5
 41
20.0
 42
7.5
 43
20.0
 44
210.0
 45
297.0
 46
0.0
 47
0.0
 48
0.0
 49
0.0
140
0.0
141
0.0
142
1.0
143
1.5175097276
 70
   688
 72
     1
 73
     1
 74
     1
  7

 75
     0
 76
     0
 77
     2
 78
   300
147
0.658974359
148
195.0
149
0.0
100
AcDbLayout
  1
_Unten
 70
     1
 71
     6
 10
0.0
 20
0.0
 11
0.0
 21
0.0
 12
0.0
 22
0.0
 32
0.0
 14
0.0
 24
0.0
 34
0.0
 15
0.0
 25
0.0
 35
0.0
146
0.0
 13
0.0
 23
0.0
 33
0.0
 16
1.0
 26
0.0
 36
0.0
 17
0.0
 27
1.0
 37
0.0
 76
     0
330
EB
331
126
  0
LAYOUT
  5
1E
102
{ACAD_REACTORS
330
1A
102
}
330
1A
100
AcDbPlotSettings
  1

  2
none_device
  4
ISO_A4_(210.00_x_297.00_MM)
  6

 40
7.5
 41
20.0
 42
7.5
 43
20.0
 44
210.0
 45
297.0
 46
0.0
 47
0.0
 48
0.0
 49
0.0
140
0.0
141
0.0
142
1.0
143
1.5175097276
 70
   688
 72
     1
 73
     1
 74
     1
  7

 75
     0
 76
     0
 77
     2
 78
   300
147
0.658974359
148
195.0
149
0.0
100
AcDbLayout
  1
_Vorderseite
 70
     1
 71
     1
 10
-225.3501945526
 20
-11.3813229572
 11
225.3501945525
 21
307.2957198444
 12
0.0
 22
0.0
 32
0.0
 14
-195.0
 24
0.0
 34
0.0
 15
195.0
 25
160.0
 35
0.0
146
0.0
 13
0.0
 23
0.0
 33
0.0
 16
1.0
 26
0.0
 36
0.0
 17
0.0
 27
1.0
 37
0.0
 76
     0
330
1B
331
11C
  0
LAYOUT
  5
22
102
{ACAD_REACTORS
330
1A
102
}
330
1A
100
AcDbPlotSettings
  1

  2
none_device
  4
ANSI_A_(11.00_x_8.50_Inches)
  6

 40
6.35
 41
19.05
 42
6.35000508
 43
19.05000254
 44
279.4
 45
215.9
 46
133.34999746
 47
88.89999873
 48
0.0
 49
0.0
140
0.0
141
0.0
142
0.0215769231
143
1.0
 70
  1696
 72
     0
 73
     0
 74
     0
  7

 75
     0
 76
     0
 77
     2
 78
   300
147
0.0179189148
148
-1300.4909072572
149
0.0
100
AcDbLayout
  1
Model
 70
     1
 71
     0
 10
0.0
 20
0.0
 11
420.0
 21
297.0
 12
0.0
 22
0.0
 32
0.0
 14
-195.0
 24
-195.0
 34
0.0
 15
195.0
 25
195.0
 35
0.0
146
0.0
 13
0.0
 23
0.0
 33
0.0
 16
1.0
 26
0.0
 36
0.0
 17
0.0
 27
1.0
 37
0.0
 76
     0
330
1F
331
29
  0
MATERIAL
  5
45
102
{ACAD_REACTORS
330
43
102
}
330
43
100
AcDbMaterial
  1
ByBlock
 72
     1
 94
      127
  0
MATERIAL
  5
44
102
{ACAD_REACTORS
330
43
102
}
330
43
100
AcDbMaterial
  1
ByLayer
 72
     1
 94
      127
  0
MATERIAL
  5
46
102
{ACAD_REACTORS
330
43
102
}
330
43
100
AcDbMaterial
  1
Global
 72
     1
 94
      127
  0
MLEADERSTYLE
  5
6C
102
{ACAD_REACTORS
330
6B
102
}
330
6B
100
AcDbMLeaderStyle
179
     2
170
     2
171
     1
172
     0
 90
        2
 40
0.0
 41
0.0
173
     1
 91
-1056964608
340
14
 92
       -2
290
     1
 42
2.0
291
     1
 43
8.0
  3
Standard
341
0
 44
4.0
300

342
11
174
     1
178
     6
175
     1
176
     0
 93
-1056964608
 45
4.0
292
     0
297
     0
 46
4.0
343
0
 94
-1056964608
 47
1.0
 49
1.0
140
1.0
293
     1
141
0.0
294
     1
177
     0
142
1.0
295
     0
296
     0
143
3.75
271
     0
272
     9
273
     9
298
     0
  0
MLINESTYLE
  5
18
102
{ACAD_REACTORS
330
17
102
}
330
17
100
AcDbMlineStyle
  2
Standard
 70
     0
  3

 62
   256
 51
90.0
 52
90.0
 71
     2
 49
0.5
 62
   256
  6
BYLAYER
 49
-0.5
 62
   256
  6
BYLAYER
  0
ACDBPLACEHOLDER
  5
F
102
{ACAD_REACTORS
330
E
102
}
330
E
  0
SCALE
  5
48
102
{ACAD_REACTORS
330
47
102
}
330
47
100
AcDbScale
 70
     0
300
1:1
140
1.0
141
1.0
290
     1
  0
SCALE
  5
49
102
{ACAD_REACTORS
330
47
102
}
330
47
100
AcDbScale
 70
     0
300
1:2
140
1.0
141
2.0
290
     0
  0
SCALE
  5
4A
102
{ACAD_REACTORS
330
47
102
}
330
47
100
AcDbScale
 70
     0
300
1:4
140
1.0
141
4.0
290
     0
  0
SCALE
  5
4B
102
{ACAD_REACTORS
330
47
102
}
330
47
100
AcDbScale
 70
     0
300
1:5
140
1.0
141
5.0
290
     0
  0
SCALE
  5
4C
102
{ACAD_REACTORS
330
47
102
}
330
47
100
AcDbScale
 70
     0
300
1:8
140
1.0
141
8.0
290
     0
  0
SCALE
  5
4D
102
{ACAD_REACTORS
330
47
102
}
330
47
100
AcDbScale
 70
     0
300
1:10
140
1.0
141
10.0
290
     0
  0
SCALE
  5
4E
102
{ACAD_REACTORS
330
47
102
}
330
47
100
AcDbScale
 70
     0
300
1:16
140
1.0
141
16.0
290
     0
  0
SCALE
  5
4F
102
{ACAD_REACTORS
330
47
102
}
330
47
100
AcDbScale
 70
     0
300
1:20
140
1.0
141
20.0
290
     0
  0
SCALE
  5
50
102
{ACAD_REACTORS
330
47
102
}
330
47
100
AcDbScale
 70
     0
300
1:30
140
1.0
141
30.0
290
     0
  0
SCALE
  5
51
102
{ACAD_REACTORS
330
47
102
}
330
47
100
AcDbScale
 70
     0
300
1:40
140
1.0
141
40.0
290
     0
  0
SCALE
  5
52
102
{ACAD_REACTORS
330
47
102
}
330
47
100
AcDbScale
 70
     0
300
1:50
140
1.0
141
50.0
290
     0
  0
SCALE
  5
53
102
{ACAD_REACTORS
330
47
102
}
330
47
100
AcDbScale
 70
     0
300
1:100
140
1.0
141
100.0
290
     0
  0
SCALE
  5
54
102
{ACAD_REACTORS
330
47
102
}
330
47
100
AcDbScale
 70
     0
300
2:1
140
2.0
141
1.0
290
     0
  0
SCALE
  5
55
102
{ACAD_REACTORS
330
47
102
}
330
47
100
AcDbScale
 70
     0
300
4:1
140
4.0
141
1.0
290
     0
  0
SCALE
  5
56
102
{ACAD_REACTORS
330
47
102
}
330
47
100
AcDbScale
 70
     0
300
8:1
140
8.0
141
1.0
290
     0
  0
SCALE
  5
57
102
{ACAD_REACTORS
330
47
102
}
330
47
100
AcDbScale
 70
     0
300
10:1
140
10.0
141
1.0
290
     0
  0
SCALE
  5
58
102
{ACAD_REACTORS
330
47
102
}
330
47
100
AcDbScale
 70
     0
300
100:1
140
100.0
141
1.0
290
     0
  0
SCALE
  5
59
102
{ACAD_REACTORS
330
47
102
}
330
47
100
AcDbScale
 70
     0
300
1/128" = 1'-0"
140
0.0078125
141
12.0
290
     0
  0
SCALE
  5
5A
102
{ACAD_REACTORS
330
47
102
}
330
47
100
AcDbScale
 70
     0
300
1/64" = 1'-0"
140
0.015625
141
12.0
290
     0
  0
SCALE
  5
5B
102
{ACAD_REACTORS
330
47
102
}
330
47
100
AcDbScale
 70
     0
300
1/32" = 1'-0"
140
0.03125
141
12.0
290
     0
  0
SCALE
  5
5C
102
{ACAD_REACTORS
330
47
102
}
330
47
100
AcDbScale
 70
     0
300
1/16" = 1'-0"
140
0.0625
141
12.0
290
     0
  0
SCALE
  5
5D
102
{ACAD_REACTORS
330
47
102
}
330
47
100
AcDbScale
 70
     0
300
3/32" = 1'-0"
140
0.09375
141
12.0
290
     0
  0
SCALE
  5
5E
102
{ACAD_REACTORS
330
47
102
}
330
47
100
AcDbScale
 70
     0
300
1/8" = 1'-0"
140
0.125
141
12.0
290
     0
  0
SCALE
  5
5F
102
{ACAD_REACTORS
330
47
102
}
330
47
100
AcDbScale
 70
     0
300
3/16" = 1'-0"
140
0.1875
141
12.0
290
     0
  0
SCALE
  5
60
102
{ACAD_REACTORS
330
47
102
}
330
47
100
AcDbScale
 70
     0
300
1/4" = 1'-0"
140
0.25
141
12.0
290
     0
  0
SCALE
  5
61
102
{ACAD_REACTORS
330
47
102
}
330
47
100
AcDbScale
 70
     0
300
3/8" = 1'-0"
140
0.375
141
12.0
290
     0
  0
SCALE
  5
62
102
{ACAD_REACTORS
330
47
102
}
330
47
100
AcDbScale
 70
     0
300
1/2" = 1'-0"
140
0.5
141
12.0
290
     0
  0
SCALE
  5
63
102
{ACAD_REACTORS
330
47
102
}
330
47
100
AcDbScale
 70
     0
300
3/4" = 1'-0"
140
0.75
141
12.0
290
     0
  0
SCALE
  5
64
102
{ACAD_REACTORS
330
47
102
}
330
47
100
AcDbScale
 70
     0
300
1" = 1'-0"
140
1.0
141
12.0
290
     0
  0
SCALE
  5
65
102
{ACAD_REACTORS
330
47
102
}
330
47
100
AcDbScale
 70
     0
300
1-1/2" = 1'-0"
140
1.5
141
12.0
290
     0
  0
SCALE
  5
66
102
{ACAD_REACTORS
330
47
102
}
330
47
100
AcDbScale
 70
     0
300
3" = 1'-0"
140
3.0
141
12.0
290
     0
  0
SCALE
  5
67
102
{ACAD_REACTORS
330
47
102
}
330
47
100
AcDbScale
 70
     0
300
6" = 1'-0"
140
6.0
141
12.0
290
     0
  0
SCALE
  5
68
102
{ACAD_REACTORS
330
47
102
}
330
47
100
AcDbScale
 70
     0
300
1'-0" = 1'-0"
140
12.0
141
12.0
290
     0
  0
TABLESTYLE
  5
6A
102
{ACAD_REACTORS
330
69
102
}
102
{ACAD_XDICTIONARY
360
130
102
}
330
69
100
AcDbTableStyle
  3
Standard
 70
     0
 71
     0
 40
0.06
 41
0.06
280
     0
281
     0
  7
STANDARD
140
4.5
170
     2
 62
     0
 63
   257
283
     0
 90
        4
 91
        0
  1

274
    -2
284
     1
 64
     0
275
    -2
285
     1
 65
     0
276
    -2
286
     1
 66
     0
277
    -2
287
     1
 67
     0
278
    -2
288
     1
 68
     0
279
    -2
289
     1
 69
     0
  7
STANDARD
140
6.0
170
     5
 62
     0
 63
   257
283
     0
 90
        4
 91
        0
  1

274
    -2
284
     1
 64
     0
275
    -2
285
     1
 65
     0
276
    -2
286
     1
 66
     0
277
    -2
287
     1
 67
     0
278
    -2
288
     1
 68
     0
279
    -2
289
     1
 69
     0
  7
STANDARD
140
4.5
170
     5
 62
     0
 63
   257
283
     0
 90
        4
 91
        0
  1

274
    -2
284
     1
 64
     0
275
    -2
285
     1
 65
     0
276
    -2
286
     1
 66
     0
277
    -2
287
     1
 67
     0
278
    -2
288
     1
 68
     0
279
    -2
289
     1
 69
     0
  0
VISUALSTYLE
  5
2F
102
{ACAD_REACTORS
330
2A
102
}
330
2A
100
AcDbVisualStyle
  2
2dWireframe
 70
     4
177
     3
291
     0
 70
    58
 90
        0
176
     1
 90
        2
176
     1
 90
        0
176
     1
 90
        0
176
     1
 40
0.6
176
     1
 40
30.0
176
     1
 62
     7
420
 16777215
176
     1
 90
        1
176
     1
 90
        4
176
     1
 62
     7
176
     1
 62
   257
176
     1
 90
        1
176
     1
 90
        1
176
     1
 40
1.0
176
     1
 90
        0
176
     1
 62
   257
176
     1
 40
1.0
176
     1
 90
        1
176
     1
 90
        6
176
     1
 90
        2
176
     1
 62
     7
176
     1
 90
        5
176
     1
 90
        0
176
     1
 90
        0
176
     1
290
     0
176
     1
 90
        1
176
     1
 40
0.0
176
     1
 90
        0
176
     1
290
     1
176
     1
290
     1
176
     1
290
     0
176
     1
290
     0
176
     1
290
     0
176
     1
290
     0
176
     1
290
     0
176
     1
290
     0
176
     1
290
     0
176
     1
 90
       50
176
     1
 40
0.0
176
     1
 40
1.0
176
     1
 90
        0
176
     1
 62
    18
420
        0
176
     1
 90
       50
176
     1
 90
        3
176
     1
 62
     5
420
      255
176
     1
290
     0
176
     1
 90
       50
176
     1
 90
       50
176
     1
 90
       50
176
     1
290
     0
176
     1
 90
       50
176
     1
 62
   256
176
     0
 40
1.0
176
     0
 90
        2
176
     1
  1
strokes_ogs.tif
176
     1
290
     0
176
     1
 40
1.0
176
     1
 40
1.0
176
     1
  0
VISUALSTYLE
  5
32
102
{ACAD_REACTORS
330
2A
102
}
330
2A
100
AcDbVisualStyle
  2
Basic
 70
     7
177
     3
291
     1
 70
    58
 90
        1
176
     1
 90
        0
176
     1
 90
        1
176
     1
 90
        0
176
     1
 40
0.6
176
     1
 40
30.0
176
     1
 62
     7
420
 16777215
176
     1
 90
        0
176
     1
 90
        4
176
     1
 62
     7
176
     1
 62
   257
176
     1
 90
        1
176
     1
 90
        1
176
     1
 40
1.0
176
     1
 90
        8
176
     1
 62
     7
176
     1
 40
1.0
176
     1
 90
        1
176
     1
 90
        6
176
     1
 90
        2
176
     1
 62
     7
176
     1
 90
        5
176
     1
 90
        0
176
     1
 90
        0
176
     1
290
     0
176
     1
 90
        1
176
     1
 40
0.0
176
     1
 90
        0
176
     1
290
     0
176
     1
290
     1
176
     1
290
     1
176
     1
290
     0
176
     1
290
     0
176
     1
290
     0
176
     1
290
     0
176
     1
290
     0
176
     1
290
     0
176
     1
 90
       50
176
     1
 40
0.0
176
     1
 40
1.0
176
     1
 90
        0
176
     1
 62
    18
420
        0
176
     1
 90
       50
176
     1
 90
        3
176
     1
 62
     5
420
      255
176
     1
290
     0
176
     1
 90
       50
176
     1
 90
       50
176
     1
 90
       50
176
     1
290
     0
176
     1
 90
       50
176
     1
 62
   256
176
     0
 40
1.0
176
     0
 90
        2
176
     1
  1
strokes_ogs.tif
176
     1
290
     0
176
     1
 40
1.0
176
     1
 40
1.0
176
     1
  0
VISUALSTYLE
  5
36
102
{ACAD_REACTORS
330
2A
102
}
330
2A
100
AcDbVisualStyle
  2
Brighten
 70
    12
177
     3
291
     1
 70
    58
 90
        2
176
     1
 90
        2
176
     1
 90
        0
176
     1
 90
        0
176
     1
 40
0.6
176
     1
 40
30.0
176
     1
 62
     7
420
 16777215
176
     1
 90
        1
176
     1
 90
        4
176
     1
 62
     7
176
     1
 62
   257
176
     1
 90
        1
176
     1
 90
        1
176
     1
 40
1.0
176
     1
 90
        8
176
     1
 62
     7
176
     1
 40
1.0
176
     1
 90
        1
176
     1
 90
        6
176
     1
 90
        2
176
     1
 62
     7
176
     1
 90
        5
176
     1
 90
        0
176
     1
 90
        0
176
     1
290
     0
176
     1
 90
        1
176
     1
 40
50.0
176
     1
 90
        0
176
     1
290
     0
176
     1
290
     1
176
     1
290
     1
176
     1
290
     0
176
     1
290
     0
176
     1
290
     0
176
     1
290
     0
176
     1
290
     0
176
     1
290
     0
176
     1
 90
       50
176
     1
 40
0.0
176
     1
 40
1.0
176
     1
 90
        0
176
     1
 62
    18
420
        0
176
     1
 90
       50
176
     1
 90
        3
176
     1
 62
     5
420
      255
176
     1
290
     0
176
     1
 90
       50
176
     1
 90
       50
176
     1
 90
       50
176
     1
290
     0
176
     1
 90
       50
176
     1
 62
   256
176
     0
 40
1.0
176
     0
 90
        2
176
     1
  1
strokes_ogs.tif
176
     1
290
     0
176
     1
 40
1.0
176
     1
 40
1.0
176
     1
  0
VISUALSTYLE
  5
3A
102
{ACAD_REACTORS
330
2A
102
}
330
2A
100
AcDbVisualStyle
  2
ColorChange
 70
    16
177
     3
291
     1
 70
    58
 90
        2
176
     1
 90
        2
176
     1
 90
        3
176
     1
 90
        0
176
     1
 40
0.6
176
     1
 40
30.0
176
     1
 62
     8
420
  8421504
176
     1
 90
        1
176
     1
 90
        4
176
     1
 62
     7
176
     1
 62
   257
176
     1
 90
        1
176
     1
 90
        1
176
     1
 40
1.0
176
     1
 90
        8
176
     1
 62
     8
420
  8421504
176
     1
 40
1.0
176
     1
 90
        1
176
     1
 90
        6
176
     1
 90
        2
176
     1
 62
     7
176
     1
 90
        5
176
     1
 90
        0
176
     1
 90
        0
176
     1
290
     0
176
     1
 90
        1
176
     1
 40
0.0
176
     1
 90
        0
176
     1
290
     0
176
     1
290
     1
176
     1
290
     1
176
     1
290
     0
176
     1
290
     0
176
     1
290
     0
176
     1
290
     0
176
     1
290
     0
176
     1
290
     0
176
     1
 90
       50
176
     1
 40
0.0
176
     1
 40
1.0
176
     1
 90
        0
176
     1
 62
    18
420
        0
176
     1
 90
       50
176
     1
 90
        3
176
     1
 62
     5
420
      255
176
     1
290
     0
176
     1
 90
       50
176
     1
 90
       50
176
     1
 90
       50
176
     1
290
     0
176
     1
 90
       50
176
     1
 62
   256
176
     0
 40
1.0
176
     0
 90
        2
176
     1
  1
strokes_ogs.tif
176
     1
290
     0
176
     1
 40
1.0
176
     1
 40
1.0
176
     1
  0
VISUALSTYLE
  5
34
102
{ACAD_REACTORS
330
2A
102
}
330
2A
100
AcDbVisualStyle
  2
Conceptual
 70
     9
177
     3
291
     0
 70
    58
 90
        3
176
     1
 90
        2
176
     1
 90
        0
176
     1
 90
        0
176
     1
 40
0.6
176
     1
 40
30.0
176
     1
 62
     7
420
 16777215
176
     1
 90
        2
176
     1
 90
        2
176
     1
 62
     7
176
     1
 62
   257
176
     1
 90
        1
176
     1
 90
        1
176
     1
 40
179.0
176
     1
 90
        8
176
     1
 62
     7
176
     1
 40
1.0
176
     1
 90
        1
176
     1
 90
        6
176
     1
 90
        2
176
     1
 62
     7
176
     1
 90
        3
176
     1
 90
        0
176
     1
 90
        0
176
     1
290
     0
176
     1
 90
        1
176
     1
 40
0.0
176
     1
 90
        0
176
     1
290
     0
176
     1
290
     1
176
     1
290
     1
176
     1
290
     0
176
     1
290
     0
176
     1
290
     0
176
     1
290
     0
176
     1
290
     0
176
     1
290
     0
176
     1
 90
       50
176
     1
 40
0.0
176
     1
 40
1.0
176
     1
 90
        0
176
     1
 62
    18
420
        0
176
     1
 90
       50
176
     1
 90
        3
176
     1
 62
     5
420
      255
176
     1
290
     0
176
     1
 90
       50
176
     1
 90
       50
176
     1
 90
       50
176
     1
290
     0
176
     1
 90
       50
176
     1
 62
   256
176
     0
 40
1.0
176
     0
 90
        2
176
     1
  1
strokes_ogs.tif
176
     1
290
     0
176
     1
 40
1.0
176
     1
 40
1.0
176
     1
  0
VISUALSTYLE
  5
35
102
{ACAD_REACTORS
330
2A
102
}
330
2A
100
AcDbVisualStyle
  2
Dim
 70
    11
177
     3
291
     1
 70
    58
 90
        2
176
     1
 90
        2
176
     1
 90
        0
176
     1
 90
        0
176
     1
 40
0.6
176
     1
 40
30.0
176
     1
 62
     7
420
 16777215
176
     1
 90
        1
176
     1
 90
        4
176
     1
 62
     7
176
     1
 62
   257
176
     1
 90
        1
176
     1
 90
        1
176
     1
 40
1.0
176
     1
 90
        8
176
     1
 62
     7
176
     1
 40
1.0
176
     1
 90
        1
176
     1
 90
        6
176
     1
 90
        2
176
     1
 62
     7
176
     1
 90
        5
176
     1
 90
        0
176
     1
 90
        0
176
     1
290
     0
176
     1
 90
        1
176
     1
 40
-50.0
176
     1
 90
        0
176
     1
290
     0
176
     1
290
     1
176
     1
290
     1
176
     1
290
     0
176
     1
290
     0
176
     1
290
     0
176
     1
290
     0
176
     1
290
     0
176
     1
290
     0
176
     1
 90
       50
176
     1
 40
0.0
176
     1
 40
1.0
176
     1
 90
        0
176
     1
 62
    18
420
        0
176
     1
 90
       50
176
     1
 90
        3
176
     1
 62
     5
420
      255
176
     1
290
     0
176
     1
 90
       50
176
     1
 90
       50
176
     1
 90
       50
176
     1
290
     0
176
     1
 90
       50
176
     1
 62
   256
176
     0
 40
1.0
176
     0
 90
        2
176
     1
  1
strokes_ogs.tif
176
     1
290
     0
176
     1
 40
1.0
176
     1
 40
1.0
176
     1
  0
VISUALSTYLE
  5
3D
102
{ACAD_REACTORS
330
2A
102
}
330
2A
100
AcDbVisualStyle
  2
EdgeColorOff
 70
    22
177
     3
291
     1
 70
    58
 90
        2
176
     0
 90
        2
176
     0
 90
        0
176
     0
 90
        0
176
     0
 40
0.6
176
     0
 40
30.0
176
     0
 62
     7
420
 16777215
176
     0
 90
        1
176
     0
 90
        4
176
     0
 62
     7
176
     0
 62
   257
176
     0
 90
        1
176
     0
 90
        1
176
     0
 40
1.0
176
     0
 90
        8
176
     2
 62
     7
176
     0
 40
1.0
176
     0
 90
        1
176
     0
 90
        6
176
     0
 90
        2
176
     0
 62
     7
176
     0
 90
        5
176
     0
 90
        0
176
     0
 90
        0
176
     0
290
     0
176
     0
 90
        1
176
     0
 40
0.0
176
     0
 90
        0
176
     0
290
     0
176
     0
290
     1
176
     0
290
     1
176
     0
290
     0
176
     0
290
     0
176
     0
290
     0
176
     0
290
     0
176
     0
290
     0
176
     0
290
     0
176
     0
 90
       50
176
     0
 40
0.0
176
     0
 40
1.0
176
     0
 90
        0
176
     0
 62
    18
420
        0
176
     0
 90
       50
176
     0
 90
        3
176
     0
 62
     5
420
      255
176
     0
290
     0
176
     0
 90
       50
176
     0
 90
       50
176
     0
 90
       50
176
     0
290
     0
176
     0
 90
       50
176
     0
 62
   256
176
     0
 40
1.0
176
     0
 90
        2
176
     0
  1
strokes_ogs.tif
176
     0
290
     0
176
     0
 40
1.0
176
     0
 40
1.0
176
     0
  0
VISUALSTYLE
  5
39
102
{ACAD_REACTORS
330
2A
102
}
330
2A
100
AcDbVisualStyle
  2
Facepattern
 70
    15
177
     3
291
     1
 70
    58
 90
        2
176
     1
 90
        2
176
     1
 90
        0
176
     1
 90
        0
176
     1
 40
0.6
176
     1
 40
30.0
176
     1
 62
     7
420
 16777215
176
     1
 90
        1
176
     1
 90
        4
176
     1
 62
     7
176
     1
 62
   257
176
     1
 90
        1
176
     1
 90
        1
176
     1
 40
1.0
176
     1
 90
        8
176
     1
 62
     7
176
     1
 40
1.0
176
     1
 90
        1
176
     1
 90
        6
176
     1
 90
        2
176
     1
 62
     7
176
     1
 90
        5
176
     1
 90
        0
176
     1
 90
        0
176
     1
290
     0
176
     1
 90
        1
176
     1
 40
0.0
176
     1
 90
        0
176
     1
290
     0
176
     1
290
     1
176
     1
290
     1
176
     1
290
     0
176
     1
290
     0
176
     1
290
     0
176
     1
290
     0
176
     1
290
     0
176
     1
290
     0
176
     1
 90
       50
176
     1
 40
0.0
176
     1
 40
1.0
176
     1
 90
        0
176
     1
 62
    18
420
        0
176
     1
 90
       50
176
     1
 90
        3
176
     1
 62
     5
420
      255
176
     1
290
     0
176
     1
 90
       50
176
     1
 90
       50
176
     1
 90
       50
176
     1
290
     0
176
     1
 90
       50
176
     1
 62
   256
176
     0
 40
1.0
176
     0
 90
        2
176
     1
  1
strokes_ogs.tif
176
     1
290
     0
176
     1
 40
1.0
176
     1
 40
1.0
176
     1
  0
VISUALSTYLE
  5
2B
102
{ACAD_REACTORS
330
2A
102
}
330
2A
100
AcDbVisualStyle
  2
Flat
 70
     0
177
     3
291
     1
 70
    58
 90
        2
176
     1
 90
        1
176
     1
 90
        1
176
     1
 90
        2
176
     1
 40
0.6
176
     1
 40
30.0
176
     1
 62
     7
420
 16777215
176
     1
 90
        0
176
     1
 90
        0
176
     1
 62
     7
176
     1
 62
   257
176
     1
 90
        1
176
     1
 90
        1
176
     1
 40
1.0
176
     1
 90
        8
176
     1
 62
     7
176
     1
 40
1.0
176
     1
 90
        1
176
     1
 90
        6
176
     1
 90
        2
176
     1
 62
     7
176
     1
 90
        5
176
     1
 90
        0
176
     1
 90
        0
176
     1
290
     0
176
     1
 90
       13
176
     1
 40
0.0
176
     1
 90
        0
176
     1
290
     0
176
     1
290
     1
176
     1
290
     1
176
     1
290
     0
176
     1
290
     0
176
     1
290
     0
176
     1
290
     0
176
     1
290
     0
176
     1
290
     0
176
     1
 90
       50
176
     1
 40
0.0
176
     1
 40
1.0
176
     1
 90
        0
176
     1
 62
    18
420
        0
176
     1
 90
       50
176
     1
 90
        3
176
     1
 62
     5
420
      255
176
     1
290
     0
176
     1
 90
       50
176
     1
 90
       50
176
     1
 90
       50
176
     1
290
     0
176
     1
 90
       50
176
     1
 62
   256
176
     0
 40
1.0
176
     0
 90
        2
176
     1
  1
strokes_ogs.tif
176
     1
290
     0
176
     1
 40
1.0
176
     1
 40
1.0
176
     1
  0
VISUALSTYLE
  5
2C
102
{ACAD_REACTORS
330
2A
102
}
330
2A
100
AcDbVisualStyle
  2
FlatWithEdges
 70
     1
177
     3
291
     1
 70
    58
 90
        2
176
     1
 90
        1
176
     1
 90
        1
176
     1
 90
        2
176
     1
 40
0.6
176
     1
 40
30.0
176
     1
 62
     7
420
 16777215
176
     1
 90
        1
176
     1
 90
        0
176
     1
 62
     7
176
     1
 62
   257
176
     1
 90
        1
176
     1
 90
        1
176
     1
 40
1.0
176
     1
 90
        0
176
     1
 62
   257
176
     1
 40
1.0
176
     1
 90
        1
176
     1
 90
        6
176
     1
 90
        2
176
     1
 62
     7
176
     1
 90
        5
176
     1
 90
        0
176
     1
 90
        0
176
     1
290
     0
176
     1
 90
       13
176
     1
 40
0.0
176
     1
 90
        0
176
     1
290
     0
176
     1
290
     1
176
     1
290
     1
176
     1
290
     0
176
     1
290
     0
176
     1
290
     0
176
     1
290
     0
176
     1
290
     0
176
     1
290
     0
176
     1
 90
       50
176
     1
 40
0.0
176
     1
 40
1.0
176
     1
 90
        0
176
     1
 62
    18
420
        0
176
     1
 90
       50
176
     1
 90
        3
176
     1
 62
     5
420
      255
176
     1
290
     0
176
     1
 90
       50
176
     1
 90
       50
176
     1
 90
       50
176
     1
290
     0
176
     1
 90
       50
176
     1
 62
   256
176
     0
 40
1.0
176
     0
 90
        2
176
     1
  1
strokes_ogs.tif
176
     1
290
     0
176
     1
 40
1.0
176
     1
 40
1.0
176
     1
  0
VISUALSTYLE
  5
2D
102
{ACAD_REACTORS
330
2A
102
}
330
2A
100
AcDbVisualStyle
  2
Gouraud
 70
     2
177
     3
291
     1
 70
    58
 90
        2
176
     1
 90
        2
176
     1
 90
        1
176
     1
 90
        2
176
     1
 40
0.6
176
     1
 40
30.0
176
     1
 62
     7
420
 16777215
176
     1
 90
        0
176
     1
 90
        0
176
     1
 62
     7
176
     1
 62
   257
176
     1
 90
        1
176
     1
 90
        1
176
     1
 40
1.0
176
     1
 90
        0
176
     1
 62
     7
176
     1
 40
1.0
176
     1
 90
        1
176
     1
 90
        6
176
     1
 90
        2
176
     1
 62
     7
176
     1
 90
        5
176
     1
 90
        0
176
     1
 90
        0
176
     1
290
     0
176
     1
 90
       13
176
     1
 40
0.0
176
     1
 90
        0
176
     1
290
     0
176
     1
290
     1
176
     1
290
     1
176
     1
290
     0
176
     1
290
     0
176
     1
290
     0
176
     1
290
     0
176
     1
290
     0
176
     1
290
     0
176
     1
 90
       50
176
     1
 40
0.0
176
     1
 40
1.0
176
     1
 90
        0
176
     1
 62
    18
420
        0
176
     1
 90
       50
176
     1
 90
        3
176
     1
 62
     5
420
      255
176
     1
290
     0
176
     1
 90
       50
176
     1
 90
       50
176
     1
 90
       50
176
     1
290
     0
176
     1
 90
       50
176
     1
 62
   256
176
     0
 40
1.0
176
     0
 90
        2
176
     1
  1
strokes_ogs.tif
176
     1
290
     0
176
     1
 40
1.0
176
     1
 40
1.0
176
     1
  0
VISUALSTYLE
  5
2E
102
{ACAD_REACTORS
330
2A
102
}
330
2A
100
AcDbVisualStyle
  2
GouraudWithEdges
 70
     3
177
     3
291
     1
 70
    58
 90
        2
176
     1
 90
        2
176
     1
 90
        1
176
     1
 90
        2
176
     1
 40
0.6
176
     1
 40
30.0
176
     1
 62
     7
420
 16777215
176
     1
 90
        1
176
     1
 90
        0
176
     1
 62
     7
176
     1
 62
   257
176
     1
 90
        1
176
     1
 90
        1
176
     1
 40
1.0
176
     1
 90
        0
176
     1
 62
   257
176
     1
 40
1.0
176
     1
 90
        1
176
     1
 90
        6
176
     1
 90
        2
176
     1
 62
     7
176
     1
 90
        5
176
     1
 90
        0
176
     1
 90
        0
176
     1
290
     0
176
     1
 90
       13
176
     1
 40
0.0
176
     1
 90
        0
176
     1
290
     0
176
     1
290
     1
176
     1
290
     1
176
     1
290
     0
176
     1
290
     0
176
     1
290
     0
176
     1
290
     0
176
     1
290
     0
176
     1
290
     0
176
     1
 90
       50
176
     1
 40
0.0
176
     1
 40
1.0
176
     1
 90
        0
176
     1
 62
    18
420
        0
176
     1
 90
       50
176
     1
 90
        3
176
     1
 62
     5
420
      255
176
     1
290
     0
176
     1
 90
       50
176
     1
 90
       50
176
     1
 90
       50
176
     1
290
     0
176
     1
 90
       50
176
     1
 62
   256
176
     0
 40
1.0
176
     0
 90
        2
176
     1
  1
strokes_ogs.tif
176
     1
290
     0
176
     1
 40
1.0
176
     1
 40
1.0
176
     1
  0
VISUALSTYLE
  5
31
102
{ACAD_REACTORS
330
2A
102
}
330
2A
100
AcDbVisualStyle
  2
Hidden
 70
     6
177
     3
291
     0
 70
    58
 90
        1
176
     1
 90
        2
176
     1
 90
        2
176
     1
 90
        0
176
     1
 40
0.6
176
     1
 40
30.0
176
     1
 62
     7
420
 16777215
176
     1
 90
        2
176
     1
 90
        2
176
     1
 62
     7
176
     1
 62
   257
176
     1
 90
        2
176
     1
 90
        1
176
     1
 40
40.0
176
     1
 90
        0
176
     1
 62
   257
176
     1
 40
1.0
176
     1
 90
        1
176
     1
 90
        6
176
     1
 90
        2
176
     1
 62
     7
176
     1
 90
        3
176
     1
 90
        0
176
     1
 90
        0
176
     1
290
     0
176
     1
 90
        1
176
     1
 40
0.0
176
     1
 90
        0
176
     1
290
     0
176
     1
290
     1
176
     1
290
     1
176
     1
290
     0
176
     1
290
     0
176
     1
290
     0
176
     1
290
     0
176
     1
290
     0
176
     1
290
     0
176
     1
 90
       50
176
     1
 40
0.0
176
     1
 40
1.0
176
     1
 90
        0
176
     1
 62
    18
420
        0
176
     1
 90
       50
176
     1
 90
        3
176
     1
 62
     5
420
      255
176
     1
290
     0
176
     1
 90
       50
176
     1
 90
       50
176
     1
 90
       50
176
     1
290
     0
176
     1
 90
       50
176
     1
 62
   256
176
     0
 40
1.0
176
     0
 90
        2
176
     1
  1
strokes_ogs.tif
176
     1
290
     0
176
     1
 40
1.0
176
     1
 40
1.0
176
     1
  0
VISUALSTYLE
  5
3B
102
{ACAD_REACTORS
330
2A
102
}
330
2A
100
AcDbVisualStyle
  2
JitterOff
 70
    20
177
     3
291
     1
 70
    58
 90
        2
176
     0
 90
        2
176
     0
 90
        0
176
     0
 90
        0
176
     0
 40
0.6
176
     0
 40
30.0
176
     0
 62
     7
420
 16777215
176
     0
 90
        1
176
     0
 90
        4
176
     0
 62
     7
176
     0
 62
   257
176
     0
 90
        1
176
     0
 90
        1
176
     0
 40
1.0
176
     0
 90
       10
176
     2
 62
     7
176
     0
 40
1.0
176
     0
 90
        1
176
     0
 90
        6
176
     0
 90
        2
176
     0
 62
     7
176
     0
 90
        5
176
     0
 90
        0
176
     0
 90
        0
176
     0
290
     0
176
     0
 90
        1
176
     0
 40
0.0
176
     0
 90
        0
176
     0
290
     0
176
     0
290
     1
176
     0
290
     1
176
     0
290
     0
176
     0
290
     0
176
     0
290
     0
176
     0
290
     0
176
     0
290
     0
176
     0
290
     0
176
     0
 90
       50
176
     0
 40
0.0
176
     0
 40
1.0
176
     0
 90
        0
176
     0
 62
    18
420
        0
176
     0
 90
       50
176
     0
 90
        3
176
     0
 62
     5
420
      255
176
     0
290
     0
176
     0
 90
       50
176
     0
 90
       50
176
     0
 90
       50
176
     0
290
     0
176
     0
 90
       50
176
     0
 62
   256
176
     0
 40
1.0
176
     0
 90
        2
176
     0
  1
strokes_ogs.tif
176
     0
290
     0
176
     0
 40
1.0
176
     0
 40
1.0
176
     0
  0
VISUALSTYLE
  5
38
102
{ACAD_REACTORS
330
2A
102
}
330
2A
100
AcDbVisualStyle
  2
Linepattern
 70
    14
177
     3
291
     1
 70
    58
 90
        2
176
     1
 90
        2
176
     1
 90
        0
176
     1
 90
        0
176
     1
 40
0.6
176
     1
 40
30.0
176
     1
 62
     7
420
 16777215
176
     1
 90
        1
176
     1
 90
        4
176
     1
 62
     7
176
     1
 62
   257
176
     1
 90
        7
176
     1
 90
        7
176
     1
 40
1.0
176
     1
 90
        8
176
     1
 62
     7
176
     1
 40
1.0
176
     1
 90
        1
176
     1
 90
        6
176
     1
 90
        2
176
     1
 62
     7
176
     1
 90
        5
176
     1
 90
        0
176
     1
 90
        0
176
     1
290
     0
176
     1
 90
        1
176
     1
 40
0.0
176
     1
 90
        0
176
     1
290
     0
176
     1
290
     1
176
     1
290
     1
176
     1
290
     0
176
     1
290
     0
176
     1
290
     0
176
     1
290
     0
176
     1
290
     0
176
     1
290
     0
176
     1
 90
       50
176
     1
 40
0.0
176
     1
 40
1.0
176
     1
 90
        0
176
     1
 62
    18
420
        0
176
     1
 90
       50
176
     1
 90
        3
176
     1
 62
     5
420
      255
176
     1
290
     0
176
     1
 90
       50
176
     1
 90
       50
176
     1
 90
       50
176
     1
290
     0
176
     1
 90
       50
176
     1
 62
   256
176
     0
 40
1.0
176
     0
 90
        2
176
     1
  1
strokes_ogs.tif
176
     1
290
     0
176
     1
 40
1.0
176
     1
 40
1.0
176
     1
  0
VISUALSTYLE
  5
3C
102
{ACAD_REACTORS
330
2A
102
}
330
2A
100
AcDbVisualStyle
  2
OverhangOff
 70
    21
177
     3
291
     1
 70
    58
 90
        2
176
     0
 90
        2
176
     0
 90
        0
176
     0
 90
        0
176
     0
 40
0.6
176
     0
 40
30.0
176
     0
 62
     7
420
 16777215
176
     0
 90
        1
176
     0
 90
        4
176
     0
 62
     7
176
     0
 62
   257
176
     0
 90
        1
176
     0
 90
        1
176
     0
 40
1.0
176
     0
 90
        9
176
     2
 62
     7
176
     0
 40
1.0
176
     0
 90
        1
176
     0
 90
        6
176
     0
 90
        2
176
     0
 62
     7
176
     0
 90
        5
176
     0
 90
        0
176
     0
 90
        0
176
     0
290
     0
176
     0
 90
        1
176
     0
 40
0.0
176
     0
 90
        0
176
     0
290
     0
176
     0
290
     1
176
     0
290
     1
176
     0
290
     0
176
     0
290
     0
176
     0
290
     0
176
     0
290
     0
176
     0
290
     0
176
     0
290
     0
176
     0
 90
       50
176
     0
 40
0.0
176
     0
 40
1.0
176
     0
 90
        0
176
     0
 62
    18
420
        0
176
     0
 90
       50
176
     0
 90
        3
176
     0
 62
     5
420
      255
176
     0
290
     0
176
     0
 90
       50
176
     0
 90
       50
176
     0
 90
       50
176
     0
290
     0
176
     0
 90
       50
176
     0
 62
   256
176
     0
 40
1.0
176
     0
 90
        2
176
     0
  1
strokes_ogs.tif
176
     0
290
     0
176
     0
 40
1.0
176
     0
 40
1.0
176
     0
  0
VISUALSTYLE
  5
33
102
{ACAD_REACTORS
330
2A
102
}
330
2A
100
AcDbVisualStyle
  2
Realistic
 70
     8
177
     3
291
     0
 70
    58
 90
        2
176
     1
 90
        3
176
     1
 90
        0
176
     1
 90
        2
176
     1
 40
0.6
176
     1
 40
30.0
176
     1
 62
     7
420
 16777215
176
     1
 90
        0
176
     1
 90
        0
176
     1
 62
     7
176
     1
 62
   257
176
     1
 90
        1
176
     1
 90
        1
176
     1
 40
1.0
176
     1
 90
        8
176
     1
 62
   257
176
     1
 40
1.0
176
     1
 90
        1
176
     1
 90
        6
176
     1
 90
        2
176
     1
 62
     7
176
     1
 90
        3
176
     1
 90
        0
176
     1
 90
        0
176
     1
290
     0
176
     1
 90
       13
176
     1
 40
0.0
176
     1
 90
        0
176
     1
290
     0
176
     1
290
     1
176
     1
290
     1
176
     1
290
     0
176
     1
290
     0
176
     1
290
     0
176
     1
290
     0
176
     1
290
     0
176
     1
290
     0
176
     1
 90
       50
176
     1
 40
0.0
176
     1
 40
1.0
176
     1
 90
        0
176
     1
 62
    18
420
        0
176
     1
 90
       50
176
     1
 90
        3
176
     1
 62
     5
420
      255
176
     1
290
     0
176
     1
 90
       50
176
     1
 90
       50
176
     1
 90
       50
176
     1
290
     0
176
     1
 90
       50
176
     1
 62
   256
176
     0
 40
1.0
176
     0
 90
        2
176
     1
  1
strokes_ogs.tif
176
     1
290
     0
176
     1
 40
1.0
176
     1
 40
1.0
176
     1
  0
VISUALSTYLE
  5
42
102
{ACAD_REACTORS
330
2A
102
}
330
2A
100
AcDbVisualStyle
  2
Shaded
 70
    27
177
     3
291
     0
 70
    58
 90
        2
176
     1
 90
        2
176
     1
 90
        1
176
     1
 90
        2
176
     1
 40
0.6
176
     1
 40
30.0
176
     1
 62
     7
420
 16777215
176
     1
 90
        0
176
     1
 90
        4
176
     1
 62
     7
176
     1
 62
   257
176
     1
 90
        1
176
     1
 90
        1
176
     1
 40
1.0
176
     1
 90
        8
176
     1
 62
   257
176
     1
 40
1.0
176
     1
 90
        1
176
     1
 90
        6
176
     1
 90
        2
176
     1
 62
     8
420
  7895160
176
     1
 90
        3
176
     1
 90
        0
176
     1
 90
        0
176
     1
290
     0
176
     1
 90
        5
176
     1
 40
0.0
176
     1
 90
        0
176
     1
290
     0
176
     1
290
     1
176
     1
290
     1
176
     1
290
     0
176
     1
290
     0
176
     1
290
     0
176
     1
290
     0
176
     1
290
     0
176
     1
290
     0
176
     1
 90
       50
176
     1
 40
0.0
176
     1
 40
1.0
176
     1
 90
        0
176
     1
 62
    18
420
        0
176
     1
 90
       50
176
     1
 90
        3
176
     1
 62
     5
420
      255
176
     1
290
     0
176
     1
 90
       50
176
     1
 90
       50
176
     1
 90
       50
176
     1
290
     0
176
     1
 90
       50
176
     1
 62
   256
176
     0
 40
1.0
176
     0
 90
        2
176
     1
  1
strokes_ogs.tif
176
     1
290
     0
176
     1
 40
1.0
176
     1
 40
1.0
176
     1
  0
VISUALSTYLE
  5
41
102
{ACAD_REACTORS
330
2A
102
}
330
2A
100
AcDbVisualStyle
  2
Shaded with edges
 70
    26
177
     3
291
     0
 70
    58
 90
        2
176
     1
 90
        2
176
     1
 90
        1
176
     1
 90
        2
176
     1
 40
0.6
176
     1
 40
30.0
176
     1
 62
     7
420
 16777215
176
     1
 90
        1
176
     1
 90
       10
176
     1
 62
     7
176
     1
 62
   257
176
     1
 90
        2
176
     1
 90
        1
176
     1
 40
1.0
176
     1
 90
        8
176
     1
 62
   257
176
     1
 40
1.0
176
     1
 90
        1
176
     1
 90
        6
176
     1
 90
        2
176
     1
 62
     7
176
     1
 90
        3
176
     1
 90
        0
176
     1
 90
        0
176
     1
290
     0
176
     1
 90
        5
176
     1
 40
0.0
176
     1
 90
        0
176
     1
290
     0
176
     1
290
     1
176
     1
290
     1
176
     1
290
     0
176
     1
290
     0
176
     1
290
     0
176
     1
290
     0
176
     1
290
     0
176
     1
290
     0
176
     1
 90
       50
176
     1
 40
0.0
176
     1
 40
1.0
176
     1
 90
        0
176
     1
 62
    18
420
        0
176
     1
 90
       50
176
     1
 90
        3
176
     1
 62
     5
420
      255
176
     1
290
     0
176
     1
 90
       50
176
     1
 90
       50
176
     1
 90
       50
176
     1
290
     0
176
     1
 90
       50
176
     1
 62
   256
176
     0
 40
1.0
176
     0
 90
        2
176
     1
  1
strokes_ogs.tif
176
     1
290
     0
176
     1
 40
1.0
176
     1
 40
1.0
176
     1
  0
VISUALSTYLE
  5
3E
102
{ACAD_REACTORS
330
2A
102
}
330
2A
100
AcDbVisualStyle
  2
Shades of Gray
 70
    23
177
     3
291
     0
 70
    58
 90
        2
176
     1
 90
        2
176
     1
 90
        3
176
     1
 90
        0
176
     1
 40
0.6
176
     1
 40
30.0
176
     1
 62
     7
420
 16777215
176
     1
 90
        2
176
     1
 90
        2
176
     1
 62
     7
176
     1
 62
     7
176
     1
 90
        1
176
     1
 90
        1
176
     1
 40
40.0
176
     1
 90
        8
176
     1
 62
     7
176
     1
 40
1.0
176
     1
 90
        1
176
     1
 90
        6
176
     1
 90
        2
176
     1
 62
     7
176
     1
 90
        3
176
     1
 90
        0
176
     1
 90
        0
176
     1
290
     0
176
     1
 90
        1
176
     1
 40
0.0
176
     1
 90
        0
176
     1
290
     0
176
     1
290
     1
176
     1
290
     1
176
     1
290
     0
176
     1
290
     0
176
     1
290
     0
176
     1
290
     0
176
     1
290
     0
176
     1
290
     0
176
     1
 90
       50
176
     1
 40
0.0
176
     1
 40
1.0
176
     1
 90
        0
176
     1
 62
    18
420
        0
176
     1
 90
       50
176
     1
 90
        3
176
     1
 62
     5
420
      255
176
     1
290
     0
176
     1
 90
       50
176
     1
 90
       50
176
     1
 90
       50
176
     1
290
     0
176
     1
 90
       50
176
     1
 62
   256
176
     0
 40
1.0
176
     0
 90
        2
176
     1
  1
strokes_ogs.tif
176
     1
290
     0
176
     1
 40
1.0
176
     1
 40
1.0
176
     1
  0
VISUALSTYLE
  5
3F
102
{ACAD_REACTORS
330
2A
102
}
330
2A
100
AcDbVisualStyle
  2
Sketchy
 70
    24
177
     3
291
     0
 70
    58
 90
        1
176
     1
 90
        2
176
     1
 90
        2
176
     1
 90
        0
176
     1
 40
0.6
176
     1
 40
30.0
176
     1
 62
     7
420
 16777215
176
     1
 90
        2
176
     1
 90
        2
176
     1
 62
     7
176
     1
 62
     7
176
     1
 90
        1
176
     1
 90
        1
176
     1
 40
40.0
176
     1
 90
       11
176
     1
 62
     7
176
     1
 40
1.0
176
     1
 90
        1
176
     1
 90
        6
176
     1
 90
        2
176
     1
 62
     7
176
     1
 90
        6
176
     1
 90
        0
176
     1
 90
        0
176
     1
290
     0
176
     1
 90
        1
176
     1
 40
0.0
176
     1
 90
        0
176
     1
290
     0
176
     1
290
     1
176
     1
290
     1
176
     1
290
     0
176
     1
290
     0
176
     1
290
     0
176
     1
290
     0
176
     1
290
     0
176
     1
290
     0
176
     1
 90
       50
176
     1
 40
0.0
176
     1
 40
1.0
176
     1
 90
        0
176
     1
 62
    18
420
        0
176
     1
 90
       50
176
     1
 90
        3
176
     1
 62
     5
420
      255
176
     1
290
     0
176
     1
 90
       50
176
     1
 90
       50
176
     1
 90
       50
176
     1
290
     0
176
     1
 90
       50
176
     1
 62
   256
176
     0
 40
1.0
176
     0
 90
        2
176
     1
  1
strokes_ogs.tif
176
     1
290
     0
176
     1
 40
1.0
176
     1
 40
1.0
176
     1
  0
VISUALSTYLE
  5
37
102
{ACAD_REACTORS
330
2A
102
}
330
2A
100
AcDbVisualStyle
  2
Thicken
 70
    13
177
     3
291
     1
 70
    58
 90
        2
176
     1
 90
        2
176
     1
 90
        0
176
     1
 90
        0
176
     1
 40
0.6
176
     1
 40
30.0
176
     1
 62
     7
420
 16777215
176
     1
 90
        1
176
     1
 90
        4
176
     1
 62
     7
176
     1
 62
   257
176
     1
 90
        1
176
     1
 90
        1
176
     1
 40
1.0
176
     1
 90
       12
176
     1
 62
     7
176
     1
 40
1.0
176
     1
 90
        1
176
     1
 90
        6
176
     1
 90
        2
176
     1
 62
     7
176
     1
 90
        5
176
     1
 90
        0
176
     1
 90
        0
176
     1
290
     0
176
     1
 90
        1
176
     1
 40
0.0
176
     1
 90
        0
176
     1
290
     0
176
     1
290
     1
176
     1
290
     1
176
     1
290
     0
176
     1
290
     0
176
     1
290
     0
176
     1
290
     0
176
     1
290
     0
176
     1
290
     0
176
     1
 90
       50
176
     1
 40
0.0
176
     1
 40
1.0
176
     1
 90
        0
176
     1
 62
    18
420
        0
176
     1
 90
       50
176
     1
 90
        3
176
     1
 62
     5
420
      255
176
     1
290
     0
176
     1
 90
       50
176
     1
 90
       50
176
     1
 90
       50
176
     1
290
     0
176
     1
 90
       50
176
     1
 62
   256
176
     0
 40
1.0
176
     0
 90
        2
176
     1
  1
strokes_ogs.tif
176
     1
290
     0
176
     1
 40
1.0
176
     1
 40
1.0
176
     1
  0
VISUALSTYLE
  5
30
102
{ACAD_REACTORS
330
2A
102
}
330
2A
100
AcDbVisualStyle
  2
Wireframe
 70
     5
177
     3
291
     0
 70
    58
 90
        0
176
     1
 90
        2
176
     1
 90
        0
176
     1
 90
        0
176
     1
 40
0.6
176
     1
 40
30.0
176
     1
 62
     7
420
 16777215
176
     1
 90
        1
176
     1
 90
        4
176
     1
 62
     7
176
     1
 62
   257
176
     1
 90
        1
176
     1
 90
        1
176
     1
 40
1.0
176
     1
 90
        0
176
     1
 62
   257
176
     1
 40
1.0
176
     1
 90
        1
176
     1
 90
        6
176
     1
 90
        2
176
     1
 62
     7
176
     1
 90
        3
176
     1
 90
        0
176
     1
 90
        0
176
     1
290
     0
176
     1
 90
        1
176
     1
 40
0.0
176
     1
 90
        0
176
     1
290
     0
176
     1
290
     1
176
     1
290
     1
176
     1
290
     0
176
     1
290
     0
176
     1
290
     0
176
     1
290
     0
176
     1
290
     0
176
     1
290
     0
176
     1
 90
       50
176
     1
 40
0.0
176
     1
 40
1.0
176
     1
 90
        0
176
     1
 62
    18
420
        0
176
     1
 90
       50
176
     1
 90
        3
176
     1
 62
     5
420
      255
176
     1
290
     0
176
     1
 90
       50
176
     1
 90
       50
176
     1
 90
       50
176
     1
290
     0
176
     1
 90
       50
176
     1
 62
   256
176
     0
 40
1.0
176
     0
 90
        2
176
     1
  1
strokes_ogs.tif
176
     1
290
     0
176
     1
 40
1.0
176
     1
 40
1.0
176
     1
  0
VISUALSTYLE
  5
40
102
{ACAD_REACTORS
330
2A
102
}
330
2A
100
AcDbVisualStyle
  2
X-Ray
 70
    25
177
     3
291
     0
 70
    58
 90
        2
176
     1
 90
        2
176
     1
 90
        1
176
     1
 90
        1
176
     1
 40
0.5
176
     1
 40
30.0
176
     1
 62
     7
420
 16777215
176
     1
 90
        1
176
     1
 90
        0
176
     1
 62
     7
176
     1
 62
   257
176
     1
 90
        1
176
     1
 90
        1
176
     1
 40
1.0
176
     1
 90
        8
176
     1
 62
     7
176
     1
 40
1.0
176
     1
 90
        1
176
     1
 90
        6
176
     1
 90
        2
176
     1
 62
     7
176
     1
 90
        3
176
     1
 90
        0
176
     1
 90
        0
176
     1
290
     0
176
     1
 90
       13
176
     1
 40
0.0
176
     1
 90
        0
176
     1
290
     0
176
     1
290
     1
176
     1
290
     1
176
     1
290
     0
176
     1
290
     0
176
     1
290
     0
176
     1
290
     0
176
     1
290
     0
176
     1
290
     0
176
     1
 90
       50
176
     1
 40
0.0
176
     1
 40
1.0
176
     1
 90
        0
176
     1
 62
    18
420
        0
176
     1
 90
       50
176
     1
 90
        3
176
     1
 62
     5
420
      255
176
     1
290
     0
176
     1
 90
       50
176
     1
 90
       50
176
     1
 90
       50
176
     1
290
     0
176
     1
 90
       50
176
     1
 62
   256
176
     0
 40
1.0
176
     0
 90
        2
176
     1
  1
strokes_ogs.tif
176
     1
290
     0
176
     1
 40
1.0
176
     1
 40
1.0
176
     1
  0
DICTIONARYVAR
  5
12F
102
{ACAD_REACTORS
330
12E
102
}
330
12E
100
DictionaryVariables
280
     0
  1
1:1
  0
DICTIONARYVAR
  5
134
102
{ACAD_REACTORS
330
12E
102
}
330
12E
100
DictionaryVariables
280
     0
  1
Standard
  0
DICTIONARYVAR
  5
133
102
{ACAD_REACTORS
330
12E
102
}
330
12E
100
DictionaryVariables
280
     0
  1
Standard
  0
DICTIONARY
  5
130
330
6A
100
AcDbDictionary
280
     1
281
     1
  3
ACAD_ROUNDTRIP_2008_TABLESTYLE_CELLSTYLEMAP
360
131
  0
CELLSTYLEMAP
  5
131
102
{ACAD_REACTORS
330
130
102
}
330
130
100
AcDbCellStyleMap
 90
        3
300
CELLSTYLE
  1
TABLEFORMAT_BEGIN
 90
        5
170
     1
 91
        0
 92
    32768
 62
   257
 93
        1
300
CONTENTFORMAT
  1
CONTENTFORMAT_BEGIN
 90
        0
 91
        0
 92
        4
 93
        0
300

 40
0.0
140
1.0
 94
        5
 62
     0
340
11
144
6.0
309
CONTENTFORMAT_END
171
     1
301
MARGIN
  1
CELLMARGIN_BEGIN
 40
1.5
 40
1.5
 40
1.5
 40
1.5
 40
1.5
 40
1.5
309
CELLMARGIN_END
 94
        6
 95
        1
302
GRIDFORMAT
  1
GRIDFORMAT_BEGIN
 90
        0
 91
        1
 62
     0
 92
       -2
340
14
 93
        0
 40
0.045
309
GRIDFORMAT_END
 95
        2
302
GRIDFORMAT
  1
GRIDFORMAT_BEGIN
 90
        0
 91
        1
 62
     0
 92
       -2
340
14
 93
        0
 40
0.045
309
GRIDFORMAT_END
 95
        4
302
GRIDFORMAT
  1
GRIDFORMAT_BEGIN
 90
        0
 91
        1
 62
     0
 92
       -2
340
14
 93
        0
 40
0.045
309
GRIDFORMAT_END
 95
        8
302
GRIDFORMAT
  1
GRIDFORMAT_BEGIN
 90
        0
 91
        1
 62
     0
 92
       -2
340
14
 93
        0
 40
0.045
309
GRIDFORMAT_END
 95
       16
302
GRIDFORMAT
  1
GRIDFORMAT_BEGIN
 90
        0
 91
        1
 62
     0
 92
       -2
340
14
 93
        0
 40
0.045
309
GRIDFORMAT_END
 95
       32
302
GRIDFORMAT
  1
GRIDFORMAT_BEGIN
 90
        0
 91
        1
 62
     0
 92
       -2
340
14
 93
        0
 40
0.045
309
GRIDFORMAT_END
309
TABLEFORMAT_END
  1
CELLSTYLE_BEGIN
 90
        1
 91
        1
300
_TITLE
309
CELLSTYLE_END
300
CELLSTYLE
  1
TABLEFORMAT_BEGIN
 90
        5
170
     1
 91
        0
 92
        0
 62
   257
 93
        1
300
CONTENTFORMAT
  1
CONTENTFORMAT_BEGIN
 90
        0
 91
        0
 92
        4
 93
        0
300

 40
0.0
140
1.0
 94
        5
 62
     0
340
11
144
4.5
309
CONTENTFORMAT_END
171
     1
301
MARGIN
  1
CELLMARGIN_BEGIN
 40
1.5
 40
1.5
 40
1.5
 40
1.5
 40
1.5
 40
1.5
309
CELLMARGIN_END
 94
        6
 95
        1
302
GRIDFORMAT
  1
GRIDFORMAT_BEGIN
 90
        0
 91
        1
 62
     0
 92
       -2
340
14
 93
        0
 40
0.045
309
GRIDFORMAT_END
 95
        2
302
GRIDFORMAT
  1
GRIDFORMAT_BEGIN
 90
        0
 91
        1
 62
     0
 92
       -2
340
14
 93
        0
 40
0.045
309
GRIDFORMAT_END
 95
        4
302
GRIDFORMAT
  1
GRIDFORMAT_BEGIN
 90
        0
 91
        1
 62
     0
 92
       -2
340
14
 93
        0
 40
0.045
309
GRIDFORMAT_END
 95
        8
302
GRIDFORMAT
  1
GRIDFORMAT_BEGIN
 90
        0
 91
        1
 62
     0
 92
       -2
340
14
 93
        0
 40
0.045
309
GRIDFORMAT_END
 95
       16
302
GRIDFORMAT
  1
GRIDFORMAT_BEGIN
 90
        0
 91
        1
 62
     0
 92
       -2
340
14
 93
        0
 40
0.045
309
GRIDFORMAT_END
 95
       32
302
GRIDFORMAT
  1
GRIDFORMAT_BEGIN
 90
        0
 91
        1
 62
     0
 92
       -2
340
14
 93
        0
 40
0.045
309
GRIDFORMAT_END
309
TABLEFORMAT_END
  1
CELLSTYLE_BEGIN
 90
        2
 91
        1
300
_HEADER
309
CELLSTYLE_END
300
CELLSTYLE
  1
TABLEFORMAT_BEGIN
 90
        5
170
     1
 91
        0
 92
        0
 62
   257
 93
        1
300
CONTENTFORMAT
  1
CONTENTFORMAT_BEGIN
 90
        0
 91
        0
 92
        4
 93
        0
300

 40
0.0
140
1.0
 94
        2
 62
     0
340
11
144
4.5
309
CONTENTFORMAT_END
171
     1
301
MARGIN
  1
CELLMARGIN_BEGIN
 40
1.5
 40
1.5
 40
1.5
 40
1.5
 40
1.5
 40
1.5
309
CELLMARGIN_END
 94
        6
 95
        1
302
GRIDFORMAT
  1
GRIDFORMAT_BEGIN
 90
        0
 91
        1
 62
     0
 92
       -2
340
14
 93
        0
 40
0.045
309
GRIDFORMAT_END
 95
        2
302
GRIDFORMAT
  1
GRIDFORMAT_BEGIN
 90
        0
 91
        1
 62
     0
 92
       -2
340
14
 93
        0
 40
0.045
309
GRIDFORMAT_END
 95
        4
302
GRIDFORMAT
  1
GRIDFORMAT_BEGIN
 90
        0
 91
        1
 62
     0
 92
       -2
340
14
 93
        0
 40
0.045
309
GRIDFORMAT_END
 95
        8
302
GRIDFORMAT
  1
GRIDFORMAT_BEGIN
 90
        0
 91
        1
 62
     0
 92
       -2
340
14
 93
        0
 40
0.045
309
GRIDFORMAT_END
 95
       16
302
GRIDFORMAT
  1
GRIDFORMAT_BEGIN
 90
        0
 91
        1
 62
     0
 92
       -2
340
14
 93
        0
 40
0.045
309
GRIDFORMAT_END
 95
       32
302
GRIDFORMAT
  1
GRIDFORMAT_BEGIN
 90
        0
 91
        1
 62
     0
 92
       -2
340
14
 93
        0
 40
0.045
309
GRIDFORMAT_END
309
TABLEFORMAT_END
  1
CELLSTYLE_BEGIN
 90
        3
 91
        2
300
_DATA
309
CELLSTYLE_END
  0
ENDSEC
  0
EOF
