  0
SECTION
  2
HEADER
  9
$ACADVER
  1
AC1027
  9
$ACADMAINTVER
 70
   105
  9
$DWGCODEPAGE
  3
ANSI_1252
  9
$REQUIREDVERSIONS
160
                 0
  9
$INSBASE
 10
0.0
 20
0.0
 30
0.0
  9
$EXTMIN
 10
-195.0
 20
-195.0
 30
0.0
  9
$EXTMAX
 10
195.0
 20
195.0
 30
0.0
  9
$LIMMIN
 10
0.0
 20
0.0
  9
$LIMMAX
 10
420.0
 20
297.0
  9
$ORTHOMODE
 70
     0
  9
$REGENMODE
 70
     1
  9
$FILLMODE
 70
     1
  9
$QTEXTMODE
 70
     0
  9
$MIRRTEXT
 70
     1
  9
$LTSCALE
 40
1.0
  9
$ATTMODE
 70
     1
  9
$TEXTSIZE
 40
3.5
  9
$TRACEWID
 40
1.0
  9
$TEXTSTYLE
  7
STANDARD
  9
$CLAYER
  8
0
  9
$CELTYPE
  6
ByLayer
  9
$CECOLOR
 62
   256
  9
$CELTSCALE
 40
1.0
  9
$DISPSILH
 70
     0
  9
$DIMSCALE
 40
1.0
  9
$DIMASZ
 40
7.4083333333
  9
$DIMEXO
 40
1.0
  9
$DIMDLI
 40
3.75
  9
$DIMRND
 40
0.0
  9
$DIMDLE
 40
0.0
  9
$DIMEXE
 40
1.0
  9
$DIMTP
 40
0.0
  9
$DIMTM
 40
0.0
  9
$DIMTXT
 40
9.8777777778
  9
$DIMCEN
 40
2.5
  9
$DIMTSZ
 40
0.0
  9
$DIMTOL
 70
     0
  9
$DIMLIM
 70
     0
  9
$DIMTIH
 70
     1
  9
$DIMTOH
 70
     1
  9
$DIMSE1
 70
     0
  9
$DIMSE2
 70
     0
  9
$DIMTAD
 70
     1
  9
$DIMZIN
 70
     0
  9
$DIMBLK
  1

  9
$DIMASO
 70
     1
  9
$DIMSHO
 70
     1
  9
$DIMPOST
  1

  9
$DIMAPOST
  1

  9
$DIMALT
 70
     0
  9
$DIMALTD
 70
     3
  9
$DIMALTF
 40
0.0393700787
  9
$DIMLFAC
 40
1.0
  9
$DIMTOFL
 70
     1
  9
$DIMTVP
 40
0.0
  9
$DIMTIX
 70
     0
  9
$DIMSOXD
 70
     0
  9
$DIMSAH
 70
     0
  9
$DIMBLK1
  1

  9
$DIMBLK2
  1

  9
$DIMSTYLE
  2
ISO-25
  9
$DIMCLRD
 70
     0
  9
$DIMCLRE
 70
     0
  9
$DIMCLRT
 70
     0
  9
$DIMTFAC
 40
1.0
  9
$DIMGAP
 40
1.524
  9
$DIMJUST
 70
     0
  9
$DIMSD1
 70
     0
  9
$DIMSD2
 70
     0
  9
$DIMTOLJ
 70
     0
  9
$DIMTZIN
 70
     0
  9
$DIMALTZ
 70
     0
  9
$DIMALTTZ
 70
     0
  9
$DIMUPT
 70
     0
  9
$DIMDEC
 70
     2
  9
$DIMTDEC
 70
     2
  9
$DIMALTU
 70
     2
  9
$DIMALTTD
 70
     3
  9
$DIMTXSTY
  7
STANDARD
  9
$DIMAUNIT
 70
     0
  9
$DIMADEC
 70
     2
  9
$DIMALTRND
 40
0.0
  9
$DIMAZIN
 70
     0
  9
$DIMDSEP
 70
    44
  9
$DIMATFIT
 70
     3
  9
$DIMFRAC
 70
     0
  9
$DIMLDRBLK
  1

  9
$DIMLUNIT
 70
     2
  9
$DIMLWD
 70
    -2
  9
$DIMLWE
 70
    -2
  9
$DIMTMOVE
 70
     0
  9
$DIMFXL
 40
1.0
  9
$DIMFXLON
 70
     0
  9
$DIMJOGANG
 40
0.7853981634
  9
$DIMTFILL
 70
     0
  9
$DIMTFILLCLR
 70
     0
  9
$DIMARCSYM
 70
     0
  9
$DIMLTYPE
  6

  9
$DIMLTEX1
  6

  9
$DIMLTEX2
  6

  9
$DIMTXTDIRECTION
 70
     0
  9
$LUNITS
 70
     2
  9
$LUPREC
 70
     2
  9
$SKETCHINC
 40
1.0
  9
$FILLETRAD
 40
10.0
  9
$AUNITS
 70
     0
  9
$AUPREC
 70
     2
  9
$MENU
  1
.
  9
$ELEVATION
 40
0.0
  9
$PELEVATION
 40
0.0
  9
$THICKNESS
 40
0.0
  9
$LIMCHECK
 70
     0
  9
$CHAMFERA
 40
0.0
  9
$CHAMFERB
 40
0.0
  9
$CHAMFERC
 40
0.0
  9
$CHAMFERD
 40
0.0
  9
$SKPOLY
 70
     0
  9
$TDCREATE
 40
2458299.473325856
  9
$TDUCREATE
 40
2458299.389992523
  9
$TDUPDATE
 40
2458299.473351921
  9
$TDUUPDATE
 40
2458299.390018588
  9
$TDINDWG
 40
0.0000000116
  9
$TDUSRTIMER
 40
0.0000000116
  9
$USRTIMER
 70
     1
  9
$ANGBASE
 50
0.0
  9
$ANGDIR
 70
     0
  9
$PDMODE
 70
     0
  9
$PDSIZE
 40
-1.0
  9
$PLINEWID
 40
0.0
  9
$SPLFRAME
 70
     0
  9
$SPLINETYPE
 70
     6
  9
$SPLINESEGS
 70
     8
  9
$HANDSEED
  5
12B
  9
$SURFTAB1
 70
     6
  9
$SURFTAB2
 70
     6
  9
$SURFTYPE
 70
     6
  9
$SURFU
 70
     6
  9
$SURFV
 70
     6
  9
$UCSBASE
  2

  9
$UCSNAME
  2

  9
$UCSORG
 10
0.0
 20
0.0
 30
0.0
  9
$UCSXDIR
 10
1.0
 20
0.0
 30
0.0
  9
$UCSYDIR
 10
0.0
 20
1.0
 30
0.0
  9
$UCSORTHOREF
  2

  9
$UCSORTHOVIEW
 70
     0
  9
$UCSORGTOP
 10
0.0
 20
0.0
 30
0.0
  9
$UCSORGBOTTOM
 10
0.0
 20
0.0
 30
0.0
  9
$UCSORGLEFT
 10
0.0
 20
0.0
 30
0.0
  9
$UCSORGRIGHT
 10
0.0
 20
0.0
 30
0.0
  9
$UCSORGFRONT
 10
0.0
 20
0.0
 30
0.0
  9
$UCSORGBACK
 10
0.0
 20
0.0
 30
0.0
  9
$PUCSBASE
  2

  9
$PUCSNAME
  2

  9
$PUCSORG
 10
0.0
 20
0.0
 30
0.0
  9
$PUCSXDIR
 10
1.0
 20
0.0
 30
0.0
  9
$PUCSYDIR
 10
0.0
 20
1.0
 30
0.0
  9
$PUCSORTHOREF
  2

  9
$PUCSORTHOVIEW
 70
     0
  9
$PUCSORGTOP
 10
0.0
 20
0.0
 30
0.0
  9
$PUCSORGBOTTOM
 10
0.0
 20
0.0
 30
0.0
  9
$PUCSORGLEFT
 10
0.0
 20
0.0
 30
0.0
  9
$PUCSORGRIGHT
 10
0.0
 20
0.0
 30
0.0
  9
$PUCSORGFRONT
 10
0.0
 20
0.0
 30
0.0
  9
$PUCSORGBACK
 10
0.0
 20
0.0
 30
0.0
  9
$USERI1
 70
     0
  9
$USERI2
 70
     0
  9
$USERI3
 70
     0
  9
$USERI4
 70
     0
  9
$USERI5
 70
     0
  9
$USERR1
 40
0.0
  9
$USERR2
 40
0.0
  9
$USERR3
 40
0.0
  9
$USERR4
 40
0.0
  9
$USERR5
 40
0.0
  9
$WORLDVIEW
 70
     1
  9
$SHADEDGE
 70
     3
  9
$SHADEDIF
 70
    70
  9
$TILEMODE
 70
     1
  9
$MAXACTVP
 70
    64
  9
$PINSBASE
 10
0.0
 20
0.0
 30
0.0
  9
$PLIMCHECK
 70
     0
  9
$PEXTMIN
 10
-195.0
 20
0.0
 30
0.0
  9
$PEXTMAX
 10
195.0
 20
160.0
 30
0.0
  9
$PLIMMIN
 10
-225.3501945526
 20
-11.3813229572
  9
$PLIMMAX
 10
225.3501945525
 20
307.2957198444
  9
$UNITMODE
 70
     0
  9
$VISRETAIN
 70
     1
  9
$PLINEGEN
 70
     0
  9
$PSLTSCALE
 70
     1
  9
$TREEDEPTH
 70
  3020
  9
$CMLSTYLE
  2
Standard
  9
$CMLJUST
 70
     0
  9
$CMLSCALE
 40
20.0
  9
$PROXYGRAPHICS
 70
     1
  9
$MEASUREMENT
 70
     1
  9
$CELWEIGHT
370
    -1
  9
$ENDCAPS
280
     0
  9
$JOINSTYLE
280
     0
  9
$LWDISPLAY
290
     1
  9
$INSUNITS
 70
     4
  9
$HYPERLINKBASE
  1

  9
$STYLESHEET
  1

  9
$XEDIT
290
     1
  9
$CEPSNTYPE
380
     0
  9
$PSTYLEMODE
290
     1
  9
$FINGERPRINTGUID
  2
{A113E988-19D0-4A19-A694-94C57CD13E3B}
  9
$VERSIONGUID
  2
{FAEB1C32-E019-11D5-929B-00C0DF256EC4}
  9
$EXTNAMES
290
     1
  9
$PSVPSCALE
 40
0.0
  9
$OLESTARTUP
290
     0
  9
$SORTENTS
280
   127
  9
$INDEXCTL
280
     0
  9
$HIDETEXT
280
     1
  9
$XCLIPFRAME
280
     2
  9
$HALOGAP
280
     0
  9
$OBSCOLOR
 70
   257
  9
$OBSLTYPE
280
     0
  9
$INTERSECTIONDISPLAY
280
     0
  9
$INTERSECTIONCOLOR
 70
   257
  9
$DIMASSOC
280
     2
  9
$PROJECTNAME
  1

  9
$CAMERADISPLAY
290
     0
  9
$LENSLENGTH
 40
50.0
  9
$CAMERAHEIGHT
 40
0.0
  9
$STEPSPERSEC
 40
2.0
  9
$STEPSIZE
 40
6.0
  9
$3DDWFPREC
 40
2.0
  9
$PSOLWIDTH
 40
5.0
  9
$PSOLHEIGHT
 40
80.0
  9
$LOFTANG1
 40
1.5707963268
  9
$LOFTANG2
 40
1.5707963268
  9
$LOFTMAG1
 40
0.0
  9
$LOFTMAG2
 40
0.0
  9
$LOFTPARAM
 70
     7
  9
$LOFTNORMALS
280
     1
  9
$LATITUDE
 40
37.795
  9
$LONGITUDE
 40
-122.394
  9
$NORTHDIRECTION
 40
0.0
  9
$TIMEZONE
 70
 -8000
  9
$LIGHTGLYPHDISPLAY
280
     1
  9
$TILEMODELIGHTSYNCH
280
     1
  9
$CMATERIAL
347
44
  9
$SOLIDHIST
280
     0
  9
$SHOWHIST
280
     1
  9
$DWFFRAME
280
     2
  9
$DGNFRAME
280
     2
  9
$REALWORLDSCALE
290
     1
  9
$INTERFERECOLOR
 62
   256
  9
$CSHADOW
280
     0
  9
$SHADOWPLANELOCATION
 40
0.0
  0
ENDSEC
  0
SECTION
  2
CLASSES
  0
CLASS
  1
ACDBDICTIONARYWDFLT
  2
AcDbDictionaryWithDefault
  3
ObjectDBX Classes
 90
        0
 91
        4
280
     0
281
     0
  0
CLASS
  1
VISUALSTYLE
  2
AcDbVisualStyle
  3
ObjectDBX Classes
 90
     4095
 91
        4
280
     0
281
     0
  0
CLASS
  1
MATERIAL
  2
AcDbMaterial
  3
ObjectDBX Classes
 90
     1153
 91
        4
280
     0
281
     0
  0
CLASS
  1
SCALE
  2
AcDbScale
  3
ObjectDBX Classes
 90
     1153
 91
        4
280
     0
281
     0
  0
CLASS
  1
TABLESTYLE
  2
AcDbTableStyle
  3
ObjectDBX Classes
 90
     4095
 91
        4
280
     0
281
     0
  0
CLASS
  1
MLEADERSTYLE
  2
AcDbMLeaderStyle
  3
ACDB_MLEADERSTYLE_CLASS
 90
     4095
 91
        4
280
     0
281
     0
  0
CLASS
  1
SUN
  2
AcDbSun
  3
SCENEOE
 90
     1153
 91
        4
280
     0
281
     0
  0
CLASS
  1
DICTIONARYVAR
  2
AcDbDictionaryVar
  3
ObjectDBX Classes
 90
        0
 91
        4
280
     0
281
     0
  0
CLASS
  1
CELLSTYLEMAP
  2
AcDbCellStyleMap
  3
ObjectDBX Classes
 90
     1152
 91
        4
280
     0
281
     0
  0
ENDSEC
  0
SECTION
  2
TABLES
  0
TABLE
  2
VPORT
  5
8
330
0
100
AcDbSymbolTable
 70
     1
  0
VPORT
  5
29
330
8
100
AcDbSymbolTableRecord
100
AcDbViewportTableRecord
  2
*Active
 70
     0
 10
0.0
 20
0.0
 11
1.0
 21
1.0
 12
0.0
 22
0.0
 13
0.0
 23
0.0
 14
10.0
 24
10.0
 15
10.0
 25
10.0
 16
0.0
 26
0.0
 36
1.0
 17
0.0
 27
0.0
 37
0.0
 40
397.8
 41
1.0
 42
50.0
 43
0.0
 44
0.0
 50
0.0
 51
0.0
 71
     0
 72
   100
 73
     1
 74
     3
 75
     0
 76
     0
 77
     0
 78
     0
281
     0
 65
     1
110
0.0
120
0.0
130
0.0
111
1.0
121
0.0
131
0.0
112
0.0
122
1.0
132
0.0
 79
     0
146
0.0
348
2F
 60
     3
 61
     5
292
     1
282
     1
141
0.0
142
0.0
 63
   250
361
6D
  0
ENDTAB
  0
TABLE
  2
LTYPE
  5
5
330
0
100
AcDbSymbolTable
 70
     6
  0
LTYPE
  5
14
330
5
100
AcDbSymbolTableRecord
100
AcDbLinetypeTableRecord
  2
ByBlock
 70
     0
  3

 72
    65
 73
     0
 40
0.0
  0
LTYPE
  5
15
330
5
100
AcDbSymbolTableRecord
100
AcDbLinetypeTableRecord
  2
ByLayer
 70
     0
  3

 72
    65
 73
     0
 40
0.0
  0
LTYPE
  5
16
330
5
100
AcDbSymbolTableRecord
100
AcDbLinetypeTableRecord
  2
Continuous
 70
     0
  3
Solid line
 72
    65
 73
     0
 40
0.0
  0
LTYPE
  5
6E
330
5
100
AcDbSymbolTableRecord
100
AcDbLinetypeTableRecord
  2
HIDDEN
 70
     0
  3
Hidden __ __ __ __ __ __ __ __ __ __ __ __ __ __
 72
    65
 73
     2
 40
1.905
 49
1.27
 74
     0
 49
-0.635
 74
     0
  0
LTYPE
  5
6F
330
5
100
AcDbSymbolTableRecord
100
AcDbLinetypeTableRecord
  2
PHANTOM
 70
     0
  3
Phantom ______  __  __  ______  __  __  ______
 72
    65
 73
     6
 40
12.7
 49
6.35
 74
     0
 49
-1.27
 74
     0
 49
1.27
 74
     0
 49
-1.27
 74
     0
 49
1.27
 74
     0
 49
-1.27
 74
     0
  0
LTYPE
  5
70
330
5
100
AcDbSymbolTableRecord
100
AcDbLinetypeTableRecord
  2
CENTER
 70
     0
  3
Center ____ _ ____ _ ____ _ ____ _ ____ _ ____
 72
    65
 73
     4
 40
10.16
 49
6.35
 74
     0
 49
-1.27
 74
     0
 49
1.27
 74
     0
 49
-1.27
 74
     0
  0
LTYPE
  5
71
330
5
100
AcDbSymbolTableRecord
100
AcDbLinetypeTableRecord
  2
CENTERX2
 70
     0
  3
Center (2x) ________  __  ________  __  _____
 72
    65
 73
     4
 40
20.32
 49
12.7
 74
     0
 49
-2.54
 74
     0
 49
2.54
 74
     0
 49
-2.54
 74
     0
  0
LTYPE
  5
72
330
5
100
AcDbSymbolTableRecord
100
AcDbLinetypeTableRecord
  2
DOT2
 70
     0
  3
Dot (.5x) ........................................
 72
    65
 73
     2
 40
0.635
 49
0.0
 74
     0
 49
-0.635
 74
     0
  0
ENDTAB
  0
TABLE
  2
LAYER
  5
2
330
0
100
AcDbSymbolTable
 70
     1
  0
LAYER
  5
10
330
2
100
AcDbSymbolTableRecord
100
AcDbLayerTableRecord
  2
0
 70
     0
 62
     7
  6
Continuous
370
    -3
390
F
347
46
348
0
  0
ENDTAB
  0
TABLE
  2
STYLE
  5
3
330
0
100
AcDbSymbolTable
 70
     1
  0
STYLE
  5
11
330
3
100
AcDbSymbolTableRecord
100
AcDbTextStyleTableRecord
  2
STANDARD
 70
     0
 40
0.0
 41
1.0
 50
0.0
 71
     0
 42
3.5
  3
GOTHIC.TTF
  4

1001
ACAD
1000
CENTURY GOTHIC
1071
       34
  0
ENDTAB
  0
TABLE
  2
VIEW
  5
6
330
0
100
AcDbSymbolTable
 70
     0
  0
ENDTAB
  0
TABLE
  2
UCS
  5
7
330
0
100
AcDbSymbolTable
 70
     0
  0
ENDTAB
  0
TABLE
  2
APPID
  5
9
330
0
100
AcDbSymbolTable
 70
     1
  0
APPID
  5
12
330
9
100
AcDbSymbolTableRecord
100
AcDbRegAppTableRecord
  2
ACAD
 70
     0
  0
ENDTAB
  0
TABLE
  2
DIMSTYLE
  5
A
330
0
100
AcDbSymbolTable
 70
     1
100
AcDbDimStyleTable
  0
DIMSTYLE
105
27
330
A
100
AcDbSymbolTableRecord
100
AcDbDimStyleTableRecord
  2
ISO-25
 70
     0
 41
2.5
 42
0.625
 43
3.75
 44
1.25
 73
     0
 74
     0
 77
     1
 78
     8
140
2.5
141
2.5
143
0.0393700787
147
0.625
171
     3
172
     1
178
     0
271
     2
272
     2
274
     3
278
    44
283
     0
284
     8
340
11
  0
ENDTAB
  0
TABLE
  2
BLOCK_RECORD
  5
1
330
0
100
AcDbSymbolTable
 70
     8
  0
BLOCK_RECORD
  5
1F
330
1
100
AcDbSymbolTableRecord
100
AcDbBlockTableRecord
  2
*Model_Space
340
22
 70
     0
280
     1
281
     0
  0
BLOCK_RECORD
  5
1B
330
1
100
AcDbSymbolTableRecord
100
AcDbBlockTableRecord
  2
*Paper_Space
340
1E
 70
     0
280
     1
281
     0
  0
BLOCK_RECORD
  5
23
330
1
100
AcDbSymbolTableRecord
100
AcDbBlockTableRecord
  2
*Paper_Space0
340
26
 70
     0
280
     1
281
     0
  0
BLOCK_RECORD
  5
9F
330
1
100
AcDbSymbolTableRecord
100
AcDbBlockTableRecord
  2
*Paper_Space1
340
A0
 70
     0
280
     1
281
     0
  0
BLOCK_RECORD
  5
B7
330
1
100
AcDbSymbolTableRecord
100
AcDbBlockTableRecord
  2
*Paper_Space2
340
B8
 70
     0
280
     1
281
     0
  0
BLOCK_RECORD
  5
D3
330
1
100
AcDbSymbolTableRecord
100
AcDbBlockTableRecord
  2
*Paper_Space3
340
D4
 70
     0
280
     1
281
     0
  0
BLOCK_RECORD
  5
EB
330
1
100
AcDbSymbolTableRecord
100
AcDbBlockTableRecord
  2
*Paper_Space4
340
EC
 70
     0
280
     1
281
     0
  0
BLOCK_RECORD
  5
F3
330
1
100
AcDbSymbolTableRecord
100
AcDbBlockTableRecord
  2
*Paper_Space5
340
F4
 70
     0
280
     1
281
     0
  0
BLOCK_RECORD
  5
FC
330
1
100
AcDbSymbolTableRecord
100
AcDbBlockTableRecord
  2
*Paper_Space6
340
FD
 70
     0
280
     1
281
     0
  0
BLOCK_RECORD
  5
105
330
1
100
AcDbSymbolTableRecord
100
AcDbBlockTableRecord
  2
*Paper_Space7
340
106
 70
     0
280
     1
281
     0
  0
ENDTAB
  0
ENDSEC
  0
SECTION
  2
BLOCKS
  0
BLOCK
  5
20
330
1F
100
AcDbEntity
  8
0
100
AcDbBlockBegin
  2
*Model_Space
 70
     0
 10
0.0
 20
0.0
 30
0.0
  3
*Model_Space
  1

  0
ENDBLK
  5
21
330
1F
100
AcDbEntity
  8
0
100
AcDbBlockEnd
  0
BLOCK
  5
1C
330
1B
100
AcDbEntity
 67
     1
  8
0
100
AcDbBlockBegin
  2
*Paper_Space
 70
     0
 10
0.0
 20
0.0
 30
0.0
  3
*Paper_Space
  1

  0
ENDBLK
  5
1D
330
1B
100
AcDbEntity
 67
     1
  8
0
100
AcDbBlockEnd
  0
BLOCK
  5
24
330
23
100
AcDbEntity
  8
0
100
AcDbBlockBegin
  2
*Paper_Space0
 70
     0
 10
0.0
 20
0.0
 30
0.0
  3
*Paper_Space0
  1

  0
LINE
  5
95
330
23
100
AcDbEntity
  8
0
  6
Continuous
 62
     7
370
    25
100
AcDbLine
 10
55.0
 20
0.0
 30
0.0
 11
55.0
 21
6.351875518
 31
0.0
  0
LINE
  5
96
330
23
100
AcDbEntity
  8
0
  6
Continuous
 62
     7
370
    25
100
AcDbLine
 10
-55.0
 20
6.351875518
 30
0.0
 11
-55.0
 21
0.0
 31
0.0
  0
LINE
  5
97
330
23
100
AcDbEntity
  8
0
  6
Continuous
 62
     7
370
    25
100
AcDbLine
 10
195.0
 20
160.0
 30
0.0
 11
-195.0
 21
160.0
 31
0.0
  0
LINE
  5
98
330
23
100
AcDbEntity
  8
0
  6
Continuous
 62
     7
370
    25
100
AcDbLine
 10
55.0
 20
0.0
 30
0.0
 11
-55.0
 21
0.0
 31
0.0
  0
LINE
  5
99
330
23
100
AcDbEntity
  8
0
  6
Continuous
 62
    60
370
    25
100
AcDbLine
 10
58.4329340544
 20
11.0999597972
 30
0.0
 11
-58.4329340544
 21
11.0999597972
 31
0.0
  0
LINE
  5
9A
330
23
100
AcDbEntity
  8
0
  6
Continuous
 62
    60
370
    25
100
AcDbLine
 10
55.0
 20
6.351875518
 30
0.0
 11
-55.0
 21
6.351875518
 31
0.0
  0
ARC
  5
9B
330
23
100
AcDbEntity
  8
0
  6
Continuous
 62
     7
370
    25
100
AcDbCircle
 10
6.4483851758
 20
207.6851594975
 30
0.0
 40
207.0152804173015
100
AcDbArc
 50
193.3174481008
 51
251.7349539812
  0
ARC
  5
9C
330
23
100
AcDbEntity
  8
0
  6
Continuous
 62
     7
370
    25
100
AcDbCircle
 10
-6.4483851758
 20
207.6851594975
 30
0.0
 40
207.0152804173015
100
AcDbArc
 50
288.2650460188
 51
346.6825518992
  0
ARC
  5
9D
330
23
100
AcDbEntity
  8
0
  6
Continuous
 62
     7
370
    25
100
AcDbCircle
 10
60.0
 20
6.351875518
 30
0.0
 40
4.999999999999986
100
AcDbArc
 50
108.2650460188
 51
180.0
  0
ARC
  5
9E
330
23
100
AcDbEntity
  8
0
  6
Continuous
 62
     7
370
    25
100
AcDbCircle
 10
-60.0
 20
6.351875518
 30
0.0
 40
4.999999999999972
100
AcDbArc
 50
0.0
 51
71.7349539812
  0
VIEWPORT
  5
112
330
23
100
AcDbEntity
  8
0
100
AcDbViewport
 10
0.0
 20
0.0
 30
0.0
 40
205.6
 41
156.0
 68
     1
 69
     1
 12
0.0
 22
0.0
 13
0.0
 23
0.0
 14
10.0
 24
10.0
 15
10.0
 25
10.0
 16
0.0
 26
0.0
 36
1.0
 17
0.0
 27
0.0
 37
0.0
 42
50.0
 43
0.0
 44
0.0
 45
397.8
 50
0.0
 51
0.0
 72
   100
 90
   557152
  1

281
     0
 71
     1
 74
     0
110
0.0
120
0.0
130
0.0
111
1.0
121
0.0
131
0.0
112
0.0
122
1.0
132
0.0
 79
     0
146
0.0
170
     0
 61
     5
348
2F
292
     1
282
     1
141
0.0
142
0.0
 63
   256
361
113
  0
ENDBLK
  5
25
330
23
100
AcDbEntity
  8
0
100
AcDbBlockEnd
  0
BLOCK
  5
A1
330
9F
100
AcDbEntity
  8
0
100
AcDbBlockBegin
  2
*Paper_Space1
 70
     0
 10
0.0
 20
0.0
 30
0.0
  3
*Paper_Space1
  1

  0
LINE
  5
AD
330
9F
100
AcDbEntity
  8
0
  6
Continuous
 62
     7
370
    25
100
AcDbLine
 10
55.0
 20
0.0
 30
0.0
 11
55.0
 21
6.351875518
 31
0.0
  0
LINE
  5
AE
330
9F
100
AcDbEntity
  8
0
  6
Continuous
 62
     7
370
    25
100
AcDbLine
 10
-55.0
 20
6.351875518
 30
0.0
 11
-55.0
 21
0.0
 31
0.0
  0
LINE
  5
AF
330
9F
100
AcDbEntity
  8
0
  6
Continuous
 62
     7
370
    25
100
AcDbLine
 10
195.0
 20
160.0
 30
0.0
 11
-195.0
 21
160.0
 31
0.0
  0
LINE
  5
B0
330
9F
100
AcDbEntity
  8
0
  6
Continuous
 62
     7
370
    25
100
AcDbLine
 10
55.0
 20
0.0
 30
0.0
 11
-55.0
 21
0.0
 31
0.0
  0
LINE
  5
B1
330
9F
100
AcDbEntity
  8
0
  6
Continuous
 62
    60
370
    25
100
AcDbLine
 10
58.4329340544
 20
11.0999597972
 30
0.0
 11
-58.4329340544
 21
11.0999597972
 31
0.0
  0
LINE
  5
B2
330
9F
100
AcDbEntity
  8
0
  6
Continuous
 62
    60
370
    25
100
AcDbLine
 10
55.0
 20
6.351875518
 30
0.0
 11
-55.0
 21
6.351875518
 31
0.0
  0
ARC
  5
B3
330
9F
100
AcDbEntity
  8
0
  6
Continuous
 62
     7
370
    25
100
AcDbCircle
 10
6.4483851758
 20
207.6851594975
 30
0.0
 40
207.0152804173015
100
AcDbArc
 50
193.3174481008
 51
251.7349539812
  0
ARC
  5
B4
330
9F
100
AcDbEntity
  8
0
  6
Continuous
 62
     7
370
    25
100
AcDbCircle
 10
-6.4483851758
 20
207.6851594975
 30
0.0
 40
207.0152804173015
100
AcDbArc
 50
288.2650460188
 51
346.6825518992
  0
ARC
  5
B5
330
9F
100
AcDbEntity
  8
0
  6
Continuous
 62
     7
370
    25
100
AcDbCircle
 10
60.0
 20
6.351875518
 30
0.0
 40
4.999999999999986
100
AcDbArc
 50
108.2650460188
 51
180.0
  0
ARC
  5
B6
330
9F
100
AcDbEntity
  8
0
  6
Continuous
 62
     7
370
    25
100
AcDbCircle
 10
-60.0
 20
6.351875518
 30
0.0
 40
4.999999999999972
100
AcDbArc
 50
0.0
 51
71.7349539812
  0
VIEWPORT
  5
114
330
9F
100
AcDbEntity
  8
0
100
AcDbViewport
 10
0.0
 20
0.0
 30
0.0
 40
205.6
 41
156.0
 68
     1
 69
     1
 12
0.0
 22
0.0
 13
0.0
 23
0.0
 14
10.0
 24
10.0
 15
10.0
 25
10.0
 16
0.0
 26
0.0
 36
1.0
 17
0.0
 27
0.0
 37
0.0
 42
50.0
 43
0.0
 44
0.0
 45
397.8
 50
0.0
 51
0.0
 72
   100
 90
   557152
  1

281
     0
 71
     1
 74
     0
110
0.0
120
0.0
130
0.0
111
1.0
121
0.0
131
0.0
112
0.0
122
1.0
132
0.0
 79
     0
146
0.0
170
     0
 61
     5
348
2F
292
     1
282
     1
141
0.0
142
0.0
 63
   256
361
115
  0
ENDBLK
  5
A2
330
9F
100
AcDbEntity
  8
0
100
AcDbBlockEnd
  0
BLOCK
  5
B9
330
B7
100
AcDbEntity
  8
0
100
AcDbBlockBegin
  2
*Paper_Space2
 70
     0
 10
0.0
 20
0.0
 30
0.0
  3
*Paper_Space2
  1

  0
LINE
  5
C9
330
B7
100
AcDbEntity
  8
0
  6
Continuous
 62
     7
370
    25
100
AcDbLine
 10
55.0
 20
0.0
 30
0.0
 11
55.0
 21
6.351875518
 31
0.0
  0
LINE
  5
CA
330
B7
100
AcDbEntity
  8
0
  6
Continuous
 62
     7
370
    25
100
AcDbLine
 10
-55.0
 20
6.351875518
 30
0.0
 11
-55.0
 21
0.0
 31
0.0
  0
LINE
  5
CB
330
B7
100
AcDbEntity
  8
0
  6
Continuous
 62
     7
370
    25
100
AcDbLine
 10
195.0
 20
160.0
 30
0.0
 11
-195.0
 21
160.0
 31
0.0
  0
LINE
  5
CC
330
B7
100
AcDbEntity
  8
0
  6
Continuous
 62
     7
370
    25
100
AcDbLine
 10
55.0
 20
0.0
 30
0.0
 11
-55.0
 21
0.0
 31
0.0
  0
LINE
  5
CD
330
B7
100
AcDbEntity
  8
0
  6
Continuous
 62
    60
370
    25
100
AcDbLine
 10
58.4329340544
 20
11.0999597972
 30
0.0
 11
-58.4329340544
 21
11.0999597972
 31
0.0
  0
LINE
  5
CE
330
B7
100
AcDbEntity
  8
0
  6
Continuous
 62
    60
370
    25
100
AcDbLine
 10
55.0
 20
6.351875518
 30
0.0
 11
-55.0
 21
6.351875518
 31
0.0
  0
ARC
  5
CF
330
B7
100
AcDbEntity
  8
0
  6
Continuous
 62
     7
370
    25
100
AcDbCircle
 10
6.4483851758
 20
207.6851594975
 30
0.0
 40
207.0152804173015
100
AcDbArc
 50
193.3174481008
 51
251.7349539812
  0
ARC
  5
D0
330
B7
100
AcDbEntity
  8
0
  6
Continuous
 62
     7
370
    25
100
AcDbCircle
 10
-6.4483851758
 20
207.6851594975
 30
0.0
 40
207.0152804173015
100
AcDbArc
 50
288.2650460188
 51
346.6825518992
  0
ARC
  5
D1
330
B7
100
AcDbEntity
  8
0
  6
Continuous
 62
     7
370
    25
100
AcDbCircle
 10
60.0
 20
6.351875518
 30
0.0
 40
4.999999999999986
100
AcDbArc
 50
108.2650460188
 51
180.0
  0
ARC
  5
D2
330
B7
100
AcDbEntity
  8
0
  6
Continuous
 62
     7
370
    25
100
AcDbCircle
 10
-60.0
 20
6.351875518
 30
0.0
 40
4.999999999999972
100
AcDbArc
 50
0.0
 51
71.7349539812
  0
VIEWPORT
  5
116
330
B7
100
AcDbEntity
  8
0
100
AcDbViewport
 10
0.0
 20
0.0
 30
0.0
 40
205.6
 41
156.0
 68
     1
 69
     1
 12
0.0
 22
0.0
 13
0.0
 23
0.0
 14
10.0
 24
10.0
 15
10.0
 25
10.0
 16
0.0
 26
0.0
 36
1.0
 17
0.0
 27
0.0
 37
0.0
 42
50.0
 43
0.0
 44
0.0
 45
397.8
 50
0.0
 51
0.0
 72
   100
 90
   557152
  1

281
     0
 71
     1
 74
     0
110
0.0
120
0.0
130
0.0
111
1.0
121
0.0
131
0.0
112
0.0
122
1.0
132
0.0
 79
     0
146
0.0
170
     0
 61
     5
348
2F
292
     1
282
     1
141
0.0
142
0.0
 63
   256
361
117
  0
ENDBLK
  5
BA
330
B7
100
AcDbEntity
  8
0
100
AcDbBlockEnd
  0
BLOCK
  5
D5
330
D3
100
AcDbEntity
  8
0
100
AcDbBlockBegin
  2
*Paper_Space3
 70
     0
 10
0.0
 20
0.0
 30
0.0
  3
*Paper_Space3
  1

  0
LINE
  5
E1
330
D3
100
AcDbEntity
  8
0
  6
Continuous
 62
     7
370
    25
100
AcDbLine
 10
55.0
 20
0.0
 30
0.0
 11
55.0
 21
6.351875518
 31
0.0
  0
LINE
  5
E2
330
D3
100
AcDbEntity
  8
0
  6
Continuous
 62
     7
370
    25
100
AcDbLine
 10
-55.0
 20
6.351875518
 30
0.0
 11
-55.0
 21
0.0
 31
0.0
  0
LINE
  5
E3
330
D3
100
AcDbEntity
  8
0
  6
Continuous
 62
     7
370
    25
100
AcDbLine
 10
195.0
 20
160.0
 30
0.0
 11
-195.0
 21
160.0
 31
0.0
  0
LINE
  5
E4
330
D3
100
AcDbEntity
  8
0
  6
Continuous
 62
     7
370
    25
100
AcDbLine
 10
55.0
 20
0.0
 30
0.0
 11
-55.0
 21
0.0
 31
0.0
  0
LINE
  5
E5
330
D3
100
AcDbEntity
  8
0
  6
Continuous
 62
    60
370
    25
100
AcDbLine
 10
58.4329340544
 20
11.0999597972
 30
0.0
 11
-58.4329340544
 21
11.0999597972
 31
0.0
  0
LINE
  5
E6
330
D3
100
AcDbEntity
  8
0
  6
Continuous
 62
    60
370
    25
100
AcDbLine
 10
55.0
 20
6.351875518
 30
0.0
 11
-55.0
 21
6.351875518
 31
0.0
  0
ARC
  5
E7
330
D3
100
AcDbEntity
  8
0
  6
Continuous
 62
     7
370
    25
100
AcDbCircle
 10
6.4483851758
 20
207.6851594975
 30
0.0
 40
207.0152804173015
100
AcDbArc
 50
193.3174481008
 51
251.7349539812
  0
ARC
  5
E8
330
D3
100
AcDbEntity
  8
0
  6
Continuous
 62
     7
370
    25
100
AcDbCircle
 10
-6.4483851758
 20
207.6851594975
 30
0.0
 40
207.0152804173015
100
AcDbArc
 50
288.2650460188
 51
346.6825518992
  0
ARC
  5
E9
330
D3
100
AcDbEntity
  8
0
  6
Continuous
 62
     7
370
    25
100
AcDbCircle
 10
60.0
 20
6.351875518
 30
0.0
 40
4.999999999999986
100
AcDbArc
 50
108.2650460188
 51
180.0
  0
ARC
  5
EA
330
D3
100
AcDbEntity
  8
0
  6
Continuous
 62
     7
370
    25
100
AcDbCircle
 10
-60.0
 20
6.351875518
 30
0.0
 40
4.999999999999972
100
AcDbArc
 50
0.0
 51
71.7349539812
  0
VIEWPORT
  5
118
330
D3
100
AcDbEntity
  8
0
100
AcDbViewport
 10
0.0
 20
0.0
 30
0.0
 40
205.6
 41
156.0
 68
     1
 69
     1
 12
0.0
 22
0.0
 13
0.0
 23
0.0
 14
10.0
 24
10.0
 15
10.0
 25
10.0
 16
0.0
 26
0.0
 36
1.0
 17
0.0
 27
0.0
 37
0.0
 42
50.0
 43
0.0
 44
0.0
 45
397.8
 50
0.0
 51
0.0
 72
   100
 90
   557152
  1

281
     0
 71
     1
 74
     0
110
0.0
120
0.0
130
0.0
111
1.0
121
0.0
131
0.0
112
0.0
122
1.0
132
0.0
 79
     0
146
0.0
170
     0
 61
     5
348
2F
292
     1
282
     1
141
0.0
142
0.0
 63
   256
361
119
  0
ENDBLK
  5
D6
330
D3
100
AcDbEntity
  8
0
100
AcDbBlockEnd
  0
BLOCK
  5
ED
330
EB
100
AcDbEntity
  8
0
100
AcDbBlockBegin
  2
*Paper_Space4
 70
     0
 10
0.0
 20
0.0
 30
0.0
  3
*Paper_Space4
  1

  0
CIRCLE
  5
EF
330
EB
100
AcDbEntity
  8
0
  6
Continuous
 62
     7
370
    25
100
AcDbCircle
 10
0.0
 20
0.0
 30
0.0
 40
54.99999999999999
  0
CIRCLE
  5
F0
330
EB
100
AcDbEntity
  8
0
  6
Continuous
 62
     7
370
    25
100
AcDbCircle
 10
0.0
 20
0.0
 30
0.0
 40
22.99999999999999
  0
CIRCLE
  5
F1
330
EB
100
AcDbEntity
  8
0
  6
Continuous
 62
     7
370
    25
100
AcDbCircle
 10
0.0
 20
0.0
 30
0.0
 40
58.43293405444509
  0
CIRCLE
  5
F2
330
EB
100
AcDbEntity
  8
0
  6
Continuous
 62
     7
370
    25
100
AcDbCircle
 10
0.0
 20
0.0
 30
0.0
 40
194.9999999999997
  0
VIEWPORT
  5
11A
330
EB
100
AcDbEntity
  8
0
100
AcDbViewport
 10
0.0
 20
0.0
 30
0.0
 40
205.6
 41
156.0
 68
     1
 69
     1
 12
0.0
 22
0.0
 13
0.0
 23
0.0
 14
10.0
 24
10.0
 15
10.0
 25
10.0
 16
0.0
 26
0.0
 36
1.0
 17
0.0
 27
0.0
 37
0.0
 42
50.0
 43
0.0
 44
0.0
 45
397.8
 50
0.0
 51
0.0
 72
   100
 90
   557152
  1

281
     0
 71
     1
 74
     0
110
0.0
120
0.0
130
0.0
111
1.0
121
0.0
131
0.0
112
0.0
122
1.0
132
0.0
 79
     0
146
0.0
170
     0
 61
     5
348
2F
292
     1
282
     1
141
0.0
142
0.0
 63
   256
361
11B
  0
ENDBLK
  5
EE
330
EB
100
AcDbEntity
  8
0
100
AcDbBlockEnd
  0
BLOCK
  5
F5
330
F3
100
AcDbEntity
  8
0
100
AcDbBlockBegin
  2
*Paper_Space5
 70
     0
 10
0.0
 20
0.0
 30
0.0
  3
*Paper_Space5
  1

  0
SPLINE
  5
F7
330
F3
100
AcDbEntity
  8
0
  6
Continuous
 62
     7
370
    25
100
AcDbSpline
210
0.0
220
0.0
230
1.0
 70
     8
 71
     3
 72
    73
 73
    69
 74
     0
 42
0.000000001
 43
0.00000001
 40
0.0
 40
0.0
 40
0.0
 40
0.0
 40
0.0086935457241338
 40
0.0240007224797703
 40
0.0392752838444695
 40
0.0545171917123964
 40
0.0697264141018277
 40
0.0849029312961056
 40
0.1000467434244785
 40
0.1151578797443274
 40
0.1302364099402916
 40
0.1452824578166012
 40
0.1602962178255833
 40
0.1752779749463403
 40
0.1902281284994952
 40
0.2051472205503691
 40
0.2200359696045615
 40
0.2348953103212824
 40
0.2497264399407495
 40
0.2645308720140963
 40
0.279310497804153
 40
0.2940676553553754
 40
0.3088052056770566
 40
0.3235266147250763
 40
0.338236038910759
 40
0.3529384107544826
 40
0.3676395201084137
 40
0.3823460851465909
 40
0.3970658059748114
 40
0.4118073918659154
 40
0.4265805500046953
 40
0.4413959182932358
 40
0.4562649170019856
 40
0.4711994859432748
 40
0.4862116712863574
 40
0.501313038287848
 40
0.5165139209518523
 40
0.5318214084619971
 40
0.5472400755204953
 40
0.5627719457753975
 40
0.5784153887187327
 40
0.5941651950963353
 40
0.6100130386810333
 40
0.6259482240084374
 40
0.6419585667877802
 40
0.6580312536332414
 40
0.6741535695085135
 40
0.6903134386150929
 40
0.7064997742088027
 40
0.7227026639492503
 40
0.7389134300437391
 40
0.7551246034093114
 40
0.7713298446942418
 40
0.7875238368133826
 40
0.8037021660819949
 40
0.819861202988768
 40
0.8359979892187982
 40
0.8521101344748255
 40
0.8681957246253001
 40
0.8842532414373444
 40
0.9002814933992678
 40
0.9162795567299238
 40
0.9322467254889079
 40
0.9481824696587607
 40
0.9640864001102649
 40
0.9799582394473775
 40
0.9957977978346948
 40
1.0
 40
1.0
 40
1.0
 40
1.0
 10
-192.2004678184337
 20
111.7729182775618
 30
0.0
 10
-191.782556042484
 20
110.3345038752639
 30
0.0
 10
-190.6288053320285
 20
106.3633986466322
 30
0.0
 10
-188.417060802793
 20
99.96515676061112
 30
0.0
 10
-185.6008382446212
 20
92.58872684587115
 30
0.0
 10
-182.4954409882464
 20
85.34636107446259
 30
0.0
 10
-179.1245105750291
 20
78.24297591848793
 30
0.0
 10
-175.4900541792555
 20
71.28967579808278
 30
0.0
 10
-171.6002655592425
 20
64.49550981207948
 30
0.0
 10
-167.4620703951738
 20
57.86965899141361
 30
0.0
 10
-163.0830914418294
 20
51.42083862592235
 30
0.0
 10
-158.4710956748421
 20
45.1574454899764
 30
0.0
 10
-153.6341115737051
 20
39.08750738206881
 30
0.0
 10
-148.5803647294695
 20
33.21868695130209
 30
0.0
 10
-143.318258933929
 20
27.5582727947295
 30
0.0
 10
-137.8563417034035
 20
22.11317607989334
 30
0.0
 10
-132.2032701511092
 20
16.88992826544725
 30
0.0
 10
-126.3677725813808
 20
11.89468166490875
 30
0.0
 10
-120.3586067253565
 20
7.133213086476957
 30
0.0
 10
-114.1845141849378
 20
2.610931341880979
 30
0.0
 10
-107.8541712384027
 20
-1.667110564332663
 30
0.0
 10
-101.3761363569356
 20
-5.696197595012761
 30
0.0
 10
-94.75879523728881
 20
-9.471928131216695
 30
0.0
 10
-88.01030471493144
 20
-12.99018162139637
 30
0.0
 10
-81.13853762037056
 20
-16.24707741769246
 30
0.0
 10
-74.151031430406
 20
-19.23892402931984
 30
0.0
 10
-67.05494438862895
 20
-21.96215846637767
 30
0.0
 10
-59.85702356736485
 20
-24.41327600777897
 30
0.0
 10
-52.56359012232809
 20
-26.58875158280891
 30
0.0
 10
-45.18054789768032
 20
-28.4849549643731
 30
0.0
 10
-37.71342288706408
 20
-30.09806313504787
 30
0.0
 10
-30.16744317153986
 20
-31.42397466153905
 30
0.0
 10
-22.54767170116007
 20
-32.45823308688359
 30
0.0
 10
-14.85920633467067
 20
-33.19596970647478
 30
0.0
 10
-7.107459863902342
 20
-33.63188069260184
 30
0.0
 10
0.7014767135571365
 20
-33.76025819785946
 30
0.0
 10
8.560203397555858
 20
-33.57510159991241
 30
0.0
 10
16.45962680323184
 20
-33.07035623038708
 30
0.0
 10
24.3887319421018
 20
-32.24021875949043
 30
0.0
 10
32.33454412585326
 20
-31.0794514347966
 30
0.0
 10
40.28201375425235
 20
-29.58373449817556
 30
0.0
 10
48.21402664301616
 20
-27.75003715074469
 30
0.0
 10
56.11176159674559
 20
-25.57690703881871
 30
0.0
 10
63.95520063754397
 20
-23.06464870729909
 30
0.0
 10
71.72370574275408
 20
-20.2153781177099
 30
0.0
 10
79.39657672780736
 20
-17.03296539208169
 30
0.0
 10
86.95352711473352
 20
-13.5228946811335
 30
0.0
 10
94.37504592809687
 20
-9.692075554663449
 30
0.0
 10
101.6426413673395
 20
-5.548636715017458
 30
0.0
 10
108.7389807988306
 20
-1.101724562807535
 30
0.0
 10
115.647949850106
 20
3.63867980916735
 30
0.0
 10
122.3546542498748
 20
8.661918947530781
 30
0.0
 10
128.8453848452798
 20
13.95679144943329
 30
0.0
 10
135.107561567289
 20
19.51166012531236
 30
0.0
 10
141.1296676343248
 20
25.31453897063646
 30
0.0
 10
146.9011813217782
 20
31.35316250753548
 30
0.0
 10
152.4125105308595
 20
37.61504074937558
 30
0.0
 10
157.6549305736058
 20
44.08750349076868
 30
0.0
 10
162.6205346245716
 20
50.7577341691801
 30
0.0
 10
167.3021666637841
 20
57.61280424330811
 30
0.0
 10
171.6934503965238
 20
64.63967703340099
 30
0.0
 10
175.788490579231
 20
71.82530431437078
 30
0.0
 10
179.5828206365966
 20
79.15636281318783
 30
0.0
 10
183.0697365128927
 20
86.62032038024594
 30
0.0
 10
186.2538193652891
 20
94.20154743791306
 30
0.0
 10
189.1005177912954
 20
101.8958600456411
 30
0.0
 10
191.0830323020776
 20
107.7611862742574
 30
0.0
 10
192.0144140483906
 20
111.0862677656909
 30
0.0
 10
192.2096990075541
 20
111.78344527195
 30
0.0
  0
LWPOLYLINE
  5
F8
330
F3
100
AcDbEntity
  8
0
  6
Continuous
 62
     7
370
    25
100
AcDbPolyline
 90
      149
 70
   128
 43
0.0
 10
137.8858223314
 20
210.2463208044
 10
143.613622749
 20
206.7962878027
 10
149.0826217115
 20
203.2090277901
 10
154.2829637131
 20
199.4910052519
 10
159.2052773859
 20
195.6489203158
 10
163.8406923882
 20
191.6896966786
 10
168.1808553886
 20
187.620469129
 10
172.2179451202
 20
183.4485706899
 10
175.9446864744
 20
179.1815194045
 10
179.3543636114
 20
174.8270047874
 10
182.4408320624
 20
170.3928739684
 10
185.1985298028
 20
165.8871175509
 10
187.6224872747
 20
161.3178552126
 10
189.7083363431
 20
156.6933210729
 10
191.4523181669
 20
152.0218488551
 10
192.8512899729
 20
147.3118568677
 10
193.9027307195
 20
142.5718328347
 10
194.6047456394
 20
137.8103185997
 10
194.9560696541
 20
133.0358947334
 10
194.9560696541
 20
128.2571650701
 10
194.6047456394
 20
123.4827412037
 10
193.9027307195
 20
118.7212269688
 10
192.8512899729
 20
113.9812029358
 10
191.4523181669
 20
109.2712109484
 10
189.7083363431
 20
104.5997387305
 10
187.6224872747
 20
99.9752045908
 10
185.1985298028
 20
95.4059422525
 10
182.4408320624
 20
90.900185835
 10
179.3543636114
 20
86.466055016
 10
175.9446864744
 20
82.111540399
 10
172.2179451202
 20
77.8444891135
 10
168.1808553886
 20
73.6725906745
 10
163.8406923882
 20
69.6033631248
 10
159.2052773859
 20
65.6441394877
 10
154.2829637131
 20
61.8020545516
 10
149.0826217115
 20
58.0840320133
 10
143.613622749
 20
54.4967720008
 10
137.8858223314
 20
51.046738999
 10
131.9095423421
 20
47.7401502006
 10
125.6955524417
 20
44.5829643022
 10
119.25505066
 20
41.580870766
 10
112.5996432164
 20
38.7392795676
 10
105.7413236051
 20
36.0633114464
 10
98.6924509815
 20
33.5577886778
 10
91.4657278906
 20
31.2272263832
 10
84.0741773758
 20
29.0758243933
 10
76.5311195107
 20
27.10745968
 10
68.8501473955
 20
25.3256793694
 10
61.0451026611
 20
23.7336943503
 10
53.1300505255
 20
22.3343734871
 10
45.1192544479
 20
21.1302384507
 10
37.027150424
 20
20.1234591737
 10
28.8683209725
 20
19.3158499405
 10
20.6574688553
 20
18.7088661175
 10
12.409390583
 20
18.3036015306
 10
4.1389497501
 20
18.1007864939
 10
-4.1389497501
 20
18.1007864939
 10
-12.409390583
 20
18.3036015306
 10
-20.6574688553
 20
18.7088661175
 10
-28.8683209725
 20
19.3158499405
 10
-37.027150424
 20
20.1234591737
 10
-45.1192544479
 20
21.1302384507
 10
-53.1300505255
 20
22.3343734871
 10
-61.0451026611
 20
23.7336943503
 10
-68.8501473955
 20
25.3256793694
 10
-76.5311195107
 20
27.10745968
 10
-84.0741773758
 20
29.0758243933
 10
-91.4657278906
 20
31.2272263832
 10
-98.6924509815
 20
33.5577886778
 10
-105.7413236051
 20
36.0633114464
 10
-112.5996432164
 20
38.7392795676
 10
-119.25505066
 20
41.580870766
 10
-125.6955524417
 20
44.5829643022
 10
-131.9095423421
 20
47.7401502006
 10
-137.8858223314
 20
51.046738999
 10
-143.613622749
 20
54.4967720008
 10
-149.0826217115
 20
58.0840320133
 10
-154.2829637131
 20
61.8020545516
 10
-159.2052773859
 20
65.6441394877
 10
-163.8406923882
 20
69.6033631248
 10
-168.1808553886
 20
73.6725906745
 10
-172.2179451202
 20
77.8444891135
 10
-175.9446864744
 20
82.111540399
 10
-179.3543636114
 20
86.466055016
 10
-182.4408320624
 20
90.900185835
 10
-185.1985298028
 20
95.4059422525
 10
-187.6224872747
 20
99.9752045908
 10
-189.7083363431
 20
104.5997387305
 10
-191.4523181669
 20
109.2712109484
 10
-192.8512899729
 20
113.9812029358
 10
-193.9027307195
 20
118.7212269688
 10
-194.6047456394
 20
123.4827412037
 10
-194.9560696541
 20
128.2571650701
 10
-194.9560696541
 20
133.0358947334
 10
-194.6047456394
 20
137.8103185997
 10
-193.9027307195
 20
142.5718328347
 10
-192.8512899729
 20
147.3118568677
 10
-191.4523181669
 20
152.0218488551
 10
-189.7083363431
 20
156.6933210729
 10
-187.6224872747
 20
161.3178552126
 10
-185.1985298028
 20
165.8871175509
 10
-182.4408320624
 20
170.3928739684
 10
-179.3543636114
 20
174.8270047874
 10
-175.9446864744
 20
179.1815194045
 10
-172.2179451202
 20
183.4485706899
 10
-168.1808553886
 20
187.620469129
 10
-163.8406923882
 20
191.6896966786
 10
-159.2052773859
 20
195.6489203158
 10
-154.2829637131
 20
199.4910052519
 10
-149.0826217115
 20
203.2090277901
 10
-143.613622749
 20
206.7962878027
 10
-137.8858223314
 20
210.2463208044
 10
-131.9095423421
 20
213.5529096028
 10
-125.6955524417
 20
216.7100955013
 10
-119.25505066
 20
219.7121890374
 10
-112.5996432164
 20
222.5537802358
 10
-105.7413236051
 20
225.229748357
 10
-98.6924509815
 20
227.7352711256
 10
-91.4657278906
 20
230.0658334203
 10
-84.0741773758
 20
232.2172354101
 10
-76.5311195107
 20
234.1856001235
 10
-68.8501473955
 20
235.967380434
 10
-61.0451026611
 20
237.5593654532
 10
-53.1300505255
 20
238.9586863163
 10
-45.1192544479
 20
240.1628213528
 10
-37.027150424
 20
241.1696006298
 10
-28.8683209725
 20
241.9772098629
 10
-20.6574688553
 20
242.5841936859
 10
-12.409390583
 20
242.9894582729
 10
-4.1389497501
 20
243.1922733095
 10
4.1389497501
 20
243.1922733095
 10
12.409390583
 20
242.9894582729
 10
20.6574688553
 20
242.5841936859
 10
28.8683209725
 20
241.9772098629
 10
37.0271504241
 20
241.1696006298
 10
45.1192544479
 20
240.1628213528
 10
53.1300505255
 20
238.9586863163
 10
61.0451026611
 20
237.5593654532
 10
68.8501473955
 20
235.967380434
 10
76.5311195107
 20
234.1856001235
 10
84.0741773758
 20
232.2172354101
 10
91.4657278906
 20
230.0658334203
 10
98.6924509815
 20
227.7352711256
 10
105.7413236051
 20
225.229748357
 10
112.5996432164
 20
222.5537802358
 10
119.25505066
 20
219.7121890374
 10
125.6955524417
 20
216.7100955013
 10
131.9095423421
 20
213.5529096028
 10
137.8858223314
 20
210.2463208044
  0
LWPOLYLINE
  5
F9
330
F3
100
AcDbEntity
  8
0
  6
Continuous
 62
     7
370
    25
100
AcDbPolyline
 90
      143
 70
   128
 43
0.0
 10
127.2792206136
 20
204.1232599658
 10
132.7846289842
 20
200.8012212138
 10
138.0301052081
 20
197.3418513591
 10
143.005381019
 20
193.7519222807
 10
147.7007170811
 20
190.0384614333
 10
152.1069220535
 20
186.2087380908
 10
156.215370583
 20
182.2702491166
 10
160.0180201887
 20
178.2307042878
 10
163.5074270055
 20
174.098011203
 10
166.6767603555
 20
169.8802598032
 10
169.5198161201
 20
165.5857065346
 10
172.0310288839
 20
161.222758187
 10
174.20548283
 20
156.7999554367
 10
176.0389213629
 20
152.3259561278
 10
177.5277554403
 20
147.8095183239
 10
178.6690705998
 20
143.2594831642
 10
179.4606326633
 20
138.6847575562
 10
179.9008921108
 20
134.0942967401
 10
179.9889871139
 20
129.4970867586
 10
179.7247452225
 20
124.9021268659
 10
179.1086837023
 20
120.3184119119
 10
178.1420085229
 20
115.754914734
 10
176.8266119962
 20
111.220568592
 10
175.1650690728
 20
106.7242496815
 10
173.1606323009
 20
102.2747597579
 10
170.8172254596
 20
97.8808089068
 10
168.1394358779
 20
93.5509984932
 10
165.1325054546
 20
89.2938043243
 10
161.8023203973
 20
85.1175600576
 10
158.1553996995
 20
81.0304408875
 10
154.1988823799
 20
77.0404475416
 10
149.9405135068
 20
73.1553906192
 10
145.3886290373
 20
69.3828753018
 10
140.552139499
 20
65.7302864652
 10
135.4405125473
 20
62.2047742236
 10
130.063754432
 20
58.8132399328
 10
124.4323904096
 20
55.5623226804
 10
118.5574441396
 20
52.4583862896
 10
112.4504161053
 20
49.5075068616
 10
106.1232611007
 20
46.7154608815
 10
99.588364829
 20
44.0877139104
 10
92.8585196565
 20
41.6294098865
 10
85.946899571
 20
39.3453610552
 10
78.8670343937
 20
37.2400385494
 10
71.6327832928
 20
35.3175636369
 10
64.2583076548
 20
33.5816996524
 10
56.758043362
 20
32.0358446314
 10
49.146672534
 20
30.6830246575
 10
41.4390947865
 20
29.5258879394
 10
33.6503980651
 20
28.5666996266
 10
25.7958291091
 20
27.8073373752
 10
17.8907636064
 20
27.2492876725
 10
9.9506760937
 20
26.8936429271
 10
1.9911096653
 20
26.7410993301
 10
-5.9723544538
 20
26.7919554929
 10
-13.9241274086
 20
27.0461118621
 10
-21.8486432301
 20
27.5030709147
 10
-29.7303893065
 20
28.1619381319
 10
-37.5539367497
 20
29.0214237501
 10
-45.3039705981
 20
30.079845286
 10
-52.9653197967
 20
31.3351308296
 10
-60.5229868944
 20
32.7848231006
 10
-67.9621774032
 20
34.4260842582
 10
-75.2683287582
 20
36.2557014567
 10
-82.427138825
 20
38.2700931345
 10
-89.4245938968
 20
40.4653160252
 10
-96.2469961267
 20
42.8370728771
 10
-102.8809903418
 20
45.3807208646
 10
-109.3135901871
 20
48.0912806773
 10
-115.5322035463
 20
50.9634462672
 10
-121.5246571915
 20
53.9915952353
 10
-127.2792206136
 20
57.1697998377
 10
-132.7846289842
 20
60.4918385896
 10
-138.0301052081
 20
63.9512084443
 10
-143.005381019
 20
67.5411375227
 10
-147.7007170811
 20
71.2545983702
 10
-152.1069220535
 20
75.0843217127
 10
-156.215370583
 20
79.0228106869
 10
-160.0180201887
 20
83.0623555157
 10
-163.5074270055
 20
87.1950486004
 10
-166.6767603555
 20
91.4128000003
 10
-169.5198161201
 20
95.7073532689
 10
-172.0310288839
 20
100.0703016164
 10
-174.20548283
 20
104.4931043667
 10
-176.0389213629
 20
108.9671036757
 10
-177.5277554403
 20
113.4835414795
 10
-178.6690705998
 20
118.0335766392
 10
-179.4606326633
 20
122.6083022472
 10
-179.9008921108
 20
127.1987630633
 10
-179.9889871139
 20
131.7959730449
 10
-179.7247452225
 20
136.3909329375
 10
-179.1086837023
 20
140.9746478915
 10
-178.1420085229
 20
145.5381450695
 10
-176.8266119962
 20
150.0724912115
 10
-175.1650690728
 20
154.5688101219
 10
-173.1606323009
 20
159.0183000455
 10
-170.8172254596
 20
163.4122508966
 10
-168.1394358779
 20
167.7420613103
 10
-165.1325054546
 20
171.9992554792
 10
-161.8023203973
 20
176.1754997458
 10
-158.1553996995
 20
180.2626189159
 10
-154.1988823799
 20
184.2526122618
 10
-149.9405135068
 20
188.1376691842
 10
-145.3886290373
 20
191.9101845016
 10
-140.552139499
 20
195.5627733382
 10
-135.4405125473
 20
199.0882855798
 10
-130.063754432
 20
202.4798198706
 10
-124.4323904096
 20
205.730737123
 10
-118.5574441396
 20
208.8346735139
 10
-112.4504161053
 20
211.7855529418
 10
-106.1232611007
 20
214.5775989219
 10
-99.588364829
 20
217.205345893
 10
-92.8585196565
 20
219.663649917
 10
-85.946899571
 20
221.9476987482
 10
-78.8670343937
 20
224.053021254
 10
-71.6327832928
 20
225.9754961666
 10
-64.2583076548
 20
227.711360151
 10
-56.758043362
 20
229.2572151721
 10
-49.146672534
 20
230.610035146
 10
-41.4390947865
 20
231.7671718641
 10
-33.6503980651
 20
232.7263601769
 10
-25.7958291091
 20
233.4857224282
 10
-17.8907636064
 20
234.0437721309
 10
-9.9506760937
 20
234.3994168764
 10
-1.9911096653
 20
234.5519604733
 10
5.9723544538
 20
234.5011043105
 10
13.9241274086
 20
234.2469479413
 10
21.8486432301
 20
233.7899888887
 10
29.7303893065
 20
233.1311216716
 10
37.5539367497
 20
232.2716360533
 10
45.3039705981
 20
231.2132145174
 10
52.9653197967
 20
229.9579289738
 10
60.5229868944
 20
228.5082367028
 10
67.9621774032
 20
226.8669755452
 10
75.2683287582
 20
225.0373583467
 10
82.427138825
 20
223.0229666689
 10
89.4245938968
 20
220.8277437782
 10
96.2469961267
 20
218.4559869264
 10
102.8809903418
 20
215.9123389389
 10
109.3135901871
 20
213.2017791261
 10
115.5322035463
 20
210.3296135362
 10
121.5246571915
 20
207.3014645681
 10
127.2792206136
 20
204.1232599658
  0
LWPOLYLINE
  5
FA
330
F3
100
AcDbEntity
  8
0
  6
Continuous
 62
     7
370
    25
100
AcDbPolyline
 90
        3
 70
   128
 43
0.0
 10
25.5331234824
 20
31.0707746753
 10
27.9485217782
 20
29.5299025901
 10
29.7298976456
 20
28.1618905996
  0
LWPOLYLINE
  5
FB
330
F3
100
AcDbEntity
  8
0
  6
Continuous
 62
     7
370
    25
100
AcDbPolyline
 90
       19
 70
   128
 43
0.0
 10
-29.7298976456
 20
28.1618905996
 10
-28.5098493512
 20
29.1235598646
 10
-26.1617457587
 20
30.6987158708
 10
-23.5536349831
 20
32.1310772354
 10
-20.7114376012
 20
33.4064085077
 10
-17.6634006474
 20
34.5120348724
 10
-14.4398168823
 20
35.436968118
 10
-11.0727237297
 20
36.1720158425
 10
-7.595584874
 20
36.7098728112
 10
-4.0429576834
 20
37.0451935601
 10
-0.450149763
 20
37.1746455208
 10
3.1471319481
 20
37.0969421415
 10
6.7131360479
 20
36.8128556735
 10
10.2124219857
 20
36.3252094956
 10
13.6102122856
 20
35.6388500547
 10
16.8727381812
 20
34.7605986991
 10
19.9675752244
 20
33.6991838855
 10
22.8639655342
 20
32.4651544312
 10
25.5331234824
 20
31.0707746753
  0
VIEWPORT
  5
11C
330
F3
100
AcDbEntity
  8
0
100
AcDbViewport
 10
0.0
 20
0.0
 30
0.0
 40
205.6
 41
156.0
 68
     1
 69
     1
 12
0.0
 22
0.0
 13
0.0
 23
0.0
 14
10.0
 24
10.0
 15
10.0
 25
10.0
 16
0.0
 26
0.0
 36
1.0
 17
0.0
 27
0.0
 37
0.0
 42
50.0
 43
0.0
 44
0.0
 45
397.8
 50
0.0
 51
0.0
 72
   100
 90
   557152
  1

281
     0
 71
     1
 74
     0
110
0.0
120
0.0
130
0.0
111
1.0
121
0.0
131
0.0
112
0.0
122
1.0
132
0.0
 79
     0
146
0.0
170
     0
 61
     5
348
2F
292
     1
282
     1
141
0.0
142
0.0
 63
   256
361
11D
  0
ENDBLK
  5
F6
330
F3
100
AcDbEntity
  8
0
100
AcDbBlockEnd
  0
BLOCK
  5
FE
330
FC
100
AcDbEntity
  8
0
100
AcDbBlockBegin
  2
*Paper_Space6
 70
     0
 10
0.0
 20
0.0
 30
0.0
  3
*Paper_Space6
  1

  0
SPLINE
  5
100
330
FC
100
AcDbEntity
  8
0
  6
Continuous
 62
     7
370
    25
100
AcDbSpline
210
0.0
220
0.0
230
1.0
 70
     8
 71
     3
 72
    75
 73
    71
 74
     0
 42
0.000000001
 43
0.00000001
 40
0.0
 40
0.0
 40
0.0
 40
0.0
 40
0.0097991439321833
 40
0.0249325954762864
 40
0.0400306258143222
 40
0.0550930889207999
 40
0.070119818398076
 40
0.0851106318370107
 40
0.100065336329483
 40
0.1149837354058156
 40
0.1298656377403132
 40
0.1447108680536118
 40
0.1595192807440019
 40
0.1742907769045625
 40
0.1890253255303931
 40
0.203722989891551
 40
0.2183839602393943
 40
0.233008594218936
 40
0.2475974665599853
 40
0.2621514297838268
 40
0.2766716877388475
 40
0.2911598836918557
 40
0.3056182043484424
 40
0.3200495004351896
 40
0.3344574232375241
 40
0.3488465747095655
 40
0.3632226665827519
 40
0.3775926816916053
 40
0.3919650291676789
 40
0.4063496848158518
 40
0.4207583084226983
 40
0.4352043277887704
 40
0.4497029677687796
 40
0.464271172495428
 40
0.4789273186086895
 40
0.4936905678368175
 40
0.5085797101381461
 40
0.5236111988395421
 40
0.5387943870188546
 40
0.5541360860946722
 40
0.5696362258058919
 40
0.5852875647449575
 40
0.6010765539169516
 40
0.615352399678001
 40
0.6296514038559015
 40
0.6439718978681079
 40
0.6583130417932856
 40
0.6726739236339391
 40
0.6870535831800196
 40
0.7014510242257709
 40
0.7158652257234178
 40
0.7302951547207556
 40
0.7447397805613885
 40
0.7591980888277734
 40
0.7736690936685767
 40
0.7897751807193057
 40
0.8058991009691734
 40
0.821992910440606
 40
0.8380533327968531
 40
0.8540788378511576
 40
0.87006837018479
 40
0.8860212224465797
 40
0.901936955987023
 40
0.9178153375377991
 40
0.9336562884838047
 40
0.949459844360578
 40
0.9652261226147532
 40
0.980955297011708
 40
0.9966475773724194
 40
1.0
 40
1.0
 40
1.0
 40
1.0
 10
-192.9753278210942
 20
122.8413701682171
 30
0.0
 10
-192.5175186068988
 20
121.1958666217797
 30
0.0
 10
-191.3526850232872
 20
117.0091055575428
 30
0.0
 10
-189.1497850737796
 20
110.3859927879522
 30
0.0
 10
-186.414368677053
 20
102.979837569252
 30
0.0
 10
-183.3915735417823
 20
95.7052648276131
 30
0.0
 10
-180.1028414860781
 20
88.56806787830621
 30
0.0
 10
-176.550887684495
 20
81.57910445480483
 30
0.0
 10
-172.7438502461931
 20
74.74747482071744
 30
0.0
 10
-168.6888205294095
 20
68.08232744040453
 30
0.0
 10
-164.3935468533789
 20
61.59236180669041
 30
0.0
 10
-159.8659539025608
 20
55.2859468775645
 30
0.0
 10
-155.1142428603225
 20
49.17107604851029
 30
0.0
 10
-150.1468336418378
 20
43.25536680706701
 30
0.0
 10
-144.9723459052219
 20
37.54604969587882
 30
0.0
 10
-139.5995657100766
 20
32.04996162743553
 30
0.0
 10
-134.0374112619708
 20
26.77353988444503
 30
0.0
 10
-128.2948932851222
 20
21.72281825701366
 30
0.0
 10
-122.3810702283852
 20
16.90342556738729
 30
0.0
 10
-116.3049971864748
 20
12.32058737272323
 30
0.0
 10
-110.0756677704533
 20
7.979131774684838
 30
0.0
 10
-103.7019482046096
 20
3.883500577496104
 30
0.0
 10
-97.19250327262418
 20
0.0377673615521157
 30
0.0
 10
-90.5557143181484
 20
-3.554335610557791
 30
0.0
 10
-83.79959043261358
 20
-6.889379436763182
 30
0.0
 10
-76.93167524889542
 20
-9.964187193812146
 30
0.0
 10
-69.95895332388955
 20
-12.7757668948479
 30
0.0
 10
-62.88776169249838
 20
-15.32122712980216
 30
0.0
 10
-55.72371342293457
 20
-17.59767484013491
 30
0.0
 10
-48.47164058164103
 20
-19.60209621696058
 30
0.0
 10
-41.1355642221852
 20
-21.33122331708294
 30
0.0
 10
-33.71870053225279
 20
-22.7813901924698
 30
0.0
 10
-26.22351847333355
 20
-23.94838316075212
 30
0.0
 10
-18.65187849064517
 20
-24.82729185698378
 30
0.0
 10
-11.00530265368105
 20
-25.41237438926144
 30
0.0
 10
-3.28544143049643
 20
-25.69696475852412
 30
0.0
 10
4.505166621726509
 20
-25.67347214481341
 30
0.0
 10
12.36163120788796
 20
-25.33356989487251
 30
0.0
 10
20.27628212478722
 20
-24.66864016175721
 30
0.0
 10
28.23788666798344
 20
-23.67033880886475
 30
0.0
 10
36.23171023665138
 20
-22.33117402892439
 30
0.0
 10
44.23897467292885
 20
-20.64526838674648
 30
0.0
 10
51.96176724101002
 20
-18.67914659429896
 30
0.0
 10
59.37353273955012
 20
-16.47469921024904
 30
0.0
 10
66.45439998499373
 20
-14.07463558214683
 30
0.0
 10
73.45044680269733
 20
-11.40578271623548
 30
0.0
 10
80.35115491092515
 20
-8.471758642370041
 30
0.0
 10
87.1462546179519
 20
-5.276532219180327
 30
0.0
 10
93.82561718894947
 20
-1.824459261391798
 30
0.0
 10
100.3792683341003
 20
1.879724212385039
 30
0.0
 10
106.7974089913441
 20
5.830908906181584
 30
0.0
 10
113.0704364226415
 20
10.02362067544049
 30
0.0
 10
119.1889603867435
 20
14.45202455010534
 30
0.0
 10
125.1438412489487
 20
19.109951781836
 30
0.0
 10
131.1423635303029
 20
24.17336134517802
 30
0.0
 10
137.1518858584107
 20
29.6650416815368
 30
0.0
 10
143.1296918898041
 20
35.60014561676741
 30
0.0
 10
148.8517350051686
 20
41.77148919047605
 30
0.0
 10
154.3035265652749
 20
48.16038606741747
 30
0.0
 10
159.4770744027169
 20
54.7536099076631
 30
0.0
 10
164.3653223370514
 20
61.53802709541024
 30
0.0
 10
168.9619356915647
 20
68.50047043730846
 30
0.0
 10
173.2613268360784
 20
75.62772404702022
 30
0.0
 10
177.2583277037318
 20
82.90661247817532
 30
0.0
 10
180.949236183874
 20
90.32371760746341
 30
0.0
 10
184.3277852212637
 20
97.86647732639244
 30
0.0
 10
187.4000209753871
 20
105.5191465335413
 30
0.0
 10
190.1288816338137
 20
113.2778663663263
 30
0.0
 10
191.9839094121281
 20
119.051817919403
 30
0.0
 10
192.8300894869216
 20
122.2614903789038
 30
0.0
 10
192.9790418350622
 20
122.8264862513502
 30
0.0
  0
LWPOLYLINE
  5
101
330
FC
100
AcDbEntity
  8
0
  6
Continuous
 62
     7
370
    25
100
AcDbPolyline
 90
      149
 70
   128
 43
0.0
 10
91.0056008414
 20
225.9710244392
 10
98.2430767159
 20
223.9017143157
 10
105.3035119258
 20
221.6760659154
 10
112.1741830898
 20
219.298090007
 10
118.8427087938
 20
216.772071864
 10
125.297071904
 20
214.1025635416
 10
131.5256412217
 20
211.2943756744
 10
137.517192444
 20
208.3525688067
 10
143.2609283907
 20
205.2824442733
 10
148.7464984613
 20
202.0895346461
 10
153.9640172878
 20
198.7795937641
 10
158.9040825486
 20
195.3585863644
 10
163.5577919123
 20
191.8326773337
 10
167.9167590799
 20
188.2082205983
 10
171.9731288981
 20
184.4917476743
 10
175.7195915142
 20
180.689955897
 10
179.1493955495
 20
176.8096963522
 10
182.2563602651
 20
172.8579615299
 10
185.0348867007
 20
168.8418727233
 10
187.4799677638
 20
164.768667196
 10
189.5871972532
 20
160.6456851394
 10
191.3527777987
 20
156.4803564461
 10
192.773527705
 20
152.2801873199
 10
193.8468866848
 20
148.0527467493
 10
194.5709204724
 20
143.8056528681
 10
194.9443243102
 20
139.5465592265
 10
194.9664252992
 20
135.2831409991
 10
194.6371836119
 20
131.0230811538
 10
193.9571925641
 20
126.7740566062
 10
192.9276775456
 20
122.5437243858
 10
191.550493812
 20
118.3397078373
 10
189.8281231416
 20
114.1695828826
 10
187.7636693627
 20
110.0408643687
 10
185.3608527605
 20
105.9609925255
 10
182.6240033729
 20
101.9373195577
 10
179.5580531877
 20
97.9770963961
 10
176.1685272541
 20
94.0874596304
 10
172.4615337271
 20
90.275418649
 10
168.4437528595
 20
86.5478430074
 10
164.1224249641
 20
82.9114500488
 10
159.5053373657
 20
79.3727927992
 10
154.6008103683
 20
75.9382481581
 10
149.4176822611
 20
72.614005407
 10
143.9652933912
 20
69.4060550562
 10
138.2534693319
 20
66.3201780489
 10
132.2925031762
 20
63.3619353442
 10
126.0931369881
 20
60.5366578952
 10
119.6665424444
 20
57.849437043
 10
113.0243007029
 20
55.3051153412
 10
106.1783815321
 20
52.9082778293
 10
99.1411217412
 20
50.6632437707
 10
91.9252029478
 20
48.5740588684
 10
84.5436287255
 20
46.6444879749
 10
77.0097011698
 20
44.8780083073
 10
69.3369969275
 20
43.2778031813
 10
61.5393427302
 20
41.8467562748
 10
53.6307904778
 20
40.5874464311
 10
45.6255919161
 20
39.5021430115
 10
37.5381729538
 20
38.5928018062
 10
29.3831076667
 20
37.8610615095
 10
21.1750920335
 20
37.3082407669
 10
12.9289174532
 20
36.9353357988
 10
4.6594440898
 20
36.743018605
 10
-3.6184259068
 20
36.7316357541
 10
-11.8897752553
 20
36.901207759
 10
-20.1396984252
 20
37.2514290392
 10
-28.3533284972
 20
37.7816684724
 10
-36.5158639549
 20
38.4909705313
 10
-44.6125953576
 20
39.3780570057
 10
-52.6289318481
 20
40.4413293058
 10
-60.5504274462
 20
41.6788713429
 10
-68.3628070813
 20
43.0884529828
 10
-76.0519923174
 20
44.667534064
 10
-83.604126723
 20
46.4132689757
 10
-91.0056008414
 20
48.3225117855
 10
-98.2430767159
 20
50.391821909
 10
-105.3035119258
 20
52.6174703093
 10
-112.1741830898
 20
54.9954462176
 10
-118.8427087938
 20
57.5214643607
 10
-125.297071904
 20
60.1909726831
 10
-131.5256412217
 20
62.9991605503
 10
-137.517192444
 20
65.940967418
 10
-143.2609283907
 20
69.0110919514
 10
-148.7464984613
 20
72.2040015786
 10
-153.9640172878
 20
75.5139424606
 10
-158.9040825486
 20
78.9349498603
 10
-163.5577919123
 20
82.460858891
 10
-167.9167590799
 20
86.0853156263
 10
-171.9731288981
 20
89.8017885504
 10
-175.7195915142
 20
93.6035803277
 10
-179.1493955495
 20
97.4838398724
 10
-182.2563602651
 20
101.4355746947
 10
-185.0348867007
 20
105.4516635013
 10
-187.4799677638
 20
109.5248690287
 10
-189.5871972532
 20
113.6478510853
 10
-191.3527777987
 20
117.8131797786
 10
-192.773527705
 20
122.0133489048
 10
-193.8468866848
 20
126.2407894754
 10
-194.5709204724
 20
130.4878833566
 10
-194.9443243102
 20
134.7469769982
 10
-194.9664252992
 20
139.0103952256
 10
-194.6371836119
 20
143.2704550709
 10
-193.9571925641
 20
147.5194796185
 10
-192.9276775456
 20
151.7498118388
 10
-191.550493812
 20
155.9538283873
 10
-189.8281231416
 20
160.1239533421
 10
-187.7636693627
 20
164.252671856
 10
-185.3608527605
 20
168.3325436992
 10
-182.6240033729
 20
172.356216667
 10
-179.5580531877
 20
176.3164398286
 10
-176.1685272541
 20
180.2060765943
 10
-172.4615337271
 20
184.0181175757
 10
-168.4437528595
 20
187.7456932173
 10
-164.1224249641
 20
191.3820861759
 10
-159.5053373657
 20
194.9207434255
 10
-154.6008103683
 20
198.3552880666
 10
-149.4176822611
 20
201.6795308177
 10
-143.9652933912
 20
204.8874811685
 10
-138.2534693319
 20
207.9733581758
 10
-132.2925031762
 20
210.9316008805
 10
-126.0931369881
 20
213.7568783295
 10
-119.6665424444
 20
216.4440991817
 10
-113.0243007029
 20
218.9884208835
 10
-106.1783815321
 20
221.3852583954
 10
-99.1411217412
 20
223.630292454
 10
-91.9252029478
 20
225.7194773563
 10
-84.5436287255
 20
227.6490482498
 10
-77.0097011698
 20
229.4155279174
 10
-69.3369969275
 20
231.0157330434
 10
-61.5393427302
 20
232.4467799498
 10
-53.6307904778
 20
233.7060897936
 10
-45.6255919161
 20
234.7913932132
 10
-37.5381729538
 20
235.7007344185
 10
-29.3831076667
 20
236.4324747152
 10
-21.1750920335
 20
236.9852954578
 10
-12.9289174532
 20
237.3582004259
 10
-4.6594440898
 20
237.5505176197
 10
3.6184259068
 20
237.5619004705
 10
11.8897752553
 20
237.3923284657
 10
20.1396984252
 20
237.0421071855
 10
28.3533284972
 20
236.5118677523
 10
36.5158639549
 20
235.8025656933
 10
44.6125953576
 20
234.915479219
 10
52.6289318481
 20
233.8522069189
 10
60.5504274462
 20
232.6146648818
 10
68.3628070813
 20
231.2050832419
 10
76.0519923174
 20
229.6260021607
 10
83.604126723
 20
227.880267249
 10
91.0056008414
 20
225.9710244392
  0
LWPOLYLINE
  5
102
330
FC
100
AcDbEntity
  8
0
  6
Continuous
 62
     7
370
    25
100
AcDbPolyline
 90
      143
 70
   128
 43
0.0
 10
84.0051700074
 20
219.1383893371
 10
90.9646871916
 20
217.1443442798
 10
97.7461367288
 20
214.9937002104
 10
104.3362436133
 20
212.6906671158
 10
110.7221074013
 20
210.2397532913
 10
116.8912274645
 20
207.6457565158
 10
122.8315274607
 20
204.91375466
 10
128.5313789737
 20
202.0490957456
 10
133.9796242766
 20
199.0573874771
 10
139.1655981732
 20
195.9444862638
 10
144.0791488762
 20
192.7164857561
 10
148.7106578793
 20
189.3797049166
 10
153.0510587862
 20
185.9406756504
 10
157.0918550582
 20
182.4061300188
 10
160.8251366469
 20
178.7829870609
 10
164.2435954782
 20
175.0783392492
 10
167.3405397585
 20
171.2994386058
 10
170.1099070739
 20
167.453682506
 10
172.5462762578
 20
163.5485991981
 10
174.6448780032
 20
159.591833066
 10
176.4016041985
 20
155.5911296652
 10
177.8130159698
 20
151.5543205605
 10
178.8763504123
 20
147.4893079954
 10
179.5895259987
 20
143.4040494227
 10
179.9511466545
 20
139.3065419281
 10
179.9605044902
 20
135.2048065747
 10
179.6175811874
 20
131.1068727023
 10
178.9230480345
 20
127.0207622088
 10
177.878264613
 20
122.9544738473
 10
176.4852761352
 20
118.9159675684
 10
174.7468094417
 20
114.9131489376
 10
172.6662676625
 20
110.9538536604
 10
170.247723556
 20
107.0458322433
 10
167.4959115358
 20
103.1967348218
 10
164.4162184031
 20
99.4140961846
 10
161.014672802
 20
95.7053210247
 10
157.2979334175
 20
92.0776694436
 10
153.2732759417
 20
88.5382427396
 10
148.9485788305
 20
85.0939695066
 10
144.3323078816
 20
81.7515920713
 10
139.4334996622
 20
78.5176532945
 10
134.2617438193
 20
75.3984837631
 10
128.8271643081
 20
72.4001893981
 10
123.1403995729
 20
69.5286395014
 10
117.2125817229
 20
66.7894552668
 10
111.0553147399
 20
64.1879987761
 10
104.6806517631
 20
61.7293625025
 10
98.1010714947
 20
59.418359342
 10
91.3294537719
 20
57.2595131918
 10
84.3790543546
 20
55.2570500946
 10
77.263478976
 20
53.414889966
 10
69.9966567089
 20
51.7366389209
 10
62.5928126993
 20
50.2255822146
 10
55.0664403195
 20
48.8846778115
 10
47.4322727969
 20
47.7165505949
 10
39.7052543728
 20
46.7234872288
 10
31.9005110487
 20
45.9074316812
 10
24.0333209762
 20
45.2699814194
 10
16.1190845493
 20
44.812384282
 10
8.1732942574
 20
44.5355360371
 10
0.2115043582
 20
44.4399786279
 10
-7.7506995708
 20
44.5258991127
 10
-15.6977311413
 20
44.793129298
 10
-23.614033666
 20
45.2411460682
 10
-31.4841106108
 20
45.8690724095
 10
-39.2925559307
 20
46.6756791265
 10
-47.0240842271
 20
47.6593872487
 10
-54.6635606704
 20
48.8182711213
 10
-62.1960306267
 20
50.1500621747
 10
-69.6067489323
 20
51.6521533653
 10
-76.8812087581
 20
53.3216042791
 10
-84.0051700074
 20
55.1551468876
 10
-90.9646871916
 20
57.1491919449
 10
-97.7461367288
 20
59.2998360143
 10
-104.3362436133
 20
61.6028691089
 10
-110.7221074013
 20
64.0537829334
 10
-116.8912274645
 20
66.6477797088
 10
-122.8315274607
 20
69.3797815647
 10
-128.5313789737
 20
72.2444404791
 10
-133.9796242766
 20
75.2361487476
 10
-139.1655981732
 20
78.3490499609
 10
-144.0791488762
 20
81.5770504686
 10
-148.7106578793
 20
84.9138313081
 10
-153.0510587862
 20
88.3528605743
 10
-157.0918550582
 20
91.8874062059
 10
-160.8251366469
 20
95.5105491637
 10
-164.2435954782
 20
99.2151969754
 10
-167.3405397585
 20
102.9940976189
 10
-170.1099070739
 20
106.8398537187
 10
-172.5462762578
 20
110.7449370266
 10
-174.6448780032
 20
114.7017031587
 10
-176.4016041985
 20
118.7024065595
 10
-177.8130159698
 20
122.7392156641
 10
-178.8763504123
 20
126.8042282293
 10
-179.5895259987
 20
130.8894868019
 10
-179.9511466545
 20
134.9869942966
 10
-179.9605044902
 20
139.0887296499
 10
-179.6175811874
 20
143.1866635224
 10
-178.9230480345
 20
147.2727740159
 10
-177.878264613
 20
151.3390623774
 10
-176.4852761352
 20
155.3775686563
 10
-174.7468094417
 20
159.3803872871
 10
-172.6662676625
 20
163.3396825643
 10
-170.247723556
 20
167.2477039813
 10
-167.4959115358
 20
171.0968014029
 10
-164.4162184031
 20
174.8794400401
 10
-161.014672802
 20
178.5882152
 10
-157.2979334175
 20
182.2158667811
 10
-153.2732759417
 20
185.7552934851
 10
-148.9485788305
 20
189.1995667181
 10
-144.3323078816
 20
192.5419441534
 10
-139.4334996622
 20
195.7758829302
 10
-134.2617438193
 20
198.8950524616
 10
-128.8271643081
 20
201.8933468266
 10
-123.1403995729
 20
204.7648967233
 10
-117.2125817229
 20
207.5040809579
 10
-111.0553147399
 20
210.1055374486
 10
-104.6806517631
 20
212.5641737222
 10
-98.1010714947
 20
214.8751768827
 10
-91.3294537719
 20
217.0340230329
 10
-84.3790543546
 20
219.0364861301
 10
-77.263478976
 20
220.8786462587
 10
-69.9966567089
 20
222.5568973038
 10
-62.5928126993
 20
224.0679540101
 10
-55.0664403195
 20
225.4088584132
 10
-47.4322727969
 20
226.5769856298
 10
-39.7052543728
 20
227.5700489959
 10
-31.9005110487
 20
228.3861045434
 10
-24.0333209762
 20
229.0235548053
 10
-16.1190845493
 20
229.4811519426
 10
-8.1732942574
 20
229.7580001876
 10
-0.2115043582
 20
229.8535575968
 10
7.7506995708
 20
229.767637112
 10
15.6977311413
 20
229.5004069267
 10
23.614033666
 20
229.0523901565
 10
31.4841106108
 20
228.4244638152
 10
39.2925559307
 20
227.6178570982
 10
47.0240842271
 20
226.634148976
 10
54.6635606704
 20
225.4752651034
 10
62.1960306267
 20
224.14347405
 10
69.6067489323
 20
222.6413828594
 10
76.8812087581
 20
220.9719319456
 10
84.0051700074
 20
219.1383893371
  0
ARC
  5
104
330
FC
100
AcDbEntity
  8
0
  6
Continuous
 62
     7
370
    25
100
AcDbCircle
 10
-0.0063384621
 20
69.864131946
 30
0.0
 40
98.26296233510007
100
AcDbArc
 50
251.144334068
 51
288.9786711414
  0
VIEWPORT
  5
11E
330
FC
100
AcDbEntity
  8
0
100
AcDbViewport
 10
0.0
 20
0.0
 30
0.0
 40
205.6
 41
156.0
 68
     1
 69
     1
 12
0.0
 22
0.0
 13
0.0
 23
0.0
 14
10.0
 24
10.0
 15
10.0
 25
10.0
 16
0.0
 26
0.0
 36
1.0
 17
0.0
 27
0.0
 37
0.0
 42
50.0
 43
0.0
 44
0.0
 45
397.8
 50
0.0
 51
0.0
 72
   100
 90
   557152
  1

281
     0
 71
     1
 74
     0
110
0.0
120
0.0
130
0.0
111
1.0
121
0.0
131
0.0
112
0.0
122
1.0
132
0.0
 79
     0
146
0.0
170
     0
 61
     5
348
2F
292
     1
282
     1
141
0.0
142
0.0
 63
   256
361
11F
  0
ENDBLK
  5
FF
330
FC
100
AcDbEntity
  8
0
100
AcDbBlockEnd
  0
BLOCK
  5
107
330
105
100
AcDbEntity
  8
0
100
AcDbBlockBegin
  2
*Paper_Space7
 70
     0
 10
0.0
 20
0.0
 30
0.0
  3
*Paper_Space7
  1

  0
SPLINE
  5
109
330
105
100
AcDbEntity
  8
0
  6
Continuous
 62
     7
370
    25
100
AcDbSpline
210
0.0
220
0.0
230
1.0
 70
     8
 71
     3
 72
    78
 73
    74
 74
     0
 42
0.000000001
 43
0.00000001
 40
0.0
 40
0.0
 40
0.0
 40
0.0
 40
0.0126024831013754
 40
0.027419114546425
 40
0.0421942880152346
 40
0.0569276160702514
 40
0.0716186205830446
 40
0.0862667308627998
 40
0.1008712813922838
 40
0.115431509234876
 40
0.129946551202695
 40
0.1444154409149364
 40
0.1588371059330871
 40
0.1732103652439491
 40
0.187533927484356
 40
0.2018063904814612
 40
0.2160262429463566
 40
0.2301918695468172
 40
0.2443015611570736
 40
0.2583535329267795
 40
0.2723459540549058
 40
0.2862769949757004
 40
0.3001449002973797
 40
0.3139480995542637
 40
0.3276853728741222
 40
0.3413560949923767
 40
0.3549605878340226
 40
0.3685006164084206
 40
0.3819800584892336
 40
0.3954057526594821
 40
0.4087884623264094
 40
0.4221437712024731
 40
0.4354925914143996
 40
0.4488610475772726
 40
0.4622803419604753
 40
0.4757891737997259
 40
0.4894423815462958
 40
0.5033240492947032
 40
0.5175509358138609
 40
0.5322229216556706
 40
0.5457939723442189
 40
0.5594637302832762
 40
0.5732100171022583
 40
0.5870145078014424
 40
0.6008669866175183
 40
0.6147628258729564
 40
0.6286996100853538
 40
0.6426752103602492
 40
0.6566871257893437
 40
0.6707324616965059
 40
0.6848081180165553
 40
0.6989109895678786
 40
0.7130381126849427
 40
0.7271867514310582
 40
0.7413544362873568
 40
0.7555389710957117
 40
0.769738421205645
 40
0.7839510919120701
 40
0.7981755029830203
 40
0.8124103627018552
 40
0.8266545432785053
 40
0.8409070585084701
 40
0.856781607731991
 40
0.8726426096150909
 40
0.8884444649678168
 40
0.9041882631791535
 40
0.9198761788284091
 40
0.9355102275331405
 40
0.9510922421576956
 40
0.9666238813665257
 40
0.9821066395313683
 40
0.9975418566593597
 40
0.9999999999999999
 40
0.9999999999999999
 40
0.9999999999999999
 40
0.9999999999999999
 10
-194.2865963207946
 20
145.373757904338
 30
0.0
 10
-193.7250395329245
 20
143.2009248965812
 30
0.0
 10
-192.503265239154
 20
138.4735107313969
 30
0.0
 10
-190.2681859573659
 20
131.2974997897821
 30
0.0
 10
-187.6627664337149
 20
123.8460882190402
 30
0.0
 10
-184.7747232697835
 20
116.5228362419635
 30
0.0
 10
-181.6208561497554
 20
109.3351390113597
 30
0.0
 10
-178.2054879748936
 20
102.2933665879023
 30
0.0
 10
-174.5367347731688
 20
95.4066892493649
 30
0.0
 10
-170.6221514795998
 20
88.68417340014564
 30
0.0
 10
-166.4698793527211
 20
82.13447163856462
 30
0.0
 10
-162.0883248699232
 20
75.76588819174053
 30
0.0
 10
-157.4862294417561
 20
69.58634453590989
 30
0.0
 10
-152.6726338144026
 20
63.60337194242549
 30
0.0
 10
-147.6568692511891
 20
57.82409712304106
 30
0.0
 10
-142.4485399030978
 20
52.25522996517227
 30
0.0
 10
-137.057505317065
 20
46.90305091892335
 30
0.0
 10
-131.4938598899326
 20
41.77339863448583
 30
0.0
 10
-125.7679089227386
 20
36.87165762907684
 30
0.0
 10
-119.8901395938706
 20
32.20274597699412
 30
0.0
 10
-113.8711846729214
 20
27.7711029719499
 30
0.0
 10
-107.7217756774639
 20
23.58067677621375
 30
0.0
 10
-101.4526806606684
 20
19.63491219751788
 30
0.0
 10
-95.07461966363759
 20
15.93673903257996
 30
0.0
 10
-88.59814799360485
 20
12.48856203901097
 30
0.0
 10
-82.03349398658816
 20
9.292254829278464
 30
0.0
 10
-75.39033443103054
 20
6.34916227956063
 30
0.0
 10
-68.67748925278535
 20
3.66012006310687
 30
0.0
 10
-61.90252160736168
 20
1.225506327792558
 30
0.0
 10
-55.07124778742718
 20
-0.9546506483558426
 30
0.0
 10
-48.18720294670133
 20
-2.880476273616872
 30
0.0
 10
-41.25117403529407
 20
-4.551932303499165
 30
0.0
 10
-34.26095666380007
 20
-5.968371864657679
 30
0.0
 10
-27.21137035982161
 20
-7.128028843217116
 30
0.0
 10
-20.09405975710652
 20
-8.027576543590042
 30
0.0
 10
-12.89588150642885
 20
-8.66179881510036
 30
0.0
 10
-5.595024178994115
 20
-9.022998162527468
 30
0.0
 10
1.843078116376268
 20
-9.099412696158119
 30
0.0
 10
9.459490519676386
 20
-8.872791351272655
 30
0.0
 10
17.00396743432384
 20
-8.338009771976088
 30
0.0
 10
24.42062479192007
 20
-7.514503248607377
 30
0.0
 10
31.63633986111585
 20
-6.433806837557468
 30
0.0
 10
38.84580115534416
 20
-5.072364735489055
 30
0.0
 10
46.02996813791965
 20
-3.432161116526222
 30
0.0
 10
53.1730273264969
 20
-1.515851987596517
 30
0.0
 10
60.2620030811671
 20
0.6738207102632704
 30
0.0
 10
67.28532871921703
 20
3.134073440961713
 30
0.0
 10
74.23182020752564
 20
5.861910599093481
 30
0.0
 10
81.09026564662038
 20
8.85396755930784
 30
0.0
 10
87.84938855710827
 20
12.10642835929328
 30
0.0
 10
94.4979529028671
 20
15.61500484860374
 30
0.0
 10
101.024887300162
 20
19.3749504089669
 30
0.0
 10
107.4193829364867
 20
23.38108789379739
 30
0.0
 10
113.6709574785027
 20
27.62784031057418
 30
0.0
 10
119.7694910327896
 20
32.10925910282651
 30
0.0
 10
125.705242955081
 20
36.81904838916424
 30
0.0
 10
131.4688571932283
 20
41.75058541378646
 30
0.0
 10
137.0513611281532
 20
46.89693729837892
 30
0.0
 10
142.444163020809
 20
52.25087728605337
 30
0.0
 10
147.6390439853004
 20
57.80489243946776
 30
0.0
 10
152.6281684733833
 20
63.55121621212891
 30
0.0
 10
157.5843727259976
 20
69.70571108575368
 30
0.0
 10
162.4681401750318
 20
76.28096740370931
 30
0.0
 10
167.2322961902374
 20
83.27986153604814
 30
0.0
 10
171.6927325468067
 20
90.44877286342617
 30
0.0
 10
175.8410815107053
 20
97.7673147138927
 30
0.0
 10
179.6740117434451
 20
105.222267688619
 30
0.0
 10
183.1896728249484
 20
112.8003898453319
 30
0.0
 10
186.3831172389127
 20
120.4893170852961
 30
0.0
 10
189.2628865284386
 20
128.273529241303
 30
0.0
 10
191.7894193871385
 20
136.1493333072124
 30
0.0
 10
193.4575776806406
 20
141.8576878694079
 30
0.0
 10
194.1869210258371
 20
144.9592490056779
 30
0.0
 10
194.287116318397
 20
145.3853334109005
 30
0.0
  0
LWPOLYLINE
  5
10A
330
105
100
AcDbEntity
  8
0
  6
Continuous
 62
     7
370
    25
100
AcDbPolyline
 90
      149
 70
   128
 43
0.0
 10
68.9429111499
 20
211.6513791802
 10
76.6223127776
 20
210.6212545507
 10
84.1636358187
 20
209.4834170834
 10
91.5532902993
 20
208.2399172383
 10
98.7779595628
 20
206.8929958861
 10
105.8246242666
 20
205.4450802702
 10
112.6805858447
 20
203.8987796324
 10
119.333489391
 20
202.2568805109
 10
125.7713459236
 20
200.522341719
 10
131.9825539899
 20
198.6982890127
 10
137.9559205731
 20
196.7880094584
 10
143.6806812628
 20
194.7949455089
 10
149.1465196535
 20
192.7226888001
 10
154.3435859349
 20
190.5749736788
 10
159.2625146422
 20
188.3556704727
 10
163.8944415335
 20
186.0687785162
 10
168.2310195634
 20
183.7184189433
 10
172.2644339252
 20
181.3088272606
 10
175.9874161337
 20
178.8443457153
 10
179.3932571231
 20
176.3294154697
 10
182.4758193379
 20
173.7685685981
 10
185.2295477926
 20
171.1664199197
 10
187.6494800824
 20
168.5276586822
 10
189.7312553258
 20
165.8570401117
 10
191.4711220229
 20
163.1593768435
 10
192.8659448166
 20
160.439530249
 10
193.9132101417
 20
157.7024016757
 10
194.6110307555
 20
154.9529236143
 10
194.958149138
 20
152.19605081
 10
194.9539397583
 20
149.4367513341
 10
194.5984102022
 20
146.6799976306
 10
193.8922011578
 20
143.930757556
 10
192.8365852617
 20
141.1939854269
 10
191.433464805
 20
138.4746130915
 10
189.6853683056
 20
135.7775410426
 10
187.5954459515
 20
133.1076295864
 10
185.1674639241
 20
130.4696900837
 10
182.4057976112
 20
127.8684762798
 10
179.3154237221
 20
125.3086757378
 10
175.9019113193
 20
122.7949013914
 10
172.171411783
 20
120.3316832318
 10
168.1306477256
 20
117.9234601445
 10
163.7869008768
 20
115.5745719105
 10
159.1479989623
 20
113.289251385
 10
154.2223015966
 20
111.0716168701
 10
149.0186852196
 20
108.9256646931
 10
143.5465270994
 20
106.8552620048
 10
137.8156884351
 20
104.8641398109
 10
131.8364965851
 20
102.9558862481
 10
125.6197264574
 20
101.1339401183
 10
119.1765810919
 20
99.4015846916
 10
112.5186714721
 20
97.7619417895
 10
105.657995601
 20
96.2179661594
 10
98.6069168804
 20
94.7724401498
 10
91.3781418306
 20
93.4279686962
 10
83.984697193
 20
92.186974627
 10
76.4399064544
 20
91.0516942975
 10
68.7573658378
 20
90.0241735595
 10
60.9509198006
 20
89.1062640748
 10
53.0346360862
 20
88.2996199784
 10
45.022780373
 20
87.6056948974
 10
36.9297905663
 20
87.0257393318
 10
28.770250781
 20
86.5607984007
 10
20.5588650592
 20
86.2117099591
 10
12.3104308729
 20
85.9791030879
 10
4.0398124582
 20
85.8633969604
 10
-4.2380859717
 20
85.864800087
 10
-12.5083470842
 20
85.983309939
 10
-20.7560673098
 20
86.2187129537
 10
-28.9663836991
 20
86.570584919
 10
-37.1245007072
 20
87.0382917378
 10
-45.2157168558
 20
87.6209905708
 10
-53.2254512264
 20
88.3176313553
 10
-61.1392697364
 20
89.1269586976
 10
-68.9429111499
 20
90.047514135
 10
-76.6223127776
 20
91.0776387645
 10
-84.1636358187
 20
92.2154762318
 10
-91.5532902993
 20
93.4589760769
 10
-98.7779595628
 20
94.8058974291
 10
-105.8246242666
 20
96.253813045
 10
-112.6805858447
 20
97.8001136828
 10
-119.333489391
 20
99.4420128043
 10
-125.7713459236
 20
101.1765515962
 10
-131.9825539899
 20
103.0006043025
 10
-137.9559205731
 20
104.9108838568
 10
-143.6806812628
 20
106.9039478064
 10
-149.1465196535
 20
108.9762045151
 10
-154.3435859349
 20
111.1239196364
 10
-159.2625146422
 20
113.3432228425
 10
-163.8944415335
 20
115.630114799
 10
-168.2310195634
 20
117.980474372
 10
-172.2644339252
 20
120.3900660547
 10
-175.9874161337
 20
122.8545476
 10
-179.3932571231
 20
125.3694778455
 10
-182.4758193379
 20
127.9303247171
 10
-185.2295477926
 20
130.5324733956
 10
-187.6494800824
 20
133.1712346331
 10
-189.7312553258
 20
135.8418532035
 10
-191.4711220229
 20
138.5395164718
 10
-192.8659448166
 20
141.2593630662
 10
-193.9132101417
 20
143.9964916395
 10
-194.6110307555
 20
146.7459697009
 10
-194.958149138
 20
149.5028425052
 10
-194.9539397583
 20
152.2621419812
 10
-194.5984102022
 20
155.0188956847
 10
-193.8922011578
 20
157.7681357592
 10
-192.8365852617
 20
160.5049078884
 10
-191.433464805
 20
163.2242802238
 10
-189.6853683056
 20
165.9213522726
 10
-187.5954459515
 20
168.5912637289
 10
-185.1674639241
 20
171.2292032316
 10
-182.4057976112
 20
173.8304170354
 10
-179.315423722
 20
176.3902175774
 10
-175.9019113193
 20
178.9039919238
 10
-172.171411783
 20
181.3672100835
 10
-168.1306477256
 20
183.7754331707
 10
-163.7869008768
 20
186.1243214048
 10
-159.1479989623
 20
188.4096419303
 10
-154.2223015966
 20
190.6272764452
 10
-149.0186852196
 20
192.7732286222
 10
-143.5465270994
 20
194.8436313104
 10
-137.8156884351
 20
196.8347535044
 10
-131.8364965851
 20
198.7430070672
 10
-125.6197264574
 20
200.564953197
 10
-119.1765810919
 20
202.2973086237
 10
-112.518671472
 20
203.9369515257
 10
-105.657995601
 20
205.4809271558
 10
-98.6069168804
 20
206.9264531654
 10
-91.3781418306
 20
208.270924619
 10
-83.984697193
 20
209.5119186882
 10
-76.4399064544
 20
210.6471990178
 10
-68.7573658378
 20
211.6747197558
 10
-60.9509198006
 20
212.5926292405
 10
-53.0346360862
 20
213.3992733369
 10
-45.022780373
 20
214.0931984178
 10
-36.9297905663
 20
214.6731539834
 10
-28.770250781
 20
215.1380949145
 10
-20.5588650592
 20
215.4871833562
 10
-12.3104308729
 20
215.7197902274
 10
-4.0398124582
 20
215.8354963548
 10
4.2380859717
 20
215.8340932283
 10
12.5083470842
 20
215.7155833762
 10
20.7560673098
 20
215.4801803615
 10
28.9663836991
 20
215.1283083962
 10
37.1245007072
 20
214.6606015774
 10
45.2157168558
 20
214.0779027444
 10
53.2254512264
 20
213.3812619599
 10
61.1392697364
 20
212.5719346176
 10
68.9429111499
 20
211.6513791802
  0
LWPOLYLINE
  5
10C
330
105
100
AcDbEntity
  8
0
  6
Continuous
 62
     7
370
    25
100
AcDbPolyline
 90
      143
 70
   128
 43
0.0
 10
63.6396102922
 20
206.9743074477
 10
71.0250928129
 20
205.9810429401
 10
78.271540379
 20
204.8798557438
 10
85.3647677292
 20
203.6729014845
 10
92.2908895379
 20
202.3625428317
 10
99.0363475963
 20
200.9513448741
 10
105.5879373535
 20
199.4420700979
 10
111.9328337649
 20
197.8376729795
 10
118.0586163979
 20
196.1412942015
 10
123.9532937452
 20
194.356254505
 10
129.6053266992
 20
192.486048189
 10
135.0036511399
 20
190.5343362703
 10
140.1376995937
 20
188.5049393166
 10
144.9974219197
 20
186.4018299677
 10
149.5733049831
 20
184.2291251589
 10
153.8563912781
 20
181.991078062
 10
157.8382964621
 20
179.6920697591
 10
161.5112257687
 20
177.3366006671
 10
164.8679892662
 20
174.9292817273
 10
167.9020159325
 20
172.4748253795
 10
170.607366518
 20
169.9780363374
 10
172.9787451718
 20
167.4438021826
 10
175.0115098088
 20
164.8770837977
 10
176.7016811968
 20
162.2829056543
 10
178.0459507459
 20
159.666345978
 10
179.0416869855
 20
157.0325268073
 10
179.6869407149
 20
154.3866039668
 10
179.9804488198
 20
151.7337569748
 10
179.9216367442
 20
149.0791789038
 10
179.5106196155
 20
146.4280662151
 10
178.7482020192
 20
143.7856085862
 10
177.6358764233
 20
141.156978752
 10
176.1758202576
 20
138.5473223789
 10
174.3708916505
 20
135.9617479919
 10
172.2246238345
 20
133.405316974
 10
169.7412182297
 20
130.8830336593
 10
166.9255362191
 20
128.3998355355
 10
163.7830896326
 20
125.9605835798
 10
160.3200299568
 20
123.5700527424
 10
156.5431362938
 20
121.2329225995
 10
152.4598020902
 20
118.9537681934
 10
148.0780206645
 20
116.7370510756
 10
143.4063695596
 20
114.5871105741
 10
138.4539937519
 20
112.5081552984
 10
133.2305877496
 20
110.504254901
 10
127.7463766153
 20
108.5793321111
 10
122.0120959498
 20
106.7371550554
 10
116.0389708767
 20
104.981329882
 10
109.838694069
 20
103.3152937012
 10
103.4234028596
 20
101.742307857
 10
96.8056554824
 20
100.2654515431
 10
89.9984064885
 20
98.8876157751
 10
83.0149813876
 20
97.6114977312
 10
75.8690505623
 20
96.4395954723
 10
68.5746025076
 20
95.3742030522
 10
61.1459164483
 20
94.4174060266
 10
53.5975343862
 20
93.5710773705
 10
45.9442326335
 20
92.8368738122
 10
38.2009928879
 20
92.2162325895
 10
30.3829729048
 20
91.7103686367
 10
22.5054768254
 20
91.3202722063
 10
14.5839252183
 20
91.0467069304
 10
6.6338248928
 20
90.8902083259
 10
-1.3292614565
 20
90.8510827461
 10
-9.2897457141
 20
90.9294067811
 10
-17.2320448583
 20
91.1250271081
 10
-25.1406114653
 20
91.437560791
 10
-32.9999641449
 20
91.8663960305
 10
-40.7947178449
 20
92.4106933614
 10
-48.5096139691
 20
93.0693872962
 10
-56.1295502459
 20
93.8411884105
 10
-63.6396102922
 20
94.7245858675
 10
-71.0250928129
 20
95.7178503751
 10
-78.271540379
 20
96.8190375714
 10
-85.3647677292
 20
98.0259918308
 10
-92.2908895379
 20
99.3363504836
 10
-99.0363475963
 20
100.7475484411
 10
-105.5879373535
 20
102.2568232173
 10
-111.9328337649
 20
103.8612203357
 10
-118.0586163979
 20
105.5575991138
 10
-123.9532937452
 20
107.3426388103
 10
-129.6053266992
 20
109.2128451262
 10
-135.0036511399
 20
111.1645570449
 10
-140.1376995937
 20
113.1939539986
 10
-144.9974219197
 20
115.2970633475
 10
-149.5733049831
 20
117.4697681563
 10
-153.8563912781
 20
119.7078152533
 10
-157.8382964621
 20
122.0068235561
 10
-161.5112257687
 20
124.3622926481
 10
-164.8679892662
 20
126.769611588
 10
-167.9020159325
 20
129.2240679357
 10
-170.607366518
 20
131.7208569779
 10
-172.9787451718
 20
134.2550911326
 10
-175.0115098088
 20
136.8218095175
 10
-176.7016811968
 20
139.4159876609
 10
-178.0459507459
 20
142.0325473372
 10
-179.0416869855
 20
144.6663665079
 10
-179.6869407149
 20
147.3122893484
 10
-179.9804488198
 20
149.9651363404
 10
-179.9216367442
 20
152.6197144114
 10
-179.5106196155
 20
155.2708271002
 10
-178.7482020192
 20
157.9132847291
 10
-177.6358764233
 20
160.5419145632
 10
-176.1758202576
 20
163.1515709363
 10
-174.3708916505
 20
165.7371453234
 10
-172.2246238345
 20
168.2935763412
 10
-169.7412182297
 20
170.815859656
 10
-166.9255362191
 20
173.2990577797
 10
-163.7830896326
 20
175.7383097354
 10
-160.3200299568
 20
178.1288405729
 10
-156.5431362938
 20
180.4659707157
 10
-152.4598020902
 20
182.7451251219
 10
-148.0780206645
 20
184.9618422396
 10
-143.4063695596
 20
187.1117827411
 10
-138.4539937519
 20
189.1907380169
 10
-133.2305877496
 20
191.1946384143
 10
-127.7463766153
 20
193.1195612042
 10
-122.0120959498
 20
194.9617382599
 10
-116.0389708767
 20
196.7175634332
 10
-109.838694069
 20
198.383599614
 10
-103.4234028596
 20
199.9565854582
 10
-96.8056554824
 20
201.4334417721
 10
-89.9984064885
 20
202.8112775401
 10
-83.0149813876
 20
204.0873955841
 10
-75.8690505623
 20
205.259297843
 10
-68.5746025076
 20
206.324690263
 10
-61.1459164483
 20
207.2814872887
 10
-53.5975343862
 20
208.1278159447
 10
-45.9442326335
 20
208.862019503
 10
-38.2009928879
 20
209.4826607258
 10
-30.3829729048
 20
209.9885246785
 10
-22.5054768254
 20
210.3786211089
 10
-14.5839252183
 20
210.6521863848
 10
-6.6338248928
 20
210.8086849894
 10
1.3292614565
 20
210.8478105692
 10
9.2897457141
 20
210.7694865341
 10
17.2320448583
 20
210.5738662071
 10
25.1406114653
 20
210.2613325242
 10
32.9999641449
 20
209.8324972847
 10
40.7947178449
 20
209.2881999538
 10
48.5096139691
 20
208.629506019
 10
56.1295502459
 20
207.8577049047
 10
63.6396102922
 20
206.9743074477
  0
LWPOLYLINE
  5
10D
330
105
100
AcDbEntity
  8
0
  6
Continuous
 62
     7
370
    25
100
AcDbPolyline
 90
       40
 70
   128
 43
0.0
 10
54.926899023
 20
-0.9449140888
 10
54.8265932267
 20
-1.4546735086
 10
54.2976497212
 20
-2.9205257274
 10
53.4165651215
 20
-4.3674372162
 10
52.1890535995
 20
-5.7860241987
 10
50.6230760382
 20
-7.167086594
 10
48.7287884031
 20
-8.5016676825
 10
46.5184758765
 20
-9.7811121937
 10
44.0064731833
 20
-10.997122439
 10
41.2090716247
 20
-12.1418121254
 10
38.1444134235
 20
-13.2077575009
 10
34.8323740639
 20
-14.1880455009
 10
31.2944333923
 20
-15.0763185813
 10
27.5535363115
 20
-15.8668159505
 10
23.6339439745
 20
-16.5544109296
 10
19.5610764418
 20
-17.1346442014
 10
15.3613478222
 20
-17.6037527305
 10
11.0619949672
 20
-17.958694168
 10
6.6909008301
 20
-18.1971665824
 10
2.2764136336
 20
-18.3176233888
 10
-2.1528369788
 20
-18.3192833785
 10
-6.5681256174
 20
-18.2021357857
 10
-10.9408174409
 20
-17.9669403577
 10
-15.242553865
 20
-17.6152224269
 10
-19.4454364782
 20
-17.1492630192
 10
-23.522207974
 20
-16.5720840601
 10
-27.4464289249
 20
-15.8874287766
 10
-31.1926492521
 20
-15.099737421
 10
-34.7365732794
 20
-14.214118474
 10
-38.0552172994
 20
-13.2363155143
 10
-41.1270586322
 20
-12.1726699693
 10
-43.9321752081
 20
-11.0300799885
 10
-46.4523747695
 20
-9.8159557063
 10
-48.6713128554
 20
-8.5381711848
 10
-50.5745988006
 20
-7.2050133467
 10
-52.1498890656
 20
-5.8251282323
 10
-53.3869672884
 20
-4.407464926
 10
-54.2778105421
 20
-2.9612175183
 10
-54.8166413663
 20
-1.4957654788
 10
-54.9238156682
 20
-0.9646226923
  0
LWPOLYLINE
  5
10E
330
105
100
AcDbEntity
  8
0
  6
Continuous
 62
    60
370
    25
100
AcDbPolyline
 90
       28
 70
   128
 43
0.0
 10
48.1599949964
 20
-2.865865151
 10
46.5184758765
 20
-3.7925065242
 10
44.0064731833
 20
-5.0085167695
 10
41.2090716247
 20
-6.1532064558
 10
38.1444134235
 20
-7.2191518314
 10
34.8323740639
 20
-8.1994398313
 10
31.2944333923
 20
-9.0877129117
 10
27.5535363115
 20
-9.8782102809
 10
23.6339439745
 20
-10.56580526
 10
19.5610764418
 20
-11.1460385319
 10
15.3613478222
 20
-11.6151470609
 10
11.0619949672
 20
-11.9700884984
 10
6.6909008301
 20
-12.2085609129
 10
2.2764136336
 20
-12.3290177193
 10
-2.1528369788
 20
-12.3306777089
 10
-6.5681256174
 20
-12.2135301162
 10
-10.9408174409
 20
-11.9783346881
 10
-15.242553865
 20
-11.6266167573
 10
-19.4454364782
 20
-11.1606573496
 10
-23.522207974
 20
-10.5834783905
 10
-27.4464289249
 20
-9.8988231071
 10
-31.1926492521
 20
-9.1111317515
 10
-34.7365732794
 20
-8.2255128045
 10
-38.0552172994
 20
-7.2477098447
 10
-41.1270586322
 20
-6.1840642997
 10
-43.9321752081
 20
-5.0414743189
 10
-46.4523747695
 20
-3.8273500368
 10
-48.1576544204
 20
-2.8672795073
  0
ARC
  5
10F
330
105
100
AcDbEntity
  8
0
  6
Continuous
 62
     7
370
    25
100
AcDbCircle
 10
0.0148796381
 20
150.659913498
 30
0.0
 40
159.7236089947525
100
AcDbArc
 50
258.1912248004
 51
281.6485837149
  0
VIEWPORT
  5
120
330
105
100
AcDbEntity
  8
0
100
AcDbViewport
 10
0.0
 20
0.0
 30
0.0
 40
205.6
 41
156.0
 68
     1
 69
     1
 12
0.0
 22
0.0
 13
0.0
 23
0.0
 14
10.0
 24
10.0
 15
10.0
 25
10.0
 16
0.0
 26
0.0
 36
1.0
 17
0.0
 27
0.0
 37
0.0
 42
50.0
 43
0.0
 44
0.0
 45
397.8
 50
0.0
 51
0.0
 72
   100
 90
   557152
  1

281
     0
 71
     1
 74
     0
110
0.0
120
0.0
130
0.0
111
1.0
121
0.0
131
0.0
112
0.0
122
1.0
132
0.0
 79
     0
146
0.0
170
     0
 61
     5
348
2F
292
     1
282
     1
141
0.0
142
0.0
 63
   256
361
121
  0
ENDBLK
  5
108
330
105
100
AcDbEntity
  8
0
100
AcDbBlockEnd
  0
ENDSEC
  0
SECTION
  2
ENTITIES
  0
CIRCLE
  5
73
330
1F
100
AcDbEntity
  8
0
  6
Continuous
 62
     7
370
    25
100
AcDbCircle
 10
0.0
 20
0.0
 30
0.0
 40
36.10928951853634
  0
CIRCLE
  5
74
330
1F
100
AcDbEntity
  8
0
  6
Continuous
 62
     7
370
    25
100
AcDbCircle
 10
0.0
 20
0.0
 30
0.0
 40
180.0000000000001
  0
CIRCLE
  5
75
330
1F
100
AcDbEntity
  8
0
  6
Continuous
 62
     7
370
    25
100
AcDbCircle
 10
0.0
 20
0.0
 30
0.0
 40
194.9999999999997
  0
CIRCLE
  5
76
330
1F
100
AcDbEntity
  8
0
  6
Continuous
 62
     7
370
    25
100
AcDbCircle
 10
0.0
 20
0.0
 30
0.0
 40
22.99999999999999
  0
LINE
  5
81
330
1B
100
AcDbEntity
 67
     1
  8
0
  6
Continuous
 62
     7
370
    25
100
AcDbLine
 10
55.0
 20
0.0
 30
0.0
 11
55.0
 21
6.351875518
 31
0.0
  0
LINE
  5
82
330
1B
100
AcDbEntity
 67
     1
  8
0
  6
Continuous
 62
     7
370
    25
100
AcDbLine
 10
-55.0
 20
6.351875518
 30
0.0
 11
-55.0
 21
0.0
 31
0.0
  0
LINE
  5
83
330
1B
100
AcDbEntity
 67
     1
  8
0
  6
Continuous
 62
     7
370
    25
100
AcDbLine
 10
195.0
 20
160.0
 30
0.0
 11
-195.0
 21
160.0
 31
0.0
  0
LINE
  5
84
330
1B
100
AcDbEntity
 67
     1
  8
0
  6
Continuous
 62
     7
370
    25
100
AcDbLine
 10
55.0
 20
0.0
 30
0.0
 11
-55.0
 21
0.0
 31
0.0
  0
LINE
  5
85
330
1B
100
AcDbEntity
 67
     1
  8
0
  6
Continuous
 62
    60
370
    25
100
AcDbLine
 10
58.4329340544
 20
11.0999597972
 30
0.0
 11
-58.4329340544
 21
11.0999597972
 31
0.0
  0
LINE
  5
86
330
1B
100
AcDbEntity
 67
     1
  8
0
  6
Continuous
 62
    60
370
    25
100
AcDbLine
 10
55.0
 20
6.351875518
 30
0.0
 11
-55.0
 21
6.351875518
 31
0.0
  0
ARC
  5
87
330
1B
100
AcDbEntity
 67
     1
  8
0
  6
Continuous
 62
     7
370
    25
100
AcDbCircle
 10
6.4483851758
 20
207.6851594975
 30
0.0
 40
207.0152804173015
100
AcDbArc
 50
193.3174481008
 51
251.7349539812
  0
ARC
  5
88
330
1B
100
AcDbEntity
 67
     1
  8
0
  6
Continuous
 62
     7
370
    25
100
AcDbCircle
 10
-6.4483851758
 20
207.6851594975
 30
0.0
 40
207.0152804173015
100
AcDbArc
 50
288.2650460188
 51
346.6825518992
  0
ARC
  5
89
330
1B
100
AcDbEntity
 67
     1
  8
0
  6
Continuous
 62
     7
370
    25
100
AcDbCircle
 10
60.0
 20
6.351875518
 30
0.0
 40
4.999999999999986
100
AcDbArc
 50
108.2650460188
 51
180.0
  0
ARC
  5
8A
330
1B
100
AcDbEntity
 67
     1
  8
0
  6
Continuous
 62
     7
370
    25
100
AcDbCircle
 10
-60.0
 20
6.351875518
 30
0.0
 40
4.999999999999972
100
AcDbArc
 50
0.0
 51
71.7349539812
  0
VIEWPORT
  5
110
330
1B
100
AcDbEntity
 67
     1
  8
0
100
AcDbViewport
 10
0.0
 20
0.0
 30
0.0
 40
205.6
 41
156.0
 68
     1
 69
     1
 12
0.0
 22
0.0
 13
0.0
 23
0.0
 14
10.0
 24
10.0
 15
10.0
 25
10.0
 16
0.0
 26
0.0
 36
1.0
 17
0.0
 27
0.0
 37
0.0
 42
50.0
 43
0.0
 44
0.0
 45
397.8
 50
0.0
 51
0.0
 72
   100
 90
   557152
  1

281
     0
 71
     1
 74
     0
110
0.0
120
0.0
130
0.0
111
1.0
121
0.0
131
0.0
112
0.0
122
1.0
132
0.0
 79
     0
146
0.0
170
     0
 61
     5
348
2F
292
     1
282
     1
141
0.0
142
0.0
 63
   256
361
111
  0
ENDSEC
  0
SECTION
  2
OBJECTS
  0
DICTIONARY
  5
C
330
0
100
AcDbDictionary
281
     1
  3
ACAD_DETAILVIEWSTYLE
350
129
  3
ACAD_GROUP
350
D
  3
ACAD_LAYOUT
350
1A
  3
ACAD_MATERIAL
350
43
  3
ACAD_MLEADERSTYLE
350
6B
  3
ACAD_MLINESTYLE
350
17
  3
ACAD_PLOTSETTINGS
350
19
  3
ACAD_PLOTSTYLENAME
350
E
  3
ACAD_SCALELIST
350
47
  3
ACAD_SECTIONVIEWSTYLE
350
12A
  3
ACAD_TABLESTYLE
350
69
  3
ACAD_VISUALSTYLE
350
2A
  3
ACDB_RECOMPOSE_DATA
350
126
  3
AcDbVariableDictionary
350
122
  0
SUN
  5
6D
330
29
100
AcDbSun
 90
        1
290
     0
 63
     7
421
 16777215
 40
1.0
291
     1
 91
  2455826
 92
 54000000
292
     0
 70
     2
 71
   256
280
     1
  0
SUN
  5
113
330
112
100
AcDbSun
 90
        1
290
     0
 63
     7
421
 16777215
 40
1.0
291
     1
 91
  2455826
 92
 54000000
292
     0
 70
     2
 71
   256
280
     1
  0
SUN
  5
115
330
114
100
AcDbSun
 90
        1
290
     0
 63
     7
421
 16777215
 40
1.0
291
     1
 91
  2455826
 92
 54000000
292
     0
 70
     2
 71
   256
280
     1
  0
SUN
  5
117
330
116
100
AcDbSun
 90
        1
290
     0
 63
     7
421
 16777215
 40
1.0
291
     1
 91
  2455826
 92
 54000000
292
     0
 70
     2
 71
   256
280
     1
  0
SUN
  5
119
330
118
100
AcDbSun
 90
        1
290
     0
 63
     7
421
 16777215
 40
1.0
291
     1
 91
  2455826
 92
 54000000
292
     0
 70
     2
 71
   256
280
     1
  0
SUN
  5
11B
330
11A
100
AcDbSun
 90
        1
290
     0
 63
     7
421
 16777215
 40
1.0
291
     1
 91
  2455826
 92
 54000000
292
     0
 70
     2
 71
   256
280
     1
  0
SUN
  5
11D
330
11C
100
AcDbSun
 90
        1
290
     0
 63
     7
421
 16777215
 40
1.0
291
     1
 91
  2455826
 92
 54000000
292
     0
 70
     2
 71
   256
280
     1
  0
SUN
  5
11F
330
11E
100
AcDbSun
 90
        1
290
     0
 63
     7
421
 16777215
 40
1.0
291
     1
 91
  2455826
 92
 54000000
292
     0
 70
     2
 71
   256
280
     1
  0
SUN
  5
121
330
120
100
AcDbSun
 90
        1
290
     0
 63
     7
421
 16777215
 40
1.0
291
     1
 91
  2455826
 92
 54000000
292
     0
 70
     2
 71
   256
280
     1
  0
SUN
  5
111
330
110
100
AcDbSun
 90
        1
290
     0
 63
     7
421
 16777215
 40
1.0
291
     1
 91
  2455826
 92
 54000000
292
     0
 70
     2
 71
   256
280
     1
  0
DICTIONARY
  5
129
102
{ACAD_REACTORS
330
C
102
}
330
C
100
AcDbDictionary
281
     1
  0
DICTIONARY
  5
D
102
{ACAD_REACTORS
330
C
102
}
330
C
100
AcDbDictionary
281
     1
  0
DICTIONARY
  5
1A
102
{ACAD_REACTORS
330
C
102
}
330
C
100
AcDbDictionary
281
     1
  3
_Dimetrisch
350
106
  3
_Isometrisch
350
F4
  3
_Links
350
26
  3
_Normal auf
350
A0
  3
_Rechts
350
D4
  3
_Rückseite
350
B8
  3
_Trimetrisch
350
FD
  3
_Unten
350
EC
  3
_Vorderseite
350
1E
  3
Model
350
22
  0
DICTIONARY
  5
43
102
{ACAD_REACTORS
330
C
102
}
330
C
100
AcDbDictionary
281
     1
  3
ByBlock
350
45
  3
ByLayer
350
44
  3
Global
350
46
  0
DICTIONARY
  5
6B
102
{ACAD_REACTORS
330
C
102
}
330
C
100
AcDbDictionary
281
     1
  3
Standard
350
6C
  0
DICTIONARY
  5
17
102
{ACAD_REACTORS
330
C
102
}
330
C
100
AcDbDictionary
281
     1
  3
Standard
350
18
  0
DICTIONARY
  5
19
102
{ACAD_REACTORS
330
C
102
}
330
C
100
AcDbDictionary
281
     1
  0
ACDBDICTIONARYWDFLT
  5
E
102
{ACAD_REACTORS
330
C
102
}
330
C
100
AcDbDictionary
281
     1
  3
Normal
350
F
100
AcDbDictionaryWithDefault
340
F
  0
DICTIONARY
  5
47
102
{ACAD_REACTORS
330
C
102
}
330
C
100
AcDbDictionary
281
     1
  3
A0
350
48
  3
A1
350
49
  3
A2
350
4A
  3
A3
350
4B
  3
A4
350
4C
  3
A5
350
4D
  3
A6
350
4E
  3
A7
350
4F
  3
A8
350
50
  3
A9
350
51
  3
B0
350
52
  3
B1
350
53
  3
B2
350
54
  3
B3
350
55
  3
B4
350
56
  3
B5
350
57
  3
B6
350
58
  3
B7
350
59
  3
B8
350
5A
  3
B9
350
5B
  3
C0
350
5C
  3
C1
350
5D
  3
C2
350
5E
  3
C3
350
5F
  3
C4
350
60
  3
C5
350
61
  3
C6
350
62
  3
C7
350
63
  3
C8
350
64
  3
C9
350
65
  3
D0
350
66
  3
D1
350
67
  3
D2
350
68
  0
DICTIONARY
  5
12A
102
{ACAD_REACTORS
330
C
102
}
330
C
100
AcDbDictionary
281
     1
  0
DICTIONARY
  5
69
102
{ACAD_REACTORS
330
C
102
}
330
C
100
AcDbDictionary
281
     1
  3
Standard
350
6A
  0
DICTIONARY
  5
2A
102
{ACAD_REACTORS
330
C
102
}
330
C
100
AcDbDictionary
281
     1
  3
2dWireframe
350
2F
  3
Basic
350
32
  3
Brighten
350
36
  3
ColorChange
350
3A
  3
Conceptual
350
34
  3
Dim
350
35
  3
EdgeColorOff
350
3D
  3
Facepattern
350
39
  3
Flat
350
2B
  3
FlatWithEdges
350
2C
  3
Gouraud
350
2D
  3
GouraudWithEdges
350
2E
  3
Hidden
350
31
  3
JitterOff
350
3B
  3
Linepattern
350
38
  3
OverhangOff
350
3C
  3
Realistic
350
33
  3
Shaded
350
42
  3
Shaded with edges
350
41
  3
Shades of Gray
350
3E
  3
Sketchy
350
3F
  3
Thicken
350
37
  3
Wireframe
350
30
  3
X-Ray
350
40
  0
XRECORD
  5
126
102
{ACAD_REACTORS
330
C
102
}
330
C
100
AcDbXrecord
280
     1
 90
        1
330
6A
  0
DICTIONARY
  5
122
102
{ACAD_REACTORS
330
C
102
}
330
C
100
AcDbDictionary
281
     1
  3
CANNOSCALE
350
123
  3
CMLEADERSTYLE
350
128
  3
CTABLESTYLE
350
127
  0
LAYOUT
  5
106
102
{ACAD_REACTORS
330
1A
102
}
330
1A
100
AcDbPlotSettings
  1

  2
none_device
  4
ISO_A4_(210.00_x_297.00_MM)
  6

 40
7.5
 41
20.0
 42
7.5
 43
20.0
 44
210.0
 45
297.0
 46
0.0
 47
0.0
 48
0.0
 49
0.0
140
0.0
141
0.0
142
1.0
143
1.5175097276
 70
   688
 72
     1
 73
     1
 74
     1
  7

 75
     0
 76
     0
 77
     2
 78
   300
147
0.658974359
148
195.0
149
0.0
100
AcDbLayout
  1
_Dimetrisch
 70
     1
 71
     9
 10
0.0
 20
0.0
 11
0.0
 21
0.0
 12
0.0
 22
0.0
 32
0.0
 14
0.0
 24
0.0
 34
0.0
 15
0.0
 25
0.0
 35
0.0
146
0.0
 13
0.0
 23
0.0
 33
0.0
 16
1.0
 26
0.0
 36
0.0
 17
0.0
 27
1.0
 37
0.0
 76
     0
330
105
331
120
  0
LAYOUT
  5
F4
102
{ACAD_REACTORS
330
1A
102
}
330
1A
100
AcDbPlotSettings
  1

  2
none_device
  4
ISO_A4_(210.00_x_297.00_MM)
  6

 40
7.5
 41
20.0
 42
7.5
 43
20.0
 44
210.0
 45
297.0
 46
0.0
 47
0.0
 48
0.0
 49
0.0
140
0.0
141
0.0
142
1.0
143
1.5175097276
 70
   688
 72
     1
 73
     1
 74
     1
  7

 75
     0
 76
     0
 77
     2
 78
   300
147
0.658974359
148
195.0
149
0.0
100
AcDbLayout
  1
_Isometrisch
 70
     1
 71
     7
 10
0.0
 20
0.0
 11
0.0
 21
0.0
 12
0.0
 22
0.0
 32
0.0
 14
0.0
 24
0.0
 34
0.0
 15
0.0
 25
0.0
 35
0.0
146
0.0
 13
0.0
 23
0.0
 33
0.0
 16
1.0
 26
0.0
 36
0.0
 17
0.0
 27
1.0
 37
0.0
 76
     0
330
F3
331
11C
  0
LAYOUT
  5
26
102
{ACAD_REACTORS
330
1A
102
}
330
1A
100
AcDbPlotSettings
  1

  2
none_device
  4
ISO_A4_(210.00_x_297.00_MM)
  6

 40
7.5
 41
20.0
 42
7.5
 43
20.0
 44
210.0
 45
297.0
 46
0.0
 47
0.0
 48
0.0
 49
0.0
140
0.0
141
0.0
142
1.0
143
1.5175097276
 70
   688
 72
     1
 73
     1
 74
     1
  7

 75
     0
 76
     0
 77
     2
 78
   300
147
0.658974359
148
195.0
149
0.0
100
AcDbLayout
  1
_Links
 70
     1
 71
     2
 10
0.0
 20
0.0
 11
0.0
 21
0.0
 12
0.0
 22
0.0
 32
0.0
 14
0.0
 24
0.0
 34
0.0
 15
0.0
 25
0.0
 35
0.0
146
0.0
 13
0.0
 23
0.0
 33
0.0
 16
1.0
 26
0.0
 36
0.0
 17
0.0
 27
1.0
 37
0.0
 76
     0
330
23
331
112
  0
LAYOUT
  5
A0
102
{ACAD_REACTORS
330
1A
102
}
330
1A
100
AcDbPlotSettings
  1

  2
none_device
  4
ISO_A4_(210.00_x_297.00_MM)
  6

 40
7.5
 41
20.0
 42
7.5
 43
20.0
 44
210.0
 45
297.0
 46
0.0
 47
0.0
 48
0.0
 49
0.0
140
0.0
141
0.0
142
1.0
143
1.5175097276
 70
   688
 72
     1
 73
     1
 74
     1
  7

 75
     0
 76
     0
 77
     2
 78
   300
147
0.658974359
148
195.0
149
0.0
100
AcDbLayout
  1
_Normal auf
 70
     1
 71
     3
 10
0.0
 20
0.0
 11
0.0
 21
0.0
 12
0.0
 22
0.0
 32
0.0
 14
0.0
 24
0.0
 34
0.0
 15
0.0
 25
0.0
 35
0.0
146
0.0
 13
0.0
 23
0.0
 33
0.0
 16
1.0
 26
0.0
 36
0.0
 17
0.0
 27
1.0
 37
0.0
 76
     0
330
9F
331
114
  0
LAYOUT
  5
D4
102
{ACAD_REACTORS
330
1A
102
}
330
1A
100
AcDbPlotSettings
  1

  2
none_device
  4
ISO_A4_(210.00_x_297.00_MM)
  6

 40
7.5
 41
20.0
 42
7.5
 43
20.0
 44
210.0
 45
297.0
 46
0.0
 47
0.0
 48
0.0
 49
0.0
140
0.0
141
0.0
142
1.0
143
1.5175097276
 70
   688
 72
     1
 73
     1
 74
     1
  7

 75
     0
 76
     0
 77
     2
 78
   300
147
0.658974359
148
195.0
149
0.0
100
AcDbLayout
  1
_Rechts
 70
     1
 71
     5
 10
0.0
 20
0.0
 11
0.0
 21
0.0
 12
0.0
 22
0.0
 32
0.0
 14
0.0
 24
0.0
 34
0.0
 15
0.0
 25
0.0
 35
0.0
146
0.0
 13
0.0
 23
0.0
 33
0.0
 16
1.0
 26
0.0
 36
0.0
 17
0.0
 27
1.0
 37
0.0
 76
     0
330
D3
331
118
  0
LAYOUT
  5
B8
102
{ACAD_REACTORS
330
1A
102
}
330
1A
100
AcDbPlotSettings
  1

  2
none_device
  4
ISO_A4_(210.00_x_297.00_MM)
  6

 40
7.5
 41
20.0
 42
7.5
 43
20.0
 44
210.0
 45
297.0
 46
0.0
 47
0.0
 48
0.0
 49
0.0
140
0.0
141
0.0
142
1.0
143
1.5175097276
 70
   688
 72
     1
 73
     1
 74
     1
  7

 75
     0
 76
     0
 77
     2
 78
   300
147
0.658974359
148
195.0
149
0.0
100
AcDbLayout
  1
_Rückseite
 70
     1
 71
     4
 10
0.0
 20
0.0
 11
0.0
 21
0.0
 12
0.0
 22
0.0
 32
0.0
 14
0.0
 24
0.0
 34
0.0
 15
0.0
 25
0.0
 35
0.0
146
0.0
 13
0.0
 23
0.0
 33
0.0
 16
1.0
 26
0.0
 36
0.0
 17
0.0
 27
1.0
 37
0.0
 76
     0
330
B7
331
116
  0
LAYOUT
  5
FD
102
{ACAD_REACTORS
330
1A
102
}
330
1A
100
AcDbPlotSettings
  1

  2
none_device
  4
ISO_A4_(210.00_x_297.00_MM)
  6

 40
7.5
 41
20.0
 42
7.5
 43
20.0
 44
210.0
 45
297.0
 46
0.0
 47
0.0
 48
0.0
 49
0.0
140
0.0
141
0.0
142
1.0
143
1.5175097276
 70
   688
 72
     1
 73
     1
 74
     1
  7

 75
     0
 76
     0
 77
     2
 78
   300
147
0.658974359
148
195.0
149
0.0
100
AcDbLayout
  1
_Trimetrisch
 70
     1
 71
     8
 10
0.0
 20
0.0
 11
0.0
 21
0.0
 12
0.0
 22
0.0
 32
0.0
 14
0.0
 24
0.0
 34
0.0
 15
0.0
 25
0.0
 35
0.0
146
0.0
 13
0.0
 23
0.0
 33
0.0
 16
1.0
 26
0.0
 36
0.0
 17
0.0
 27
1.0
 37
0.0
 76
     0
330
FC
331
11E
  0
LAYOUT
  5
EC
102
{ACAD_REACTORS
330
1A
102
}
330
1A
100
AcDbPlotSettings
  1

  2
none_device
  4
ISO_A4_(210.00_x_297.00_MM)
  6

 40
7.5
 41
20.0
 42
7.5
 43
20.0
 44
210.0
 45
297.0
 46
0.0
 47
0.0
 48
0.0
 49
0.0
140
0.0
141
0.0
142
1.0
143
1.5175097276
 70
   688
 72
     1
 73
     1
 74
     1
  7

 75
     0
 76
     0
 77
     2
 78
   300
147
0.658974359
148
195.0
149
0.0
100
AcDbLayout
  1
_Unten
 70
     1
 71
     6
 10
0.0
 20
0.0
 11
0.0
 21
0.0
 12
0.0
 22
0.0
 32
0.0
 14
0.0
 24
0.0
 34
0.0
 15
0.0
 25
0.0
 35
0.0
146
0.0
 13
0.0
 23
0.0
 33
0.0
 16
1.0
 26
0.0
 36
0.0
 17
0.0
 27
1.0
 37
0.0
 76
     0
330
EB
331
11A
  0
LAYOUT
  5
1E
102
{ACAD_REACTORS
330
1A
102
}
330
1A
100
AcDbPlotSettings
  1

  2
none_device
  4
ISO_A4_(210.00_x_297.00_MM)
  6

 40
7.5
 41
20.0
 42
7.5
 43
20.0
 44
210.0
 45
297.0
 46
0.0
 47
0.0
 48
0.0
 49
0.0
140
0.0
141
0.0
142
1.0
143
1.5175097276
 70
   688
 72
     1
 73
     1
 74
     1
  7

 75
     0
 76
     0
 77
     2
 78
   300
147
0.658974359
148
195.0
149
0.0
100
AcDbLayout
  1
_Vorderseite
 70
     1
 71
     1
 10
-225.3501945526
 20
-11.3813229572
 11
225.3501945525
 21
307.2957198444
 12
0.0
 22
0.0
 32
0.0
 14
-195.0
 24
0.0
 34
0.0
 15
195.0
 25
160.0
 35
0.0
146
0.0
 13
0.0
 23
0.0
 33
0.0
 16
1.0
 26
0.0
 36
0.0
 17
0.0
 27
1.0
 37
0.0
 76
     0
330
1B
331
110
  0
LAYOUT
  5
22
102
{ACAD_REACTORS
330
1A
102
}
330
1A
100
AcDbPlotSettings
  1

  2
none_device
  4
ANSI_A_(11.00_x_8.50_Inches)
  6

 40
6.35
 41
19.05
 42
6.35000508
 43
19.05000254
 44
279.4
 45
215.9
 46
133.34999746
 47
88.89999873
 48
0.0
 49
0.0
140
0.0
141
0.0
142
0.0215769231
143
1.0
 70
  1696
 72
     0
 73
     0
 74
     0
  7

 75
     0
 76
     0
 77
     2
 78
   300
147
0.0179189148
148
-1300.4909072572
149
0.0
100
AcDbLayout
  1
Model
 70
     1
 71
     0
 10
0.0
 20
0.0
 11
420.0
 21
297.0
 12
0.0
 22
0.0
 32
0.0
 14
-195.0
 24
-195.0
 34
0.0
 15
195.0
 25
195.0
 35
0.0
146
0.0
 13
0.0
 23
0.0
 33
0.0
 16
1.0
 26
0.0
 36
0.0
 17
0.0
 27
1.0
 37
0.0
 76
     0
330
1F
331
29
  0
MATERIAL
  5
45
102
{ACAD_REACTORS
330
43
102
}
330
43
100
AcDbMaterial
  1
ByBlock
 72
     1
 94
      127
  0
MATERIAL
  5
44
102
{ACAD_REACTORS
330
43
102
}
330
43
100
AcDbMaterial
  1
ByLayer
 72
     1
 94
      127
  0
MATERIAL
  5
46
102
{ACAD_REACTORS
330
43
102
}
330
43
100
AcDbMaterial
  1
Global
 72
     1
 94
      127
  0
MLEADERSTYLE
  5
6C
102
{ACAD_REACTORS
330
6B
102
}
330
6B
100
AcDbMLeaderStyle
179
     2
170
     2
171
     1
172
     0
 90
        2
 40
0.0
 41
0.0
173
     1
 91
-1056964608
340
14
 92
       -2
290
     1
 42
2.0
291
     1
 43
8.0
  3
Standard
341
0
 44
4.0
300

342
11
174
     1
178
     6
175
     1
176
     0
 93
-1056964608
 45
4.0
292
     0
297
     0
 46
4.0
343
0
 94
-1056964608
 47
1.0
 49
1.0
140
1.0
293
     1
141
0.0
294
     1
177
     0
142
1.0
295
     0
296
     0
143
3.75
271
     0
272
     9
273
     9
298
     0
  0
MLINESTYLE
  5
18
102
{ACAD_REACTORS
330
17
102
}
330
17
100
AcDbMlineStyle
  2
Standard
 70
     0
  3

 62
   256
 51
90.0
 52
90.0
 71
     2
 49
0.5
 62
   256
  6
BYLAYER
 49
-0.5
 62
   256
  6
BYLAYER
  0
ACDBPLACEHOLDER
  5
F
102
{ACAD_REACTORS
330
E
102
}
330
E
  0
SCALE
  5
48
102
{ACAD_REACTORS
330
47
102
}
330
47
100
AcDbScale
 70
     0
300
1:1
140
1.0
141
1.0
290
     1
  0
SCALE
  5
49
102
{ACAD_REACTORS
330
47
102
}
330
47
100
AcDbScale
 70
     0
300
1:2
140
1.0
141
2.0
290
     0
  0
SCALE
  5
4A
102
{ACAD_REACTORS
330
47
102
}
330
47
100
AcDbScale
 70
     0
300
1:4
140
1.0
141
4.0
290
     0
  0
SCALE
  5
4B
102
{ACAD_REACTORS
330
47
102
}
330
47
100
AcDbScale
 70
     0
300
1:5
140
1.0
141
5.0
290
     0
  0
SCALE
  5
4C
102
{ACAD_REACTORS
330
47
102
}
330
47
100
AcDbScale
 70
     0
300
1:8
140
1.0
141
8.0
290
     0
  0
SCALE
  5
4D
102
{ACAD_REACTORS
330
47
102
}
330
47
100
AcDbScale
 70
     0
300
1:10
140
1.0
141
10.0
290
     0
  0
SCALE
  5
4E
102
{ACAD_REACTORS
330
47
102
}
330
47
100
AcDbScale
 70
     0
300
1:16
140
1.0
141
16.0
290
     0
  0
SCALE
  5
4F
102
{ACAD_REACTORS
330
47
102
}
330
47
100
AcDbScale
 70
     0
300
1:20
140
1.0
141
20.0
290
     0
  0
SCALE
  5
50
102
{ACAD_REACTORS
330
47
102
}
330
47
100
AcDbScale
 70
     0
300
1:30
140
1.0
141
30.0
290
     0
  0
SCALE
  5
51
102
{ACAD_REACTORS
330
47
102
}
330
47
100
AcDbScale
 70
     0
300
1:40
140
1.0
141
40.0
290
     0
  0
SCALE
  5
52
102
{ACAD_REACTORS
330
47
102
}
330
47
100
AcDbScale
 70
     0
300
1:50
140
1.0
141
50.0
290
     0
  0
SCALE
  5
53
102
{ACAD_REACTORS
330
47
102
}
330
47
100
AcDbScale
 70
     0
300
1:100
140
1.0
141
100.0
290
     0
  0
SCALE
  5
54
102
{ACAD_REACTORS
330
47
102
}
330
47
100
AcDbScale
 70
     0
300
2:1
140
2.0
141
1.0
290
     0
  0
SCALE
  5
55
102
{ACAD_REACTORS
330
47
102
}
330
47
100
AcDbScale
 70
     0
300
4:1
140
4.0
141
1.0
290
     0
  0
SCALE
  5
56
102
{ACAD_REACTORS
330
47
102
}
330
47
100
AcDbScale
 70
     0
300
8:1
140
8.0
141
1.0
290
     0
  0
SCALE
  5
57
102
{ACAD_REACTORS
330
47
102
}
330
47
100
AcDbScale
 70
     0
300
10:1
140
10.0
141
1.0
290
     0
  0
SCALE
  5
58
102
{ACAD_REACTORS
330
47
102
}
330
47
100
AcDbScale
 70
     0
300
100:1
140
100.0
141
1.0
290
     0
  0
SCALE
  5
59
102
{ACAD_REACTORS
330
47
102
}
330
47
100
AcDbScale
 70
     0
300
1/128" = 1'-0"
140
0.0078125
141
12.0
290
     0
  0
SCALE
  5
5A
102
{ACAD_REACTORS
330
47
102
}
330
47
100
AcDbScale
 70
     0
300
1/64" = 1'-0"
140
0.015625
141
12.0
290
     0
  0
SCALE
  5
5B
102
{ACAD_REACTORS
330
47
102
}
330
47
100
AcDbScale
 70
     0
300
1/32" = 1'-0"
140
0.03125
141
12.0
290
     0
  0
SCALE
  5
5C
102
{ACAD_REACTORS
330
47
102
}
330
47
100
AcDbScale
 70
     0
300
1/16" = 1'-0"
140
0.0625
141
12.0
290
     0
  0
SCALE
  5
5D
102
{ACAD_REACTORS
330
47
102
}
330
47
100
AcDbScale
 70
     0
300
3/32" = 1'-0"
140
0.09375
141
12.0
290
     0
  0
SCALE
  5
5E
102
{ACAD_REACTORS
330
47
102
}
330
47
100
AcDbScale
 70
     0
300
1/8" = 1'-0"
140
0.125
141
12.0
290
     0
  0
SCALE
  5
5F
102
{ACAD_REACTORS
330
47
102
}
330
47
100
AcDbScale
 70
     0
300
3/16" = 1'-0"
140
0.1875
141
12.0
290
     0
  0
SCALE
  5
60
102
{ACAD_REACTORS
330
47
102
}
330
47
100
AcDbScale
 70
     0
300
1/4" = 1'-0"
140
0.25
141
12.0
290
     0
  0
SCALE
  5
61
102
{ACAD_REACTORS
330
47
102
}
330
47
100
AcDbScale
 70
     0
300
3/8" = 1'-0"
140
0.375
141
12.0
290
     0
  0
SCALE
  5
62
102
{ACAD_REACTORS
330
47
102
}
330
47
100
AcDbScale
 70
     0
300
1/2" = 1'-0"
140
0.5
141
12.0
290
     0
  0
SCALE
  5
63
102
{ACAD_REACTORS
330
47
102
}
330
47
100
AcDbScale
 70
     0
300
3/4" = 1'-0"
140
0.75
141
12.0
290
     0
  0
SCALE
  5
64
102
{ACAD_REACTORS
330
47
102
}
330
47
100
AcDbScale
 70
     0
300
1" = 1'-0"
140
1.0
141
12.0
290
     0
  0
SCALE
  5
65
102
{ACAD_REACTORS
330
47
102
}
330
47
100
AcDbScale
 70
     0
300
1-1/2" = 1'-0"
140
1.5
141
12.0
290
     0
  0
SCALE
  5
66
102
{ACAD_REACTORS
330
47
102
}
330
47
100
AcDbScale
 70
     0
300
3" = 1'-0"
140
3.0
141
12.0
290
     0
  0
SCALE
  5
67
102
{ACAD_REACTORS
330
47
102
}
330
47
100
AcDbScale
 70
     0
300
6" = 1'-0"
140
6.0
141
12.0
290
     0
  0
SCALE
  5
68
102
{ACAD_REACTORS
330
47
102
}
330
47
100
AcDbScale
 70
     0
300
1'-0" = 1'-0"
140
12.0
141
12.0
290
     0
  0
TABLESTYLE
  5
6A
102
{ACAD_REACTORS
330
69
102
}
102
{ACAD_XDICTIONARY
360
124
102
}
330
69
100
AcDbTableStyle
  3
Standard
 70
     0
 71
     0
 40
0.06
 41
0.06
280
     0
281
     0
  7
STANDARD
140
4.5
170
     2
 62
     0
 63
   257
283
     0
 90
        4
 91
        0
  1

274
    -2
284
     1
 64
     0
275
    -2
285
     1
 65
     0
276
    -2
286
     1
 66
     0
277
    -2
287
     1
 67
     0
278
    -2
288
     1
 68
     0
279
    -2
289
     1
 69
     0
  7
STANDARD
140
6.0
170
     5
 62
     0
 63
   257
283
     0
 90
        4
 91
        0
  1

274
    -2
284
     1
 64
     0
275
    -2
285
     1
 65
     0
276
    -2
286
     1
 66
     0
277
    -2
287
     1
 67
     0
278
    -2
288
     1
 68
     0
279
    -2
289
     1
 69
     0
  7
STANDARD
140
4.5
170
     5
 62
     0
 63
   257
283
     0
 90
        4
 91
        0
  1

274
    -2
284
     1
 64
     0
275
    -2
285
     1
 65
     0
276
    -2
286
     1
 66
     0
277
    -2
287
     1
 67
     0
278
    -2
288
     1
 68
     0
279
    -2
289
     1
 69
     0
  0
VISUALSTYLE
  5
2F
102
{ACAD_REACTORS
330
2A
102
}
330
2A
100
AcDbVisualStyle
  2
2dWireframe
 70
     4
177
     3
291
     0
 70
    58
 90
        0
176
     1
 90
        2
176
     1
 90
        0
176
     1
 90
        0
176
     1
 40
0.6
176
     1
 40
30.0
176
     1
 62
     7
420
 16777215
176
     1
 90
        1
176
     1
 90
        4
176
     1
 62
     7
176
     1
 62
   257
176
     1
 90
        1
176
     1
 90
        1
176
     1
 40
1.0
176
     1
 90
        0
176
     1
 62
   257
176
     1
 40
1.0
176
     1
 90
        1
176
     1
 90
        6
176
     1
 90
        2
176
     1
 62
     7
176
     1
 90
        5
176
     1
 90
        0
176
     1
 90
        0
176
     1
290
     0
176
     1
 90
        1
176
     1
 40
0.0
176
     1
 90
        0
176
     1
290
     1
176
     1
290
     1
176
     1
290
     0
176
     1
290
     0
176
     1
290
     0
176
     1
290
     0
176
     1
290
     0
176
     1
290
     0
176
     1
290
     0
176
     1
 90
       50
176
     1
 40
0.0
176
     1
 40
1.0
176
     1
 90
        0
176
     1
 62
    18
420
        0
176
     1
 90
       50
176
     1
 90
        3
176
     1
 62
     5
420
      255
176
     1
290
     0
176
     1
 90
       50
176
     1
 90
       50
176
     1
 90
       50
176
     1
290
     0
176
     1
 90
       50
176
     1
 62
   256
176
     0
 40
1.0
176
     0
 90
        2
176
     1
  1
strokes_ogs.tif
176
     1
290
     0
176
     1
 40
1.0
176
     1
 40
1.0
176
     1
  0
VISUALSTYLE
  5
32
102
{ACAD_REACTORS
330
2A
102
}
330
2A
100
AcDbVisualStyle
  2
Basic
 70
     7
177
     3
291
     1
 70
    58
 90
        1
176
     1
 90
        0
176
     1
 90
        1
176
     1
 90
        0
176
     1
 40
0.6
176
     1
 40
30.0
176
     1
 62
     7
420
 16777215
176
     1
 90
        0
176
     1
 90
        4
176
     1
 62
     7
176
     1
 62
   257
176
     1
 90
        1
176
     1
 90
        1
176
     1
 40
1.0
176
     1
 90
        8
176
     1
 62
     7
176
     1
 40
1.0
176
     1
 90
        1
176
     1
 90
        6
176
     1
 90
        2
176
     1
 62
     7
176
     1
 90
        5
176
     1
 90
        0
176
     1
 90
        0
176
     1
290
     0
176
     1
 90
        1
176
     1
 40
0.0
176
     1
 90
        0
176
     1
290
     0
176
     1
290
     1
176
     1
290
     1
176
     1
290
     0
176
     1
290
     0
176
     1
290
     0
176
     1
290
     0
176
     1
290
     0
176
     1
290
     0
176
     1
 90
       50
176
     1
 40
0.0
176
     1
 40
1.0
176
     1
 90
        0
176
     1
 62
    18
420
        0
176
     1
 90
       50
176
     1
 90
        3
176
     1
 62
     5
420
      255
176
     1
290
     0
176
     1
 90
       50
176
     1
 90
       50
176
     1
 90
       50
176
     1
290
     0
176
     1
 90
       50
176
     1
 62
   256
176
     0
 40
1.0
176
     0
 90
        2
176
     1
  1
strokes_ogs.tif
176
     1
290
     0
176
     1
 40
1.0
176
     1
 40
1.0
176
     1
  0
VISUALSTYLE
  5
36
102
{ACAD_REACTORS
330
2A
102
}
330
2A
100
AcDbVisualStyle
  2
Brighten
 70
    12
177
     3
291
     1
 70
    58
 90
        2
176
     1
 90
        2
176
     1
 90
        0
176
     1
 90
        0
176
     1
 40
0.6
176
     1
 40
30.0
176
     1
 62
     7
420
 16777215
176
     1
 90
        1
176
     1
 90
        4
176
     1
 62
     7
176
     1
 62
   257
176
     1
 90
        1
176
     1
 90
        1
176
     1
 40
1.0
176
     1
 90
        8
176
     1
 62
     7
176
     1
 40
1.0
176
     1
 90
        1
176
     1
 90
        6
176
     1
 90
        2
176
     1
 62
     7
176
     1
 90
        5
176
     1
 90
        0
176
     1
 90
        0
176
     1
290
     0
176
     1
 90
        1
176
     1
 40
50.0
176
     1
 90
        0
176
     1
290
     0
176
     1
290
     1
176
     1
290
     1
176
     1
290
     0
176
     1
290
     0
176
     1
290
     0
176
     1
290
     0
176
     1
290
     0
176
     1
290
     0
176
     1
 90
       50
176
     1
 40
0.0
176
     1
 40
1.0
176
     1
 90
        0
176
     1
 62
    18
420
        0
176
     1
 90
       50
176
     1
 90
        3
176
     1
 62
     5
420
      255
176
     1
290
     0
176
     1
 90
       50
176
     1
 90
       50
176
     1
 90
       50
176
     1
290
     0
176
     1
 90
       50
176
     1
 62
   256
176
     0
 40
1.0
176
     0
 90
        2
176
     1
  1
strokes_ogs.tif
176
     1
290
     0
176
     1
 40
1.0
176
     1
 40
1.0
176
     1
  0
VISUALSTYLE
  5
3A
102
{ACAD_REACTORS
330
2A
102
}
330
2A
100
AcDbVisualStyle
  2
ColorChange
 70
    16
177
     3
291
     1
 70
    58
 90
        2
176
     1
 90
        2
176
     1
 90
        3
176
     1
 90
        0
176
     1
 40
0.6
176
     1
 40
30.0
176
     1
 62
     8
420
  8421504
176
     1
 90
        1
176
     1
 90
        4
176
     1
 62
     7
176
     1
 62
   257
176
     1
 90
        1
176
     1
 90
        1
176
     1
 40
1.0
176
     1
 90
        8
176
     1
 62
     8
420
  8421504
176
     1
 40
1.0
176
     1
 90
        1
176
     1
 90
        6
176
     1
 90
        2
176
     1
 62
     7
176
     1
 90
        5
176
     1
 90
        0
176
     1
 90
        0
176
     1
290
     0
176
     1
 90
        1
176
     1
 40
0.0
176
     1
 90
        0
176
     1
290
     0
176
     1
290
     1
176
     1
290
     1
176
     1
290
     0
176
     1
290
     0
176
     1
290
     0
176
     1
290
     0
176
     1
290
     0
176
     1
290
     0
176
     1
 90
       50
176
     1
 40
0.0
176
     1
 40
1.0
176
     1
 90
        0
176
     1
 62
    18
420
        0
176
     1
 90
       50
176
     1
 90
        3
176
     1
 62
     5
420
      255
176
     1
290
     0
176
     1
 90
       50
176
     1
 90
       50
176
     1
 90
       50
176
     1
290
     0
176
     1
 90
       50
176
     1
 62
   256
176
     0
 40
1.0
176
     0
 90
        2
176
     1
  1
strokes_ogs.tif
176
     1
290
     0
176
     1
 40
1.0
176
     1
 40
1.0
176
     1
  0
VISUALSTYLE
  5
34
102
{ACAD_REACTORS
330
2A
102
}
330
2A
100
AcDbVisualStyle
  2
Conceptual
 70
     9
177
     3
291
     0
 70
    58
 90
        3
176
     1
 90
        2
176
     1
 90
        0
176
     1
 90
        0
176
     1
 40
0.6
176
     1
 40
30.0
176
     1
 62
     7
420
 16777215
176
     1
 90
        2
176
     1
 90
        2
176
     1
 62
     7
176
     1
 62
   257
176
     1
 90
        1
176
     1
 90
        1
176
     1
 40
179.0
176
     1
 90
        8
176
     1
 62
     7
176
     1
 40
1.0
176
     1
 90
        1
176
     1
 90
        6
176
     1
 90
        2
176
     1
 62
     7
176
     1
 90
        3
176
     1
 90
        0
176
     1
 90
        0
176
     1
290
     0
176
     1
 90
        1
176
     1
 40
0.0
176
     1
 90
        0
176
     1
290
     0
176
     1
290
     1
176
     1
290
     1
176
     1
290
     0
176
     1
290
     0
176
     1
290
     0
176
     1
290
     0
176
     1
290
     0
176
     1
290
     0
176
     1
 90
       50
176
     1
 40
0.0
176
     1
 40
1.0
176
     1
 90
        0
176
     1
 62
    18
420
        0
176
     1
 90
       50
176
     1
 90
        3
176
     1
 62
     5
420
      255
176
     1
290
     0
176
     1
 90
       50
176
     1
 90
       50
176
     1
 90
       50
176
     1
290
     0
176
     1
 90
       50
176
     1
 62
   256
176
     0
 40
1.0
176
     0
 90
        2
176
     1
  1
strokes_ogs.tif
176
     1
290
     0
176
     1
 40
1.0
176
     1
 40
1.0
176
     1
  0
VISUALSTYLE
  5
35
102
{ACAD_REACTORS
330
2A
102
}
330
2A
100
AcDbVisualStyle
  2
Dim
 70
    11
177
     3
291
     1
 70
    58
 90
        2
176
     1
 90
        2
176
     1
 90
        0
176
     1
 90
        0
176
     1
 40
0.6
176
     1
 40
30.0
176
     1
 62
     7
420
 16777215
176
     1
 90
        1
176
     1
 90
        4
176
     1
 62
     7
176
     1
 62
   257
176
     1
 90
        1
176
     1
 90
        1
176
     1
 40
1.0
176
     1
 90
        8
176
     1
 62
     7
176
     1
 40
1.0
176
     1
 90
        1
176
     1
 90
        6
176
     1
 90
        2
176
     1
 62
     7
176
     1
 90
        5
176
     1
 90
        0
176
     1
 90
        0
176
     1
290
     0
176
     1
 90
        1
176
     1
 40
-50.0
176
     1
 90
        0
176
     1
290
     0
176
     1
290
     1
176
     1
290
     1
176
     1
290
     0
176
     1
290
     0
176
     1
290
     0
176
     1
290
     0
176
     1
290
     0
176
     1
290
     0
176
     1
 90
       50
176
     1
 40
0.0
176
     1
 40
1.0
176
     1
 90
        0
176
     1
 62
    18
420
        0
176
     1
 90
       50
176
     1
 90
        3
176
     1
 62
     5
420
      255
176
     1
290
     0
176
     1
 90
       50
176
     1
 90
       50
176
     1
 90
       50
176
     1
290
     0
176
     1
 90
       50
176
     1
 62
   256
176
     0
 40
1.0
176
     0
 90
        2
176
     1
  1
strokes_ogs.tif
176
     1
290
     0
176
     1
 40
1.0
176
     1
 40
1.0
176
     1
  0
VISUALSTYLE
  5
3D
102
{ACAD_REACTORS
330
2A
102
}
330
2A
100
AcDbVisualStyle
  2
EdgeColorOff
 70
    22
177
     3
291
     1
 70
    58
 90
        2
176
     0
 90
        2
176
     0
 90
        0
176
     0
 90
        0
176
     0
 40
0.6
176
     0
 40
30.0
176
     0
 62
     7
420
 16777215
176
     0
 90
        1
176
     0
 90
        4
176
     0
 62
     7
176
     0
 62
   257
176
     0
 90
        1
176
     0
 90
        1
176
     0
 40
1.0
176
     0
 90
        8
176
     2
 62
     7
176
     0
 40
1.0
176
     0
 90
        1
176
     0
 90
        6
176
     0
 90
        2
176
     0
 62
     7
176
     0
 90
        5
176
     0
 90
        0
176
     0
 90
        0
176
     0
290
     0
176
     0
 90
        1
176
     0
 40
0.0
176
     0
 90
        0
176
     0
290
     0
176
     0
290
     1
176
     0
290
     1
176
     0
290
     0
176
     0
290
     0
176
     0
290
     0
176
     0
290
     0
176
     0
290
     0
176
     0
290
     0
176
     0
 90
       50
176
     0
 40
0.0
176
     0
 40
1.0
176
     0
 90
        0
176
     0
 62
    18
420
        0
176
     0
 90
       50
176
     0
 90
        3
176
     0
 62
     5
420
      255
176
     0
290
     0
176
     0
 90
       50
176
     0
 90
       50
176
     0
 90
       50
176
     0
290
     0
176
     0
 90
       50
176
     0
 62
   256
176
     0
 40
1.0
176
     0
 90
        2
176
     0
  1
strokes_ogs.tif
176
     0
290
     0
176
     0
 40
1.0
176
     0
 40
1.0
176
     0
  0
VISUALSTYLE
  5
39
102
{ACAD_REACTORS
330
2A
102
}
330
2A
100
AcDbVisualStyle
  2
Facepattern
 70
    15
177
     3
291
     1
 70
    58
 90
        2
176
     1
 90
        2
176
     1
 90
        0
176
     1
 90
        0
176
     1
 40
0.6
176
     1
 40
30.0
176
     1
 62
     7
420
 16777215
176
     1
 90
        1
176
     1
 90
        4
176
     1
 62
     7
176
     1
 62
   257
176
     1
 90
        1
176
     1
 90
        1
176
     1
 40
1.0
176
     1
 90
        8
176
     1
 62
     7
176
     1
 40
1.0
176
     1
 90
        1
176
     1
 90
        6
176
     1
 90
        2
176
     1
 62
     7
176
     1
 90
        5
176
     1
 90
        0
176
     1
 90
        0
176
     1
290
     0
176
     1
 90
        1
176
     1
 40
0.0
176
     1
 90
        0
176
     1
290
     0
176
     1
290
     1
176
     1
290
     1
176
     1
290
     0
176
     1
290
     0
176
     1
290
     0
176
     1
290
     0
176
     1
290
     0
176
     1
290
     0
176
     1
 90
       50
176
     1
 40
0.0
176
     1
 40
1.0
176
     1
 90
        0
176
     1
 62
    18
420
        0
176
     1
 90
       50
176
     1
 90
        3
176
     1
 62
     5
420
      255
176
     1
290
     0
176
     1
 90
       50
176
     1
 90
       50
176
     1
 90
       50
176
     1
290
     0
176
     1
 90
       50
176
     1
 62
   256
176
     0
 40
1.0
176
     0
 90
        2
176
     1
  1
strokes_ogs.tif
176
     1
290
     0
176
     1
 40
1.0
176
     1
 40
1.0
176
     1
  0
VISUALSTYLE
  5
2B
102
{ACAD_REACTORS
330
2A
102
}
330
2A
100
AcDbVisualStyle
  2
Flat
 70
     0
177
     3
291
     1
 70
    58
 90
        2
176
     1
 90
        1
176
     1
 90
        1
176
     1
 90
        2
176
     1
 40
0.6
176
     1
 40
30.0
176
     1
 62
     7
420
 16777215
176
     1
 90
        0
176
     1
 90
        0
176
     1
 62
     7
176
     1
 62
   257
176
     1
 90
        1
176
     1
 90
        1
176
     1
 40
1.0
176
     1
 90
        8
176
     1
 62
     7
176
     1
 40
1.0
176
     1
 90
        1
176
     1
 90
        6
176
     1
 90
        2
176
     1
 62
     7
176
     1
 90
        5
176
     1
 90
        0
176
     1
 90
        0
176
     1
290
     0
176
     1
 90
       13
176
     1
 40
0.0
176
     1
 90
        0
176
     1
290
     0
176
     1
290
     1
176
     1
290
     1
176
     1
290
     0
176
     1
290
     0
176
     1
290
     0
176
     1
290
     0
176
     1
290
     0
176
     1
290
     0
176
     1
 90
       50
176
     1
 40
0.0
176
     1
 40
1.0
176
     1
 90
        0
176
     1
 62
    18
420
        0
176
     1
 90
       50
176
     1
 90
        3
176
     1
 62
     5
420
      255
176
     1
290
     0
176
     1
 90
       50
176
     1
 90
       50
176
     1
 90
       50
176
     1
290
     0
176
     1
 90
       50
176
     1
 62
   256
176
     0
 40
1.0
176
     0
 90
        2
176
     1
  1
strokes_ogs.tif
176
     1
290
     0
176
     1
 40
1.0
176
     1
 40
1.0
176
     1
  0
VISUALSTYLE
  5
2C
102
{ACAD_REACTORS
330
2A
102
}
330
2A
100
AcDbVisualStyle
  2
FlatWithEdges
 70
     1
177
     3
291
     1
 70
    58
 90
        2
176
     1
 90
        1
176
     1
 90
        1
176
     1
 90
        2
176
     1
 40
0.6
176
     1
 40
30.0
176
     1
 62
     7
420
 16777215
176
     1
 90
        1
176
     1
 90
        0
176
     1
 62
     7
176
     1
 62
   257
176
     1
 90
        1
176
     1
 90
        1
176
     1
 40
1.0
176
     1
 90
        0
176
     1
 62
   257
176
     1
 40
1.0
176
     1
 90
        1
176
     1
 90
        6
176
     1
 90
        2
176
     1
 62
     7
176
     1
 90
        5
176
     1
 90
        0
176
     1
 90
        0
176
     1
290
     0
176
     1
 90
       13
176
     1
 40
0.0
176
     1
 90
        0
176
     1
290
     0
176
     1
290
     1
176
     1
290
     1
176
     1
290
     0
176
     1
290
     0
176
     1
290
     0
176
     1
290
     0
176
     1
290
     0
176
     1
290
     0
176
     1
 90
       50
176
     1
 40
0.0
176
     1
 40
1.0
176
     1
 90
        0
176
     1
 62
    18
420
        0
176
     1
 90
       50
176
     1
 90
        3
176
     1
 62
     5
420
      255
176
     1
290
     0
176
     1
 90
       50
176
     1
 90
       50
176
     1
 90
       50
176
     1
290
     0
176
     1
 90
       50
176
     1
 62
   256
176
     0
 40
1.0
176
     0
 90
        2
176
     1
  1
strokes_ogs.tif
176
     1
290
     0
176
     1
 40
1.0
176
     1
 40
1.0
176
     1
  0
VISUALSTYLE
  5
2D
102
{ACAD_REACTORS
330
2A
102
}
330
2A
100
AcDbVisualStyle
  2
Gouraud
 70
     2
177
     3
291
     1
 70
    58
 90
        2
176
     1
 90
        2
176
     1
 90
        1
176
     1
 90
        2
176
     1
 40
0.6
176
     1
 40
30.0
176
     1
 62
     7
420
 16777215
176
     1
 90
        0
176
     1
 90
        0
176
     1
 62
     7
176
     1
 62
   257
176
     1
 90
        1
176
     1
 90
        1
176
     1
 40
1.0
176
     1
 90
        0
176
     1
 62
     7
176
     1
 40
1.0
176
     1
 90
        1
176
     1
 90
        6
176
     1
 90
        2
176
     1
 62
     7
176
     1
 90
        5
176
     1
 90
        0
176
     1
 90
        0
176
     1
290
     0
176
     1
 90
       13
176
     1
 40
0.0
176
     1
 90
        0
176
     1
290
     0
176
     1
290
     1
176
     1
290
     1
176
     1
290
     0
176
     1
290
     0
176
     1
290
     0
176
     1
290
     0
176
     1
290
     0
176
     1
290
     0
176
     1
 90
       50
176
     1
 40
0.0
176
     1
 40
1.0
176
     1
 90
        0
176
     1
 62
    18
420
        0
176
     1
 90
       50
176
     1
 90
        3
176
     1
 62
     5
420
      255
176
     1
290
     0
176
     1
 90
       50
176
     1
 90
       50
176
     1
 90
       50
176
     1
290
     0
176
     1
 90
       50
176
     1
 62
   256
176
     0
 40
1.0
176
     0
 90
        2
176
     1
  1
strokes_ogs.tif
176
     1
290
     0
176
     1
 40
1.0
176
     1
 40
1.0
176
     1
  0
VISUALSTYLE
  5
2E
102
{ACAD_REACTORS
330
2A
102
}
330
2A
100
AcDbVisualStyle
  2
GouraudWithEdges
 70
     3
177
     3
291
     1
 70
    58
 90
        2
176
     1
 90
        2
176
     1
 90
        1
176
     1
 90
        2
176
     1
 40
0.6
176
     1
 40
30.0
176
     1
 62
     7
420
 16777215
176
     1
 90
        1
176
     1
 90
        0
176
     1
 62
     7
176
     1
 62
   257
176
     1
 90
        1
176
     1
 90
        1
176
     1
 40
1.0
176
     1
 90
        0
176
     1
 62
   257
176
     1
 40
1.0
176
     1
 90
        1
176
     1
 90
        6
176
     1
 90
        2
176
     1
 62
     7
176
     1
 90
        5
176
     1
 90
        0
176
     1
 90
        0
176
     1
290
     0
176
     1
 90
       13
176
     1
 40
0.0
176
     1
 90
        0
176
     1
290
     0
176
     1
290
     1
176
     1
290
     1
176
     1
290
     0
176
     1
290
     0
176
     1
290
     0
176
     1
290
     0
176
     1
290
     0
176
     1
290
     0
176
     1
 90
       50
176
     1
 40
0.0
176
     1
 40
1.0
176
     1
 90
        0
176
     1
 62
    18
420
        0
176
     1
 90
       50
176
     1
 90
        3
176
     1
 62
     5
420
      255
176
     1
290
     0
176
     1
 90
       50
176
     1
 90
       50
176
     1
 90
       50
176
     1
290
     0
176
     1
 90
       50
176
     1
 62
   256
176
     0
 40
1.0
176
     0
 90
        2
176
     1
  1
strokes_ogs.tif
176
     1
290
     0
176
     1
 40
1.0
176
     1
 40
1.0
176
     1
  0
VISUALSTYLE
  5
31
102
{ACAD_REACTORS
330
2A
102
}
330
2A
100
AcDbVisualStyle
  2
Hidden
 70
     6
177
     3
291
     0
 70
    58
 90
        1
176
     1
 90
        2
176
     1
 90
        2
176
     1
 90
        0
176
     1
 40
0.6
176
     1
 40
30.0
176
     1
 62
     7
420
 16777215
176
     1
 90
        2
176
     1
 90
        2
176
     1
 62
     7
176
     1
 62
   257
176
     1
 90
        2
176
     1
 90
        1
176
     1
 40
40.0
176
     1
 90
        0
176
     1
 62
   257
176
     1
 40
1.0
176
     1
 90
        1
176
     1
 90
        6
176
     1
 90
        2
176
     1
 62
     7
176
     1
 90
        3
176
     1
 90
        0
176
     1
 90
        0
176
     1
290
     0
176
     1
 90
        1
176
     1
 40
0.0
176
     1
 90
        0
176
     1
290
     0
176
     1
290
     1
176
     1
290
     1
176
     1
290
     0
176
     1
290
     0
176
     1
290
     0
176
     1
290
     0
176
     1
290
     0
176
     1
290
     0
176
     1
 90
       50
176
     1
 40
0.0
176
     1
 40
1.0
176
     1
 90
        0
176
     1
 62
    18
420
        0
176
     1
 90
       50
176
     1
 90
        3
176
     1
 62
     5
420
      255
176
     1
290
     0
176
     1
 90
       50
176
     1
 90
       50
176
     1
 90
       50
176
     1
290
     0
176
     1
 90
       50
176
     1
 62
   256
176
     0
 40
1.0
176
     0
 90
        2
176
     1
  1
strokes_ogs.tif
176
     1
290
     0
176
     1
 40
1.0
176
     1
 40
1.0
176
     1
  0
VISUALSTYLE
  5
3B
102
{ACAD_REACTORS
330
2A
102
}
330
2A
100
AcDbVisualStyle
  2
JitterOff
 70
    20
177
     3
291
     1
 70
    58
 90
        2
176
     0
 90
        2
176
     0
 90
        0
176
     0
 90
        0
176
     0
 40
0.6
176
     0
 40
30.0
176
     0
 62
     7
420
 16777215
176
     0
 90
        1
176
     0
 90
        4
176
     0
 62
     7
176
     0
 62
   257
176
     0
 90
        1
176
     0
 90
        1
176
     0
 40
1.0
176
     0
 90
       10
176
     2
 62
     7
176
     0
 40
1.0
176
     0
 90
        1
176
     0
 90
        6
176
     0
 90
        2
176
     0
 62
     7
176
     0
 90
        5
176
     0
 90
        0
176
     0
 90
        0
176
     0
290
     0
176
     0
 90
        1
176
     0
 40
0.0
176
     0
 90
        0
176
     0
290
     0
176
     0
290
     1
176
     0
290
     1
176
     0
290
     0
176
     0
290
     0
176
     0
290
     0
176
     0
290
     0
176
     0
290
     0
176
     0
290
     0
176
     0
 90
       50
176
     0
 40
0.0
176
     0
 40
1.0
176
     0
 90
        0
176
     0
 62
    18
420
        0
176
     0
 90
       50
176
     0
 90
        3
176
     0
 62
     5
420
      255
176
     0
290
     0
176
     0
 90
       50
176
     0
 90
       50
176
     0
 90
       50
176
     0
290
     0
176
     0
 90
       50
176
     0
 62
   256
176
     0
 40
1.0
176
     0
 90
        2
176
     0
  1
strokes_ogs.tif
176
     0
290
     0
176
     0
 40
1.0
176
     0
 40
1.0
176
     0
  0
VISUALSTYLE
  5
38
102
{ACAD_REACTORS
330
2A
102
}
330
2A
100
AcDbVisualStyle
  2
Linepattern
 70
    14
177
     3
291
     1
 70
    58
 90
        2
176
     1
 90
        2
176
     1
 90
        0
176
     1
 90
        0
176
     1
 40
0.6
176
     1
 40
30.0
176
     1
 62
     7
420
 16777215
176
     1
 90
        1
176
     1
 90
        4
176
     1
 62
     7
176
     1
 62
   257
176
     1
 90
        7
176
     1
 90
        7
176
     1
 40
1.0
176
     1
 90
        8
176
     1
 62
     7
176
     1
 40
1.0
176
     1
 90
        1
176
     1
 90
        6
176
     1
 90
        2
176
     1
 62
     7
176
     1
 90
        5
176
     1
 90
        0
176
     1
 90
        0
176
     1
290
     0
176
     1
 90
        1
176
     1
 40
0.0
176
     1
 90
        0
176
     1
290
     0
176
     1
290
     1
176
     1
290
     1
176
     1
290
     0
176
     1
290
     0
176
     1
290
     0
176
     1
290
     0
176
     1
290
     0
176
     1
290
     0
176
     1
 90
       50
176
     1
 40
0.0
176
     1
 40
1.0
176
     1
 90
        0
176
     1
 62
    18
420
        0
176
     1
 90
       50
176
     1
 90
        3
176
     1
 62
     5
420
      255
176
     1
290
     0
176
     1
 90
       50
176
     1
 90
       50
176
     1
 90
       50
176
     1
290
     0
176
     1
 90
       50
176
     1
 62
   256
176
     0
 40
1.0
176
     0
 90
        2
176
     1
  1
strokes_ogs.tif
176
     1
290
     0
176
     1
 40
1.0
176
     1
 40
1.0
176
     1
  0
VISUALSTYLE
  5
3C
102
{ACAD_REACTORS
330
2A
102
}
330
2A
100
AcDbVisualStyle
  2
OverhangOff
 70
    21
177
     3
291
     1
 70
    58
 90
        2
176
     0
 90
        2
176
     0
 90
        0
176
     0
 90
        0
176
     0
 40
0.6
176
     0
 40
30.0
176
     0
 62
     7
420
 16777215
176
     0
 90
        1
176
     0
 90
        4
176
     0
 62
     7
176
     0
 62
   257
176
     0
 90
        1
176
     0
 90
        1
176
     0
 40
1.0
176
     0
 90
        9
176
     2
 62
     7
176
     0
 40
1.0
176
     0
 90
        1
176
     0
 90
        6
176
     0
 90
        2
176
     0
 62
     7
176
     0
 90
        5
176
     0
 90
        0
176
     0
 90
        0
176
     0
290
     0
176
     0
 90
        1
176
     0
 40
0.0
176
     0
 90
        0
176
     0
290
     0
176
     0
290
     1
176
     0
290
     1
176
     0
290
     0
176
     0
290
     0
176
     0
290
     0
176
     0
290
     0
176
     0
290
     0
176
     0
290
     0
176
     0
 90
       50
176
     0
 40
0.0
176
     0
 40
1.0
176
     0
 90
        0
176
     0
 62
    18
420
        0
176
     0
 90
       50
176
     0
 90
        3
176
     0
 62
     5
420
      255
176
     0
290
     0
176
     0
 90
       50
176
     0
 90
       50
176
     0
 90
       50
176
     0
290
     0
176
     0
 90
       50
176
     0
 62
   256
176
     0
 40
1.0
176
     0
 90
        2
176
     0
  1
strokes_ogs.tif
176
     0
290
     0
176
     0
 40
1.0
176
     0
 40
1.0
176
     0
  0
VISUALSTYLE
  5
33
102
{ACAD_REACTORS
330
2A
102
}
330
2A
100
AcDbVisualStyle
  2
Realistic
 70
     8
177
     3
291
     0
 70
    58
 90
        2
176
     1
 90
        3
176
     1
 90
        0
176
     1
 90
        2
176
     1
 40
0.6
176
     1
 40
30.0
176
     1
 62
     7
420
 16777215
176
     1
 90
        0
176
     1
 90
        0
176
     1
 62
     7
176
     1
 62
   257
176
     1
 90
        1
176
     1
 90
        1
176
     1
 40
1.0
176
     1
 90
        8
176
     1
 62
   257
176
     1
 40
1.0
176
     1
 90
        1
176
     1
 90
        6
176
     1
 90
        2
176
     1
 62
     7
176
     1
 90
        3
176
     1
 90
        0
176
     1
 90
        0
176
     1
290
     0
176
     1
 90
       13
176
     1
 40
0.0
176
     1
 90
        0
176
     1
290
     0
176
     1
290
     1
176
     1
290
     1
176
     1
290
     0
176
     1
290
     0
176
     1
290
     0
176
     1
290
     0
176
     1
290
     0
176
     1
290
     0
176
     1
 90
       50
176
     1
 40
0.0
176
     1
 40
1.0
176
     1
 90
        0
176
     1
 62
    18
420
        0
176
     1
 90
       50
176
     1
 90
        3
176
     1
 62
     5
420
      255
176
     1
290
     0
176
     1
 90
       50
176
     1
 90
       50
176
     1
 90
       50
176
     1
290
     0
176
     1
 90
       50
176
     1
 62
   256
176
     0
 40
1.0
176
     0
 90
        2
176
     1
  1
strokes_ogs.tif
176
     1
290
     0
176
     1
 40
1.0
176
     1
 40
1.0
176
     1
  0
VISUALSTYLE
  5
42
102
{ACAD_REACTORS
330
2A
102
}
330
2A
100
AcDbVisualStyle
  2
Shaded
 70
    27
177
     3
291
     0
 70
    58
 90
        2
176
     1
 90
        2
176
     1
 90
        1
176
     1
 90
        2
176
     1
 40
0.6
176
     1
 40
30.0
176
     1
 62
     7
420
 16777215
176
     1
 90
        0
176
     1
 90
        4
176
     1
 62
     7
176
     1
 62
   257
176
     1
 90
        1
176
     1
 90
        1
176
     1
 40
1.0
176
     1
 90
        8
176
     1
 62
   257
176
     1
 40
1.0
176
     1
 90
        1
176
     1
 90
        6
176
     1
 90
        2
176
     1
 62
     8
420
  7895160
176
     1
 90
        3
176
     1
 90
        0
176
     1
 90
        0
176
     1
290
     0
176
     1
 90
        5
176
     1
 40
0.0
176
     1
 90
        0
176
     1
290
     0
176
     1
290
     1
176
     1
290
     1
176
     1
290
     0
176
     1
290
     0
176
     1
290
     0
176
     1
290
     0
176
     1
290
     0
176
     1
290
     0
176
     1
 90
       50
176
     1
 40
0.0
176
     1
 40
1.0
176
     1
 90
        0
176
     1
 62
    18
420
        0
176
     1
 90
       50
176
     1
 90
        3
176
     1
 62
     5
420
      255
176
     1
290
     0
176
     1
 90
       50
176
     1
 90
       50
176
     1
 90
       50
176
     1
290
     0
176
     1
 90
       50
176
     1
 62
   256
176
     0
 40
1.0
176
     0
 90
        2
176
     1
  1
strokes_ogs.tif
176
     1
290
     0
176
     1
 40
1.0
176
     1
 40
1.0
176
     1
  0
VISUALSTYLE
  5
41
102
{ACAD_REACTORS
330
2A
102
}
330
2A
100
AcDbVisualStyle
  2
Shaded with edges
 70
    26
177
     3
291
     0
 70
    58
 90
        2
176
     1
 90
        2
176
     1
 90
        1
176
     1
 90
        2
176
     1
 40
0.6
176
     1
 40
30.0
176
     1
 62
     7
420
 16777215
176
     1
 90
        1
176
     1
 90
       10
176
     1
 62
     7
176
     1
 62
   257
176
     1
 90
        2
176
     1
 90
        1
176
     1
 40
1.0
176
     1
 90
        8
176
     1
 62
   257
176
     1
 40
1.0
176
     1
 90
        1
176
     1
 90
        6
176
     1
 90
        2
176
     1
 62
     7
176
     1
 90
        3
176
     1
 90
        0
176
     1
 90
        0
176
     1
290
     0
176
     1
 90
        5
176
     1
 40
0.0
176
     1
 90
        0
176
     1
290
     0
176
     1
290
     1
176
     1
290
     1
176
     1
290
     0
176
     1
290
     0
176
     1
290
     0
176
     1
290
     0
176
     1
290
     0
176
     1
290
     0
176
     1
 90
       50
176
     1
 40
0.0
176
     1
 40
1.0
176
     1
 90
        0
176
     1
 62
    18
420
        0
176
     1
 90
       50
176
     1
 90
        3
176
     1
 62
     5
420
      255
176
     1
290
     0
176
     1
 90
       50
176
     1
 90
       50
176
     1
 90
       50
176
     1
290
     0
176
     1
 90
       50
176
     1
 62
   256
176
     0
 40
1.0
176
     0
 90
        2
176
     1
  1
strokes_ogs.tif
176
     1
290
     0
176
     1
 40
1.0
176
     1
 40
1.0
176
     1
  0
VISUALSTYLE
  5
3E
102
{ACAD_REACTORS
330
2A
102
}
330
2A
100
AcDbVisualStyle
  2
Shades of Gray
 70
    23
177
     3
291
     0
 70
    58
 90
        2
176
     1
 90
        2
176
     1
 90
        3
176
     1
 90
        0
176
     1
 40
0.6
176
     1
 40
30.0
176
     1
 62
     7
420
 16777215
176
     1
 90
        2
176
     1
 90
        2
176
     1
 62
     7
176
     1
 62
     7
176
     1
 90
        1
176
     1
 90
        1
176
     1
 40
40.0
176
     1
 90
        8
176
     1
 62
     7
176
     1
 40
1.0
176
     1
 90
        1
176
     1
 90
        6
176
     1
 90
        2
176
     1
 62
     7
176
     1
 90
        3
176
     1
 90
        0
176
     1
 90
        0
176
     1
290
     0
176
     1
 90
        1
176
     1
 40
0.0
176
     1
 90
        0
176
     1
290
     0
176
     1
290
     1
176
     1
290
     1
176
     1
290
     0
176
     1
290
     0
176
     1
290
     0
176
     1
290
     0
176
     1
290
     0
176
     1
290
     0
176
     1
 90
       50
176
     1
 40
0.0
176
     1
 40
1.0
176
     1
 90
        0
176
     1
 62
    18
420
        0
176
     1
 90
       50
176
     1
 90
        3
176
     1
 62
     5
420
      255
176
     1
290
     0
176
     1
 90
       50
176
     1
 90
       50
176
     1
 90
       50
176
     1
290
     0
176
     1
 90
       50
176
     1
 62
   256
176
     0
 40
1.0
176
     0
 90
        2
176
     1
  1
strokes_ogs.tif
176
     1
290
     0
176
     1
 40
1.0
176
     1
 40
1.0
176
     1
  0
VISUALSTYLE
  5
3F
102
{ACAD_REACTORS
330
2A
102
}
330
2A
100
AcDbVisualStyle
  2
Sketchy
 70
    24
177
     3
291
     0
 70
    58
 90
        1
176
     1
 90
        2
176
     1
 90
        2
176
     1
 90
        0
176
     1
 40
0.6
176
     1
 40
30.0
176
     1
 62
     7
420
 16777215
176
     1
 90
        2
176
     1
 90
        2
176
     1
 62
     7
176
     1
 62
     7
176
     1
 90
        1
176
     1
 90
        1
176
     1
 40
40.0
176
     1
 90
       11
176
     1
 62
     7
176
     1
 40
1.0
176
     1
 90
        1
176
     1
 90
        6
176
     1
 90
        2
176
     1
 62
     7
176
     1
 90
        6
176
     1
 90
        0
176
     1
 90
        0
176
     1
290
     0
176
     1
 90
        1
176
     1
 40
0.0
176
     1
 90
        0
176
     1
290
     0
176
     1
290
     1
176
     1
290
     1
176
     1
290
     0
176
     1
290
     0
176
     1
290
     0
176
     1
290
     0
176
     1
290
     0
176
     1
290
     0
176
     1
 90
       50
176
     1
 40
0.0
176
     1
 40
1.0
176
     1
 90
        0
176
     1
 62
    18
420
        0
176
     1
 90
       50
176
     1
 90
        3
176
     1
 62
     5
420
      255
176
     1
290
     0
176
     1
 90
       50
176
     1
 90
       50
176
     1
 90
       50
176
     1
290
     0
176
     1
 90
       50
176
     1
 62
   256
176
     0
 40
1.0
176
     0
 90
        2
176
     1
  1
strokes_ogs.tif
176
     1
290
     0
176
     1
 40
1.0
176
     1
 40
1.0
176
     1
  0
VISUALSTYLE
  5
37
102
{ACAD_REACTORS
330
2A
102
}
330
2A
100
AcDbVisualStyle
  2
Thicken
 70
    13
177
     3
291
     1
 70
    58
 90
        2
176
     1
 90
        2
176
     1
 90
        0
176
     1
 90
        0
176
     1
 40
0.6
176
     1
 40
30.0
176
     1
 62
     7
420
 16777215
176
     1
 90
        1
176
     1
 90
        4
176
     1
 62
     7
176
     1
 62
   257
176
     1
 90
        1
176
     1
 90
        1
176
     1
 40
1.0
176
     1
 90
       12
176
     1
 62
     7
176
     1
 40
1.0
176
     1
 90
        1
176
     1
 90
        6
176
     1
 90
        2
176
     1
 62
     7
176
     1
 90
        5
176
     1
 90
        0
176
     1
 90
        0
176
     1
290
     0
176
     1
 90
        1
176
     1
 40
0.0
176
     1
 90
        0
176
     1
290
     0
176
     1
290
     1
176
     1
290
     1
176
     1
290
     0
176
     1
290
     0
176
     1
290
     0
176
     1
290
     0
176
     1
290
     0
176
     1
290
     0
176
     1
 90
       50
176
     1
 40
0.0
176
     1
 40
1.0
176
     1
 90
        0
176
     1
 62
    18
420
        0
176
     1
 90
       50
176
     1
 90
        3
176
     1
 62
     5
420
      255
176
     1
290
     0
176
     1
 90
       50
176
     1
 90
       50
176
     1
 90
       50
176
     1
290
     0
176
     1
 90
       50
176
     1
 62
   256
176
     0
 40
1.0
176
     0
 90
        2
176
     1
  1
strokes_ogs.tif
176
     1
290
     0
176
     1
 40
1.0
176
     1
 40
1.0
176
     1
  0
VISUALSTYLE
  5
30
102
{ACAD_REACTORS
330
2A
102
}
330
2A
100
AcDbVisualStyle
  2
Wireframe
 70
     5
177
     3
291
     0
 70
    58
 90
        0
176
     1
 90
        2
176
     1
 90
        0
176
     1
 90
        0
176
     1
 40
0.6
176
     1
 40
30.0
176
     1
 62
     7
420
 16777215
176
     1
 90
        1
176
     1
 90
        4
176
     1
 62
     7
176
     1
 62
   257
176
     1
 90
        1
176
     1
 90
        1
176
     1
 40
1.0
176
     1
 90
        0
176
     1
 62
   257
176
     1
 40
1.0
176
     1
 90
        1
176
     1
 90
        6
176
     1
 90
        2
176
     1
 62
     7
176
     1
 90
        3
176
     1
 90
        0
176
     1
 90
        0
176
     1
290
     0
176
     1
 90
        1
176
     1
 40
0.0
176
     1
 90
        0
176
     1
290
     0
176
     1
290
     1
176
     1
290
     1
176
     1
290
     0
176
     1
290
     0
176
     1
290
     0
176
     1
290
     0
176
     1
290
     0
176
     1
290
     0
176
     1
 90
       50
176
     1
 40
0.0
176
     1
 40
1.0
176
     1
 90
        0
176
     1
 62
    18
420
        0
176
     1
 90
       50
176
     1
 90
        3
176
     1
 62
     5
420
      255
176
     1
290
     0
176
     1
 90
       50
176
     1
 90
       50
176
     1
 90
       50
176
     1
290
     0
176
     1
 90
       50
176
     1
 62
   256
176
     0
 40
1.0
176
     0
 90
        2
176
     1
  1
strokes_ogs.tif
176
     1
290
     0
176
     1
 40
1.0
176
     1
 40
1.0
176
     1
  0
VISUALSTYLE
  5
40
102
{ACAD_REACTORS
330
2A
102
}
330
2A
100
AcDbVisualStyle
  2
X-Ray
 70
    25
177
     3
291
     0
 70
    58
 90
        2
176
     1
 90
        2
176
     1
 90
        1
176
     1
 90
        1
176
     1
 40
0.5
176
     1
 40
30.0
176
     1
 62
     7
420
 16777215
176
     1
 90
        1
176
     1
 90
        0
176
     1
 62
     7
176
     1
 62
   257
176
     1
 90
        1
176
     1
 90
        1
176
     1
 40
1.0
176
     1
 90
        8
176
     1
 62
     7
176
     1
 40
1.0
176
     1
 90
        1
176
     1
 90
        6
176
     1
 90
        2
176
     1
 62
     7
176
     1
 90
        3
176
     1
 90
        0
176
     1
 90
        0
176
     1
290
     0
176
     1
 90
       13
176
     1
 40
0.0
176
     1
 90
        0
176
     1
290
     0
176
     1
290
     1
176
     1
290
     1
176
     1
290
     0
176
     1
290
     0
176
     1
290
     0
176
     1
290
     0
176
     1
290
     0
176
     1
290
     0
176
     1
 90
       50
176
     1
 40
0.0
176
     1
 40
1.0
176
     1
 90
        0
176
     1
 62
    18
420
        0
176
     1
 90
       50
176
     1
 90
        3
176
     1
 62
     5
420
      255
176
     1
290
     0
176
     1
 90
       50
176
     1
 90
       50
176
     1
 90
       50
176
     1
290
     0
176
     1
 90
       50
176
     1
 62
   256
176
     0
 40
1.0
176
     0
 90
        2
176
     1
  1
strokes_ogs.tif
176
     1
290
     0
176
     1
 40
1.0
176
     1
 40
1.0
176
     1
  0
DICTIONARYVAR
  5
123
102
{ACAD_REACTORS
330
122
102
}
330
122
100
DictionaryVariables
280
     0
  1
1:1
  0
DICTIONARYVAR
  5
128
102
{ACAD_REACTORS
330
122
102
}
330
122
100
DictionaryVariables
280
     0
  1
Standard
  0
DICTIONARYVAR
  5
127
102
{ACAD_REACTORS
330
122
102
}
330
122
100
DictionaryVariables
280
     0
  1
Standard
  0
DICTIONARY
  5
124
330
6A
100
AcDbDictionary
280
     1
281
     1
  3
ACAD_ROUNDTRIP_2008_TABLESTYLE_CELLSTYLEMAP
360
125
  0
CELLSTYLEMAP
  5
125
102
{ACAD_REACTORS
330
124
102
}
330
124
100
AcDbCellStyleMap
 90
        3
300
CELLSTYLE
  1
TABLEFORMAT_BEGIN
 90
        5
170
     1
 91
        0
 92
    32768
 62
   257
 93
        1
300
CONTENTFORMAT
  1
CONTENTFORMAT_BEGIN
 90
        0
 91
        0
 92
        4
 93
        0
300

 40
0.0
140
1.0
 94
        5
 62
     0
340
11
144
6.0
309
CONTENTFORMAT_END
171
     1
301
MARGIN
  1
CELLMARGIN_BEGIN
 40
1.5
 40
1.5
 40
1.5
 40
1.5
 40
1.5
 40
1.5
309
CELLMARGIN_END
 94
        6
 95
        1
302
GRIDFORMAT
  1
GRIDFORMAT_BEGIN
 90
        0
 91
        1
 62
     0
 92
       -2
340
14
 93
        0
 40
0.045
309
GRIDFORMAT_END
 95
        2
302
GRIDFORMAT
  1
GRIDFORMAT_BEGIN
 90
        0
 91
        1
 62
     0
 92
       -2
340
14
 93
        0
 40
0.045
309
GRIDFORMAT_END
 95
        4
302
GRIDFORMAT
  1
GRIDFORMAT_BEGIN
 90
        0
 91
        1
 62
     0
 92
       -2
340
14
 93
        0
 40
0.045
309
GRIDFORMAT_END
 95
        8
302
GRIDFORMAT
  1
GRIDFORMAT_BEGIN
 90
        0
 91
        1
 62
     0
 92
       -2
340
14
 93
        0
 40
0.045
309
GRIDFORMAT_END
 95
       16
302
GRIDFORMAT
  1
GRIDFORMAT_BEGIN
 90
        0
 91
        1
 62
     0
 92
       -2
340
14
 93
        0
 40
0.045
309
GRIDFORMAT_END
 95
       32
302
GRIDFORMAT
  1
GRIDFORMAT_BEGIN
 90
        0
 91
        1
 62
     0
 92
       -2
340
14
 93
        0
 40
0.045
309
GRIDFORMAT_END
309
TABLEFORMAT_END
  1
CELLSTYLE_BEGIN
 90
        1
 91
        1
300
_TITLE
309
CELLSTYLE_END
300
CELLSTYLE
  1
TABLEFORMAT_BEGIN
 90
        5
170
     1
 91
        0
 92
        0
 62
   257
 93
        1
300
CONTENTFORMAT
  1
CONTENTFORMAT_BEGIN
 90
        0
 91
        0
 92
        4
 93
        0
300

 40
0.0
140
1.0
 94
        5
 62
     0
340
11
144
4.5
309
CONTENTFORMAT_END
171
     1
301
MARGIN
  1
CELLMARGIN_BEGIN
 40
1.5
 40
1.5
 40
1.5
 40
1.5
 40
1.5
 40
1.5
309
CELLMARGIN_END
 94
        6
 95
        1
302
GRIDFORMAT
  1
GRIDFORMAT_BEGIN
 90
        0
 91
        1
 62
     0
 92
       -2
340
14
 93
        0
 40
0.045
309
GRIDFORMAT_END
 95
        2
302
GRIDFORMAT
  1
GRIDFORMAT_BEGIN
 90
        0
 91
        1
 62
     0
 92
       -2
340
14
 93
        0
 40
0.045
309
GRIDFORMAT_END
 95
        4
302
GRIDFORMAT
  1
GRIDFORMAT_BEGIN
 90
        0
 91
        1
 62
     0
 92
       -2
340
14
 93
        0
 40
0.045
309
GRIDFORMAT_END
 95
        8
302
GRIDFORMAT
  1
GRIDFORMAT_BEGIN
 90
        0
 91
        1
 62
     0
 92
       -2
340
14
 93
        0
 40
0.045
309
GRIDFORMAT_END
 95
       16
302
GRIDFORMAT
  1
GRIDFORMAT_BEGIN
 90
        0
 91
        1
 62
     0
 92
       -2
340
14
 93
        0
 40
0.045
309
GRIDFORMAT_END
 95
       32
302
GRIDFORMAT
  1
GRIDFORMAT_BEGIN
 90
        0
 91
        1
 62
     0
 92
       -2
340
14
 93
        0
 40
0.045
309
GRIDFORMAT_END
309
TABLEFORMAT_END
  1
CELLSTYLE_BEGIN
 90
        2
 91
        1
300
_HEADER
309
CELLSTYLE_END
300
CELLSTYLE
  1
TABLEFORMAT_BEGIN
 90
        5
170
     1
 91
        0
 92
        0
 62
   257
 93
        1
300
CONTENTFORMAT
  1
CONTENTFORMAT_BEGIN
 90
        0
 91
        0
 92
        4
 93
        0
300

 40
0.0
140
1.0
 94
        2
 62
     0
340
11
144
4.5
309
CONTENTFORMAT_END
171
     1
301
MARGIN
  1
CELLMARGIN_BEGIN
 40
1.5
 40
1.5
 40
1.5
 40
1.5
 40
1.5
 40
1.5
309
CELLMARGIN_END
 94
        6
 95
        1
302
GRIDFORMAT
  1
GRIDFORMAT_BEGIN
 90
        0
 91
        1
 62
     0
 92
       -2
340
14
 93
        0
 40
0.045
309
GRIDFORMAT_END
 95
        2
302
GRIDFORMAT
  1
GRIDFORMAT_BEGIN
 90
        0
 91
        1
 62
     0
 92
       -2
340
14
 93
        0
 40
0.045
309
GRIDFORMAT_END
 95
        4
302
GRIDFORMAT
  1
GRIDFORMAT_BEGIN
 90
        0
 91
        1
 62
     0
 92
       -2
340
14
 93
        0
 40
0.045
309
GRIDFORMAT_END
 95
        8
302
GRIDFORMAT
  1
GRIDFORMAT_BEGIN
 90
        0
 91
        1
 62
     0
 92
       -2
340
14
 93
        0
 40
0.045
309
GRIDFORMAT_END
 95
       16
302
GRIDFORMAT
  1
GRIDFORMAT_BEGIN
 90
        0
 91
        1
 62
     0
 92
       -2
340
14
 93
        0
 40
0.045
309
GRIDFORMAT_END
 95
       32
302
GRIDFORMAT
  1
GRIDFORMAT_BEGIN
 90
        0
 91
        1
 62
     0
 92
       -2
340
14
 93
        0
 40
0.045
309
GRIDFORMAT_END
309
TABLEFORMAT_END
  1
CELLSTYLE_BEGIN
 90
        3
 91
        2
300
_DATA
309
CELLSTYLE_END
  0
ENDSEC
  0
EOF
