  0
SECTION
  2
HEADER
  9
$ACADVER
  1
AC1027
  9
$ACADMAINTVER
 70
   105
  9
$DWGCODEPAGE
  3
ANSI_1252
  9
$REQUIREDVERSIONS
160
                 0
  9
$INSBASE
 10
0.0
 20
0.0
 30
0.0
  9
$EXTMIN
 10
0.0
 20
0.0
 30
0.0
  9
$EXTMAX
 10
490.0
 20
345.0
 30
0.0
  9
$LIMMIN
 10
0.0
 20
0.0
  9
$LIMMAX
 10
420.0
 20
297.0
  9
$ORTHOMODE
 70
     0
  9
$REGENMODE
 70
     1
  9
$FILLMODE
 70
     1
  9
$QTEXTMODE
 70
     0
  9
$MIRRTEXT
 70
     1
  9
$LTSCALE
 40
1.0
  9
$ATTMODE
 70
     1
  9
$TEXTSIZE
 40
3.5
  9
$TRACEWID
 40
1.0
  9
$TEXTSTYLE
  7
STANDARD
  9
$CLAYER
  8
0
  9
$CELTYPE
  6
ByLayer
  9
$CECOLOR
 62
   256
  9
$CELTSCALE
 40
1.0
  9
$DISPSILH
 70
     0
  9
$DIMSCALE
 40
1.0
  9
$DIMASZ
 40
6.0
  9
$DIMEXO
 40
1.0
  9
$DIMDLI
 40
3.75
  9
$DIMRND
 40
0.0
  9
$DIMDLE
 40
0.0
  9
$DIMEXE
 40
1.0
  9
$DIMTP
 40
0.0
  9
$DIMTM
 40
0.0
  9
$DIMTXT
 40
3.5
  9
$DIMCEN
 40
2.5
  9
$DIMTSZ
 40
0.0
  9
$DIMTOL
 70
     0
  9
$DIMLIM
 70
     0
  9
$DIMTIH
 70
     1
  9
$DIMTOH
 70
     1
  9
$DIMSE1
 70
     0
  9
$DIMSE2
 70
     0
  9
$DIMTAD
 70
     1
  9
$DIMZIN
 70
     0
  9
$DIMBLK
  1

  9
$DIMASO
 70
     1
  9
$DIMSHO
 70
     1
  9
$DIMPOST
  1

  9
$DIMAPOST
  1

  9
$DIMALT
 70
     0
  9
$DIMALTD
 70
     3
  9
$DIMALTF
 40
0.0393700787
  9
$DIMLFAC
 40
1.0
  9
$DIMTOFL
 70
     1
  9
$DIMTVP
 40
0.0
  9
$DIMTIX
 70
     0
  9
$DIMSOXD
 70
     0
  9
$DIMSAH
 70
     0
  9
$DIMBLK1
  1

  9
$DIMBLK2
  1

  9
$DIMSTYLE
  2
ISO-25
  9
$DIMCLRD
 70
     0
  9
$DIMCLRE
 70
     0
  9
$DIMCLRT
 70
     0
  9
$DIMTFAC
 40
1.0
  9
$DIMGAP
 40
1.524
  9
$DIMJUST
 70
     0
  9
$DIMSD1
 70
     0
  9
$DIMSD2
 70
     0
  9
$DIMTOLJ
 70
     0
  9
$DIMTZIN
 70
     0
  9
$DIMALTZ
 70
     0
  9
$DIMALTTZ
 70
     0
  9
$DIMUPT
 70
     0
  9
$DIMDEC
 70
     2
  9
$DIMTDEC
 70
     2
  9
$DIMALTU
 70
     2
  9
$DIMALTTD
 70
     3
  9
$DIMTXSTY
  7
STANDARD
  9
$DIMAUNIT
 70
     0
  9
$DIMADEC
 70
     2
  9
$DIMALTRND
 40
0.0
  9
$DIMAZIN
 70
     0
  9
$DIMDSEP
 70
    44
  9
$DIMATFIT
 70
     3
  9
$DIMFRAC
 70
     0
  9
$DIMLDRBLK
  1

  9
$DIMLUNIT
 70
     2
  9
$DIMLWD
 70
    -2
  9
$DIMLWE
 70
    -2
  9
$DIMTMOVE
 70
     0
  9
$DIMFXL
 40
1.0
  9
$DIMFXLON
 70
     0
  9
$DIMJOGANG
 40
0.7853981634
  9
$DIMTFILL
 70
     0
  9
$DIMTFILLCLR
 70
     0
  9
$DIMARCSYM
 70
     0
  9
$DIMLTYPE
  6

  9
$DIMLTEX1
  6

  9
$DIMLTEX2
  6

  9
$DIMTXTDIRECTION
 70
     0
  9
$LUNITS
 70
     2
  9
$LUPREC
 70
     2
  9
$SKETCHINC
 40
1.0
  9
$FILLETRAD
 40
10.0
  9
$AUNITS
 70
     0
  9
$AUPREC
 70
     2
  9
$MENU
  1
.
  9
$ELEVATION
 40
0.0
  9
$PELEVATION
 40
0.0
  9
$THICKNESS
 40
0.0
  9
$LIMCHECK
 70
     0
  9
$CHAMFERA
 40
0.0
  9
$CHAMFERB
 40
0.0
  9
$CHAMFERC
 40
0.0
  9
$CHAMFERD
 40
0.0
  9
$SKPOLY
 70
     0
  9
$TDCREATE
 40
2458226.62090434
  9
$TDUCREATE
 40
2458226.537571007
  9
$TDUPDATE
 40
2458226.620932072
  9
$TDUUPDATE
 40
2458226.537598738
  9
$TDINDWG
 40
0.0000000116
  9
$TDUSRTIMER
 40
0.0000000116
  9
$USRTIMER
 70
     1
  9
$ANGBASE
 50
0.0
  9
$ANGDIR
 70
     0
  9
$PDMODE
 70
     0
  9
$PDSIZE
 40
-1.0
  9
$PLINEWID
 40
0.0
  9
$SPLFRAME
 70
     0
  9
$SPLINETYPE
 70
     6
  9
$SPLINESEGS
 70
     8
  9
$HANDSEED
  5
18C
  9
$SURFTAB1
 70
     6
  9
$SURFTAB2
 70
     6
  9
$SURFTYPE
 70
     6
  9
$SURFU
 70
     6
  9
$SURFV
 70
     6
  9
$UCSBASE
  2

  9
$UCSNAME
  2

  9
$UCSORG
 10
0.0
 20
0.0
 30
0.0
  9
$UCSXDIR
 10
1.0
 20
0.0
 30
0.0
  9
$UCSYDIR
 10
0.0
 20
1.0
 30
0.0
  9
$UCSORTHOREF
  2

  9
$UCSORTHOVIEW
 70
     0
  9
$UCSORGTOP
 10
0.0
 20
0.0
 30
0.0
  9
$UCSORGBOTTOM
 10
0.0
 20
0.0
 30
0.0
  9
$UCSORGLEFT
 10
0.0
 20
0.0
 30
0.0
  9
$UCSORGRIGHT
 10
0.0
 20
0.0
 30
0.0
  9
$UCSORGFRONT
 10
0.0
 20
0.0
 30
0.0
  9
$UCSORGBACK
 10
0.0
 20
0.0
 30
0.0
  9
$PUCSBASE
  2

  9
$PUCSNAME
  2

  9
$PUCSORG
 10
0.0
 20
0.0
 30
0.0
  9
$PUCSXDIR
 10
1.0
 20
0.0
 30
0.0
  9
$PUCSYDIR
 10
0.0
 20
1.0
 30
0.0
  9
$PUCSORTHOREF
  2

  9
$PUCSORTHOVIEW
 70
     0
  9
$PUCSORGTOP
 10
0.0
 20
0.0
 30
0.0
  9
$PUCSORGBOTTOM
 10
0.0
 20
0.0
 30
0.0
  9
$PUCSORGLEFT
 10
0.0
 20
0.0
 30
0.0
  9
$PUCSORGRIGHT
 10
0.0
 20
0.0
 30
0.0
  9
$PUCSORGFRONT
 10
0.0
 20
0.0
 30
0.0
  9
$PUCSORGBACK
 10
0.0
 20
0.0
 30
0.0
  9
$USERI1
 70
     0
  9
$USERI2
 70
     0
  9
$USERI3
 70
     0
  9
$USERI4
 70
     0
  9
$USERI5
 70
     0
  9
$USERR1
 40
0.0
  9
$USERR2
 40
0.0
  9
$USERR3
 40
0.0
  9
$USERR4
 40
0.0
  9
$USERR5
 40
0.0
  9
$WORLDVIEW
 70
     1
  9
$SHADEDGE
 70
     3
  9
$SHADEDIF
 70
    70
  9
$TILEMODE
 70
     1
  9
$MAXACTVP
 70
    64
  9
$PINSBASE
 10
0.0
 20
0.0
 30
0.0
  9
$PLIMCHECK
 70
     0
  9
$PEXTMIN
 10
0.0
 20
0.0
 30
0.0
  9
$PEXTMAX
 10
490.0
 20
140.0
 30
0.0
  9
$PLIMMIN
 10
-38.1322957198
 20
-14.2996108949
  9
$PLIMMAX
 10
528.1322957198
 20
386.0894941634
  9
$UNITMODE
 70
     0
  9
$VISRETAIN
 70
     1
  9
$PLINEGEN
 70
     0
  9
$PSLTSCALE
 70
     1
  9
$TREEDEPTH
 70
  3020
  9
$CMLSTYLE
  2
Standard
  9
$CMLJUST
 70
     0
  9
$CMLSCALE
 40
20.0
  9
$PROXYGRAPHICS
 70
     1
  9
$MEASUREMENT
 70
     1
  9
$CELWEIGHT
370
    -1
  9
$ENDCAPS
280
     0
  9
$JOINSTYLE
280
     0
  9
$LWDISPLAY
290
     1
  9
$INSUNITS
 70
     4
  9
$HYPERLINKBASE
  1

  9
$STYLESHEET
  1

  9
$XEDIT
290
     1
  9
$CEPSNTYPE
380
     0
  9
$PSTYLEMODE
290
     1
  9
$FINGERPRINTGUID
  2
{0B777766-1DDA-4D79-ABE2-26CBDC3C3229}
  9
$VERSIONGUID
  2
{FAEB1C32-E019-11D5-929B-00C0DF256EC4}
  9
$EXTNAMES
290
     1
  9
$PSVPSCALE
 40
0.0
  9
$OLESTARTUP
290
     0
  9
$SORTENTS
280
   127
  9
$INDEXCTL
280
     0
  9
$HIDETEXT
280
     1
  9
$XCLIPFRAME
280
     2
  9
$HALOGAP
280
     0
  9
$OBSCOLOR
 70
   257
  9
$OBSLTYPE
280
     0
  9
$INTERSECTIONDISPLAY
280
     0
  9
$INTERSECTIONCOLOR
 70
   257
  9
$DIMASSOC
280
     2
  9
$PROJECTNAME
  1

  9
$CAMERADISPLAY
290
     0
  9
$LENSLENGTH
 40
50.0
  9
$CAMERAHEIGHT
 40
0.0
  9
$STEPSPERSEC
 40
2.0
  9
$STEPSIZE
 40
6.0
  9
$3DDWFPREC
 40
2.0
  9
$PSOLWIDTH
 40
5.0
  9
$PSOLHEIGHT
 40
80.0
  9
$LOFTANG1
 40
1.5707963268
  9
$LOFTANG2
 40
1.5707963268
  9
$LOFTMAG1
 40
0.0
  9
$LOFTMAG2
 40
0.0
  9
$LOFTPARAM
 70
     7
  9
$LOFTNORMALS
280
     1
  9
$LATITUDE
 40
37.795
  9
$LONGITUDE
 40
-122.394
  9
$NORTHDIRECTION
 40
0.0
  9
$TIMEZONE
 70
 -8000
  9
$LIGHTGLYPHDISPLAY
280
     1
  9
$TILEMODELIGHTSYNCH
280
     1
  9
$CMATERIAL
347
44
  9
$SOLIDHIST
280
     0
  9
$SHOWHIST
280
     1
  9
$DWFFRAME
280
     2
  9
$DGNFRAME
280
     2
  9
$REALWORLDSCALE
290
     1
  9
$INTERFERECOLOR
 62
   256
  9
$CSHADOW
280
     0
  9
$SHADOWPLANELOCATION
 40
0.0
  0
ENDSEC
  0
SECTION
  2
CLASSES
  0
CLASS
  1
ACDBDICTIONARYWDFLT
  2
AcDbDictionaryWithDefault
  3
ObjectDBX Classes
 90
        0
 91
        4
280
     0
281
     0
  0
CLASS
  1
VISUALSTYLE
  2
AcDbVisualStyle
  3
ObjectDBX Classes
 90
     4095
 91
        4
280
     0
281
     0
  0
CLASS
  1
MATERIAL
  2
AcDbMaterial
  3
ObjectDBX Classes
 90
     1153
 91
        4
280
     0
281
     0
  0
CLASS
  1
SCALE
  2
AcDbScale
  3
ObjectDBX Classes
 90
     1153
 91
        4
280
     0
281
     0
  0
CLASS
  1
TABLESTYLE
  2
AcDbTableStyle
  3
ObjectDBX Classes
 90
     4095
 91
        4
280
     0
281
     0
  0
CLASS
  1
MLEADERSTYLE
  2
AcDbMLeaderStyle
  3
ACDB_MLEADERSTYLE_CLASS
 90
     4095
 91
        4
280
     0
281
     0
  0
CLASS
  1
SUN
  2
AcDbSun
  3
SCENEOE
 90
     1153
 91
        4
280
     0
281
     0
  0
CLASS
  1
DICTIONARYVAR
  2
AcDbDictionaryVar
  3
ObjectDBX Classes
 90
        0
 91
        4
280
     0
281
     0
  0
CLASS
  1
CELLSTYLEMAP
  2
AcDbCellStyleMap
  3
ObjectDBX Classes
 90
     1152
 91
        4
280
     0
281
     0
  0
ENDSEC
  0
SECTION
  2
TABLES
  0
TABLE
  2
VPORT
  5
8
330
0
100
AcDbSymbolTable
 70
     1
  0
VPORT
  5
29
330
8
100
AcDbSymbolTableRecord
100
AcDbViewportTableRecord
  2
*Active
 70
     0
 10
0.0
 20
0.0
 11
1.0
 21
1.0
 12
245.0
 22
172.5
 13
0.0
 23
0.0
 14
10.0
 24
10.0
 15
10.0
 25
10.0
 16
0.0
 26
0.0
 36
1.0
 17
0.0
 27
0.0
 37
0.0
 40
351.9
 41
1.4202898551
 42
50.0
 43
0.0
 44
0.0
 50
0.0
 51
0.0
 71
     0
 72
   100
 73
     1
 74
     3
 75
     0
 76
     0
 77
     0
 78
     0
281
     0
 65
     1
110
0.0
120
0.0
130
0.0
111
1.0
121
0.0
131
0.0
112
0.0
122
1.0
132
0.0
 79
     0
146
0.0
348
2F
 60
     3
 61
     5
292
     1
282
     1
141
0.0
142
0.0
 63
   250
361
6D
  0
ENDTAB
  0
TABLE
  2
LTYPE
  5
5
330
0
100
AcDbSymbolTable
 70
     6
  0
LTYPE
  5
14
330
5
100
AcDbSymbolTableRecord
100
AcDbLinetypeTableRecord
  2
ByBlock
 70
     0
  3

 72
    65
 73
     0
 40
0.0
  0
LTYPE
  5
15
330
5
100
AcDbSymbolTableRecord
100
AcDbLinetypeTableRecord
  2
ByLayer
 70
     0
  3

 72
    65
 73
     0
 40
0.0
  0
LTYPE
  5
16
330
5
100
AcDbSymbolTableRecord
100
AcDbLinetypeTableRecord
  2
Continuous
 70
     0
  3
Solid line
 72
    65
 73
     0
 40
0.0
  0
LTYPE
  5
6E
330
5
100
AcDbSymbolTableRecord
100
AcDbLinetypeTableRecord
  2
HIDDEN
 70
     0
  3
Hidden __ __ __ __ __ __ __ __ __ __ __ __ __ __
 72
    65
 73
     2
 40
1.905
 49
1.27
 74
     0
 49
-0.635
 74
     0
  0
LTYPE
  5
6F
330
5
100
AcDbSymbolTableRecord
100
AcDbLinetypeTableRecord
  2
PHANTOM
 70
     0
  3
Phantom ______  __  __  ______  __  __  ______
 72
    65
 73
     6
 40
12.7
 49
6.35
 74
     0
 49
-1.27
 74
     0
 49
1.27
 74
     0
 49
-1.27
 74
     0
 49
1.27
 74
     0
 49
-1.27
 74
     0
  0
LTYPE
  5
70
330
5
100
AcDbSymbolTableRecord
100
AcDbLinetypeTableRecord
  2
CENTER
 70
     0
  3
Center ____ _ ____ _ ____ _ ____ _ ____ _ ____
 72
    65
 73
     4
 40
10.16
 49
6.35
 74
     0
 49
-1.27
 74
     0
 49
1.27
 74
     0
 49
-1.27
 74
     0
  0
LTYPE
  5
71
330
5
100
AcDbSymbolTableRecord
100
AcDbLinetypeTableRecord
  2
CENTERX2
 70
     0
  3
Center (2x) ________  __  ________  __  _____
 72
    65
 73
     4
 40
20.32
 49
12.7
 74
     0
 49
-2.54
 74
     0
 49
2.54
 74
     0
 49
-2.54
 74
     0
  0
LTYPE
  5
72
330
5
100
AcDbSymbolTableRecord
100
AcDbLinetypeTableRecord
  2
DOT2
 70
     0
  3
Dot (.5x) ........................................
 72
    65
 73
     2
 40
0.635
 49
0.0
 74
     0
 49
-0.635
 74
     0
  0
ENDTAB
  0
TABLE
  2
LAYER
  5
2
330
0
100
AcDbSymbolTable
 70
     1
  0
LAYER
  5
10
330
2
100
AcDbSymbolTableRecord
100
AcDbLayerTableRecord
  2
0
 70
     0
 62
     7
  6
Continuous
370
    -3
390
F
347
46
348
0
  0
ENDTAB
  0
TABLE
  2
STYLE
  5
3
330
0
100
AcDbSymbolTable
 70
     1
  0
STYLE
  5
11
330
3
100
AcDbSymbolTableRecord
100
AcDbTextStyleTableRecord
  2
STANDARD
 70
     0
 40
0.0
 41
1.0
 50
0.0
 71
     0
 42
3.5
  3
GOTHIC.TTF
  4

1001
ACAD
1000
CENTURY GOTHIC
1071
       34
  0
ENDTAB
  0
TABLE
  2
VIEW
  5
6
330
0
100
AcDbSymbolTable
 70
     0
  0
ENDTAB
  0
TABLE
  2
UCS
  5
7
330
0
100
AcDbSymbolTable
 70
     0
  0
ENDTAB
  0
TABLE
  2
APPID
  5
9
330
0
100
AcDbSymbolTable
 70
     1
  0
APPID
  5
12
330
9
100
AcDbSymbolTableRecord
100
AcDbRegAppTableRecord
  2
ACAD
 70
     0
  0
ENDTAB
  0
TABLE
  2
DIMSTYLE
  5
A
330
0
100
AcDbSymbolTable
 70
     1
100
AcDbDimStyleTable
  0
DIMSTYLE
105
27
330
A
100
AcDbSymbolTableRecord
100
AcDbDimStyleTableRecord
  2
ISO-25
 70
     0
 41
2.5
 42
0.625
 43
3.75
 44
1.25
 73
     0
 74
     0
 77
     1
 78
     8
140
2.5
141
2.5
143
0.0393700787
147
0.625
171
     3
172
     1
178
     0
271
     2
272
     2
274
     3
278
    44
283
     0
284
     8
340
11
  0
ENDTAB
  0
TABLE
  2
BLOCK_RECORD
  5
1
330
0
100
AcDbSymbolTable
 70
     8
  0
BLOCK_RECORD
  5
1F
330
1
100
AcDbSymbolTableRecord
100
AcDbBlockTableRecord
  2
*Model_Space
340
22
 70
     0
280
     1
281
     0
  0
BLOCK_RECORD
  5
1B
330
1
100
AcDbSymbolTableRecord
100
AcDbBlockTableRecord
  2
*Paper_Space
340
1E
 70
     0
280
     1
281
     0
  0
BLOCK_RECORD
  5
23
330
1
100
AcDbSymbolTableRecord
100
AcDbBlockTableRecord
  2
*Paper_Space0
340
26
 70
     0
280
     1
281
     0
  0
BLOCK_RECORD
  5
AF
330
1
100
AcDbSymbolTableRecord
100
AcDbBlockTableRecord
  2
*Paper_Space1
340
B0
 70
     0
280
     1
281
     0
  0
BLOCK_RECORD
  5
BB
330
1
100
AcDbSymbolTableRecord
100
AcDbBlockTableRecord
  2
*Paper_Space2
340
BC
 70
     0
280
     1
281
     0
  0
BLOCK_RECORD
  5
C7
330
1
100
AcDbSymbolTableRecord
100
AcDbBlockTableRecord
  2
*Paper_Space3
340
C8
 70
     0
280
     1
281
     0
  0
BLOCK_RECORD
  5
D3
330
1
100
AcDbSymbolTableRecord
100
AcDbBlockTableRecord
  2
*Paper_Space4
340
D4
 70
     0
280
     1
281
     0
  0
BLOCK_RECORD
  5
E0
330
1
100
AcDbSymbolTableRecord
100
AcDbBlockTableRecord
  2
*Paper_Space5
340
E1
 70
     0
280
     1
281
     0
  0
BLOCK_RECORD
  5
122
330
1
100
AcDbSymbolTableRecord
100
AcDbBlockTableRecord
  2
*Paper_Space6
340
123
 70
     0
280
     1
281
     0
  0
BLOCK_RECORD
  5
14B
330
1
100
AcDbSymbolTableRecord
100
AcDbBlockTableRecord
  2
*Paper_Space7
340
14C
 70
     0
280
     1
281
     0
  0
ENDTAB
  0
ENDSEC
  0
SECTION
  2
BLOCKS
  0
BLOCK
  5
20
330
1F
100
AcDbEntity
  8
0
100
AcDbBlockBegin
  2
*Model_Space
 70
     0
 10
0.0
 20
0.0
 30
0.0
  3
*Model_Space
  1

  0
ENDBLK
  5
21
330
1F
100
AcDbEntity
  8
0
100
AcDbBlockEnd
  0
BLOCK
  5
1C
330
1B
100
AcDbEntity
 67
     1
  8
0
100
AcDbBlockBegin
  2
*Paper_Space
 70
     0
 10
0.0
 20
0.0
 30
0.0
  3
*Paper_Space
  1

  0
ENDBLK
  5
1D
330
1B
100
AcDbEntity
 67
     1
  8
0
100
AcDbBlockEnd
  0
BLOCK
  5
24
330
23
100
AcDbEntity
  8
0
100
AcDbBlockBegin
  2
*Paper_Space0
 70
     0
 10
0.0
 20
0.0
 30
0.0
  3
*Paper_Space0
  1

  0
LINE
  5
AB
330
23
100
AcDbEntity
  8
0
  6
Continuous
 62
     7
370
    25
100
AcDbLine
 10
345.0
 20
140.0
 30
0.0
 11
345.0
 21
0.0
 31
0.0
  0
LINE
  5
AC
330
23
100
AcDbEntity
  8
0
  6
Continuous
 62
     7
370
    25
100
AcDbLine
 10
0.0
 20
0.0
 30
0.0
 11
345.0
 21
0.0
 31
0.0
  0
LINE
  5
AD
330
23
100
AcDbEntity
  8
0
  6
Continuous
 62
     7
370
    25
100
AcDbLine
 10
0.0
 20
140.0
 30
0.0
 11
0.0
 21
0.0
 31
0.0
  0
LINE
  5
AE
330
23
100
AcDbEntity
  8
0
  6
Continuous
 62
     7
370
    25
100
AcDbLine
 10
0.0
 20
140.0
 30
0.0
 11
345.0
 21
140.0
 31
0.0
  0
VIEWPORT
  5
173
330
23
100
AcDbEntity
  8
0
100
AcDbViewport
 10
0.0
 20
0.0
 30
0.0
 40
205.6
 41
156.0
 68
     1
 69
     1
 12
245.0
 22
172.5
 13
0.0
 23
0.0
 14
10.0
 24
10.0
 15
10.0
 25
10.0
 16
0.0
 26
0.0
 36
1.0
 17
0.0
 27
0.0
 37
0.0
 42
50.0
 43
0.0
 44
0.0
 45
379.2256809339
 50
0.0
 51
0.0
 72
   100
 90
   557152
  1

281
     0
 71
     1
 74
     0
110
0.0
120
0.0
130
0.0
111
1.0
121
0.0
131
0.0
112
0.0
122
1.0
132
0.0
 79
     0
146
0.0
170
     0
 61
     5
348
2F
292
     1
282
     1
141
0.0
142
0.0
 63
   256
361
174
  0
ENDBLK
  5
25
330
23
100
AcDbEntity
  8
0
100
AcDbBlockEnd
  0
BLOCK
  5
B1
330
AF
100
AcDbEntity
  8
0
100
AcDbBlockBegin
  2
*Paper_Space1
 70
     0
 10
0.0
 20
0.0
 30
0.0
  3
*Paper_Space1
  1

  0
LINE
  5
B7
330
AF
100
AcDbEntity
  8
0
  6
Continuous
 62
     7
370
    25
100
AcDbLine
 10
0.0
 20
140.0
 30
0.0
 11
490.0
 21
140.0
 31
0.0
  0
LINE
  5
B8
330
AF
100
AcDbEntity
  8
0
  6
Continuous
 62
     7
370
    25
100
AcDbLine
 10
490.0
 20
140.0
 30
0.0
 11
490.0
 21
0.0
 31
0.0
  0
LINE
  5
B9
330
AF
100
AcDbEntity
  8
0
  6
Continuous
 62
     7
370
    25
100
AcDbLine
 10
0.0
 20
0.0
 30
0.0
 11
490.0
 21
0.0
 31
0.0
  0
LINE
  5
BA
330
AF
100
AcDbEntity
  8
0
  6
Continuous
 62
     7
370
    25
100
AcDbLine
 10
0.0
 20
140.0
 30
0.0
 11
0.0
 21
0.0
 31
0.0
  0
VIEWPORT
  5
175
330
AF
100
AcDbEntity
  8
0
100
AcDbViewport
 10
0.0
 20
0.0
 30
0.0
 40
205.6
 41
156.0
 68
     1
 69
     1
 12
245.0
 22
172.5
 13
0.0
 23
0.0
 14
10.0
 24
10.0
 15
10.0
 25
10.0
 16
0.0
 26
0.0
 36
1.0
 17
0.0
 27
0.0
 37
0.0
 42
50.0
 43
0.0
 44
0.0
 45
379.2256809339
 50
0.0
 51
0.0
 72
   100
 90
   557152
  1

281
     0
 71
     1
 74
     0
110
0.0
120
0.0
130
0.0
111
1.0
121
0.0
131
0.0
112
0.0
122
1.0
132
0.0
 79
     0
146
0.0
170
     0
 61
     5
348
2F
292
     1
282
     1
141
0.0
142
0.0
 63
   256
361
176
  0
ENDBLK
  5
B2
330
AF
100
AcDbEntity
  8
0
100
AcDbBlockEnd
  0
BLOCK
  5
BD
330
BB
100
AcDbEntity
  8
0
100
AcDbBlockBegin
  2
*Paper_Space2
 70
     0
 10
0.0
 20
0.0
 30
0.0
  3
*Paper_Space2
  1

  0
LINE
  5
C3
330
BB
100
AcDbEntity
  8
0
  6
Continuous
 62
     7
370
    25
100
AcDbLine
 10
-490.0
 20
140.0
 30
0.0
 11
0.0
 21
140.0
 31
0.0
  0
LINE
  5
C4
330
BB
100
AcDbEntity
  8
0
  6
Continuous
 62
     7
370
    25
100
AcDbLine
 10
-490.0
 20
140.0
 30
0.0
 11
-490.0
 21
0.0
 31
0.0
  0
LINE
  5
C5
330
BB
100
AcDbEntity
  8
0
  6
Continuous
 62
     7
370
    25
100
AcDbLine
 10
-490.0
 20
0.0
 30
0.0
 11
0.0
 21
0.0
 31
0.0
  0
LINE
  5
C6
330
BB
100
AcDbEntity
  8
0
  6
Continuous
 62
     7
370
    25
100
AcDbLine
 10
0.0
 20
140.0
 30
0.0
 11
0.0
 21
0.0
 31
0.0
  0
VIEWPORT
  5
177
330
BB
100
AcDbEntity
  8
0
100
AcDbViewport
 10
0.0
 20
0.0
 30
0.0
 40
205.6
 41
156.0
 68
     1
 69
     1
 12
245.0
 22
172.5
 13
0.0
 23
0.0
 14
10.0
 24
10.0
 15
10.0
 25
10.0
 16
0.0
 26
0.0
 36
1.0
 17
0.0
 27
0.0
 37
0.0
 42
50.0
 43
0.0
 44
0.0
 45
379.2256809339
 50
0.0
 51
0.0
 72
   100
 90
   557152
  1

281
     0
 71
     1
 74
     0
110
0.0
120
0.0
130
0.0
111
1.0
121
0.0
131
0.0
112
0.0
122
1.0
132
0.0
 79
     0
146
0.0
170
     0
 61
     5
348
2F
292
     1
282
     1
141
0.0
142
0.0
 63
   256
361
178
  0
ENDBLK
  5
BE
330
BB
100
AcDbEntity
  8
0
100
AcDbBlockEnd
  0
BLOCK
  5
C9
330
C7
100
AcDbEntity
  8
0
100
AcDbBlockBegin
  2
*Paper_Space3
 70
     0
 10
0.0
 20
0.0
 30
0.0
  3
*Paper_Space3
  1

  0
LINE
  5
CF
330
C7
100
AcDbEntity
  8
0
  6
Continuous
 62
     7
370
    25
100
AcDbLine
 10
-345.0
 20
140.0
 30
0.0
 11
-345.0
 21
0.0
 31
0.0
  0
LINE
  5
D0
330
C7
100
AcDbEntity
  8
0
  6
Continuous
 62
     7
370
    25
100
AcDbLine
 10
-345.0
 20
140.0
 30
0.0
 11
0.0
 21
140.0
 31
0.0
  0
LINE
  5
D1
330
C7
100
AcDbEntity
  8
0
  6
Continuous
 62
     7
370
    25
100
AcDbLine
 10
0.0
 20
140.0
 30
0.0
 11
0.0
 21
0.0
 31
0.0
  0
LINE
  5
D2
330
C7
100
AcDbEntity
  8
0
  6
Continuous
 62
     7
370
    25
100
AcDbLine
 10
-345.0
 20
0.0
 30
0.0
 11
0.0
 21
0.0
 31
0.0
  0
VIEWPORT
  5
179
330
C7
100
AcDbEntity
  8
0
100
AcDbViewport
 10
0.0
 20
0.0
 30
0.0
 40
205.6
 41
156.0
 68
     1
 69
     1
 12
245.0
 22
172.5
 13
0.0
 23
0.0
 14
10.0
 24
10.0
 15
10.0
 25
10.0
 16
0.0
 26
0.0
 36
1.0
 17
0.0
 27
0.0
 37
0.0
 42
50.0
 43
0.0
 44
0.0
 45
379.2256809339
 50
0.0
 51
0.0
 72
   100
 90
   557152
  1

281
     0
 71
     1
 74
     0
110
0.0
120
0.0
130
0.0
111
1.0
121
0.0
131
0.0
112
0.0
122
1.0
132
0.0
 79
     0
146
0.0
170
     0
 61
     5
348
2F
292
     1
282
     1
141
0.0
142
0.0
 63
   256
361
17A
  0
ENDBLK
  5
CA
330
C7
100
AcDbEntity
  8
0
100
AcDbBlockEnd
  0
BLOCK
  5
D5
330
D3
100
AcDbEntity
  8
0
100
AcDbBlockBegin
  2
*Paper_Space4
 70
     0
 10
0.0
 20
0.0
 30
0.0
  3
*Paper_Space4
  1

  0
CIRCLE
  5
D7
330
D3
100
AcDbEntity
  8
0
  6
Continuous
 62
     7
370
    25
100
AcDbCircle
 10
245.0
 20
-172.5
 30
0.0
 40
22.99999999999994
  0
LINE
  5
DC
330
D3
100
AcDbEntity
  8
0
  6
Continuous
 62
     7
370
    25
100
AcDbLine
 10
490.0
 20
-345.0
 30
0.0
 11
0.0
 21
-345.0
 31
0.0
  0
LINE
  5
DD
330
D3
100
AcDbEntity
  8
0
  6
Continuous
 62
     7
370
    25
100
AcDbLine
 10
490.0
 20
0.0
 30
0.0
 11
490.0
 21
-345.0
 31
0.0
  0
LINE
  5
DE
330
D3
100
AcDbEntity
  8
0
  6
Continuous
 62
     7
370
    25
100
AcDbLine
 10
0.0
 20
0.0
 30
0.0
 11
490.0
 21
0.0
 31
0.0
  0
LINE
  5
DF
330
D3
100
AcDbEntity
  8
0
  6
Continuous
 62
     7
370
    25
100
AcDbLine
 10
0.0
 20
-345.0
 30
0.0
 11
0.0
 21
0.0
 31
0.0
  0
VIEWPORT
  5
17B
330
D3
100
AcDbEntity
  8
0
100
AcDbViewport
 10
0.0
 20
0.0
 30
0.0
 40
205.6
 41
156.0
 68
     1
 69
     1
 12
245.0
 22
172.5
 13
0.0
 23
0.0
 14
10.0
 24
10.0
 15
10.0
 25
10.0
 16
0.0
 26
0.0
 36
1.0
 17
0.0
 27
0.0
 37
0.0
 42
50.0
 43
0.0
 44
0.0
 45
379.2256809339
 50
0.0
 51
0.0
 72
   100
 90
   557152
  1

281
     0
 71
     1
 74
     0
110
0.0
120
0.0
130
0.0
111
1.0
121
0.0
131
0.0
112
0.0
122
1.0
132
0.0
 79
     0
146
0.0
170
     0
 61
     5
348
2F
292
     1
282
     1
141
0.0
142
0.0
 63
   256
361
17C
  0
ENDBLK
  5
D6
330
D3
100
AcDbEntity
  8
0
100
AcDbBlockEnd
  0
BLOCK
  5
E2
330
E0
100
AcDbEntity
  8
0
100
AcDbBlockBegin
  2
*Paper_Space5
 70
     0
 10
0.0
 20
0.0
 30
0.0
  3
*Paper_Space5
  1

  0
SPLINE
  5
F3
330
E0
100
AcDbEntity
  8
0
  6
Continuous
 62
     7
370
    25
100
AcDbSpline
210
0.0
220
0.0
230
1.0
 70
     8
 71
     3
 72
    28
 73
    24
 74
     0
 42
0.000000001
 43
0.00000001
 40
0.0
 40
0.0
 40
0.0
 40
0.0
 40
0.015604189427053
 40
0.0296704024142646
 40
0.0421527067759506
 40
0.0530111832104008
 40
0.0622117339686462
 40
0.0948340164860401
 40
0.1243676206272459
 40
0.1900208275733164
 40
0.249663840179122
 40
0.3132297119017872
 40
0.3742798619508443
 40
0.4992254223419262
 40
0.6249419775695152
 40
0.6862614966730181
 40
0.7502229485331233
 40
0.8094901120908657
 40
0.8746513134289439
 40
0.9044420331722568
 40
0.937389151436942
 40
0.9636355138690917
 40
1.0
 40
1.0
 40
1.0
 40
1.0
 10
326.9958451889088
 20
-16.48197169672844
 30
0.0
 10
326.9553294850098
 20
-16.59388387345369
 30
0.0
 10
326.8782913764686
 20
-16.80667796532355
 30
0.0
 10
326.7569447264874
 20
-17.10755261551901
 30
0.0
 10
326.6426162124661
 20
-17.37365413907595
 30
0.0
 10
326.5375288772011
 20
-17.60434810357305
 30
0.0
 10
326.3597138164627
 20
-17.97666626539915
 30
0.0
 10
326.0968633931591
 20
-18.47761649061296
 30
0.0
 10
325.5694804864314
 20
-19.36464286836388
 30
0.0
 10
324.8246651954316
 20
-20.41846951737512
 30
0.0
 10
323.7557274240052
 20
-21.66350979731976
 30
0.0
 10
322.5605193008257
 20
-22.83317792059503
 30
0.0
 10
320.7469500362769
 20
-24.34803576418692
 30
0.0
 10
318.1279350526153
 20
-26.09759667400997
 30
0.0
 10
315.0907122653147
 20
-27.61744956856626
 30
0.0
 10
312.4388839945941
 20
-28.67969329438197
 30
0.0
 10
310.3960617682623
 20
-29.37916951141591
 30
0.0
 10
308.2276914942927
 20
-30.00529866803982
 30
0.0
 10
306.3935463006325
 20
-30.44392233440708
 30
0.0
 10
304.8416205411875
 20
-30.75818546796312
 30
0.0
 10
303.7488152434839
 20
-30.95364490176194
 30
0.0
 10
302.5643715735505
 20
-31.141538226791
 30
0.0
 10
301.7794423936241
 20
-31.24321540856001
 30
0.0
 10
301.3235542059974
 20
-31.30226968671035
 30
0.0
  0
SPLINE
  5
F7
330
E0
100
AcDbEntity
  8
0
  6
Continuous
 62
     7
370
    25
100
AcDbSpline
210
0.0
220
0.0
230
1.0
 70
     8
 71
     3
 72
    39
 73
    35
 74
     0
 42
0.000000001
 43
0.00000001
 40
0.0
 40
0.0
 40
0.0
 40
0.0
 40
0.0086227081252482
 40
0.0173410020380668
 40
0.0261547032312951
 40
0.0350638726584323
 40
0.0440688061993034
 40
0.0531700295555569
 40
0.0623682925775598
 40
0.0925043407260435
 40
0.1246267810457286
 40
0.1536661999453386
 40
0.1873498792376884
 40
0.2184959844119019
 40
0.2495855041760149
 40
0.2807350816854107
 40
0.3120598450161315
 40
0.3748789822061439
 40
0.4372784585940884
 40
0.5000715229343671
 40
0.5628450455776491
 40
0.6251910747632368
 40
0.687952119712814
 40
0.750451436032731
 40
0.7815406732512804
 40
0.8126724551062895
 40
0.8463448918456786
 40
0.8753843265915673
 40
0.9075064209342287
 40
0.9376706188047256
 40
0.9536930874010067
 40
0.9694207513651978
 40
0.9848562375593772
 40
1.0
 40
1.0
 40
1.0
 40
1.0
 10
301.3203834576731
 20
-31.30258138759838
 30
0.0
 10
301.1429352915675
 20
-31.31841769862545
 30
0.0
 10
300.7860718832981
 20
-31.35026587182201
 30
0.0
 10
300.2459458279709
 20
-31.3915122928817
 30
0.0
 10
299.6986915397477
 20
-31.4280963536229
 30
0.0
 10
299.1442802783965
 20
-31.45933708167438
 30
0.0
 10
298.5828692773312
 20
-31.48517943918645
 30
0.0
 10
298.0145552520367
 20
-31.5054057999528
 30
0.0
 10
297.0051781087513
 20
-31.53073858318075
 30
0.0
 10
295.5127382466289
 20
-31.53490105669337
 30
0.0
 10
293.6067572224525
 20
-31.47222966677072
 30
0.0
 10
291.6348989282801
 20
-31.33953012261592
 30
0.0
 10
289.6981852719982
 20
-31.1392995733013
 30
0.0
 10
287.7430383424091
 20
-30.86419079202293
 30
0.0
 10
285.8684451204055
 20
-30.53177831841254
 30
0.0
 10
284.0257541705249
 20
-30.1358199097136
 30
0.0
 10
281.6148292480353
 20
-29.5238105212791
 30
0.0
 10
278.7223521299181
 20
-28.60953817330483
 30
0.0
 10
275.4926952709275
 20
-27.29275582144231
 30
0.0
 10
272.5512599609979
 20
-25.7780814473676
 30
0.0
 10
269.9402998443201
 20
-24.08689288733201
 30
0.0
 10
267.6951097555751
 20
-22.24300662575195
 30
0.0
 10
265.8498279385336
 20
-20.27263655848786
 30
0.0
 10
264.666242830266
 20
-18.54287696384408
 30
0.0
 10
263.9451253888451
 20
-17.12520634343834
 30
0.0
 10
263.5067717673435
 20
-16.01859977017167
 30
0.0
 10
263.197527672978
 20
-14.92254712398978
 30
0.0
 10
263.0056771976768
 20
-13.80625617480401
 30
0.0
 10
262.9329607394919
 20
-12.7263325732682
 30
0.0
 10
262.970919803561
 20
-11.79947613876544
 30
0.0
 10
263.0586584429382
 20
-11.06813433287426
 30
0.0
 10
263.1566269660055
 20
-10.51206654895995
 30
0.0
 10
263.2801003586358
 20
-9.967896816318046
 30
0.0
 10
263.3855804651855
 20
-9.61045661422158
 30
0.0
 10
263.4378173822817
 20
-9.433441489621108
 30
0.0
  0
SPLINE
  5
F9
330
E0
100
AcDbEntity
  8
0
  6
Continuous
 62
     7
370
    25
100
AcDbSpline
210
0.0
220
0.0
230
1.0
 70
     8
 71
     3
 72
    39
 73
    35
 74
     0
 42
0.000000001
 43
0.00000001
 40
0.0
 40
0.0
 40
0.0
 40
0.0
 40
0.0086227081049099
 40
0.0173410020022699
 40
0.0261547031851522
 40
0.035063872607289
 40
0.0440688061487391
 40
0.0531700295113927
 40
0.062368292545866
 40
0.0925043408921359
 40
0.1246267809817792
 40
0.1536662005393681
 40
0.1873498791420891
 40
0.218495984300894
 40
0.2495855040491668
 40
0.2807350815423736
 40
0.3120598448561878
 40
0.3748789820152824
 40
0.4372784583714865
 40
0.5000715226774667
 40
0.5628450453744991
 40
0.6251910747731787
 40
0.6879521199932604
 40
0.7504514360084995
 40
0.7815406732180832
 40
0.8126724551388613
 40
0.8463448918182468
 40
0.8753843266672292
 40
0.9075064201229579
 40
0.9376706186830881
 40
0.9536930869068803
 40
0.9694207507803945
 40
0.9848562371457271
 40
1.0
 40
1.0
 40
1.0
 40
1.0
 10
289.1137788330939
 20
5.388975552556421
 30
0.0
 10
289.2912269987801
 20
5.408234894879987
 30
0.0
 10
289.6480904063111
 20
5.446967076200751
 30
0.0
 10
290.188216460677
 20
5.498788914149983
 30
0.0
 10
290.7354707482535
 20
5.546202551321253
 30
0.0
 10
291.2898820092903
 20
5.588541301860136
 30
0.0
 10
291.8512930103906
 20
5.62574612947743
 30
0.0
 10
292.4196070360871
 20
5.657600912942401
 30
0.0
 10
293.4289841838877
 20
5.703806988112015
 30
0.0
 10
294.9214240456209
 20
5.739546664438808
 30
0.0
 10
296.8274050828442
 20
5.718302990132873
 30
0.0
 10
298.7992633715226
 20
5.629414428155011
 30
0.0
 10
300.7359770266236
 20
5.472546567762832
 30
0.0
 10
302.6911239416086
 20
5.241101450466926
 30
0.0
 10
304.5657171627798
 20
4.949897192195504
 30
0.0
 10
306.4084081118627
 20
4.593003654459693
 30
0.0
 10
308.8193330334121
 20
4.029121923109197
 30
0.0
 10
311.7118101505616
 20
3.165238350397198
 30
0.0
 10
314.9414670087583
 20
1.88759388036347
 30
0.0
 10
317.882902319665
 20
0.3861400322704572
 30
0.0
 10
320.4938624408732
 20
-1.318307009845185
 30
0.0
 10
322.7390525366234
 20
-3.201339794352859
 30
0.0
 10
324.5843343546711
 20
-5.23205821409077
 30
0.0
 10
325.7679194615984
 20
-7.025212846379122
 30
0.0
 10
326.4890369018759
 20
-8.497921630638297
 30
0.0
 10
326.9273905231659
 20
-9.648198382685797
 30
0.0
 10
327.2366346185901
 20
-10.78759204400172
 30
0.0
 10
327.4284850912392
 20
-11.94768895374115
 30
0.0
 10
327.5012015515723
 20
-13.06905069986053
 30
0.0
 10
327.4632424892771
 20
-14.03050507105499
 30
0.0
 10
327.3755038485304
 20
-14.78841695215211
 30
0.0
 10
327.2775353274032
 20
-15.36429561478171
 30
0.0
 10
327.1540619350915
 20
-15.92749826169389
 30
0.0
 10
327.0485818268481
 20
-16.29711769717683
 30
0.0
 10
326.9963449084852
 20
-16.48016434548023
 30
0.0
  0
SPLINE
  5
FD
330
E0
100
AcDbEntity
  8
0
  6
Continuous
 62
     7
370
    25
100
AcDbSpline
210
0.0
220
0.0
230
1.0
 70
     8
 71
     3
 72
    28
 73
    24
 74
     0
 42
0.000000001
 43
0.00000001
 40
0.0
 40
0.0
 40
0.0
 40
0.0
 40
0.0156042003137088
 40
0.0296704190520585
 40
0.0421527238693677
 40
0.0530111953399199
 40
0.062211735625514
 40
0.0948340214107509
 40
0.1243676239503473
 40
0.1900208340289489
 40
0.2496638468681476
 40
0.3132297208805389
 40
0.3742798719082896
 40
0.49922543579207
 40
0.6249420465764701
 40
0.6862615285341288
 40
0.7502229192748
 40
0.8094900987648785
 40
0.8746513173068042
 40
0.9044420077345965
 40
0.9373892313574389
 40
0.9636355542306894
 40
1.0
 40
1.0
 40
1.0
 40
1.0
 10
263.4383171018575
 20
-9.431587601919325
 30
0.0
 10
263.4788328350931
 20
-9.317336945984703
 30
0.0
 10
263.5558709888682
 20
-9.10009641007753
 30
0.0
 10
263.677217697091
 20
-8.79299584267712
 30
0.0
 10
263.7915462237482
 20
-8.521423742083826
 30
0.0
 10
263.8966335168736
 20
-8.286019892963015
 30
0.0
 10
264.0744485413193
 20
-7.906157048152548
 30
0.0
 10
264.3372989356145
 20
-7.395238683879285
 30
0.0
 10
264.8646818699311
 20
-6.49106352739251
 30
0.0
 10
265.609497181139
 20
-5.418098902619114
 30
0.0
 10
266.6784350000287
 20
-4.152803010333522
 30
0.0
 10
267.8736431643211
 20
-2.967135652163264
 30
0.0
 10
269.6872125082689
 20
-1.436157430437637
 30
0.0
 10
272.306228035437
 20
0.3218596479907243
 30
0.0
 10
275.3434511780437
 20
1.833399449698944
 30
0.0
 10
277.9952790905649
 20
2.879496273962223
 30
0.0
 10
280.0381004058682
 20
3.562962630043548
 30
0.0
 10
282.2064703419569
 20
4.168910370281026
 30
0.0
 10
284.0406155646585
 20
4.588497756211396
 30
0.0
 10
285.5925424537458
 20
4.885622133374359
 30
0.0
 10
286.6853482155362
 20
5.068654880759152
 30
0.0
 10
287.8697922212127
 20
5.242748754853574
 30
0.0
 10
288.6547204016948
 20
5.335082678419714
 30
0.0
 10
289.1106080847688
 20
5.388710385425793
 30
0.0
  0
SPLINE
  5
100
330
E0
100
AcDbEntity
  8
0
  6
Continuous
 62
     7
370
    25
100
AcDbSpline
210
0.0
220
0.0
230
1.0
 70
     8
 71
     3
 72
     9
 73
     5
 74
     0
 42
0.000000001
 43
0.00000001
 40
0.0
 40
0.0
 40
0.0
 40
0.0
 40
0.4378574694959075
 40
1.0
 40
1.0
 40
1.0
 40
1.0
 10
272.6266425347609
 20
-19.03454093297917
 30
0.0
 10
271.2854174259591
 20
-17.63341931273427
 30
0.0
 10
268.2222628557155
 20
-14.4334702017645
 30
0.0
 10
265.159873776853
 20
-11.23157139756517
 30
0.0
 10
263.4383746306731
 20
-9.431647901354548
 30
0.0
  0
SPLINE
  5
101
330
E0
100
AcDbEntity
  8
0
  6
Continuous
 62
     7
370
    25
100
AcDbSpline
210
0.0
220
0.0
230
1.0
 70
     8
 71
     3
 72
    14
 73
    10
 74
     0
 42
0.000000001
 43
0.00000001
 40
0.0
 40
0.0
 40
0.0
 40
0.0
 40
0.1966136602279354
 40
0.4124937040730328
 40
0.5510197352781149
 40
0.6904691178054829
 40
0.8263390696996977
 40
0.9766917810487904
 40
1.0
 40
1.0
 40
1.0
 40
1.0
 10
272.6266440738836
 20
-19.03453641368412
 30
0.0
 10
272.4891011437834
 20
-19.52860117548547
 30
0.0
 10
272.2005373042196
 20
-20.56514463544207
 30
0.0
 10
272.1944357602756
 20
-21.9677471490448
 30
0.0
 10
272.403732725716
 20
-23.21332613198479
 30
0.0
 10
272.7309194065084
 20
-24.24606336243434
 30
0.0
 10
273.2315818536066
 20
-25.28718679371642
 30
0.0
 10
273.6722988524618
 20
-26.0343581028772
 30
0.0
 10
274.0009081127781
 20
-26.4354721665763
 30
0.0
 10
274.045013004855
 20
-26.48930842326881
 30
0.0
  0
SPLINE
  5
102
330
E0
100
AcDbEntity
  8
0
  6
Continuous
 62
     7
370
    25
100
AcDbSpline
210
0.0
220
0.0
230
1.0
 70
     8
 71
     3
 72
     9
 73
     5
 74
     0
 42
0.000000001
 43
0.00000001
 40
0.0
 40
0.0
 40
0.0
 40
0.0
 40
0.3466550984800562
 40
1.0
 40
1.0
 40
1.0
 40
1.0
 10
316.0408840005741
 20
-27.05299516773962
 30
0.0
 10
316.3202574284907
 20
-26.71764318388155
 30
0.0
 10
317.1261692098013
 20
-25.75024941027643
 30
0.0
 10
317.5382725782463
 20
-24.70591545946725
 30
0.0
 10
317.8075182129191
 20
-24.02360519722191
 30
0.0
  0
SPLINE
  5
103
330
E0
100
AcDbEntity
  8
0
  6
Continuous
 62
     7
370
    25
100
AcDbSpline
210
0.0
220
0.0
230
1.0
 70
     8
 71
     3
 72
     9
 73
     5
 74
     0
 42
0.000000001
 43
0.00000001
 40
0.0
 40
0.0
 40
0.0
 40
0.0
 40
0.5133147359060459
 40
0.9999999999999999
 40
0.9999999999999999
 40
0.9999999999999999
 40
0.9999999999999999
 10
326.9958451640109
 20
-16.48197168985478
 30
0.0
 10
325.4238937103783
 20
-17.77187421662046
 30
0.0
 10
322.3615396736136
 20
-20.28476238549198
 30
0.0
 10
319.2983359288809
 20
-22.79964451051551
 30
0.0
 10
317.807519805402
 20
-24.02360058169775
 30
0.0
  0
SPLINE
  5
104
330
E0
100
AcDbEntity
  8
0
  6
Continuous
 62
     7
370
    25
100
AcDbSpline
210
0.0
220
0.0
230
1.0
 70
     8
 71
     3
 72
    38
 73
    34
 74
     0
 42
0.000000001
 43
0.00000001
 40
0.0
 40
0.0
 40
0.0
 40
0.0
 40
0.0103860735703739
 40
0.0209651673449389
 40
0.031737281855764
 40
0.0427024175803039
 40
0.0538605749447052
 40
0.0652117543268337
 40
0.0767559560590499
 40
0.0884931804307542
 40
0.1004234276907246
 40
0.1125466980492733
 40
0.1248629916802296
 40
0.1562971130863706
 40
0.1877313400619526
 40
0.2194142100926275
 40
0.2500751745300691
 40
0.31688214038831
 40
0.375331824360886
 40
0.4999459753333194
 40
0.6246327309964151
 40
0.683099000961285
 40
0.7498942720319505
 40
0.7778557837717304
 40
0.8122531601018114
 40
0.843691780899215
 40
0.8751304281466213
 40
0.8962811042572797
 40
0.9172961415811574
 40
0.9381755448896835
 40
0.9589193190573913
 40
0.979527469064571
 40
1.0
 40
1.0
 40
1.0
 40
1.0
 10
317.8075182124567
 20
-24.02360538587624
 30
0.0
 10
317.8357574289542
 20
-23.93339825968796
 30
0.0
 10
317.892760674266
 20
-23.75130755106465
 30
0.0
 10
317.966996928898
 20
-23.47429458666367
 30
0.0
 10
318.0333629698555
 20
-23.19134629165734
 30
0.0
 10
318.0904179058257
 20
-22.90243348219893
 30
0.0
 10
318.1378262227245
 20
-22.60767696344664
 30
0.0
 10
318.1749386562479
 20
-22.30717333972626
 30
0.0
 10
318.2011837542557
 20
-22.00104368053239
 30
0.0
 10
318.215961162298
 20
-21.68942099141102
 30
0.0
 10
318.2186724585474
 20
-21.37245400111797
 30
0.0
 10
318.2087126951302
 20
-21.05030840039908
 30
0.0
 10
318.1735787090394
 20
-20.55560024971634
 30
0.0
 10
318.0785313673725
 20
-19.89110887929209
 30
0.0
 10
317.8731542641719
 20
-19.06098994488593
 30
0.0
 10
317.5846831727284
 20
-18.24661367629485
 30
0.0
 10
317.0738146962909
 20
-17.1424168762767
 30
0.0
 10
316.2444595161423
 20
-15.84842108636851
 30
0.0
 10
314.5025774603349
 20
-13.89688578790203
 30
0.0
 10
311.6435803621048
 20
-11.76009201761259
 30
0.0
 10
307.9844946112118
 20
-10.13349856350555
 30
0.0
 10
304.6780128373791
 20
-9.170793502697395
 30
0.0
 10
302.5327291883588
 20
-8.733303561477223
 30
0.0
 10
300.6744165344408
 20
-8.466148169238352
 30
0.0
 10
299.3039135814691
 20
-8.320360901428057
 30
0.0
 10
297.8664629855105
 20
-8.222346366448516
 30
0.0
 10
296.6158182910778
 20
-8.181815084346567
 30
0.0
 10
295.5174329986975
 20
-8.178559675675364
 30
0.0
 10
294.5760888144861
 20
-8.19766186112668
 30
0.0
 10
293.6418506219784
 20
-8.238184075379074
 30
0.0
 10
292.7163868590359
 20
-8.3001415738804
 30
0.0
 10
291.8005122816333
 20
-8.381163856217997
 30
0.0
 10
291.1968080669218
 20
-8.45239244383139
 30
0.0
 10
290.8959524596646
 20
-8.487889164672982
 30
0.0
  0
SPLINE
  5
105
330
E0
100
AcDbEntity
  8
0
  6
Continuous
 62
     7
370
    25
100
AcDbSpline
210
0.0
220
0.0
230
1.0
 70
     8
 71
     3
 72
    35
 73
    31
 74
     0
 42
0.000000001
 43
0.00000001
 40
0.0
 40
0.0
 40
0.0
 40
0.0
 40
0.0177732032266457
 40
0.0352595912543681
 40
0.0524591641798011
 40
0.0693719221388714
 40
0.0859978653089287
 40
0.1023369939110699
 40
0.1183893082126626
 40
0.1341548085301082
 40
0.1496334952318501
 40
0.1648253687416719
 40
0.1797304295423132
 40
0.1943486781794384
 40
0.2086801152660044
 40
0.2227247414870689
 40
0.2364825576051084
 40
0.2499535644658977
 40
0.3782509342865921
 40
0.5007756785218539
 40
0.6226087783953648
 40
0.7501817327691668
 40
0.7773984573673258
 40
0.8057610678042054
 40
0.8352695599406197
 40
0.8659239280830834
 40
0.8977241651308263
 40
0.9306702626972216
 40
0.9647622112108296
 40
1.0
 40
1.0
 40
1.0
 40
1.0
 10
290.895952462107
 20
-8.48788897563811
 30
0.0
 10
290.7365800896714
 20
-8.504654079765182
 30
0.0
 10
290.420407217643
 20
-8.537913741027095
 30
0.0
 10
289.9526192309166
 20
-8.594721567244722
 30
0.0
 10
289.4946027404447
 20
-8.655742365115474
 30
0.0
 10
289.0466055643481
 20
-8.721199475726749
 30
0.0
 10
288.6086421848998
 20
-8.79066307631135
 30
0.0
 10
288.1807663984674
 20
-8.863880724756134
 30
0.0
 10
287.7630011735036
 20
-8.940560632558187
 30
0.0
 10
287.3553580603526
 20
-9.020428524212518
 30
0.0
 10
286.9578331928834
 20
-9.103213019778595
 30
0.0
 10
286.5704094134329
 20
-9.1886496334663
 30
0.0
 10
286.1930566814411
 20
-9.276479931478232
 30
0.0
 10
285.8257332804853
 20
-9.366451762098341
 30
0.0
 10
285.4683854594988
 20
-9.458319772123206
 30
0.0
 10
285.1209523087409
 20
-9.55184368171555
 30
0.0
 10
284.7833516990028
 20
-9.64679487843552
 30
0.0
 10
283.5217746699709
 20
-10.01677358440653
 30
0.0
 10
281.4701436458148
 20
-10.75448144066811
 30
0.0
 10
278.8854208225805
 20
-12.04020883967595
 30
0.0
 10
276.6570750032049
 20
-13.53667427641936
 30
0.0
 10
275.3017612573921
 20
-14.78773865337359
 30
0.0
 10
274.5426525924739
 20
-15.65905599497933
 30
0.0
 10
274.2130756417012
 20
-16.07080729168252
 30
0.0
 10
273.8956794185327
 20
-16.50611542865364
 30
0.0
 10
273.5939370513126
 20
-16.9652253424016
 30
0.0
 10
273.3112559767193
 20
-17.44821416717107
 30
0.0
 10
273.0522851473472
 20
-17.95516811543795
 30
0.0
 10
272.817578893575
 20
-18.48553111453856
 30
0.0
 10
272.6909864290262
 20
-18.84952920730994
 30
0.0
 10
272.626644074625
 20
-19.03453622466991
 30
0.0
  0
LWPOLYLINE
  5
106
330
E0
100
AcDbEntity
  8
0
  6
Continuous
 62
     7
370
    25
100
AcDbPolyline
 90
       18
 70
   128
 43
0.0
 10
311.4805371127
 20
-20.2061007676
 10
309.3139433794
 20
-19.10341813
 10
306.9250337076
 20
-18.1661907579
 10
304.35148263
 20
-17.4091992869
 10
301.6338765843
 20
-16.8443819247
 10
298.8150738413
 20
-16.4806461785
 10
295.9395286042
 20
-16.3237283783
 10
293.0525899391
 20
-16.3761032115
 10
290.1997865933
 20
-16.6369446958
 10
287.4261089797
 20
-17.1021392051
 10
284.7752996514
 20
-17.7643503441
 10
282.2891634548
 20
-18.6131346476
 10
280.0069082429
 20
-19.63510628
 10
277.9645265439
 20
-20.8141481383
 10
276.1942279371
 20
-22.1316660279
 10
274.7239310891
 20
-23.5668819048
 10
273.5768234594
 20
-25.0971615571
 10
273.3034144117
 20
-25.5623986696
  0
SPLINE
  5
108
330
E0
100
AcDbEntity
  8
0
  6
Continuous
 62
     7
370
    25
100
AcDbSpline
210
0.0
220
0.0
230
1.0
 70
     8
 71
     3
 72
     9
 73
     5
 74
     0
 42
0.000000001
 43
0.00000001
 40
0.0
 40
0.0
 40
0.0
 40
0.0
 40
0.4865950817845128
 40
1.0
 40
1.0
 40
1.0
 40
1.0
 10
290.8959605722745
 20
-8.487888074398487
 30
0.0
 10
290.607270950978
 20
-6.237031385258413
 30
0.0
 10
290.0139858313714
 20
-1.611302985198446
 30
0.0
 10
289.4170683493673
 20
3.014037772366279
 30
0.0
 10
289.1106079783377
 20
5.388710465722562
 30
0.0
  0
LINE
  5
109
330
E0
100
AcDbEntity
  8
0
  6
Continuous
 62
     7
370
    25
100
AcDbLine
 10
590.4341622908
 20
55.1261255569
 30
0.0
 11
243.9518395094
 21
255.1461129534
 31
0.0
  0
LINE
  5
10A
330
E0
100
AcDbEntity
  8
0
  6
Continuous
 62
     7
370
    25
100
AcDbLine
 10
346.4823227814
 20
-85.7042737326
 30
0.0
 11
590.4341622908
 21
55.1261255569
 31
0.0
  0
LINE
  5
10B
330
E0
100
AcDbEntity
  8
0
  6
Continuous
 62
     7
370
    25
100
AcDbLine
 10
0.0
 20
114.315713664
 30
0.0
 11
346.4823227814
 21
-85.7042737326
 31
0.0
  0
LINE
  5
10C
330
E0
100
AcDbEntity
  8
0
  6
Continuous
 62
     7
370
    25
100
AcDbLine
 10
243.9518395094
 20
255.1461129534
 30
0.0
 11
0.0
 21
114.315713664
 31
0.0
  0
LINE
  5
10D
330
E0
100
AcDbEntity
  8
0
  6
Continuous
 62
     7
370
    25
100
AcDbLine
 10
346.4823227814
 20
-69.3761114961
 30
0.0
 11
562.1498910433
 21
55.1261255569
 31
0.0
  0
LINE
  5
10E
330
E0
100
AcDbEntity
  8
0
  6
Continuous
 62
     7
370
    25
100
AcDbLine
 10
562.1498910433
 20
55.1261255569
 30
0.0
 11
243.9518395094
 21
238.817950717
 31
0.0
  0
LINE
  5
10F
330
E0
100
AcDbEntity
  8
0
  6
Continuous
 62
     7
370
    25
100
AcDbLine
 10
243.9518395094
 20
238.817950717
 30
0.0
 11
28.2842712475
 21
114.315713664
 31
0.0
  0
LINE
  5
110
330
E0
100
AcDbEntity
  8
0
  6
Continuous
 62
     7
370
    25
100
AcDbLine
 10
28.2842712475
 20
114.315713664
 30
0.0
 11
346.4823227814
 21
-69.3761114961
 31
0.0
  0
LINE
  5
111
330
E0
100
AcDbEntity
  8
0
  6
Continuous
 62
     7
370
    25
100
AcDbLine
 10
0.0
 20
114.315713664
 30
0.0
 11
0.0
 21
0.0
 31
0.0
  0
LINE
  5
112
330
E0
100
AcDbEntity
  8
0
  6
Continuous
 62
     7
370
    25
100
AcDbLine
 10
346.4823227814
 20
-85.7042737326
 30
0.0
 11
346.4823227814
 21
-200.0199873966
 31
0.0
  0
LINE
  5
113
330
E0
100
AcDbEntity
  8
0
  6
Continuous
 62
     7
370
    25
100
AcDbLine
 10
0.0
 20
0.0
 30
0.0
 11
346.4823227814
 21
-200.0199873966
 31
0.0
  0
LINE
  5
114
330
E0
100
AcDbEntity
  8
0
  6
Continuous
 62
     7
370
    25
100
AcDbLine
 10
590.4341622908
 20
55.1261255569
 30
0.0
 11
590.4341622908
 21
-59.1895881071
 31
0.0
  0
LINE
  5
115
330
E0
100
AcDbEntity
  8
0
  6
Continuous
 62
     7
370
    25
100
AcDbLine
 10
346.4823227814
 20
-200.0199873966
 30
0.0
 11
590.4341622908
 21
-59.1895881071
 31
0.0
  0
LINE
  5
116
330
E0
100
AcDbEntity
  8
0
  6
Continuous
 62
     7
370
    25
100
AcDbLine
 10
306.643792917
 20
-46.3778177378
 30
0.0
 11
301.320383458
 21
-31.3025813884
 31
0.0
  0
LINE
  5
117
330
E0
100
AcDbEntity
  8
0
  6
Continuous
 62
     7
370
    25
100
AcDbLine
 10
301.3235541879
 20
-31.302269624
 30
0.0
 11
301.3203834602
 21
-31.3025813762
 31
0.0
  0
LINE
  5
118
330
E0
100
AcDbEntity
  8
0
  6
Continuous
 62
     7
370
    25
100
AcDbLine
 10
326.9963448875
 20
-16.4801643476
 30
0.0
 11
326.995845105
 21
-16.4819716919
 31
0.0
  0
LINE
  5
119
330
E0
100
AcDbEntity
  8
0
  6
Continuous
 62
     7
370
    25
100
AcDbLine
 10
424.9664623848
 20
-24.0681821095
 30
0.0
 11
326.99634491
 21
-16.4801643456
 31
0.0
  0
LINE
  5
11A
330
E0
100
AcDbEntity
  8
0
  6
Continuous
 62
     7
370
    25
100
AcDbLine
 10
235.7193750242
 20
-5.4340228015
 30
0.0
 11
263.4378173807
 21
-9.4334414894
 31
0.0
  0
LINE
  5
11B
330
E0
100
AcDbEntity
  8
0
  6
Continuous
 62
     7
370
    25
100
AcDbLine
 10
484.3555023641
 20
10.2163809031
 30
0.0
 11
243.9518395094
 21
148.9984614095
 31
0.0
  0
LINE
  5
11C
330
E0
100
AcDbEntity
  8
0
  6
Continuous
 62
     7
370
    25
100
AcDbLine
 10
289.1137788328
 20
5.3889755535
 30
0.0
 11
243.9518395094
 21
148.9984614095
 31
0.0
  0
LINE
  5
11D
330
E0
100
AcDbEntity
  8
0
  6
Continuous
 62
     7
370
    25
100
AcDbLine
 10
243.9518395094
 20
148.9984614095
 30
0.0
 11
243.9518395094
 21
238.817950717
 31
0.0
  0
LINE
  5
11E
330
E0
100
AcDbEntity
  8
0
  6
Continuous
 62
     7
370
    25
100
AcDbLine
 10
289.1106081029
 20
5.3887103151
 30
0.0
 11
289.1137788306
 21
5.38897554
 31
0.0
  0
LINE
  5
11F
330
E0
100
AcDbEntity
  8
0
  6
Continuous
 62
     7
370
    25
100
AcDbLine
 10
263.4378174033
 20
-9.4334414888
 30
0.0
 11
263.4383171857
 21
-9.4315876123
 31
0.0
  0
LINE
  5
120
330
E0
100
AcDbEntity
  8
0
  6
Continuous
 62
     7
370
    25
100
AcDbLine
 10
243.9518395094
 20
148.9984614095
 30
0.0
 11
106.0786599267
 21
69.4059690103
 31
0.0
  0
ARC
  5
121
330
E0
100
AcDbEntity
  8
0
  6
Continuous
 62
     7
370
    25
100
AcDbCircle
 10
304.6767302604
 20
-33.0321862343
 30
0.0
 40
14.51896194915579
100
AcDbArc
 50
30.5904766242
 51
62.0555536826
  0
VIEWPORT
  5
17D
330
E0
100
AcDbEntity
  8
0
100
AcDbViewport
 10
0.0
 20
0.0
 30
0.0
 40
205.6
 41
156.0
 68
     1
 69
     1
 12
245.0
 22
172.5
 13
0.0
 23
0.0
 14
10.0
 24
10.0
 15
10.0
 25
10.0
 16
0.0
 26
0.0
 36
1.0
 17
0.0
 27
0.0
 37
0.0
 42
50.0
 43
0.0
 44
0.0
 45
379.2256809339
 50
0.0
 51
0.0
 72
   100
 90
   557152
  1

281
     0
 71
     1
 74
     0
110
0.0
120
0.0
130
0.0
111
1.0
121
0.0
131
0.0
112
0.0
122
1.0
132
0.0
 79
     0
146
0.0
170
     0
 61
     5
348
2F
292
     1
282
     1
141
0.0
142
0.0
 63
   256
361
17E
  0
ENDBLK
  5
E3
330
E0
100
AcDbEntity
  8
0
100
AcDbBlockEnd
  0
BLOCK
  5
124
330
122
100
AcDbEntity
  8
0
100
AcDbBlockBegin
  2
*Paper_Space6
 70
     0
 10
0.0
 20
0.0
 30
0.0
  3
*Paper_Space6
  1

  0
SPLINE
  5
138
330
122
100
AcDbEntity
  8
0
  6
Continuous
 62
     7
370
    25
100
AcDbSpline
210
0.0
220
0.0
230
1.0
 70
     8
 71
     3
 72
    21
 73
    17
 74
     0
 42
0.000000001
 43
0.00000001
 40
0.0
 40
0.0
 40
0.0
 40
0.0
 40
0.01468528990253
 40
0.0957567495228664
 40
0.1761994442285135
 40
0.2569508747272673
 40
0.3381840569760186
 40
0.4188745641652892
 40
0.5000740309142848
 40
0.581248227862253
 40
0.6618696212965132
 40
0.743027683265266
 40
0.8238472960438913
 40
0.9042710746744751
 40
0.985328024051858
 40
1.0
 40
1.0
 40
1.0
 40
1.0
 10
288.5970652548748
 20
53.21585991796854
 30
0.0
 10
288.8236680858291
 20
53.25458722472279
 30
0.0
 10
290.3012521627439
 20
53.50711210078417
 30
0.0
 10
293.1372007539217
 20
53.74345033377641
 30
0.0
 10
297.0440624690609
 20
53.90355207480544
 30
0.0
 10
300.9602763203561
 20
53.79723510290194
 30
0.0
 10
304.8169078454068
 20
53.44917200324696
 30
0.0
 10
308.5665880610599
 20
52.85502120078245
 30
0.0
 10
312.148329030452
 20
52.02412068944304
 30
0.0
 10
315.5113676509226
 20
50.9671491206369
 30
0.0
 10
318.6104159808535
 20
49.69995783115619
 30
0.0
 10
321.3947650759369
 20
48.24332782288971
 30
0.0
 10
323.8392259777565
 20
46.62103309244396
 30
0.0
 10
325.858635975896
 20
44.84990551706157
 30
0.0
 10
327.1341703371753
 20
43.49645112752178
 30
0.0
 10
327.59098087895
 20
42.71837373189515
 30
0.0
 10
327.6609943389255
 20
42.59912103167303
 30
0.0
  0
LINE
  5
139
330
122
100
AcDbEntity
  8
0
  6
Continuous
 62
     7
370
    25
100
AcDbLine
 10
594.3747888028
 20
159.3747410507
 30
0.0
 11
161.0099091809
 21
277.1540294458
 31
0.0
  0
LINE
  5
13A
330
122
100
AcDbEntity
  8
0
  6
Continuous
 62
     7
370
    25
100
AcDbLine
 10
433.3648796219
 20
2.2241337032
 30
0.0
 11
594.3747888028
 21
159.3747410507
 31
0.0
  0
LINE
  5
13B
330
122
100
AcDbEntity
  8
0
  6
Continuous
 62
     7
370
    25
100
AcDbLine
 10
0.0
 20
120.0034220983
 30
0.0
 11
433.3648796219
 21
2.2241337032
 31
0.0
  0
LINE
  5
13C
330
122
100
AcDbEntity
  8
0
  6
Continuous
 62
     7
370
    25
100
AcDbLine
 10
161.0099091809
 20
277.1540294458
 30
0.0
 11
0.0
 21
120.0034220983
 31
0.0
  0
LINE
  5
13D
330
122
100
AcDbEntity
  8
0
  6
Continuous
 62
     7
370
    25
100
AcDbLine
 10
425.010424967
 20
16.1416317329
 30
0.0
 11
567.3525185907
 21
155.0718788082
 31
0.0
  0
LINE
  5
13E
330
122
100
AcDbEntity
  8
0
  6
Continuous
 62
     7
370
    25
100
AcDbLine
 10
567.3525185907
 20
155.0718788082
 30
0.0
 11
169.3643638358
 21
263.236531416
 31
0.0
  0
LINE
  5
13F
330
122
100
AcDbEntity
  8
0
  6
Continuous
 62
     7
370
    25
100
AcDbLine
 10
169.3643638358
 20
263.236531416
 30
0.0
 11
27.0222702121
 21
124.3062843407
 31
0.0
  0
LINE
  5
140
330
122
100
AcDbEntity
  8
0
  6
Continuous
 62
     7
370
    25
100
AcDbLine
 10
27.0222702121
 20
124.3062843407
 30
0.0
 11
425.010424967
 21
16.1416317329
 31
0.0
  0
LINE
  5
141
330
122
100
AcDbEntity
  8
0
  6
Continuous
 62
     7
370
    25
100
AcDbLine
 10
0.0
 20
120.0034220983
 30
0.0
 11
0.0
 21
0.0
 31
0.0
  0
LINE
  5
142
330
122
100
AcDbEntity
  8
0
  6
Continuous
 62
     7
370
    25
100
AcDbLine
 10
433.3648796219
 20
2.2241337032
 30
0.0
 11
433.3648796219
 21
-117.7792883951
 31
0.0
  0
LINE
  5
143
330
122
100
AcDbEntity
  8
0
  6
Continuous
 62
     7
370
    25
100
AcDbLine
 10
0.0
 20
0.0
 30
0.0
 11
433.3648796219
 21
-117.7792883951
 31
0.0
  0
LINE
  5
144
330
122
100
AcDbEntity
  8
0
  6
Continuous
 62
     7
370
    25
100
AcDbLine
 10
594.3747888028
 20
159.3747410507
 30
0.0
 11
594.3747888028
 21
39.3713189524
 31
0.0
  0
LINE
  5
145
330
122
100
AcDbEntity
  8
0
  6
Continuous
 62
     7
370
    25
100
AcDbLine
 10
433.3648796219
 20
-117.7792883951
 30
0.0
 11
594.3747888028
 21
39.3713189524
 31
0.0
  0
LINE
  5
146
330
122
100
AcDbEntity
  8
0
  6
Continuous
 62
     7
370
    25
100
AcDbLine
 10
460.7434963855
 20
51.0182048853
 30
0.0
 11
338.038987371
 21
39.7786048991
 31
0.0
  0
LINE
  5
147
330
122
100
AcDbEntity
  8
0
  6
Continuous
 62
     7
370
    25
100
AcDbLine
 10
277.8593096515
 20
56.1341518087
 30
0.0
 11
169.3643638358
 21
168.9481283388
 31
0.0
  0
LINE
  5
148
330
122
100
AcDbEntity
  8
0
  6
Continuous
 62
     7
370
    25
100
AcDbLine
 10
169.3643638358
 20
168.9481283388
 30
0.0
 11
102.5854259296
 21
103.7698377393
 31
0.0
  0
LINE
  5
149
330
122
100
AcDbEntity
  8
0
  6
Continuous
 62
     7
370
    25
100
AcDbLine
 10
169.3643638358
 20
168.9481283388
 30
0.0
 11
169.3643638358
 21
263.236531416
 31
0.0
  0
LINE
  5
14A
330
122
100
AcDbEntity
  8
0
  6
Continuous
 62
     7
370
    25
100
AcDbLine
 10
491.7893628732
 20
81.3199223324
 30
0.0
 11
169.3643638358
 21
168.9481283388
 31
0.0
  0
VIEWPORT
  5
17F
330
122
100
AcDbEntity
  8
0
100
AcDbViewport
 10
0.0
 20
0.0
 30
0.0
 40
205.6
 41
156.0
 68
     1
 69
     1
 12
245.0
 22
172.5
 13
0.0
 23
0.0
 14
10.0
 24
10.0
 15
10.0
 25
10.0
 16
0.0
 26
0.0
 36
1.0
 17
0.0
 27
0.0
 37
0.0
 42
50.0
 43
0.0
 44
0.0
 45
379.2256809339
 50
0.0
 51
0.0
 72
   100
 90
   557152
  1

281
     0
 71
     1
 74
     0
110
0.0
120
0.0
130
0.0
111
1.0
121
0.0
131
0.0
112
0.0
122
1.0
132
0.0
 79
     0
146
0.0
170
     0
 61
     5
348
2F
292
     1
282
     1
141
0.0
142
0.0
 63
   256
361
180
  0
ENDBLK
  5
125
330
122
100
AcDbEntity
  8
0
100
AcDbBlockEnd
  0
BLOCK
  5
14D
330
14B
100
AcDbEntity
  8
0
100
AcDbBlockBegin
  2
*Paper_Space7
 70
     0
 10
0.0
 20
0.0
 30
0.0
  3
*Paper_Space7
  1

  0
LINE
  5
160
330
14B
100
AcDbEntity
  8
0
  6
Continuous
 62
     7
370
    25
100
AcDbLine
 10
580.3289496215
 20
181.8188619032
 30
0.0
 11
121.9759197267
 21
239.5659156731
 31
0.0
  0
LINE
  5
161
330
14B
100
AcDbEntity
  8
0
  6
Continuous
 62
     7
370
    25
100
AcDbLine
 10
458.3530298948
 20
74.2462120555
 30
0.0
 11
580.3289496215
 21
181.8188619032
 31
0.0
  0
LINE
  5
162
330
14B
100
AcDbEntity
  8
0
  6
Continuous
 62
     7
370
    25
100
AcDbLine
 10
0.0
 20
131.9932658254
 30
0.0
 11
458.3530298948
 21
74.2462120555
 31
0.0
  0
LINE
  5
163
330
14B
100
AcDbEntity
  8
0
  6
Continuous
 62
     7
370
    25
100
AcDbLine
 10
121.9759197267
 20
239.5659156731
 30
0.0
 11
0.0
 21
131.9932658254
 31
0.0
  0
LINE
  5
164
330
14B
100
AcDbEntity
  8
0
  6
Continuous
 62
     7
370
    25
100
AcDbLine
 10
446.7158107706
 20
82.8393303017
 30
0.0
 11
554.5495948768
 21
177.9397888627
 31
0.0
  0
LINE
  5
165
330
14B
100
AcDbEntity
  8
0
  6
Continuous
 62
     7
370
    25
100
AcDbLine
 10
554.5495948768
 20
177.9397888627
 30
0.0
 11
133.6131388509
 21
230.9727974269
 31
0.0
  0
LINE
  5
166
330
14B
100
AcDbEntity
  8
0
  6
Continuous
 62
     7
370
    25
100
AcDbLine
 10
133.6131388509
 20
230.9727974269
 30
0.0
 11
25.7793547447
 21
135.8723388659
 31
0.0
  0
LINE
  5
167
330
14B
100
AcDbEntity
  8
0
  6
Continuous
 62
     7
370
    25
100
AcDbLine
 10
25.7793547447
 20
135.8723388659
 30
0.0
 11
446.7158107706
 21
82.8393303017
 31
0.0
  0
LINE
  5
168
330
14B
100
AcDbEntity
  8
0
  6
Continuous
 62
     7
370
    25
100
AcDbLine
 10
0.0
 20
131.9932658254
 30
0.0
 11
0.0
 21
0.0
 31
0.0
  0
LINE
  5
169
330
14B
100
AcDbEntity
  8
0
  6
Continuous
 62
     7
370
    25
100
AcDbLine
 10
458.3530298948
 20
74.2462120555
 30
0.0
 11
458.3530298948
 21
-57.7470537699
 31
0.0
  0
LINE
  5
16A
330
14B
100
AcDbEntity
  8
0
  6
Continuous
 62
     7
370
    25
100
AcDbLine
 10
0.0
 20
0.0
 30
0.0
 11
458.3530298948
 21
-57.7470537699
 31
0.0
  0
LINE
  5
16B
330
14B
100
AcDbEntity
  8
0
  6
Continuous
 62
     7
370
    25
100
AcDbLine
 10
580.3289496215
 20
181.8188619032
 30
0.0
 11
580.3289496215
 21
49.8255960778
 31
0.0
  0
LINE
  5
16C
330
14B
100
AcDbEntity
  8
0
  6
Continuous
 62
     7
370
    25
100
AcDbLine
 10
458.3530298948
 20
-57.7470537699
 30
0.0
 11
580.3289496215
 21
49.8255960778
 31
0.0
  0
LINE
  5
16D
330
14B
100
AcDbEntity
  8
0
  6
Continuous
 62
     7
370
    25
100
AcDbLine
 10
145.6669932724
 20
120.767916168
 30
0.0
 11
133.6131388509
 21
127.2638028498
 31
0.0
  0
LINE
  5
16E
330
14B
100
AcDbEntity
  8
0
  6
Continuous
 62
     7
370
    25
100
AcDbLine
 10
133.6131388509
 20
127.2638028498
 30
0.0
 11
128.6749328883
 21
122.9087145497
 31
0.0
  0
LINE
  5
16F
330
14B
100
AcDbEntity
  8
0
  6
Continuous
 62
     7
370
    25
100
AcDbLine
 10
133.6131388509
 20
127.2638028498
 30
0.0
 11
133.6131388509
 21
230.9727974269
 31
0.0
  0
LINE
  5
170
330
14B
100
AcDbEntity
  8
0
  6
Continuous
 62
     7
370
    25
100
AcDbLine
 10
451.6540167332
 20
87.1944186018
 30
0.0
 11
133.6131388509
 21
127.2638028498
 31
0.0
  0
VIEWPORT
  5
181
330
14B
100
AcDbEntity
  8
0
100
AcDbViewport
 10
0.0
 20
0.0
 30
0.0
 40
205.6
 41
156.0
 68
     1
 69
     1
 12
245.0
 22
172.5
 13
0.0
 23
0.0
 14
10.0
 24
10.0
 15
10.0
 25
10.0
 16
0.0
 26
0.0
 36
1.0
 17
0.0
 27
0.0
 37
0.0
 42
50.0
 43
0.0
 44
0.0
 45
379.2256809339
 50
0.0
 51
0.0
 72
   100
 90
   557152
  1

281
     0
 71
     1
 74
     0
110
0.0
120
0.0
130
0.0
111
1.0
121
0.0
131
0.0
112
0.0
122
1.0
132
0.0
 79
     0
146
0.0
170
     0
 61
     5
348
2F
292
     1
282
     1
141
0.0
142
0.0
 63
   256
361
182
  0
ENDBLK
  5
14E
330
14B
100
AcDbEntity
  8
0
100
AcDbBlockEnd
  0
ENDSEC
  0
SECTION
  2
ENTITIES
  0
SPLINE
  5
7C
330
1F
100
AcDbEntity
  8
0
  6
Continuous
 62
     7
370
    25
100
AcDbSpline
210
0.0
220
0.0
230
1.0
 70
     8
 71
     3
 72
    39
 73
    35
 74
     0
 42
0.000000001
 43
0.00000001
 40
0.0
 40
0.0
 40
0.0
 40
0.0
 40
0.0086227081252482
 40
0.0173410020380668
 40
0.0261547032312951
 40
0.0350638726584323
 40
0.0440688061993034
 40
0.0531700295555569
 40
0.0623682925775598
 40
0.0925043407260435
 40
0.1246267810457286
 40
0.1536661999453386
 40
0.1873498792376884
 40
0.2184959844119019
 40
0.2495855041760149
 40
0.2807350816854107
 40
0.3120598450161315
 40
0.3748789822061439
 40
0.4372784585940884
 40
0.5000715229343671
 40
0.5628450455776491
 40
0.6251910747632368
 40
0.687952119712814
 40
0.750451436032731
 40
0.7815406732512804
 40
0.8126724551062895
 40
0.8463448918456786
 40
0.8753843265915673
 40
0.9075064209342287
 40
0.9376706188047256
 40
0.9536930874010067
 40
0.9694207513651978
 40
0.9848562375593772
 40
1.0
 40
1.0
 40
1.0
 40
1.0
 10
271.7870193612856
 20
154.3443535440175
 30
0.0
 10
271.6830384993874
 20
154.197384802791
 30
0.0
 10
271.47392411074
 20
153.9018181195492
 30
0.0
 10
271.1489959267333
 20
153.462892710721
 30
0.0
 10
270.8134721573758
 20
153.0244820436063
 30
0.0
 10
270.4665071220815
 20
152.5873911539653
 30
0.0
 10
270.1081421382439
 20
152.151801086031
 30
0.0
 10
269.7381799502909
 20
151.7180458717257
 30
0.0
 10
269.0682556995795
 20
150.9604952768535
 30
0.0
 10
268.0373789774254
 20
149.880743304968
 30
0.0
 10
266.6382540294699
 20
148.5844040389074
 30
0.0
 10
265.1082305058029
 20
147.3257988198777
 30
0.0
 10
263.5200662268143
 20
146.1750363797193
 30
0.0
 10
261.827335314396
 20
145.1027719878808
 30
0.0
 10
260.1198706552652
 20
144.1591614885212
 30
0.0
 10
258.3558156500154
 20
143.3172579611877
 30
0.0
 10
255.9308729478439
 20
142.3326379401111
 30
0.0
 10
252.7965710936933
 20
141.3763594249666
 30
0.0
 10
248.9239311911402
 20
140.6815747957238
 30
0.0
 10
244.9968284034131
 20
140.4488598753054
 30
0.0
 10
241.0709818248926
 20
140.6822512460049
 30
0.0
 10
237.2008828826698
 20
141.3771719146188
 30
0.0
 10
233.4456497874939
 20
142.5227824377342
 30
0.0
 10
230.4511593881078
 20
143.8434307247854
 30
0.0
 10
228.1710718745611
 20
145.1037041726109
 30
0.0
 10
226.4789061526674
 20
146.1759442578617
 30
0.0
 10
224.8911635150374
 20
147.3263497031562
 30
0.0
 10
223.3613565000956
 20
148.5848391739795
 30
0.0
 10
221.9617856534657
 20
149.8815734192364
 30
0.0
 10
220.8321519669663
 20
151.0648893289573
 30
0.0
 10
219.982115822468
 20
152.0390066472071
 30
0.0
 10
219.3581421099237
 20
152.8015287737588
 30
0.0
 10
218.7672531814631
 20
153.5670354486693
 30
0.0
 10
218.3965593563064
 20
154.0869006710692
 30
0.0
 10
218.212980639464
 20
154.3443535445256
 30
0.0
  0
SPLINE
  5
7F
330
1F
100
AcDbEntity
  8
0
  6
Continuous
 62
     7
370
    25
100
AcDbSpline
210
0.0
220
0.0
230
1.0
 70
     8
 71
     3
 72
    39
 73
    35
 74
     0
 42
0.000000001
 43
0.00000001
 40
0.0
 40
0.0
 40
0.0
 40
0.0
 40
0.0086227081049099
 40
0.0173410020022699
 40
0.0261547031851522
 40
0.035063872607289
 40
0.0440688061487391
 40
0.0531700295113927
 40
0.062368292545866
 40
0.0925043408921359
 40
0.1246267809817792
 40
0.1536662005393681
 40
0.1873498791420891
 40
0.218495984300894
 40
0.2495855040491668
 40
0.2807350815423736
 40
0.3120598448561878
 40
0.3748789820152824
 40
0.4372784583714865
 40
0.5000715226774667
 40
0.5628450453744991
 40
0.6251910747731787
 40
0.6879521199932604
 40
0.7504514360084995
 40
0.7815406732180832
 40
0.8126724551388613
 40
0.8463448918182468
 40
0.8753843266672292
 40
0.9075064201229579
 40
0.9376706186830881
 40
0.9536930869068803
 40
0.9694207507803945
 40
0.9848562371457271
 40
1.0
 40
1.0
 40
1.0
 40
1.0
 10
218.2129806387144
 20
190.6556464559824
 30
0.0
 10
218.316961500364
 20
190.8026151968645
 30
0.0
 10
218.5260758885728
 20
191.0981818795007
 30
0.0
 10
218.8510040719632
 20
191.5371072875857
 30
0.0
 10
219.1865278408767
 20
191.9755179542296
 30
0.0
 10
219.5334928759247
 20
192.4126088436723
 30
0.0
 10
219.8918578597424
 20
192.8481989116761
 30
0.0
 10
220.2618200479349
 20
193.2819541263106
 30
0.0
 10
220.9317443016295
 20
194.0395047245851
 30
0.0
 10
221.9626210240968
 20
195.119256695607
 30
0.0
 10
223.3617459811868
 20
196.4155959709842
 30
0.0
 10
224.8917695015321
 20
197.6742011855656
 30
0.0
 10
226.4799337801172
 20
198.8249636244575
 30
0.0
 10
228.1726646796298
 20
199.8972280085486
 30
0.0
 10
229.8801293376675
 20
200.8408385078238
 30
0.0
 10
231.6441843417776
 20
201.682742035169
 30
0.0
 10
234.0691270424222
 20
202.6673620564429
 30
0.0
 10
237.203428894652
 20
203.6236405721396
 30
0.0
 10
241.0760687949254
 20
204.3184252025393
 30
0.0
 10
245.0031715822748
 20
204.5511401247173
 30
0.0
 10
248.9290181657729
 20
204.3177487554472
 30
0.0
 10
252.7991171192319
 20
203.6228280855038
 30
0.0
 10
256.5543502178268
 20
202.4772175603925
 30
0.0
 10
259.5488406158649
 20
201.1565692727937
 30
0.0
 10
261.8289281250312
 20
199.8962958277316
 30
0.0
 10
263.5210938467542
 20
198.8240557423523
 30
0.0
 10
265.1088364866445
 20
197.6736502962948
 30
0.0
 10
266.6386434873842
 20
196.4151608359231
 30
0.0
 10
268.0382143339955
 20
195.1184265937227
 30
0.0
 10
269.1678480134435
 20
193.935110693562
 30
0.0
 10
270.0178841602442
 20
192.960993371073
 30
0.0
 10
270.6418578699514
 20
192.1984712501022
 30
0.0
 10
271.2327468060302
 20
191.4329645680239
 30
0.0
 10
271.6034406385457
 20
190.9130993358699
 30
0.0
 10
271.787019360536
 20
190.6556464554743
 30
0.0
  0
SPLINE
  5
82
330
1F
100
AcDbEntity
  8
0
  6
Continuous
 62
     7
370
    25
100
AcDbSpline
210
0.0
220
0.0
230
1.0
 70
     8
 71
     3
 72
    28
 73
    24
 74
     0
 42
0.000000001
 43
0.00000001
 40
0.0
 40
0.0
 40
0.0
 40
0.0
 40
0.015604189427053
 40
0.0296704024142646
 40
0.0421527067759506
 40
0.0530111832104008
 40
0.0622117339686462
 40
0.0948340164860401
 40
0.1243676206272459
 40
0.1900208275733164
 40
0.249663840179122
 40
0.3132297119017872
 40
0.3742798619508443
 40
0.4992254223419262
 40
0.6249419775695152
 40
0.6862614966730181
 40
0.7502229485331233
 40
0.8094901120908657
 40
0.8746513134289439
 40
0.9044420331722568
 40
0.937389151436942
 40
0.9636355138690917
 40
1.0
 40
1.0
 40
1.0
 40
1.0
 10
271.7889082902054
 20
190.6530508156025
 30
0.0
 10
271.8987702051473
 20
190.4858910427176
 30
0.0
 10
272.1076658508692
 20
190.1680470590772
 30
0.0
 10
272.3942083457626
 20
189.7098944860318
 30
0.0
 10
272.6426580598069
 20
189.2997598368926
 30
0.0
 10
272.8538065425761
 20
188.9399954193581
 30
0.0
 10
273.1887371906662
 20
188.3535963007775
 30
0.0
 10
273.6225814922397
 20
187.5480253656925
 30
0.0
 10
274.3466667515563
 20
186.0781080471179
 30
0.0
 10
275.1225322870959
 20
184.2489146255835
 30
0.0
 10
275.9041063795233
 20
181.955634239472
 30
0.0
 10
276.5014654241965
 20
179.66799565714
 30
0.0
 10
277.0844664500593
 20
176.5202203810491
 30
0.0
 10
277.3807198358663
 20
172.5201204852896
 30
0.0
 10
277.08962148295
 20
168.5159371804568
 30
0.0
 10
276.5057254357133
 20
165.349581722156
 30
0.0
 10
275.9081998590682
 20
163.0581204008056
 30
0.0
 10
275.1295022677944
 20
160.7702793423849
 30
0.0
 10
274.3581674833064
 20
158.9477411186372
 30
0.0
 10
273.6352275515029
 20
157.4759265936372
 30
0.0
 10
273.0943007810861
 20
156.4713932910086
 30
0.0
 10
272.478467634896
 20
155.412170135312
 30
0.0
 10
272.0422588932457
 20
154.7383213852078
 30
0.0
 10
271.7889081225731
 20
154.3469488980131
 30
0.0
  0
SPLINE
  5
85
330
1F
100
AcDbEntity
  8
0
  6
Continuous
 62
     7
370
    25
100
AcDbSpline
210
0.0
220
0.0
230
1.0
 70
     8
 71
     3
 72
    28
 73
    24
 74
     0
 42
0.000000001
 43
0.00000001
 40
0.0
 40
0.0
 40
0.0
 40
0.0
 40
0.0156042003137088
 40
0.0296704190520585
 40
0.0421527238693677
 40
0.0530111953399199
 40
0.062211735625514
 40
0.0948340214107509
 40
0.1243676239503473
 40
0.1900208340289489
 40
0.2496638468681476
 40
0.3132297208805389
 40
0.3742798719082896
 40
0.49922543579207
 40
0.6249420465764701
 40
0.6862615285341288
 40
0.7502229192748
 40
0.8094900987648785
 40
0.8746513173068042
 40
0.9044420077345965
 40
0.9373892313574389
 40
0.9636355542306894
 40
1.0
 40
1.0
 40
1.0
 40
1.0
 10
218.2110917097959
 20
154.3469491843951
 30
0.0
 10
218.101229719119
 20
154.5141090745034
 30
0.0
 10
217.8923339579941
 20
154.8319532375171
 30
0.0
 10
217.6057913547558
 20
155.2901060012735
 30
0.0
 10
217.3573416402566
 20
155.7002406687374
 30
0.0
 10
217.1461932602717
 20
156.0600049238934
 30
0.0
 10
216.8112626938855
 20
156.6464039094444
 30
0.0
 10
216.3774184489705
 20
157.4519747468468
 30
0.0
 10
215.6533331699302
 20
158.9218921241616
 30
0.0
 10
214.8774676370711
 20
160.7510855715941
 30
0.0
 10
214.0958935376559
 20
163.0443660318166
 30
0.0
 10
213.4985345021525
 20
165.3320046631214
 30
0.0
 10
212.9155334965614
 20
168.4797800312275
 30
0.0
 10
212.619280105832
 20
172.4798807005438
 30
0.0
 10
212.9103786794053
 20
176.4840642871982
 30
0.0
 10
213.494274793517
 20
179.6504191720537
 30
0.0
 10
214.0918001096082
 20
181.9418794655692
 30
0.0
 10
214.8704975511244
 20
184.2297201959117
 30
0.0
 10
215.6418323118559
 20
186.0522584844866
 30
0.0
 10
216.364772767077
 20
187.5240740836242
 30
0.0
 10
216.9056998034421
 20
188.5286077766228
 30
0.0
 10
217.5215331861968
 20
189.5878311705672
 30
0.0
 10
217.9577413817395
 20
190.2616790533511
 30
0.0
 10
218.2110918774265
 20
190.6530511019863
 30
0.0
  0
SPLINE
  5
87
330
1F
100
AcDbEntity
  8
0
  6
Continuous
 62
     7
370
    25
100
AcDbSpline
210
0.0
220
0.0
230
1.0
 70
     8
 71
     3
 72
     9
 73
     5
 74
     0
 42
0.000000001
 43
0.00000001
 40
0.0
 40
0.0
 40
0.0
 40
0.0
 40
0.4378574694959075
 40
1.0
 40
1.0
 40
1.0
 40
1.0
 10
225.9706539653915
 20
159.5816413715091
 30
0.0
 10
224.8385259898892
 20
158.8169906079487
 30
0.0
 10
222.2529175342296
 20
157.0706443267247
 30
0.0
 10
219.665588322817
 20
155.3271013695466
 30
0.0
 10
218.2111405326663
 20
154.346981719556
 30
0.0
  0
SPLINE
  5
88
330
1F
100
AcDbEntity
  8
0
  6
Continuous
 62
     7
370
    25
100
AcDbSpline
210
0.0
220
0.0
230
1.0
 70
     8
 71
     3
 72
    41
 73
    37
 74
     0
 42
0.000000001
 43
0.00000001
 40
0.0
 40
0.0
 40
0.0
 40
0.0
 40
0.0103812663769936
 40
0.0209554636661473
 40
0.0317225923992832
 40
0.0426826530536336
 40
0.053835646055149
 40
0.0651815717815195
 40
0.0767204305649522
 40
0.0884522226947128
 40
0.1003769484194644
 40
0.1124946079494223
 40
0.1248052014583332
 40
0.1562247742079853
 40
0.1876444524782237
 40
0.2193126587425924
 40
0.2499594323155495
 40
0.3167354780575902
 40
0.3751581097065611
 40
0.4385837456461619
 40
0.4999457653641676
 40
0.5000031797251305
 40
0.5613932497133005
 40
0.6248492870532395
 40
0.6832809940968714
 40
0.7500385200370755
 40
0.7779832620410175
 40
0.8123615321587885
 40
0.8437820319762385
 40
0.875202558098591
 40
0.8963406762079057
 40
0.9173433700710992
 40
0.9382106444570509
 40
0.9589425042375581
 40
0.979538954389988
 40
1.0
 40
1.0
 40
1.0
 40
1.0
 10
225.9706493770819
 20
159.581648136467
 30
0.0
 10
226.058484502523
 20
159.4538767291147
 30
0.0
 10
226.2357871275546
 20
159.1959593434018
 30
0.0
 10
226.5142022248459
 20
158.8125583300306
 30
0.0
 10
226.8051715911323
 20
158.4277332098058
 30
0.0
 10
227.1097361243873
 20
158.0424808129029
 30
0.0
 10
227.4279888626231
 20
157.6571825900704
 30
0.0
 10
227.7602695632563
 20
157.2724169823858
 30
0.0
 10
228.1068341887228
 20
156.8887361832016
 30
0.0
 10
228.4679446548781
 20
156.5067273053307
 30
0.0
 10
228.8438404373357
 20
156.1269971731535
 30
0.0
 10
229.2347521448
 20
155.750170690136
 30
0.0
 10
229.8488745369864
 20
155.1857353077528
 30
0.0
 10
230.7073792909819
 20
154.4616473068584
 30
0.0
 10
231.8405863893777
 20
153.618889361934
 30
0.0
 10
233.0138575445344
 20
152.8535703048293
 30
0.0
 10
234.6902533830512
 20
151.899689962212
 30
0.0
 10
236.8200096235196
 20
150.9425159120048
 30
0.0
 10
239.5166608012174
 20
150.1074635641073
 30
0.0
 10
242.2150170782458
 20
149.6119743693887
 30
0.0
 10
244.0817019633486
 20
149.5000513136198
 30
0.0
 10
245.9161441839767
 20
149.4999487107077
 30
0.0
 10
247.7837161395889
 20
149.6117659517137
 30
0.0
 10
250.4830921773736
 20
150.1073678091155
 30
0.0
 10
253.1800182405901
 20
150.9425338755424
 30
0.0
 10
255.2727722873831
 20
151.8830892631581
 30
0.0
 10
256.9513668099195
 20
152.8323353118273
 30
0.0
 10
258.1269416515245
 20
153.5947362005818
 30
0.0
 10
259.2926597186608
 20
154.4616775287291
 30
0.0
 10
260.2519949284271
 20
155.2708163020199
 30
0.0
 10
261.0546349789877
 20
156.0213398270595
 30
0.0
 10
261.7151544899876
 20
156.6919158554722
 30
0.0
 10
262.3438629036502
 20
157.384262649139
 30
0.0
 10
262.9395230138662
 20
158.0972586319299
 30
0.0
 10
263.5045128947991
 20
158.8273739263111
 30
0.0
 10
263.8547897758305
 20
159.3307767947035
 30
0.0
 10
264.0293506229018
 20
159.5816481364431
 30
0.0
  0
SPLINE
  5
89
330
1F
100
AcDbEntity
  8
0
  6
Continuous
 62
     7
370
    25
100
AcDbSpline
210
0.0
220
0.0
230
1.0
 70
     8
 71
     3
 72
     9
 73
     5
 74
     0
 42
0.000000001
 43
0.00000001
 40
0.0
 40
0.0
 40
0.0
 40
0.0
 40
0.5621401845883449
 40
0.9999999999999999
 40
0.9999999999999999
 40
0.9999999999999999
 40
0.9999999999999999
 10
271.7888592780675
 20
154.3469814474603
 30
0.0
 10
270.3344176343177
 20
155.3270971180594
 30
0.0
 10
267.7470885594269
 20
157.0706402723651
 30
0.0
 10
265.1614800563195
 20
158.8169864828458
 30
0.0
 10
264.0293459944221
 20
159.5816413122118
 30
0.0
  0
SPLINE
  5
8A
330
1F
100
AcDbEntity
  8
0
  6
Continuous
 62
     7
370
    25
100
AcDbSpline
210
0.0
220
0.0
230
1.0
 70
     8
 71
     3
 72
     9
 73
     5
 74
     0
 42
0.000000001
 43
0.00000001
 40
0.0
 40
0.0
 40
0.0
 40
0.0
 40
0.5133147359060459
 40
0.9999999999999999
 40
0.9999999999999999
 40
0.9999999999999999
 40
0.9999999999999999
 10
271.7889083480883
 20
190.6530507225087
 30
0.0
 10
270.4607086244765
 20
189.7581753810011
 30
0.0
 10
267.8732128237426
 20
188.0148485701545
 30
0.0
 10
265.2876845745336
 20
186.2683525392504
 30
0.0
 10
264.029346075745
 20
185.4183586572107
 30
0.0
  0
SPLINE
  5
8B
330
1F
100
AcDbEntity
  8
0
  6
Continuous
 62
     7
370
    25
100
AcDbSpline
210
0.0
220
0.0
230
1.0
 70
     8
 71
     3
 72
    38
 73
    34
 74
     0
 42
0.000000001
 43
0.00000001
 40
0.0
 40
0.0
 40
0.0
 40
0.0
 40
0.0103860735703739
 40
0.0209651673449389
 40
0.031737281855764
 40
0.0427024175803039
 40
0.0538605749447052
 40
0.0652117543268337
 40
0.0767559560590499
 40
0.0884931804307542
 40
0.1004234276907246
 40
0.1125466980492733
 40
0.1248629916802296
 40
0.1562971130863706
 40
0.1877313400619526
 40
0.2194142100926275
 40
0.2500751745300691
 40
0.31688214038831
 40
0.375331824360886
 40
0.4999459753333194
 40
0.6246327309964151
 40
0.683099000961285
 40
0.7498942720319505
 40
0.7778557837717304
 40
0.8122531601018114
 40
0.843691780899215
 40
0.8751304281466213
 40
0.8962811042572797
 40
0.9172961415811574
 40
0.9381755448896835
 40
0.9589193190573913
 40
0.979527469064571
 40
1.0
 40
1.0
 40
1.0
 40
1.0
 10
264.0293506361519
 20
185.418351844039
 30
0.0
 10
263.9415155089432
 20
185.5461232542091
 30
0.0
 10
263.7642128807444
 20
185.8040406450273
 30
0.0
 10
263.4857977788823
 20
186.1874416650097
 30
0.0
 10
263.1948284089635
 20
186.5722667901315
 30
0.0
 10
262.8902638730812
 20
186.9575191902634
 30
0.0
 10
262.5720111333418
 20
187.3428174147302
 30
0.0
 10
262.239730432364
 20
187.7275830225294
 30
0.0
 10
261.893165808046
 20
188.1112638203958
 30
0.0
 10
261.5320553437211
 20
188.4932726955909
 30
0.0
 10
261.1561595673452
 20
188.8730028238943
 30
0.0
 10
260.7652478570277
 20
189.2498293017091
 30
0.0
 10
260.1511255170432
 20
189.8142646820638
 30
0.0
 10
259.2926202853902
 20
190.538352674064
 30
0.0
 10
258.1594152175284
 20
191.3811106571787
 30
0.0
 10
256.9861365619292
 20
192.1464295829058
 30
0.0
 10
255.3097784182872
 20
193.1003105985811
 30
0.0
 10
253.1797243285921
 20
194.0574793444857
 30
0.0
 10
249.6106217366534
 20
195.1631887090473
 30
0.0
 10
245.0015202535822
 20
195.7290577210161
 30
0.0
 10
240.391998425408
 20
195.1638508543912
 30
0.0
 10
236.8217378571781
 20
194.0580400543274
 30
0.0
 10
234.7283803493719
 20
193.1175083305519
 30
0.0
 10
233.0495911061951
 20
192.1682466154283
 30
0.0
 10
231.8738413259384
 20
191.4058125323201
 30
0.0
 10
230.707968043098
 20
190.5388236871144
 30
0.0
 10
229.7484935786054
 20
189.7296194630304
 30
0.0
 10
228.9457368986254
 20
188.979024765815
 30
0.0
 10
228.285121616034
 20
188.3083783362336
 30
0.0
 10
227.6563284643622
 20
187.6159591655742
 30
0.0
 10
227.0605944944477
 20
186.9028897304505
 30
0.0
 10
226.4955407030178
 20
186.1727012730849
 30
0.0
 10
226.1452276490616
 20
185.6692476389344
 30
0.0
 10
225.9706493638521
 20
185.4183518440448
 30
0.0
  0
SPLINE
  5
8C
330
1F
100
AcDbEntity
  8
0
  6
Continuous
 62
     7
370
    25
100
AcDbSpline
210
0.0
220
0.0
230
1.0
 70
     8
 71
     3
 72
     9
 73
     5
 74
     0
 42
0.000000001
 43
0.00000001
 40
0.0
 40
0.0
 40
0.0
 40
0.0
 40
0.4865950817845128
 40
1.0
 40
1.0
 40
1.0
 40
1.0
 10
225.9706539641913
 20
185.4183587166686
 30
0.0
 10
224.7125486984781
 20
186.2681952046278
 30
0.0
 10
222.1270205811382
 20
188.0146914594659
 30
0.0
 10
219.5395248532459
 20
189.7580183886905
 30
0.0
 10
218.2110918206843
 20
190.6530510082119
 30
0.0
  0
SPLINE
  5
8D
330
1F
100
AcDbEntity
  8
0
  6
Continuous
 62
     7
370
    25
100
AcDbSpline
210
0.0
220
0.0
230
1.0
 70
     8
 71
     3
 72
    35
 73
    31
 74
     0
 42
0.000000001
 43
0.00000001
 40
0.0
 40
0.0
 40
0.0
 40
0.0
 40
0.0177732018777244
 40
0.0352595885033168
 40
0.0524591599734115
 40
0.0693719164239317
 40
0.0859978580322304
 40
0.1023369850194024
 40
0.1183892976528157
 40
0.1341547962488711
 40
0.14963348117601
 40
0.1648253528580166
 40
0.1797304117776322
 40
0.1943486584805178
 40
0.2086800935796317
 40
0.2227247177600299
 40
0.2364825317841913
 40
0.2499535364978862
 40
0.3782509321341963
 40
0.5007756930771344
 40
0.6226087893210213
 40
0.7501817400193722
 40
0.7773984636577191
 40
0.8057610731500849
 40
0.8352695643572797
 40
0.8659239315858224
 40
0.8977241677349398
 40
0.9306702644180035
 40
0.9647622120635745
 40
1.0
 40
1.0
 40
1.0
 40
1.0
 10
264.0293506251299
 20
159.5816481397252
 30
0.0
 10
264.1197732736595
 20
159.7166120446857
 30
0.0
 10
264.299159374176
 20
159.98436187302
 30
0.0
 10
264.5553410374318
 20
160.3897322722745
 30
0.0
 10
264.7996184719788
 20
160.7931879162407
 30
0.0
 10
265.0315504356424
 20
161.1948195794671
 30
0.0
 10
265.2516511915943
 20
161.5940925178258
 30
0.0
 10
265.4601924253623
 20
161.9906589663188
 30
0.0
 10
265.6575151647604
 20
162.3841454149107
 30
0.0
 10
265.8439472299431
 20
162.7742077088702
 30
0.0
 10
266.0198237509359
 20
163.1605161857799
 30
0.0
 10
266.185480823387
 20
163.5427590146608
 30
0.0
 10
266.3412562358471
 20
163.9206408907984
 30
0.0
 10
266.4874883408288
 20
164.2938824576747
 30
0.0
 10
266.624515665478
 20
164.6622212036925
 30
0.0
 10
266.752675611327
 20
165.0254058667588
 30
0.0
 10
266.872306195804
 20
165.3832145777397
 30
0.0
 10
267.3011388234431
 20
166.7385215722426
 30
0.0
 10
267.8352595459089
 20
169.1058457519218
 30
0.0
 10
268.0815398610907
 20
172.5149158715423
 30
0.0
 10
267.8308746790279
 20
175.9169379584152
 30
0.0
 10
267.2704622688046
 20
178.3940533605912
 30
0.0
 10
266.752101986388
 20
179.9859553639119
 30
0.0
 10
266.4868946522188
 20
180.7172548699403
 30
0.0
 10
266.1849049078685
 20
181.4681106381902
 30
0.0
 10
265.843377625825
 20
182.2363660510987
 30
0.0
 10
265.4598070532957
 20
183.0197080184018
 30
0.0
 10
265.030807654192
 20
183.8149474645661
 30
0.0
 10
264.5566399345396
 20
184.6210399418941
 30
0.0
 10
264.2070397288712
 20
185.1496689237549
 30
0.0
 10
264.0293506347695
 20
185.4183518460752
 30
0.0
  0
SPLINE
  5
8E
330
1F
100
AcDbEntity
  8
0
  6
Continuous
 62
     7
370
    25
100
AcDbSpline
210
0.0
220
0.0
230
1.0
 70
     8
 71
     3
 72
    35
 73
    31
 74
     0
 42
0.000000001
 43
0.00000001
 40
0.0
 40
0.0
 40
0.0
 40
0.0
 40
0.0177732032266457
 40
0.0352595912543681
 40
0.0524591641798011
 40
0.0693719221388714
 40
0.0859978653089287
 40
0.1023369939110699
 40
0.1183893082126626
 40
0.1341548085301082
 40
0.1496334952318501
 40
0.1648253687416719
 40
0.1797304295423132
 40
0.1943486781794384
 40
0.2086801152660044
 40
0.2227247414870689
 40
0.2364825576051084
 40
0.2499535644658977
 40
0.3782509342865921
 40
0.5007756785218539
 40
0.6226087783953648
 40
0.7501817327691668
 40
0.7773984573673258
 40
0.8057610678042054
 40
0.8352695599406197
 40
0.8659239280830834
 40
0.8977241651308263
 40
0.9306702626972216
 40
0.9647622112108296
 40
1.0
 40
1.0
 40
1.0
 40
1.0
 10
225.9706493652487
 20
185.4183518461022
 30
0.0
 10
225.8802267100103
 20
185.2833879307747
 30
0.0
 10
225.7008405958033
 20
185.0156380813046
 30
0.0
 10
225.4446589133072
 20
184.6102676486571
 30
0.0
 10
225.20038146003
 20
184.2068119693185
 30
0.0
 10
224.9684494783328
 20
183.805180268675
 30
0.0
 10
224.7483487050735
 20
183.4059072908957
 30
0.0
 10
224.539807454792
 20
183.0093408009932
 30
0.0
 10
224.3424846997262
 20
182.6158543090276
 30
0.0
 10
224.1560526197739
 20
182.2257919697537
 30
0.0
 10
223.9801760849568
 20
181.8394834456153
 30
0.0
 10
223.8145189996695
 20
181.457240567618
 30
0.0
 10
223.6587435754018
 20
181.0793586405043
 30
0.0
 10
223.5125114596763
 20
180.7061170208211
 30
0.0
 10
223.375484125379
 20
180.3377782201947
 30
0.0
 10
223.247324171006
 20
179.9745935007479
 30
0.0
 10
223.127693579153
 20
179.6167847316439
 30
0.0
 10
222.6988610554608
 20
178.2614779109007
 30
0.0
 10
222.1647404598828
 20
175.8941540871319
 30
0.0
 10
221.9184601475109
 20
172.4850843279106
 30
0.0
 10
222.1691252738891
 20
169.083062322114
 30
0.0
 10
222.729537675972
 20
166.605946839432
 30
0.0
 10
223.2478979625291
 20
165.0140447836326
 30
0.0
 10
223.5131053010143
 20
164.2827452515191
 30
0.0
 10
223.815095051081
 20
163.5318894580014
 30
0.0
 10
224.1566223402784
 20
162.7636340207388
 30
0.0
 10
224.5401929214083
 20
161.9802920300929
 30
0.0
 10
224.9691923306079
 20
161.1850525617361
 30
0.0
 10
225.4433600617032
 20
160.3789600633826
 30
0.0
 10
225.7929602763238
 20
159.8503310685027
 30
0.0
 10
225.9706493748654
 20
159.581648139732
 30
0.0
  0
LINE
  5
8F
330
1F
100
AcDbEntity
  8
0
  6
Continuous
 62
     7
370
    25
100
AcDbLine
 10
490.0
 20
345.0
 30
0.0
 11
0.0
 21
345.0
 31
0.0
  0
LINE
  5
90
330
1F
100
AcDbEntity
  8
0
  6
Continuous
 62
     7
370
    25
100
AcDbLine
 10
490.0
 20
0.0
 30
0.0
 11
490.0
 21
345.0
 31
0.0
  0
LINE
  5
91
330
1F
100
AcDbEntity
  8
0
  6
Continuous
 62
     7
370
    25
100
AcDbLine
 10
0.0
 20
345.0
 30
0.0
 11
0.0
 21
0.0
 31
0.0
  0
LINE
  5
92
330
1F
100
AcDbEntity
  8
0
  6
Continuous
 62
     7
370
    25
100
AcDbLine
 10
0.0
 20
0.0
 30
0.0
 11
490.0
 21
0.0
 31
0.0
  0
LINE
  5
93
330
1F
100
AcDbEntity
  8
0
  6
Continuous
 62
     7
370
    25
100
AcDbLine
 10
470.0
 20
20.0
 30
0.0
 11
470.0
 21
325.0
 31
0.0
  0
LINE
  5
94
330
1F
100
AcDbEntity
  8
0
  6
Continuous
 62
     7
370
    25
100
AcDbLine
 10
20.0
 20
325.0
 30
0.0
 11
20.0
 21
20.0
 31
0.0
  0
LINE
  5
95
330
1F
100
AcDbEntity
  8
0
  6
Continuous
 62
     7
370
    25
100
AcDbLine
 10
20.0
 20
20.0
 30
0.0
 11
470.0
 21
20.0
 31
0.0
  0
LINE
  5
96
330
1F
100
AcDbEntity
  8
0
  6
Continuous
 62
     7
370
    25
100
AcDbLine
 10
470.0
 20
325.0
 30
0.0
 11
20.0
 21
325.0
 31
0.0
  0
LINE
  5
97
330
1F
100
AcDbEntity
  8
0
  6
Continuous
 62
     7
370
    25
100
AcDbLine
 10
20.0
 20
20.0
 30
0.0
 11
218.2129806381
 21
154.3443535436
 31
0.0
  0
LINE
  5
98
330
1F
100
AcDbEntity
  8
0
  6
Continuous
 62
     7
370
    25
100
AcDbLine
 10
470.0
 20
20.0
 30
0.0
 11
271.7870193626
 21
154.3443535431
 31
0.0
  0
LINE
  5
99
330
1F
100
AcDbEntity
  8
0
  6
Continuous
 62
     7
370
    25
100
AcDbLine
 10
470.0
 20
325.0
 30
0.0
 11
271.7870193619
 21
190.6556464564
 31
0.0
  0
LINE
  5
9A
330
1F
100
AcDbEntity
  8
0
  6
Continuous
 62
     7
370
    25
100
AcDbLine
 10
218.2129806374
 20
190.6556464569
 30
0.0
 11
20.0
 21
325.0
 31
0.0
  0
LINE
  5
9B
330
1F
100
AcDbEntity
  8
0
  6
Continuous
 62
     7
370
    25
100
AcDbLine
 10
271.7889080282
 20
154.3469489667
 30
0.0
 11
271.7870193484
 21
154.3443535605
 31
0.0
  0
LINE
  5
9C
330
1F
100
AcDbEntity
  8
0
  6
Continuous
 62
     7
370
    25
100
AcDbLine
 10
271.7870193475
 20
190.6556464388
 30
0.0
 11
271.7889082216
 21
190.6530507656
 31
0.0
  0
LINE
  5
9D
330
1F
100
AcDbEntity
  8
0
  6
Continuous
 62
     7
370
    25
100
AcDbLine
 10
218.2110919718
 20
190.6530510333
 30
0.0
 11
218.2129806516
 21
190.6556464395
 31
0.0
  0
LINE
  5
9E
330
1F
100
AcDbEntity
  8
0
  6
Continuous
 62
     7
370
    25
100
AcDbLine
 10
218.2129806525
 20
154.3443535612
 30
0.0
 11
218.2110917784
 21
154.3469492344
 31
0.0
  0
LINE
  5
A3
330
1B
100
AcDbEntity
 67
     1
  8
0
  6
Continuous
 62
     7
370
    25
100
AcDbLine
 10
0.0
 20
140.0
 30
0.0
 11
490.0
 21
140.0
 31
0.0
  0
LINE
  5
A4
330
1B
100
AcDbEntity
 67
     1
  8
0
  6
Continuous
 62
     7
370
    25
100
AcDbLine
 10
490.0
 20
140.0
 30
0.0
 11
490.0
 21
0.0
 31
0.0
  0
LINE
  5
A5
330
1B
100
AcDbEntity
 67
     1
  8
0
  6
Continuous
 62
     7
370
    25
100
AcDbLine
 10
0.0
 20
0.0
 30
0.0
 11
490.0
 21
0.0
 31
0.0
  0
LINE
  5
A6
330
1B
100
AcDbEntity
 67
     1
  8
0
  6
Continuous
 62
     7
370
    25
100
AcDbLine
 10
0.0
 20
140.0
 30
0.0
 11
0.0
 21
0.0
 31
0.0
  0
VIEWPORT
  5
171
330
1B
100
AcDbEntity
 67
     1
  8
0
100
AcDbViewport
 10
0.0
 20
0.0
 30
0.0
 40
205.6
 41
156.0
 68
     1
 69
     1
 12
245.0
 22
172.5
 13
0.0
 23
0.0
 14
10.0
 24
10.0
 15
10.0
 25
10.0
 16
0.0
 26
0.0
 36
1.0
 17
0.0
 27
0.0
 37
0.0
 42
50.0
 43
0.0
 44
0.0
 45
379.2256809339
 50
0.0
 51
0.0
 72
   100
 90
   557152
  1

281
     0
 71
     1
 74
     0
110
0.0
120
0.0
130
0.0
111
1.0
121
0.0
131
0.0
112
0.0
122
1.0
132
0.0
 79
     0
146
0.0
170
     0
 61
     5
348
2F
292
     1
282
     1
141
0.0
142
0.0
 63
   256
361
172
  0
ENDSEC
  0
SECTION
  2
OBJECTS
  0
DICTIONARY
  5
C
330
0
100
AcDbDictionary
281
     1
  3
ACAD_DETAILVIEWSTYLE
350
18A
  3
ACAD_GROUP
350
D
  3
ACAD_LAYOUT
350
1A
  3
ACAD_MATERIAL
350
43
  3
ACAD_MLEADERSTYLE
350
6B
  3
ACAD_MLINESTYLE
350
17
  3
ACAD_PLOTSETTINGS
350
19
  3
ACAD_PLOTSTYLENAME
350
E
  3
ACAD_SCALELIST
350
47
  3
ACAD_SECTIONVIEWSTYLE
350
18B
  3
ACAD_TABLESTYLE
350
69
  3
ACAD_VISUALSTYLE
350
2A
  3
ACDB_RECOMPOSE_DATA
350
187
  3
AcDbVariableDictionary
350
183
  0
SUN
  5
6D
330
29
100
AcDbSun
 90
        1
290
     0
 63
     7
421
 16777215
 40
1.0
291
     1
 91
  2455826
 92
 54000000
292
     0
 70
     2
 71
   256
280
     1
  0
SUN
  5
174
330
173
100
AcDbSun
 90
        1
290
     0
 63
     7
421
 16777215
 40
1.0
291
     1
 91
  2455826
 92
 54000000
292
     0
 70
     2
 71
   256
280
     1
  0
SUN
  5
176
330
175
100
AcDbSun
 90
        1
290
     0
 63
     7
421
 16777215
 40
1.0
291
     1
 91
  2455826
 92
 54000000
292
     0
 70
     2
 71
   256
280
     1
  0
SUN
  5
178
330
177
100
AcDbSun
 90
        1
290
     0
 63
     7
421
 16777215
 40
1.0
291
     1
 91
  2455826
 92
 54000000
292
     0
 70
     2
 71
   256
280
     1
  0
SUN
  5
17A
330
179
100
AcDbSun
 90
        1
290
     0
 63
     7
421
 16777215
 40
1.0
291
     1
 91
  2455826
 92
 54000000
292
     0
 70
     2
 71
   256
280
     1
  0
SUN
  5
17C
330
17B
100
AcDbSun
 90
        1
290
     0
 63
     7
421
 16777215
 40
1.0
291
     1
 91
  2455826
 92
 54000000
292
     0
 70
     2
 71
   256
280
     1
  0
SUN
  5
17E
330
17D
100
AcDbSun
 90
        1
290
     0
 63
     7
421
 16777215
 40
1.0
291
     1
 91
  2455826
 92
 54000000
292
     0
 70
     2
 71
   256
280
     1
  0
SUN
  5
180
330
17F
100
AcDbSun
 90
        1
290
     0
 63
     7
421
 16777215
 40
1.0
291
     1
 91
  2455826
 92
 54000000
292
     0
 70
     2
 71
   256
280
     1
  0
SUN
  5
182
330
181
100
AcDbSun
 90
        1
290
     0
 63
     7
421
 16777215
 40
1.0
291
     1
 91
  2455826
 92
 54000000
292
     0
 70
     2
 71
   256
280
     1
  0
SUN
  5
172
330
171
100
AcDbSun
 90
        1
290
     0
 63
     7
421
 16777215
 40
1.0
291
     1
 91
  2455826
 92
 54000000
292
     0
 70
     2
 71
   256
280
     1
  0
DICTIONARY
  5
18A
102
{ACAD_REACTORS
330
C
102
}
330
C
100
AcDbDictionary
281
     1
  0
DICTIONARY
  5
D
102
{ACAD_REACTORS
330
C
102
}
330
C
100
AcDbDictionary
281
     1
  0
DICTIONARY
  5
1A
102
{ACAD_REACTORS
330
C
102
}
330
C
100
AcDbDictionary
281
     1
  3
_Dimetrisch
350
14C
  3
_Isometrisch
350
E1
  3
_Links
350
C8
  3
_Normal auf
350
B0
  3
_Rechts
350
26
  3
_Rückseite
350
BC
  3
_Trimetrisch
350
123
  3
_Unten
350
D4
  3
_Vorderseite
350
1E
  3
Model
350
22
  0
DICTIONARY
  5
43
102
{ACAD_REACTORS
330
C
102
}
330
C
100
AcDbDictionary
281
     1
  3
ByBlock
350
45
  3
ByLayer
350
44
  3
Global
350
46
  0
DICTIONARY
  5
6B
102
{ACAD_REACTORS
330
C
102
}
330
C
100
AcDbDictionary
281
     1
  3
Standard
350
6C
  0
DICTIONARY
  5
17
102
{ACAD_REACTORS
330
C
102
}
330
C
100
AcDbDictionary
281
     1
  3
Standard
350
18
  0
DICTIONARY
  5
19
102
{ACAD_REACTORS
330
C
102
}
330
C
100
AcDbDictionary
281
     1
  0
ACDBDICTIONARYWDFLT
  5
E
102
{ACAD_REACTORS
330
C
102
}
330
C
100
AcDbDictionary
281
     1
  3
Normal
350
F
100
AcDbDictionaryWithDefault
340
F
  0
DICTIONARY
  5
47
102
{ACAD_REACTORS
330
C
102
}
330
C
100
AcDbDictionary
281
     1
  3
A0
350
48
  3
A1
350
49
  3
A2
350
4A
  3
A3
350
4B
  3
A4
350
4C
  3
A5
350
4D
  3
A6
350
4E
  3
A7
350
4F
  3
A8
350
50
  3
A9
350
51
  3
B0
350
52
  3
B1
350
53
  3
B2
350
54
  3
B3
350
55
  3
B4
350
56
  3
B5
350
57
  3
B6
350
58
  3
B7
350
59
  3
B8
350
5A
  3
B9
350
5B
  3
C0
350
5C
  3
C1
350
5D
  3
C2
350
5E
  3
C3
350
5F
  3
C4
350
60
  3
C5
350
61
  3
C6
350
62
  3
C7
350
63
  3
C8
350
64
  3
C9
350
65
  3
D0
350
66
  3
D1
350
67
  3
D2
350
68
  0
DICTIONARY
  5
18B
102
{ACAD_REACTORS
330
C
102
}
330
C
100
AcDbDictionary
281
     1
  0
DICTIONARY
  5
69
102
{ACAD_REACTORS
330
C
102
}
330
C
100
AcDbDictionary
281
     1
  3
Standard
350
6A
  0
DICTIONARY
  5
2A
102
{ACAD_REACTORS
330
C
102
}
330
C
100
AcDbDictionary
281
     1
  3
2dWireframe
350
2F
  3
Basic
350
32
  3
Brighten
350
36
  3
ColorChange
350
3A
  3
Conceptual
350
34
  3
Dim
350
35
  3
EdgeColorOff
350
3D
  3
Facepattern
350
39
  3
Flat
350
2B
  3
FlatWithEdges
350
2C
  3
Gouraud
350
2D
  3
GouraudWithEdges
350
2E
  3
Hidden
350
31
  3
JitterOff
350
3B
  3
Linepattern
350
38
  3
OverhangOff
350
3C
  3
Realistic
350
33
  3
Shaded
350
42
  3
Shaded with edges
350
41
  3
Shades of Gray
350
3E
  3
Sketchy
350
3F
  3
Thicken
350
37
  3
Wireframe
350
30
  3
X-Ray
350
40
  0
XRECORD
  5
187
102
{ACAD_REACTORS
330
C
102
}
330
C
100
AcDbXrecord
280
     1
 90
        1
330
6A
  0
DICTIONARY
  5
183
102
{ACAD_REACTORS
330
C
102
}
330
C
100
AcDbDictionary
281
     1
  3
CANNOSCALE
350
184
  3
CMLEADERSTYLE
350
189
  3
CTABLESTYLE
350
188
  0
LAYOUT
  5
14C
102
{ACAD_REACTORS
330
1A
102
}
330
1A
100
AcDbPlotSettings
  1

  2
none_device
  4
ISO_A4_(210.00_x_297.00_MM)
  6

 40
7.5
 41
20.0
 42
7.5
 43
20.0
 44
210.0
 45
297.0
 46
0.0
 47
0.0
 48
0.0
 49
0.0
140
0.0
141
0.0
142
1.0
143
1.906614786
 70
   688
 72
     1
 73
     1
 74
     1
  7

 75
     0
 76
     0
 77
     2
 78
   300
147
0.5244897959
148
0.0
149
0.0
100
AcDbLayout
  1
_Dimetrisch
 70
     1
 71
     9
 10
0.0
 20
0.0
 11
0.0
 21
0.0
 12
0.0
 22
0.0
 32
0.0
 14
0.0
 24
0.0
 34
0.0
 15
0.0
 25
0.0
 35
0.0
146
0.0
 13
0.0
 23
0.0
 33
0.0
 16
1.0
 26
0.0
 36
0.0
 17
0.0
 27
1.0
 37
0.0
 76
     0
330
14B
331
181
  0
LAYOUT
  5
E1
102
{ACAD_REACTORS
330
1A
102
}
330
1A
100
AcDbPlotSettings
  1

  2
none_device
  4
ISO_A4_(210.00_x_297.00_MM)
  6

 40
7.5
 41
20.0
 42
7.5
 43
20.0
 44
210.0
 45
297.0
 46
0.0
 47
0.0
 48
0.0
 49
0.0
140
0.0
141
0.0
142
1.0
143
1.906614786
 70
   688
 72
     1
 73
     1
 74
     1
  7

 75
     0
 76
     0
 77
     2
 78
   300
147
0.5244897959
148
0.0
149
0.0
100
AcDbLayout
  1
_Isometrisch
 70
     1
 71
     7
 10
0.0
 20
0.0
 11
0.0
 21
0.0
 12
0.0
 22
0.0
 32
0.0
 14
0.0
 24
0.0
 34
0.0
 15
0.0
 25
0.0
 35
0.0
146
0.0
 13
0.0
 23
0.0
 33
0.0
 16
1.0
 26
0.0
 36
0.0
 17
0.0
 27
1.0
 37
0.0
 76
     0
330
E0
331
17D
  0
LAYOUT
  5
C8
102
{ACAD_REACTORS
330
1A
102
}
330
1A
100
AcDbPlotSettings
  1

  2
none_device
  4
ISO_A4_(210.00_x_297.00_MM)
  6

 40
7.5
 41
20.0
 42
7.5
 43
20.0
 44
210.0
 45
297.0
 46
0.0
 47
0.0
 48
0.0
 49
0.0
140
0.0
141
0.0
142
1.0
143
1.906614786
 70
   688
 72
     1
 73
     1
 74
     1
  7

 75
     0
 76
     0
 77
     2
 78
   300
147
0.5244897959
148
0.0
149
0.0
100
AcDbLayout
  1
_Links
 70
     1
 71
     5
 10
0.0
 20
0.0
 11
0.0
 21
0.0
 12
0.0
 22
0.0
 32
0.0
 14
0.0
 24
0.0
 34
0.0
 15
0.0
 25
0.0
 35
0.0
146
0.0
 13
0.0
 23
0.0
 33
0.0
 16
1.0
 26
0.0
 36
0.0
 17
0.0
 27
1.0
 37
0.0
 76
     0
330
C7
331
179
  0
LAYOUT
  5
B0
102
{ACAD_REACTORS
330
1A
102
}
330
1A
100
AcDbPlotSettings
  1

  2
none_device
  4
ISO_A4_(210.00_x_297.00_MM)
  6

 40
7.5
 41
20.0
 42
7.5
 43
20.0
 44
210.0
 45
297.0
 46
0.0
 47
0.0
 48
0.0
 49
0.0
140
0.0
141
0.0
142
1.0
143
1.906614786
 70
   688
 72
     1
 73
     1
 74
     1
  7

 75
     0
 76
     0
 77
     2
 78
   300
147
0.5244897959
148
0.0
149
0.0
100
AcDbLayout
  1
_Normal auf
 70
     1
 71
     3
 10
0.0
 20
0.0
 11
0.0
 21
0.0
 12
0.0
 22
0.0
 32
0.0
 14
0.0
 24
0.0
 34
0.0
 15
0.0
 25
0.0
 35
0.0
146
0.0
 13
0.0
 23
0.0
 33
0.0
 16
1.0
 26
0.0
 36
0.0
 17
0.0
 27
1.0
 37
0.0
 76
     0
330
AF
331
175
  0
LAYOUT
  5
26
102
{ACAD_REACTORS
330
1A
102
}
330
1A
100
AcDbPlotSettings
  1

  2
none_device
  4
ISO_A4_(210.00_x_297.00_MM)
  6

 40
7.5
 41
20.0
 42
7.5
 43
20.0
 44
210.0
 45
297.0
 46
0.0
 47
0.0
 48
0.0
 49
0.0
140
0.0
141
0.0
142
1.0
143
1.906614786
 70
   688
 72
     1
 73
     1
 74
     1
  7

 75
     0
 76
     0
 77
     2
 78
   300
147
0.5244897959
148
0.0
149
0.0
100
AcDbLayout
  1
_Rechts
 70
     1
 71
     2
 10
0.0
 20
0.0
 11
0.0
 21
0.0
 12
0.0
 22
0.0
 32
0.0
 14
0.0
 24
0.0
 34
0.0
 15
0.0
 25
0.0
 35
0.0
146
0.0
 13
0.0
 23
0.0
 33
0.0
 16
1.0
 26
0.0
 36
0.0
 17
0.0
 27
1.0
 37
0.0
 76
     0
330
23
331
173
  0
LAYOUT
  5
BC
102
{ACAD_REACTORS
330
1A
102
}
330
1A
100
AcDbPlotSettings
  1

  2
none_device
  4
ISO_A4_(210.00_x_297.00_MM)
  6

 40
7.5
 41
20.0
 42
7.5
 43
20.0
 44
210.0
 45
297.0
 46
0.0
 47
0.0
 48
0.0
 49
0.0
140
0.0
141
0.0
142
1.0
143
1.906614786
 70
   688
 72
     1
 73
     1
 74
     1
  7

 75
     0
 76
     0
 77
     2
 78
   300
147
0.5244897959
148
0.0
149
0.0
100
AcDbLayout
  1
_Rückseite
 70
     1
 71
     4
 10
0.0
 20
0.0
 11
0.0
 21
0.0
 12
0.0
 22
0.0
 32
0.0
 14
0.0
 24
0.0
 34
0.0
 15
0.0
 25
0.0
 35
0.0
146
0.0
 13
0.0
 23
0.0
 33
0.0
 16
1.0
 26
0.0
 36
0.0
 17
0.0
 27
1.0
 37
0.0
 76
     0
330
BB
331
177
  0
LAYOUT
  5
123
102
{ACAD_REACTORS
330
1A
102
}
330
1A
100
AcDbPlotSettings
  1

  2
none_device
  4
ISO_A4_(210.00_x_297.00_MM)
  6

 40
7.5
 41
20.0
 42
7.5
 43
20.0
 44
210.0
 45
297.0
 46
0.0
 47
0.0
 48
0.0
 49
0.0
140
0.0
141
0.0
142
1.0
143
1.906614786
 70
   688
 72
     1
 73
     1
 74
     1
  7

 75
     0
 76
     0
 77
     2
 78
   300
147
0.5244897959
148
0.0
149
0.0
100
AcDbLayout
  1
_Trimetrisch
 70
     1
 71
     8
 10
0.0
 20
0.0
 11
0.0
 21
0.0
 12
0.0
 22
0.0
 32
0.0
 14
0.0
 24
0.0
 34
0.0
 15
0.0
 25
0.0
 35
0.0
146
0.0
 13
0.0
 23
0.0
 33
0.0
 16
1.0
 26
0.0
 36
0.0
 17
0.0
 27
1.0
 37
0.0
 76
     0
330
122
331
17F
  0
LAYOUT
  5
D4
102
{ACAD_REACTORS
330
1A
102
}
330
1A
100
AcDbPlotSettings
  1

  2
none_device
  4
ISO_A4_(210.00_x_297.00_MM)
  6

 40
7.5
 41
20.0
 42
7.5
 43
20.0
 44
210.0
 45
297.0
 46
0.0
 47
0.0
 48
0.0
 49
0.0
140
0.0
141
0.0
142
1.0
143
1.906614786
 70
   688
 72
     1
 73
     1
 74
     1
  7

 75
     0
 76
     0
 77
     2
 78
   300
147
0.5244897959
148
0.0
149
0.0
100
AcDbLayout
  1
_Unten
 70
     1
 71
     6
 10
0.0
 20
0.0
 11
0.0
 21
0.0
 12
0.0
 22
0.0
 32
0.0
 14
0.0
 24
0.0
 34
0.0
 15
0.0
 25
0.0
 35
0.0
146
0.0
 13
0.0
 23
0.0
 33
0.0
 16
1.0
 26
0.0
 36
0.0
 17
0.0
 27
1.0
 37
0.0
 76
     0
330
D3
331
17B
  0
LAYOUT
  5
1E
102
{ACAD_REACTORS
330
1A
102
}
330
1A
100
AcDbPlotSettings
  1

  2
none_device
  4
ISO_A4_(210.00_x_297.00_MM)
  6

 40
7.5
 41
20.0
 42
7.5
 43
20.0
 44
210.0
 45
297.0
 46
0.0
 47
0.0
 48
0.0
 49
0.0
140
0.0
141
0.0
142
1.0
143
1.906614786
 70
   688
 72
     1
 73
     1
 74
     1
  7

 75
     0
 76
     0
 77
     2
 78
   300
147
0.5244897959
148
0.0
149
0.0
100
AcDbLayout
  1
_Vorderseite
 70
     1
 71
     1
 10
-38.1322957198
 20
-14.2996108949
 11
528.1322957198
 21
386.0894941634
 12
0.0
 22
0.0
 32
0.0
 14
0.0
 24
0.0
 34
0.0
 15
490.0
 25
140.0
 35
0.0
146
0.0
 13
0.0
 23
0.0
 33
0.0
 16
1.0
 26
0.0
 36
0.0
 17
0.0
 27
1.0
 37
0.0
 76
     0
330
1B
331
171
  0
LAYOUT
  5
22
102
{ACAD_REACTORS
330
1A
102
}
330
1A
100
AcDbPlotSettings
  1

  2
none_device
  4
ANSI_A_(11.00_x_8.50_Inches)
  6

 40
6.35
 41
19.05
 42
6.35000508
 43
19.05000254
 44
279.4
 45
215.9
 46
-4.95300254
 47
-8.4766033108
 48
0.0
 49
0.0
140
0.0
141
0.0
142
0.0222244898
143
1.0
 70
  1696
 72
     0
 73
     0
 74
     0
  7

 75
     0
 76
     0
 77
     2
 78
   300
147
0.0179189148
148
-1300.4909072572
149
0.0
100
AcDbLayout
  1
Model
 70
     1
 71
     0
 10
0.0
 20
0.0
 11
420.0
 21
297.0
 12
0.0
 22
0.0
 32
0.0
 14
0.0
 24
0.0
 34
0.0
 15
490.0
 25
345.0
 35
0.0
146
0.0
 13
0.0
 23
0.0
 33
0.0
 16
1.0
 26
0.0
 36
0.0
 17
0.0
 27
1.0
 37
0.0
 76
     0
330
1F
331
29
  0
MATERIAL
  5
45
102
{ACAD_REACTORS
330
43
102
}
330
43
100
AcDbMaterial
  1
ByBlock
 72
     1
 94
      127
  0
MATERIAL
  5
44
102
{ACAD_REACTORS
330
43
102
}
330
43
100
AcDbMaterial
  1
ByLayer
 72
     1
 94
      127
  0
MATERIAL
  5
46
102
{ACAD_REACTORS
330
43
102
}
330
43
100
AcDbMaterial
  1
Global
 72
     1
 94
      127
  0
MLEADERSTYLE
  5
6C
102
{ACAD_REACTORS
330
6B
102
}
330
6B
100
AcDbMLeaderStyle
179
     2
170
     2
171
     1
172
     0
 90
        2
 40
0.0
 41
0.0
173
     1
 91
-1056964608
340
14
 92
       -2
290
     1
 42
2.0
291
     1
 43
8.0
  3
Standard
341
0
 44
4.0
300

342
11
174
     1
178
     6
175
     1
176
     0
 93
-1056964608
 45
4.0
292
     0
297
     0
 46
4.0
343
0
 94
-1056964608
 47
1.0
 49
1.0
140
1.0
293
     1
141
0.0
294
     1
177
     0
142
1.0
295
     0
296
     0
143
3.75
271
     0
272
     9
273
     9
298
     0
  0
MLINESTYLE
  5
18
102
{ACAD_REACTORS
330
17
102
}
330
17
100
AcDbMlineStyle
  2
Standard
 70
     0
  3

 62
   256
 51
90.0
 52
90.0
 71
     2
 49
0.5
 62
   256
  6
BYLAYER
 49
-0.5
 62
   256
  6
BYLAYER
  0
ACDBPLACEHOLDER
  5
F
102
{ACAD_REACTORS
330
E
102
}
330
E
  0
SCALE
  5
48
102
{ACAD_REACTORS
330
47
102
}
330
47
100
AcDbScale
 70
     0
300
1:1
140
1.0
141
1.0
290
     1
  0
SCALE
  5
49
102
{ACAD_REACTORS
330
47
102
}
330
47
100
AcDbScale
 70
     0
300
1:2
140
1.0
141
2.0
290
     0
  0
SCALE
  5
4A
102
{ACAD_REACTORS
330
47
102
}
330
47
100
AcDbScale
 70
     0
300
1:4
140
1.0
141
4.0
290
     0
  0
SCALE
  5
4B
102
{ACAD_REACTORS
330
47
102
}
330
47
100
AcDbScale
 70
     0
300
1:5
140
1.0
141
5.0
290
     0
  0
SCALE
  5
4C
102
{ACAD_REACTORS
330
47
102
}
330
47
100
AcDbScale
 70
     0
300
1:8
140
1.0
141
8.0
290
     0
  0
SCALE
  5
4D
102
{ACAD_REACTORS
330
47
102
}
330
47
100
AcDbScale
 70
     0
300
1:10
140
1.0
141
10.0
290
     0
  0
SCALE
  5
4E
102
{ACAD_REACTORS
330
47
102
}
330
47
100
AcDbScale
 70
     0
300
1:16
140
1.0
141
16.0
290
     0
  0
SCALE
  5
4F
102
{ACAD_REACTORS
330
47
102
}
330
47
100
AcDbScale
 70
     0
300
1:20
140
1.0
141
20.0
290
     0
  0
SCALE
  5
50
102
{ACAD_REACTORS
330
47
102
}
330
47
100
AcDbScale
 70
     0
300
1:30
140
1.0
141
30.0
290
     0
  0
SCALE
  5
51
102
{ACAD_REACTORS
330
47
102
}
330
47
100
AcDbScale
 70
     0
300
1:40
140
1.0
141
40.0
290
     0
  0
SCALE
  5
52
102
{ACAD_REACTORS
330
47
102
}
330
47
100
AcDbScale
 70
     0
300
1:50
140
1.0
141
50.0
290
     0
  0
SCALE
  5
53
102
{ACAD_REACTORS
330
47
102
}
330
47
100
AcDbScale
 70
     0
300
1:100
140
1.0
141
100.0
290
     0
  0
SCALE
  5
54
102
{ACAD_REACTORS
330
47
102
}
330
47
100
AcDbScale
 70
     0
300
2:1
140
2.0
141
1.0
290
     0
  0
SCALE
  5
55
102
{ACAD_REACTORS
330
47
102
}
330
47
100
AcDbScale
 70
     0
300
4:1
140
4.0
141
1.0
290
     0
  0
SCALE
  5
56
102
{ACAD_REACTORS
330
47
102
}
330
47
100
AcDbScale
 70
     0
300
8:1
140
8.0
141
1.0
290
     0
  0
SCALE
  5
57
102
{ACAD_REACTORS
330
47
102
}
330
47
100
AcDbScale
 70
     0
300
10:1
140
10.0
141
1.0
290
     0
  0
SCALE
  5
58
102
{ACAD_REACTORS
330
47
102
}
330
47
100
AcDbScale
 70
     0
300
100:1
140
100.0
141
1.0
290
     0
  0
SCALE
  5
59
102
{ACAD_REACTORS
330
47
102
}
330
47
100
AcDbScale
 70
     0
300
1/128" = 1'-0"
140
0.0078125
141
12.0
290
     0
  0
SCALE
  5
5A
102
{ACAD_REACTORS
330
47
102
}
330
47
100
AcDbScale
 70
     0
300
1/64" = 1'-0"
140
0.015625
141
12.0
290
     0
  0
SCALE
  5
5B
102
{ACAD_REACTORS
330
47
102
}
330
47
100
AcDbScale
 70
     0
300
1/32" = 1'-0"
140
0.03125
141
12.0
290
     0
  0
SCALE
  5
5C
102
{ACAD_REACTORS
330
47
102
}
330
47
100
AcDbScale
 70
     0
300
1/16" = 1'-0"
140
0.0625
141
12.0
290
     0
  0
SCALE
  5
5D
102
{ACAD_REACTORS
330
47
102
}
330
47
100
AcDbScale
 70
     0
300
3/32" = 1'-0"
140
0.09375
141
12.0
290
     0
  0
SCALE
  5
5E
102
{ACAD_REACTORS
330
47
102
}
330
47
100
AcDbScale
 70
     0
300
1/8" = 1'-0"
140
0.125
141
12.0
290
     0
  0
SCALE
  5
5F
102
{ACAD_REACTORS
330
47
102
}
330
47
100
AcDbScale
 70
     0
300
3/16" = 1'-0"
140
0.1875
141
12.0
290
     0
  0
SCALE
  5
60
102
{ACAD_REACTORS
330
47
102
}
330
47
100
AcDbScale
 70
     0
300
1/4" = 1'-0"
140
0.25
141
12.0
290
     0
  0
SCALE
  5
61
102
{ACAD_REACTORS
330
47
102
}
330
47
100
AcDbScale
 70
     0
300
3/8" = 1'-0"
140
0.375
141
12.0
290
     0
  0
SCALE
  5
62
102
{ACAD_REACTORS
330
47
102
}
330
47
100
AcDbScale
 70
     0
300
1/2" = 1'-0"
140
0.5
141
12.0
290
     0
  0
SCALE
  5
63
102
{ACAD_REACTORS
330
47
102
}
330
47
100
AcDbScale
 70
     0
300
3/4" = 1'-0"
140
0.75
141
12.0
290
     0
  0
SCALE
  5
64
102
{ACAD_REACTORS
330
47
102
}
330
47
100
AcDbScale
 70
     0
300
1" = 1'-0"
140
1.0
141
12.0
290
     0
  0
SCALE
  5
65
102
{ACAD_REACTORS
330
47
102
}
330
47
100
AcDbScale
 70
     0
300
1-1/2" = 1'-0"
140
1.5
141
12.0
290
     0
  0
SCALE
  5
66
102
{ACAD_REACTORS
330
47
102
}
330
47
100
AcDbScale
 70
     0
300
3" = 1'-0"
140
3.0
141
12.0
290
     0
  0
SCALE
  5
67
102
{ACAD_REACTORS
330
47
102
}
330
47
100
AcDbScale
 70
     0
300
6" = 1'-0"
140
6.0
141
12.0
290
     0
  0
SCALE
  5
68
102
{ACAD_REACTORS
330
47
102
}
330
47
100
AcDbScale
 70
     0
300
1'-0" = 1'-0"
140
12.0
141
12.0
290
     0
  0
TABLESTYLE
  5
6A
102
{ACAD_REACTORS
330
69
102
}
102
{ACAD_XDICTIONARY
360
185
102
}
330
69
100
AcDbTableStyle
  3
Standard
 70
     0
 71
     0
 40
0.06
 41
0.06
280
     0
281
     0
  7
STANDARD
140
4.5
170
     2
 62
     0
 63
   257
283
     0
 90
        4
 91
        0
  1

274
    -2
284
     1
 64
     0
275
    -2
285
     1
 65
     0
276
    -2
286
     1
 66
     0
277
    -2
287
     1
 67
     0
278
    -2
288
     1
 68
     0
279
    -2
289
     1
 69
     0
  7
STANDARD
140
6.0
170
     5
 62
     0
 63
   257
283
     0
 90
        4
 91
        0
  1

274
    -2
284
     1
 64
     0
275
    -2
285
     1
 65
     0
276
    -2
286
     1
 66
     0
277
    -2
287
     1
 67
     0
278
    -2
288
     1
 68
     0
279
    -2
289
     1
 69
     0
  7
STANDARD
140
4.5
170
     5
 62
     0
 63
   257
283
     0
 90
        4
 91
        0
  1

274
    -2
284
     1
 64
     0
275
    -2
285
     1
 65
     0
276
    -2
286
     1
 66
     0
277
    -2
287
     1
 67
     0
278
    -2
288
     1
 68
     0
279
    -2
289
     1
 69
     0
  0
VISUALSTYLE
  5
2F
102
{ACAD_REACTORS
330
2A
102
}
330
2A
100
AcDbVisualStyle
  2
2dWireframe
 70
     4
177
     3
291
     0
 70
    58
 90
        0
176
     1
 90
        2
176
     1
 90
        0
176
     1
 90
        0
176
     1
 40
0.6
176
     1
 40
30.0
176
     1
 62
     7
420
 16777215
176
     1
 90
        1
176
     1
 90
        4
176
     1
 62
     7
176
     1
 62
   257
176
     1
 90
        1
176
     1
 90
        1
176
     1
 40
1.0
176
     1
 90
        0
176
     1
 62
   257
176
     1
 40
1.0
176
     1
 90
        1
176
     1
 90
        6
176
     1
 90
        2
176
     1
 62
     7
176
     1
 90
        5
176
     1
 90
        0
176
     1
 90
        0
176
     1
290
     0
176
     1
 90
        1
176
     1
 40
0.0
176
     1
 90
        0
176
     1
290
     1
176
     1
290
     1
176
     1
290
     0
176
     1
290
     0
176
     1
290
     0
176
     1
290
     0
176
     1
290
     0
176
     1
290
     0
176
     1
290
     0
176
     1
 90
       50
176
     1
 40
0.0
176
     1
 40
1.0
176
     1
 90
        0
176
     1
 62
    18
420
        0
176
     1
 90
       50
176
     1
 90
        3
176
     1
 62
     5
420
      255
176
     1
290
     0
176
     1
 90
       50
176
     1
 90
       50
176
     1
 90
       50
176
     1
290
     0
176
     1
 90
       50
176
     1
 62
   256
176
     0
 40
1.0
176
     0
 90
        2
176
     1
  1
strokes_ogs.tif
176
     1
290
     0
176
     1
 40
1.0
176
     1
 40
1.0
176
     1
  0
VISUALSTYLE
  5
32
102
{ACAD_REACTORS
330
2A
102
}
330
2A
100
AcDbVisualStyle
  2
Basic
 70
     7
177
     3
291
     1
 70
    58
 90
        1
176
     1
 90
        0
176
     1
 90
        1
176
     1
 90
        0
176
     1
 40
0.6
176
     1
 40
30.0
176
     1
 62
     7
420
 16777215
176
     1
 90
        0
176
     1
 90
        4
176
     1
 62
     7
176
     1
 62
   257
176
     1
 90
        1
176
     1
 90
        1
176
     1
 40
1.0
176
     1
 90
        8
176
     1
 62
     7
176
     1
 40
1.0
176
     1
 90
        1
176
     1
 90
        6
176
     1
 90
        2
176
     1
 62
     7
176
     1
 90
        5
176
     1
 90
        0
176
     1
 90
        0
176
     1
290
     0
176
     1
 90
        1
176
     1
 40
0.0
176
     1
 90
        0
176
     1
290
     0
176
     1
290
     1
176
     1
290
     1
176
     1
290
     0
176
     1
290
     0
176
     1
290
     0
176
     1
290
     0
176
     1
290
     0
176
     1
290
     0
176
     1
 90
       50
176
     1
 40
0.0
176
     1
 40
1.0
176
     1
 90
        0
176
     1
 62
    18
420
        0
176
     1
 90
       50
176
     1
 90
        3
176
     1
 62
     5
420
      255
176
     1
290
     0
176
     1
 90
       50
176
     1
 90
       50
176
     1
 90
       50
176
     1
290
     0
176
     1
 90
       50
176
     1
 62
   256
176
     0
 40
1.0
176
     0
 90
        2
176
     1
  1
strokes_ogs.tif
176
     1
290
     0
176
     1
 40
1.0
176
     1
 40
1.0
176
     1
  0
VISUALSTYLE
  5
36
102
{ACAD_REACTORS
330
2A
102
}
330
2A
100
AcDbVisualStyle
  2
Brighten
 70
    12
177
     3
291
     1
 70
    58
 90
        2
176
     1
 90
        2
176
     1
 90
        0
176
     1
 90
        0
176
     1
 40
0.6
176
     1
 40
30.0
176
     1
 62
     7
420
 16777215
176
     1
 90
        1
176
     1
 90
        4
176
     1
 62
     7
176
     1
 62
   257
176
     1
 90
        1
176
     1
 90
        1
176
     1
 40
1.0
176
     1
 90
        8
176
     1
 62
     7
176
     1
 40
1.0
176
     1
 90
        1
176
     1
 90
        6
176
     1
 90
        2
176
     1
 62
     7
176
     1
 90
        5
176
     1
 90
        0
176
     1
 90
        0
176
     1
290
     0
176
     1
 90
        1
176
     1
 40
50.0
176
     1
 90
        0
176
     1
290
     0
176
     1
290
     1
176
     1
290
     1
176
     1
290
     0
176
     1
290
     0
176
     1
290
     0
176
     1
290
     0
176
     1
290
     0
176
     1
290
     0
176
     1
 90
       50
176
     1
 40
0.0
176
     1
 40
1.0
176
     1
 90
        0
176
     1
 62
    18
420
        0
176
     1
 90
       50
176
     1
 90
        3
176
     1
 62
     5
420
      255
176
     1
290
     0
176
     1
 90
       50
176
     1
 90
       50
176
     1
 90
       50
176
     1
290
     0
176
     1
 90
       50
176
     1
 62
   256
176
     0
 40
1.0
176
     0
 90
        2
176
     1
  1
strokes_ogs.tif
176
     1
290
     0
176
     1
 40
1.0
176
     1
 40
1.0
176
     1
  0
VISUALSTYLE
  5
3A
102
{ACAD_REACTORS
330
2A
102
}
330
2A
100
AcDbVisualStyle
  2
ColorChange
 70
    16
177
     3
291
     1
 70
    58
 90
        2
176
     1
 90
        2
176
     1
 90
        3
176
     1
 90
        0
176
     1
 40
0.6
176
     1
 40
30.0
176
     1
 62
     8
420
  8421504
176
     1
 90
        1
176
     1
 90
        4
176
     1
 62
     7
176
     1
 62
   257
176
     1
 90
        1
176
     1
 90
        1
176
     1
 40
1.0
176
     1
 90
        8
176
     1
 62
     8
420
  8421504
176
     1
 40
1.0
176
     1
 90
        1
176
     1
 90
        6
176
     1
 90
        2
176
     1
 62
     7
176
     1
 90
        5
176
     1
 90
        0
176
     1
 90
        0
176
     1
290
     0
176
     1
 90
        1
176
     1
 40
0.0
176
     1
 90
        0
176
     1
290
     0
176
     1
290
     1
176
     1
290
     1
176
     1
290
     0
176
     1
290
     0
176
     1
290
     0
176
     1
290
     0
176
     1
290
     0
176
     1
290
     0
176
     1
 90
       50
176
     1
 40
0.0
176
     1
 40
1.0
176
     1
 90
        0
176
     1
 62
    18
420
        0
176
     1
 90
       50
176
     1
 90
        3
176
     1
 62
     5
420
      255
176
     1
290
     0
176
     1
 90
       50
176
     1
 90
       50
176
     1
 90
       50
176
     1
290
     0
176
     1
 90
       50
176
     1
 62
   256
176
     0
 40
1.0
176
     0
 90
        2
176
     1
  1
strokes_ogs.tif
176
     1
290
     0
176
     1
 40
1.0
176
     1
 40
1.0
176
     1
  0
VISUALSTYLE
  5
34
102
{ACAD_REACTORS
330
2A
102
}
330
2A
100
AcDbVisualStyle
  2
Conceptual
 70
     9
177
     3
291
     0
 70
    58
 90
        3
176
     1
 90
        2
176
     1
 90
        0
176
     1
 90
        0
176
     1
 40
0.6
176
     1
 40
30.0
176
     1
 62
     7
420
 16777215
176
     1
 90
        2
176
     1
 90
        2
176
     1
 62
     7
176
     1
 62
   257
176
     1
 90
        1
176
     1
 90
        1
176
     1
 40
179.0
176
     1
 90
        8
176
     1
 62
     7
176
     1
 40
1.0
176
     1
 90
        1
176
     1
 90
        6
176
     1
 90
        2
176
     1
 62
     7
176
     1
 90
        3
176
     1
 90
        0
176
     1
 90
        0
176
     1
290
     0
176
     1
 90
        1
176
     1
 40
0.0
176
     1
 90
        0
176
     1
290
     0
176
     1
290
     1
176
     1
290
     1
176
     1
290
     0
176
     1
290
     0
176
     1
290
     0
176
     1
290
     0
176
     1
290
     0
176
     1
290
     0
176
     1
 90
       50
176
     1
 40
0.0
176
     1
 40
1.0
176
     1
 90
        0
176
     1
 62
    18
420
        0
176
     1
 90
       50
176
     1
 90
        3
176
     1
 62
     5
420
      255
176
     1
290
     0
176
     1
 90
       50
176
     1
 90
       50
176
     1
 90
       50
176
     1
290
     0
176
     1
 90
       50
176
     1
 62
   256
176
     0
 40
1.0
176
     0
 90
        2
176
     1
  1
strokes_ogs.tif
176
     1
290
     0
176
     1
 40
1.0
176
     1
 40
1.0
176
     1
  0
VISUALSTYLE
  5
35
102
{ACAD_REACTORS
330
2A
102
}
330
2A
100
AcDbVisualStyle
  2
Dim
 70
    11
177
     3
291
     1
 70
    58
 90
        2
176
     1
 90
        2
176
     1
 90
        0
176
     1
 90
        0
176
     1
 40
0.6
176
     1
 40
30.0
176
     1
 62
     7
420
 16777215
176
     1
 90
        1
176
     1
 90
        4
176
     1
 62
     7
176
     1
 62
   257
176
     1
 90
        1
176
     1
 90
        1
176
     1
 40
1.0
176
     1
 90
        8
176
     1
 62
     7
176
     1
 40
1.0
176
     1
 90
        1
176
     1
 90
        6
176
     1
 90
        2
176
     1
 62
     7
176
     1
 90
        5
176
     1
 90
        0
176
     1
 90
        0
176
     1
290
     0
176
     1
 90
        1
176
     1
 40
-50.0
176
     1
 90
        0
176
     1
290
     0
176
     1
290
     1
176
     1
290
     1
176
     1
290
     0
176
     1
290
     0
176
     1
290
     0
176
     1
290
     0
176
     1
290
     0
176
     1
290
     0
176
     1
 90
       50
176
     1
 40
0.0
176
     1
 40
1.0
176
     1
 90
        0
176
     1
 62
    18
420
        0
176
     1
 90
       50
176
     1
 90
        3
176
     1
 62
     5
420
      255
176
     1
290
     0
176
     1
 90
       50
176
     1
 90
       50
176
     1
 90
       50
176
     1
290
     0
176
     1
 90
       50
176
     1
 62
   256
176
     0
 40
1.0
176
     0
 90
        2
176
     1
  1
strokes_ogs.tif
176
     1
290
     0
176
     1
 40
1.0
176
     1
 40
1.0
176
     1
  0
VISUALSTYLE
  5
3D
102
{ACAD_REACTORS
330
2A
102
}
330
2A
100
AcDbVisualStyle
  2
EdgeColorOff
 70
    22
177
     3
291
     1
 70
    58
 90
        2
176
     0
 90
        2
176
     0
 90
        0
176
     0
 90
        0
176
     0
 40
0.6
176
     0
 40
30.0
176
     0
 62
     7
420
 16777215
176
     0
 90
        1
176
     0
 90
        4
176
     0
 62
     7
176
     0
 62
   257
176
     0
 90
        1
176
     0
 90
        1
176
     0
 40
1.0
176
     0
 90
        8
176
     2
 62
     7
176
     0
 40
1.0
176
     0
 90
        1
176
     0
 90
        6
176
     0
 90
        2
176
     0
 62
     7
176
     0
 90
        5
176
     0
 90
        0
176
     0
 90
        0
176
     0
290
     0
176
     0
 90
        1
176
     0
 40
0.0
176
     0
 90
        0
176
     0
290
     0
176
     0
290
     1
176
     0
290
     1
176
     0
290
     0
176
     0
290
     0
176
     0
290
     0
176
     0
290
     0
176
     0
290
     0
176
     0
290
     0
176
     0
 90
       50
176
     0
 40
0.0
176
     0
 40
1.0
176
     0
 90
        0
176
     0
 62
    18
420
        0
176
     0
 90
       50
176
     0
 90
        3
176
     0
 62
     5
420
      255
176
     0
290
     0
176
     0
 90
       50
176
     0
 90
       50
176
     0
 90
       50
176
     0
290
     0
176
     0
 90
       50
176
     0
 62
   256
176
     0
 40
1.0
176
     0
 90
        2
176
     0
  1
strokes_ogs.tif
176
     0
290
     0
176
     0
 40
1.0
176
     0
 40
1.0
176
     0
  0
VISUALSTYLE
  5
39
102
{ACAD_REACTORS
330
2A
102
}
330
2A
100
AcDbVisualStyle
  2
Facepattern
 70
    15
177
     3
291
     1
 70
    58
 90
        2
176
     1
 90
        2
176
     1
 90
        0
176
     1
 90
        0
176
     1
 40
0.6
176
     1
 40
30.0
176
     1
 62
     7
420
 16777215
176
     1
 90
        1
176
     1
 90
        4
176
     1
 62
     7
176
     1
 62
   257
176
     1
 90
        1
176
     1
 90
        1
176
     1
 40
1.0
176
     1
 90
        8
176
     1
 62
     7
176
     1
 40
1.0
176
     1
 90
        1
176
     1
 90
        6
176
     1
 90
        2
176
     1
 62
     7
176
     1
 90
        5
176
     1
 90
        0
176
     1
 90
        0
176
     1
290
     0
176
     1
 90
        1
176
     1
 40
0.0
176
     1
 90
        0
176
     1
290
     0
176
     1
290
     1
176
     1
290
     1
176
     1
290
     0
176
     1
290
     0
176
     1
290
     0
176
     1
290
     0
176
     1
290
     0
176
     1
290
     0
176
     1
 90
       50
176
     1
 40
0.0
176
     1
 40
1.0
176
     1
 90
        0
176
     1
 62
    18
420
        0
176
     1
 90
       50
176
     1
 90
        3
176
     1
 62
     5
420
      255
176
     1
290
     0
176
     1
 90
       50
176
     1
 90
       50
176
     1
 90
       50
176
     1
290
     0
176
     1
 90
       50
176
     1
 62
   256
176
     0
 40
1.0
176
     0
 90
        2
176
     1
  1
strokes_ogs.tif
176
     1
290
     0
176
     1
 40
1.0
176
     1
 40
1.0
176
     1
  0
VISUALSTYLE
  5
2B
102
{ACAD_REACTORS
330
2A
102
}
330
2A
100
AcDbVisualStyle
  2
Flat
 70
     0
177
     3
291
     1
 70
    58
 90
        2
176
     1
 90
        1
176
     1
 90
        1
176
     1
 90
        2
176
     1
 40
0.6
176
     1
 40
30.0
176
     1
 62
     7
420
 16777215
176
     1
 90
        0
176
     1
 90
        0
176
     1
 62
     7
176
     1
 62
   257
176
     1
 90
        1
176
     1
 90
        1
176
     1
 40
1.0
176
     1
 90
        8
176
     1
 62
     7
176
     1
 40
1.0
176
     1
 90
        1
176
     1
 90
        6
176
     1
 90
        2
176
     1
 62
     7
176
     1
 90
        5
176
     1
 90
        0
176
     1
 90
        0
176
     1
290
     0
176
     1
 90
       13
176
     1
 40
0.0
176
     1
 90
        0
176
     1
290
     0
176
     1
290
     1
176
     1
290
     1
176
     1
290
     0
176
     1
290
     0
176
     1
290
     0
176
     1
290
     0
176
     1
290
     0
176
     1
290
     0
176
     1
 90
       50
176
     1
 40
0.0
176
     1
 40
1.0
176
     1
 90
        0
176
     1
 62
    18
420
        0
176
     1
 90
       50
176
     1
 90
        3
176
     1
 62
     5
420
      255
176
     1
290
     0
176
     1
 90
       50
176
     1
 90
       50
176
     1
 90
       50
176
     1
290
     0
176
     1
 90
       50
176
     1
 62
   256
176
     0
 40
1.0
176
     0
 90
        2
176
     1
  1
strokes_ogs.tif
176
     1
290
     0
176
     1
 40
1.0
176
     1
 40
1.0
176
     1
  0
VISUALSTYLE
  5
2C
102
{ACAD_REACTORS
330
2A
102
}
330
2A
100
AcDbVisualStyle
  2
FlatWithEdges
 70
     1
177
     3
291
     1
 70
    58
 90
        2
176
     1
 90
        1
176
     1
 90
        1
176
     1
 90
        2
176
     1
 40
0.6
176
     1
 40
30.0
176
     1
 62
     7
420
 16777215
176
     1
 90
        1
176
     1
 90
        0
176
     1
 62
     7
176
     1
 62
   257
176
     1
 90
        1
176
     1
 90
        1
176
     1
 40
1.0
176
     1
 90
        0
176
     1
 62
   257
176
     1
 40
1.0
176
     1
 90
        1
176
     1
 90
        6
176
     1
 90
        2
176
     1
 62
     7
176
     1
 90
        5
176
     1
 90
        0
176
     1
 90
        0
176
     1
290
     0
176
     1
 90
       13
176
     1
 40
0.0
176
     1
 90
        0
176
     1
290
     0
176
     1
290
     1
176
     1
290
     1
176
     1
290
     0
176
     1
290
     0
176
     1
290
     0
176
     1
290
     0
176
     1
290
     0
176
     1
290
     0
176
     1
 90
       50
176
     1
 40
0.0
176
     1
 40
1.0
176
     1
 90
        0
176
     1
 62
    18
420
        0
176
     1
 90
       50
176
     1
 90
        3
176
     1
 62
     5
420
      255
176
     1
290
     0
176
     1
 90
       50
176
     1
 90
       50
176
     1
 90
       50
176
     1
290
     0
176
     1
 90
       50
176
     1
 62
   256
176
     0
 40
1.0
176
     0
 90
        2
176
     1
  1
strokes_ogs.tif
176
     1
290
     0
176
     1
 40
1.0
176
     1
 40
1.0
176
     1
  0
VISUALSTYLE
  5
2D
102
{ACAD_REACTORS
330
2A
102
}
330
2A
100
AcDbVisualStyle
  2
Gouraud
 70
     2
177
     3
291
     1
 70
    58
 90
        2
176
     1
 90
        2
176
     1
 90
        1
176
     1
 90
        2
176
     1
 40
0.6
176
     1
 40
30.0
176
     1
 62
     7
420
 16777215
176
     1
 90
        0
176
     1
 90
        0
176
     1
 62
     7
176
     1
 62
   257
176
     1
 90
        1
176
     1
 90
        1
176
     1
 40
1.0
176
     1
 90
        0
176
     1
 62
     7
176
     1
 40
1.0
176
     1
 90
        1
176
     1
 90
        6
176
     1
 90
        2
176
     1
 62
     7
176
     1
 90
        5
176
     1
 90
        0
176
     1
 90
        0
176
     1
290
     0
176
     1
 90
       13
176
     1
 40
0.0
176
     1
 90
        0
176
     1
290
     0
176
     1
290
     1
176
     1
290
     1
176
     1
290
     0
176
     1
290
     0
176
     1
290
     0
176
     1
290
     0
176
     1
290
     0
176
     1
290
     0
176
     1
 90
       50
176
     1
 40
0.0
176
     1
 40
1.0
176
     1
 90
        0
176
     1
 62
    18
420
        0
176
     1
 90
       50
176
     1
 90
        3
176
     1
 62
     5
420
      255
176
     1
290
     0
176
     1
 90
       50
176
     1
 90
       50
176
     1
 90
       50
176
     1
290
     0
176
     1
 90
       50
176
     1
 62
   256
176
     0
 40
1.0
176
     0
 90
        2
176
     1
  1
strokes_ogs.tif
176
     1
290
     0
176
     1
 40
1.0
176
     1
 40
1.0
176
     1
  0
VISUALSTYLE
  5
2E
102
{ACAD_REACTORS
330
2A
102
}
330
2A
100
AcDbVisualStyle
  2
GouraudWithEdges
 70
     3
177
     3
291
     1
 70
    58
 90
        2
176
     1
 90
        2
176
     1
 90
        1
176
     1
 90
        2
176
     1
 40
0.6
176
     1
 40
30.0
176
     1
 62
     7
420
 16777215
176
     1
 90
        1
176
     1
 90
        0
176
     1
 62
     7
176
     1
 62
   257
176
     1
 90
        1
176
     1
 90
        1
176
     1
 40
1.0
176
     1
 90
        0
176
     1
 62
   257
176
     1
 40
1.0
176
     1
 90
        1
176
     1
 90
        6
176
     1
 90
        2
176
     1
 62
     7
176
     1
 90
        5
176
     1
 90
        0
176
     1
 90
        0
176
     1
290
     0
176
     1
 90
       13
176
     1
 40
0.0
176
     1
 90
        0
176
     1
290
     0
176
     1
290
     1
176
     1
290
     1
176
     1
290
     0
176
     1
290
     0
176
     1
290
     0
176
     1
290
     0
176
     1
290
     0
176
     1
290
     0
176
     1
 90
       50
176
     1
 40
0.0
176
     1
 40
1.0
176
     1
 90
        0
176
     1
 62
    18
420
        0
176
     1
 90
       50
176
     1
 90
        3
176
     1
 62
     5
420
      255
176
     1
290
     0
176
     1
 90
       50
176
     1
 90
       50
176
     1
 90
       50
176
     1
290
     0
176
     1
 90
       50
176
     1
 62
   256
176
     0
 40
1.0
176
     0
 90
        2
176
     1
  1
strokes_ogs.tif
176
     1
290
     0
176
     1
 40
1.0
176
     1
 40
1.0
176
     1
  0
VISUALSTYLE
  5
31
102
{ACAD_REACTORS
330
2A
102
}
330
2A
100
AcDbVisualStyle
  2
Hidden
 70
     6
177
     3
291
     0
 70
    58
 90
        1
176
     1
 90
        2
176
     1
 90
        2
176
     1
 90
        0
176
     1
 40
0.6
176
     1
 40
30.0
176
     1
 62
     7
420
 16777215
176
     1
 90
        2
176
     1
 90
        2
176
     1
 62
     7
176
     1
 62
   257
176
     1
 90
        2
176
     1
 90
        1
176
     1
 40
40.0
176
     1
 90
        0
176
     1
 62
   257
176
     1
 40
1.0
176
     1
 90
        1
176
     1
 90
        6
176
     1
 90
        2
176
     1
 62
     7
176
     1
 90
        3
176
     1
 90
        0
176
     1
 90
        0
176
     1
290
     0
176
     1
 90
        1
176
     1
 40
0.0
176
     1
 90
        0
176
     1
290
     0
176
     1
290
     1
176
     1
290
     1
176
     1
290
     0
176
     1
290
     0
176
     1
290
     0
176
     1
290
     0
176
     1
290
     0
176
     1
290
     0
176
     1
 90
       50
176
     1
 40
0.0
176
     1
 40
1.0
176
     1
 90
        0
176
     1
 62
    18
420
        0
176
     1
 90
       50
176
     1
 90
        3
176
     1
 62
     5
420
      255
176
     1
290
     0
176
     1
 90
       50
176
     1
 90
       50
176
     1
 90
       50
176
     1
290
     0
176
     1
 90
       50
176
     1
 62
   256
176
     0
 40
1.0
176
     0
 90
        2
176
     1
  1
strokes_ogs.tif
176
     1
290
     0
176
     1
 40
1.0
176
     1
 40
1.0
176
     1
  0
VISUALSTYLE
  5
3B
102
{ACAD_REACTORS
330
2A
102
}
330
2A
100
AcDbVisualStyle
  2
JitterOff
 70
    20
177
     3
291
     1
 70
    58
 90
        2
176
     0
 90
        2
176
     0
 90
        0
176
     0
 90
        0
176
     0
 40
0.6
176
     0
 40
30.0
176
     0
 62
     7
420
 16777215
176
     0
 90
        1
176
     0
 90
        4
176
     0
 62
     7
176
     0
 62
   257
176
     0
 90
        1
176
     0
 90
        1
176
     0
 40
1.0
176
     0
 90
       10
176
     2
 62
     7
176
     0
 40
1.0
176
     0
 90
        1
176
     0
 90
        6
176
     0
 90
        2
176
     0
 62
     7
176
     0
 90
        5
176
     0
 90
        0
176
     0
 90
        0
176
     0
290
     0
176
     0
 90
        1
176
     0
 40
0.0
176
     0
 90
        0
176
     0
290
     0
176
     0
290
     1
176
     0
290
     1
176
     0
290
     0
176
     0
290
     0
176
     0
290
     0
176
     0
290
     0
176
     0
290
     0
176
     0
290
     0
176
     0
 90
       50
176
     0
 40
0.0
176
     0
 40
1.0
176
     0
 90
        0
176
     0
 62
    18
420
        0
176
     0
 90
       50
176
     0
 90
        3
176
     0
 62
     5
420
      255
176
     0
290
     0
176
     0
 90
       50
176
     0
 90
       50
176
     0
 90
       50
176
     0
290
     0
176
     0
 90
       50
176
     0
 62
   256
176
     0
 40
1.0
176
     0
 90
        2
176
     0
  1
strokes_ogs.tif
176
     0
290
     0
176
     0
 40
1.0
176
     0
 40
1.0
176
     0
  0
VISUALSTYLE
  5
38
102
{ACAD_REACTORS
330
2A
102
}
330
2A
100
AcDbVisualStyle
  2
Linepattern
 70
    14
177
     3
291
     1
 70
    58
 90
        2
176
     1
 90
        2
176
     1
 90
        0
176
     1
 90
        0
176
     1
 40
0.6
176
     1
 40
30.0
176
     1
 62
     7
420
 16777215
176
     1
 90
        1
176
     1
 90
        4
176
     1
 62
     7
176
     1
 62
   257
176
     1
 90
        7
176
     1
 90
        7
176
     1
 40
1.0
176
     1
 90
        8
176
     1
 62
     7
176
     1
 40
1.0
176
     1
 90
        1
176
     1
 90
        6
176
     1
 90
        2
176
     1
 62
     7
176
     1
 90
        5
176
     1
 90
        0
176
     1
 90
        0
176
     1
290
     0
176
     1
 90
        1
176
     1
 40
0.0
176
     1
 90
        0
176
     1
290
     0
176
     1
290
     1
176
     1
290
     1
176
     1
290
     0
176
     1
290
     0
176
     1
290
     0
176
     1
290
     0
176
     1
290
     0
176
     1
290
     0
176
     1
 90
       50
176
     1
 40
0.0
176
     1
 40
1.0
176
     1
 90
        0
176
     1
 62
    18
420
        0
176
     1
 90
       50
176
     1
 90
        3
176
     1
 62
     5
420
      255
176
     1
290
     0
176
     1
 90
       50
176
     1
 90
       50
176
     1
 90
       50
176
     1
290
     0
176
     1
 90
       50
176
     1
 62
   256
176
     0
 40
1.0
176
     0
 90
        2
176
     1
  1
strokes_ogs.tif
176
     1
290
     0
176
     1
 40
1.0
176
     1
 40
1.0
176
     1
  0
VISUALSTYLE
  5
3C
102
{ACAD_REACTORS
330
2A
102
}
330
2A
100
AcDbVisualStyle
  2
OverhangOff
 70
    21
177
     3
291
     1
 70
    58
 90
        2
176
     0
 90
        2
176
     0
 90
        0
176
     0
 90
        0
176
     0
 40
0.6
176
     0
 40
30.0
176
     0
 62
     7
420
 16777215
176
     0
 90
        1
176
     0
 90
        4
176
     0
 62
     7
176
     0
 62
   257
176
     0
 90
        1
176
     0
 90
        1
176
     0
 40
1.0
176
     0
 90
        9
176
     2
 62
     7
176
     0
 40
1.0
176
     0
 90
        1
176
     0
 90
        6
176
     0
 90
        2
176
     0
 62
     7
176
     0
 90
        5
176
     0
 90
        0
176
     0
 90
        0
176
     0
290
     0
176
     0
 90
        1
176
     0
 40
0.0
176
     0
 90
        0
176
     0
290
     0
176
     0
290
     1
176
     0
290
     1
176
     0
290
     0
176
     0
290
     0
176
     0
290
     0
176
     0
290
     0
176
     0
290
     0
176
     0
290
     0
176
     0
 90
       50
176
     0
 40
0.0
176
     0
 40
1.0
176
     0
 90
        0
176
     0
 62
    18
420
        0
176
     0
 90
       50
176
     0
 90
        3
176
     0
 62
     5
420
      255
176
     0
290
     0
176
     0
 90
       50
176
     0
 90
       50
176
     0
 90
       50
176
     0
290
     0
176
     0
 90
       50
176
     0
 62
   256
176
     0
 40
1.0
176
     0
 90
        2
176
     0
  1
strokes_ogs.tif
176
     0
290
     0
176
     0
 40
1.0
176
     0
 40
1.0
176
     0
  0
VISUALSTYLE
  5
33
102
{ACAD_REACTORS
330
2A
102
}
330
2A
100
AcDbVisualStyle
  2
Realistic
 70
     8
177
     3
291
     0
 70
    58
 90
        2
176
     1
 90
        3
176
     1
 90
        0
176
     1
 90
        2
176
     1
 40
0.6
176
     1
 40
30.0
176
     1
 62
     7
420
 16777215
176
     1
 90
        0
176
     1
 90
        0
176
     1
 62
     7
176
     1
 62
   257
176
     1
 90
        1
176
     1
 90
        1
176
     1
 40
1.0
176
     1
 90
        8
176
     1
 62
   257
176
     1
 40
1.0
176
     1
 90
        1
176
     1
 90
        6
176
     1
 90
        2
176
     1
 62
     7
176
     1
 90
        3
176
     1
 90
        0
176
     1
 90
        0
176
     1
290
     0
176
     1
 90
       13
176
     1
 40
0.0
176
     1
 90
        0
176
     1
290
     0
176
     1
290
     1
176
     1
290
     1
176
     1
290
     0
176
     1
290
     0
176
     1
290
     0
176
     1
290
     0
176
     1
290
     0
176
     1
290
     0
176
     1
 90
       50
176
     1
 40
0.0
176
     1
 40
1.0
176
     1
 90
        0
176
     1
 62
    18
420
        0
176
     1
 90
       50
176
     1
 90
        3
176
     1
 62
     5
420
      255
176
     1
290
     0
176
     1
 90
       50
176
     1
 90
       50
176
     1
 90
       50
176
     1
290
     0
176
     1
 90
       50
176
     1
 62
   256
176
     0
 40
1.0
176
     0
 90
        2
176
     1
  1
strokes_ogs.tif
176
     1
290
     0
176
     1
 40
1.0
176
     1
 40
1.0
176
     1
  0
VISUALSTYLE
  5
42
102
{ACAD_REACTORS
330
2A
102
}
330
2A
100
AcDbVisualStyle
  2
Shaded
 70
    27
177
     3
291
     0
 70
    58
 90
        2
176
     1
 90
        2
176
     1
 90
        1
176
     1
 90
        2
176
     1
 40
0.6
176
     1
 40
30.0
176
     1
 62
     7
420
 16777215
176
     1
 90
        0
176
     1
 90
        4
176
     1
 62
     7
176
     1
 62
   257
176
     1
 90
        1
176
     1
 90
        1
176
     1
 40
1.0
176
     1
 90
        8
176
     1
 62
   257
176
     1
 40
1.0
176
     1
 90
        1
176
     1
 90
        6
176
     1
 90
        2
176
     1
 62
     8
420
  7895160
176
     1
 90
        3
176
     1
 90
        0
176
     1
 90
        0
176
     1
290
     0
176
     1
 90
        5
176
     1
 40
0.0
176
     1
 90
        0
176
     1
290
     0
176
     1
290
     1
176
     1
290
     1
176
     1
290
     0
176
     1
290
     0
176
     1
290
     0
176
     1
290
     0
176
     1
290
     0
176
     1
290
     0
176
     1
 90
       50
176
     1
 40
0.0
176
     1
 40
1.0
176
     1
 90
        0
176
     1
 62
    18
420
        0
176
     1
 90
       50
176
     1
 90
        3
176
     1
 62
     5
420
      255
176
     1
290
     0
176
     1
 90
       50
176
     1
 90
       50
176
     1
 90
       50
176
     1
290
     0
176
     1
 90
       50
176
     1
 62
   256
176
     0
 40
1.0
176
     0
 90
        2
176
     1
  1
strokes_ogs.tif
176
     1
290
     0
176
     1
 40
1.0
176
     1
 40
1.0
176
     1
  0
VISUALSTYLE
  5
41
102
{ACAD_REACTORS
330
2A
102
}
330
2A
100
AcDbVisualStyle
  2
Shaded with edges
 70
    26
177
     3
291
     0
 70
    58
 90
        2
176
     1
 90
        2
176
     1
 90
        1
176
     1
 90
        2
176
     1
 40
0.6
176
     1
 40
30.0
176
     1
 62
     7
420
 16777215
176
     1
 90
        1
176
     1
 90
       10
176
     1
 62
     7
176
     1
 62
   257
176
     1
 90
        2
176
     1
 90
        1
176
     1
 40
1.0
176
     1
 90
        8
176
     1
 62
   257
176
     1
 40
1.0
176
     1
 90
        1
176
     1
 90
        6
176
     1
 90
        2
176
     1
 62
     7
176
     1
 90
        3
176
     1
 90
        0
176
     1
 90
        0
176
     1
290
     0
176
     1
 90
        5
176
     1
 40
0.0
176
     1
 90
        0
176
     1
290
     0
176
     1
290
     1
176
     1
290
     1
176
     1
290
     0
176
     1
290
     0
176
     1
290
     0
176
     1
290
     0
176
     1
290
     0
176
     1
290
     0
176
     1
 90
       50
176
     1
 40
0.0
176
     1
 40
1.0
176
     1
 90
        0
176
     1
 62
    18
420
        0
176
     1
 90
       50
176
     1
 90
        3
176
     1
 62
     5
420
      255
176
     1
290
     0
176
     1
 90
       50
176
     1
 90
       50
176
     1
 90
       50
176
     1
290
     0
176
     1
 90
       50
176
     1
 62
   256
176
     0
 40
1.0
176
     0
 90
        2
176
     1
  1
strokes_ogs.tif
176
     1
290
     0
176
     1
 40
1.0
176
     1
 40
1.0
176
     1
  0
VISUALSTYLE
  5
3E
102
{ACAD_REACTORS
330
2A
102
}
330
2A
100
AcDbVisualStyle
  2
Shades of Gray
 70
    23
177
     3
291
     0
 70
    58
 90
        2
176
     1
 90
        2
176
     1
 90
        3
176
     1
 90
        0
176
     1
 40
0.6
176
     1
 40
30.0
176
     1
 62
     7
420
 16777215
176
     1
 90
        2
176
     1
 90
        2
176
     1
 62
     7
176
     1
 62
     7
176
     1
 90
        1
176
     1
 90
        1
176
     1
 40
40.0
176
     1
 90
        8
176
     1
 62
     7
176
     1
 40
1.0
176
     1
 90
        1
176
     1
 90
        6
176
     1
 90
        2
176
     1
 62
     7
176
     1
 90
        3
176
     1
 90
        0
176
     1
 90
        0
176
     1
290
     0
176
     1
 90
        1
176
     1
 40
0.0
176
     1
 90
        0
176
     1
290
     0
176
     1
290
     1
176
     1
290
     1
176
     1
290
     0
176
     1
290
     0
176
     1
290
     0
176
     1
290
     0
176
     1
290
     0
176
     1
290
     0
176
     1
 90
       50
176
     1
 40
0.0
176
     1
 40
1.0
176
     1
 90
        0
176
     1
 62
    18
420
        0
176
     1
 90
       50
176
     1
 90
        3
176
     1
 62
     5
420
      255
176
     1
290
     0
176
     1
 90
       50
176
     1
 90
       50
176
     1
 90
       50
176
     1
290
     0
176
     1
 90
       50
176
     1
 62
   256
176
     0
 40
1.0
176
     0
 90
        2
176
     1
  1
strokes_ogs.tif
176
     1
290
     0
176
     1
 40
1.0
176
     1
 40
1.0
176
     1
  0
VISUALSTYLE
  5
3F
102
{ACAD_REACTORS
330
2A
102
}
330
2A
100
AcDbVisualStyle
  2
Sketchy
 70
    24
177
     3
291
     0
 70
    58
 90
        1
176
     1
 90
        2
176
     1
 90
        2
176
     1
 90
        0
176
     1
 40
0.6
176
     1
 40
30.0
176
     1
 62
     7
420
 16777215
176
     1
 90
        2
176
     1
 90
        2
176
     1
 62
     7
176
     1
 62
     7
176
     1
 90
        1
176
     1
 90
        1
176
     1
 40
40.0
176
     1
 90
       11
176
     1
 62
     7
176
     1
 40
1.0
176
     1
 90
        1
176
     1
 90
        6
176
     1
 90
        2
176
     1
 62
     7
176
     1
 90
        6
176
     1
 90
        0
176
     1
 90
        0
176
     1
290
     0
176
     1
 90
        1
176
     1
 40
0.0
176
     1
 90
        0
176
     1
290
     0
176
     1
290
     1
176
     1
290
     1
176
     1
290
     0
176
     1
290
     0
176
     1
290
     0
176
     1
290
     0
176
     1
290
     0
176
     1
290
     0
176
     1
 90
       50
176
     1
 40
0.0
176
     1
 40
1.0
176
     1
 90
        0
176
     1
 62
    18
420
        0
176
     1
 90
       50
176
     1
 90
        3
176
     1
 62
     5
420
      255
176
     1
290
     0
176
     1
 90
       50
176
     1
 90
       50
176
     1
 90
       50
176
     1
290
     0
176
     1
 90
       50
176
     1
 62
   256
176
     0
 40
1.0
176
     0
 90
        2
176
     1
  1
strokes_ogs.tif
176
     1
290
     0
176
     1
 40
1.0
176
     1
 40
1.0
176
     1
  0
VISUALSTYLE
  5
37
102
{ACAD_REACTORS
330
2A
102
}
330
2A
100
AcDbVisualStyle
  2
Thicken
 70
    13
177
     3
291
     1
 70
    58
 90
        2
176
     1
 90
        2
176
     1
 90
        0
176
     1
 90
        0
176
     1
 40
0.6
176
     1
 40
30.0
176
     1
 62
     7
420
 16777215
176
     1
 90
        1
176
     1
 90
        4
176
     1
 62
     7
176
     1
 62
   257
176
     1
 90
        1
176
     1
 90
        1
176
     1
 40
1.0
176
     1
 90
       12
176
     1
 62
     7
176
     1
 40
1.0
176
     1
 90
        1
176
     1
 90
        6
176
     1
 90
        2
176
     1
 62
     7
176
     1
 90
        5
176
     1
 90
        0
176
     1
 90
        0
176
     1
290
     0
176
     1
 90
        1
176
     1
 40
0.0
176
     1
 90
        0
176
     1
290
     0
176
     1
290
     1
176
     1
290
     1
176
     1
290
     0
176
     1
290
     0
176
     1
290
     0
176
     1
290
     0
176
     1
290
     0
176
     1
290
     0
176
     1
 90
       50
176
     1
 40
0.0
176
     1
 40
1.0
176
     1
 90
        0
176
     1
 62
    18
420
        0
176
     1
 90
       50
176
     1
 90
        3
176
     1
 62
     5
420
      255
176
     1
290
     0
176
     1
 90
       50
176
     1
 90
       50
176
     1
 90
       50
176
     1
290
     0
176
     1
 90
       50
176
     1
 62
   256
176
     0
 40
1.0
176
     0
 90
        2
176
     1
  1
strokes_ogs.tif
176
     1
290
     0
176
     1
 40
1.0
176
     1
 40
1.0
176
     1
  0
VISUALSTYLE
  5
30
102
{ACAD_REACTORS
330
2A
102
}
330
2A
100
AcDbVisualStyle
  2
Wireframe
 70
     5
177
     3
291
     0
 70
    58
 90
        0
176
     1
 90
        2
176
     1
 90
        0
176
     1
 90
        0
176
     1
 40
0.6
176
     1
 40
30.0
176
     1
 62
     7
420
 16777215
176
     1
 90
        1
176
     1
 90
        4
176
     1
 62
     7
176
     1
 62
   257
176
     1
 90
        1
176
     1
 90
        1
176
     1
 40
1.0
176
     1
 90
        0
176
     1
 62
   257
176
     1
 40
1.0
176
     1
 90
        1
176
     1
 90
        6
176
     1
 90
        2
176
     1
 62
     7
176
     1
 90
        3
176
     1
 90
        0
176
     1
 90
        0
176
     1
290
     0
176
     1
 90
        1
176
     1
 40
0.0
176
     1
 90
        0
176
     1
290
     0
176
     1
290
     1
176
     1
290
     1
176
     1
290
     0
176
     1
290
     0
176
     1
290
     0
176
     1
290
     0
176
     1
290
     0
176
     1
290
     0
176
     1
 90
       50
176
     1
 40
0.0
176
     1
 40
1.0
176
     1
 90
        0
176
     1
 62
    18
420
        0
176
     1
 90
       50
176
     1
 90
        3
176
     1
 62
     5
420
      255
176
     1
290
     0
176
     1
 90
       50
176
     1
 90
       50
176
     1
 90
       50
176
     1
290
     0
176
     1
 90
       50
176
     1
 62
   256
176
     0
 40
1.0
176
     0
 90
        2
176
     1
  1
strokes_ogs.tif
176
     1
290
     0
176
     1
 40
1.0
176
     1
 40
1.0
176
     1
  0
VISUALSTYLE
  5
40
102
{ACAD_REACTORS
330
2A
102
}
330
2A
100
AcDbVisualStyle
  2
X-Ray
 70
    25
177
     3
291
     0
 70
    58
 90
        2
176
     1
 90
        2
176
     1
 90
        1
176
     1
 90
        1
176
     1
 40
0.5
176
     1
 40
30.0
176
     1
 62
     7
420
 16777215
176
     1
 90
        1
176
     1
 90
        0
176
     1
 62
     7
176
     1
 62
   257
176
     1
 90
        1
176
     1
 90
        1
176
     1
 40
1.0
176
     1
 90
        8
176
     1
 62
     7
176
     1
 40
1.0
176
     1
 90
        1
176
     1
 90
        6
176
     1
 90
        2
176
     1
 62
     7
176
     1
 90
        3
176
     1
 90
        0
176
     1
 90
        0
176
     1
290
     0
176
     1
 90
       13
176
     1
 40
0.0
176
     1
 90
        0
176
     1
290
     0
176
     1
290
     1
176
     1
290
     1
176
     1
290
     0
176
     1
290
     0
176
     1
290
     0
176
     1
290
     0
176
     1
290
     0
176
     1
290
     0
176
     1
 90
       50
176
     1
 40
0.0
176
     1
 40
1.0
176
     1
 90
        0
176
     1
 62
    18
420
        0
176
     1
 90
       50
176
     1
 90
        3
176
     1
 62
     5
420
      255
176
     1
290
     0
176
     1
 90
       50
176
     1
 90
       50
176
     1
 90
       50
176
     1
290
     0
176
     1
 90
       50
176
     1
 62
   256
176
     0
 40
1.0
176
     0
 90
        2
176
     1
  1
strokes_ogs.tif
176
     1
290
     0
176
     1
 40
1.0
176
     1
 40
1.0
176
     1
  0
DICTIONARYVAR
  5
184
102
{ACAD_REACTORS
330
183
102
}
330
183
100
DictionaryVariables
280
     0
  1
1:1
  0
DICTIONARYVAR
  5
189
102
{ACAD_REACTORS
330
183
102
}
330
183
100
DictionaryVariables
280
     0
  1
Standard
  0
DICTIONARYVAR
  5
188
102
{ACAD_REACTORS
330
183
102
}
330
183
100
DictionaryVariables
280
     0
  1
Standard
  0
DICTIONARY
  5
185
330
6A
100
AcDbDictionary
280
     1
281
     1
  3
ACAD_ROUNDTRIP_2008_TABLESTYLE_CELLSTYLEMAP
360
186
  0
CELLSTYLEMAP
  5
186
102
{ACAD_REACTORS
330
185
102
}
330
185
100
AcDbCellStyleMap
 90
        3
300
CELLSTYLE
  1
TABLEFORMAT_BEGIN
 90
        5
170
     1
 91
        0
 92
    32768
 62
   257
 93
        1
300
CONTENTFORMAT
  1
CONTENTFORMAT_BEGIN
 90
        0
 91
        0
 92
        4
 93
        0
300

 40
0.0
140
1.0
 94
        5
 62
     0
340
11
144
6.0
309
CONTENTFORMAT_END
171
     1
301
MARGIN
  1
CELLMARGIN_BEGIN
 40
1.5
 40
1.5
 40
1.5
 40
1.5
 40
1.5
 40
1.5
309
CELLMARGIN_END
 94
        6
 95
        1
302
GRIDFORMAT
  1
GRIDFORMAT_BEGIN
 90
        0
 91
        1
 62
     0
 92
       -2
340
14
 93
        0
 40
0.045
309
GRIDFORMAT_END
 95
        2
302
GRIDFORMAT
  1
GRIDFORMAT_BEGIN
 90
        0
 91
        1
 62
     0
 92
       -2
340
14
 93
        0
 40
0.045
309
GRIDFORMAT_END
 95
        4
302
GRIDFORMAT
  1
GRIDFORMAT_BEGIN
 90
        0
 91
        1
 62
     0
 92
       -2
340
14
 93
        0
 40
0.045
309
GRIDFORMAT_END
 95
        8
302
GRIDFORMAT
  1
GRIDFORMAT_BEGIN
 90
        0
 91
        1
 62
     0
 92
       -2
340
14
 93
        0
 40
0.045
309
GRIDFORMAT_END
 95
       16
302
GRIDFORMAT
  1
GRIDFORMAT_BEGIN
 90
        0
 91
        1
 62
     0
 92
       -2
340
14
 93
        0
 40
0.045
309
GRIDFORMAT_END
 95
       32
302
GRIDFORMAT
  1
GRIDFORMAT_BEGIN
 90
        0
 91
        1
 62
     0
 92
       -2
340
14
 93
        0
 40
0.045
309
GRIDFORMAT_END
309
TABLEFORMAT_END
  1
CELLSTYLE_BEGIN
 90
        1
 91
        1
300
_TITLE
309
CELLSTYLE_END
300
CELLSTYLE
  1
TABLEFORMAT_BEGIN
 90
        5
170
     1
 91
        0
 92
        0
 62
   257
 93
        1
300
CONTENTFORMAT
  1
CONTENTFORMAT_BEGIN
 90
        0
 91
        0
 92
        4
 93
        0
300

 40
0.0
140
1.0
 94
        5
 62
     0
340
11
144
4.5
309
CONTENTFORMAT_END
171
     1
301
MARGIN
  1
CELLMARGIN_BEGIN
 40
1.5
 40
1.5
 40
1.5
 40
1.5
 40
1.5
 40
1.5
309
CELLMARGIN_END
 94
        6
 95
        1
302
GRIDFORMAT
  1
GRIDFORMAT_BEGIN
 90
        0
 91
        1
 62
     0
 92
       -2
340
14
 93
        0
 40
0.045
309
GRIDFORMAT_END
 95
        2
302
GRIDFORMAT
  1
GRIDFORMAT_BEGIN
 90
        0
 91
        1
 62
     0
 92
       -2
340
14
 93
        0
 40
0.045
309
GRIDFORMAT_END
 95
        4
302
GRIDFORMAT
  1
GRIDFORMAT_BEGIN
 90
        0
 91
        1
 62
     0
 92
       -2
340
14
 93
        0
 40
0.045
309
GRIDFORMAT_END
 95
        8
302
GRIDFORMAT
  1
GRIDFORMAT_BEGIN
 90
        0
 91
        1
 62
     0
 92
       -2
340
14
 93
        0
 40
0.045
309
GRIDFORMAT_END
 95
       16
302
GRIDFORMAT
  1
GRIDFORMAT_BEGIN
 90
        0
 91
        1
 62
     0
 92
       -2
340
14
 93
        0
 40
0.045
309
GRIDFORMAT_END
 95
       32
302
GRIDFORMAT
  1
GRIDFORMAT_BEGIN
 90
        0
 91
        1
 62
     0
 92
       -2
340
14
 93
        0
 40
0.045
309
GRIDFORMAT_END
309
TABLEFORMAT_END
  1
CELLSTYLE_BEGIN
 90
        2
 91
        1
300
_HEADER
309
CELLSTYLE_END
300
CELLSTYLE
  1
TABLEFORMAT_BEGIN
 90
        5
170
     1
 91
        0
 92
        0
 62
   257
 93
        1
300
CONTENTFORMAT
  1
CONTENTFORMAT_BEGIN
 90
        0
 91
        0
 92
        4
 93
        0
300

 40
0.0
140
1.0
 94
        2
 62
     0
340
11
144
4.5
309
CONTENTFORMAT_END
171
     1
301
MARGIN
  1
CELLMARGIN_BEGIN
 40
1.5
 40
1.5
 40
1.5
 40
1.5
 40
1.5
 40
1.5
309
CELLMARGIN_END
 94
        6
 95
        1
302
GRIDFORMAT
  1
GRIDFORMAT_BEGIN
 90
        0
 91
        1
 62
     0
 92
       -2
340
14
 93
        0
 40
0.045
309
GRIDFORMAT_END
 95
        2
302
GRIDFORMAT
  1
GRIDFORMAT_BEGIN
 90
        0
 91
        1
 62
     0
 92
       -2
340
14
 93
        0
 40
0.045
309
GRIDFORMAT_END
 95
        4
302
GRIDFORMAT
  1
GRIDFORMAT_BEGIN
 90
        0
 91
        1
 62
     0
 92
       -2
340
14
 93
        0
 40
0.045
309
GRIDFORMAT_END
 95
        8
302
GRIDFORMAT
  1
GRIDFORMAT_BEGIN
 90
        0
 91
        1
 62
     0
 92
       -2
340
14
 93
        0
 40
0.045
309
GRIDFORMAT_END
 95
       16
302
GRIDFORMAT
  1
GRIDFORMAT_BEGIN
 90
        0
 91
        1
 62
     0
 92
       -2
340
14
 93
        0
 40
0.045
309
GRIDFORMAT_END
 95
       32
302
GRIDFORMAT
  1
GRIDFORMAT_BEGIN
 90
        0
 91
        1
 62
     0
 92
       -2
340
14
 93
        0
 40
0.045
309
GRIDFORMAT_END
309
TABLEFORMAT_END
  1
CELLSTYLE_BEGIN
 90
        3
 91
        2
300
_DATA
309
CELLSTYLE_END
  0
ENDSEC
  0
EOF
