  0
SECTION
  2
HEADER
  9
$ACADVER
  1
AC1027
  9
$ACADMAINTVER
 70
   105
  9
$DWGCODEPAGE
  3
ANSI_1252
  9
$REQUIREDVERSIONS
160
                 0
  9
$INSBASE
 10
0.0
 20
0.0
 30
0.0
  9
$EXTMIN
 10
-417.7905297708
 20
-295.0
 30
0.0
  9
$EXTMAX
 10
417.7905297708
 20
90.0
 30
0.0
  9
$LIMMIN
 10
0.0
 20
0.0
  9
$LIMMAX
 10
420.0
 20
297.0
  9
$ORTHOMODE
 70
     0
  9
$REGENMODE
 70
     1
  9
$FILLMODE
 70
     1
  9
$QTEXTMODE
 70
     0
  9
$MIRRTEXT
 70
     1
  9
$LTSCALE
 40
1.0
  9
$ATTMODE
 70
     1
  9
$TEXTSIZE
 40
3.5
  9
$TRACEWID
 40
1.0
  9
$TEXTSTYLE
  7
STANDARD
  9
$CLAYER
  8
0
  9
$CELTYPE
  6
ByLayer
  9
$CECOLOR
 62
   256
  9
$CELTSCALE
 40
1.0
  9
$DISPSILH
 70
     0
  9
$DIMSCALE
 40
1.0
  9
$DIMASZ
 40
8.0
  9
$DIMEXO
 40
1.0
  9
$DIMDLI
 40
3.75
  9
$DIMRND
 40
0.0
  9
$DIMDLE
 40
0.0
  9
$DIMEXE
 40
1.0
  9
$DIMTP
 40
0.0
  9
$DIMTM
 40
0.0
  9
$DIMTXT
 40
16.9333333333
  9
$DIMCEN
 40
2.5
  9
$DIMTSZ
 40
0.0
  9
$DIMTOL
 70
     0
  9
$DIMLIM
 70
     0
  9
$DIMTIH
 70
     1
  9
$DIMTOH
 70
     1
  9
$DIMSE1
 70
     0
  9
$DIMSE2
 70
     0
  9
$DIMTAD
 70
     1
  9
$DIMZIN
 70
     0
  9
$DIMBLK
  1

  9
$DIMASO
 70
     1
  9
$DIMSHO
 70
     1
  9
$DIMPOST
  1

  9
$DIMAPOST
  1

  9
$DIMALT
 70
     0
  9
$DIMALTD
 70
     3
  9
$DIMALTF
 40
0.0393700787
  9
$DIMLFAC
 40
1.0
  9
$DIMTOFL
 70
     1
  9
$DIMTVP
 40
0.0
  9
$DIMTIX
 70
     0
  9
$DIMSOXD
 70
     0
  9
$DIMSAH
 70
     0
  9
$DIMBLK1
  1

  9
$DIMBLK2
  1

  9
$DIMSTYLE
  2
ISO-25
  9
$DIMCLRD
 70
     0
  9
$DIMCLRE
 70
     0
  9
$DIMCLRT
 70
     0
  9
$DIMTFAC
 40
1.0
  9
$DIMGAP
 40
1.524
  9
$DIMJUST
 70
     0
  9
$DIMSD1
 70
     0
  9
$DIMSD2
 70
     0
  9
$DIMTOLJ
 70
     0
  9
$DIMTZIN
 70
     0
  9
$DIMALTZ
 70
     0
  9
$DIMALTTZ
 70
     0
  9
$DIMUPT
 70
     0
  9
$DIMDEC
 70
     2
  9
$DIMTDEC
 70
     2
  9
$DIMALTU
 70
     2
  9
$DIMALTTD
 70
     3
  9
$DIMTXSTY
  7
STANDARD
  9
$DIMAUNIT
 70
     0
  9
$DIMADEC
 70
     2
  9
$DIMALTRND
 40
0.0
  9
$DIMAZIN
 70
     0
  9
$DIMDSEP
 70
    44
  9
$DIMATFIT
 70
     3
  9
$DIMFRAC
 70
     0
  9
$DIMLDRBLK
  1

  9
$DIMLUNIT
 70
     2
  9
$DIMLWD
 70
    -2
  9
$DIMLWE
 70
    -2
  9
$DIMTMOVE
 70
     0
  9
$DIMFXL
 40
1.0
  9
$DIMFXLON
 70
     0
  9
$DIMJOGANG
 40
0.7853981634
  9
$DIMTFILL
 70
     0
  9
$DIMTFILLCLR
 70
     0
  9
$DIMARCSYM
 70
     0
  9
$DIMLTYPE
  6

  9
$DIMLTEX1
  6

  9
$DIMLTEX2
  6

  9
$DIMTXTDIRECTION
 70
     0
  9
$LUNITS
 70
     2
  9
$LUPREC
 70
     2
  9
$SKETCHINC
 40
1.0
  9
$FILLETRAD
 40
10.0
  9
$AUNITS
 70
     0
  9
$AUPREC
 70
     2
  9
$MENU
  1
.
  9
$ELEVATION
 40
0.0
  9
$PELEVATION
 40
0.0
  9
$THICKNESS
 40
0.0
  9
$LIMCHECK
 70
     0
  9
$CHAMFERA
 40
0.0
  9
$CHAMFERB
 40
0.0
  9
$CHAMFERC
 40
0.0
  9
$CHAMFERD
 40
0.0
  9
$SKPOLY
 70
     0
  9
$TDCREATE
 40
2458236.50525507
  9
$TDUCREATE
 40
2458236.421921736
  9
$TDUPDATE
 40
2458236.505282361
  9
$TDUUPDATE
 40
2458236.421949028
  9
$TDINDWG
 40
0.0000000116
  9
$TDUSRTIMER
 40
0.0000000116
  9
$USRTIMER
 70
     1
  9
$ANGBASE
 50
0.0
  9
$ANGDIR
 70
     0
  9
$PDMODE
 70
     0
  9
$PDSIZE
 40
-1.0
  9
$PLINEWID
 40
0.0
  9
$SPLFRAME
 70
     0
  9
$SPLINETYPE
 70
     6
  9
$SPLINESEGS
 70
     8
  9
$HANDSEED
  5
1AE
  9
$SURFTAB1
 70
     6
  9
$SURFTAB2
 70
     6
  9
$SURFTYPE
 70
     6
  9
$SURFU
 70
     6
  9
$SURFV
 70
     6
  9
$UCSBASE
  2

  9
$UCSNAME
  2

  9
$UCSORG
 10
0.0
 20
0.0
 30
0.0
  9
$UCSXDIR
 10
1.0
 20
0.0
 30
0.0
  9
$UCSYDIR
 10
0.0
 20
1.0
 30
0.0
  9
$UCSORTHOREF
  2

  9
$UCSORTHOVIEW
 70
     0
  9
$UCSORGTOP
 10
0.0
 20
0.0
 30
0.0
  9
$UCSORGBOTTOM
 10
0.0
 20
0.0
 30
0.0
  9
$UCSORGLEFT
 10
0.0
 20
0.0
 30
0.0
  9
$UCSORGRIGHT
 10
0.0
 20
0.0
 30
0.0
  9
$UCSORGFRONT
 10
0.0
 20
0.0
 30
0.0
  9
$UCSORGBACK
 10
0.0
 20
0.0
 30
0.0
  9
$PUCSBASE
  2

  9
$PUCSNAME
  2

  9
$PUCSORG
 10
0.0
 20
0.0
 30
0.0
  9
$PUCSXDIR
 10
1.0
 20
0.0
 30
0.0
  9
$PUCSYDIR
 10
0.0
 20
1.0
 30
0.0
  9
$PUCSORTHOREF
  2

  9
$PUCSORTHOVIEW
 70
     0
  9
$PUCSORGTOP
 10
0.0
 20
0.0
 30
0.0
  9
$PUCSORGBOTTOM
 10
0.0
 20
0.0
 30
0.0
  9
$PUCSORGLEFT
 10
0.0
 20
0.0
 30
0.0
  9
$PUCSORGRIGHT
 10
0.0
 20
0.0
 30
0.0
  9
$PUCSORGFRONT
 10
0.0
 20
0.0
 30
0.0
  9
$PUCSORGBACK
 10
0.0
 20
0.0
 30
0.0
  9
$USERI1
 70
     0
  9
$USERI2
 70
     0
  9
$USERI3
 70
     0
  9
$USERI4
 70
     0
  9
$USERI5
 70
     0
  9
$USERR1
 40
0.0
  9
$USERR2
 40
0.0
  9
$USERR3
 40
0.0
  9
$USERR4
 40
0.0
  9
$USERR5
 40
0.0
  9
$WORLDVIEW
 70
     1
  9
$SHADEDGE
 70
     3
  9
$SHADEDIF
 70
    70
  9
$TILEMODE
 70
     1
  9
$MAXACTVP
 70
    64
  9
$PINSBASE
 10
0.0
 20
0.0
 30
0.0
  9
$PLIMCHECK
 70
     0
  9
$PEXTMIN
 10
-417.7905297708
 20
-165.0
 30
0.0
  9
$PEXTMAX
 10
417.7905297709
 20
0.0
 30
0.0
  9
$PLIMMIN
 10
-482.8162931593
 20
-189.3846612707
  9
$PLIMMAX
 10
482.8162931593
 20
493.3858543081
  9
$UNITMODE
 70
     0
  9
$VISRETAIN
 70
     1
  9
$PLINEGEN
 70
     0
  9
$PSLTSCALE
 70
     1
  9
$TREEDEPTH
 70
  3020
  9
$CMLSTYLE
  2
Standard
  9
$CMLJUST
 70
     0
  9
$CMLSCALE
 40
20.0
  9
$PROXYGRAPHICS
 70
     1
  9
$MEASUREMENT
 70
     1
  9
$CELWEIGHT
370
    -1
  9
$ENDCAPS
280
     0
  9
$JOINSTYLE
280
     0
  9
$LWDISPLAY
290
     1
  9
$INSUNITS
 70
     4
  9
$HYPERLINKBASE
  1

  9
$STYLESHEET
  1

  9
$XEDIT
290
     1
  9
$CEPSNTYPE
380
     0
  9
$PSTYLEMODE
290
     1
  9
$FINGERPRINTGUID
  2
{BE44A3D2-8450-4506-912B-CAB2C017029F}
  9
$VERSIONGUID
  2
{FAEB1C32-E019-11D5-929B-00C0DF256EC4}
  9
$EXTNAMES
290
     1
  9
$PSVPSCALE
 40
0.0
  9
$OLESTARTUP
290
     0
  9
$SORTENTS
280
   127
  9
$INDEXCTL
280
     0
  9
$HIDETEXT
280
     1
  9
$XCLIPFRAME
280
     2
  9
$HALOGAP
280
     0
  9
$OBSCOLOR
 70
   257
  9
$OBSLTYPE
280
     0
  9
$INTERSECTIONDISPLAY
280
     0
  9
$INTERSECTIONCOLOR
 70
   257
  9
$DIMASSOC
280
     2
  9
$PROJECTNAME
  1

  9
$CAMERADISPLAY
290
     0
  9
$LENSLENGTH
 40
50.0
  9
$CAMERAHEIGHT
 40
0.0
  9
$STEPSPERSEC
 40
2.0
  9
$STEPSIZE
 40
6.0
  9
$3DDWFPREC
 40
2.0
  9
$PSOLWIDTH
 40
5.0
  9
$PSOLHEIGHT
 40
80.0
  9
$LOFTANG1
 40
1.5707963268
  9
$LOFTANG2
 40
1.5707963268
  9
$LOFTMAG1
 40
0.0
  9
$LOFTMAG2
 40
0.0
  9
$LOFTPARAM
 70
     7
  9
$LOFTNORMALS
280
     1
  9
$LATITUDE
 40
37.795
  9
$LONGITUDE
 40
-122.394
  9
$NORTHDIRECTION
 40
0.0
  9
$TIMEZONE
 70
 -8000
  9
$LIGHTGLYPHDISPLAY
280
     1
  9
$TILEMODELIGHTSYNCH
280
     1
  9
$CMATERIAL
347
44
  9
$SOLIDHIST
280
     0
  9
$SHOWHIST
280
     1
  9
$DWFFRAME
280
     2
  9
$DGNFRAME
280
     2
  9
$REALWORLDSCALE
290
     1
  9
$INTERFERECOLOR
 62
   256
  9
$CSHADOW
280
     0
  9
$SHADOWPLANELOCATION
 40
0.0
  0
ENDSEC
  0
SECTION
  2
CLASSES
  0
CLASS
  1
ACDBDICTIONARYWDFLT
  2
AcDbDictionaryWithDefault
  3
ObjectDBX Classes
 90
        0
 91
        4
280
     0
281
     0
  0
CLASS
  1
VISUALSTYLE
  2
AcDbVisualStyle
  3
ObjectDBX Classes
 90
     4095
 91
        4
280
     0
281
     0
  0
CLASS
  1
MATERIAL
  2
AcDbMaterial
  3
ObjectDBX Classes
 90
     1153
 91
        4
280
     0
281
     0
  0
CLASS
  1
SCALE
  2
AcDbScale
  3
ObjectDBX Classes
 90
     1153
 91
        4
280
     0
281
     0
  0
CLASS
  1
TABLESTYLE
  2
AcDbTableStyle
  3
ObjectDBX Classes
 90
     4095
 91
        4
280
     0
281
     0
  0
CLASS
  1
MLEADERSTYLE
  2
AcDbMLeaderStyle
  3
ACDB_MLEADERSTYLE_CLASS
 90
     4095
 91
        4
280
     0
281
     0
  0
CLASS
  1
SUN
  2
AcDbSun
  3
SCENEOE
 90
     1153
 91
        4
280
     0
281
     0
  0
CLASS
  1
DICTIONARYVAR
  2
AcDbDictionaryVar
  3
ObjectDBX Classes
 90
        0
 91
        4
280
     0
281
     0
  0
CLASS
  1
CELLSTYLEMAP
  2
AcDbCellStyleMap
  3
ObjectDBX Classes
 90
     1152
 91
        4
280
     0
281
     0
  0
ENDSEC
  0
SECTION
  2
TABLES
  0
TABLE
  2
VPORT
  5
8
330
0
100
AcDbSymbolTable
 70
     1
  0
VPORT
  5
29
330
8
100
AcDbSymbolTableRecord
100
AcDbViewportTableRecord
  2
*Active
 70
     0
 10
0.0
 20
0.0
 11
1.0
 21
1.0
 12
0.0
 22
-102.5
 13
0.0
 23
0.0
 14
10.0
 24
10.0
 15
10.0
 25
10.0
 16
0.0
 26
0.0
 36
1.0
 17
0.0
 27
0.0
 37
0.0
 40
392.7
 41
2.1703404144
 42
50.0
 43
0.0
 44
0.0
 50
0.0
 51
0.0
 71
     0
 72
   100
 73
     1
 74
     3
 75
     0
 76
     0
 77
     0
 78
     0
281
     0
 65
     1
110
0.0
120
0.0
130
0.0
111
1.0
121
0.0
131
0.0
112
0.0
122
1.0
132
0.0
 79
     0
146
0.0
348
2F
 60
     3
 61
     5
292
     1
282
     1
141
0.0
142
0.0
 63
   250
361
6D
  0
ENDTAB
  0
TABLE
  2
LTYPE
  5
5
330
0
100
AcDbSymbolTable
 70
     6
  0
LTYPE
  5
14
330
5
100
AcDbSymbolTableRecord
100
AcDbLinetypeTableRecord
  2
ByBlock
 70
     0
  3

 72
    65
 73
     0
 40
0.0
  0
LTYPE
  5
15
330
5
100
AcDbSymbolTableRecord
100
AcDbLinetypeTableRecord
  2
ByLayer
 70
     0
  3

 72
    65
 73
     0
 40
0.0
  0
LTYPE
  5
16
330
5
100
AcDbSymbolTableRecord
100
AcDbLinetypeTableRecord
  2
Continuous
 70
     0
  3
Solid line
 72
    65
 73
     0
 40
0.0
  0
LTYPE
  5
6E
330
5
100
AcDbSymbolTableRecord
100
AcDbLinetypeTableRecord
  2
HIDDEN
 70
     0
  3
Hidden __ __ __ __ __ __ __ __ __ __ __ __ __ __
 72
    65
 73
     2
 40
1.905
 49
1.27
 74
     0
 49
-0.635
 74
     0
  0
LTYPE
  5
6F
330
5
100
AcDbSymbolTableRecord
100
AcDbLinetypeTableRecord
  2
PHANTOM
 70
     0
  3
Phantom ______  __  __  ______  __  __  ______
 72
    65
 73
     6
 40
12.7
 49
6.35
 74
     0
 49
-1.27
 74
     0
 49
1.27
 74
     0
 49
-1.27
 74
     0
 49
1.27
 74
     0
 49
-1.27
 74
     0
  0
LTYPE
  5
70
330
5
100
AcDbSymbolTableRecord
100
AcDbLinetypeTableRecord
  2
CENTER
 70
     0
  3
Center ____ _ ____ _ ____ _ ____ _ ____ _ ____
 72
    65
 73
     4
 40
10.16
 49
6.35
 74
     0
 49
-1.27
 74
     0
 49
1.27
 74
     0
 49
-1.27
 74
     0
  0
LTYPE
  5
71
330
5
100
AcDbSymbolTableRecord
100
AcDbLinetypeTableRecord
  2
CENTERX2
 70
     0
  3
Center (2x) ________  __  ________  __  _____
 72
    65
 73
     4
 40
20.32
 49
12.7
 74
     0
 49
-2.54
 74
     0
 49
2.54
 74
     0
 49
-2.54
 74
     0
  0
LTYPE
  5
72
330
5
100
AcDbSymbolTableRecord
100
AcDbLinetypeTableRecord
  2
DOT2
 70
     0
  3
Dot (.5x) ........................................
 72
    65
 73
     2
 40
0.635
 49
0.0
 74
     0
 49
-0.635
 74
     0
  0
ENDTAB
  0
TABLE
  2
LAYER
  5
2
330
0
100
AcDbSymbolTable
 70
     1
  0
LAYER
  5
10
330
2
100
AcDbSymbolTableRecord
100
AcDbLayerTableRecord
  2
0
 70
     0
 62
     7
  6
Continuous
370
    -3
390
F
347
46
348
0
  0
ENDTAB
  0
TABLE
  2
STYLE
  5
3
330
0
100
AcDbSymbolTable
 70
     1
  0
STYLE
  5
11
330
3
100
AcDbSymbolTableRecord
100
AcDbTextStyleTableRecord
  2
STANDARD
 70
     0
 40
0.0
 41
1.0
 50
0.0
 71
     0
 42
3.5
  3
GOTHIC.TTF
  4

1001
ACAD
1000
CENTURY GOTHIC
1071
       34
  0
ENDTAB
  0
TABLE
  2
VIEW
  5
6
330
0
100
AcDbSymbolTable
 70
     0
  0
ENDTAB
  0
TABLE
  2
UCS
  5
7
330
0
100
AcDbSymbolTable
 70
     0
  0
ENDTAB
  0
TABLE
  2
APPID
  5
9
330
0
100
AcDbSymbolTable
 70
     1
  0
APPID
  5
12
330
9
100
AcDbSymbolTableRecord
100
AcDbRegAppTableRecord
  2
ACAD
 70
     0
  0
ENDTAB
  0
TABLE
  2
DIMSTYLE
  5
A
330
0
100
AcDbSymbolTable
 70
     1
100
AcDbDimStyleTable
  0
DIMSTYLE
105
27
330
A
100
AcDbSymbolTableRecord
100
AcDbDimStyleTableRecord
  2
ISO-25
 70
     0
 41
2.5
 42
0.625
 43
3.75
 44
1.25
 73
     0
 74
     0
 77
     1
 78
     8
140
2.5
141
2.5
143
0.0393700787
147
0.625
171
     3
172
     1
178
     0
271
     2
272
     2
274
     3
278
    44
283
     0
284
     8
340
11
  0
ENDTAB
  0
TABLE
  2
BLOCK_RECORD
  5
1
330
0
100
AcDbSymbolTable
 70
     8
  0
BLOCK_RECORD
  5
1F
330
1
100
AcDbSymbolTableRecord
100
AcDbBlockTableRecord
  2
*Model_Space
340
22
 70
     0
280
     1
281
     0
  0
BLOCK_RECORD
  5
1B
330
1
100
AcDbSymbolTableRecord
100
AcDbBlockTableRecord
  2
*Paper_Space
340
1E
 70
     0
280
     1
281
     0
  0
BLOCK_RECORD
  5
23
330
1
100
AcDbSymbolTableRecord
100
AcDbBlockTableRecord
  2
*Paper_Space0
340
26
 70
     0
280
     1
281
     0
  0
BLOCK_RECORD
  5
B7
330
1
100
AcDbSymbolTableRecord
100
AcDbBlockTableRecord
  2
*Paper_Space1
340
B8
 70
     0
280
     1
281
     0
  0
BLOCK_RECORD
  5
CF
330
1
100
AcDbSymbolTableRecord
100
AcDbBlockTableRecord
  2
*Paper_Space2
340
D0
 70
     0
280
     1
281
     0
  0
BLOCK_RECORD
  5
E7
330
1
100
AcDbSymbolTableRecord
100
AcDbBlockTableRecord
  2
*Paper_Space3
340
E8
 70
     0
280
     1
281
     0
  0
BLOCK_RECORD
  5
105
330
1
100
AcDbSymbolTableRecord
100
AcDbBlockTableRecord
  2
*Paper_Space4
340
106
 70
     0
280
     1
281
     0
  0
BLOCK_RECORD
  5
11C
330
1
100
AcDbSymbolTableRecord
100
AcDbBlockTableRecord
  2
*Paper_Space5
340
11D
 70
     0
280
     1
281
     0
  0
BLOCK_RECORD
  5
143
330
1
100
AcDbSymbolTableRecord
100
AcDbBlockTableRecord
  2
*Paper_Space6
340
144
 70
     0
280
     1
281
     0
  0
BLOCK_RECORD
  5
16C
330
1
100
AcDbSymbolTableRecord
100
AcDbBlockTableRecord
  2
*Paper_Space7
340
16D
 70
     0
280
     1
281
     0
  0
ENDTAB
  0
ENDSEC
  0
SECTION
  2
BLOCKS
  0
BLOCK
  5
20
330
1F
100
AcDbEntity
  8
0
100
AcDbBlockBegin
  2
*Model_Space
 70
     0
 10
0.0
 20
0.0
 30
0.0
  3
*Model_Space
  1

  0
ENDBLK
  5
21
330
1F
100
AcDbEntity
  8
0
100
AcDbBlockEnd
  0
BLOCK
  5
1C
330
1B
100
AcDbEntity
 67
     1
  8
0
100
AcDbBlockBegin
  2
*Paper_Space
 70
     0
 10
0.0
 20
0.0
 30
0.0
  3
*Paper_Space
  1

  0
ENDBLK
  5
1D
330
1B
100
AcDbEntity
 67
     1
  8
0
100
AcDbBlockEnd
  0
BLOCK
  5
24
330
23
100
AcDbEntity
  8
0
100
AcDbBlockBegin
  2
*Paper_Space0
 70
     0
 10
0.0
 20
0.0
 30
0.0
  3
*Paper_Space0
  1

  0
SPLINE
  5
A7
330
23
100
AcDbEntity
  8
0
  6
Continuous
 62
     7
370
    25
100
AcDbSpline
210
0.0
220
0.0
230
1.0
 70
     8
 71
     3
 72
    26
 73
    22
 74
     0
 42
0.000000001
 43
0.00000001
 40
0.0
 40
0.0
 40
0.0
 40
0.0
 40
0.0529276976069219
 40
0.1073902027124917
 40
0.1603169319302819
 40
0.2147780945497097
 40
0.2677089951264447
 40
0.3221751030619917
 40
0.375103292266284
 40
0.4295665669506835
 40
0.4824907971073413
 40
0.5369497663453672
 40
0.5898769803279977
 40
0.6443394429687911
 40
0.6972602622903613
 40
0.7517153740389264
 40
0.8046431113537315
 40
0.8591057661648038
 40
0.9120317504732138
 40
0.966492161826657
 40
1.0
 40
1.0
 40
1.0
 40
1.0
 10
-38.71320343559464
 20
-149.9999999999994
 30
0.0
 10
-38.60981517941564
 20
-149.9998251895424
 30
0.0
 10
-38.40004059462998
 20
-149.9994704994414
 30
0.0
 10
-36.71207469965726
 20
-149.9966922812442
 30
0.0
 10
-34.04120739201954
 20
-149.9925574897739
 30
0.0
 10
-30.41168179570031
 20
-149.9874330860807
 30
0.0
 10
-25.88741333637301
 20
-149.9818578117875
 30
0.0
 10
-20.67067158280571
 20
-149.9765384609829
 30
0.0
 10
-14.81744859074763
 20
-149.9719915335546
 30
0.0
 10
-8.598391534220651
 20
-149.9688022687295
 30
0.0
 10
-2.077708227033098
 20
-149.9672784146302
 30
0.0
 10
4.442823042110647
 20
-149.9676161366891
 30
0.0
 10
10.89614707361622
 20
-149.9697829180568
 30
0.0
 10
16.98322817361619
 20
-149.973499702166
 30
0.0
 10
22.64097443294594
 20
-149.9784069286117
 30
0.0
 10
27.60882977060212
 20
-149.9838743792752
 30
0.0
 10
31.83166546082539
 20
-149.9893680841939
 30
0.0
 10
35.12908992929657
 20
-149.9942053367829
 30
0.0
 10
37.40982689405414
 20
-149.9978248383257
 30
0.0
 10
38.6152181966672
 20
-149.9998349046192
 30
0.0
 10
38.59622200276304
 20
-149.9998037056294
 30
0.0
 10
38.58898619444955
 20
-149.9997918216746
 30
0.0
  0
SPLINE
  5
AA
330
23
100
AcDbEntity
  8
0
  6
Continuous
 62
     7
370
    25
100
AcDbSpline
210
0.0
220
0.0
230
1.0
 70
     8
 71
     3
 72
    27
 73
    23
 74
     0
 42
0.000000001
 43
0.00000001
 40
0.0
 40
0.0
 40
0.0
 40
0.0
 40
0.0016600329022828
 40
0.0561193305789761
 40
0.1090437677696537
 40
0.1635030146983138
 40
0.2164274994159491
 40
0.2708867951364153
 40
0.3238113234885079
 40
0.3782706673267536
 40
0.431195181823356
 40
0.485654514023907
 40
0.5385789748243566
 40
0.5930382495864581
 40
0.6459626979977804
 40
0.7004219561426672
 40
0.7533464554341943
 40
0.8078057666342389
 40
0.8607302996821782
 40
0.915189649406045
 40
0.9572177470923616
 40
1.0
 40
1.0
 40
1.0
 40
1.0
 10
37.48428452704061
 20
-151.2131805423231
 30
0.0
 10
37.48950038313644
 20
-151.2131884136662
 30
0.0
 10
37.66582842584732
 20
-151.213454513516
 30
0.0
 10
37.02912984195661
 20
-151.2124878119147
 30
0.0
 10
35.48928326265293
 20
-151.2101297274615
 30
0.0
 10
32.83965611092663
 20
-151.2063687473604
 30
0.0
 10
29.26252584305014
 20
-151.2017024174769
 30
0.0
 10
24.88208412761439
 20
-151.1967857445005
 30
0.0
 10
19.75460321665037
 20
-151.1919668657535
 30
0.0
 10
14.11452623342024
 20
-151.1879887911927
 30
0.0
 10
8.020783564919407
 20
-151.1851521475099
 30
0.0
 10
1.755323973767029
 20
-151.1839226161353
 30
0.0
 10
-4.61722118243231
 20
-151.1842409992844
 30
0.0
 10
-10.80178934482667
 20
-151.1862665217695
 30
0.0
 10
-16.73466760363679
 20
-151.1896639215931
 30
0.0
 10
-22.14103168546444
 20
-151.1940993929335
 30
0.0
 10
-26.96559756451469
 20
-151.1989979859765
 30
0.0
 10
-30.98334429161212
 20
-151.203918645954
 30
0.0
 10
-34.15895308241807
 20
-151.2080895895738
 30
0.0
 10
-36.1756139796389
 20
-151.2112094434351
 30
0.0
 10
-37.30536132350956
 20
-151.2128986806981
 30
0.0
 10
-37.4347369608053
 20
-151.2131012501959
 30
0.0
 10
-37.49999999999934
 20
-151.2132034355946
 30
0.0
  0
LINE
  5
AC
330
23
100
AcDbEntity
  8
0
  6
Continuous
 62
     7
370
    25
100
AcDbLine
 10
38.5889861944
 20
-150.0
 30
0.0
 11
295.0
 21
-150.0
 31
0.0
  0
LINE
  5
AD
330
23
100
AcDbEntity
  8
0
  6
Continuous
 62
     7
370
    25
100
AcDbLine
 10
-90.0
 20
-150.0
 30
0.0
 11
-38.7132030474
 21
-150.0
 31
0.0
  0
LINE
  5
AE
330
23
100
AcDbEntity
  8
0
  6
Continuous
 62
     7
370
    25
100
AcDbLine
 10
37.5
 20
-151.2132034356
 30
0.0
 11
38.7132034356
 21
-150.0
 31
0.0
  0
LINE
  5
AF
330
23
100
AcDbEntity
  8
0
  6
Continuous
 62
     7
370
    25
100
AcDbLine
 10
-38.7132034356
 20
-150.0
 30
0.0
 11
-37.5
 21
-151.2132034356
 31
0.0
  0
LINE
  5
B0
330
23
100
AcDbEntity
  8
0
  6
Continuous
 62
     7
370
    25
100
AcDbLine
 10
-37.5
 20
-151.2132034363
 30
0.0
 11
-37.5
 21
-165.0
 31
0.0
  0
LINE
  5
B1
330
23
100
AcDbEntity
  8
0
  6
Continuous
 62
     7
370
    25
100
AcDbLine
 10
37.5
 20
-165.0
 30
0.0
 11
37.5
 21
-151.213180614
 31
0.0
  0
LINE
  5
B2
330
23
100
AcDbEntity
  8
0
  6
Continuous
 62
     7
370
    25
100
AcDbLine
 10
-90.0
 20
0.0
 30
0.0
 11
-90.0
 21
-150.0000000001
 31
0.0
  0
LINE
  5
B3
330
23
100
AcDbEntity
  8
0
  6
Continuous
 62
     7
370
    25
100
AcDbLine
 10
-90.0
 20
0.0
 30
0.0
 11
295.0
 21
0.0
 31
0.0
  0
LINE
  5
B4
330
23
100
AcDbEntity
  8
0
  6
Continuous
 62
     7
370
    25
100
AcDbLine
 10
295.0
 20
0.0
 30
0.0
 11
295.0
 21
-150.0000000001
 31
0.0
  0
LINE
  5
B5
330
23
100
AcDbEntity
  8
0
  6
Continuous
 62
     7
370
    25
100
AcDbLine
 10
-90.0
 20
-148.7491862201
 30
0.0
 11
295.0
 21
-148.7491862201
 31
0.0
  0
LINE
  5
B6
330
23
100
AcDbEntity
  8
0
  6
Continuous
 62
     7
370
    25
100
AcDbLine
 10
-37.5
 20
-165.0
 30
0.0
 11
37.5
 21
-165.0
 31
0.0
  0
VIEWPORT
  5
195
330
23
100
AcDbEntity
  8
0
100
AcDbViewport
 10
0.0
 20
0.0
 30
0.0
 40
205.6
 41
156.0
 68
     1
 69
     1
 12
0.0
 22
-102.5
 13
0.0
 23
0.0
 14
10.0
 24
10.0
 15
10.0
 25
10.0
 16
0.0
 26
0.0
 36
1.0
 17
0.0
 27
0.0
 37
0.0
 42
50.0
 43
0.0
 44
0.0
 45
646.6812168982
 50
0.0
 51
0.0
 72
   100
 90
   557152
  1

281
     0
 71
     1
 74
     0
110
0.0
120
0.0
130
0.0
111
1.0
121
0.0
131
0.0
112
0.0
122
1.0
132
0.0
 79
     0
146
0.0
170
     0
 61
     5
348
2F
292
     1
282
     1
141
0.0
142
0.0
 63
   256
361
196
  0
ENDBLK
  5
25
330
23
100
AcDbEntity
  8
0
100
AcDbBlockEnd
  0
BLOCK
  5
B9
330
B7
100
AcDbEntity
  8
0
100
AcDbBlockBegin
  2
*Paper_Space1
 70
     0
 10
0.0
 20
0.0
 30
0.0
  3
*Paper_Space1
  1

  0
SPLINE
  5
C3
330
B7
100
AcDbEntity
  8
0
  6
Continuous
 62
     7
370
    25
100
AcDbSpline
210
0.0
220
0.0
230
1.0
 70
     8
 71
     3
 72
    27
 73
    23
 74
     0
 42
0.000000001
 43
0.00000001
 40
0.0
 40
0.0
 40
0.0
 40
0.0
 40
0.0191710714169937
 40
0.0720990736604059
 40
0.1265619914132587
 40
0.1794900006990967
 40
0.2339529225116624
 40
0.2868809897933786
 40
0.3413439737002782
 40
0.3942720522466893
 40
0.448735051316626
 40
0.5016630833966436
 40
0.5561260344673313
 40
0.6090540220861128
 40
0.663516922405363
 40
0.7164449575542905
 40
0.77090790666862
 40
0.8238359854549321
 40
0.8782989826902691
 40
0.9312270476201614
 40
0.9856900332170229
 40
1.0
 40
1.0
 40
1.0
 40
1.0
 10
37.37489000207962
 20
-151.1843024919383
 30
0.0
 10
37.40871053589741
 20
-151.1842535474756
 30
0.0
 10
37.5359036961504
 20
-151.1840694758428
 30
0.0
 10
36.65622983979565
 20
-151.1853932483285
 30
0.0
 10
34.77390013271653
 20
-151.1882231293339
 30
0.0
 10
31.80938910300172
 20
-151.1923315188979
 30
0.0
 10
27.99200510329303
 20
-151.1971504506874
 30
0.0
 10
23.33638164222149
 20
-151.2020860154804
 30
0.0
 10
18.06469407971147
 20
-151.2066736156868
 30
0.0
 10
12.22950365546913
 20
-151.2103517202519
 30
0.0
 10
6.101473101245156
 20
-151.2127338695951
 30
0.0
 10
-0.2563614476997385
 20
-151.2134702857074
 30
0.0
 10
-6.54958624152968
 20
-151.2126029435676
 30
0.0
 10
-12.71331156697342
 20
-151.2100982638937
 30
0.0
 10
-18.46227963676293
 20
-151.2063769049173
 30
0.0
 10
-23.73670886240985
 20
-151.2017005503427
 30
0.0
 10
-28.29435696352158
 20
-151.1967848385804
 30
0.0
 10
-32.08084676142559
 20
-151.1919721849137
 30
0.0
 10
-34.94841966818918
 20
-151.1879679485054
 30
0.0
 10
-36.76441847173397
 20
-151.1852284958989
 30
0.0
 10
-37.57241407553987
 20
-151.1840163199682
 30
0.0
 10
-37.42791081446919
 20
-151.184225251929
 30
0.0
 10
-37.39784322547677
 20
-151.1842687255522
 30
0.0
  0
LINE
  5
C6
330
B7
100
AcDbEntity
  8
0
  6
Continuous
 62
     7
370
    25
100
AcDbLine
 10
37.4926521841
 20
-151.1914565335
 30
0.0
 11
38.7221953892
 21
-149.9601785214
 31
0.0
  0
LINE
  5
C7
330
B7
100
AcDbEntity
  8
0
  6
Continuous
 62
     7
370
    25
100
AcDbLine
 10
-38.7221953891
 20
-149.9601785214
 30
0.0
 11
-37.492652184
 21
-151.1914565335
 31
0.0
  0
LINE
  5
C8
330
B7
100
AcDbEntity
  8
0
  6
Continuous
 62
     7
370
    25
100
AcDbLine
 10
-37.5
 20
-151.1842687702
 30
0.0
 11
-37.5
 21
-165.0
 31
0.0
  0
LINE
  5
C9
330
B7
100
AcDbEntity
  8
0
  6
Continuous
 62
     7
370
    25
100
AcDbLine
 10
37.5
 20
-165.0
 30
0.0
 11
37.5
 21
-151.1843025009
 31
0.0
  0
LINE
  5
CA
330
B7
100
AcDbEntity
  8
0
  6
Continuous
 62
     7
370
    25
100
AcDbLine
 10
417.7905297708
 20
0.0
 30
0.0
 11
-417.7905297708
 21
0.0
 31
0.0
  0
LINE
  5
CB
330
B7
100
AcDbEntity
  8
0
  6
Continuous
 62
     7
370
    25
100
AcDbLine
 10
-37.5
 20
-165.0
 30
0.0
 11
37.5
 21
-165.0
 31
0.0
  0
ARC
  5
CC
330
B7
100
AcDbEntity
  8
0
  6
Continuous
 62
     7
370
    25
100
AcDbCircle
 10
-0.0000000033
 20
22905.6249992888
 30
0.0
 40
23055.62499928891
100
AcDbArc
 50
269.40317436
 51
270.59682564
  0
ARC
  5
CD
330
B7
100
AcDbEntity
  8
0
  6
Continuous
 62
     7
370
    25
100
AcDbCircle
 10
238.2529469721
 20
33.9625410619
 30
0.0
 40
182.7216402964273
100
AcDbArc
 50
270.59682564
 51
349.2881182194
  0
ARC
  5
CE
330
B7
100
AcDbEntity
  8
0
  6
Continuous
 62
     7
370
    25
100
AcDbCircle
 10
-238.2529469721
 20
33.9625410617
 30
0.0
 40
182.7216402963097
100
AcDbArc
 50
190.7118817806
 51
269.40317436
  0
VIEWPORT
  5
197
330
B7
100
AcDbEntity
  8
0
100
AcDbViewport
 10
0.0
 20
0.0
 30
0.0
 40
205.6
 41
156.0
 68
     1
 69
     1
 12
0.0
 22
-102.5
 13
0.0
 23
0.0
 14
10.0
 24
10.0
 15
10.0
 25
10.0
 16
0.0
 26
0.0
 36
1.0
 17
0.0
 27
0.0
 37
0.0
 42
50.0
 43
0.0
 44
0.0
 45
646.6812168982
 50
0.0
 51
0.0
 72
   100
 90
   557152
  1

281
     0
 71
     1
 74
     0
110
0.0
120
0.0
130
0.0
111
1.0
121
0.0
131
0.0
112
0.0
122
1.0
132
0.0
 79
     0
146
0.0
170
     0
 61
     5
348
2F
292
     1
282
     1
141
0.0
142
0.0
 63
   256
361
198
  0
ENDBLK
  5
BA
330
B7
100
AcDbEntity
  8
0
100
AcDbBlockEnd
  0
BLOCK
  5
D1
330
CF
100
AcDbEntity
  8
0
100
AcDbBlockBegin
  2
*Paper_Space2
 70
     0
 10
0.0
 20
0.0
 30
0.0
  3
*Paper_Space2
  1

  0
SPLINE
  5
DB
330
CF
100
AcDbEntity
  8
0
  6
Continuous
 62
     7
370
    25
100
AcDbSpline
210
0.0
220
0.0
230
1.0
 70
     8
 71
     3
 72
    17
 73
    13
 74
     0
 42
0.000000001
 43
0.00000001
 40
0.0
 40
0.0
 40
0.0
 40
0.0
 40
0.0887637809414902
 40
0.1793104985050995
 40
0.2851540582265912
 40
0.3940670818488911
 40
0.4999107535503326
 40
0.608823894972616
 40
0.7146676294703603
 40
0.8235808433681864
 40
0.9294245019154025
 40
1.0
 40
1.0
 40
1.0
 40
1.0
 10
0.0000070965037903
 20
-151.2132034355946
 30
0.0
 10
-1.742374913940964
 20
-151.2130944322997
 30
0.0
 10
-5.262136956131426
 20
-151.2128742362363
 30
0.0
 10
-10.74957230856777
 20
-151.2110395156088
 30
0.0
 10
-16.37017219111531
 20
-151.2077794823508
 30
0.0
 10
-21.81110985475845
 20
-151.2035926069797
 30
0.0
 10
-26.68078838728478
 20
-151.1985926049746
 30
0.0
 10
-30.74938259776263
 20
-151.1937524212141
 30
0.0
 10
-33.98976773566108
 20
-151.1893365994568
 30
0.0
 10
-36.19711505873595
 20
-151.1861168664487
 30
0.0
 10
-37.39280876890525
 20
-151.1842538295999
 30
0.0
 10
-37.3800100557716
 20
-151.1842885873104
 30
0.0
 10
-37.37489000207962
 20
-151.1843024919383
 30
0.0
  0
SPLINE
  5
DC
330
CF
100
AcDbEntity
  8
0
  6
Continuous
 62
     7
370
    25
100
AcDbSpline
210
0.0
220
0.0
230
1.0
 70
     8
 71
     3
 72
    17
 73
    13
 74
     0
 42
0.000000001
 43
0.00000001
 40
0.0
 40
0.0
 40
0.0
 40
0.0
 40
0.0772252736515781
 40
0.1861358772518417
 40
0.2919770520906102
 40
0.4008876224588688
 40
0.5067288990506233
 40
0.6156395755214564
 40
0.72148091962111
 40
0.8303916731339667
 40
0.9144417363634711
 40
0.9999999999999999
 40
0.9999999999999999
 40
0.9999999999999999
 40
0.9999999999999999
 10
37.39784322547677
 20
-151.1842687255522
 30
0.0
 10
37.38520403672864
 20
-151.1842798308158
 30
0.0
 10
37.35473983279456
 20
-151.1843065978038
 30
0.0
 10
36.07416713671154
 20
-151.1863005957418
 30
0.0
 10
33.76418723446834
 20
-151.1896546020043
 30
0.0
 10
30.48483901852868
 20
-151.1941018389113
 30
0.0
 10
26.31624010920387
 20
-151.198997316951
 30
0.0
 10
21.43890646059207
 20
-151.2039188216374
 30
0.0
 10
15.90689427137742
 20
-151.2080895411793
 30
0.0
 10
10.37702192382931
 20
-151.2112094532099
 30
0.0
 10
5.008745420771399
 20
-151.2128986784765
 30
0.0
 10
1.67945483764438
 20
-151.2131012494511
 30
0.0
 10
0.0000070965037903
 20
-151.2132034355946
 30
0.0
  0
LINE
  5
DE
330
CF
100
AcDbEntity
  8
0
  6
Continuous
 62
     7
370
    25
100
AcDbLine
 10
37.492652184
 20
-151.1914565335
 30
0.0
 11
38.7221953891
 21
-149.9601785214
 31
0.0
  0
LINE
  5
DF
330
CF
100
AcDbEntity
  8
0
  6
Continuous
 62
     7
370
    25
100
AcDbLine
 10
-38.7221953892
 20
-149.9601785214
 30
0.0
 11
-37.4926521841
 21
-151.1914565335
 31
0.0
  0
LINE
  5
E0
330
CF
100
AcDbEntity
  8
0
  6
Continuous
 62
     7
370
    25
100
AcDbLine
 10
-37.5
 20
-151.1843025009
 30
0.0
 11
-37.5
 21
-165.0
 31
0.0
  0
LINE
  5
E1
330
CF
100
AcDbEntity
  8
0
  6
Continuous
 62
     7
370
    25
100
AcDbLine
 10
37.5
 20
-165.0
 30
0.0
 11
37.5
 21
-151.1842687702
 31
0.0
  0
LINE
  5
E2
330
CF
100
AcDbEntity
  8
0
  6
Continuous
 62
     7
370
    25
100
AcDbLine
 10
-417.7905297708
 20
0.0
 30
0.0
 11
417.7905297708
 21
0.0
 31
0.0
  0
LINE
  5
E3
330
CF
100
AcDbEntity
  8
0
  6
Continuous
 62
     7
370
    25
100
AcDbLine
 10
-37.5
 20
-165.0
 30
0.0
 11
37.5
 21
-165.0
 31
0.0
  0
ARC
  5
E4
330
CF
100
AcDbEntity
  8
0
  6
Continuous
 62
     7
370
    25
100
AcDbCircle
 10
0.0000000033
 20
22905.6249992888
 30
0.0
 40
23055.62499928891
100
AcDbArc
 50
269.40317436
 51
270.59682564
  0
ARC
  5
E5
330
CF
100
AcDbEntity
  8
0
  6
Continuous
 62
     7
370
    25
100
AcDbCircle
 10
-238.2529469721
 20
33.9625410619
 30
0.0
 40
182.7216402964273
100
AcDbArc
 50
190.7118817806
 51
269.40317436
  0
ARC
  5
E6
330
CF
100
AcDbEntity
  8
0
  6
Continuous
 62
     7
370
    25
100
AcDbCircle
 10
238.2529469721
 20
33.9625410617
 30
0.0
 40
182.7216402963097
100
AcDbArc
 50
270.59682564
 51
349.2881182194
  0
VIEWPORT
  5
199
330
CF
100
AcDbEntity
  8
0
100
AcDbViewport
 10
0.0
 20
0.0
 30
0.0
 40
205.6
 41
156.0
 68
     1
 69
     1
 12
0.0
 22
-102.5
 13
0.0
 23
0.0
 14
10.0
 24
10.0
 15
10.0
 25
10.0
 16
0.0
 26
0.0
 36
1.0
 17
0.0
 27
0.0
 37
0.0
 42
50.0
 43
0.0
 44
0.0
 45
646.6812168982
 50
0.0
 51
0.0
 72
   100
 90
   557152
  1

281
     0
 71
     1
 74
     0
110
0.0
120
0.0
130
0.0
111
1.0
121
0.0
131
0.0
112
0.0
122
1.0
132
0.0
 79
     0
146
0.0
170
     0
 61
     5
348
2F
292
     1
282
     1
141
0.0
142
0.0
 63
   256
361
19A
  0
ENDBLK
  5
D2
330
CF
100
AcDbEntity
  8
0
100
AcDbBlockEnd
  0
BLOCK
  5
E9
330
E7
100
AcDbEntity
  8
0
100
AcDbBlockBegin
  2
*Paper_Space3
 70
     0
 10
0.0
 20
0.0
 30
0.0
  3
*Paper_Space3
  1

  0
SPLINE
  5
F5
330
E7
100
AcDbEntity
  8
0
  6
Continuous
 62
     7
370
    25
100
AcDbSpline
210
0.0
220
0.0
230
1.0
 70
     8
 71
     3
 72
    27
 73
    23
 74
     0
 42
0.000000001
 43
0.00000001
 40
0.0
 40
0.0
 40
0.0
 40
0.0
 40
0.0194214704693053
 40
0.073883066029221
 40
0.1268097636831699
 40
0.1812712802655295
 40
0.2341966175737164
 40
0.2886567742288918
 40
0.3415827166408305
 40
0.3960438666147308
 40
0.4489634152671285
 40
0.5034175568938039
 40
0.5563389522742568
 40
0.6107952220483255
 40
0.66371296679265
 40
0.7181649609535072
 40
0.7710880025042938
 40
0.8255458319778122
 40
0.878466207037284
 40
0.9329206719290086
 40
0.9662741023936574
 40
1.0
 40
1.0
 40
1.0
 40
1.0
 10
-38.58898619444955
 20
-149.9997918216746
 30
0.0
 10
-38.62164947746338
 20
-149.9998465375787
 30
0.0
 10
-38.74590698409541
 20
-150.0000546875623
 30
0.0
 10
-37.82453780802341
 20
-149.9985082692201
 30
0.0
 10
-35.83962385695052
 20
-149.9953095903918
 30
0.0
 10
-32.78918814399023
 20
-149.9907226865357
 30
0.0
 10
-28.79519341947734
 20
-149.9853395971224
 30
0.0
 10
-24.01839379810612
 20
-149.9798139818527
 30
0.0
 10
-18.51445041044621
 20
-149.9746897402801
 30
0.0
 10
-12.53670136398263
 20
-149.9706246419265
 30
0.0
 10
-6.147384650055668
 20
-149.9680114581326
 30
0.0
 10
0.3578410440546603
 20
-149.9671866380772
 30
0.0
 10
6.912167451924536
 20
-149.9682296662218
 30
0.0
 10
13.21194300376509
 20
-149.9710062458829
 30
0.0
 10
19.19220112063903
 20
-149.9752482161226
 30
0.0
 10
24.57619127970134
 20
-149.9804089679083
 30
0.0
 10
29.30890959281177
 20
-149.9859914893428
 30
0.0
 10
33.16959483576878
 20
-149.9912739419833
 30
0.0
 10
36.12384869493723
 20
-149.9957556414606
 30
0.0
 10
37.78398103277883
 20
-149.9984501735974
 30
0.0
 10
38.58797728964103
 20
-149.9997890520143
 30
0.0
 10
38.67130715345562
 20
-149.9999294241925
 30
0.0
 10
38.71320343559464
 20
-149.9999999999994
 30
0.0
  0
SPLINE
  5
F8
330
E7
100
AcDbEntity
  8
0
  6
Continuous
 62
     7
370
    25
100
AcDbSpline
210
0.0
220
0.0
230
1.0
 70
     8
 71
     3
 72
    26
 73
    22
 74
     0
 42
0.000000001
 43
0.00000001
 40
0.0
 40
0.0
 40
0.0
 40
0.0
 40
0.0443843666402912
 40
0.0896602513287455
 40
0.1425849838194543
 40
0.1970445338868548
 40
0.2499693223706624
 40
0.3044289313413407
 40
0.3573537512250515
 40
0.4118133964355229
 40
0.4647381783418508
 40
0.5191977853026672
 40
0.5721225234634466
 40
0.6265820824750579
 40
0.6795068276778288
 40
0.7339663907489026
 40
0.786891193943975
 40
0.8413508191055534
 40
0.894275633564626
 40
0.9487352738883064
 40
1.0
 40
1.0
 40
1.0
 40
1.0
 10
37.49999999999934
 20
-151.2132034355946
 30
0.0
 10
37.42960932279352
 20
-151.213094433246
 30
0.0
 10
37.28741407957592
 20
-151.212874239094
 30
0.0
 10
36.07137072163716
 20
-151.2110395030843
 30
0.0
 10
33.93949558948972
 20
-151.2077795389163
 30
0.0
 10
30.72245060674172
 20
-151.2035923927234
 30
0.0
 10
26.60503639943862
 20
-151.198593388015
 30
0.0
 10
21.77164356664334
 20
-151.1937494377771
 30
0.0
 10
16.27376855344064
 20
-151.1893475073853
 30
0.0
 10
10.3655315002887
 20
-151.1860753052548
 30
0.0
 10
4.107949657806531
 20
-151.1841554640086
 30
0.0
 10
-2.209264141568565
 20
-151.1839563230799
 30
0.0
 10
-8.52098240582716
 20
-151.1853232275791
 30
0.0
 10
-14.53499390944681
 20
-151.1882415334277
 30
0.0
 10
-20.18917176397174
 20
-151.1923263877215
 30
0.0
 10
-25.22224778437318
 20
-151.1971521711237
 30
0.0
 10
-29.58034545842514
 20
-151.2020841871825
 30
0.0
 10
-33.06912753462929
 20
-151.2066793019051
 30
0.0
 10
-35.62474778200822
 20
-151.2103312507774
 30
0.0
 10
-37.21609784781613
 20
-151.2127860837548
 30
0.0
 10
-37.39670827295705
 20
-151.2130517320335
 30
0.0
 10
-37.48428452704059
 20
-151.213180542323
 30
0.0
  0
LINE
  5
FA
330
E7
100
AcDbEntity
  8
0
  6
Continuous
 62
     7
370
    25
100
AcDbLine
 10
38.7132030474
 20
-150.0
 30
0.0
 11
90.0
 21
-150.0
 31
0.0
  0
LINE
  5
FB
330
E7
100
AcDbEntity
  8
0
  6
Continuous
 62
     7
370
    25
100
AcDbLine
 10
-295.0
 20
-150.0
 30
0.0
 11
-38.5889861944
 21
-150.0
 31
0.0
  0
LINE
  5
FC
330
E7
100
AcDbEntity
  8
0
  6
Continuous
 62
     7
370
    25
100
AcDbLine
 10
37.5
 20
-151.2132034356
 30
0.0
 11
38.7132034356
 21
-150.0
 31
0.0
  0
LINE
  5
FD
330
E7
100
AcDbEntity
  8
0
  6
Continuous
 62
     7
370
    25
100
AcDbLine
 10
-38.7132034356
 20
-150.0
 30
0.0
 11
-37.5
 21
-151.2132034356
 31
0.0
  0
LINE
  5
FE
330
E7
100
AcDbEntity
  8
0
  6
Continuous
 62
     7
370
    25
100
AcDbLine
 10
-37.5
 20
-151.213180614
 30
0.0
 11
-37.5
 21
-165.0
 31
0.0
  0
LINE
  5
FF
330
E7
100
AcDbEntity
  8
0
  6
Continuous
 62
     7
370
    25
100
AcDbLine
 10
37.5
 20
-165.0
 30
0.0
 11
37.5
 21
-151.2132034348
 31
0.0
  0
LINE
  5
100
330
E7
100
AcDbEntity
  8
0
  6
Continuous
 62
     7
370
    25
100
AcDbLine
 10
90.0
 20
-148.74918622
 30
0.0
 11
-295.0
 21
-148.74918622
 31
0.0
  0
LINE
  5
101
330
E7
100
AcDbEntity
  8
0
  6
Continuous
 62
     7
370
    25
100
AcDbLine
 10
-295.0
 20
-150.0000000001
 30
0.0
 11
-295.0
 21
0.0
 31
0.0
  0
LINE
  5
102
330
E7
100
AcDbEntity
  8
0
  6
Continuous
 62
     7
370
    25
100
AcDbLine
 10
90.0
 20
0.0
 30
0.0
 11
-295.0
 21
0.0
 31
0.0
  0
LINE
  5
103
330
E7
100
AcDbEntity
  8
0
  6
Continuous
 62
     7
370
    25
100
AcDbLine
 10
90.0
 20
-150.0000000001
 30
0.0
 11
90.0
 21
0.0
 31
0.0
  0
LINE
  5
104
330
E7
100
AcDbEntity
  8
0
  6
Continuous
 62
     7
370
    25
100
AcDbLine
 10
-37.5
 20
-165.0
 30
0.0
 11
37.5
 21
-165.0
 31
0.0
  0
VIEWPORT
  5
19B
330
E7
100
AcDbEntity
  8
0
100
AcDbViewport
 10
0.0
 20
0.0
 30
0.0
 40
205.6
 41
156.0
 68
     1
 69
     1
 12
0.0
 22
-102.5
 13
0.0
 23
0.0
 14
10.0
 24
10.0
 15
10.0
 25
10.0
 16
0.0
 26
0.0
 36
1.0
 17
0.0
 27
0.0
 37
0.0
 42
50.0
 43
0.0
 44
0.0
 45
646.6812168982
 50
0.0
 51
0.0
 72
   100
 90
   557152
  1

281
     0
 71
     1
 74
     0
110
0.0
120
0.0
130
0.0
111
1.0
121
0.0
131
0.0
112
0.0
122
1.0
132
0.0
 79
     0
146
0.0
170
     0
 61
     5
348
2F
292
     1
282
     1
141
0.0
142
0.0
 63
   256
361
19C
  0
ENDBLK
  5
EA
330
E7
100
AcDbEntity
  8
0
100
AcDbBlockEnd
  0
BLOCK
  5
107
330
105
100
AcDbEntity
  8
0
100
AcDbBlockBegin
  2
*Paper_Space4
 70
     0
 10
0.0
 20
0.0
 30
0.0
  3
*Paper_Space4
  1

  0
CIRCLE
  5
109
330
105
100
AcDbEntity
  8
0
  6
Continuous
 62
     7
370
    25
100
AcDbCircle
 10
0.0
 20
0.0
 30
0.0
 40
22.50000000000001
  0
CIRCLE
  5
10A
330
105
100
AcDbEntity
  8
0
  6
Continuous
 62
     7
370
    25
100
AcDbCircle
 10
0.0
 20
0.0
 30
0.0
 40
37.50000000000006
  0
SPLINE
  5
10B
330
105
100
AcDbEntity
  8
0
  6
Continuous
 62
     7
370
    25
100
AcDbSpline
210
0.0
220
0.0
230
1.0
 70
    11
 71
     3
 72
   132
 73
   128
 74
     0
 42
0.000000001
 43
0.00000001
 40
0.0
 40
0.0
 40
0.0
 40
0.0
 40
0.0312500000000001
 40
0.0312500000000001
 40
0.0468750000000002
 40
0.0468750000000002
 40
0.0625000000000002
 40
0.0625000000000002
 40
0.0937500000000003
 40
0.0937500000000003
 40
0.1015625000000003
 40
0.1015625000000003
 40
0.1093750000000003
 40
0.1093750000000003
 40
0.1250000000000002
 40
0.1250000000000002
 40
0.1562500000000002
 40
0.1562500000000002
 40
0.1640625000000002
 40
0.1640625000000002
 40
0.1718750000000002
 40
0.1718750000000002
 40
0.1875000000000001
 40
0.1875000000000001
 40
0.2031250000000001
 40
0.2031250000000001
 40
0.2109375000000001
 40
0.2109375000000001
 40
0.2187500000000001
 40
0.2187500000000001
 40
0.2499999999999999
 40
0.2499999999999999
 40
0.2656249999999998
 40
0.2656249999999998
 40
0.2734374999999998
 40
0.2734374999999998
 40
0.2812499999999998
 40
0.2812499999999998
 40
0.3124999999999996
 40
0.3124999999999996
 40
0.3203124999999996
 40
0.3203124999999996
 40
0.3281249999999996
 40
0.3281249999999996
 40
0.3437499999999995
 40
0.3437499999999995
 40
0.3749999999999993
 40
0.3749999999999993
 40
0.3906249999999993
 40
0.3906249999999993
 40
0.4062499999999992
 40
0.4062499999999992
 40
0.4218749999999991
 40
0.4218749999999991
 40
0.4374999999999989
 40
0.4374999999999989
 40
0.4687499999999988
 40
0.4687499999999988
 40
0.4765624999999988
 40
0.4765624999999988
 40
0.4843749999999988
 40
0.4843749999999988
 40
0.4999999999999987
 40
0.4999999999999987
 40
0.5312499999999987
 40
0.5312499999999987
 40
0.5390624999999987
 40
0.5390624999999987
 40
0.5468749999999988
 40
0.5468749999999988
 40
0.5624999999999987
 40
0.5624999999999987
 40
0.5781249999999988
 40
0.5781249999999988
 40
0.5859374999999988
 40
0.5859374999999988
 40
0.5937499999999988
 40
0.5937499999999988
 40
0.6249999999999988
 40
0.6249999999999988
 40
0.6406249999999988
 40
0.6406249999999988
 40
0.6484374999999988
 40
0.6484374999999988
 40
0.6562499999999988
 40
0.6562499999999988
 40
0.6874999999999988
 40
0.6874999999999988
 40
0.6953124999999989
 40
0.6953124999999989
 40
0.7031249999999989
 40
0.7031249999999989
 40
0.7187499999999989
 40
0.7187499999999989
 40
0.749999999999999
 40
0.749999999999999
 40
0.7578124999999991
 40
0.7578124999999991
 40
0.7656249999999991
 40
0.7656249999999991
 40
0.7812499999999992
 40
0.7812499999999992
 40
0.7968749999999992
 40
0.7968749999999992
 40
0.8124999999999993
 40
0.8124999999999993
 40
0.8437499999999994
 40
0.8437499999999994
 40
0.8593749999999994
 40
0.8593749999999994
 40
0.8749999999999996
 40
0.8749999999999996
 40
0.9062499999999997
 40
0.9062499999999997
 40
0.9140624999999997
 40
0.9140624999999997
 40
0.9218749999999997
 40
0.9218749999999997
 40
0.9374999999999998
 40
0.9374999999999998
 40
0.9531249999999998
 40
0.9531249999999998
 40
0.9609374999999999
 40
0.9609374999999999
 40
0.9687499999999999
 40
0.9687499999999999
 40
1.0
 40
1.0
 40
1.0
 40
1.0
 10
-0.0000073265652973
 20
-38.71320343559387
 30
0.0
 10
-2.557586691380396
 20
-38.71320295261016
 30
0.0
 10
-5.072434074823184
 20
-38.462274605094
 30
0.0
 10
-8.783221859484215
 20
-37.72484398657758
 30
0.0
 10
-10.00983013943954
 20
-37.41842759632966
 30
0.0
 10
-12.44192752507535
 20
-36.68158017654721
 30
0.0
 10
-13.65068323645039
 20
-36.24898029225804
 30
0.0
 10
-17.16711670897816
 20
-34.79200012977382
 30
0.0
 10
-19.39065892265967
 20
-33.60278533112623
 30
0.0
 10
-22.02089930514281
 20
-31.84704918549291
 30
0.0
 10
-22.53942208206164
 20
-31.48232209857338
 30
0.0
 10
-23.56114324491418
 20
-30.72521412983395
 30
0.0
 10
-24.06563536240377
 20
-30.33174786428095
 30
0.0
 10
-25.54550010075779
 20
-29.11744054756632
 30
0.0
 10
-26.48448208836363
 20
-28.26553191634637
 30
0.0
 10
-29.16310384369826
 20
-25.58666455500375
 30
0.0
 10
-30.76574734093403
 20
-23.63774653760478
 30
0.0
 10
-32.53467847687268
 20
-20.99295088594364
 30
0.0
 10
-32.87752197687176
 20
-20.45193065801548
 30
0.0
 10
-33.53308541406914
 20
-19.35839954503266
 30
0.0
 10
-33.84613760003083
 20
-18.80557930001843
 30
0.0
 10
-34.74209020868739
 20
-17.12935924382229
 30
0.0
 10
-35.28164044917857
 20
-15.98814000113934
 30
0.0
 10
-36.24699266200457
 20
-13.65894438572104
 30
0.0
 10
-36.67296186207106
 20
-12.471036753326
 30
0.0
 10
-37.22544690175465
 20
-10.65363162409341
 30
0.0
 10
-37.39519255741334
 20
-10.04190409146197
 30
0.0
 10
-37.7052998005471
 20
-8.806370467003429
 30
0.0
 10
-37.84585588911514
 20
-8.181240097964281
 30
0.0
 10
-38.46755144028155
 20
-5.057963466112994
 30
0.0
 10
-38.71348882932979
 20
-2.546099944723046
 30
0.0
 10
-38.71558047370489
 20
1.24101541967106
 30
0.0
 10
-38.65468803807677
 20
2.506631128880013
 30
0.0
 10
-38.46815106310487
 20
4.410068779113222
 30
0.0
 10
-38.38993401485804
 20
5.045758864960975
 30
0.0
 10
-38.20334344448766
 20
6.304692460316369
 30
0.0
 10
-38.09483355882227
 20
6.929705679732113
 30
0.0
 10
-37.4778326899422
 20
10.03297854635679
 30
0.0
 10
-36.74714405613044
 20
12.44619707835593
 30
0.0
 10
-35.5361138079992
 20
15.37558725821799
 30
0.0
 10
-35.27888213284021
 20
15.95706703445807
 30
0.0
 10
-34.73377125615865
 20
17.1110555287616
 30
0.0
 10
-34.4462605346515
 20
17.68255469731843
 30
0.0
 10
-33.54743259873924
 20
19.3649538394271
 30
0.0
 10
-32.89693209218515
 20
20.44977824105439
 30
0.0
 10
-30.79531310116624
 20
23.59659993795629
 30
0.0
 10
-29.19586720200848
 20
25.5522294004728
 30
0.0
 10
-26.48714846763217
 20
28.26369086668667
 30
0.0
 10
-25.5438734037269
 20
29.11833075031697
 30
0.0
 10
-23.58952752785392
 20
30.72286069096507
 30
0.0
 10
-22.57678360470813
 20
31.47437470065728
 30
0.0
 10
-20.48071999591102
 20
32.87670867610216
 30
0.0
 10
-19.39742198186672
 20
33.5275595618366
 30
0.0
 10
-17.1587682877299
 20
34.72645301873392
 30
0.0
 10
-15.99823330308164
 20
35.27601698158789
 30
0.0
 10
-12.47967892966141
 20
36.73475266208777
 30
0.0
 10
-10.0664765932582
 20
37.46706810494124
 30
0.0
 10
-6.966789540961656
 20
38.0864785263762
 30
0.0
 10
-6.342658391042977
 20
38.1954385421642
 30
0.0
 10
-5.085860375308236
 20
38.38298698520271
 30
0.0
 10
-4.452053379099052
 20
38.4616829216782
 30
0.0
 10
-2.545259431279232
 20
38.65056102637671
 30
0.0
 10
-1.278110345887136
 20
38.71271613308674
 30
0.0
 10
2.511594773918633
 20
38.71416948368023
 30
0.0
 10
5.022520505795651
 20
38.47021784422827
 30
0.0
 10
8.14135073413115
 20
37.85288019603961
 30
0.0
 10
8.76576906609995
 20
37.71322270794872
 30
0.0
 10
10.00385488736573
 20
37.40386989021238
 30
0.0
 10
10.61666976288571
 20
37.23449370420573
 30
0.0
 10
12.43685851146318
 20
36.68327653821524
 30
0.0
 10
13.6259159389739
 20
36.25820399468939
 30
0.0
 10
15.95604718231786
 20
35.29480510614945
 30
0.0
 10
17.09719722607708
 20
34.75665867935139
 30
0.0
 10
18.77250936186562
 20
33.86349502878721
 30
0.0
 10
19.32487867539252
 20
33.55145159592356
 30
0.0
 10
20.41725225205662
 20
32.89817998148867
 30
0.0
 10
20.95869599069311
 20
32.55594314088484
 30
0.0
 10
23.61002704075623
 20
30.78686033539461
 30
0.0
 10
25.56128876163462
 20
29.18492953368708
 30
0.0
 10
28.24120890866078
 20
26.51053633418858
 30
0.0
 10
29.09305115040315
 20
25.57349000473068
 30
0.0
 10
30.30683408304266
 20
24.09758674376967
 30
0.0
 10
30.70147453678574
 20
23.59279617978796
 30
0.0
 10
31.46092724808316
 20
22.57019337609104
 30
0.0
 10
31.82667746984466
 20
22.05134232597311
 30
0.0
 10
33.58706209079359
 20
19.42015675990355
 30
0.0
 10
34.77762748525107
 20
17.1975879306305
 30
0.0
 10
35.99346339569257
 20
14.27224709326466
 30
0.0
 10
36.22288484280057
 20
13.67975372832034
 30
0.0
 10
36.65370144971488
 20
12.47962770275934
 30
0.0
 10
36.85509093127003
 20
11.87164509899893
 30
0.0
 10
37.41056042936224
 20
10.04524714784319
 30
0.0
 10
37.71841729718772
 20
8.817704408021557
 30
0.0
 10
38.45946576151233
 20
5.106015473928943
 30
0.0
 10
38.71220636578423
 20
2.593138327143918
 30
0.0
 10
38.71553352430949
 20
-0.5977292753281682
 30
0.0
 10
38.70033579974363
 20
-1.237253342735389
 30
0.0
 10
38.6388345901459
 20
-2.507354401334122
 30
0.0
 10
38.59253889700044
 20
-3.139584487735561
 30
0.0
 10
38.40783480244188
 20
-5.027961878708645
 30
0.0
 10
38.22362165981231
 20
-6.275798541927113
 30
0.0
 10
37.73420251731658
 20
-8.749519378379992
 30
0.0
 10
37.42907069555181
 20
-9.975417010204282
 30
0.0
 10
36.6954953083303
 20
-12.4048390580736
 30
0.0
 10
36.2641833009292
 20
-13.61414287341953
 30
0.0
 10
34.80822863473409
 20
-17.13688597776561
 30
0.0
 10
33.62022193216817
 20
-19.36183298837735
 30
0.0
 10
31.51783163389193
 20
-22.51715666369811
 30
0.0
 10
30.7630488590286
 20
-23.53857677758511
 30
0.0
 10
29.14270624277968
 20
-25.5171271442145
 30
0.0
 10
28.29043992938422
 20
-26.45807629671481
 30
0.0
 10
25.61173769797607
 20
-29.14097603876425
 30
0.0
 10
23.66452916081775
 20
-30.74427694945092
 30
0.0
 10
21.02537257584665
 20
-32.51289116072961
 30
0.0
 10
20.48615840732737
 20
-32.85532961387744
 30
0.0
 10
19.39119605125173
 20
-33.51314630249566
 30
0.0
 10
18.83779218154513
 20
-33.82719385795094
 30
0.0
 10
17.1602338002218
 20
-34.72581126817003
 30
0.0
 10
16.01864004144171
 20
-35.26662383483359
 30
0.0
 10
13.68989204791392
 20
-36.23393197858252
 30
0.0
 10
12.50283627717441
 20
-36.66067461483283
 30
0.0
 10
10.68773212399541
 20
-37.21417230360868
 30
0.0
 10
10.07694830668337
 20
-37.38424631984555
 30
0.0
 10
8.843671729758558
 20
-37.69501514754486
 30
0.0
 10
8.219804111731886
 20
-37.83596810190318
 30
0.0
 10
5.088865114745689
 20
-38.46222299854246
 30
0.0
 10
2.557572038249801
 20
-38.71320391857758
 30
0.0
 10
-0.0000073265652931
 20
-38.71320343559387
 30
0.0
  0
LINE
  5
116
330
105
100
AcDbEntity
  8
0
  6
Continuous
 62
     7
370
    25
100
AcDbLine
 10
-417.7905297708
 20
-90.0
 30
0.0
 11
417.7905297708
 21
-90.0
 31
0.0
  0
LINE
  5
117
330
105
100
AcDbEntity
  8
0
  6
Continuous
 62
     7
370
    25
100
AcDbLine
 10
-240.1562457616
 20
-90.0
 30
0.0
 11
-240.1562457616
 21
295.0
 31
0.0
  0
LINE
  5
118
330
105
100
AcDbEntity
  8
0
  6
Continuous
 62
     7
370
    25
100
AcDbLine
 10
240.1562457616
 20
-90.0
 30
0.0
 11
240.1562457616
 21
295.0
 31
0.0
  0
LINE
  5
119
330
105
100
AcDbEntity
  8
0
  6
Continuous
 62
     7
370
    25
100
AcDbLine
 10
-417.7905297708
 20
295.0
 30
0.0
 11
417.7905297708
 21
295.0
 31
0.0
  0
LINE
  5
11A
330
105
100
AcDbEntity
  8
0
  6
Continuous
 62
     7
370
    25
100
AcDbLine
 10
-417.7905297708
 20
-90.0
 30
0.0
 11
-417.7905297708
 21
295.0
 31
0.0
  0
LINE
  5
11B
330
105
100
AcDbEntity
  8
0
  6
Continuous
 62
     7
370
    25
100
AcDbLine
 10
417.7905297708
 20
-90.0
 30
0.0
 11
417.7905297708
 21
295.0
 31
0.0
  0
VIEWPORT
  5
19D
330
105
100
AcDbEntity
  8
0
100
AcDbViewport
 10
0.0
 20
0.0
 30
0.0
 40
205.6
 41
156.0
 68
     1
 69
     1
 12
0.0
 22
-102.5
 13
0.0
 23
0.0
 14
10.0
 24
10.0
 15
10.0
 25
10.0
 16
0.0
 26
0.0
 36
1.0
 17
0.0
 27
0.0
 37
0.0
 42
50.0
 43
0.0
 44
0.0
 45
646.6812168982
 50
0.0
 51
0.0
 72
   100
 90
   557152
  1

281
     0
 71
     1
 74
     0
110
0.0
120
0.0
130
0.0
111
1.0
121
0.0
131
0.0
112
0.0
122
1.0
132
0.0
 79
     0
146
0.0
170
     0
 61
     5
348
2F
292
     1
282
     1
141
0.0
142
0.0
 63
   256
361
19E
  0
ENDBLK
  5
108
330
105
100
AcDbEntity
  8
0
100
AcDbBlockEnd
  0
BLOCK
  5
11E
330
11C
100
AcDbEntity
  8
0
100
AcDbBlockBegin
  2
*Paper_Space5
 70
     0
 10
0.0
 20
0.0
 30
0.0
  3
*Paper_Space5
  1

  0
LWPOLYLINE
  5
121
330
11C
100
AcDbEntity
  8
0
  6
Continuous
 62
     7
370
    25
100
AcDbPolyline
 90
       15
 70
   128
 43
0.0
 10
323.4632802436
 20
-191.0315221135
 10
325.5020728736
 20
-189.8008137124
 10
329.3647366587
 20
-187.15308001
 10
333.0365360384
 20
-184.2023974416
 10
336.5102650399
 20
-180.9545567751
 10
339.7791064073
 20
-177.4159319564
 10
342.8366449803
 20
-173.5934676008
 10
345.6768802841
 20
-169.4946653637
 10
348.2942383056
 20
-165.1275692186
 10
350.6835824323
 20
-160.5007496707
 10
352.8402235332
 20
-155.6232869369
 10
354.7599291612
 20
-150.5047531261
 10
356.4389318592
 20
-145.1551934535
 10
357.8739365541
 20
-139.5851065266
 10
359.0621270233
 20
-133.8054237418
  0
LWPOLYLINE
  5
122
330
11C
100
AcDbEntity
  8
0
  6
Continuous
 62
     7
370
    25
100
AcDbPolyline
 90
       32
 70
   128
 43
0.0
 10
-38.7803905277
 20
-339.9127313496
 10
-33.0596605411
 20
-343.0000117187
 10
-27.352798817
 20
-345.7869173189
 10
-21.6710051747
 20
-348.2679787977
 10
-16.025430237
 20
-350.4383270271
 10
-10.4271535469
 20
-352.2937026593
 10
-4.8871618234
 20
-353.8304644862
 10
0.5836725994
 20
-355.0455965848
 10
5.97461311
 20
-355.9367142366
 10
11.2750798902
 20
-356.5020686069
 10
16.4746706782
 20
-356.7405501776
 10
21.5631811829
 20
-356.6516909243
 10
26.5306251105
 20
-356.2356652348
 10
31.3672537625
 20
-355.4932895672
 10
36.0635751676
 20
-354.4260208471
 10
40.6103727103
 20
-353.0359536087
 10
44.998723218
 20
-351.325815884
 10
49.2200144737
 20
-349.2989638492
 10
53.2659621168
 20
-346.9593752382
 10
57.1286259019
 20
-344.3116415359
 10
60.8004252816
 20
-341.3609589675
 10
64.2741542831
 20
-338.1131183009
 10
67.5429956505
 20
-334.5744934823
 10
70.6005342234
 20
-330.7520291267
 10
73.4407695272
 20
-326.6532268896
 10
76.0581275487
 20
-322.2861307445
 10
78.4474716755
 20
-317.6593111966
 10
80.6041127764
 20
-312.7818484628
 10
82.5238184044
 20
-307.663314652
 10
84.2028211024
 20
-302.3137549794
 10
85.6378257973
 20
-296.7436680525
 10
86.8260162665
 20
-290.9639852677
  0
LWPOLYLINE
  5
12C
330
11C
100
AcDbEntity
  8
0
  6
Continuous
 62
     7
370
    25
100
AcDbPolyline
 90
       32
 70
   128
 43
0.0
 10
-504.0190171665
 20
50.12359228
 10
-502.8308266974
 20
42.9720539803
 10
-501.3958220025
 20
35.7451458991
 10
-499.7168193045
 20
28.4570509742
 10
-497.7971136765
 20
21.1220722237
 10
-495.6404725756
 20
13.754604676
 10
-493.2511284488
 20
6.3691071194
 10
-490.6337704273
 20
-1.0199262735
 10
-487.7935351235
 20
-8.3979943913
 10
-484.7359965506
 20
-15.7506176416
 10
-481.4671551832
 20
-23.0633663686
 10
-477.9934261817
 20
-30.3218891705
 10
-474.321626802
 20
-37.5119410652
 10
-470.4589630169
 20
-44.6194114457
 10
-466.4130153738
 20
-51.6303517729
 10
-462.1917241181
 20
-58.5310029497
 10
-457.8033736104
 20
-65.3078223233
 10
-453.2565760677
 20
-71.9475102631
 10
-448.5602546626
 20
-78.4370362617
 10
-443.7236260106
 20
-84.7636645067
 10
-438.756182083
 20
-90.9149788759
 10
-433.6676715783
 20
-96.8789073036
 10
-428.4680807903
 20
-102.6437454724
 10
-423.1676140101
 20
-108.1981797832
 10
-417.7766734994
 20
-113.5313095582
 10
-412.3058390767
 20
-118.6326684338
 10
-406.7658473532
 20
-123.4922449009
 10
-401.1675706631
 20
-128.1005019528
 10
-395.5219957254
 20
-132.4483958019
 10
-389.8402020831
 20
-136.5273936277
 10
-384.133340359
 20
-140.3294903232
 10
-378.4126103723
 20
-143.847224205
  0
LWPOLYLINE
  5
12F
330
11C
100
AcDbEntity
  8
0
  6
Continuous
 62
     7
370
    25
100
AcDbPolyline
 90
       33
 70
   128
 43
0.0
 10
-22.9809703886
 20
-123.4996414217
 10
-18.0624404846
 20
-125.8293634277
 10
-12.4344350905
 20
-127.5633304729
 10
-6.3591445354
 20
-128.623881831
 10
-0.0041200957
 20
-128.9814383704
 10
6.3191130177
 20
-128.6181465266
 10
12.4215226505
 20
-127.5469726364
 10
18.0440530295
 20
-125.8101348639
 10
22.9588047996
 20
-123.4822226618
 10
27.012267116
 20
-120.6335212403
 10
30.0083207781
 20
-117.4034748417
 10
31.8655242859
 20
-113.8804944531
 10
32.4929424018
 20
-110.2292075477
 10
31.873772726
 20
-106.5748026057
 10
30.0254046562
 20
-103.0525886552
 10
27.0364042057
 20
-99.8211247225
 10
22.9809660409
 20
-96.9663752776
 10
18.0346036207
 20
-94.624499815
 10
12.4334372103
 20
-92.8969670103
 10
6.326840585
 20
-91.8268865189
 10
-0.0096298924
 20
-91.465873586
 10
-6.3407457689
 20
-91.8245045682
 10
-12.448638181
 20
-92.8936083097
 10
-18.0473460202
 20
-94.6211783022
 10
-22.9832097498
 20
-96.9604850691
 10
-27.0144599936
 20
-99.7984158819
 10
-30.01956945
 20
-103.0462751296
 10
-31.8698264944
 20
-106.5721483478
 10
-32.4929495404
 20
-110.2260523397
 10
-31.8673582295
 20
-113.8983143806
 10
-30.0249912744
 20
-117.4085239554
 10
-27.0178186116
 20
-120.6595384886
 10
-22.9809703886
 20
-123.4996414217
  0
LWPOLYLINE
  5
130
330
11C
100
AcDbEntity
  8
0
  6
Continuous
 62
     7
370
    25
100
AcDbPolyline
 90
       30
 70
   128
 43
0.0
 10
-231.5774708386
 20
194.9174366977
 10
-230.3275423643
 20
187.9552794617
 10
-228.8262907439
 20
180.9223512612
 10
-227.0769999741
 20
173.8340366675
 10
-225.0834966384
 20
166.7058414099
 10
-222.8501415371
 20
159.5533584567
 10
-220.3818201473
 20
152.392233906
 10
-217.6839319364
 20
145.2381327593
 10
-214.7623785506
 20
138.1067046542
 10
-211.6235509047
 20
131.0135496311
 10
-208.2743152025
 20
123.9741840078
 10
-204.7219979166
 20
117.0040064373
 10
-200.9743697614
 20
110.1182642236
 10
-197.0396286954
 20
103.3320199676
 10
-192.9263819876
 20
96.660118618
 10
-188.6436273888
 20
90.1171549977
 10
-184.2007334496
 20
83.7174418777
 10
-179.6074190263
 20
77.4749786673
 10
-174.8737320208
 20
71.4034207911
 10
-170.0100274009
 20
65.5160498172
 10
-165.0269445487
 20
59.8257444038
 10
-159.9353839867
 20
54.3449521268
 10
-154.7464835333
 20
49.0856622512
 10
-149.4715939382
 20
44.0593795041
 10
-144.1222540531
 20
39.2770989081
 10
-138.71016559
 20
34.7492817299
 10
-133.2471675237
 20
30.4858325956
 10
-127.7452101942
 20
26.4960778251
 10
-122.2163291652
 20
22.78874503
 10
-116.6726188958
 20
19.3719440224
  0
SPLINE
  5
131
330
11C
100
AcDbEntity
  8
0
  6
Continuous
 62
     7
370
    25
100
AcDbSpline
210
0.0
220
0.0
230
1.0
 70
     8
 71
     3
 72
    35
 73
    31
 74
     0
 42
0.000000001
 43
0.00000001
 40
0.0
 40
0.0
 40
0.0
 40
0.0
 40
0.0313505562195016
 40
0.0800842065711037
 40
0.1068231385759242
 40
0.1351207349546889
 40
0.1633912197443645
 40
0.1901048907467233
 40
0.2387937599697506
 40
0.2812745201132066
 40
0.3175395438378809
 40
0.3538543801797637
 40
0.3963763996527234
 40
0.4450979884024266
 40
0.4718248880282488
 40
0.5001064696958831
 40
0.5284264645706025
 40
0.5551849155510196
 40
0.603948834829356
 40
0.6464858325391472
 40
0.6827882246591248
 40
0.7190904119225521
 40
0.7616273526780724
 40
0.8103913625504109
 40
0.8371499145195485
 40
0.8654700473664282
 40
0.8937514792402472
 40
0.9204782654189058
 40
0.9691997368566542
 40
1.0
 40
1.0
 40
1.0
 40
1.0
 10
-18.74321597798534
 20
-125.506905766769
 30
0.0
 10
-19.28996489011823
 20
-125.0145627424883
 30
0.0
 10
-20.68662122103652
 20
-123.7568848823484
 30
0.0
 10
-21.78708280981451
 20
-121.8440614331696
 30
0.0
 10
-22.39384182616988
 20
-119.9422302198246
 30
0.0
 10
-22.5550892566337
 20
-118.388218524399
 30
0.0
 10
-22.39187100017911
 20
-116.8357907174052
 30
0.0
 10
-21.79586956905943
 20
-114.9318192642581
 30
0.0
 10
-20.51450268151971
 20
-112.8459906806407
 30
0.0
 10
-18.39990606558291
 20
-110.796748057534
 30
0.0
 10
-15.98199465466946
 20
-109.16176811043
 30
0.0
 10
-13.1523169238173
 20
-107.7645637698307
 30
0.0
 10
-9.60382789232271
 20
-106.5429062146088
 30
0.0
 10
-5.992848388597024
 20
-105.8037413400352
 30
0.0
 10
-2.697563134710326
 20
-105.4610957403849
 30
0.0
 10
-0.0103411659315295
 20
-105.367954020499
 30
0.0
 10
2.67807538107033
 20
-105.4640481903798
 30
0.0
 10
5.977415537437817
 20
-105.8104659564529
 30
0.0
 10
9.591981815271794
 20
-106.5536883371754
 30
0.0
 10
13.14281278891308
 20
-107.7783688298397
 30
0.0
 10
15.97467802290767
 20
-109.1766498551522
 30
0.0
 10
18.39559102328567
 20
-110.8107313299142
 30
0.0
 10
20.51390475219417
 20
-112.8587681091316
 30
0.0
 10
21.79709510194168
 20
-114.9429758035419
 30
0.0
 10
22.39311492185907
 20
-116.8452641894045
 30
0.0
 10
22.55513916696909
 20
-118.3948300422794
 30
0.0
 10
22.39238377043233
 20
-119.9448113937628
 30
0.0
 10
21.78392426193115
 20
-121.8407641905536
 30
0.0
 10
20.68948774079411
 20
-123.7389712911651
 30
0.0
 10
19.30242829955739
 20
-124.985684900582
 30
0.0
 10
18.76519409546711
 20
-125.4685605249219
 30
0.0
  0
LWPOLYLINE
  5
132
330
11C
100
AcDbEntity
  8
0
  6
Continuous
 62
     7
370
    25
100
AcDbPolyline
 90
       16
 70
   128
 43
0.0
 10
16.8826646821
 20
-126.1428553043
 10
15.9099025767
 20
-125.5446427031
 10
13.7904087072
 20
-124.4659314272
 10
11.4534318544
 20
-123.5490785632
 10
8.9358275393
 20
-122.8085434285
 10
6.2772998859
 20
-122.2560047046
 10
3.5197754634
 20
-121.9001762572
 10
0.7067420793
 20
-121.7466697136
 10
-2.1174370497
 20
-121.7979059635
 10
-4.9082229314
 20
-122.0530769807
 10
-7.6216032055
 20
-122.5081585659
 10
-10.2147862441
 20
-123.1559738106
 10
-12.6468760017
 20
-123.9863062814
 10
-14.8795169698
 20
-124.9860611392
 10
-16.8774990667
 20
-126.1394716527
 10
-16.9245846743
 20
-126.170402211
  0
LINE
  5
135
330
11C
100
AcDbEntity
  8
0
  6
Continuous
 62
     7
370
    25
100
AcDbLine
 10
51.2271694868
 20
-348.1900836394
 30
0.0
 11
323.4632802436
 21
-191.0315221135
 31
0.0
  0
LINE
  5
136
330
11C
100
AcDbEntity
  8
0
  6
Continuous
 62
     7
370
    25
100
AcDbLine
 10
359.0621270233
 20
-133.8054237418
 30
0.0
 11
86.8260162665
 21
-290.9639852677
 31
0.0
  0
LINE
  5
137
330
11C
100
AcDbEntity
  8
0
  6
Continuous
 62
     7
370
    25
100
AcDbLine
 10
359.0621270233
 20
-133.8054237418
 30
0.0
 11
-231.7829064097
 21
207.2821538058
 31
0.0
  0
LINE
  5
138
330
11C
100
AcDbEntity
  8
0
  6
Continuous
 62
     7
370
    25
100
AcDbLine
 10
86.8260162665
 20
-290.9639852677
 30
0.0
 11
-504.0190171665
 21
50.12359228
 31
0.0
  0
LINE
  5
139
330
11C
100
AcDbEntity
  8
0
  6
Continuous
 62
     7
370
    25
100
AcDbLine
 10
-231.7829064097
 20
207.2821538058
 30
0.0
 11
-504.0190171665
 21
50.12359228
 31
0.0
  0
LINE
  5
13A
330
11C
100
AcDbEntity
  8
0
  6
Continuous
 62
     7
370
    25
100
AcDbLine
 10
86.6205806954
 20
-278.5992681595
 30
0.0
 11
-482.6003781598
 21
50.0049968491
 31
0.0
  0
LINE
  5
13B
330
11C
100
AcDbEntity
  8
0
  6
Continuous
 62
     7
370
    25
100
AcDbLine
 10
337.6434880166
 20
-133.686828311
 30
0.0
 11
86.6205806954
 21
-278.5992681595
 31
0.0
  0
LINE
  5
13C
330
11C
100
AcDbEntity
  8
0
  6
Continuous
 62
     7
370
    25
100
AcDbLine
 10
337.6434880166
 20
-133.686828311
 30
0.0
 11
-231.5774708386
 21
194.9174366977
 31
0.0
  0
LINE
  5
13D
330
11C
100
AcDbEntity
  8
0
  6
Continuous
 62
     7
370
    25
100
AcDbLine
 10
-231.5774708386
 20
194.9174366977
 30
0.0
 11
-482.6003781598
 21
50.0049968491
 31
0.0
  0
LINE
  5
13E
330
11C
100
AcDbEntity
  8
0
  6
Continuous
 62
    60
370
    25
100
AcDbLine
 10
222.7386360738
 20
-176.5660028151
 30
0.0
 11
66.3066331694
 21
-266.8722758688
 31
0.0
  0
LINE
  5
13F
330
11C
100
AcDbEntity
  8
0
  6
Continuous
 62
    60
370
    25
100
AcDbLine
 10
-116.6726188958
 20
19.3719440224
 30
0.0
 11
-273.1046218002
 21
-70.9343290313
 31
0.0
  0
ARC
  5
140
330
11C
100
AcDbEntity
  8
0
  6
Continuous
 62
     7
370
    25
100
AcDbCircle
 10
10656.9848187353
 20
18579.8982997036
 30
0.0
 40
21733.81335298624
100
AcDbArc
 50
239.4857614248
 51
240.5196151079
  0
ARC
  5
141
330
11C
100
AcDbEntity
  8
0
  6
Continuous
 62
     7
370
    25
100
AcDbCircle
 10
288.1398441215
 20
-62.5148098458
 30
0.0
 40
131.4724025483832
100
AcDbArc
 50
240.1684324083
 51
251.0750808925
  0
ARC
  5
142
330
11C
100
AcDbEntity
  8
0
  6
Continuous
 62
     7
370
    25
100
AcDbCircle
 10
10911.5451763948
 20
18730.9357918976
 30
0.0
 40
21719.67332566202
100
AcDbArc
 50
239.4857614248
 51
240.5196151078
  0
VIEWPORT
  5
19F
330
11C
100
AcDbEntity
  8
0
100
AcDbViewport
 10
0.0
 20
0.0
 30
0.0
 40
205.6
 41
156.0
 68
     1
 69
     1
 12
0.0
 22
-102.5
 13
0.0
 23
0.0
 14
10.0
 24
10.0
 15
10.0
 25
10.0
 16
0.0
 26
0.0
 36
1.0
 17
0.0
 27
0.0
 37
0.0
 42
50.0
 43
0.0
 44
0.0
 45
646.6812168982
 50
0.0
 51
0.0
 72
   100
 90
   557152
  1

281
     0
 71
     1
 74
     0
110
0.0
120
0.0
130
0.0
111
1.0
121
0.0
131
0.0
112
0.0
122
1.0
132
0.0
 79
     0
146
0.0
170
     0
 61
     5
348
2F
292
     1
282
     1
141
0.0
142
0.0
 63
   256
361
1A0
  0
ENDBLK
  5
11F
330
11C
100
AcDbEntity
  8
0
100
AcDbBlockEnd
  0
BLOCK
  5
145
330
143
100
AcDbEntity
  8
0
100
AcDbBlockBegin
  2
*Paper_Space6
 70
     0
 10
0.0
 20
0.0
 30
0.0
  3
*Paper_Space6
  1

  0
LWPOLYLINE
  5
149
330
143
100
AcDbEntity
  8
0
  6
Continuous
 62
     7
370
    25
100
AcDbPolyline
 90
       32
 70
   128
 43
0.0
 10
74.7233960512
 20
-319.6034663175
 10
81.8786339926
 20
-321.3221714398
 10
89.0165261201
 20
-322.7292469197
 10
96.1230641912
 20
-323.8219313464
 10
103.1843014966
 20
-324.5980803067
 10
110.1863802302
 20
-325.0561705943
 10
117.115558686
 20
-325.1953031988
 10
123.958238226
 20
-325.0152050699
 10
130.7009899678
 20
-324.5162296535
 10
137.3305811392
 20
-323.6993561978
 10
143.8340010476
 20
-322.5661878317
 10
150.198486614
 20
-321.1189484186
 10
156.4115474202
 20
-319.3604781922
 10
162.4609902221
 20
-317.2942281819
 10
168.3349428788
 20
-314.9242534408
 10
174.0218776521
 20
-312.2552050872
 10
179.5106338295
 20
-309.2923211768
 10
184.7904396278
 20
-306.0414164227
 10
189.8509333328
 20
-302.5088707844
 10
194.6821836339
 20
-298.7016169465
 10
199.2747091151
 20
-294.6271267136
 10
203.6194968621
 20
-290.2933963463
 10
207.7080201504
 20
-285.708930869
 10
211.5322551791
 20
-280.882727378
 10
215.0846968178
 20
-275.8242573849
 10
218.3583733356
 20
-270.5434482286
 10
221.3468600831
 20
-265.0506635925
 10
224.0442921009
 20
-259.3566831658
 10
226.4453756301
 20
-253.4726814881
 10
228.5453985007
 20
-247.410206019
 10
230.34023938
 20
-241.1811544762
 10
231.8263758602
 20
-234.7977514861
  0
LWPOLYLINE
  5
153
330
143
100
AcDbEntity
  8
0
  6
Continuous
 62
     7
370
    25
100
AcDbPolyline
 90
       32
 70
   128
 43
0.0
 10
-507.1766553289
 20
-33.9525625284
 10
-505.6905188488
 20
-41.143765621
 10
-503.8956779695
 20
-48.3484157482
 10
-501.7956550989
 20
-55.5523736537
 10
-499.3945715697
 20
-62.7415014399
 10
-496.6971395519
 20
-69.9016903136
 10
-493.7086528044
 20
-77.0188882745
 10
-490.4349762866
 20
-84.0791276931
 10
-486.8825346479
 20
-91.0685527218
 10
-483.0582996192
 20
-97.9734464875
 10
-478.9697763309
 20
-104.7802580114
 10
-474.6249885839
 20
-111.4756288029
 10
-470.0324631027
 20
-118.0464190755
 10
-465.2012128015
 20
-124.4797335348
 10
-460.1407190966
 20
-130.7629466846
 10
-454.8609132982
 20
-136.8837276055
 10
-449.3721571208
 20
-142.8300641544
 10
-443.6852223476
 20
-148.5902865382
 10
-437.8112696909
 20
-154.1530902163
 10
-431.7618268889
 20
-159.5075580859
 10
-425.5487660827
 20
-164.6431819071
 10
-419.1842805164
 20
-169.5498829251
 10
-412.6808606079
 20
-174.2180316506
 10
-406.0512694365
 20
-178.6384667572
 10
-399.3085176947
 20
-182.8025130611
 10
-392.4658381548
 20
-186.7019985461
 10
-385.536659699
 20
-190.3292704015
 10
-378.5345809653
 20
-193.6772100407
 10
-371.47334366
 20
-196.7392470715
 10
-364.3668055888
 20
-199.509372191
 10
-357.2289134614
 20
-201.9821489784
 10
-350.0736755199
 20
-204.1527245647
  0
LWPOLYLINE
  5
156
330
143
100
AcDbEntity
  8
0
  6
Continuous
 62
     7
370
    25
100
AcDbPolyline
 90
       33
 70
   128
 43
0.0
 10
-15.1676001402
 20
-130.5216283159
 10
-9.2761402488
 20
-131.7590017793
 10
-3.0110085155
 20
-132.3803840699
 10
3.337399631
 20
-132.3595316998
 10
9.5936549596
 20
-131.6968066305
 10
15.4506997319
 20
-130.4244979574
 10
20.7343073744
 20
-128.5825164872
 10
25.2183381866
 20
-126.2463513952
 10
28.7230679617
 20
-123.5143108604
 10
31.1377426279
 20
-120.4696778813
 10
32.3464013945
 20
-117.2611216955
 10
32.3166196177
 20
-113.9763334371
 10
31.0460004686
 20
-110.7693735194
 10
28.5828168573
 20
-107.7493990797
 10
25.0131912845
 20
-105.0289900821
 10
20.5031115939
 20
-102.7297280311
 10
15.1675947024
 20
-100.9135413958
 10
9.2440566063
 20
-99.6697609585
 10
3.009933205
 20
-99.0489795682
 10
-3.3701572874
 20
-99.0652753002
 10
-9.6067893375
 20
-99.7208174997
 10
-15.47009539
 20
-100.9889427484
 10
-20.7568918637
 20
-102.8287945571
 10
-25.2208342467
 20
-105.1526371691
 10
-28.7391753922
 20
-107.8973207007
 10
-31.1388684108
 20
-110.9296751612
 10
-32.3491355744
 20
-114.1555908657
 10
-32.314345658
 20
-117.4429873384
 10
-31.0419385588
 20
-120.6529344372
 10
-28.5671487539
 20
-123.6885668402
 10
-25.0125012409
 20
-126.4008536478
 10
-20.4771316332
 20
-128.7148157629
 10
-15.1676001402
 20
-130.5216283159
  0
LWPOLYLINE
  5
157
330
143
100
AcDbEntity
  8
0
  6
Continuous
 62
     7
370
    25
100
AcDbPolyline
 90
       30
 70
   128
 43
0.0
 10
-320.9761398054
 20
130.9104481206
 10
-319.4127841385
 20
123.934475978
 10
-317.535084513
 20
116.9510841699
 10
-315.3471484075
 20
109.9755489065
 10
-312.8537619451
 20
103.0231292116
 10
-310.0603794231
 20
96.1090335436
 10
-306.973111382
 20
89.2483865268
 10
-303.5987112384
 20
82.4561958664
 10
-299.9445605123
 20
75.7473195189
 10
-296.0186526796
 20
69.1364331901
 10
-291.8295756865
 20
62.6379982323
 10
-287.3864931631
 20
56.2662300095
 10
-282.6991243782
 20
50.0350668018
 10
-277.7777229782
 20
43.9581393148
 10
-272.6330545573
 20
38.0487408626
 10
-267.2763731074
 20
32.3197982886
 10
-261.7193964003
 20
26.7838436878
 10
-255.9742803547
 20
21.4529869932
 10
-250.0535924453
 20
16.3388894845
 10
-243.9702842113
 20
11.4527382798
 10
-237.7376629247
 20
6.8052218632
 10
-231.3693624806
 20
2.4065067038
 10
-224.8793135733
 20
-1.7337849836
 10
-218.2817132224
 20
-5.6065962867
 10
-211.5909937168
 20
-9.2034554086
 10
-204.8217910444
 20
-12.5164941988
 10
-197.9889128751
 20
-15.538465366
 10
-191.1073061697
 20
-18.2627583306
 10
-184.1920244827
 20
-20.683413686
 10
-177.2581950328
 20
-22.7951362344
  0
SPLINE
  5
158
330
143
100
AcDbEntity
  8
0
  6
Continuous
 62
     7
370
    25
100
AcDbSpline
210
0.0
220
0.0
230
1.0
 70
     8
 71
     3
 72
    33
 73
    29
 74
     0
 42
0.000000001
 43
0.00000001
 40
0.0
 40
0.0
 40
0.0
 40
0.0
 40
0.0186433312099494
 40
0.0499166164735616
 40
0.079467728168687
 40
0.1333281733539254
 40
0.1803211039691995
 40
0.220438082523723
 40
0.260610164632334
 40
0.3076487370111276
 40
0.3615453770865151
 40
0.3911111225071778
 40
0.4223966833236331
 40
0.4537247374751691
 40
0.4833253855343977
 40
0.5372688523517798
 40
0.5843239939078145
 40
0.6244823100090713
 40
0.6646403994945701
 40
0.7116954780468336
 40
0.7656390450808229
 40
0.795239804855471
 40
0.826568011634129
 40
0.857853406746149
 40
0.8874190266696532
 40
0.9413155369725852
 40
0.9883541399599121
 40
1.0
 40
1.0
 40
1.0
 40
1.0
 10
-20.92178188111054
 20
-128.4879535846893
 30
0.0
 10
-21.12348709829881
 20
-128.2275111613155
 30
0.0
 10
-21.66354304933669
 20
-127.5301891851841
 30
0.0
 10
-22.17842795589494
 20
-126.3598802806482
 30
0.0
 10
-22.59400401986553
 20
-124.6483222163909
 30
0.0
 10
-22.43056560365862
 20
-122.673960252985
 30
0.0
 10
-21.45932107604359
 20
-120.6055043453069
 30
0.0
 10
-19.98517043578017
 20
-118.8438708693568
 30
0.0
 10
-17.99708582752228
 20
-117.2226279800149
 30
0.0
 10
-15.23289911256645
 20
-115.6418580531945
 30
0.0
 10
-12.1624740318419
 20
-114.4629631064664
 30
0.0
 10
-9.190790806840516
 20
-113.6700800645011
 30
0.0
 10
-6.672246096474307
 20
-113.182317144469
 30
0.0
 10
-4.055736063742946
 20
-112.8556700430978
 30
0.0
 10
-0.7276162599898495
 20
-112.6495022333401
 30
0.0
 10
3.104717963990096
 20
-112.733590780782
 30
0.0
 10
7.122805675651746
 20
-113.2376355016719
 30
0.0
 10
10.54339276660593
 20
-113.9988080237441
 30
0.0
 10
13.69275530656657
 20
-115.023205076213
 30
0.0
 10
16.76534208619673
 20
-116.4462504396414
 30
0.0
 10
19.0590562200282
 20
-118.0270863034523
 30
0.0
 10
20.60273701229559
 20
-119.5573135378078
 30
0.0
 10
21.55259167328466
 20
-120.8532017114506
 30
0.0
 10
22.18722939708915
 20
-122.1980084128489
 30
0.0
 10
22.59542168811883
 20
-123.9091098418187
 30
0.0
 10
22.39597067081372
 20
-125.8705599607079
 30
0.0
 10
21.72376336533255
 20
-127.5421236100118
 30
0.0
 10
21.02222692306394
 20
-128.3455959240205
 30
0.0
 10
20.88300787259967
 20
-128.5050440237783
 30
0.0
  0
LINE
  5
15C
330
143
100
AcDbEntity
  8
0
  6
Continuous
 62
     7
370
    25
100
AcDbLine
 10
200.6671589706
 20
-293.2927984254
 30
0.0
 11
380.3448837087
 21
-117.9218308058
 31
0.0
  0
LINE
  5
15D
330
143
100
AcDbEntity
  8
0
  6
Continuous
 62
     7
370
    25
100
AcDbLine
 10
411.5041005983
 20
-59.4267838665
 30
0.0
 11
231.8263758602
 21
-234.7977514861
 31
0.0
  0
LINE
  5
15E
330
143
100
AcDbEntity
  8
0
  6
Continuous
 62
     7
370
    25
100
AcDbLine
 10
411.5041005983
 20
-59.4267838665
 30
0.0
 11
-327.4989305908
 21
141.4184050912
 31
0.0
  0
LINE
  5
15F
330
143
100
AcDbEntity
  8
0
  6
Continuous
 62
     7
370
    25
100
AcDbLine
 10
231.8263758602
 20
-234.7977514861
 30
0.0
 11
-507.1766553289
 21
-33.9525625284
 31
0.0
  0
LINE
  5
160
330
143
100
AcDbEntity
  8
0
  6
Continuous
 62
     7
370
    25
100
AcDbLine
 10
-327.4989305908
 20
141.4184050912
 30
0.0
 11
-507.1766553289
 21
-33.9525625284
 31
0.0
  0
LINE
  5
161
330
143
100
AcDbEntity
  8
0
  6
Continuous
 62
     7
370
    25
100
AcDbLine
 10
225.3035850747
 20
-224.2897945155
 30
0.0
 11
-486.6530028756
 21
-30.7952492949
 31
0.0
  0
LINE
  5
162
330
143
100
AcDbEntity
  8
0
  6
Continuous
 62
     7
370
    25
100
AcDbLine
 10
390.9804481449
 20
-62.5840971
 30
0.0
 11
225.3035850747
 21
-224.2897945155
 31
0.0
  0
LINE
  5
163
330
143
100
AcDbEntity
  8
0
  6
Continuous
 62
     7
370
    25
100
AcDbLine
 10
390.9804481449
 20
-62.5840971
 30
0.0
 11
-320.9761398054
 21
130.9104481206
 31
0.0
  0
LINE
  5
164
330
143
100
AcDbEntity
  8
0
  6
Continuous
 62
     7
370
    25
100
AcDbLine
 10
-320.9761398054
 20
130.9104481206
 30
0.0
 11
-486.6530028756
 21
-30.7952492949
 31
0.0
  0
LINE
  5
165
330
143
100
AcDbEntity
  8
0
  6
Continuous
 62
    60
370
    25
100
AcDbLine
 10
247.2625033723
 20
-138.1707656828
 30
0.0
 11
173.4635682768
 21
-210.200788747
 31
0.0
  0
LINE
  5
166
330
143
100
AcDbEntity
  8
0
  6
Continuous
 62
    60
370
    25
100
AcDbLine
 10
-177.2581950328
 20
-22.7951362344
 30
0.0
 11
-251.0571301284
 21
-94.8251592987
 31
0.0
  0
ARC
  5
167
330
143
100
AcDbEntity
  8
0
  6
Continuous
 62
     7
370
    25
100
AcDbCircle
 10
300.7120177235
 20
-37.9564039137
 30
0.0
 40
112.8532801607535
100
AcDbArc
 50
314.8806108231
 51
349.0326032865
  0
ARC
  5
168
330
143
100
AcDbEntity
  8
0
  6
Continuous
 62
     7
370
    25
100
AcDbCircle
 10
6002.3276698923
 20
22330.0530898366
 30
0.0
 40
23412.46323091598
100
AcDbArc
 50
254.2568351854
 51
255.3341384973
  0
ARC
  5
169
330
143
100
AcDbEntity
  8
0
  6
Continuous
 62
     7
370
    25
100
AcDbCircle
 10
284.8620886748
 20
-2.2992244461
 30
0.0
 40
140.9780285467897
100
AcDbArc
 50
254.5316942242
 51
280.5873485328
  0
ARC
  5
16A
330
143
100
AcDbEntity
  8
0
  6
Continuous
 62
     7
370
    25
100
AcDbCircle
 10
6171.010275612
 20
22496.7499151968
 30
0.0
 40
23397.23107333053
100
AcDbArc
 50
254.2568351854
 51
255.3341384973
  0
ARC
  5
16B
330
143
100
AcDbEntity
  8
0
  6
Continuous
 62
     7
370
    25
100
AcDbCircle
 10
0.0002396791
 20
-170.9382391821
 30
0.0
 40
41.1133235486324
100
AcDbArc
 50
74.4598294108
 51
105.558214046
  0
VIEWPORT
  5
1A1
330
143
100
AcDbEntity
  8
0
100
AcDbViewport
 10
0.0
 20
0.0
 30
0.0
 40
205.6
 41
156.0
 68
     1
 69
     1
 12
0.0
 22
-102.5
 13
0.0
 23
0.0
 14
10.0
 24
10.0
 15
10.0
 25
10.0
 16
0.0
 26
0.0
 36
1.0
 17
0.0
 27
0.0
 37
0.0
 42
50.0
 43
0.0
 44
0.0
 45
646.6812168982
 50
0.0
 51
0.0
 72
   100
 90
   557152
  1

281
     0
 71
     1
 74
     0
110
0.0
120
0.0
130
0.0
111
1.0
121
0.0
131
0.0
112
0.0
122
1.0
132
0.0
 79
     0
146
0.0
170
     0
 61
     5
348
2F
292
     1
282
     1
141
0.0
142
0.0
 63
   256
361
1A2
  0
ENDBLK
  5
146
330
143
100
AcDbEntity
  8
0
100
AcDbBlockEnd
  0
BLOCK
  5
16E
330
16C
100
AcDbEntity
  8
0
100
AcDbBlockBegin
  2
*Paper_Space7
 70
     0
 10
0.0
 20
0.0
 30
0.0
  3
*Paper_Space7
  1

  0
LWPOLYLINE
  5
172
330
16C
100
AcDbEntity
  8
0
  6
Continuous
 62
     7
370
    25
100
AcDbPolyline
 90
       32
 70
   128
 43
0.0
 10
120.3473475397
 20
-260.5271734135
 10
127.9151619711
 20
-261.2321194215
 10
135.4646304157
 20
-261.597173939
 10
142.9809369051
 20
-261.6216205399
 10
150.4493305518
 20
-261.3054112472
 10
157.8551544985
 20
-260.6491666275
 10
165.1838746815
 20
-259.6541745727
 10
172.4211083551
 20
-258.3223877726
 10
179.5526523172
 20
-256.656419883
 10
186.564510784
 20
-254.659540396
 10
193.4429228563
 20
-252.3356682236
 10
200.1743895261
 20
-249.689364007
 10
206.7457001684
 20
-246.7258211662
 10
213.1439584672
 20
-243.4508557074
 10
219.3566077248
 20
-239.8708948097
 10
225.3714555048
 20
-235.992964211
 10
231.1766975597
 20
-231.8246744203
 10
236.7609409969
 20
-227.3742057816
 10
242.1132266376
 20
-222.6502924202
 10
247.2230505247
 20
-217.6622051013
 10
252.0803845362
 20
-212.4197330367
 10
256.6756960664
 20
-206.9331646724
 10
260.9999667332
 20
-201.2132674982
 10
265.0447100774
 20
-195.2712669156
 10
268.8019882169
 20
-189.1188242083
 10
272.2644274254
 20
-182.7680136563
 10
275.4252326035
 20
-176.2312988401
 10
278.2782006137
 20
-169.5215081809
 10
280.8177324549
 20
-162.651809764
 10
283.0388442497
 20
-155.6356854968
 10
284.9371770262
 20
-148.4869046502
 10
286.509005272
 20
-141.2194968357
  0
LWPOLYLINE
  5
17C
330
16C
100
AcDbEntity
  8
0
  6
Continuous
 62
     7
370
    25
100
AcDbPolyline
 90
       32
 70
   128
 43
0.0
 10
-495.1055056742
 20
-42.7453246429
 10
-493.5336774285
 20
-50.4087959469
 10
-491.6353446519
 20
-58.0359116916
 10
-489.4142328571
 20
-65.6117035245
 10
-486.874701016
 20
-73.1213038171
 10
-484.0217330057
 20
-80.549974843
 10
-480.8609278277
 20
-87.8831377011
 10
-477.3984886191
 20
-95.1064009265
 10
-473.6412104796
 20
-102.2055887346
 10
-469.5964671354
 20
-109.1667688411
 10
-465.2721964686
 20
-115.9762798039
 10
-460.6768849384
 20
-122.6207578348
 10
-455.8195509269
 20
-129.0871630254
 10
-450.7097270399
 20
-135.3628049387
 10
-445.3574413991
 20
-141.4353675139
 10
-439.7731979619
 20
-147.2929332371
 10
-433.9679559071
 20
-152.9240065298
 10
-427.953108127
 20
-158.3175363086
 10
-421.7404588694
 20
-163.462937674
 10
-415.3422005706
 20
-168.3501126827
 10
-408.7708899284
 20
-172.9694701653
 10
-402.0394232585
 20
-177.3119445493
 10
-395.1610111862
 20
-181.3690136502
 10
-388.1491527194
 20
-185.1327153965
 10
-381.0176087573
 20
-188.5956634555
 10
-373.7803750837
 20
-191.7510617289
 10
-366.4516549007
 20
-194.5927176907
 10
-359.045830954
 20
-197.1150545396
 10
-351.5774373073
 20
-199.3131221439
 10
-344.0611308179
 20
-201.1826067563
 10
-336.5116623733
 20
-202.7198394793
 10
-328.9438479419
 20
-203.9218034659
  0
LWPOLYLINE
  5
180
330
16C
100
AcDbEntity
  8
0
  6
Continuous
 62
     7
370
    25
100
AcDbPolyline
 90
       30
 70
   128
 43
0.0
 10
-349.9877702681
 20
70.820438545
 10
-348.3342703182
 20
63.4064961254
 10
-346.3483010967
 20
56.0364732055
 10
-344.0342069227
 20
48.7264917533
 10
-341.3970498907
 20
41.4925423956
 10
-338.4425987969
 20
34.3504494385
 10
-335.1773165202
 20
27.3158362518
 10
-331.6083458846
 20
20.4040910927
 10
-327.743494034
 20
13.6303334437
 10
-323.5912153542
 20
7.009380939
 10
-319.160592979
 20
0.5557169506
 10
-314.4613189205
 20
-5.7165410942
 10
-309.5036728679
 20
-11.7936725944
 10
-304.2984997008
 20
-17.6623837897
 10
-298.8571857655
 20
-23.3098368402
 10
-293.191633968
 20
-28.7236779098
 10
-287.3142377355
 20
-33.8920641896
 10
-281.2378539065
 20
-38.8036898048
 10
-274.9757746059
 20
-43.4478105457
 10
-268.5416981683
 20
-47.8142673714
 10
-261.9496991733
 20
-51.8935086322
 10
-255.214197657
 20
-55.6766109642
 10
-248.349927568
 20
-59.1552988091
 10
-241.3719045368
 20
-62.321962517
 10
-234.2953930294
 20
-65.1696749929
 10
-227.1358729557
 20
-67.692206849
 10
-219.9090058074
 20
-69.8840400323
 10
-212.6306003983
 20
-71.7403798951
 10
-205.3165782823
 20
-73.2571656832
 10
-197.9829389254
 20
-74.4310794186
  0
LINE
  5
183
330
16C
100
AcDbEntity
  8
0
  6
Continuous
 62
     7
370
    25
100
AcDbLine
 10
239.4259793911
 20
-225.0818292315
 30
0.0
 11
375.5440347382
 21
-105.0369880972
 31
0.0
  0
LINE
  5
184
330
16C
100
AcDbEntity
  8
0
  6
Continuous
 62
     7
370
    25
100
AcDbLine
 10
422.6270606192
 20
-21.1746557014
 30
0.0
 11
286.509005272
 21
-141.2194968357
 31
0.0
  0
LINE
  5
185
330
16C
100
AcDbEntity
  8
0
  6
Continuous
 62
     7
370
    25
100
AcDbLine
 10
422.6270606192
 20
-21.1746557014
 30
0.0
 11
-358.987450327
 21
77.2995164915
 31
0.0
  0
LINE
  5
186
330
16C
100
AcDbEntity
  8
0
  6
Continuous
 62
     7
370
    25
100
AcDbLine
 10
286.509005272
 20
-141.2194968357
 30
0.0
 11
-495.1055056742
 21
-42.7453246429
 31
0.0
  0
LINE
  5
187
330
16C
100
AcDbEntity
  8
0
  6
Continuous
 62
     7
370
    25
100
AcDbLine
 10
-358.987450327
 20
77.2995164915
 30
0.0
 11
-495.1055056742
 21
-42.7453246429
 31
0.0
  0
LINE
  5
188
330
16C
100
AcDbEntity
  8
0
  6
Continuous
 62
     7
370
    25
100
AcDbLine
 10
277.5093252131
 20
-134.7404188892
 30
0.0
 11
-475.4992238999
 21
-39.8702591244
 31
0.0
  0
LINE
  5
189
330
16C
100
AcDbEntity
  8
0
  6
Continuous
 62
     7
370
    25
100
AcDbLine
 10
403.0207788449
 20
-24.0497212199
 30
0.0
 11
277.5093252131
 21
-134.7404188892
 31
0.0
  0
LINE
  5
18A
330
16C
100
AcDbEntity
  8
0
  6
Continuous
 62
     7
370
    25
100
AcDbLine
 10
403.0207788449
 20
-24.0497212199
 30
0.0
 11
-349.9877702681
 21
70.820438545
 31
0.0
  0
LINE
  5
18B
330
16C
100
AcDbEntity
  8
0
  6
Continuous
 62
     7
370
    25
100
AcDbLine
 10
-349.9877702681
 20
70.820438545
 30
0.0
 11
-475.4992238999
 21
-39.8702591244
 31
0.0
  0
LINE
  5
18C
330
16C
100
AcDbEntity
  8
0
  6
Continuous
 62
     7
370
    25
100
AcDbLine
 10
-197.9829389254
 20
-74.4310794186
 30
0.0
 11
-155.6044126607
 21
-80.1732170204
 31
0.0
  0
LINE
  5
18D
330
16C
100
AcDbEntity
  8
0
  6
Continuous
 62
     7
370
    25
100
AcDbLine
 10
208.6374212375
 20
-126.0633745965
 30
0.0
 11
251.0159475022
 21
-130.9996218871
 31
0.0
  0
LINE
  5
18E
330
16C
100
AcDbEntity
  8
0
  6
Continuous
 62
    60
370
    25
100
AcDbLine
 10
251.0159475022
 20
-130.9996218871
 30
0.0
 11
250.6161627496
 21
-131.3521988983
 31
0.0
  0
LINE
  5
18F
330
16C
100
AcDbEntity
  8
0
  6
Continuous
 62
    60
370
    25
100
AcDbLine
 10
-197.9829389254
 20
-74.4310794186
 30
0.0
 11
-198.3827236781
 21
-74.7836564298
 31
0.0
  0
ARC
  5
190
330
16C
100
AcDbEntity
  8
0
  6
Continuous
 62
     7
370
    25
100
AcDbCircle
 10
276.844184982
 20
5.524432938
 30
0.0
 40
148.2075847020769
100
AcDbArc
 50
311.7557708796
 51
349.6217025542
  0
ARC
  5
191
330
16C
100
AcDbEntity
  8
0
  6
Continuous
 62
     7
370
    25
100
AcDbCircle
 10
2634.164271296
 20
21503.6479421118
 30
0.0
 40
21908.87021243713
100
AcDbArc
 50
262.2270993051
 51
263.4113891391
  0
ARC
  5
192
330
16C
100
AcDbEntity
  8
0
  6
Continuous
 62
     7
370
    25
100
AcDbCircle
 10
268.7494683722
 20
20.5151343105
 30
0.0
 40
152.5490055951485
100
AcDbArc
 50
263.324385456
 51
274.6629449811
  0
VIEWPORT
  5
1A3
330
16C
100
AcDbEntity
  8
0
100
AcDbViewport
 10
0.0
 20
0.0
 30
0.0
 40
205.6
 41
156.0
 68
     1
 69
     1
 12
0.0
 22
-102.5
 13
0.0
 23
0.0
 14
10.0
 24
10.0
 15
10.0
 25
10.0
 16
0.0
 26
0.0
 36
1.0
 17
0.0
 27
0.0
 37
0.0
 42
50.0
 43
0.0
 44
0.0
 45
646.6812168982
 50
0.0
 51
0.0
 72
   100
 90
   557152
  1

281
     0
 71
     1
 74
     0
110
0.0
120
0.0
130
0.0
111
1.0
121
0.0
131
0.0
112
0.0
122
1.0
132
0.0
 79
     0
146
0.0
170
     0
 61
     5
348
2F
292
     1
282
     1
141
0.0
142
0.0
 63
   256
361
1A4
  0
ENDBLK
  5
16F
330
16C
100
AcDbEntity
  8
0
100
AcDbBlockEnd
  0
ENDSEC
  0
SECTION
  2
ENTITIES
  0
CIRCLE
  5
7D
330
1F
100
AcDbEntity
  8
0
  6
Continuous
 62
     7
370
    25
100
AcDbCircle
 10
0.0018321504
 20
-0.0093123701
 30
0.0
 40
32.49068768156503
  0
CIRCLE
  5
7E
330
1F
100
AcDbEntity
  8
0
  6
Continuous
 62
     7
370
    25
100
AcDbCircle
 10
0.0
 20
0.0
 30
0.0
 40
22.5
  0
LINE
  5
7F
330
1F
100
AcDbEntity
  8
0
  6
Continuous
 62
     7
370
    25
100
AcDbLine
 10
417.7905297708
 20
90.0
 30
0.0
 11
417.7905297708
 21
-295.0
 31
0.0
  0
LINE
  5
80
330
1F
100
AcDbEntity
  8
0
  6
Continuous
 62
     7
370
    25
100
AcDbLine
 10
417.7905297708
 20
-295.0
 30
0.0
 11
-417.7905297708
 21
-295.0
 31
0.0
  0
LINE
  5
81
330
1F
100
AcDbEntity
  8
0
  6
Continuous
 62
     7
370
    25
100
AcDbLine
 10
-417.7905297708
 20
90.0
 30
0.0
 11
-417.7905297708
 21
-295.0
 31
0.0
  0
LINE
  5
82
330
1F
100
AcDbEntity
  8
0
  6
Continuous
 62
     7
370
    25
100
AcDbLine
 10
402.5
 20
-280.0
 30
0.0
 11
-402.5
 21
-280.0
 31
0.0
  0
LINE
  5
83
330
1F
100
AcDbEntity
  8
0
  6
Continuous
 62
     7
370
    25
100
AcDbLine
 10
402.5
 20
75.0
 30
0.0
 11
402.5
 21
-280.0
 31
0.0
  0
LINE
  5
84
330
1F
100
AcDbEntity
  8
0
  6
Continuous
 62
     7
370
    25
100
AcDbLine
 10
402.5
 20
75.0
 30
0.0
 11
-402.5
 21
75.0
 31
0.0
  0
LINE
  5
85
330
1F
100
AcDbEntity
  8
0
  6
Continuous
 62
     7
370
    25
100
AcDbLine
 10
-402.5
 20
75.0
 30
0.0
 11
-402.5
 21
-280.0
 31
0.0
  0
LINE
  5
86
330
1F
100
AcDbEntity
  8
0
  6
Continuous
 62
     7
370
    25
100
AcDbLine
 10
417.7905297708
 20
90.0
 30
0.0
 11
-417.7905297708
 21
90.0
 31
0.0
  0
LINE
  5
87
330
1F
100
AcDbEntity
  8
0
  6
Continuous
 62
     7
370
    25
100
AcDbLine
 10
240.0
 20
75.0
 30
0.0
 11
240.0
 21
-280.0
 31
0.0
  0
LINE
  5
88
330
1F
100
AcDbEntity
  8
0
  6
Continuous
 62
     7
370
    25
100
AcDbLine
 10
-240.0
 20
75.0
 30
0.0
 11
-240.0
 21
-280.0
 31
0.0
  0
SPLINE
  5
91
330
1B
100
AcDbEntity
 67
     1
  8
0
  6
Continuous
 62
     7
370
    25
100
AcDbSpline
210
0.0
220
0.0
230
1.0
 70
     8
 71
     3
 72
    27
 73
    23
 74
     0
 42
0.000000001
 43
0.00000001
 40
0.0
 40
0.0
 40
0.0
 40
0.0
 40
0.0191710714169937
 40
0.0720990736604059
 40
0.1265619914132587
 40
0.1794900006990967
 40
0.2339529225116624
 40
0.2868809897933786
 40
0.3413439737002782
 40
0.3942720522466893
 40
0.448735051316626
 40
0.5016630833966436
 40
0.5561260344673313
 40
0.6090540220861128
 40
0.663516922405363
 40
0.7164449575542905
 40
0.77090790666862
 40
0.8238359854549321
 40
0.8782989826902691
 40
0.9312270476201614
 40
0.9856900332170229
 40
1.0
 40
1.0
 40
1.0
 40
1.0
 10
37.37489000207962
 20
-151.1843024919383
 30
0.0
 10
37.40871053589741
 20
-151.1842535474756
 30
0.0
 10
37.5359036961504
 20
-151.1840694758428
 30
0.0
 10
36.65622983979565
 20
-151.1853932483285
 30
0.0
 10
34.77390013271653
 20
-151.1882231293339
 30
0.0
 10
31.80938910300172
 20
-151.1923315188979
 30
0.0
 10
27.99200510329303
 20
-151.1971504506874
 30
0.0
 10
23.33638164222149
 20
-151.2020860154804
 30
0.0
 10
18.06469407971147
 20
-151.2066736156868
 30
0.0
 10
12.22950365546913
 20
-151.2103517202519
 30
0.0
 10
6.101473101245156
 20
-151.2127338695951
 30
0.0
 10
-0.2563614476997385
 20
-151.2134702857074
 30
0.0
 10
-6.54958624152968
 20
-151.2126029435676
 30
0.0
 10
-12.71331156697342
 20
-151.2100982638937
 30
0.0
 10
-18.46227963676293
 20
-151.2063769049173
 30
0.0
 10
-23.73670886240985
 20
-151.2017005503427
 30
0.0
 10
-28.29435696352158
 20
-151.1967848385804
 30
0.0
 10
-32.08084676142559
 20
-151.1919721849137
 30
0.0
 10
-34.94841966818918
 20
-151.1879679485054
 30
0.0
 10
-36.76441847173397
 20
-151.1852284958989
 30
0.0
 10
-37.57241407553987
 20
-151.1840163199682
 30
0.0
 10
-37.42791081446919
 20
-151.184225251929
 30
0.0
 10
-37.39784322547677
 20
-151.1842687255522
 30
0.0
  0
LINE
  5
94
330
1B
100
AcDbEntity
 67
     1
  8
0
  6
Continuous
 62
     7
370
    25
100
AcDbLine
 10
37.4926521841
 20
-151.1914565335
 30
0.0
 11
38.7221953892
 21
-149.9601785214
 31
0.0
  0
LINE
  5
95
330
1B
100
AcDbEntity
 67
     1
  8
0
  6
Continuous
 62
     7
370
    25
100
AcDbLine
 10
-38.7221953891
 20
-149.9601785214
 30
0.0
 11
-37.492652184
 21
-151.1914565335
 31
0.0
  0
LINE
  5
96
330
1B
100
AcDbEntity
 67
     1
  8
0
  6
Continuous
 62
     7
370
    25
100
AcDbLine
 10
-37.5
 20
-151.1842687702
 30
0.0
 11
-37.5
 21
-165.0
 31
0.0
  0
LINE
  5
97
330
1B
100
AcDbEntity
 67
     1
  8
0
  6
Continuous
 62
     7
370
    25
100
AcDbLine
 10
37.5
 20
-165.0
 30
0.0
 11
37.5
 21
-151.1843025009
 31
0.0
  0
LINE
  5
98
330
1B
100
AcDbEntity
 67
     1
  8
0
  6
Continuous
 62
     7
370
    25
100
AcDbLine
 10
417.7905297708
 20
0.0
 30
0.0
 11
-417.7905297708
 21
0.0
 31
0.0
  0
LINE
  5
99
330
1B
100
AcDbEntity
 67
     1
  8
0
  6
Continuous
 62
     7
370
    25
100
AcDbLine
 10
-37.5
 20
-165.0
 30
0.0
 11
37.5
 21
-165.0
 31
0.0
  0
ARC
  5
9A
330
1B
100
AcDbEntity
 67
     1
  8
0
  6
Continuous
 62
     7
370
    25
100
AcDbCircle
 10
-0.0000000033
 20
22905.6249992888
 30
0.0
 40
23055.62499928891
100
AcDbArc
 50
269.40317436
 51
270.59682564
  0
ARC
  5
9B
330
1B
100
AcDbEntity
 67
     1
  8
0
  6
Continuous
 62
     7
370
    25
100
AcDbCircle
 10
238.2529469721
 20
33.9625410619
 30
0.0
 40
182.7216402964273
100
AcDbArc
 50
270.59682564
 51
349.2881182194
  0
ARC
  5
9C
330
1B
100
AcDbEntity
 67
     1
  8
0
  6
Continuous
 62
     7
370
    25
100
AcDbCircle
 10
-238.2529469721
 20
33.9625410617
 30
0.0
 40
182.7216402963097
100
AcDbArc
 50
190.7118817806
 51
269.40317436
  0
VIEWPORT
  5
193
330
1B
100
AcDbEntity
 67
     1
  8
0
100
AcDbViewport
 10
0.0
 20
0.0
 30
0.0
 40
205.6
 41
156.0
 68
     1
 69
     1
 12
0.0
 22
-102.5
 13
0.0
 23
0.0
 14
10.0
 24
10.0
 15
10.0
 25
10.0
 16
0.0
 26
0.0
 36
1.0
 17
0.0
 27
0.0
 37
0.0
 42
50.0
 43
0.0
 44
0.0
 45
646.6812168982
 50
0.0
 51
0.0
 72
   100
 90
   557152
  1

281
     0
 71
     1
 74
     0
110
0.0
120
0.0
130
0.0
111
1.0
121
0.0
131
0.0
112
0.0
122
1.0
132
0.0
 79
     0
146
0.0
170
     0
 61
     5
348
2F
292
     1
282
     1
141
0.0
142
0.0
 63
   256
361
194
  0
ENDSEC
  0
SECTION
  2
OBJECTS
  0
DICTIONARY
  5
C
330
0
100
AcDbDictionary
281
     1
  3
ACAD_DETAILVIEWSTYLE
350
1AC
  3
ACAD_GROUP
350
D
  3
ACAD_LAYOUT
350
1A
  3
ACAD_MATERIAL
350
43
  3
ACAD_MLEADERSTYLE
350
6B
  3
ACAD_MLINESTYLE
350
17
  3
ACAD_PLOTSETTINGS
350
19
  3
ACAD_PLOTSTYLENAME
350
E
  3
ACAD_SCALELIST
350
47
  3
ACAD_SECTIONVIEWSTYLE
350
1AD
  3
ACAD_TABLESTYLE
350
69
  3
ACAD_VISUALSTYLE
350
2A
  3
ACDB_RECOMPOSE_DATA
350
1A9
  3
AcDbVariableDictionary
350
1A5
  0
SUN
  5
6D
330
29
100
AcDbSun
 90
        1
290
     0
 63
     7
421
 16777215
 40
1.0
291
     1
 91
  2455826
 92
 54000000
292
     0
 70
     2
 71
   256
280
     1
  0
SUN
  5
196
330
195
100
AcDbSun
 90
        1
290
     0
 63
     7
421
 16777215
 40
1.0
291
     1
 91
  2455826
 92
 54000000
292
     0
 70
     2
 71
   256
280
     1
  0
SUN
  5
198
330
197
100
AcDbSun
 90
        1
290
     0
 63
     7
421
 16777215
 40
1.0
291
     1
 91
  2455826
 92
 54000000
292
     0
 70
     2
 71
   256
280
     1
  0
SUN
  5
19A
330
199
100
AcDbSun
 90
        1
290
     0
 63
     7
421
 16777215
 40
1.0
291
     1
 91
  2455826
 92
 54000000
292
     0
 70
     2
 71
   256
280
     1
  0
SUN
  5
19C
330
19B
100
AcDbSun
 90
        1
290
     0
 63
     7
421
 16777215
 40
1.0
291
     1
 91
  2455826
 92
 54000000
292
     0
 70
     2
 71
   256
280
     1
  0
SUN
  5
19E
330
19D
100
AcDbSun
 90
        1
290
     0
 63
     7
421
 16777215
 40
1.0
291
     1
 91
  2455826
 92
 54000000
292
     0
 70
     2
 71
   256
280
     1
  0
SUN
  5
1A0
330
19F
100
AcDbSun
 90
        1
290
     0
 63
     7
421
 16777215
 40
1.0
291
     1
 91
  2455826
 92
 54000000
292
     0
 70
     2
 71
   256
280
     1
  0
SUN
  5
1A2
330
1A1
100
AcDbSun
 90
        1
290
     0
 63
     7
421
 16777215
 40
1.0
291
     1
 91
  2455826
 92
 54000000
292
     0
 70
     2
 71
   256
280
     1
  0
SUN
  5
1A4
330
1A3
100
AcDbSun
 90
        1
290
     0
 63
     7
421
 16777215
 40
1.0
291
     1
 91
  2455826
 92
 54000000
292
     0
 70
     2
 71
   256
280
     1
  0
SUN
  5
194
330
193
100
AcDbSun
 90
        1
290
     0
 63
     7
421
 16777215
 40
1.0
291
     1
 91
  2455826
 92
 54000000
292
     0
 70
     2
 71
   256
280
     1
  0
DICTIONARY
  5
1AC
102
{ACAD_REACTORS
330
C
102
}
330
C
100
AcDbDictionary
281
     1
  0
DICTIONARY
  5
D
102
{ACAD_REACTORS
330
C
102
}
330
C
100
AcDbDictionary
281
     1
  0
DICTIONARY
  5
1A
102
{ACAD_REACTORS
330
C
102
}
330
C
100
AcDbDictionary
281
     1
  3
_Dimetrisch
350
16D
  3
_Isometrisch
350
11D
  3
_Links
350
26
  3
_Normal auf
350
B8
  3
_Rechts
350
E8
  3
_Rückseite
350
D0
  3
_Trimetrisch
350
144
  3
_Unten
350
106
  3
_Vorderseite
350
1E
  3
Model
350
22
  0
DICTIONARY
  5
43
102
{ACAD_REACTORS
330
C
102
}
330
C
100
AcDbDictionary
281
     1
  3
ByBlock
350
45
  3
ByLayer
350
44
  3
Global
350
46
  0
DICTIONARY
  5
6B
102
{ACAD_REACTORS
330
C
102
}
330
C
100
AcDbDictionary
281
     1
  3
Standard
350
6C
  0
DICTIONARY
  5
17
102
{ACAD_REACTORS
330
C
102
}
330
C
100
AcDbDictionary
281
     1
  3
Standard
350
18
  0
DICTIONARY
  5
19
102
{ACAD_REACTORS
330
C
102
}
330
C
100
AcDbDictionary
281
     1
  0
ACDBDICTIONARYWDFLT
  5
E
102
{ACAD_REACTORS
330
C
102
}
330
C
100
AcDbDictionary
281
     1
  3
Normal
350
F
100
AcDbDictionaryWithDefault
340
F
  0
DICTIONARY
  5
47
102
{ACAD_REACTORS
330
C
102
}
330
C
100
AcDbDictionary
281
     1
  3
A0
350
48
  3
A1
350
49
  3
A2
350
4A
  3
A3
350
4B
  3
A4
350
4C
  3
A5
350
4D
  3
A6
350
4E
  3
A7
350
4F
  3
A8
350
50
  3
A9
350
51
  3
B0
350
52
  3
B1
350
53
  3
B2
350
54
  3
B3
350
55
  3
B4
350
56
  3
B5
350
57
  3
B6
350
58
  3
B7
350
59
  3
B8
350
5A
  3
B9
350
5B
  3
C0
350
5C
  3
C1
350
5D
  3
C2
350
5E
  3
C3
350
5F
  3
C4
350
60
  3
C5
350
61
  3
C6
350
62
  3
C7
350
63
  3
C8
350
64
  3
C9
350
65
  3
D0
350
66
  3
D1
350
67
  3
D2
350
68
  0
DICTIONARY
  5
1AD
102
{ACAD_REACTORS
330
C
102
}
330
C
100
AcDbDictionary
281
     1
  0
DICTIONARY
  5
69
102
{ACAD_REACTORS
330
C
102
}
330
C
100
AcDbDictionary
281
     1
  3
Standard
350
6A
  0
DICTIONARY
  5
2A
102
{ACAD_REACTORS
330
C
102
}
330
C
100
AcDbDictionary
281
     1
  3
2dWireframe
350
2F
  3
Basic
350
32
  3
Brighten
350
36
  3
ColorChange
350
3A
  3
Conceptual
350
34
  3
Dim
350
35
  3
EdgeColorOff
350
3D
  3
Facepattern
350
39
  3
Flat
350
2B
  3
FlatWithEdges
350
2C
  3
Gouraud
350
2D
  3
GouraudWithEdges
350
2E
  3
Hidden
350
31
  3
JitterOff
350
3B
  3
Linepattern
350
38
  3
OverhangOff
350
3C
  3
Realistic
350
33
  3
Shaded
350
42
  3
Shaded with edges
350
41
  3
Shades of Gray
350
3E
  3
Sketchy
350
3F
  3
Thicken
350
37
  3
Wireframe
350
30
  3
X-Ray
350
40
  0
XRECORD
  5
1A9
102
{ACAD_REACTORS
330
C
102
}
330
C
100
AcDbXrecord
280
     1
 90
        1
330
6A
  0
DICTIONARY
  5
1A5
102
{ACAD_REACTORS
330
C
102
}
330
C
100
AcDbDictionary
281
     1
  3
CANNOSCALE
350
1A6
  3
CMLEADERSTYLE
350
1AB
  3
CTABLESTYLE
350
1AA
  0
LAYOUT
  5
16D
102
{ACAD_REACTORS
330
1A
102
}
330
1A
100
AcDbPlotSettings
  1

  2
none_device
  4
ISO_A4_(210.00_x_297.00_MM)
  6

 40
7.5
 41
20.0
 42
7.5
 43
20.0
 44
210.0
 45
297.0
 46
0.0
 47
0.0
 48
0.0
 49
0.0
140
0.0
141
0.0
142
1.0
143
3.2512881694
 70
   688
 72
     1
 73
     1
 74
     1
  7

 75
     0
 76
     0
 77
     2
 78
   300
147
0.3075703991
148
417.7905297708
149
165.0
100
AcDbLayout
  1
_Dimetrisch
 70
     1
 71
     9
 10
0.0
 20
0.0
 11
0.0
 21
0.0
 12
0.0
 22
0.0
 32
0.0
 14
0.0
 24
0.0
 34
0.0
 15
0.0
 25
0.0
 35
0.0
146
0.0
 13
0.0
 23
0.0
 33
0.0
 16
1.0
 26
0.0
 36
0.0
 17
0.0
 27
1.0
 37
0.0
 76
     0
330
16C
331
1A3
  0
LAYOUT
  5
11D
102
{ACAD_REACTORS
330
1A
102
}
330
1A
100
AcDbPlotSettings
  1

  2
none_device
  4
ISO_A4_(210.00_x_297.00_MM)
  6

 40
7.5
 41
20.0
 42
7.5
 43
20.0
 44
210.0
 45
297.0
 46
0.0
 47
0.0
 48
0.0
 49
0.0
140
0.0
141
0.0
142
1.0
143
3.2512881694
 70
   688
 72
     1
 73
     1
 74
     1
  7

 75
     0
 76
     0
 77
     2
 78
   300
147
0.3075703991
148
417.7905297708
149
165.0
100
AcDbLayout
  1
_Isometrisch
 70
     1
 71
     7
 10
0.0
 20
0.0
 11
0.0
 21
0.0
 12
0.0
 22
0.0
 32
0.0
 14
0.0
 24
0.0
 34
0.0
 15
0.0
 25
0.0
 35
0.0
146
0.0
 13
0.0
 23
0.0
 33
0.0
 16
1.0
 26
0.0
 36
0.0
 17
0.0
 27
1.0
 37
0.0
 76
     0
330
11C
331
19F
  0
LAYOUT
  5
26
102
{ACAD_REACTORS
330
1A
102
}
330
1A
100
AcDbPlotSettings
  1

  2
none_device
  4
ISO_A4_(210.00_x_297.00_MM)
  6

 40
7.5
 41
20.0
 42
7.5
 43
20.0
 44
210.0
 45
297.0
 46
0.0
 47
0.0
 48
0.0
 49
0.0
140
0.0
141
0.0
142
1.0
143
3.2512881694
 70
   688
 72
     1
 73
     1
 74
     1
  7

 75
     0
 76
     0
 77
     2
 78
   300
147
0.3075703991
148
417.7905297708
149
165.0
100
AcDbLayout
  1
_Links
 70
     1
 71
     2
 10
0.0
 20
0.0
 11
0.0
 21
0.0
 12
0.0
 22
0.0
 32
0.0
 14
0.0
 24
0.0
 34
0.0
 15
0.0
 25
0.0
 35
0.0
146
0.0
 13
0.0
 23
0.0
 33
0.0
 16
1.0
 26
0.0
 36
0.0
 17
0.0
 27
1.0
 37
0.0
 76
     0
330
23
331
195
  0
LAYOUT
  5
B8
102
{ACAD_REACTORS
330
1A
102
}
330
1A
100
AcDbPlotSettings
  1

  2
none_device
  4
ISO_A4_(210.00_x_297.00_MM)
  6

 40
7.5
 41
20.0
 42
7.5
 43
20.0
 44
210.0
 45
297.0
 46
0.0
 47
0.0
 48
0.0
 49
0.0
140
0.0
141
0.0
142
1.0
143
3.2512881694
 70
   688
 72
     1
 73
     1
 74
     1
  7

 75
     0
 76
     0
 77
     2
 78
   300
147
0.3075703991
148
417.7905297708
149
165.0
100
AcDbLayout
  1
_Normal auf
 70
     1
 71
     3
 10
0.0
 20
0.0
 11
0.0
 21
0.0
 12
0.0
 22
0.0
 32
0.0
 14
0.0
 24
0.0
 34
0.0
 15
0.0
 25
0.0
 35
0.0
146
0.0
 13
0.0
 23
0.0
 33
0.0
 16
1.0
 26
0.0
 36
0.0
 17
0.0
 27
1.0
 37
0.0
 76
     0
330
B7
331
197
  0
LAYOUT
  5
E8
102
{ACAD_REACTORS
330
1A
102
}
330
1A
100
AcDbPlotSettings
  1

  2
none_device
  4
ISO_A4_(210.00_x_297.00_MM)
  6

 40
7.5
 41
20.0
 42
7.5
 43
20.0
 44
210.0
 45
297.0
 46
0.0
 47
0.0
 48
0.0
 49
0.0
140
0.0
141
0.0
142
1.0
143
3.2512881694
 70
   688
 72
     1
 73
     1
 74
     1
  7

 75
     0
 76
     0
 77
     2
 78
   300
147
0.3075703991
148
417.7905297708
149
165.0
100
AcDbLayout
  1
_Rechts
 70
     1
 71
     5
 10
0.0
 20
0.0
 11
0.0
 21
0.0
 12
0.0
 22
0.0
 32
0.0
 14
0.0
 24
0.0
 34
0.0
 15
0.0
 25
0.0
 35
0.0
146
0.0
 13
0.0
 23
0.0
 33
0.0
 16
1.0
 26
0.0
 36
0.0
 17
0.0
 27
1.0
 37
0.0
 76
     0
330
E7
331
19B
  0
LAYOUT
  5
D0
102
{ACAD_REACTORS
330
1A
102
}
330
1A
100
AcDbPlotSettings
  1

  2
none_device
  4
ISO_A4_(210.00_x_297.00_MM)
  6

 40
7.5
 41
20.0
 42
7.5
 43
20.0
 44
210.0
 45
297.0
 46
0.0
 47
0.0
 48
0.0
 49
0.0
140
0.0
141
0.0
142
1.0
143
3.2512881694
 70
   688
 72
     1
 73
     1
 74
     1
  7

 75
     0
 76
     0
 77
     2
 78
   300
147
0.3075703991
148
417.7905297708
149
165.0
100
AcDbLayout
  1
_Rückseite
 70
     1
 71
     4
 10
0.0
 20
0.0
 11
0.0
 21
0.0
 12
0.0
 22
0.0
 32
0.0
 14
0.0
 24
0.0
 34
0.0
 15
0.0
 25
0.0
 35
0.0
146
0.0
 13
0.0
 23
0.0
 33
0.0
 16
1.0
 26
0.0
 36
0.0
 17
0.0
 27
1.0
 37
0.0
 76
     0
330
CF
331
199
  0
LAYOUT
  5
144
102
{ACAD_REACTORS
330
1A
102
}
330
1A
100
AcDbPlotSettings
  1

  2
none_device
  4
ISO_A4_(210.00_x_297.00_MM)
  6

 40
7.5
 41
20.0
 42
7.5
 43
20.0
 44
210.0
 45
297.0
 46
0.0
 47
0.0
 48
0.0
 49
0.0
140
0.0
141
0.0
142
1.0
143
3.2512881694
 70
   688
 72
     1
 73
     1
 74
     1
  7

 75
     0
 76
     0
 77
     2
 78
   300
147
0.3075703991
148
417.7905297708
149
165.0
100
AcDbLayout
  1
_Trimetrisch
 70
     1
 71
     8
 10
0.0
 20
0.0
 11
0.0
 21
0.0
 12
0.0
 22
0.0
 32
0.0
 14
0.0
 24
0.0
 34
0.0
 15
0.0
 25
0.0
 35
0.0
146
0.0
 13
0.0
 23
0.0
 33
0.0
 16
1.0
 26
0.0
 36
0.0
 17
0.0
 27
1.0
 37
0.0
 76
     0
330
143
331
1A1
  0
LAYOUT
  5
106
102
{ACAD_REACTORS
330
1A
102
}
330
1A
100
AcDbPlotSettings
  1

  2
none_device
  4
ISO_A4_(210.00_x_297.00_MM)
  6

 40
7.5
 41
20.0
 42
7.5
 43
20.0
 44
210.0
 45
297.0
 46
0.0
 47
0.0
 48
0.0
 49
0.0
140
0.0
141
0.0
142
1.0
143
3.2512881694
 70
   688
 72
     1
 73
     1
 74
     1
  7

 75
     0
 76
     0
 77
     2
 78
   300
147
0.3075703991
148
417.7905297708
149
165.0
100
AcDbLayout
  1
_Unten
 70
     1
 71
     6
 10
0.0
 20
0.0
 11
0.0
 21
0.0
 12
0.0
 22
0.0
 32
0.0
 14
0.0
 24
0.0
 34
0.0
 15
0.0
 25
0.0
 35
0.0
146
0.0
 13
0.0
 23
0.0
 33
0.0
 16
1.0
 26
0.0
 36
0.0
 17
0.0
 27
1.0
 37
0.0
 76
     0
330
105
331
19D
  0
LAYOUT
  5
1E
102
{ACAD_REACTORS
330
1A
102
}
330
1A
100
AcDbPlotSettings
  1

  2
none_device
  4
ISO_A4_(210.00_x_297.00_MM)
  6

 40
7.5
 41
20.0
 42
7.5
 43
20.0
 44
210.0
 45
297.0
 46
0.0
 47
0.0
 48
0.0
 49
0.0
140
0.0
141
0.0
142
1.0
143
3.2512881694
 70
   688
 72
     1
 73
     1
 74
     1
  7

 75
     0
 76
     0
 77
     2
 78
   300
147
0.3075703991
148
417.7905297708
149
165.0
100
AcDbLayout
  1
_Vorderseite
 70
     1
 71
     1
 10
-482.8162931593
 20
-189.3846612707
 11
482.8162931593
 21
493.3858543081
 12
0.0
 22
0.0
 32
0.0
 14
-417.7905297708
 24
-165.0
 34
0.0
 15
417.7905297709
 25
0.0
 35
0.0
146
0.0
 13
0.0
 23
0.0
 33
0.0
 16
1.0
 26
0.0
 36
0.0
 17
0.0
 27
1.0
 37
0.0
 76
     0
330
1B
331
193
  0
LAYOUT
  5
22
102
{ACAD_REACTORS
330
1A
102
}
330
1A
100
AcDbPlotSettings
  1

  2
none_device
  4
ANSI_A_(11.00_x_8.50_Inches)
  6

 40
6.35
 41
19.05
 42
6.35000508
 43
19.05000254
 44
279.4
 45
215.9
 46
133.34999746
 47
122.831015567
 48
0.0
 49
0.0
140
0.0
141
0.0
142
0.0130328469
143
1.0
 70
  1696
 72
     0
 73
     0
 74
     0
  7

 75
     0
 76
     0
 77
     2
 78
   300
147
0.0179189148
148
-1300.4909072572
149
0.0
100
AcDbLayout
  1
Model
 70
     1
 71
     0
 10
0.0
 20
0.0
 11
420.0
 21
297.0
 12
0.0
 22
0.0
 32
0.0
 14
-417.7905297708
 24
-295.0
 34
0.0
 15
417.7905297708
 25
90.0
 35
0.0
146
0.0
 13
0.0
 23
0.0
 33
0.0
 16
1.0
 26
0.0
 36
0.0
 17
0.0
 27
1.0
 37
0.0
 76
     0
330
1F
331
29
  0
MATERIAL
  5
45
102
{ACAD_REACTORS
330
43
102
}
330
43
100
AcDbMaterial
  1
ByBlock
 72
     1
 94
      127
  0
MATERIAL
  5
44
102
{ACAD_REACTORS
330
43
102
}
330
43
100
AcDbMaterial
  1
ByLayer
 72
     1
 94
      127
  0
MATERIAL
  5
46
102
{ACAD_REACTORS
330
43
102
}
330
43
100
AcDbMaterial
  1
Global
 72
     1
 94
      127
  0
MLEADERSTYLE
  5
6C
102
{ACAD_REACTORS
330
6B
102
}
330
6B
100
AcDbMLeaderStyle
179
     2
170
     2
171
     1
172
     0
 90
        2
 40
0.0
 41
0.0
173
     1
 91
-1056964608
340
14
 92
       -2
290
     1
 42
2.0
291
     1
 43
8.0
  3
Standard
341
0
 44
4.0
300

342
11
174
     1
178
     6
175
     1
176
     0
 93
-1056964608
 45
4.0
292
     0
297
     0
 46
4.0
343
0
 94
-1056964608
 47
1.0
 49
1.0
140
1.0
293
     1
141
0.0
294
     1
177
     0
142
1.0
295
     0
296
     0
143
3.75
271
     0
272
     9
273
     9
298
     0
  0
MLINESTYLE
  5
18
102
{ACAD_REACTORS
330
17
102
}
330
17
100
AcDbMlineStyle
  2
Standard
 70
     0
  3

 62
   256
 51
90.0
 52
90.0
 71
     2
 49
0.5
 62
   256
  6
BYLAYER
 49
-0.5
 62
   256
  6
BYLAYER
  0
ACDBPLACEHOLDER
  5
F
102
{ACAD_REACTORS
330
E
102
}
330
E
  0
SCALE
  5
48
102
{ACAD_REACTORS
330
47
102
}
330
47
100
AcDbScale
 70
     0
300
1:1
140
1.0
141
1.0
290
     1
  0
SCALE
  5
49
102
{ACAD_REACTORS
330
47
102
}
330
47
100
AcDbScale
 70
     0
300
1:2
140
1.0
141
2.0
290
     0
  0
SCALE
  5
4A
102
{ACAD_REACTORS
330
47
102
}
330
47
100
AcDbScale
 70
     0
300
1:4
140
1.0
141
4.0
290
     0
  0
SCALE
  5
4B
102
{ACAD_REACTORS
330
47
102
}
330
47
100
AcDbScale
 70
     0
300
1:5
140
1.0
141
5.0
290
     0
  0
SCALE
  5
4C
102
{ACAD_REACTORS
330
47
102
}
330
47
100
AcDbScale
 70
     0
300
1:8
140
1.0
141
8.0
290
     0
  0
SCALE
  5
4D
102
{ACAD_REACTORS
330
47
102
}
330
47
100
AcDbScale
 70
     0
300
1:10
140
1.0
141
10.0
290
     0
  0
SCALE
  5
4E
102
{ACAD_REACTORS
330
47
102
}
330
47
100
AcDbScale
 70
     0
300
1:16
140
1.0
141
16.0
290
     0
  0
SCALE
  5
4F
102
{ACAD_REACTORS
330
47
102
}
330
47
100
AcDbScale
 70
     0
300
1:20
140
1.0
141
20.0
290
     0
  0
SCALE
  5
50
102
{ACAD_REACTORS
330
47
102
}
330
47
100
AcDbScale
 70
     0
300
1:30
140
1.0
141
30.0
290
     0
  0
SCALE
  5
51
102
{ACAD_REACTORS
330
47
102
}
330
47
100
AcDbScale
 70
     0
300
1:40
140
1.0
141
40.0
290
     0
  0
SCALE
  5
52
102
{ACAD_REACTORS
330
47
102
}
330
47
100
AcDbScale
 70
     0
300
1:50
140
1.0
141
50.0
290
     0
  0
SCALE
  5
53
102
{ACAD_REACTORS
330
47
102
}
330
47
100
AcDbScale
 70
     0
300
1:100
140
1.0
141
100.0
290
     0
  0
SCALE
  5
54
102
{ACAD_REACTORS
330
47
102
}
330
47
100
AcDbScale
 70
     0
300
2:1
140
2.0
141
1.0
290
     0
  0
SCALE
  5
55
102
{ACAD_REACTORS
330
47
102
}
330
47
100
AcDbScale
 70
     0
300
4:1
140
4.0
141
1.0
290
     0
  0
SCALE
  5
56
102
{ACAD_REACTORS
330
47
102
}
330
47
100
AcDbScale
 70
     0
300
8:1
140
8.0
141
1.0
290
     0
  0
SCALE
  5
57
102
{ACAD_REACTORS
330
47
102
}
330
47
100
AcDbScale
 70
     0
300
10:1
140
10.0
141
1.0
290
     0
  0
SCALE
  5
58
102
{ACAD_REACTORS
330
47
102
}
330
47
100
AcDbScale
 70
     0
300
100:1
140
100.0
141
1.0
290
     0
  0
SCALE
  5
59
102
{ACAD_REACTORS
330
47
102
}
330
47
100
AcDbScale
 70
     0
300
1/128" = 1'-0"
140
0.0078125
141
12.0
290
     0
  0
SCALE
  5
5A
102
{ACAD_REACTORS
330
47
102
}
330
47
100
AcDbScale
 70
     0
300
1/64" = 1'-0"
140
0.015625
141
12.0
290
     0
  0
SCALE
  5
5B
102
{ACAD_REACTORS
330
47
102
}
330
47
100
AcDbScale
 70
     0
300
1/32" = 1'-0"
140
0.03125
141
12.0
290
     0
  0
SCALE
  5
5C
102
{ACAD_REACTORS
330
47
102
}
330
47
100
AcDbScale
 70
     0
300
1/16" = 1'-0"
140
0.0625
141
12.0
290
     0
  0
SCALE
  5
5D
102
{ACAD_REACTORS
330
47
102
}
330
47
100
AcDbScale
 70
     0
300
3/32" = 1'-0"
140
0.09375
141
12.0
290
     0
  0
SCALE
  5
5E
102
{ACAD_REACTORS
330
47
102
}
330
47
100
AcDbScale
 70
     0
300
1/8" = 1'-0"
140
0.125
141
12.0
290
     0
  0
SCALE
  5
5F
102
{ACAD_REACTORS
330
47
102
}
330
47
100
AcDbScale
 70
     0
300
3/16" = 1'-0"
140
0.1875
141
12.0
290
     0
  0
SCALE
  5
60
102
{ACAD_REACTORS
330
47
102
}
330
47
100
AcDbScale
 70
     0
300
1/4" = 1'-0"
140
0.25
141
12.0
290
     0
  0
SCALE
  5
61
102
{ACAD_REACTORS
330
47
102
}
330
47
100
AcDbScale
 70
     0
300
3/8" = 1'-0"
140
0.375
141
12.0
290
     0
  0
SCALE
  5
62
102
{ACAD_REACTORS
330
47
102
}
330
47
100
AcDbScale
 70
     0
300
1/2" = 1'-0"
140
0.5
141
12.0
290
     0
  0
SCALE
  5
63
102
{ACAD_REACTORS
330
47
102
}
330
47
100
AcDbScale
 70
     0
300
3/4" = 1'-0"
140
0.75
141
12.0
290
     0
  0
SCALE
  5
64
102
{ACAD_REACTORS
330
47
102
}
330
47
100
AcDbScale
 70
     0
300
1" = 1'-0"
140
1.0
141
12.0
290
     0
  0
SCALE
  5
65
102
{ACAD_REACTORS
330
47
102
}
330
47
100
AcDbScale
 70
     0
300
1-1/2" = 1'-0"
140
1.5
141
12.0
290
     0
  0
SCALE
  5
66
102
{ACAD_REACTORS
330
47
102
}
330
47
100
AcDbScale
 70
     0
300
3" = 1'-0"
140
3.0
141
12.0
290
     0
  0
SCALE
  5
67
102
{ACAD_REACTORS
330
47
102
}
330
47
100
AcDbScale
 70
     0
300
6" = 1'-0"
140
6.0
141
12.0
290
     0
  0
SCALE
  5
68
102
{ACAD_REACTORS
330
47
102
}
330
47
100
AcDbScale
 70
     0
300
1'-0" = 1'-0"
140
12.0
141
12.0
290
     0
  0
TABLESTYLE
  5
6A
102
{ACAD_REACTORS
330
69
102
}
102
{ACAD_XDICTIONARY
360
1A7
102
}
330
69
100
AcDbTableStyle
  3
Standard
 70
     0
 71
     0
 40
0.06
 41
0.06
280
     0
281
     0
  7
STANDARD
140
4.5
170
     2
 62
     0
 63
   257
283
     0
 90
        4
 91
        0
  1

274
    -2
284
     1
 64
     0
275
    -2
285
     1
 65
     0
276
    -2
286
     1
 66
     0
277
    -2
287
     1
 67
     0
278
    -2
288
     1
 68
     0
279
    -2
289
     1
 69
     0
  7
STANDARD
140
6.0
170
     5
 62
     0
 63
   257
283
     0
 90
        4
 91
        0
  1

274
    -2
284
     1
 64
     0
275
    -2
285
     1
 65
     0
276
    -2
286
     1
 66
     0
277
    -2
287
     1
 67
     0
278
    -2
288
     1
 68
     0
279
    -2
289
     1
 69
     0
  7
STANDARD
140
4.5
170
     5
 62
     0
 63
   257
283
     0
 90
        4
 91
        0
  1

274
    -2
284
     1
 64
     0
275
    -2
285
     1
 65
     0
276
    -2
286
     1
 66
     0
277
    -2
287
     1
 67
     0
278
    -2
288
     1
 68
     0
279
    -2
289
     1
 69
     0
  0
VISUALSTYLE
  5
2F
102
{ACAD_REACTORS
330
2A
102
}
330
2A
100
AcDbVisualStyle
  2
2dWireframe
 70
     4
177
     3
291
     0
 70
    58
 90
        0
176
     1
 90
        2
176
     1
 90
        0
176
     1
 90
        0
176
     1
 40
0.6
176
     1
 40
30.0
176
     1
 62
     7
420
 16777215
176
     1
 90
        1
176
     1
 90
        4
176
     1
 62
     7
176
     1
 62
   257
176
     1
 90
        1
176
     1
 90
        1
176
     1
 40
1.0
176
     1
 90
        0
176
     1
 62
   257
176
     1
 40
1.0
176
     1
 90
        1
176
     1
 90
        6
176
     1
 90
        2
176
     1
 62
     7
176
     1
 90
        5
176
     1
 90
        0
176
     1
 90
        0
176
     1
290
     0
176
     1
 90
        1
176
     1
 40
0.0
176
     1
 90
        0
176
     1
290
     1
176
     1
290
     1
176
     1
290
     0
176
     1
290
     0
176
     1
290
     0
176
     1
290
     0
176
     1
290
     0
176
     1
290
     0
176
     1
290
     0
176
     1
 90
       50
176
     1
 40
0.0
176
     1
 40
1.0
176
     1
 90
        0
176
     1
 62
    18
420
        0
176
     1
 90
       50
176
     1
 90
        3
176
     1
 62
     5
420
      255
176
     1
290
     0
176
     1
 90
       50
176
     1
 90
       50
176
     1
 90
       50
176
     1
290
     0
176
     1
 90
       50
176
     1
 62
   256
176
     0
 40
1.0
176
     0
 90
        2
176
     1
  1
strokes_ogs.tif
176
     1
290
     0
176
     1
 40
1.0
176
     1
 40
1.0
176
     1
  0
VISUALSTYLE
  5
32
102
{ACAD_REACTORS
330
2A
102
}
330
2A
100
AcDbVisualStyle
  2
Basic
 70
     7
177
     3
291
     1
 70
    58
 90
        1
176
     1
 90
        0
176
     1
 90
        1
176
     1
 90
        0
176
     1
 40
0.6
176
     1
 40
30.0
176
     1
 62
     7
420
 16777215
176
     1
 90
        0
176
     1
 90
        4
176
     1
 62
     7
176
     1
 62
   257
176
     1
 90
        1
176
     1
 90
        1
176
     1
 40
1.0
176
     1
 90
        8
176
     1
 62
     7
176
     1
 40
1.0
176
     1
 90
        1
176
     1
 90
        6
176
     1
 90
        2
176
     1
 62
     7
176
     1
 90
        5
176
     1
 90
        0
176
     1
 90
        0
176
     1
290
     0
176
     1
 90
        1
176
     1
 40
0.0
176
     1
 90
        0
176
     1
290
     0
176
     1
290
     1
176
     1
290
     1
176
     1
290
     0
176
     1
290
     0
176
     1
290
     0
176
     1
290
     0
176
     1
290
     0
176
     1
290
     0
176
     1
 90
       50
176
     1
 40
0.0
176
     1
 40
1.0
176
     1
 90
        0
176
     1
 62
    18
420
        0
176
     1
 90
       50
176
     1
 90
        3
176
     1
 62
     5
420
      255
176
     1
290
     0
176
     1
 90
       50
176
     1
 90
       50
176
     1
 90
       50
176
     1
290
     0
176
     1
 90
       50
176
     1
 62
   256
176
     0
 40
1.0
176
     0
 90
        2
176
     1
  1
strokes_ogs.tif
176
     1
290
     0
176
     1
 40
1.0
176
     1
 40
1.0
176
     1
  0
VISUALSTYLE
  5
36
102
{ACAD_REACTORS
330
2A
102
}
330
2A
100
AcDbVisualStyle
  2
Brighten
 70
    12
177
     3
291
     1
 70
    58
 90
        2
176
     1
 90
        2
176
     1
 90
        0
176
     1
 90
        0
176
     1
 40
0.6
176
     1
 40
30.0
176
     1
 62
     7
420
 16777215
176
     1
 90
        1
176
     1
 90
        4
176
     1
 62
     7
176
     1
 62
   257
176
     1
 90
        1
176
     1
 90
        1
176
     1
 40
1.0
176
     1
 90
        8
176
     1
 62
     7
176
     1
 40
1.0
176
     1
 90
        1
176
     1
 90
        6
176
     1
 90
        2
176
     1
 62
     7
176
     1
 90
        5
176
     1
 90
        0
176
     1
 90
        0
176
     1
290
     0
176
     1
 90
        1
176
     1
 40
50.0
176
     1
 90
        0
176
     1
290
     0
176
     1
290
     1
176
     1
290
     1
176
     1
290
     0
176
     1
290
     0
176
     1
290
     0
176
     1
290
     0
176
     1
290
     0
176
     1
290
     0
176
     1
 90
       50
176
     1
 40
0.0
176
     1
 40
1.0
176
     1
 90
        0
176
     1
 62
    18
420
        0
176
     1
 90
       50
176
     1
 90
        3
176
     1
 62
     5
420
      255
176
     1
290
     0
176
     1
 90
       50
176
     1
 90
       50
176
     1
 90
       50
176
     1
290
     0
176
     1
 90
       50
176
     1
 62
   256
176
     0
 40
1.0
176
     0
 90
        2
176
     1
  1
strokes_ogs.tif
176
     1
290
     0
176
     1
 40
1.0
176
     1
 40
1.0
176
     1
  0
VISUALSTYLE
  5
3A
102
{ACAD_REACTORS
330
2A
102
}
330
2A
100
AcDbVisualStyle
  2
ColorChange
 70
    16
177
     3
291
     1
 70
    58
 90
        2
176
     1
 90
        2
176
     1
 90
        3
176
     1
 90
        0
176
     1
 40
0.6
176
     1
 40
30.0
176
     1
 62
     8
420
  8421504
176
     1
 90
        1
176
     1
 90
        4
176
     1
 62
     7
176
     1
 62
   257
176
     1
 90
        1
176
     1
 90
        1
176
     1
 40
1.0
176
     1
 90
        8
176
     1
 62
     8
420
  8421504
176
     1
 40
1.0
176
     1
 90
        1
176
     1
 90
        6
176
     1
 90
        2
176
     1
 62
     7
176
     1
 90
        5
176
     1
 90
        0
176
     1
 90
        0
176
     1
290
     0
176
     1
 90
        1
176
     1
 40
0.0
176
     1
 90
        0
176
     1
290
     0
176
     1
290
     1
176
     1
290
     1
176
     1
290
     0
176
     1
290
     0
176
     1
290
     0
176
     1
290
     0
176
     1
290
     0
176
     1
290
     0
176
     1
 90
       50
176
     1
 40
0.0
176
     1
 40
1.0
176
     1
 90
        0
176
     1
 62
    18
420
        0
176
     1
 90
       50
176
     1
 90
        3
176
     1
 62
     5
420
      255
176
     1
290
     0
176
     1
 90
       50
176
     1
 90
       50
176
     1
 90
       50
176
     1
290
     0
176
     1
 90
       50
176
     1
 62
   256
176
     0
 40
1.0
176
     0
 90
        2
176
     1
  1
strokes_ogs.tif
176
     1
290
     0
176
     1
 40
1.0
176
     1
 40
1.0
176
     1
  0
VISUALSTYLE
  5
34
102
{ACAD_REACTORS
330
2A
102
}
330
2A
100
AcDbVisualStyle
  2
Conceptual
 70
     9
177
     3
291
     0
 70
    58
 90
        3
176
     1
 90
        2
176
     1
 90
        0
176
     1
 90
        0
176
     1
 40
0.6
176
     1
 40
30.0
176
     1
 62
     7
420
 16777215
176
     1
 90
        2
176
     1
 90
        2
176
     1
 62
     7
176
     1
 62
   257
176
     1
 90
        1
176
     1
 90
        1
176
     1
 40
179.0
176
     1
 90
        8
176
     1
 62
     7
176
     1
 40
1.0
176
     1
 90
        1
176
     1
 90
        6
176
     1
 90
        2
176
     1
 62
     7
176
     1
 90
        3
176
     1
 90
        0
176
     1
 90
        0
176
     1
290
     0
176
     1
 90
        1
176
     1
 40
0.0
176
     1
 90
        0
176
     1
290
     0
176
     1
290
     1
176
     1
290
     1
176
     1
290
     0
176
     1
290
     0
176
     1
290
     0
176
     1
290
     0
176
     1
290
     0
176
     1
290
     0
176
     1
 90
       50
176
     1
 40
0.0
176
     1
 40
1.0
176
     1
 90
        0
176
     1
 62
    18
420
        0
176
     1
 90
       50
176
     1
 90
        3
176
     1
 62
     5
420
      255
176
     1
290
     0
176
     1
 90
       50
176
     1
 90
       50
176
     1
 90
       50
176
     1
290
     0
176
     1
 90
       50
176
     1
 62
   256
176
     0
 40
1.0
176
     0
 90
        2
176
     1
  1
strokes_ogs.tif
176
     1
290
     0
176
     1
 40
1.0
176
     1
 40
1.0
176
     1
  0
VISUALSTYLE
  5
35
102
{ACAD_REACTORS
330
2A
102
}
330
2A
100
AcDbVisualStyle
  2
Dim
 70
    11
177
     3
291
     1
 70
    58
 90
        2
176
     1
 90
        2
176
     1
 90
        0
176
     1
 90
        0
176
     1
 40
0.6
176
     1
 40
30.0
176
     1
 62
     7
420
 16777215
176
     1
 90
        1
176
     1
 90
        4
176
     1
 62
     7
176
     1
 62
   257
176
     1
 90
        1
176
     1
 90
        1
176
     1
 40
1.0
176
     1
 90
        8
176
     1
 62
     7
176
     1
 40
1.0
176
     1
 90
        1
176
     1
 90
        6
176
     1
 90
        2
176
     1
 62
     7
176
     1
 90
        5
176
     1
 90
        0
176
     1
 90
        0
176
     1
290
     0
176
     1
 90
        1
176
     1
 40
-50.0
176
     1
 90
        0
176
     1
290
     0
176
     1
290
     1
176
     1
290
     1
176
     1
290
     0
176
     1
290
     0
176
     1
290
     0
176
     1
290
     0
176
     1
290
     0
176
     1
290
     0
176
     1
 90
       50
176
     1
 40
0.0
176
     1
 40
1.0
176
     1
 90
        0
176
     1
 62
    18
420
        0
176
     1
 90
       50
176
     1
 90
        3
176
     1
 62
     5
420
      255
176
     1
290
     0
176
     1
 90
       50
176
     1
 90
       50
176
     1
 90
       50
176
     1
290
     0
176
     1
 90
       50
176
     1
 62
   256
176
     0
 40
1.0
176
     0
 90
        2
176
     1
  1
strokes_ogs.tif
176
     1
290
     0
176
     1
 40
1.0
176
     1
 40
1.0
176
     1
  0
VISUALSTYLE
  5
3D
102
{ACAD_REACTORS
330
2A
102
}
330
2A
100
AcDbVisualStyle
  2
EdgeColorOff
 70
    22
177
     3
291
     1
 70
    58
 90
        2
176
     0
 90
        2
176
     0
 90
        0
176
     0
 90
        0
176
     0
 40
0.6
176
     0
 40
30.0
176
     0
 62
     7
420
 16777215
176
     0
 90
        1
176
     0
 90
        4
176
     0
 62
     7
176
     0
 62
   257
176
     0
 90
        1
176
     0
 90
        1
176
     0
 40
1.0
176
     0
 90
        8
176
     2
 62
     7
176
     0
 40
1.0
176
     0
 90
        1
176
     0
 90
        6
176
     0
 90
        2
176
     0
 62
     7
176
     0
 90
        5
176
     0
 90
        0
176
     0
 90
        0
176
     0
290
     0
176
     0
 90
        1
176
     0
 40
0.0
176
     0
 90
        0
176
     0
290
     0
176
     0
290
     1
176
     0
290
     1
176
     0
290
     0
176
     0
290
     0
176
     0
290
     0
176
     0
290
     0
176
     0
290
     0
176
     0
290
     0
176
     0
 90
       50
176
     0
 40
0.0
176
     0
 40
1.0
176
     0
 90
        0
176
     0
 62
    18
420
        0
176
     0
 90
       50
176
     0
 90
        3
176
     0
 62
     5
420
      255
176
     0
290
     0
176
     0
 90
       50
176
     0
 90
       50
176
     0
 90
       50
176
     0
290
     0
176
     0
 90
       50
176
     0
 62
   256
176
     0
 40
1.0
176
     0
 90
        2
176
     0
  1
strokes_ogs.tif
176
     0
290
     0
176
     0
 40
1.0
176
     0
 40
1.0
176
     0
  0
VISUALSTYLE
  5
39
102
{ACAD_REACTORS
330
2A
102
}
330
2A
100
AcDbVisualStyle
  2
Facepattern
 70
    15
177
     3
291
     1
 70
    58
 90
        2
176
     1
 90
        2
176
     1
 90
        0
176
     1
 90
        0
176
     1
 40
0.6
176
     1
 40
30.0
176
     1
 62
     7
420
 16777215
176
     1
 90
        1
176
     1
 90
        4
176
     1
 62
     7
176
     1
 62
   257
176
     1
 90
        1
176
     1
 90
        1
176
     1
 40
1.0
176
     1
 90
        8
176
     1
 62
     7
176
     1
 40
1.0
176
     1
 90
        1
176
     1
 90
        6
176
     1
 90
        2
176
     1
 62
     7
176
     1
 90
        5
176
     1
 90
        0
176
     1
 90
        0
176
     1
290
     0
176
     1
 90
        1
176
     1
 40
0.0
176
     1
 90
        0
176
     1
290
     0
176
     1
290
     1
176
     1
290
     1
176
     1
290
     0
176
     1
290
     0
176
     1
290
     0
176
     1
290
     0
176
     1
290
     0
176
     1
290
     0
176
     1
 90
       50
176
     1
 40
0.0
176
     1
 40
1.0
176
     1
 90
        0
176
     1
 62
    18
420
        0
176
     1
 90
       50
176
     1
 90
        3
176
     1
 62
     5
420
      255
176
     1
290
     0
176
     1
 90
       50
176
     1
 90
       50
176
     1
 90
       50
176
     1
290
     0
176
     1
 90
       50
176
     1
 62
   256
176
     0
 40
1.0
176
     0
 90
        2
176
     1
  1
strokes_ogs.tif
176
     1
290
     0
176
     1
 40
1.0
176
     1
 40
1.0
176
     1
  0
VISUALSTYLE
  5
2B
102
{ACAD_REACTORS
330
2A
102
}
330
2A
100
AcDbVisualStyle
  2
Flat
 70
     0
177
     3
291
     1
 70
    58
 90
        2
176
     1
 90
        1
176
     1
 90
        1
176
     1
 90
        2
176
     1
 40
0.6
176
     1
 40
30.0
176
     1
 62
     7
420
 16777215
176
     1
 90
        0
176
     1
 90
        0
176
     1
 62
     7
176
     1
 62
   257
176
     1
 90
        1
176
     1
 90
        1
176
     1
 40
1.0
176
     1
 90
        8
176
     1
 62
     7
176
     1
 40
1.0
176
     1
 90
        1
176
     1
 90
        6
176
     1
 90
        2
176
     1
 62
     7
176
     1
 90
        5
176
     1
 90
        0
176
     1
 90
        0
176
     1
290
     0
176
     1
 90
       13
176
     1
 40
0.0
176
     1
 90
        0
176
     1
290
     0
176
     1
290
     1
176
     1
290
     1
176
     1
290
     0
176
     1
290
     0
176
     1
290
     0
176
     1
290
     0
176
     1
290
     0
176
     1
290
     0
176
     1
 90
       50
176
     1
 40
0.0
176
     1
 40
1.0
176
     1
 90
        0
176
     1
 62
    18
420
        0
176
     1
 90
       50
176
     1
 90
        3
176
     1
 62
     5
420
      255
176
     1
290
     0
176
     1
 90
       50
176
     1
 90
       50
176
     1
 90
       50
176
     1
290
     0
176
     1
 90
       50
176
     1
 62
   256
176
     0
 40
1.0
176
     0
 90
        2
176
     1
  1
strokes_ogs.tif
176
     1
290
     0
176
     1
 40
1.0
176
     1
 40
1.0
176
     1
  0
VISUALSTYLE
  5
2C
102
{ACAD_REACTORS
330
2A
102
}
330
2A
100
AcDbVisualStyle
  2
FlatWithEdges
 70
     1
177
     3
291
     1
 70
    58
 90
        2
176
     1
 90
        1
176
     1
 90
        1
176
     1
 90
        2
176
     1
 40
0.6
176
     1
 40
30.0
176
     1
 62
     7
420
 16777215
176
     1
 90
        1
176
     1
 90
        0
176
     1
 62
     7
176
     1
 62
   257
176
     1
 90
        1
176
     1
 90
        1
176
     1
 40
1.0
176
     1
 90
        0
176
     1
 62
   257
176
     1
 40
1.0
176
     1
 90
        1
176
     1
 90
        6
176
     1
 90
        2
176
     1
 62
     7
176
     1
 90
        5
176
     1
 90
        0
176
     1
 90
        0
176
     1
290
     0
176
     1
 90
       13
176
     1
 40
0.0
176
     1
 90
        0
176
     1
290
     0
176
     1
290
     1
176
     1
290
     1
176
     1
290
     0
176
     1
290
     0
176
     1
290
     0
176
     1
290
     0
176
     1
290
     0
176
     1
290
     0
176
     1
 90
       50
176
     1
 40
0.0
176
     1
 40
1.0
176
     1
 90
        0
176
     1
 62
    18
420
        0
176
     1
 90
       50
176
     1
 90
        3
176
     1
 62
     5
420
      255
176
     1
290
     0
176
     1
 90
       50
176
     1
 90
       50
176
     1
 90
       50
176
     1
290
     0
176
     1
 90
       50
176
     1
 62
   256
176
     0
 40
1.0
176
     0
 90
        2
176
     1
  1
strokes_ogs.tif
176
     1
290
     0
176
     1
 40
1.0
176
     1
 40
1.0
176
     1
  0
VISUALSTYLE
  5
2D
102
{ACAD_REACTORS
330
2A
102
}
330
2A
100
AcDbVisualStyle
  2
Gouraud
 70
     2
177
     3
291
     1
 70
    58
 90
        2
176
     1
 90
        2
176
     1
 90
        1
176
     1
 90
        2
176
     1
 40
0.6
176
     1
 40
30.0
176
     1
 62
     7
420
 16777215
176
     1
 90
        0
176
     1
 90
        0
176
     1
 62
     7
176
     1
 62
   257
176
     1
 90
        1
176
     1
 90
        1
176
     1
 40
1.0
176
     1
 90
        0
176
     1
 62
     7
176
     1
 40
1.0
176
     1
 90
        1
176
     1
 90
        6
176
     1
 90
        2
176
     1
 62
     7
176
     1
 90
        5
176
     1
 90
        0
176
     1
 90
        0
176
     1
290
     0
176
     1
 90
       13
176
     1
 40
0.0
176
     1
 90
        0
176
     1
290
     0
176
     1
290
     1
176
     1
290
     1
176
     1
290
     0
176
     1
290
     0
176
     1
290
     0
176
     1
290
     0
176
     1
290
     0
176
     1
290
     0
176
     1
 90
       50
176
     1
 40
0.0
176
     1
 40
1.0
176
     1
 90
        0
176
     1
 62
    18
420
        0
176
     1
 90
       50
176
     1
 90
        3
176
     1
 62
     5
420
      255
176
     1
290
     0
176
     1
 90
       50
176
     1
 90
       50
176
     1
 90
       50
176
     1
290
     0
176
     1
 90
       50
176
     1
 62
   256
176
     0
 40
1.0
176
     0
 90
        2
176
     1
  1
strokes_ogs.tif
176
     1
290
     0
176
     1
 40
1.0
176
     1
 40
1.0
176
     1
  0
VISUALSTYLE
  5
2E
102
{ACAD_REACTORS
330
2A
102
}
330
2A
100
AcDbVisualStyle
  2
GouraudWithEdges
 70
     3
177
     3
291
     1
 70
    58
 90
        2
176
     1
 90
        2
176
     1
 90
        1
176
     1
 90
        2
176
     1
 40
0.6
176
     1
 40
30.0
176
     1
 62
     7
420
 16777215
176
     1
 90
        1
176
     1
 90
        0
176
     1
 62
     7
176
     1
 62
   257
176
     1
 90
        1
176
     1
 90
        1
176
     1
 40
1.0
176
     1
 90
        0
176
     1
 62
   257
176
     1
 40
1.0
176
     1
 90
        1
176
     1
 90
        6
176
     1
 90
        2
176
     1
 62
     7
176
     1
 90
        5
176
     1
 90
        0
176
     1
 90
        0
176
     1
290
     0
176
     1
 90
       13
176
     1
 40
0.0
176
     1
 90
        0
176
     1
290
     0
176
     1
290
     1
176
     1
290
     1
176
     1
290
     0
176
     1
290
     0
176
     1
290
     0
176
     1
290
     0
176
     1
290
     0
176
     1
290
     0
176
     1
 90
       50
176
     1
 40
0.0
176
     1
 40
1.0
176
     1
 90
        0
176
     1
 62
    18
420
        0
176
     1
 90
       50
176
     1
 90
        3
176
     1
 62
     5
420
      255
176
     1
290
     0
176
     1
 90
       50
176
     1
 90
       50
176
     1
 90
       50
176
     1
290
     0
176
     1
 90
       50
176
     1
 62
   256
176
     0
 40
1.0
176
     0
 90
        2
176
     1
  1
strokes_ogs.tif
176
     1
290
     0
176
     1
 40
1.0
176
     1
 40
1.0
176
     1
  0
VISUALSTYLE
  5
31
102
{ACAD_REACTORS
330
2A
102
}
330
2A
100
AcDbVisualStyle
  2
Hidden
 70
     6
177
     3
291
     0
 70
    58
 90
        1
176
     1
 90
        2
176
     1
 90
        2
176
     1
 90
        0
176
     1
 40
0.6
176
     1
 40
30.0
176
     1
 62
     7
420
 16777215
176
     1
 90
        2
176
     1
 90
        2
176
     1
 62
     7
176
     1
 62
   257
176
     1
 90
        2
176
     1
 90
        1
176
     1
 40
40.0
176
     1
 90
        0
176
     1
 62
   257
176
     1
 40
1.0
176
     1
 90
        1
176
     1
 90
        6
176
     1
 90
        2
176
     1
 62
     7
176
     1
 90
        3
176
     1
 90
        0
176
     1
 90
        0
176
     1
290
     0
176
     1
 90
        1
176
     1
 40
0.0
176
     1
 90
        0
176
     1
290
     0
176
     1
290
     1
176
     1
290
     1
176
     1
290
     0
176
     1
290
     0
176
     1
290
     0
176
     1
290
     0
176
     1
290
     0
176
     1
290
     0
176
     1
 90
       50
176
     1
 40
0.0
176
     1
 40
1.0
176
     1
 90
        0
176
     1
 62
    18
420
        0
176
     1
 90
       50
176
     1
 90
        3
176
     1
 62
     5
420
      255
176
     1
290
     0
176
     1
 90
       50
176
     1
 90
       50
176
     1
 90
       50
176
     1
290
     0
176
     1
 90
       50
176
     1
 62
   256
176
     0
 40
1.0
176
     0
 90
        2
176
     1
  1
strokes_ogs.tif
176
     1
290
     0
176
     1
 40
1.0
176
     1
 40
1.0
176
     1
  0
VISUALSTYLE
  5
3B
102
{ACAD_REACTORS
330
2A
102
}
330
2A
100
AcDbVisualStyle
  2
JitterOff
 70
    20
177
     3
291
     1
 70
    58
 90
        2
176
     0
 90
        2
176
     0
 90
        0
176
     0
 90
        0
176
     0
 40
0.6
176
     0
 40
30.0
176
     0
 62
     7
420
 16777215
176
     0
 90
        1
176
     0
 90
        4
176
     0
 62
     7
176
     0
 62
   257
176
     0
 90
        1
176
     0
 90
        1
176
     0
 40
1.0
176
     0
 90
       10
176
     2
 62
     7
176
     0
 40
1.0
176
     0
 90
        1
176
     0
 90
        6
176
     0
 90
        2
176
     0
 62
     7
176
     0
 90
        5
176
     0
 90
        0
176
     0
 90
        0
176
     0
290
     0
176
     0
 90
        1
176
     0
 40
0.0
176
     0
 90
        0
176
     0
290
     0
176
     0
290
     1
176
     0
290
     1
176
     0
290
     0
176
     0
290
     0
176
     0
290
     0
176
     0
290
     0
176
     0
290
     0
176
     0
290
     0
176
     0
 90
       50
176
     0
 40
0.0
176
     0
 40
1.0
176
     0
 90
        0
176
     0
 62
    18
420
        0
176
     0
 90
       50
176
     0
 90
        3
176
     0
 62
     5
420
      255
176
     0
290
     0
176
     0
 90
       50
176
     0
 90
       50
176
     0
 90
       50
176
     0
290
     0
176
     0
 90
       50
176
     0
 62
   256
176
     0
 40
1.0
176
     0
 90
        2
176
     0
  1
strokes_ogs.tif
176
     0
290
     0
176
     0
 40
1.0
176
     0
 40
1.0
176
     0
  0
VISUALSTYLE
  5
38
102
{ACAD_REACTORS
330
2A
102
}
330
2A
100
AcDbVisualStyle
  2
Linepattern
 70
    14
177
     3
291
     1
 70
    58
 90
        2
176
     1
 90
        2
176
     1
 90
        0
176
     1
 90
        0
176
     1
 40
0.6
176
     1
 40
30.0
176
     1
 62
     7
420
 16777215
176
     1
 90
        1
176
     1
 90
        4
176
     1
 62
     7
176
     1
 62
   257
176
     1
 90
        7
176
     1
 90
        7
176
     1
 40
1.0
176
     1
 90
        8
176
     1
 62
     7
176
     1
 40
1.0
176
     1
 90
        1
176
     1
 90
        6
176
     1
 90
        2
176
     1
 62
     7
176
     1
 90
        5
176
     1
 90
        0
176
     1
 90
        0
176
     1
290
     0
176
     1
 90
        1
176
     1
 40
0.0
176
     1
 90
        0
176
     1
290
     0
176
     1
290
     1
176
     1
290
     1
176
     1
290
     0
176
     1
290
     0
176
     1
290
     0
176
     1
290
     0
176
     1
290
     0
176
     1
290
     0
176
     1
 90
       50
176
     1
 40
0.0
176
     1
 40
1.0
176
     1
 90
        0
176
     1
 62
    18
420
        0
176
     1
 90
       50
176
     1
 90
        3
176
     1
 62
     5
420
      255
176
     1
290
     0
176
     1
 90
       50
176
     1
 90
       50
176
     1
 90
       50
176
     1
290
     0
176
     1
 90
       50
176
     1
 62
   256
176
     0
 40
1.0
176
     0
 90
        2
176
     1
  1
strokes_ogs.tif
176
     1
290
     0
176
     1
 40
1.0
176
     1
 40
1.0
176
     1
  0
VISUALSTYLE
  5
3C
102
{ACAD_REACTORS
330
2A
102
}
330
2A
100
AcDbVisualStyle
  2
OverhangOff
 70
    21
177
     3
291
     1
 70
    58
 90
        2
176
     0
 90
        2
176
     0
 90
        0
176
     0
 90
        0
176
     0
 40
0.6
176
     0
 40
30.0
176
     0
 62
     7
420
 16777215
176
     0
 90
        1
176
     0
 90
        4
176
     0
 62
     7
176
     0
 62
   257
176
     0
 90
        1
176
     0
 90
        1
176
     0
 40
1.0
176
     0
 90
        9
176
     2
 62
     7
176
     0
 40
1.0
176
     0
 90
        1
176
     0
 90
        6
176
     0
 90
        2
176
     0
 62
     7
176
     0
 90
        5
176
     0
 90
        0
176
     0
 90
        0
176
     0
290
     0
176
     0
 90
        1
176
     0
 40
0.0
176
     0
 90
        0
176
     0
290
     0
176
     0
290
     1
176
     0
290
     1
176
     0
290
     0
176
     0
290
     0
176
     0
290
     0
176
     0
290
     0
176
     0
290
     0
176
     0
290
     0
176
     0
 90
       50
176
     0
 40
0.0
176
     0
 40
1.0
176
     0
 90
        0
176
     0
 62
    18
420
        0
176
     0
 90
       50
176
     0
 90
        3
176
     0
 62
     5
420
      255
176
     0
290
     0
176
     0
 90
       50
176
     0
 90
       50
176
     0
 90
       50
176
     0
290
     0
176
     0
 90
       50
176
     0
 62
   256
176
     0
 40
1.0
176
     0
 90
        2
176
     0
  1
strokes_ogs.tif
176
     0
290
     0
176
     0
 40
1.0
176
     0
 40
1.0
176
     0
  0
VISUALSTYLE
  5
33
102
{ACAD_REACTORS
330
2A
102
}
330
2A
100
AcDbVisualStyle
  2
Realistic
 70
     8
177
     3
291
     0
 70
    58
 90
        2
176
     1
 90
        3
176
     1
 90
        0
176
     1
 90
        2
176
     1
 40
0.6
176
     1
 40
30.0
176
     1
 62
     7
420
 16777215
176
     1
 90
        0
176
     1
 90
        0
176
     1
 62
     7
176
     1
 62
   257
176
     1
 90
        1
176
     1
 90
        1
176
     1
 40
1.0
176
     1
 90
        8
176
     1
 62
   257
176
     1
 40
1.0
176
     1
 90
        1
176
     1
 90
        6
176
     1
 90
        2
176
     1
 62
     7
176
     1
 90
        3
176
     1
 90
        0
176
     1
 90
        0
176
     1
290
     0
176
     1
 90
       13
176
     1
 40
0.0
176
     1
 90
        0
176
     1
290
     0
176
     1
290
     1
176
     1
290
     1
176
     1
290
     0
176
     1
290
     0
176
     1
290
     0
176
     1
290
     0
176
     1
290
     0
176
     1
290
     0
176
     1
 90
       50
176
     1
 40
0.0
176
     1
 40
1.0
176
     1
 90
        0
176
     1
 62
    18
420
        0
176
     1
 90
       50
176
     1
 90
        3
176
     1
 62
     5
420
      255
176
     1
290
     0
176
     1
 90
       50
176
     1
 90
       50
176
     1
 90
       50
176
     1
290
     0
176
     1
 90
       50
176
     1
 62
   256
176
     0
 40
1.0
176
     0
 90
        2
176
     1
  1
strokes_ogs.tif
176
     1
290
     0
176
     1
 40
1.0
176
     1
 40
1.0
176
     1
  0
VISUALSTYLE
  5
42
102
{ACAD_REACTORS
330
2A
102
}
330
2A
100
AcDbVisualStyle
  2
Shaded
 70
    27
177
     3
291
     0
 70
    58
 90
        2
176
     1
 90
        2
176
     1
 90
        1
176
     1
 90
        2
176
     1
 40
0.6
176
     1
 40
30.0
176
     1
 62
     7
420
 16777215
176
     1
 90
        0
176
     1
 90
        4
176
     1
 62
     7
176
     1
 62
   257
176
     1
 90
        1
176
     1
 90
        1
176
     1
 40
1.0
176
     1
 90
        8
176
     1
 62
   257
176
     1
 40
1.0
176
     1
 90
        1
176
     1
 90
        6
176
     1
 90
        2
176
     1
 62
     8
420
  7895160
176
     1
 90
        3
176
     1
 90
        0
176
     1
 90
        0
176
     1
290
     0
176
     1
 90
        5
176
     1
 40
0.0
176
     1
 90
        0
176
     1
290
     0
176
     1
290
     1
176
     1
290
     1
176
     1
290
     0
176
     1
290
     0
176
     1
290
     0
176
     1
290
     0
176
     1
290
     0
176
     1
290
     0
176
     1
 90
       50
176
     1
 40
0.0
176
     1
 40
1.0
176
     1
 90
        0
176
     1
 62
    18
420
        0
176
     1
 90
       50
176
     1
 90
        3
176
     1
 62
     5
420
      255
176
     1
290
     0
176
     1
 90
       50
176
     1
 90
       50
176
     1
 90
       50
176
     1
290
     0
176
     1
 90
       50
176
     1
 62
   256
176
     0
 40
1.0
176
     0
 90
        2
176
     1
  1
strokes_ogs.tif
176
     1
290
     0
176
     1
 40
1.0
176
     1
 40
1.0
176
     1
  0
VISUALSTYLE
  5
41
102
{ACAD_REACTORS
330
2A
102
}
330
2A
100
AcDbVisualStyle
  2
Shaded with edges
 70
    26
177
     3
291
     0
 70
    58
 90
        2
176
     1
 90
        2
176
     1
 90
        1
176
     1
 90
        2
176
     1
 40
0.6
176
     1
 40
30.0
176
     1
 62
     7
420
 16777215
176
     1
 90
        1
176
     1
 90
       10
176
     1
 62
     7
176
     1
 62
   257
176
     1
 90
        2
176
     1
 90
        1
176
     1
 40
1.0
176
     1
 90
        8
176
     1
 62
   257
176
     1
 40
1.0
176
     1
 90
        1
176
     1
 90
        6
176
     1
 90
        2
176
     1
 62
     7
176
     1
 90
        3
176
     1
 90
        0
176
     1
 90
        0
176
     1
290
     0
176
     1
 90
        5
176
     1
 40
0.0
176
     1
 90
        0
176
     1
290
     0
176
     1
290
     1
176
     1
290
     1
176
     1
290
     0
176
     1
290
     0
176
     1
290
     0
176
     1
290
     0
176
     1
290
     0
176
     1
290
     0
176
     1
 90
       50
176
     1
 40
0.0
176
     1
 40
1.0
176
     1
 90
        0
176
     1
 62
    18
420
        0
176
     1
 90
       50
176
     1
 90
        3
176
     1
 62
     5
420
      255
176
     1
290
     0
176
     1
 90
       50
176
     1
 90
       50
176
     1
 90
       50
176
     1
290
     0
176
     1
 90
       50
176
     1
 62
   256
176
     0
 40
1.0
176
     0
 90
        2
176
     1
  1
strokes_ogs.tif
176
     1
290
     0
176
     1
 40
1.0
176
     1
 40
1.0
176
     1
  0
VISUALSTYLE
  5
3E
102
{ACAD_REACTORS
330
2A
102
}
330
2A
100
AcDbVisualStyle
  2
Shades of Gray
 70
    23
177
     3
291
     0
 70
    58
 90
        2
176
     1
 90
        2
176
     1
 90
        3
176
     1
 90
        0
176
     1
 40
0.6
176
     1
 40
30.0
176
     1
 62
     7
420
 16777215
176
     1
 90
        2
176
     1
 90
        2
176
     1
 62
     7
176
     1
 62
     7
176
     1
 90
        1
176
     1
 90
        1
176
     1
 40
40.0
176
     1
 90
        8
176
     1
 62
     7
176
     1
 40
1.0
176
     1
 90
        1
176
     1
 90
        6
176
     1
 90
        2
176
     1
 62
     7
176
     1
 90
        3
176
     1
 90
        0
176
     1
 90
        0
176
     1
290
     0
176
     1
 90
        1
176
     1
 40
0.0
176
     1
 90
        0
176
     1
290
     0
176
     1
290
     1
176
     1
290
     1
176
     1
290
     0
176
     1
290
     0
176
     1
290
     0
176
     1
290
     0
176
     1
290
     0
176
     1
290
     0
176
     1
 90
       50
176
     1
 40
0.0
176
     1
 40
1.0
176
     1
 90
        0
176
     1
 62
    18
420
        0
176
     1
 90
       50
176
     1
 90
        3
176
     1
 62
     5
420
      255
176
     1
290
     0
176
     1
 90
       50
176
     1
 90
       50
176
     1
 90
       50
176
     1
290
     0
176
     1
 90
       50
176
     1
 62
   256
176
     0
 40
1.0
176
     0
 90
        2
176
     1
  1
strokes_ogs.tif
176
     1
290
     0
176
     1
 40
1.0
176
     1
 40
1.0
176
     1
  0
VISUALSTYLE
  5
3F
102
{ACAD_REACTORS
330
2A
102
}
330
2A
100
AcDbVisualStyle
  2
Sketchy
 70
    24
177
     3
291
     0
 70
    58
 90
        1
176
     1
 90
        2
176
     1
 90
        2
176
     1
 90
        0
176
     1
 40
0.6
176
     1
 40
30.0
176
     1
 62
     7
420
 16777215
176
     1
 90
        2
176
     1
 90
        2
176
     1
 62
     7
176
     1
 62
     7
176
     1
 90
        1
176
     1
 90
        1
176
     1
 40
40.0
176
     1
 90
       11
176
     1
 62
     7
176
     1
 40
1.0
176
     1
 90
        1
176
     1
 90
        6
176
     1
 90
        2
176
     1
 62
     7
176
     1
 90
        6
176
     1
 90
        0
176
     1
 90
        0
176
     1
290
     0
176
     1
 90
        1
176
     1
 40
0.0
176
     1
 90
        0
176
     1
290
     0
176
     1
290
     1
176
     1
290
     1
176
     1
290
     0
176
     1
290
     0
176
     1
290
     0
176
     1
290
     0
176
     1
290
     0
176
     1
290
     0
176
     1
 90
       50
176
     1
 40
0.0
176
     1
 40
1.0
176
     1
 90
        0
176
     1
 62
    18
420
        0
176
     1
 90
       50
176
     1
 90
        3
176
     1
 62
     5
420
      255
176
     1
290
     0
176
     1
 90
       50
176
     1
 90
       50
176
     1
 90
       50
176
     1
290
     0
176
     1
 90
       50
176
     1
 62
   256
176
     0
 40
1.0
176
     0
 90
        2
176
     1
  1
strokes_ogs.tif
176
     1
290
     0
176
     1
 40
1.0
176
     1
 40
1.0
176
     1
  0
VISUALSTYLE
  5
37
102
{ACAD_REACTORS
330
2A
102
}
330
2A
100
AcDbVisualStyle
  2
Thicken
 70
    13
177
     3
291
     1
 70
    58
 90
        2
176
     1
 90
        2
176
     1
 90
        0
176
     1
 90
        0
176
     1
 40
0.6
176
     1
 40
30.0
176
     1
 62
     7
420
 16777215
176
     1
 90
        1
176
     1
 90
        4
176
     1
 62
     7
176
     1
 62
   257
176
     1
 90
        1
176
     1
 90
        1
176
     1
 40
1.0
176
     1
 90
       12
176
     1
 62
     7
176
     1
 40
1.0
176
     1
 90
        1
176
     1
 90
        6
176
     1
 90
        2
176
     1
 62
     7
176
     1
 90
        5
176
     1
 90
        0
176
     1
 90
        0
176
     1
290
     0
176
     1
 90
        1
176
     1
 40
0.0
176
     1
 90
        0
176
     1
290
     0
176
     1
290
     1
176
     1
290
     1
176
     1
290
     0
176
     1
290
     0
176
     1
290
     0
176
     1
290
     0
176
     1
290
     0
176
     1
290
     0
176
     1
 90
       50
176
     1
 40
0.0
176
     1
 40
1.0
176
     1
 90
        0
176
     1
 62
    18
420
        0
176
     1
 90
       50
176
     1
 90
        3
176
     1
 62
     5
420
      255
176
     1
290
     0
176
     1
 90
       50
176
     1
 90
       50
176
     1
 90
       50
176
     1
290
     0
176
     1
 90
       50
176
     1
 62
   256
176
     0
 40
1.0
176
     0
 90
        2
176
     1
  1
strokes_ogs.tif
176
     1
290
     0
176
     1
 40
1.0
176
     1
 40
1.0
176
     1
  0
VISUALSTYLE
  5
30
102
{ACAD_REACTORS
330
2A
102
}
330
2A
100
AcDbVisualStyle
  2
Wireframe
 70
     5
177
     3
291
     0
 70
    58
 90
        0
176
     1
 90
        2
176
     1
 90
        0
176
     1
 90
        0
176
     1
 40
0.6
176
     1
 40
30.0
176
     1
 62
     7
420
 16777215
176
     1
 90
        1
176
     1
 90
        4
176
     1
 62
     7
176
     1
 62
   257
176
     1
 90
        1
176
     1
 90
        1
176
     1
 40
1.0
176
     1
 90
        0
176
     1
 62
   257
176
     1
 40
1.0
176
     1
 90
        1
176
     1
 90
        6
176
     1
 90
        2
176
     1
 62
     7
176
     1
 90
        3
176
     1
 90
        0
176
     1
 90
        0
176
     1
290
     0
176
     1
 90
        1
176
     1
 40
0.0
176
     1
 90
        0
176
     1
290
     0
176
     1
290
     1
176
     1
290
     1
176
     1
290
     0
176
     1
290
     0
176
     1
290
     0
176
     1
290
     0
176
     1
290
     0
176
     1
290
     0
176
     1
 90
       50
176
     1
 40
0.0
176
     1
 40
1.0
176
     1
 90
        0
176
     1
 62
    18
420
        0
176
     1
 90
       50
176
     1
 90
        3
176
     1
 62
     5
420
      255
176
     1
290
     0
176
     1
 90
       50
176
     1
 90
       50
176
     1
 90
       50
176
     1
290
     0
176
     1
 90
       50
176
     1
 62
   256
176
     0
 40
1.0
176
     0
 90
        2
176
     1
  1
strokes_ogs.tif
176
     1
290
     0
176
     1
 40
1.0
176
     1
 40
1.0
176
     1
  0
VISUALSTYLE
  5
40
102
{ACAD_REACTORS
330
2A
102
}
330
2A
100
AcDbVisualStyle
  2
X-Ray
 70
    25
177
     3
291
     0
 70
    58
 90
        2
176
     1
 90
        2
176
     1
 90
        1
176
     1
 90
        1
176
     1
 40
0.5
176
     1
 40
30.0
176
     1
 62
     7
420
 16777215
176
     1
 90
        1
176
     1
 90
        0
176
     1
 62
     7
176
     1
 62
   257
176
     1
 90
        1
176
     1
 90
        1
176
     1
 40
1.0
176
     1
 90
        8
176
     1
 62
     7
176
     1
 40
1.0
176
     1
 90
        1
176
     1
 90
        6
176
     1
 90
        2
176
     1
 62
     7
176
     1
 90
        3
176
     1
 90
        0
176
     1
 90
        0
176
     1
290
     0
176
     1
 90
       13
176
     1
 40
0.0
176
     1
 90
        0
176
     1
290
     0
176
     1
290
     1
176
     1
290
     1
176
     1
290
     0
176
     1
290
     0
176
     1
290
     0
176
     1
290
     0
176
     1
290
     0
176
     1
290
     0
176
     1
 90
       50
176
     1
 40
0.0
176
     1
 40
1.0
176
     1
 90
        0
176
     1
 62
    18
420
        0
176
     1
 90
       50
176
     1
 90
        3
176
     1
 62
     5
420
      255
176
     1
290
     0
176
     1
 90
       50
176
     1
 90
       50
176
     1
 90
       50
176
     1
290
     0
176
     1
 90
       50
176
     1
 62
   256
176
     0
 40
1.0
176
     0
 90
        2
176
     1
  1
strokes_ogs.tif
176
     1
290
     0
176
     1
 40
1.0
176
     1
 40
1.0
176
     1
  0
DICTIONARYVAR
  5
1A6
102
{ACAD_REACTORS
330
1A5
102
}
330
1A5
100
DictionaryVariables
280
     0
  1
1:1
  0
DICTIONARYVAR
  5
1AB
102
{ACAD_REACTORS
330
1A5
102
}
330
1A5
100
DictionaryVariables
280
     0
  1
Standard
  0
DICTIONARYVAR
  5
1AA
102
{ACAD_REACTORS
330
1A5
102
}
330
1A5
100
DictionaryVariables
280
     0
  1
Standard
  0
DICTIONARY
  5
1A7
330
6A
100
AcDbDictionary
280
     1
281
     1
  3
ACAD_ROUNDTRIP_2008_TABLESTYLE_CELLSTYLEMAP
360
1A8
  0
CELLSTYLEMAP
  5
1A8
102
{ACAD_REACTORS
330
1A7
102
}
330
1A7
100
AcDbCellStyleMap
 90
        3
300
CELLSTYLE
  1
TABLEFORMAT_BEGIN
 90
        5
170
     1
 91
        0
 92
    32768
 62
   257
 93
        1
300
CONTENTFORMAT
  1
CONTENTFORMAT_BEGIN
 90
        0
 91
        0
 92
        4
 93
        0
300

 40
0.0
140
1.0
 94
        5
 62
     0
340
11
144
6.0
309
CONTENTFORMAT_END
171
     1
301
MARGIN
  1
CELLMARGIN_BEGIN
 40
1.5
 40
1.5
 40
1.5
 40
1.5
 40
1.5
 40
1.5
309
CELLMARGIN_END
 94
        6
 95
        1
302
GRIDFORMAT
  1
GRIDFORMAT_BEGIN
 90
        0
 91
        1
 62
     0
 92
       -2
340
14
 93
        0
 40
0.045
309
GRIDFORMAT_END
 95
        2
302
GRIDFORMAT
  1
GRIDFORMAT_BEGIN
 90
        0
 91
        1
 62
     0
 92
       -2
340
14
 93
        0
 40
0.045
309
GRIDFORMAT_END
 95
        4
302
GRIDFORMAT
  1
GRIDFORMAT_BEGIN
 90
        0
 91
        1
 62
     0
 92
       -2
340
14
 93
        0
 40
0.045
309
GRIDFORMAT_END
 95
        8
302
GRIDFORMAT
  1
GRIDFORMAT_BEGIN
 90
        0
 91
        1
 62
     0
 92
       -2
340
14
 93
        0
 40
0.045
309
GRIDFORMAT_END
 95
       16
302
GRIDFORMAT
  1
GRIDFORMAT_BEGIN
 90
        0
 91
        1
 62
     0
 92
       -2
340
14
 93
        0
 40
0.045
309
GRIDFORMAT_END
 95
       32
302
GRIDFORMAT
  1
GRIDFORMAT_BEGIN
 90
        0
 91
        1
 62
     0
 92
       -2
340
14
 93
        0
 40
0.045
309
GRIDFORMAT_END
309
TABLEFORMAT_END
  1
CELLSTYLE_BEGIN
 90
        1
 91
        1
300
_TITLE
309
CELLSTYLE_END
300
CELLSTYLE
  1
TABLEFORMAT_BEGIN
 90
        5
170
     1
 91
        0
 92
        0
 62
   257
 93
        1
300
CONTENTFORMAT
  1
CONTENTFORMAT_BEGIN
 90
        0
 91
        0
 92
        4
 93
        0
300

 40
0.0
140
1.0
 94
        5
 62
     0
340
11
144
4.5
309
CONTENTFORMAT_END
171
     1
301
MARGIN
  1
CELLMARGIN_BEGIN
 40
1.5
 40
1.5
 40
1.5
 40
1.5
 40
1.5
 40
1.5
309
CELLMARGIN_END
 94
        6
 95
        1
302
GRIDFORMAT
  1
GRIDFORMAT_BEGIN
 90
        0
 91
        1
 62
     0
 92
       -2
340
14
 93
        0
 40
0.045
309
GRIDFORMAT_END
 95
        2
302
GRIDFORMAT
  1
GRIDFORMAT_BEGIN
 90
        0
 91
        1
 62
     0
 92
       -2
340
14
 93
        0
 40
0.045
309
GRIDFORMAT_END
 95
        4
302
GRIDFORMAT
  1
GRIDFORMAT_BEGIN
 90
        0
 91
        1
 62
     0
 92
       -2
340
14
 93
        0
 40
0.045
309
GRIDFORMAT_END
 95
        8
302
GRIDFORMAT
  1
GRIDFORMAT_BEGIN
 90
        0
 91
        1
 62
     0
 92
       -2
340
14
 93
        0
 40
0.045
309
GRIDFORMAT_END
 95
       16
302
GRIDFORMAT
  1
GRIDFORMAT_BEGIN
 90
        0
 91
        1
 62
     0
 92
       -2
340
14
 93
        0
 40
0.045
309
GRIDFORMAT_END
 95
       32
302
GRIDFORMAT
  1
GRIDFORMAT_BEGIN
 90
        0
 91
        1
 62
     0
 92
       -2
340
14
 93
        0
 40
0.045
309
GRIDFORMAT_END
309
TABLEFORMAT_END
  1
CELLSTYLE_BEGIN
 90
        2
 91
        1
300
_HEADER
309
CELLSTYLE_END
300
CELLSTYLE
  1
TABLEFORMAT_BEGIN
 90
        5
170
     1
 91
        0
 92
        0
 62
   257
 93
        1
300
CONTENTFORMAT
  1
CONTENTFORMAT_BEGIN
 90
        0
 91
        0
 92
        4
 93
        0
300

 40
0.0
140
1.0
 94
        2
 62
     0
340
11
144
4.5
309
CONTENTFORMAT_END
171
     1
301
MARGIN
  1
CELLMARGIN_BEGIN
 40
1.5
 40
1.5
 40
1.5
 40
1.5
 40
1.5
 40
1.5
309
CELLMARGIN_END
 94
        6
 95
        1
302
GRIDFORMAT
  1
GRIDFORMAT_BEGIN
 90
        0
 91
        1
 62
     0
 92
       -2
340
14
 93
        0
 40
0.045
309
GRIDFORMAT_END
 95
        2
302
GRIDFORMAT
  1
GRIDFORMAT_BEGIN
 90
        0
 91
        1
 62
     0
 92
       -2
340
14
 93
        0
 40
0.045
309
GRIDFORMAT_END
 95
        4
302
GRIDFORMAT
  1
GRIDFORMAT_BEGIN
 90
        0
 91
        1
 62
     0
 92
       -2
340
14
 93
        0
 40
0.045
309
GRIDFORMAT_END
 95
        8
302
GRIDFORMAT
  1
GRIDFORMAT_BEGIN
 90
        0
 91
        1
 62
     0
 92
       -2
340
14
 93
        0
 40
0.045
309
GRIDFORMAT_END
 95
       16
302
GRIDFORMAT
  1
GRIDFORMAT_BEGIN
 90
        0
 91
        1
 62
     0
 92
       -2
340
14
 93
        0
 40
0.045
309
GRIDFORMAT_END
 95
       32
302
GRIDFORMAT
  1
GRIDFORMAT_BEGIN
 90
        0
 91
        1
 62
     0
 92
       -2
340
14
 93
        0
 40
0.045
309
GRIDFORMAT_END
309
TABLEFORMAT_END
  1
CELLSTYLE_BEGIN
 90
        3
 91
        2
300
_DATA
309
CELLSTYLE_END
  0
ENDSEC
  0
EOF
