  0
SECTION
  2
HEADER
  9
$ACADVER
  1
AC1027
  9
$ACADMAINTVER
 70
   105
  9
$DWGCODEPAGE
  3
ANSI_1252
  9
$REQUIREDVERSIONS
160
                 0
  9
$INSBASE
 10
0.0
 20
0.0
 30
0.0
  9
$EXTMIN
 10
-292.3927981109
 20
-285.0311850648
 30
0.0
  9
$EXTMAX
 10
292.3927981109
 20
90.0311850648
 30
0.0
  9
$LIMMIN
 10
0.0
 20
0.0
  9
$LIMMAX
 10
420.0
 20
297.0
  9
$ORTHOMODE
 70
     0
  9
$REGENMODE
 70
     1
  9
$FILLMODE
 70
     1
  9
$QTEXTMODE
 70
     0
  9
$MIRRTEXT
 70
     1
  9
$LTSCALE
 40
1.0
  9
$ATTMODE
 70
     1
  9
$TEXTSIZE
 40
3.5
  9
$TRACEWID
 40
1.0
  9
$TEXTSTYLE
  7
STANDARD
  9
$CLAYER
  8
0
  9
$CELTYPE
  6
ByLayer
  9
$CECOLOR
 62
   256
  9
$CELTSCALE
 40
1.0
  9
$DISPSILH
 70
     0
  9
$DIMSCALE
 40
1.0
  9
$DIMASZ
 40
8.0
  9
$DIMEXO
 40
1.0
  9
$DIMDLI
 40
3.75
  9
$DIMRND
 40
0.0
  9
$DIMDLE
 40
0.0
  9
$DIMEXE
 40
1.0
  9
$DIMTP
 40
0.0
  9
$DIMTM
 40
0.0
  9
$DIMTXT
 40
16.9333333333
  9
$DIMCEN
 40
2.5
  9
$DIMTSZ
 40
0.0
  9
$DIMTOL
 70
     0
  9
$DIMLIM
 70
     0
  9
$DIMTIH
 70
     1
  9
$DIMTOH
 70
     1
  9
$DIMSE1
 70
     0
  9
$DIMSE2
 70
     0
  9
$DIMTAD
 70
     1
  9
$DIMZIN
 70
     0
  9
$DIMBLK
  1

  9
$DIMASO
 70
     1
  9
$DIMSHO
 70
     1
  9
$DIMPOST
  1

  9
$DIMAPOST
  1

  9
$DIMALT
 70
     0
  9
$DIMALTD
 70
     3
  9
$DIMALTF
 40
0.0393700787
  9
$DIMLFAC
 40
1.0
  9
$DIMTOFL
 70
     1
  9
$DIMTVP
 40
0.0
  9
$DIMTIX
 70
     0
  9
$DIMSOXD
 70
     0
  9
$DIMSAH
 70
     0
  9
$DIMBLK1
  1

  9
$DIMBLK2
  1

  9
$DIMSTYLE
  2
ISO-25
  9
$DIMCLRD
 70
     0
  9
$DIMCLRE
 70
     0
  9
$DIMCLRT
 70
     0
  9
$DIMTFAC
 40
1.0
  9
$DIMGAP
 40
1.524
  9
$DIMJUST
 70
     0
  9
$DIMSD1
 70
     0
  9
$DIMSD2
 70
     0
  9
$DIMTOLJ
 70
     0
  9
$DIMTZIN
 70
     0
  9
$DIMALTZ
 70
     0
  9
$DIMALTTZ
 70
     0
  9
$DIMUPT
 70
     0
  9
$DIMDEC
 70
     2
  9
$DIMTDEC
 70
     2
  9
$DIMALTU
 70
     2
  9
$DIMALTTD
 70
     3
  9
$DIMTXSTY
  7
STANDARD
  9
$DIMAUNIT
 70
     0
  9
$DIMADEC
 70
     2
  9
$DIMALTRND
 40
0.0
  9
$DIMAZIN
 70
     0
  9
$DIMDSEP
 70
    44
  9
$DIMATFIT
 70
     3
  9
$DIMFRAC
 70
     0
  9
$DIMLDRBLK
  1

  9
$DIMLUNIT
 70
     2
  9
$DIMLWD
 70
    -2
  9
$DIMLWE
 70
    -2
  9
$DIMTMOVE
 70
     0
  9
$DIMFXL
 40
1.0
  9
$DIMFXLON
 70
     0
  9
$DIMJOGANG
 40
0.7853981634
  9
$DIMTFILL
 70
     0
  9
$DIMTFILLCLR
 70
     0
  9
$DIMARCSYM
 70
     0
  9
$DIMLTYPE
  6

  9
$DIMLTEX1
  6

  9
$DIMLTEX2
  6

  9
$DIMTXTDIRECTION
 70
     0
  9
$LUNITS
 70
     2
  9
$LUPREC
 70
     2
  9
$SKETCHINC
 40
1.0
  9
$FILLETRAD
 40
10.0
  9
$AUNITS
 70
     0
  9
$AUPREC
 70
     2
  9
$MENU
  1
.
  9
$ELEVATION
 40
0.0
  9
$PELEVATION
 40
0.0
  9
$THICKNESS
 40
0.0
  9
$LIMCHECK
 70
     0
  9
$CHAMFERA
 40
0.0
  9
$CHAMFERB
 40
0.0
  9
$CHAMFERC
 40
0.0
  9
$CHAMFERD
 40
0.0
  9
$SKPOLY
 70
     0
  9
$TDCREATE
 40
2458236.503351585
  9
$TDUCREATE
 40
2458236.420018252
  9
$TDUPDATE
 40
2458236.503379664
  9
$TDUUPDATE
 40
2458236.420046331
  9
$TDINDWG
 40
0.0000000116
  9
$TDUSRTIMER
 40
0.0000000116
  9
$USRTIMER
 70
     1
  9
$ANGBASE
 50
0.0
  9
$ANGDIR
 70
     0
  9
$PDMODE
 70
     0
  9
$PDSIZE
 40
-1.0
  9
$PLINEWID
 40
0.0
  9
$SPLFRAME
 70
     0
  9
$SPLINETYPE
 70
     6
  9
$SPLINESEGS
 70
     8
  9
$HANDSEED
  5
1E0
  9
$SURFTAB1
 70
     6
  9
$SURFTAB2
 70
     6
  9
$SURFTYPE
 70
     6
  9
$SURFU
 70
     6
  9
$SURFV
 70
     6
  9
$UCSBASE
  2

  9
$UCSNAME
  2

  9
$UCSORG
 10
0.0
 20
0.0
 30
0.0
  9
$UCSXDIR
 10
1.0
 20
0.0
 30
0.0
  9
$UCSYDIR
 10
0.0
 20
1.0
 30
0.0
  9
$UCSORTHOREF
  2

  9
$UCSORTHOVIEW
 70
     0
  9
$UCSORGTOP
 10
0.0
 20
0.0
 30
0.0
  9
$UCSORGBOTTOM
 10
0.0
 20
0.0
 30
0.0
  9
$UCSORGLEFT
 10
0.0
 20
0.0
 30
0.0
  9
$UCSORGRIGHT
 10
0.0
 20
0.0
 30
0.0
  9
$UCSORGFRONT
 10
0.0
 20
0.0
 30
0.0
  9
$UCSORGBACK
 10
0.0
 20
0.0
 30
0.0
  9
$PUCSBASE
  2

  9
$PUCSNAME
  2

  9
$PUCSORG
 10
0.0
 20
0.0
 30
0.0
  9
$PUCSXDIR
 10
1.0
 20
0.0
 30
0.0
  9
$PUCSYDIR
 10
0.0
 20
1.0
 30
0.0
  9
$PUCSORTHOREF
  2

  9
$PUCSORTHOVIEW
 70
     0
  9
$PUCSORGTOP
 10
0.0
 20
0.0
 30
0.0
  9
$PUCSORGBOTTOM
 10
0.0
 20
0.0
 30
0.0
  9
$PUCSORGLEFT
 10
0.0
 20
0.0
 30
0.0
  9
$PUCSORGRIGHT
 10
0.0
 20
0.0
 30
0.0
  9
$PUCSORGFRONT
 10
0.0
 20
0.0
 30
0.0
  9
$PUCSORGBACK
 10
0.0
 20
0.0
 30
0.0
  9
$USERI1
 70
     0
  9
$USERI2
 70
     0
  9
$USERI3
 70
     0
  9
$USERI4
 70
     0
  9
$USERI5
 70
     0
  9
$USERR1
 40
0.0
  9
$USERR2
 40
0.0
  9
$USERR3
 40
0.0
  9
$USERR4
 40
0.0
  9
$USERR5
 40
0.0
  9
$WORLDVIEW
 70
     1
  9
$SHADEDGE
 70
     3
  9
$SHADEDIF
 70
    70
  9
$TILEMODE
 70
     1
  9
$MAXACTVP
 70
    64
  9
$PINSBASE
 10
0.0
 20
0.0
 30
0.0
  9
$PLIMCHECK
 70
     0
  9
$PEXTMIN
 10
-292.3927981109
 20
-180.0
 30
0.0
  9
$PEXTMAX
 10
292.3927981109
 20
0.0
 30
0.0
  9
$PLIMMIN
 10
-337.9014048207
 20
-197.0657275162
  9
$PLIMMAX
 10
337.9014048207
 20
280.7746429373
  9
$UNITMODE
 70
     0
  9
$VISRETAIN
 70
     1
  9
$PLINEGEN
 70
     0
  9
$PSLTSCALE
 70
     1
  9
$TREEDEPTH
 70
  3020
  9
$CMLSTYLE
  2
Standard
  9
$CMLJUST
 70
     0
  9
$CMLSCALE
 40
20.0
  9
$PROXYGRAPHICS
 70
     1
  9
$MEASUREMENT
 70
     1
  9
$CELWEIGHT
370
    -1
  9
$ENDCAPS
280
     0
  9
$JOINSTYLE
280
     0
  9
$LWDISPLAY
290
     1
  9
$INSUNITS
 70
     4
  9
$HYPERLINKBASE
  1

  9
$STYLESHEET
  1

  9
$XEDIT
290
     1
  9
$CEPSNTYPE
380
     0
  9
$PSTYLEMODE
290
     1
  9
$FINGERPRINTGUID
  2
{3343BF4C-3E5C-452C-BBEF-816ABE885B1E}
  9
$VERSIONGUID
  2
{FAEB1C32-E019-11D5-929B-00C0DF256EC4}
  9
$EXTNAMES
290
     1
  9
$PSVPSCALE
 40
0.0
  9
$OLESTARTUP
290
     0
  9
$SORTENTS
280
   127
  9
$INDEXCTL
280
     0
  9
$HIDETEXT
280
     1
  9
$XCLIPFRAME
280
     2
  9
$HALOGAP
280
     0
  9
$OBSCOLOR
 70
   257
  9
$OBSLTYPE
280
     0
  9
$INTERSECTIONDISPLAY
280
     0
  9
$INTERSECTIONCOLOR
 70
   257
  9
$DIMASSOC
280
     2
  9
$PROJECTNAME
  1

  9
$CAMERADISPLAY
290
     0
  9
$LENSLENGTH
 40
50.0
  9
$CAMERAHEIGHT
 40
0.0
  9
$STEPSPERSEC
 40
2.0
  9
$STEPSIZE
 40
6.0
  9
$3DDWFPREC
 40
2.0
  9
$PSOLWIDTH
 40
5.0
  9
$PSOLHEIGHT
 40
80.0
  9
$LOFTANG1
 40
1.5707963268
  9
$LOFTANG2
 40
1.5707963268
  9
$LOFTMAG1
 40
0.0
  9
$LOFTMAG2
 40
0.0
  9
$LOFTPARAM
 70
     7
  9
$LOFTNORMALS
280
     1
  9
$LATITUDE
 40
37.795
  9
$LONGITUDE
 40
-122.394
  9
$NORTHDIRECTION
 40
0.0
  9
$TIMEZONE
 70
 -8000
  9
$LIGHTGLYPHDISPLAY
280
     1
  9
$TILEMODELIGHTSYNCH
280
     1
  9
$CMATERIAL
347
44
  9
$SOLIDHIST
280
     0
  9
$SHOWHIST
280
     1
  9
$DWFFRAME
280
     2
  9
$DGNFRAME
280
     2
  9
$REALWORLDSCALE
290
     1
  9
$INTERFERECOLOR
 62
   256
  9
$CSHADOW
280
     0
  9
$SHADOWPLANELOCATION
 40
0.0
  0
ENDSEC
  0
SECTION
  2
CLASSES
  0
CLASS
  1
ACDBDICTIONARYWDFLT
  2
AcDbDictionaryWithDefault
  3
ObjectDBX Classes
 90
        0
 91
        4
280
     0
281
     0
  0
CLASS
  1
VISUALSTYLE
  2
AcDbVisualStyle
  3
ObjectDBX Classes
 90
     4095
 91
        4
280
     0
281
     0
  0
CLASS
  1
MATERIAL
  2
AcDbMaterial
  3
ObjectDBX Classes
 90
     1153
 91
        4
280
     0
281
     0
  0
CLASS
  1
SCALE
  2
AcDbScale
  3
ObjectDBX Classes
 90
     1153
 91
        4
280
     0
281
     0
  0
CLASS
  1
TABLESTYLE
  2
AcDbTableStyle
  3
ObjectDBX Classes
 90
     4095
 91
        4
280
     0
281
     0
  0
CLASS
  1
MLEADERSTYLE
  2
AcDbMLeaderStyle
  3
ACDB_MLEADERSTYLE_CLASS
 90
     4095
 91
        4
280
     0
281
     0
  0
CLASS
  1
SUN
  2
AcDbSun
  3
SCENEOE
 90
     1153
 91
        4
280
     0
281
     0
  0
CLASS
  1
DICTIONARYVAR
  2
AcDbDictionaryVar
  3
ObjectDBX Classes
 90
        0
 91
        4
280
     0
281
     0
  0
CLASS
  1
CELLSTYLEMAP
  2
AcDbCellStyleMap
  3
ObjectDBX Classes
 90
     1152
 91
        4
280
     0
281
     0
  0
ENDSEC
  0
SECTION
  2
TABLES
  0
TABLE
  2
VPORT
  5
8
330
0
100
AcDbSymbolTable
 70
     1
  0
VPORT
  5
29
330
8
100
AcDbSymbolTableRecord
100
AcDbViewportTableRecord
  2
*Active
 70
     0
 10
0.0
 20
0.0
 11
1.0
 21
1.0
 12
0.0
 22
-97.5
 13
0.0
 23
0.0
 14
10.0
 24
10.0
 15
10.0
 25
10.0
 16
0.0
 26
0.0
 36
1.0
 17
0.0
 27
0.0
 37
0.0
 40
382.5636175323
 41
1.5591689351
 42
50.0
 43
0.0
 44
0.0
 50
0.0
 51
0.0
 71
     0
 72
   100
 73
     1
 74
     3
 75
     0
 76
     0
 77
     0
 78
     0
281
     0
 65
     1
110
0.0
120
0.0
130
0.0
111
1.0
121
0.0
131
0.0
112
0.0
122
1.0
132
0.0
 79
     0
146
0.0
348
2F
 60
     3
 61
     5
292
     1
282
     1
141
0.0
142
0.0
 63
   250
361
6D
  0
ENDTAB
  0
TABLE
  2
LTYPE
  5
5
330
0
100
AcDbSymbolTable
 70
     6
  0
LTYPE
  5
14
330
5
100
AcDbSymbolTableRecord
100
AcDbLinetypeTableRecord
  2
ByBlock
 70
     0
  3

 72
    65
 73
     0
 40
0.0
  0
LTYPE
  5
15
330
5
100
AcDbSymbolTableRecord
100
AcDbLinetypeTableRecord
  2
ByLayer
 70
     0
  3

 72
    65
 73
     0
 40
0.0
  0
LTYPE
  5
16
330
5
100
AcDbSymbolTableRecord
100
AcDbLinetypeTableRecord
  2
Continuous
 70
     0
  3
Solid line
 72
    65
 73
     0
 40
0.0
  0
LTYPE
  5
6E
330
5
100
AcDbSymbolTableRecord
100
AcDbLinetypeTableRecord
  2
HIDDEN
 70
     0
  3
Hidden __ __ __ __ __ __ __ __ __ __ __ __ __ __
 72
    65
 73
     2
 40
1.905
 49
1.27
 74
     0
 49
-0.635
 74
     0
  0
LTYPE
  5
6F
330
5
100
AcDbSymbolTableRecord
100
AcDbLinetypeTableRecord
  2
PHANTOM
 70
     0
  3
Phantom ______  __  __  ______  __  __  ______
 72
    65
 73
     6
 40
12.7
 49
6.35
 74
     0
 49
-1.27
 74
     0
 49
1.27
 74
     0
 49
-1.27
 74
     0
 49
1.27
 74
     0
 49
-1.27
 74
     0
  0
LTYPE
  5
70
330
5
100
AcDbSymbolTableRecord
100
AcDbLinetypeTableRecord
  2
CENTER
 70
     0
  3
Center ____ _ ____ _ ____ _ ____ _ ____ _ ____
 72
    65
 73
     4
 40
10.16
 49
6.35
 74
     0
 49
-1.27
 74
     0
 49
1.27
 74
     0
 49
-1.27
 74
     0
  0
LTYPE
  5
71
330
5
100
AcDbSymbolTableRecord
100
AcDbLinetypeTableRecord
  2
CENTERX2
 70
     0
  3
Center (2x) ________  __  ________  __  _____
 72
    65
 73
     4
 40
20.32
 49
12.7
 74
     0
 49
-2.54
 74
     0
 49
2.54
 74
     0
 49
-2.54
 74
     0
  0
LTYPE
  5
72
330
5
100
AcDbSymbolTableRecord
100
AcDbLinetypeTableRecord
  2
DOT2
 70
     0
  3
Dot (.5x) ........................................
 72
    65
 73
     2
 40
0.635
 49
0.0
 74
     0
 49
-0.635
 74
     0
  0
ENDTAB
  0
TABLE
  2
LAYER
  5
2
330
0
100
AcDbSymbolTable
 70
     1
  0
LAYER
  5
10
330
2
100
AcDbSymbolTableRecord
100
AcDbLayerTableRecord
  2
0
 70
     0
 62
     7
  6
Continuous
370
    -3
390
F
347
46
348
0
  0
ENDTAB
  0
TABLE
  2
STYLE
  5
3
330
0
100
AcDbSymbolTable
 70
     1
  0
STYLE
  5
11
330
3
100
AcDbSymbolTableRecord
100
AcDbTextStyleTableRecord
  2
STANDARD
 70
     0
 40
0.0
 41
1.0
 50
0.0
 71
     0
 42
3.5
  3
GOTHIC.TTF
  4

1001
ACAD
1000
CENTURY GOTHIC
1071
       34
  0
ENDTAB
  0
TABLE
  2
VIEW
  5
6
330
0
100
AcDbSymbolTable
 70
     0
  0
ENDTAB
  0
TABLE
  2
UCS
  5
7
330
0
100
AcDbSymbolTable
 70
     0
  0
ENDTAB
  0
TABLE
  2
APPID
  5
9
330
0
100
AcDbSymbolTable
 70
     1
  0
APPID
  5
12
330
9
100
AcDbSymbolTableRecord
100
AcDbRegAppTableRecord
  2
ACAD
 70
     0
  0
ENDTAB
  0
TABLE
  2
DIMSTYLE
  5
A
330
0
100
AcDbSymbolTable
 70
     1
100
AcDbDimStyleTable
  0
DIMSTYLE
105
27
330
A
100
AcDbSymbolTableRecord
100
AcDbDimStyleTableRecord
  2
ISO-25
 70
     0
 41
2.5
 42
0.625
 43
3.75
 44
1.25
 73
     0
 74
     0
 77
     1
 78
     8
140
2.5
141
2.5
143
0.0393700787
147
0.625
171
     3
172
     1
178
     0
271
     2
272
     2
274
     3
278
    44
283
     0
284
     8
340
11
  0
ENDTAB
  0
TABLE
  2
BLOCK_RECORD
  5
1
330
0
100
AcDbSymbolTable
 70
     8
  0
BLOCK_RECORD
  5
1F
330
1
100
AcDbSymbolTableRecord
100
AcDbBlockTableRecord
  2
*Model_Space
340
22
 70
     0
280
     1
281
     0
  0
BLOCK_RECORD
  5
1B
330
1
100
AcDbSymbolTableRecord
100
AcDbBlockTableRecord
  2
*Paper_Space
340
1E
 70
     0
280
     1
281
     0
  0
BLOCK_RECORD
  5
23
330
1
100
AcDbSymbolTableRecord
100
AcDbBlockTableRecord
  2
*Paper_Space0
340
26
 70
     0
280
     1
281
     0
  0
BLOCK_RECORD
  5
C5
330
1
100
AcDbSymbolTableRecord
100
AcDbBlockTableRecord
  2
*Paper_Space1
340
C6
 70
     0
280
     1
281
     0
  0
BLOCK_RECORD
  5
DD
330
1
100
AcDbSymbolTableRecord
100
AcDbBlockTableRecord
  2
*Paper_Space2
340
DE
 70
     0
280
     1
281
     0
  0
BLOCK_RECORD
  5
F5
330
1
100
AcDbSymbolTableRecord
100
AcDbBlockTableRecord
  2
*Paper_Space3
340
F6
 70
     0
280
     1
281
     0
  0
BLOCK_RECORD
  5
11A
330
1
100
AcDbSymbolTableRecord
100
AcDbBlockTableRecord
  2
*Paper_Space4
340
11B
 70
     0
280
     1
281
     0
  0
BLOCK_RECORD
  5
131
330
1
100
AcDbSymbolTableRecord
100
AcDbBlockTableRecord
  2
*Paper_Space5
340
132
 70
     0
280
     1
281
     0
  0
BLOCK_RECORD
  5
160
330
1
100
AcDbSymbolTableRecord
100
AcDbBlockTableRecord
  2
*Paper_Space6
340
161
 70
     0
280
     1
281
     0
  0
BLOCK_RECORD
  5
190
330
1
100
AcDbSymbolTableRecord
100
AcDbBlockTableRecord
  2
*Paper_Space7
340
191
 70
     0
280
     1
281
     0
  0
ENDTAB
  0
ENDSEC
  0
SECTION
  2
BLOCKS
  0
BLOCK
  5
20
330
1F
100
AcDbEntity
  8
0
100
AcDbBlockBegin
  2
*Model_Space
 70
     0
 10
0.0
 20
0.0
 30
0.0
  3
*Model_Space
  1

  0
ENDBLK
  5
21
330
1F
100
AcDbEntity
  8
0
100
AcDbBlockEnd
  0
BLOCK
  5
1C
330
1B
100
AcDbEntity
 67
     1
  8
0
100
AcDbBlockBegin
  2
*Paper_Space
 70
     0
 10
0.0
 20
0.0
 30
0.0
  3
*Paper_Space
  1

  0
ENDBLK
  5
1D
330
1B
100
AcDbEntity
 67
     1
  8
0
100
AcDbBlockEnd
  0
BLOCK
  5
24
330
23
100
AcDbEntity
  8
0
100
AcDbBlockBegin
  2
*Paper_Space0
 70
     0
 10
0.0
 20
0.0
 30
0.0
  3
*Paper_Space0
  1

  0
SPLINE
  5
AE
330
23
100
AcDbEntity
  8
0
  6
Continuous
 62
     7
370
    25
100
AcDbSpline
210
0.0
220
0.0
230
1.0
 70
    24
 71
     3
 72
    32
 73
    28
 74
     0
 42
0.000000001
 43
0.00000001
 40
0.0
 40
0.0
 40
0.0
 40
0.0
 40
0.124999999999996
 40
0.124999999999996
 40
0.2499999999999921
 40
0.2499999999999921
 40
0.3124999999999901
 40
0.3124999999999901
 40
0.3749999999999881
 40
0.3749999999999881
 40
0.4999999999999886
 40
0.4999999999999886
 40
0.5624999999999883
 40
0.5624999999999883
 40
0.6249999999999881
 40
0.6249999999999881
 40
0.7499999999999868
 40
0.7499999999999868
 40
0.7812499999999875
 40
0.7812499999999875
 40
0.812499999999988
 40
0.812499999999988
 40
0.874999999999992
 40
0.874999999999992
 40
0.937499999999996
 40
0.937499999999996
 40
1.0
 40
1.0
 40
1.0
 40
1.0
 10
-90.03118506484748
 20
0.0
 30
0.0
 10
-90.0311850648475
 20
0.0
 30
0.0
 10
-89.92679209481497
 20
0.0
 30
0.0
 10
-89.51192274265185
 20
0.0
 30
0.0
 10
-89.2015467686284
 20
0.0
 30
0.0
 10
-88.56877771300297
 20
0.0
 30
0.0
 10
-88.3297903843046
 20
0.0
 30
0.0
 10
-87.79134910697306
 20
0.0
 30
0.0
 10
-87.49614307556861
 20
0.0
 30
0.0
 10
-86.53189918364507
 20
0.0
 30
0.0
 10
-85.78505964727162
 20
0.0
 30
0.0
 10
-84.49306385452621
 20
0.0
 30
0.0
 10
-84.03067072527021
 20
0.0
 30
0.0
 10
-83.06482356065715
 20
0.0
 30
0.0
 10
-82.5602622004242
 20
0.0
 30
0.0
 10
-80.98094181299695
 20
0.0
 30
0.0
 10
-79.84136880765058
 20
0.0
 30
0.0
 10
-78.29554261545543
 20
0.0
 30
0.0
 10
-77.98037138807268
 20
0.0
 30
0.0
 10
-77.34688920058203
 20
0.0
 30
0.0
 10
-77.0274434926943
 20
0.0
 30
0.0
 10
-76.06106716189126
 20
0.0
 30
0.0
 10
-75.40611860375307
 20
0.0
 30
0.0
 10
-74.07470910212565
 20
0.0
 30
0.0
 10
-73.39825080775236
 20
0.0
 30
0.0
 10
-72.02299346944108
 20
0.0
 30
0.0
 10
-71.32479263705868
 20
0.0
 30
0.0
 10
-70.62796207484907
 20
0.0
 30
0.0
  0
SPLINE
  5
B0
330
23
100
AcDbEntity
  8
0
  6
Continuous
 62
     7
370
    25
100
AcDbSpline
210
0.0
220
0.0
230
1.0
 70
    24
 71
     3
 72
    32
 73
    28
 74
     0
 42
0.000000001
 43
0.00000001
 40
0.0
 40
0.0
 40
0.0
 40
0.0
 40
0.1249999999999935
 40
0.1249999999999935
 40
0.1874999999999927
 40
0.1874999999999927
 40
0.249999999999992
 40
0.249999999999992
 40
0.3124999999999912
 40
0.3124999999999912
 40
0.3437499999999894
 40
0.3437499999999894
 40
0.3749999999999876
 40
0.3749999999999876
 40
0.4999999999999901
 40
0.4999999999999901
 40
0.562499999999991
 40
0.562499999999991
 40
0.6249999999999919
 40
0.6249999999999919
 40
0.749999999999998
 40
0.749999999999998
 40
0.8124999999999987
 40
0.8124999999999987
 40
0.8749999999999993
 40
0.8749999999999993
 40
1.0
 40
1.0
 40
1.0
 40
1.0
 10
265.6279620748491
 20
0.0
 30
0.0
 10
267.0163313812328
 20
0.0
 30
0.0
 10
268.3761995224449
 20
0.0
 30
0.0
 10
270.3748939397325
 20
0.0
 30
0.0
 10
271.0363781904575
 20
0.0
 30
0.0
 10
272.3357378345514
 20
0.0
 30
0.0
 10
272.9654555093411
 20
0.0
 30
0.0
 10
274.1871717018973
 20
0.0
 30
0.0
 10
274.7791615730691
 20
0.0
 30
0.0
 10
275.6395334258844
 20
0.0
 30
0.0
 10
275.9217126941304
 20
0.0
 30
0.0
 10
276.4768570431008
 20
0.0
 30
0.0
 10
276.7505337551807
 20
0.0
 30
0.0
 10
278.0830405615948
 20
0.0
 30
0.0
 10
279.0407772498551
 20
0.0
 30
0.0
 10
280.3305432484567
 20
0.0
 30
0.0
 10
280.737319211833
 20
0.0
 30
0.0
 10
281.4942658352907
 20
0.0
 30
0.0
 10
281.8432015176402
 20
0.0
 30
0.0
 10
282.8069876978369
 20
0.0
 30
0.0
 10
283.3394563786808
 20
0.0
 30
0.0
 10
283.9813493999335
 20
0.0
 30
0.0
 10
284.1672874897974
 20
0.0
 30
0.0
 10
284.4834208784516
 20
0.0
 30
0.0
 10
284.6141188321395
 20
0.0
 30
0.0
 10
284.927213041312
 20
0.0
 30
0.0
 10
285.0311850648475
 20
0.0
 30
0.0
 10
285.0311850648475
 20
0.0
 30
0.0
  0
SPLINE
  5
B1
330
23
100
AcDbEntity
  8
0
  6
Continuous
 62
     7
370
    25
100
AcDbSpline
210
0.0
220
0.0
230
1.0
 70
     8
 71
     3
 72
    27
 73
    23
 74
     0
 42
0.000000001
 43
0.00000001
 40
0.0
 40
0.0
 40
0.0
 40
0.0
 40
0.0439205730766019
 40
0.0887084760713224
 40
0.141515898662201
 40
0.195847643932081
 40
0.2487833513837057
 40
0.3032519431506299
 40
0.3562108237464235
 40
0.4107179568501139
 40
0.4634501387626954
 40
0.5177270456871658
 40
0.5701984208876761
 40
0.6241890405556407
 40
0.6767202198679395
 40
0.7307584388309583
 40
0.7835794760511875
 40
0.8379224632548798
 40
0.8909014345253294
 40
0.9454214873046362
 40
0.9983138458732946
 40
1.0
 40
1.0
 40
1.0
 40
1.0
 10
-39.21320342429241
 20
-169.9999999986746
 30
0.0
 10
-39.14123628107033
 20
-169.9915194033639
 30
0.0
 10
-38.99588080969924
 20
-169.9743907405644
 30
0.0
 10
-37.7496700788564
 20
-169.8302249047136
 30
0.0
 10
-35.5542105812201
 20
-169.5868999016904
 30
0.0
 10
-32.22219009871727
 20
-169.2455768210567
 30
0.0
 10
-27.94562038224427
 20
-168.8567332803969
 30
0.0
 10
-22.91040178728215
 20
-168.4693202512323
 30
0.0
 10
-17.17052183783385
 20
-168.1212423949111
 30
0.0
 10
-10.99870793235287
 20
-167.8580202510464
 30
0.0
 10
-4.461896232448178
 20
-167.7050940056273
 30
0.0
 10
2.123014997307437
 20
-167.6818594499264
 30
0.0
 10
8.695378678876958
 20
-167.7896433070797
 30
0.0
 10
14.9535861415962
 20
-168.0137503884723
 30
0.0
 10
20.84570103427725
 20
-168.3328965643295
 30
0.0
 10
26.11097979519507
 20
-168.7068493596715
 30
0.0
 10
30.69598369646129
 20
-169.1005271985393
 30
0.0
 10
34.37863089447274
 20
-169.4625854523216
 30
0.0
 10
37.15609475169593
 20
-169.7627641710895
 30
0.0
 10
38.72783320805791
 20
-169.942848764474
 30
0.0
 10
39.38608590643541
 20
-170.0201413800702
 30
0.0
 10
39.20176129002645
 20
-169.9986666823369
 30
0.0
 10
39.1960667465649
 20
-169.9980032408393
 30
0.0
  0
SPLINE
  5
B3
330
23
100
AcDbEntity
  8
0
  6
Continuous
 62
     7
370
    25
100
AcDbSpline
210
0.0
220
0.0
230
1.0
 70
     8
 71
     3
 72
    27
 73
    23
 74
     0
 42
0.000000001
 43
0.00000001
 40
0.0
 40
0.0
 40
0.0
 40
0.0
 40
0.0019468690036929
 40
0.0562432599413574
 40
0.1088432489673017
 40
0.1629600094861867
 40
0.2157245160886768
 40
0.270004902045153
 40
0.3230120419257789
 40
0.3775585503106832
 40
0.430508426695603
 40
0.4850105897198325
 40
0.5376717245961296
 40
0.5918646281912239
 40
0.6444659728840453
 40
0.6985780331810674
 40
0.751444349834239
 40
0.8058334290404642
 40
0.8588645327642084
 40
0.9134431737829127
 40
0.9563161859497812
 40
0.9999999999999999
 40
0.9999999999999999
 40
0.9999999999999999
 40
0.9999999999999999
 10
37.98146221923945
 20
-171.2112317410728
 30
0.0
 10
37.98760836088282
 20
-171.211885824708
 30
0.0
 10
38.16516475601189
 20
-171.2307817010332
 30
0.0
 10
37.52045377087178
 20
-171.161669851065
 30
0.0
 10
35.96578040235531
 20
-170.998916664462
 30
0.0
 10
33.30092484355806
 20
-170.7343721148347
 30
0.0
 10
29.70300019738627
 20
-170.4076311576796
 30
0.0
 10
25.28638869317265
 20
-170.0546447053815
 30
0.0
 10
20.10500188073511
 20
-169.7102167652258
 30
0.0
 10
14.39180092659087
 20
-169.4195300933021
 30
0.0
 10
8.213867833528955
 20
-169.2125177213528
 30
0.0
 10
1.869980122735315
 20
-169.1174992931954
 30
0.0
 10
-4.573481897181694
 20
-169.1434777374405
 30
0.0
 10
-10.81432122239262
 20
-169.2862440062248
 30
0.0
 10
-16.80076715970133
 20
-169.5307860863141
 30
0.0
 10
-22.26806117182864
 20
-169.8449188532154
 30
0.0
 10
-27.16331159197952
 20
-170.1979991639081
 30
0.0
 10
-31.26148761106973
 20
-170.5448553766427
 30
0.0
 10
-34.51643676415969
 20
-170.8526606268948
 30
0.0
 10
-36.60814870388521
 20
-171.0656865348246
 30
0.0
 10
-37.79399035808145
 20
-171.191043443105
 30
0.0
 10
-37.93090261350996
 20
-171.2057707855963
 30
0.0
 10
-37.99999998882655
 20
-171.2132034344001
 30
0.0
  0
LINE
  5
B7
330
23
100
AcDbEntity
  8
0
  6
Continuous
 62
     7
370
    25
100
AcDbLine
 10
39.1960667466
 20
-170.0
 30
0.0
 11
255.3121856235
 21
-170.0
 31
0.0
  0
LINE
  5
B8
330
23
100
AcDbEntity
  8
0
  6
Continuous
 62
     7
370
    25
100
AcDbLine
 10
-60.3121856235
 20
-170.0
 30
0.0
 11
-39.2131356864
 21
-170.0
 31
0.0
  0
LINE
  5
B9
330
23
100
AcDbEntity
  8
0
  6
Continuous
 62
     7
370
    25
100
AcDbLine
 10
38.0
 20
-171.2132034356
 30
0.0
 11
39.2056628836
 21
-170.007540552
 31
0.0
  0
LINE
  5
BA
330
23
100
AcDbEntity
  8
0
  6
Continuous
 62
     7
370
    25
100
AcDbLine
 10
-39.2131727744
 20
-170.0000306612
 30
0.0
 11
-37.9999826229
 21
-171.2132208127
 31
0.0
  0
LINE
  5
BB
330
23
100
AcDbEntity
  8
0
  6
Continuous
 62
     7
370
    25
100
AcDbLine
 10
-38.0
 20
-171.213210159
 30
0.0
 11
-38.0
 21
-180.0
 31
0.0
  0
LINE
  5
BC
330
23
100
AcDbEntity
  8
0
  6
Continuous
 62
     7
370
    25
100
AcDbLine
 10
38.0
 20
-180.0
 30
0.0
 11
38.0
 21
-171.2132034356
 31
0.0
  0
LINE
  5
BD
330
23
100
AcDbEntity
  8
0
  6
Continuous
 62
     7
370
    25
100
AcDbLine
 10
-80.2706918029
 20
-151.2876455596
 30
0.0
 11
-90.0311850648
 21
0.0
 31
0.0
  0
LINE
  5
BE
330
23
100
AcDbEntity
  8
0
  6
Continuous
 62
     7
370
    25
100
AcDbLine
 10
285.0311850648
 20
0.0
 30
0.0
 11
275.2706918031
 21
-151.2876455576
 31
0.0
  0
LINE
  5
BF
330
23
100
AcDbEntity
  8
0
  6
Continuous
 62
     7
370
    25
100
AcDbLine
 10
-70.6279620748
 20
0.0
 30
0.0
 11
265.6279620748
 21
0.0
 31
0.0
  0
LINE
  5
C0
330
23
100
AcDbEntity
  8
0
  6
Continuous
 62
     7
370
    25
100
AcDbLine
 10
-38.0
 20
-180.0
 30
0.0
 11
38.0
 21
-180.0
 31
0.0
  0
LINE
  5
C1
330
23
100
AcDbEntity
  8
0
  6
Continuous
 62
    60
370
    25
100
AcDbLine
 10
-70.6279620748
 20
0.0
 30
0.0
 11
-60.3121856236
 21
-169.9999999996
 31
0.0
  0
LINE
  5
C2
330
23
100
AcDbEntity
  8
0
  6
Continuous
 62
    60
370
    25
100
AcDbLine
 10
255.3121856236
 20
-169.9999999985
 30
0.0
 11
265.6279620748
 21
0.0
 31
0.0
  0
ARC
  5
C3
330
23
100
AcDbEntity
  8
0
  6
Continuous
 62
     7
370
    25
100
AcDbCircle
 10
-60.3121856235
 20
-150.0
 30
0.0
 40
20.0
100
AcDbArc
 50
183.6913859865
 51
269.9422776876
  0
ARC
  5
C4
330
23
100
AcDbEntity
  8
0
  6
Continuous
 62
     7
370
    25
100
AcDbCircle
 10
255.3121856235
 20
-150.0
 30
0.0
 40
20.00000000000006
100
AcDbArc
 50
270.0428612159
 51
356.3086140136
  0
VIEWPORT
  5
1C7
330
23
100
AcDbEntity
  8
0
100
AcDbViewport
 10
0.0
 20
0.0
 30
0.0
 40
205.6
 41
156.0
 68
     1
 69
     1
 12
0.0
 22
-97.5
 13
0.0
 23
0.0
 14
10.0
 24
10.0
 15
10.0
 25
10.0
 16
0.0
 26
0.0
 36
1.0
 17
0.0
 27
0.0
 37
0.0
 42
50.0
 43
0.0
 44
0.0
 45
452.5830937296
 50
0.0
 51
0.0
 72
   100
 90
   557152
  1

281
     0
 71
     1
 74
     0
110
0.0
120
0.0
130
0.0
111
1.0
121
0.0
131
0.0
112
0.0
122
1.0
132
0.0
 79
     0
146
0.0
170
     0
 61
     5
348
2F
292
     1
282
     1
141
0.0
142
0.0
 63
   256
361
1C8
  0
ENDBLK
  5
25
330
23
100
AcDbEntity
  8
0
100
AcDbBlockEnd
  0
BLOCK
  5
C7
330
C5
100
AcDbEntity
  8
0
100
AcDbBlockBegin
  2
*Paper_Space1
 70
     0
 10
0.0
 20
0.0
 30
0.0
  3
*Paper_Space1
  1

  0
SPLINE
  5
CF
330
C5
100
AcDbEntity
  8
0
  6
Continuous
 62
     7
370
    25
100
AcDbSpline
210
0.0
220
0.0
230
1.0
 70
    24
 71
     3
 72
    32
 73
    28
 74
     0
 42
0.000000001
 43
0.00000001
 40
0.0
 40
0.0
 40
0.0
 40
0.0
 40
0.1249999999999935
 40
0.1249999999999935
 40
0.1874999999999927
 40
0.1874999999999927
 40
0.249999999999992
 40
0.249999999999992
 40
0.3124999999999912
 40
0.3124999999999912
 40
0.3437499999999894
 40
0.3437499999999894
 40
0.3749999999999876
 40
0.3749999999999876
 40
0.4999999999999901
 40
0.4999999999999901
 40
0.562499999999991
 40
0.562499999999991
 40
0.6249999999999919
 40
0.6249999999999919
 40
0.749999999999998
 40
0.749999999999998
 40
0.8124999999999987
 40
0.8124999999999987
 40
0.8749999999999993
 40
0.8749999999999993
 40
1.0
 40
1.0
 40
1.0
 40
1.0
 10
-292.3927981108576
 20
0.0
 30
0.0
 10
-292.3927981108577
 20
0.0
 30
0.0
 10
-292.2287557997635
 20
0.0
 30
0.0
 10
-291.7460908616357
 20
0.0
 30
0.0
 10
-291.5446269323153
 20
0.0
 30
0.0
 10
-291.0633725489268
 20
0.0
 30
0.0
 10
-290.7869201805649
 20
0.0
 30
0.0
 10
-290.1663225525568
 20
0.0
 30
0.0
 10
-289.8221617752515
 20
0.0
 30
0.0
 10
-289.2563648705975
 20
0.0
 30
0.0
 10
-289.0594901190514
 20
0.0
 30
0.0
 10
-288.6492043239684
 20
0.0
 30
0.0
 10
-288.4351717550793
 20
0.0
 30
0.0
 10
-287.334216443051
 20
0.0
 30
0.0
 10
-286.3530314094619
 20
0.0
 30
0.0
 10
-284.7450586046377
 20
0.0
 30
0.0
 10
-284.1837475844591
 20
0.0
 30
0.0
 10
-283.0276647174409
 20
0.0
 30
0.0
 10
-282.4353784938376
 20
0.0
 30
0.0
 10
-280.6184822558089
 20
0.0
 30
0.0
 10
-279.3541428617596
 20
0.0
 30
0.0
 10
-277.3820107236837
 20
0.0
 30
0.0
 10
-276.7168085250983
 20
0.0
 30
0.0
 10
-275.381230953467
 20
0.0
 30
0.0
 10
-274.7093031654497
 20
0.0
 30
0.0
 10
-272.6815726045047
 20
0.0
 30
0.0
 10
-271.3139096560221
 20
0.0
 30
0.0
 10
-269.9305229137407
 20
0.0
 30
0.0
  0
SPLINE
  5
D0
330
C5
100
AcDbEntity
  8
0
  6
Continuous
 62
     7
370
    25
100
AcDbSpline
210
0.0
220
0.0
230
1.0
 70
    24
 71
     3
 72
    32
 73
    28
 74
     0
 42
0.000000001
 43
0.00000001
 40
0.0
 40
0.0
 40
0.0
 40
0.0
 40
0.124999999999997
 40
0.124999999999997
 40
0.2499999999999941
 40
0.2499999999999941
 40
0.3124999999999926
 40
0.3124999999999926
 40
0.3749999999999911
 40
0.3749999999999911
 40
0.4999999999999902
 40
0.4999999999999902
 40
0.5624999999999933
 40
0.5624999999999933
 40
0.6249999999999963
 40
0.6249999999999963
 40
0.7500000000000064
 40
0.7500000000000064
 40
0.7812500000000068
 40
0.7812500000000068
 40
0.812500000000007
 40
0.812500000000007
 40
0.8750000000000047
 40
0.8750000000000047
 40
0.9375000000000022
 40
0.9375000000000022
 40
1.0
 40
1.0
 40
1.0
 40
1.0
 10
269.9305229137406
 20
0.0000000000000555
 30
0.0
 10
271.3167032980472
 20
0.0000000000000555
 30
0.0
 10
272.6823502189592
 20
0.0000000000000694
 30
0.0
 10
275.373108704837
 20
0.0000000000000694
 30
0.0
 10
276.6982400194678
 20
0.0000000000000694
 30
0.0
 10
278.653048764476
 20
0.0000000000000694
 30
0.0
 10
279.2992328819349
 20
0.0000000000000694
 30
0.0
 10
280.579301179263
 20
0.0000000000000694
 30
0.0
 10
281.2030498148633
 20
0.0000000000000694
 30
0.0
 10
283.025019519891
 20
0.0000000000000694
 30
0.0
 10
284.1744808795365
 20
0.0000000000000694
 30
0.0
 10
285.7910425726027
 20
0.0000000000000694
 30
0.0
 10
286.3144566607974
 20
0.0000000000000694
 30
0.0
 10
287.3004934799606
 20
0.0000000000000694
 30
0.0
 10
287.7651387756858
 20
0.0000000000000694
 30
0.0
 10
289.0730073037142
 20
0.0000000000000694
 30
0.0
 10
289.8312414771662
 20
0.0000000000000694
 30
0.0
 10
290.6198977392297
 20
0.0000000000000694
 30
0.0
 10
290.7694109457653
 20
0.0000000000000694
 30
0.0
 10
291.0477210003505
 20
0.0000000000000694
 30
0.0
 10
291.1771202764975
 20
0.0000000000000694
 30
0.0
 10
291.5363200667205
 20
0.0000000000000694
 30
0.0
 10
291.7371992720193
 20
0.0000000000000694
 30
0.0
 10
292.0613608547569
 20
0.0000000000000694
 30
0.0
 10
292.1846527877606
 20
0.0000000000000694
 30
0.0
 10
292.3506518525042
 20
0.0000000000000694
 30
0.0
 10
292.3927981108577
 20
0.0000000000000694
 30
0.0
 10
292.3927981108577
 20
0.0000000000000694
 30
0.0
  0
SPLINE
  5
D2
330
C5
100
AcDbEntity
  8
0
  6
Continuous
 62
     7
370
    25
100
AcDbSpline
210
0.0
220
0.0
230
1.0
 70
     8
 71
     3
 72
    27
 73
    23
 74
     0
 42
0.000000001
 43
0.00000001
 40
0.0
 40
0.0
 40
0.0
 40
0.0
 40
0.020600954643163
 40
0.0732013001212308
 40
0.1273240887127775
 40
0.1799954252964244
 40
0.2341777446236092
 40
0.2871363475935229
 40
0.3416268828046956
 40
0.3946338470105262
 40
0.4491919532682889
 40
0.5019515291293691
 40
0.5562509730922869
 40
0.6088539197567049
 40
0.6629737232004258
 40
0.7157411966920285
 40
0.7700246347738158
 40
0.8230347551865519
 40
0.8775843306605334
 40
0.930537184357701
 40
0.9850424119775179
 40
1.0
 40
1.0
 40
1.0
 40
1.0
 10
37.86928917415307
 20
-169.1471949139458
 30
0.0
 10
37.90327561074198
 20
-169.1434044977761
 30
0.0
 10
38.02403949707093
 20
-169.1299360252503
 30
0.0
 10
37.11394682115725
 20
-169.2316517175958
 30
0.0
 10
35.19552454490583
 20
-169.4371264071074
 30
0.0
 10
32.19704956256463
 20
-169.7349886181554
 30
0.0
 10
28.33744022829007
 20
-170.0769880810136
 30
0.0
 10
23.62683920692998
 20
-170.4324527475174
 30
0.0
 10
18.28073543975778
 20
-170.7554694675224
 30
0.0
 10
12.358494286562
 20
-171.0152455805118
 30
0.0
 10
6.143776572111229
 20
-171.1790728423942
 30
0.0
 10
-0.294716359718588
 20
-171.2324460187648
 30
0.0
 10
-6.649980339749321
 20
-171.1696724076244
 30
0.0
 10
-12.86598387054905
 20
-170.9967333383629
 30
0.0
 10
-18.66316507735933
 20
-170.7349399933631
 30
0.0
 10
-23.9887906556488
 20
-170.4075019569354
 30
0.0
 10
-28.60680024613751
 20
-170.0545779517994
 30
0.0
 10
-32.45539707857164
 20
-169.7106036025406
 30
0.0
 10
-35.37836215292437
 20
-169.4180166279273
 30
0.0
 10
-37.23740285092114
 20
-169.2180550540217
 30
0.0
 10
-38.06757423423393
 20
-169.1250792388246
 30
0.0
 10
-37.92491047048656
 20
-169.1409861064235
 30
0.0
 10
-37.89419035377176
 20
-169.1444113688473
 30
0.0
  0
LINE
  5
D5
330
C5
100
AcDbEntity
  8
0
  6
Continuous
 62
     7
370
    25
100
AcDbLine
 10
37.991417145
 20
-169.1420707682
 30
0.0
 11
39.3081653138
 21
-167.6869947045
 31
0.0
  0
LINE
  5
D6
330
C5
100
AcDbEntity
  8
0
  6
Continuous
 62
     7
370
    25
100
AcDbLine
 10
-39.3081653127
 20
-167.6869947043
 30
0.0
 11
-37.991417144
 21
-169.142070768
 31
0.0
  0
LINE
  5
D7
330
C5
100
AcDbEntity
  8
0
  6
Continuous
 62
     7
370
    25
100
AcDbLine
 10
-38.0
 20
-169.1444151492
 30
0.0
 11
-38.0
 21
-180.0
 31
0.0
  0
LINE
  5
D8
330
C5
100
AcDbEntity
  8
0
  6
Continuous
 62
     7
370
    25
100
AcDbLine
 10
38.0
 20
-180.0
 30
0.0
 11
38.0
 21
-169.1471957228
 31
0.0
  0
LINE
  5
D9
330
C5
100
AcDbEntity
  8
0
  6
Continuous
 62
     7
370
    25
100
AcDbLine
 10
269.9305229137
 20
0.0
 30
0.0
 11
-269.9305229137
 21
0.0
 31
0.0
  0
LINE
  5
DA
330
C5
100
AcDbEntity
  8
0
  6
Continuous
 62
     7
370
    25
100
AcDbLine
 10
-38.0
 20
-180.0
 30
0.0
 11
38.0
 21
-180.0
 31
0.0
  0
ARC
  5
DB
330
C5
100
AcDbEntity
  8
0
  6
Continuous
 62
     7
370
    25
100
AcDbCircle
 10
0.0
 20
165.1639673433
 30
0.0
 40
316.4516129032258
100
AcDbArc
 50
211.4614568484
 51
328.5385431516
  0
ARC
  5
DC
330
C5
100
AcDbEntity
  8
0
  6
Continuous
 62
     7
370
    25
100
AcDbCircle
 10
0.0
 20
166.4516129032
 30
0.0
 40
336.4516129032259
100
AcDbArc
 50
209.6517335229
 51
330.3482664771
  0
VIEWPORT
  5
1C9
330
C5
100
AcDbEntity
  8
0
100
AcDbViewport
 10
0.0
 20
0.0
 30
0.0
 40
205.6
 41
156.0
 68
     1
 69
     1
 12
0.0
 22
-97.5
 13
0.0
 23
0.0
 14
10.0
 24
10.0
 15
10.0
 25
10.0
 16
0.0
 26
0.0
 36
1.0
 17
0.0
 27
0.0
 37
0.0
 42
50.0
 43
0.0
 44
0.0
 45
452.5830937296
 50
0.0
 51
0.0
 72
   100
 90
   557152
  1

281
     0
 71
     1
 74
     0
110
0.0
120
0.0
130
0.0
111
1.0
121
0.0
131
0.0
112
0.0
122
1.0
132
0.0
 79
     0
146
0.0
170
     0
 61
     5
348
2F
292
     1
282
     1
141
0.0
142
0.0
 63
   256
361
1CA
  0
ENDBLK
  5
C8
330
C5
100
AcDbEntity
  8
0
100
AcDbBlockEnd
  0
BLOCK
  5
DF
330
DD
100
AcDbEntity
  8
0
100
AcDbBlockBegin
  2
*Paper_Space2
 70
     0
 10
0.0
 20
0.0
 30
0.0
  3
*Paper_Space2
  1

  0
SPLINE
  5
E7
330
DD
100
AcDbEntity
  8
0
  6
Continuous
 62
     7
370
    25
100
AcDbSpline
210
0.0
220
0.0
230
1.0
 70
    24
 71
     3
 72
    32
 73
    28
 74
     0
 42
0.000000001
 43
0.00000001
 40
0.0
 40
0.0
 40
0.0
 40
0.0
 40
0.124999999999996
 40
0.124999999999996
 40
0.2499999999999921
 40
0.2499999999999921
 40
0.3124999999999901
 40
0.3124999999999901
 40
0.3749999999999881
 40
0.3749999999999881
 40
0.4999999999999886
 40
0.4999999999999886
 40
0.5624999999999883
 40
0.5624999999999883
 40
0.6249999999999881
 40
0.6249999999999881
 40
0.7499999999999868
 40
0.7499999999999868
 40
0.7812499999999875
 40
0.7812499999999875
 40
0.812499999999988
 40
0.812499999999988
 40
0.874999999999992
 40
0.874999999999992
 40
0.937499999999996
 40
0.937499999999996
 40
1.0
 40
1.0
 40
1.0
 40
1.0
 10
269.9305229137406
 20
0.0
 30
0.0
 10
271.3167032980473
 20
0.0
 30
0.0
 10
272.6823502189592
 20
0.0
 30
0.0
 10
275.373108704837
 20
0.0
 30
0.0
 10
276.6982400194678
 20
0.0
 30
0.0
 10
278.653048764476
 20
0.0
 30
0.0
 10
279.2992328819349
 20
0.0
 30
0.0
 10
280.5793011792631
 20
0.0
 30
0.0
 10
281.2030498148633
 20
0.0
 30
0.0
 10
283.025019519891
 20
0.0
 30
0.0
 10
284.1744808795365
 20
0.0
 30
0.0
 10
285.7910425726028
 20
0.0
 30
0.0
 10
286.3144566607974
 20
0.0
 30
0.0
 10
287.3004934799607
 20
0.0
 30
0.0
 10
287.7651387756857
 20
0.0
 30
0.0
 10
289.0730073037141
 20
0.0
 30
0.0
 10
289.8312414771663
 20
0.0
 30
0.0
 10
290.6198977392297
 20
0.0
 30
0.0
 10
290.7694109457653
 20
0.0
 30
0.0
 10
291.0477210003504
 20
0.0
 30
0.0
 10
291.1771202764976
 20
0.0
 30
0.0
 10
291.5363200667205
 20
0.0
 30
0.0
 10
291.7371992720193
 20
0.0
 30
0.0
 10
292.061360854757
 20
0.0
 30
0.0
 10
292.1846527877607
 20
0.0
 30
0.0
 10
292.3506518525041
 20
0.0
 30
0.0
 10
292.3927981108576
 20
0.0
 30
0.0
 10
292.3927981108576
 20
0.0
 30
0.0
  0
SPLINE
  5
E8
330
DD
100
AcDbEntity
  8
0
  6
Continuous
 62
     7
370
    25
100
AcDbSpline
210
0.0
220
0.0
230
1.0
 70
    24
 71
     3
 72
    32
 73
    28
 74
     0
 42
0.000000001
 43
0.00000001
 40
0.0
 40
0.0
 40
0.0
 40
0.0
 40
0.124999999999994
 40
0.124999999999994
 40
0.187499999999991
 40
0.187499999999991
 40
0.249999999999988
 40
0.249999999999988
 40
0.312499999999985
 40
0.312499999999985
 40
0.3437499999999826
 40
0.3437499999999826
 40
0.3749999999999802
 40
0.3749999999999802
 40
0.4999999999999823
 40
0.4999999999999823
 40
0.5624999999999815
 40
0.5624999999999815
 40
0.6249999999999805
 40
0.6249999999999805
 40
0.7499999999999836
 40
0.7499999999999836
 40
0.8124999999999877
 40
0.8124999999999877
 40
0.8749999999999918
 40
0.8749999999999918
 40
1.0
 40
1.0
 40
1.0
 40
1.0
 10
-292.3927981108577
 20
0.0000000000000555
 30
0.0
 10
-292.3927981108577
 20
0.0000000000000555
 30
0.0
 10
-292.2287557997635
 20
0.0000000000000694
 30
0.0
 10
-291.7460908616358
 20
0.0000000000000694
 30
0.0
 10
-291.5446269323153
 20
0.0000000000000694
 30
0.0
 10
-291.0633725489268
 20
0.0000000000000694
 30
0.0
 10
-290.7869201805649
 20
0.0000000000000694
 30
0.0
 10
-290.1663225525568
 20
0.0000000000000694
 30
0.0
 10
-289.8221617752516
 20
0.0000000000000694
 30
0.0
 10
-289.2563648705975
 20
0.0000000000000694
 30
0.0
 10
-289.0594901190512
 20
0.0000000000000694
 30
0.0
 10
-288.6492043239684
 20
0.0000000000000694
 30
0.0
 10
-288.4351717550792
 20
0.0000000000000694
 30
0.0
 10
-287.3342164430509
 20
0.0000000000000694
 30
0.0
 10
-286.3530314094618
 20
0.0000000000000694
 30
0.0
 10
-284.7450586046378
 20
0.0000000000000694
 30
0.0
 10
-284.1837475844591
 20
0.0000000000000694
 30
0.0
 10
-283.027664717441
 20
0.0000000000000694
 30
0.0
 10
-282.4353784938375
 20
0.0000000000000694
 30
0.0
 10
-280.6184822558088
 20
0.0000000000000694
 30
0.0
 10
-279.3541428617594
 20
0.0000000000000694
 30
0.0
 10
-277.3820107236837
 20
0.0000000000000694
 30
0.0
 10
-276.7168085250983
 20
0.0000000000000694
 30
0.0
 10
-275.3812309534671
 20
0.0000000000000694
 30
0.0
 10
-274.7093031654496
 20
0.0000000000000694
 30
0.0
 10
-272.6815726045048
 20
0.0000000000000694
 30
0.0
 10
-271.3139096560221
 20
0.0000000000000694
 30
0.0
 10
-269.9305229137406
 20
0.0000000000000694
 30
0.0
  0
SPLINE
  5
EA
330
DD
100
AcDbEntity
  8
0
  6
Continuous
 62
     7
370
    25
100
AcDbSpline
210
0.0
220
0.0
230
1.0
 70
     8
 71
     3
 72
    17
 73
    13
 74
     0
 42
0.000000001
 43
0.00000001
 40
0.0
 40
0.0
 40
0.0
 40
0.0
 40
0.0907766876269886
 40
0.1834868813332897
 40
0.2887364777854611
 40
0.397012997668243
 40
0.5027225712587515
 40
0.6114762560826593
 40
0.7175319315184615
 40
0.826681339078465
 40
0.9323906365547187
 40
1.0
 40
1.0
 40
1.0
 40
1.0
 10
0.0009215122221888
 20
-171.2132034344001
 30
0.0
 10
-1.806175843090441
 20
-171.2051702378804
 30
0.0
 10
-5.458860983513752
 20
-171.1889327410619
 30
0.0
 10
-11.08725994683234
 20
-171.0539288761914
 30
0.0
 10
-16.7865291452289
 20
-170.8307775102673
 30
0.0
 10
-22.25672190551743
 20
-170.5231367124132
 30
0.0
 10
-27.15434252504556
 20
-170.1726273505685
 30
0.0
 10
-31.2521524122143
 20
-169.8230622746452
 30
0.0
 10
-34.51471739158004
 20
-169.5073104349921
 30
0.0
 10
-36.72539059609127
 20
-169.2742908744497
 30
0.0
 10
-37.90556686412805
 20
-169.1431938900724
 30
0.0
 10
-37.87946944078216
 20
-169.1460721442808
 30
0.0
 10
-37.86928917415307
 20
-169.1471949139458
 30
0.0
  0
SPLINE
  5
EB
330
DD
100
AcDbEntity
  8
0
  6
Continuous
 62
     7
370
    25
100
AcDbSpline
210
0.0
220
0.0
230
1.0
 70
     8
 71
     3
 72
    17
 73
    13
 74
     0
 42
0.000000001
 43
0.00000001
 40
0.0
 40
0.0
 40
0.0
 40
0.0
 40
0.0754038498389717
 40
0.1837825770243272
 40
0.2889783943335551
 40
0.3971954454844983
 40
0.5029211720972971
 40
0.6116922248756494
 40
0.7177475041010688
 40
0.8268976557391714
 40
0.9126380789496389
 40
1.0
 40
1.0
 40
1.0
 40
1.0
 10
37.89419035377176
 20
-169.1444113688473
 30
0.0
 10
37.88466167365887
 20
-169.1454989417823
 30
0.0
 10
37.86143732383417
 20
-169.1481496944576
 30
0.0
 10
36.59191758960076
 20
-169.2888362959224
 30
0.0
 10
34.28925593986453
 20
-169.530077775583
 30
0.0
 10
31.01072923338722
 20
-169.8451058305434
 30
0.0
 10
26.83091929525587
 20
-170.1979479222763
 30
0.0
 10
21.91834263938706
 20
-170.5448688802723
 30
0.0
 10
16.32947289650768
 20
-170.852656903244
 30
0.0
 10
10.69728241231559
 20
-171.0656873019846
 30
0.0
 10
5.18581289417885
 20
-171.1910432670667
 30
0.0
 10
1.739978004382521
 20
-171.2057707265515
 30
0.0
 10
0.0009215122221888
 20
-171.2132034344001
 30
0.0
  0
LINE
  5
ED
330
DD
100
AcDbEntity
  8
0
  6
Continuous
 62
     7
370
    25
100
AcDbLine
 10
37.991417144
 20
-169.142070768
 30
0.0
 11
39.3081653127
 21
-167.6869947043
 31
0.0
  0
LINE
  5
EE
330
DD
100
AcDbEntity
  8
0
  6
Continuous
 62
     7
370
    25
100
AcDbLine
 10
-39.3081653138
 20
-167.6869947045
 30
0.0
 11
-37.991417145
 21
-169.1420707682
 31
0.0
  0
LINE
  5
EF
330
DD
100
AcDbEntity
  8
0
  6
Continuous
 62
     7
370
    25
100
AcDbLine
 10
-38.0
 20
-169.1471957228
 30
0.0
 11
-38.0
 21
-180.0
 31
0.0
  0
LINE
  5
F0
330
DD
100
AcDbEntity
  8
0
  6
Continuous
 62
     7
370
    25
100
AcDbLine
 10
38.0
 20
-180.0
 30
0.0
 11
38.0
 21
-169.1444151492
 31
0.0
  0
LINE
  5
F1
330
DD
100
AcDbEntity
  8
0
  6
Continuous
 62
     7
370
    25
100
AcDbLine
 10
-269.9305229137
 20
0.0
 30
0.0
 11
269.9305229137
 21
0.0
 31
0.0
  0
LINE
  5
F2
330
DD
100
AcDbEntity
  8
0
  6
Continuous
 62
     7
370
    25
100
AcDbLine
 10
-38.0
 20
-180.0
 30
0.0
 11
38.0
 21
-180.0
 31
0.0
  0
ARC
  5
F3
330
DD
100
AcDbEntity
  8
0
  6
Continuous
 62
     7
370
    25
100
AcDbCircle
 10
0.0
 20
165.1639673433
 30
0.0
 40
316.4516129032259
100
AcDbArc
 50
211.4614568484
 51
328.5385431516
  0
ARC
  5
F4
330
DD
100
AcDbEntity
  8
0
  6
Continuous
 62
     7
370
    25
100
AcDbCircle
 10
0.0
 20
166.4516129032
 30
0.0
 40
336.4516129032257
100
AcDbArc
 50
209.6517335229
 51
330.3482664771
  0
VIEWPORT
  5
1CB
330
DD
100
AcDbEntity
  8
0
100
AcDbViewport
 10
0.0
 20
0.0
 30
0.0
 40
205.6
 41
156.0
 68
     1
 69
     1
 12
0.0
 22
-97.5
 13
0.0
 23
0.0
 14
10.0
 24
10.0
 15
10.0
 25
10.0
 16
0.0
 26
0.0
 36
1.0
 17
0.0
 27
0.0
 37
0.0
 42
50.0
 43
0.0
 44
0.0
 45
452.5830937296
 50
0.0
 51
0.0
 72
   100
 90
   557152
  1

281
     0
 71
     1
 74
     0
110
0.0
120
0.0
130
0.0
111
1.0
121
0.0
131
0.0
112
0.0
122
1.0
132
0.0
 79
     0
146
0.0
170
     0
 61
     5
348
2F
292
     1
282
     1
141
0.0
142
0.0
 63
   256
361
1CC
  0
ENDBLK
  5
E0
330
DD
100
AcDbEntity
  8
0
100
AcDbBlockEnd
  0
BLOCK
  5
F7
330
F5
100
AcDbEntity
  8
0
100
AcDbBlockBegin
  2
*Paper_Space3
 70
     0
 10
0.0
 20
0.0
 30
0.0
  3
*Paper_Space3
  1

  0
SPLINE
  5
102
330
F5
100
AcDbEntity
  8
0
  6
Continuous
 62
     7
370
    25
100
AcDbSpline
210
0.0
220
0.0
230
1.0
 70
    24
 71
     3
 72
    32
 73
    28
 74
     0
 42
0.000000001
 43
0.00000001
 40
0.0
 40
0.0
 40
0.0
 40
0.0
 40
0.124999999999997
 40
0.124999999999997
 40
0.2499999999999941
 40
0.2499999999999941
 40
0.3124999999999926
 40
0.3124999999999926
 40
0.3749999999999911
 40
0.3749999999999911
 40
0.4999999999999902
 40
0.4999999999999902
 40
0.5624999999999933
 40
0.5624999999999933
 40
0.6249999999999963
 40
0.6249999999999963
 40
0.7500000000000064
 40
0.7500000000000064
 40
0.7812500000000068
 40
0.7812500000000068
 40
0.812500000000007
 40
0.812500000000007
 40
0.8750000000000047
 40
0.8750000000000047
 40
0.9375000000000022
 40
0.9375000000000022
 40
1.0
 40
1.0
 40
1.0
 40
1.0
 10
-285.0311850648475
 20
0.0000000000000555
 30
0.0
 10
-285.0311850648474
 20
0.0000000000000555
 30
0.0
 10
-284.926792094815
 20
0.0000000000000694
 30
0.0
 10
-284.5119227426518
 20
0.0000000000000694
 30
0.0
 10
-284.2015467686284
 20
0.0000000000000694
 30
0.0
 10
-283.5687777130029
 20
0.0000000000000694
 30
0.0
 10
-283.3297903843048
 20
0.0000000000000694
 30
0.0
 10
-282.7913491069731
 20
0.0000000000000694
 30
0.0
 10
-282.4961430755687
 20
0.0000000000000694
 30
0.0
 10
-281.531899183645
 20
0.0000000000000694
 30
0.0
 10
-280.7850596472716
 20
0.0000000000000694
 30
0.0
 10
-279.4930638545262
 20
0.0000000000000694
 30
0.0
 10
-279.0306707252703
 20
0.0000000000000694
 30
0.0
 10
-278.0648235606571
 20
0.0000000000000694
 30
0.0
 10
-277.5602622004243
 20
0.0000000000000694
 30
0.0
 10
-275.9809418129969
 20
0.0000000000000694
 30
0.0
 10
-274.8413688076507
 20
0.0000000000000694
 30
0.0
 10
-273.2955426154555
 20
0.0000000000000694
 30
0.0
 10
-272.9803713880728
 20
0.0000000000000694
 30
0.0
 10
-272.346889200582
 20
0.0000000000000694
 30
0.0
 10
-272.0274434926943
 20
0.0000000000000694
 30
0.0
 10
-271.0610671618912
 20
0.0000000000000694
 30
0.0
 10
-270.4061186037532
 20
0.0000000000000694
 30
0.0
 10
-269.0747091021257
 20
0.0000000000000694
 30
0.0
 10
-268.3982508077524
 20
0.0000000000000694
 30
0.0
 10
-267.0229934694411
 20
0.0000000000000694
 30
0.0
 10
-266.3247926370587
 20
0.0000000000000694
 30
0.0
 10
-265.6279620748491
 20
0.0000000000000694
 30
0.0
  0
SPLINE
  5
104
330
F5
100
AcDbEntity
  8
0
  6
Continuous
 62
     7
370
    25
100
AcDbSpline
210
0.0
220
0.0
230
1.0
 70
    24
 71
     3
 72
    32
 73
    28
 74
     0
 42
0.000000001
 43
0.00000001
 40
0.0
 40
0.0
 40
0.0
 40
0.0
 40
0.124999999999994
 40
0.124999999999994
 40
0.187499999999991
 40
0.187499999999991
 40
0.249999999999988
 40
0.249999999999988
 40
0.312499999999985
 40
0.312499999999985
 40
0.3437499999999826
 40
0.3437499999999826
 40
0.3749999999999802
 40
0.3749999999999802
 40
0.4999999999999823
 40
0.4999999999999823
 40
0.5624999999999815
 40
0.5624999999999815
 40
0.6249999999999805
 40
0.6249999999999805
 40
0.7499999999999836
 40
0.7499999999999836
 40
0.8124999999999877
 40
0.8124999999999877
 40
0.8749999999999918
 40
0.8749999999999918
 40
1.0
 40
1.0
 40
1.0
 40
1.0
 10
70.6279620748491
 20
0.0000000000000555
 30
0.0
 10
72.01633138123287
 20
0.0000000000000555
 30
0.0
 10
73.37619952244484
 20
0.0000000000000694
 30
0.0
 10
75.37489393973246
 20
0.0000000000000694
 30
0.0
 10
76.03637819045733
 20
0.0000000000000694
 30
0.0
 10
77.33573783455137
 20
0.0000000000000694
 30
0.0
 10
77.96545550934103
 20
0.0000000000000694
 30
0.0
 10
79.18717170189737
 20
0.0000000000000694
 30
0.0
 10
79.77916157306922
 20
0.0000000000000694
 30
0.0
 10
80.6395334258844
 20
0.0000000000000694
 30
0.0
 10
80.92171269413035
 20
0.0000000000000694
 30
0.0
 10
81.47685704310074
 20
0.0000000000000694
 30
0.0
 10
81.75053375518068
 20
0.0000000000000694
 30
0.0
 10
83.08304056159477
 20
0.0000000000000694
 30
0.0
 10
84.0407772498551
 20
0.0000000000000694
 30
0.0
 10
85.33054324845673
 20
0.0000000000000694
 30
0.0
 10
85.73731921183314
 20
0.0000000000000694
 30
0.0
 10
86.49426583529075
 20
0.0000000000000694
 30
0.0
 10
86.8432015176402
 20
0.0000000000000694
 30
0.0
 10
87.80698769783679
 20
0.0000000000000694
 30
0.0
 10
88.3394563786808
 20
0.0000000000000694
 30
0.0
 10
88.98134939993346
 20
0.0000000000000694
 30
0.0
 10
89.16728748979752
 20
0.0000000000000694
 30
0.0
 10
89.48342087845157
 20
0.0000000000000694
 30
0.0
 10
89.61411883213947
 20
0.0000000000000694
 30
0.0
 10
89.92721304131196
 20
0.0000000000000694
 30
0.0
 10
90.03118506484748
 20
0.0000000000000694
 30
0.0
 10
90.03118506484748
 20
0.0000000000000694
 30
0.0
  0
SPLINE
  5
107
330
F5
100
AcDbEntity
  8
0
  6
Continuous
 62
     7
370
    25
100
AcDbSpline
210
0.0
220
0.0
230
1.0
 70
     8
 71
     3
 72
    26
 73
    22
 74
     0
 42
0.000000001
 43
0.00000001
 40
0.0
 40
0.0
 40
0.0
 40
0.0
 40
0.0453909443554931
 40
0.0917486971411164
 40
0.1443765105245413
 40
0.1985178723376219
 40
0.2513756874674957
 40
0.3057556454208105
 40
0.3587865213883479
 40
0.413364352046251
 40
0.4662220291110874
 40
0.5206282345060904
 40
0.5732250875275404
 40
0.6273442825782183
 40
0.6800121219917166
 40
0.7341908438254253
 40
0.787145930551829
 40
0.8416328478051999
 40
0.8946362925565241
 40
0.9491907763700324
 40
0.9999999999999999
 40
0.9999999999999999
 40
0.9999999999999999
 40
0.9999999999999999
 10
37.99999998882653
 20
-171.2132034344
 30
0.0
 10
37.92531904156582
 20
-171.2051703142579
 30
0.0
 10
37.77436647360929
 20
-171.1889329718213
 30
0.0
 10
36.49622968929644
 20
-171.0539278767442
 30
0.0
 10
34.29339626714578
 20
-170.830781878414
 30
0.0
 10
31.01972193591629
 20
-170.5231201231237
 30
0.0
 10
26.84001631590377
 20
-170.1726882895969
 30
0.0
 10
21.92990362232364
 20
-169.8228298430061
 30
0.0
 10
16.34253190122744
 20
-169.508163586142
 30
0.0
 10
10.33882850998548
 20
-169.2710446468265
 30
0.0
 10
3.988589246280122
 20
-169.1358986328657
 30
0.0
 10
-2.4008435591093
 20
-169.1209378699529
 30
0.0
 10
-8.76829921891646
 20
-169.2267366437753
 30
0.0
 10
-14.82223463605448
 20
-169.4384203228908
 30
0.0
 10
-20.51223078932314
 20
-169.7346275954013
 30
0.0
 10
-25.58761518172842
 20
-170.0771106838464
 30
0.0
 10
-29.99098471726301
 20
-170.4323194229065
 30
0.0
 10
-33.52393457499295
 20
-170.7558867548268
 30
0.0
 10
-36.11191228440011
 20
-171.0137408514752
 30
0.0
 10
-37.71657739755042
 20
-171.1827120801829
 30
0.0
 10
-37.89528472324911
 20
-171.2019531688001
 30
0.0
 10
-37.98146221923946
 20
-171.2112317410728
 30
0.0
  0
LINE
  5
10B
330
F5
100
AcDbEntity
  8
0
  6
Continuous
 62
     7
370
    25
100
AcDbLine
 10
39.2132684125
 20
-170.0
 30
0.0
 11
60.3121856235
 21
-170.0
 31
0.0
  0
LINE
  5
10C
330
F5
100
AcDbEntity
  8
0
  6
Continuous
 62
     7
370
    25
100
AcDbLine
 10
-255.3121856235
 20
-170.0
 30
0.0
 11
-39.1960667466
 21
-170.0
 31
0.0
  0
LINE
  5
10D
330
F5
100
AcDbEntity
  8
0
  6
Continuous
 62
     7
370
    25
100
AcDbLine
 10
38.0
 20
-171.2132034356
 30
0.0
 11
39.2132328482
 21
-169.9999705875
 31
0.0
  0
LINE
  5
10E
330
F5
100
AcDbEntity
  8
0
  6
Continuous
 62
     7
370
    25
100
AcDbLine
 10
-39.2056628836
 20
-170.007540552
 30
0.0
 11
-38.0
 21
-171.2132034356
 31
0.0
  0
LINE
  5
10F
330
F5
100
AcDbEntity
  8
0
  6
Continuous
 62
     7
370
    25
100
AcDbLine
 10
-38.0
 20
-171.2132034356
 30
0.0
 11
-38.0
 21
-180.0
 31
0.0
  0
LINE
  5
110
330
F5
100
AcDbEntity
  8
0
  6
Continuous
 62
     7
370
    25
100
AcDbLine
 10
38.0
 20
-180.0
 30
0.0
 11
38.0
 21
-171.2131964557
 31
0.0
  0
LINE
  5
111
330
F5
100
AcDbEntity
  8
0
  6
Continuous
 62
     7
370
    25
100
AcDbLine
 10
-275.2706918029
 20
-151.2876455596
 30
0.0
 11
-285.0311850648
 21
0.0
 31
0.0
  0
LINE
  5
112
330
F5
100
AcDbEntity
  8
0
  6
Continuous
 62
     7
370
    25
100
AcDbLine
 10
90.0311850648
 20
0.0
 30
0.0
 11
80.2706918031
 21
-151.2876455576
 31
0.0
  0
LINE
  5
113
330
F5
100
AcDbEntity
  8
0
  6
Continuous
 62
     7
370
    25
100
AcDbLine
 10
70.6279620748
 20
0.0
 30
0.0
 11
-265.6279620748
 21
0.0
 31
0.0
  0
LINE
  5
114
330
F5
100
AcDbEntity
  8
0
  6
Continuous
 62
     7
370
    25
100
AcDbLine
 10
-38.0
 20
-180.0
 30
0.0
 11
38.0
 21
-180.0
 31
0.0
  0
LINE
  5
115
330
F5
100
AcDbEntity
  8
0
  6
Continuous
 62
    60
370
    25
100
AcDbLine
 10
-265.6279620748
 20
0.0
 30
0.0
 11
-255.3121856236
 21
-169.9999999996
 31
0.0
  0
LINE
  5
116
330
F5
100
AcDbEntity
  8
0
  6
Continuous
 62
    60
370
    25
100
AcDbLine
 10
60.3121856236
 20
-169.9999999985
 30
0.0
 11
70.6279620748
 21
0.0
 31
0.0
  0
ARC
  5
117
330
F5
100
AcDbEntity
  8
0
  6
Continuous
 62
     7
370
    25
100
AcDbCircle
 10
-255.3121856235
 20
-150.0
 30
0.0
 40
20.00000000000004
100
AcDbArc
 50
183.6913859865
 51
269.9422776876
  0
ARC
  5
118
330
F5
100
AcDbEntity
  8
0
  6
Continuous
 62
     7
370
    25
100
AcDbCircle
 10
60.3121856235
 20
-150.0
 30
0.0
 40
19.99999999999998
100
AcDbArc
 50
270.0428612159
 51
356.3086140136
  0
ARC
  5
119
330
F5
100
AcDbEntity
  8
0
  6
Continuous
 62
     7
370
    25
100
AcDbCircle
 10
0.0000803707
 20
-503.3070157738
 30
0.0
 40
335.6057743610945
100
AcDbArc
 50
83.2900728263
 51
96.7070090036
  0
VIEWPORT
  5
1CD
330
F5
100
AcDbEntity
  8
0
100
AcDbViewport
 10
0.0
 20
0.0
 30
0.0
 40
205.6
 41
156.0
 68
     1
 69
     1
 12
0.0
 22
-97.5
 13
0.0
 23
0.0
 14
10.0
 24
10.0
 15
10.0
 25
10.0
 16
0.0
 26
0.0
 36
1.0
 17
0.0
 27
0.0
 37
0.0
 42
50.0
 43
0.0
 44
0.0
 45
452.5830937296
 50
0.0
 51
0.0
 72
   100
 90
   557152
  1

281
     0
 71
     1
 74
     0
110
0.0
120
0.0
130
0.0
111
1.0
121
0.0
131
0.0
112
0.0
122
1.0
132
0.0
 79
     0
146
0.0
170
     0
 61
     5
348
2F
292
     1
282
     1
141
0.0
142
0.0
 63
   256
361
1CE
  0
ENDBLK
  5
F8
330
F5
100
AcDbEntity
  8
0
100
AcDbBlockEnd
  0
BLOCK
  5
11C
330
11A
100
AcDbEntity
  8
0
100
AcDbBlockBegin
  2
*Paper_Space4
 70
     0
 10
0.0
 20
0.0
 30
0.0
  3
*Paper_Space4
  1

  0
CIRCLE
  5
11E
330
11A
100
AcDbEntity
  8
0
  6
Continuous
 62
     7
370
    25
100
AcDbCircle
 10
0.0
 20
0.0
 30
0.0
 40
23.0
  0
CIRCLE
  5
11F
330
11A
100
AcDbEntity
  8
0
  6
Continuous
 62
     7
370
    25
100
AcDbCircle
 10
0.0
 20
0.0
 30
0.0
 40
38.00000000000003
  0
SPLINE
  5
120
330
11A
100
AcDbEntity
  8
0
  6
Continuous
 62
     7
370
    25
100
AcDbSpline
210
0.0
220
0.0
230
1.0
 70
    11
 71
     3
 72
   133
 73
   129
 74
     0
 42
0.000000001
 43
0.00000001
 40
0.0
 40
0.0
 40
0.0
 40
0.0
 40
0.03125
 40
0.03125
 40
0.0390625
 40
0.0390625
 40
0.046875
 40
0.046875
 40
0.0625
 40
0.0625
 40
0.09375
 40
0.09375
 40
0.1015625
 40
0.1015625
 40
0.1093749999999999
 40
0.1093749999999999
 40
0.1249999999999999
 40
0.1249999999999999
 40
0.1406249999999999
 40
0.1406249999999999
 40
0.1484374999999999
 40
0.1484374999999999
 40
0.1562499999999999
 40
0.1562499999999999
 40
0.1874999999999996
 40
0.1874999999999996
 40
0.2031249999999995
 40
0.2031249999999995
 40
0.2109374999999994
 40
0.2109374999999994
 40
0.2187499999999993
 40
0.2187499999999993
 40
0.2499999999999991
 40
0.2499999999999991
 40
0.2578124999999991
 40
0.2578124999999991
 40
0.265624999999999
 40
0.265624999999999
 40
0.2812499999999989
 40
0.2812499999999989
 40
0.2968749999999988
 40
0.2968749999999988
 40
0.3124999999999987
 40
0.3124999999999987
 40
0.3437499999999986
 40
0.3437499999999986
 40
0.3593749999999985
 40
0.3593749999999985
 40
0.3671874999999985
 40
0.3671874999999985
 40
0.3749999999999985
 40
0.3749999999999985
 40
0.4062499999999986
 40
0.4062499999999986
 40
0.4140624999999986
 40
0.4140624999999986
 40
0.4218749999999986
 40
0.4218749999999986
 40
0.4374999999999986
 40
0.4374999999999986
 40
0.4687499999999987
 40
0.4687499999999987
 40
0.4765624999999987
 40
0.4765624999999987
 40
0.4843749999999988
 40
0.4999999999999988
 40
0.4999999999999988
 40
0.5156249999999989
 40
0.5156249999999989
 40
0.5234374999999989
 40
0.5234374999999989
 40
0.5312499999999989
 40
0.5312499999999989
 40
0.5624999999999991
 40
0.5624999999999991
 40
0.5781249999999991
 40
0.5781249999999991
 40
0.5859374999999991
 40
0.5859374999999991
 40
0.5937499999999991
 40
0.5937499999999991
 40
0.6249999999999992
 40
0.6249999999999992
 40
0.6406249999999993
 40
0.6406249999999993
 40
0.6562499999999993
 40
0.6562499999999993
 40
0.6874999999999994
 40
0.6874999999999994
 40
0.7187499999999997
 40
0.7187499999999997
 40
0.7343749999999997
 40
0.7343749999999997
 40
0.7421874999999997
 40
0.7421874999999997
 40
0.7499999999999997
 40
0.7499999999999997
 40
0.7812499999999998
 40
0.7812499999999998
 40
0.7890624999999998
 40
0.7890624999999998
 40
0.7968749999999999
 40
0.7968749999999999
 40
0.8124999999999999
 40
0.8124999999999999
 40
0.8437499999999999
 40
0.8437499999999999
 40
0.8515624999999999
 40
0.8515624999999999
 40
0.8593749999999999
 40
0.8593749999999999
 40
0.8749999999999999
 40
0.8749999999999999
 40
0.890625
 40
0.890625
 40
0.8984375
 40
0.8984375
 40
0.90625
 40
0.90625
 40
0.9375
 40
0.9375
 40
0.953125
 40
0.953125
 40
0.9609375000000001
 40
0.9609375000000001
 40
0.9687500000000001
 40
0.9687500000000001
 40
1.0
 40
1.0
 40
1.0
 40
1.0
 10
-0.0009445050409849
 20
-39.21320342429241
 30
0.0
 10
-2.596752262849053
 20
-39.21314129764741
 30
0.0
 10
-5.156659334826577
 20
-38.95945059771563
 30
0.0
 10
-8.31277527799913
 20
-38.33289100883272
 30
0.0
 10
-8.94179212989583
 20
-38.19197836778432
 30
0.0
 10
-10.19535450371556
 20
-37.87852299933409
 30
0.0
 10
-10.82148149802319
 20
-37.70546335006189
 30
0.0
 10
-12.67856233776221
 20
-37.14251351206821
 30
0.0
 10
-13.88863604867588
 20
-36.70922223956693
 30
0.0
 10
-17.4377090778589
 20
-35.24095772125335
 30
0.0
 10
-19.69605093624836
 20
-34.03862292286475
 30
0.0
 10
-22.38120304638758
 20
-32.24888889178879
 30
0.0
 10
-22.91242349969259
 20
-31.8755582999421
 30
0.0
 10
-23.94995849803446
 20
-31.10737213230305
 30
0.0
 10
-24.45735360786032
 20
-30.71187042463636
 30
0.0
 10
-25.9460910184831
 20
-29.49177912327006
 30
0.0
 10
-26.89407485134136
 20
-28.63369335768698
 30
0.0
 10
-28.7021673732841
 20
-26.8291090344284
 30
0.0
 10
-29.5623396247769
 20
-25.88267515019083
 30
0.0
 10
-30.7856929232157
 20
-24.39557727823522
 30
0.0
 10
-31.18234223199573
 20
-23.88865286598854
 30
0.0
 10
-31.95288038167746
 20
-22.85183709746978
 30
0.0
 10
-32.32702504970334
 20
-22.32137786308168
 30
0.0
 10
-34.12007685407838
 20
-19.64091941849877
 30
0.0
 10
-35.32549027440049
 20
-17.38514521040998
 30
0.0
 10
-36.79755056127815
 20
-13.83746901404101
 30
0.0
 10
-37.23191914511249
 20
-12.62742624570573
 30
0.0
 10
-37.79611341514659
 20
-10.76967574158857
 30
0.0
 10
-37.96929826163069
 20
-10.14394226895945
 30
0.0
 10
-38.28264878428921
 20
-8.89222884026522
 30
0.0
 10
-38.42334852888911
 20
-8.264541945422796
 30
0.0
 10
-39.04843921173068
 20
-5.117121106801028
 30
0.0
 10
-39.29945749692976
 20
-2.570636961969006
 30
0.0
 10
-39.29907695137872
 20
0.6485055971249404
 30
0.0
 10
-39.28317233284484
 20
1.294149622016544
 30
0.0
 10
-39.21894602758698
 20
2.589155690532974
 30
0.0
 10
-39.17071397452573
 20
3.235503284173602
 30
0.0
 10
-38.97939065692185
 20
5.160379517301
 30
0.0
 10
-38.78945256009712
 20
6.429268255243495
 30
0.0
 10
-38.28773179003014
 20
8.939013316851
 30
0.0
 10
-37.97589614791003
 20
10.17985742201409
 30
0.0
 10
-37.22944863685524
 20
12.63332546478163
 30
0.0
 10
-36.7944922876075
 20
13.84711814123533
 30
0.0
 10
-35.30172213374397
 20
17.43770149447513
 30
0.0
 10
-34.08795113512892
 20
19.69355108279726
 30
0.0
 10
-31.95223568413742
 20
22.87926585015822
 30
0.0
 10
-31.18747283632079
 20
23.90794289254762
 30
0.0
 10
-29.95909507913388
 20
25.39998972868707
 30
0.0
 10
-29.53494728486869
 20
25.89005221963325
 30
0.0
 10
-28.66461423051042
 20
26.84651328061716
 30
0.0
 10
-28.21931276635679
 20
27.31210135224316
 30
0.0
 10
-25.94318858972419
 20
29.57821088800885
 30
0.0
 10
-23.96475096184539
 20
31.19478110948515
 30
0.0
 10
-21.29563218315533
 20
32.97210263832704
 30
0.0
 10
-20.75192384549932
 20
33.31529640492864
 30
0.0
 10
-19.64436015907476
 20
33.9766956171747
 30
0.0
 10
-19.07891180890897
 20
34.29571563420068
 30
0.0
 10
-17.36739125010664
 20
35.20631951281305
 30
0.0
 10
-16.2048343697983
 20
35.75281155310337
 30
0.0
 10
-12.65443527262238
 20
37.21617031221147
 30
0.0
 10
-10.20433104735878
 20
37.95823901505998
 30
0.0
 10
-7.034807539175483
 20
38.58637680856288
 30
0.0
 10
-6.394109790155093
 20
38.69704227605778
 30
0.0
 10
-5.115235495707842
 20
38.88558994316364
 30
0.0
 10
-3.196785509380519
 20
39.12022287601944
 30
0.0
 10
-1.277928292353585
 20
39.21325153250631
 30
0.0
 10
1.280905056498545
 20
39.21315528277059
 30
0.0
 10
2.560500265988358
 20
39.15103805085116
 30
0.0
 10
4.480165014952963
 20
38.96330376350461
 30
0.0
 10
5.120098595419354
 20
38.88496298865025
 30
0.0
 10
6.400058353950389
 20
38.69607416102402
 30
0.0
 10
7.040500933722478
 20
38.58533590198655
 30
0.0
 10
10.2073685004083
 20
37.95728564521993
 30
0.0
 10
12.65708337317428
 20
37.21535627807883
 30
0.0
 10
16.20896359145429
 20
35.75097067454526
 30
0.0
 10
17.37236178492656
 20
35.20393343275617
 30
0.0
 10
19.08561861683567
 20
34.29201707590332
 30
0.0
 10
19.65023823860632
 20
33.97330148485839
 30
0.0
 10
20.75663286038629
 20
33.31236286555958
 30
0.0
 10
21.29986982794085
 20
32.96936866968202
 30
0.0
 10
23.96713830861788
 20
31.19283291214003
 30
0.0
 10
25.94568398212328
 20
29.57619403166997
 30
0.0
 10
28.67866340633453
 20
26.85453734221416
 30
0.0
 10
29.55402536338239
 20
25.89229114948979
 30
0.0
 10
31.19008735183921
 20
23.90448186964195
 30
0.0
 10
31.95426947812818
 20
22.8764113732792
 30
0.0
 10
34.08888292384401
 20
19.69180447405332
 30
0.0
 10
35.30304863664578
 20
17.43516757773508
 30
0.0
 10
37.29367108106635
 20
12.64577814436138
 30
0.0
 10
38.03717943929957
 20
10.19263582967211
 30
0.0
 10
38.78957512114106
 20
6.428507356012608
 30
0.0
 10
38.97949437918073
 20
5.159636745887389
 30
0.0
 10
39.17079373793641
 20
3.234550612333451
 30
0.0
 10
39.2190250253654
 20
2.587929440193287
 30
0.0
 10
39.28320218581748
 20
1.293180273238923
 30
0.0
 10
39.29909028289384
 20
0.6476329863884522
 30
0.0
 10
39.29940461329171
 20
-2.571178151328041
 30
0.0
 10
39.04839385930779
 20
-5.117881704261237
 30
0.0
 10
38.42300545282364
 20
-8.266133494133964
 30
0.0
 10
38.28223346840038
 20
-8.894014930746916
 30
0.0
 10
37.96870263061378
 20
-10.14617406164084
 30
0.0
 10
37.7953883957409
 20
-10.77219811786954
 30
0.0
 10
37.23129126345468
 20
-12.62922293197338
 30
0.0
 10
36.79695183677469
 20
-13.83906146986884
 30
0.0
 10
35.32466526338551
 20
-17.38683339529058
 30
0.0
 10
34.1186921648963
 20
-19.64361424539004
 30
0.0
 10
32.32370260682725
 20
-22.32618754496513
 30
0.0
 10
31.94936859858819
 20
-22.85671289542372
 30
0.0
 10
31.17933509280039
 20
-23.89254764643874
 30
0.0
 10
30.78289617509013
 20
-24.39908557183848
 30
0.0
 10
29.56000872580802
 20
-25.88528694950271
 30
0.0
 10
28.69993821224199
 20
-26.8314861989784
 30
0.0
 10
26.89146760566777
 20
-28.6361444552132
 30
0.0
 10
25.94299582657208
 20
-29.49453147999726
 30
0.0
 10
24.45295931077201
 20
-30.7153635721942
 30
0.0
 10
23.94503513638406
 20
-31.11115915439069
 30
0.0
 10
22.90622353851825
 20
-31.88000640173061
 30
0.0
 10
22.37526538249064
 20
-32.25297491801521
 30
0.0
 10
19.6925801208924
 20
-34.04041964511769
 30
0.0
 10
17.43502574355483
 20
-35.24233417216538
 30
0.0
 10
13.88474342983399
 20
-36.7106992630373
 30
0.0
 10
12.67386801444173
 20
-37.14414987191728
 30
0.0
 10
10.81487954492746
 20
-37.70735720087814
 30
0.0
 10
10.18944768964562
 20
-37.88009478005083
 30
0.0
 10
8.936814472988655
 20
-38.19312841570665
 30
0.0
 10
8.308217911643965
 20
-38.33386650310764
 30
0.0
 10
5.153979902187062
 20
-38.9596979429882
 30
0.0
 10
2.594863252767071
 20
-39.21326555093741
 30
0.0
 10
-0.0009445050409866
 20
-39.21320342429241
 30
0.0
  0
LWPOLYLINE
  5
121
330
11A
100
AcDbEntity
  8
0
  6
Continuous
 62
     7
370
    25
100
AcDbPolyline
 90
       66
 70
   128
 43
0.0
 10
-292.3927981109
 20
-70.6279620748
 10
-286.8457586786
 20
-70.0583524905
 10
-280.9974685688
 20
-69.4999488054
 10
-274.854069763
 20
-68.9533374654
 10
-268.4220141712
 20
-68.4190925317
 10
-261.7080568564
 20
-67.8977750781
 10
-254.7192489395
 20
-67.3899326019
 10
-247.462930195
 20
-66.8960984484
 10
-239.9467213418
 20
-66.4167912515
 10
-232.1785160403
 20
-65.9525143882
 10
-224.1664726023
 20
-65.5037554507
 10
-215.9190054227
 20
-65.0709857338
 10
-207.4447761428
 20
-64.6546597403
 10
-198.7526845538
 20
-64.2552147033
 10
-189.8518592496
 20
-63.8730701273
 10
-180.7516480402
 20
-63.5086273476
 10
-171.4616081345
 20
-63.1622691086
 10
-161.9914961026
 20
-62.8343591622
 10
-152.35125763
 20
-62.5252418854
 10
-142.551017072
 20
-62.2352419188
 10
-132.6010668209
 20
-61.9646638257
 10
-122.511856497
 20
-61.7137917722
 10
-112.2939819742
 20
-61.4828892287
 10
-101.9581742516
 20
-61.2721986933
 10
-91.5152881841
 20
-61.081941437
 10
-80.9762910822
 20
-60.9123172716
 10
-70.3522511941
 20
-60.7635043394
 10
-59.6543260812
 20
-60.6356589266
 10
-48.8937509008
 20
-60.5289152986
 10
-38.0818266063
 20
-60.4433855596
 10
-27.229908079
 20
-60.3791595346
 10
-16.3493922026
 20
-60.3363046748
 10
-5.4517058947
 20
-60.3148659873
 10
5.4517058947
 20
-60.3148659873
 10
16.3493922026
 20
-60.3363046748
 10
27.229908079
 20
-60.3791595346
 10
38.0818266063
 20
-60.4433855596
 10
48.8937509008
 20
-60.5289152986
 10
59.6543260812
 20
-60.6356589266
 10
70.3522511941
 20
-60.7635043394
 10
80.9762910822
 20
-60.9123172716
 10
91.5152881841
 20
-61.081941437
 10
101.9581742516
 20
-61.2721986933
 10
112.2939819742
 20
-61.4828892287
 10
122.511856497
 20
-61.7137917722
 10
132.6010668209
 20
-61.9646638257
 10
142.551017072
 20
-62.2352419188
 10
152.35125763
 20
-62.5252418854
 10
161.9914961026
 20
-62.8343591622
 10
171.4616081345
 20
-63.1622691086
 10
180.7516480402
 20
-63.5086273476
 10
189.8518592496
 20
-63.8730701273
 10
198.7526845538
 20
-64.2552147033
 10
207.4447761428
 20
-64.6546597403
 10
215.9190054227
 20
-65.0709857338
 10
224.1664726023
 20
-65.5037554507
 10
232.1785160403
 20
-65.9525143882
 10
239.9467213418
 20
-66.4167912515
 10
247.462930195
 20
-66.8960984484
 10
254.7192489395
 20
-67.3899326019
 10
261.7080568564
 20
-67.8977750781
 10
268.4220141712
 20
-68.4190925317
 10
274.854069763
 20
-68.9533374654
 10
280.9974685688
 20
-69.4999488054
 10
286.8457586786
 20
-70.0583524905
 10
292.3927981109
 20
-70.6279620748
  0
LWPOLYLINE
  5
123
330
11A
100
AcDbEntity
  8
0
  6
Continuous
 62
     7
370
    25
100
AcDbPolyline
 90
       66
 70
   128
 43
0.0
 10
292.3927981109
 20
265.6279620748
 10
286.8457586786
 20
265.0583524905
 10
280.9974685688
 20
264.4999488054
 10
274.854069763
 20
263.9533374654
 10
268.4220141712
 20
263.4190925317
 10
261.7080568564
 20
262.8977750781
 10
254.7192489395
 20
262.3899326019
 10
247.462930195
 20
261.8960984484
 10
239.9467213418
 20
261.4167912515
 10
232.1785160403
 20
260.9525143882
 10
224.1664726023
 20
260.5037554507
 10
215.9190054227
 20
260.0709857338
 10
207.4447761428
 20
259.6546597403
 10
198.7526845538
 20
259.2552147033
 10
189.8518592496
 20
258.8730701273
 10
180.7516480402
 20
258.5086273476
 10
171.4616081345
 20
258.1622691086
 10
161.9914961026
 20
257.8343591622
 10
152.35125763
 20
257.5252418854
 10
142.551017072
 20
257.2352419188
 10
132.6010668209
 20
256.9646638257
 10
122.511856497
 20
256.7137917722
 10
112.2939819742
 20
256.4828892287
 10
101.9581742516
 20
256.2721986933
 10
91.5152881841
 20
256.081941437
 10
80.9762910822
 20
255.9123172716
 10
70.3522511941
 20
255.7635043394
 10
59.6543260812
 20
255.6356589266
 10
48.8937509008
 20
255.5289152986
 10
38.0818266063
 20
255.4433855596
 10
27.229908079
 20
255.3791595346
 10
16.3493922026
 20
255.3363046748
 10
5.4517058947
 20
255.3148659873
 10
-5.4517058947
 20
255.3148659873
 10
-16.3493922026
 20
255.3363046748
 10
-27.229908079
 20
255.3791595346
 10
-38.0818266063
 20
255.4433855596
 10
-48.8937509008
 20
255.5289152986
 10
-59.6543260812
 20
255.6356589266
 10
-70.3522511941
 20
255.7635043394
 10
-80.9762910823
 20
255.9123172716
 10
-91.5152881841
 20
256.081941437
 10
-101.9581742516
 20
256.2721986933
 10
-112.2939819742
 20
256.4828892287
 10
-122.511856497
 20
256.7137917722
 10
-132.6010668209
 20
256.9646638257
 10
-142.551017072
 20
257.2352419188
 10
-152.35125763
 20
257.5252418854
 10
-161.9914961026
 20
257.8343591622
 10
-171.4616081345
 20
258.1622691086
 10
-180.7516480402
 20
258.5086273476
 10
-189.8518592496
 20
258.8730701273
 10
-198.7526845538
 20
259.2552147033
 10
-207.4447761428
 20
259.6546597403
 10
-215.9190054227
 20
260.0709857338
 10
-224.1664726023
 20
260.5037554507
 10
-232.1785160403
 20
260.9525143882
 10
-239.9467213418
 20
261.4167912515
 10
-247.462930195
 20
261.8960984484
 10
-254.7192489395
 20
262.3899326019
 10
-261.7080568564
 20
262.8977750781
 10
-268.4220141712
 20
263.4190925317
 10
-274.854069763
 20
263.9533374654
 10
-280.9974685688
 20
264.4999488054
 10
-286.8457586786
 20
265.0583524905
 10
-292.3927981109
 20
265.6279620748
  0
LWPOLYLINE
  5
125
330
11A
100
AcDbEntity
  8
0
  6
Continuous
 62
     7
370
    25
100
AcDbPolyline
 90
       62
 70
   128
 43
0.0
 10
-269.9305229137
 20
285.0311850648
 10
-264.2474549538
 20
284.4539079545
 10
-258.2678976573
 20
283.8892344461
 10
-251.998560171
 20
283.3377981113
 10
-245.4464767792
 20
282.8002176692
 10
-238.618999011
 20
282.2770962927
 10
-231.5237873919
 20
281.7690209313
 10
-224.1688028483
 20
281.2765616525
 10
-216.5622977759
 20
280.8002710027
 10
-208.7128067794
 20
280.3406833865
 10
-200.6291370976
 20
279.8983144678
 10
-192.3203587207
 20
279.4736605905
 10
-183.7957942141
 20
279.0671982223
 10
-175.0650082584
 20
278.6793834197
 10
-166.1377969173
 20
278.3106513162
 10
-157.0241766468
 20
277.9614156344
 10
-147.7343730561
 20
277.6320682218
 10
-138.2788094347
 20
277.3229786105
 10
-128.668095057
 20
277.0344936036
 10
-118.9130132788
 20
276.7669368852
 10
-109.0245094383
 20
276.5206086577
 10
-99.0136785748
 20
276.2957853049
 10
-88.8917529805
 20
276.0927190815
 10
-78.6700895974
 20
275.9116378309
 10
-68.3601572746
 20
275.7527447287
 10
-57.9735239001
 20
275.6162180551
 10
-47.5218434218
 20
275.5022109951
 10
-37.0168427712
 20
275.4108514661
 10
-26.4703087057
 20
275.3422419747
 10
-15.8940745841
 20
275.2964595019
 10
-5.3000070887
 20
275.2735554161
 10
5.3000070887
 20
275.2735554161
 10
15.8940745841
 20
275.2964595019
 10
26.4703087057
 20
275.3422419747
 10
37.0168427712
 20
275.4108514661
 10
47.5218434218
 20
275.5022109951
 10
57.9735239001
 20
275.6162180551
 10
68.3601572746
 20
275.7527447287
 10
78.6700895974
 20
275.9116378309
 10
88.8917529806
 20
276.0927190815
 10
99.0136785748
 20
276.2957853049
 10
109.0245094383
 20
276.5206086577
 10
118.9130132788
 20
276.7669368852
 10
128.668095057
 20
277.0344936036
 10
138.2788094347
 20
277.3229786105
 10
147.7343730561
 20
277.6320682218
 10
157.0241766468
 20
277.9614156344
 10
166.1377969174
 20
278.3106513162
 10
175.0650082584
 20
278.6793834197
 10
183.7957942141
 20
279.0671982223
 10
192.3203587207
 20
279.4736605905
 10
200.6291370976
 20
279.8983144678
 10
208.7128067794
 20
280.3406833865
 10
216.5622977759
 20
280.8002710027
 10
224.1688028483
 20
281.2765616525
 10
231.5237873919
 20
281.7690209313
 10
238.618999011
 20
282.2770962927
 10
245.4464767792
 20
282.8002176692
 10
251.998560171
 20
283.3377981113
 10
258.2678976573
 20
283.8892344461
 10
264.2474549538
 20
284.4539079545
 10
269.9305229137
 20
285.0311850648
  0
SPLINE
  5
126
330
11A
100
AcDbEntity
  8
0
  6
Continuous
 62
     7
370
    25
100
AcDbSpline
210
0.0
220
0.0
230
1.0
 70
     8
 71
     3
 72
    32
 73
    28
 74
     0
 42
0.000000001
 43
0.00000001
 40
0.0
 40
0.0
 40
0.0
 40
0.0
 40
0.124999999999997
 40
0.124999999999997
 40
0.2499999999999941
 40
0.2499999999999941
 40
0.3124999999999926
 40
0.3124999999999926
 40
0.3749999999999911
 40
0.3749999999999911
 40
0.4999999999999902
 40
0.4999999999999902
 40
0.5624999999999933
 40
0.5624999999999933
 40
0.6249999999999963
 40
0.6249999999999963
 40
0.7500000000000064
 40
0.7500000000000064
 40
0.7812500000000068
 40
0.7812500000000068
 40
0.812500000000007
 40
0.812500000000007
 40
0.8750000000000047
 40
0.8750000000000047
 40
0.9375000000000022
 40
0.9375000000000022
 40
1.0
 40
1.0
 40
1.0
 40
1.0
 10
269.9305229137406
 20
285.0311850648475
 30
0.0
 10
271.3167032980472
 20
285.0311850648474
 30
0.0
 10
272.6823502189592
 20
284.926792094815
 30
0.0
 10
275.373108704837
 20
284.5119227426518
 30
0.0
 10
276.6982400194678
 20
284.2015467686284
 30
0.0
 10
278.653048764476
 20
283.5687777130029
 30
0.0
 10
279.2992328819349
 20
283.3297903843048
 30
0.0
 10
280.579301179263
 20
282.7913491069731
 30
0.0
 10
281.2030498148633
 20
282.4961430755687
 30
0.0
 10
283.025019519891
 20
281.531899183645
 30
0.0
 10
284.1744808795365
 20
280.7850596472716
 30
0.0
 10
285.7910425726027
 20
279.4930638545262
 30
0.0
 10
286.3144566607974
 20
279.0306707252703
 30
0.0
 10
287.3004934799606
 20
278.0648235606571
 30
0.0
 10
287.7651387756858
 20
277.5602622004243
 30
0.0
 10
289.0730073037142
 20
275.9809418129969
 30
0.0
 10
289.8312414771662
 20
274.8413688076507
 30
0.0
 10
290.6198977392297
 20
273.2955426154555
 30
0.0
 10
290.7694109457653
 20
272.9803713880728
 30
0.0
 10
291.0477210003505
 20
272.346889200582
 30
0.0
 10
291.1771202764975
 20
272.0274434926943
 30
0.0
 10
291.5363200667205
 20
271.0610671618912
 30
0.0
 10
291.7371992720193
 20
270.4061186037532
 30
0.0
 10
292.0613608547569
 20
269.0747091021257
 30
0.0
 10
292.1846527877606
 20
268.3982508077524
 30
0.0
 10
292.3506518525042
 20
267.0229934694411
 30
0.0
 10
292.3927981108577
 20
266.3247926370587
 30
0.0
 10
292.3927981108577
 20
265.6279620748491
 30
0.0
  0
SPLINE
  5
127
330
11A
100
AcDbEntity
  8
0
  6
Continuous
 62
     7
370
    25
100
AcDbSpline
210
0.0
220
0.0
230
1.0
 70
     8
 71
     3
 72
    32
 73
    28
 74
     0
 42
0.000000001
 43
0.00000001
 40
0.0
 40
0.0
 40
0.0
 40
0.0
 40
0.1249999999999935
 40
0.1249999999999935
 40
0.1874999999999927
 40
0.1874999999999927
 40
0.249999999999992
 40
0.249999999999992
 40
0.3124999999999912
 40
0.3124999999999912
 40
0.3437499999999894
 40
0.3437499999999894
 40
0.3749999999999876
 40
0.3749999999999876
 40
0.4999999999999901
 40
0.4999999999999901
 40
0.562499999999991
 40
0.562499999999991
 40
0.6249999999999919
 40
0.6249999999999919
 40
0.749999999999998
 40
0.749999999999998
 40
0.8124999999999987
 40
0.8124999999999987
 40
0.8749999999999993
 40
0.8749999999999993
 40
1.0
 40
1.0
 40
1.0
 40
1.0
 10
-292.3927981108576
 20
265.6279620748491
 30
0.0
 10
-292.3927981108577
 20
267.0163313812328
 30
0.0
 10
-292.2287557997635
 20
268.3761995224449
 30
0.0
 10
-291.7460908616357
 20
270.3748939397325
 30
0.0
 10
-291.5446269323153
 20
271.0363781904575
 30
0.0
 10
-291.0633725489268
 20
272.3357378345514
 30
0.0
 10
-290.7869201805649
 20
272.9654555093411
 30
0.0
 10
-290.1663225525568
 20
274.1871717018973
 30
0.0
 10
-289.8221617752515
 20
274.7791615730691
 30
0.0
 10
-289.2563648705975
 20
275.6395334258844
 30
0.0
 10
-289.0594901190514
 20
275.9217126941304
 30
0.0
 10
-288.6492043239684
 20
276.4768570431008
 30
0.0
 10
-288.4351717550793
 20
276.7505337551807
 30
0.0
 10
-287.334216443051
 20
278.0830405615948
 30
0.0
 10
-286.3530314094619
 20
279.0407772498551
 30
0.0
 10
-284.7450586046377
 20
280.3305432484567
 30
0.0
 10
-284.1837475844591
 20
280.737319211833
 30
0.0
 10
-283.0276647174409
 20
281.4942658352907
 30
0.0
 10
-282.4353784938376
 20
281.8432015176402
 30
0.0
 10
-280.6184822558089
 20
282.8069876978369
 30
0.0
 10
-279.3541428617596
 20
283.3394563786808
 30
0.0
 10
-277.3820107236837
 20
283.9813493999335
 30
0.0
 10
-276.7168085250983
 20
284.1672874897974
 30
0.0
 10
-275.381230953467
 20
284.4834208784516
 30
0.0
 10
-274.7093031654497
 20
284.6141188321395
 30
0.0
 10
-272.6815726045047
 20
284.927213041312
 30
0.0
 10
-271.3139096560221
 20
285.0311850648475
 30
0.0
 10
-269.9305229137407
 20
285.0311850648475
 30
0.0
  0
LWPOLYLINE
  5
128
330
11A
100
AcDbEntity
  8
0
  6
Continuous
 62
     7
370
    25
100
AcDbPolyline
 90
       62
 70
   128
 43
0.0
 10
269.9305229137
 20
-90.0311850648
 10
264.2474549538
 20
-89.4539079545
 10
258.2678976573
 20
-88.8892344461
 10
251.998560171
 20
-88.3377981113
 10
245.4464767792
 20
-87.8002176692
 10
238.618999011
 20
-87.2770962927
 10
231.5237873919
 20
-86.7690209313
 10
224.1688028483
 20
-86.2765616525
 10
216.5622977759
 20
-85.8002710027
 10
208.7128067794
 20
-85.3406833865
 10
200.6291370976
 20
-84.8983144678
 10
192.3203587207
 20
-84.4736605905
 10
183.7957942141
 20
-84.0671982223
 10
175.0650082584
 20
-83.6793834197
 10
166.1377969173
 20
-83.3106513162
 10
157.0241766468
 20
-82.9614156344
 10
147.7343730561
 20
-82.6320682218
 10
138.2788094347
 20
-82.3229786105
 10
128.668095057
 20
-82.0344936036
 10
118.9130132788
 20
-81.7669368852
 10
109.0245094383
 20
-81.5206086577
 10
99.0136785748
 20
-81.2957853049
 10
88.8917529805
 20
-81.0927190815
 10
78.6700895974
 20
-80.9116378309
 10
68.3601572746
 20
-80.7527447287
 10
57.9735239001
 20
-80.6162180551
 10
47.5218434218
 20
-80.5022109951
 10
37.0168427712
 20
-80.4108514661
 10
26.4703087057
 20
-80.3422419747
 10
15.8940745841
 20
-80.2964595019
 10
5.3000070887
 20
-80.2735554161
 10
-5.3000070887
 20
-80.2735554161
 10
-15.8940745841
 20
-80.2964595019
 10
-26.4703087057
 20
-80.3422419747
 10
-37.0168427712
 20
-80.4108514661
 10
-47.5218434218
 20
-80.5022109951
 10
-57.9735239001
 20
-80.6162180551
 10
-68.3601572746
 20
-80.7527447287
 10
-78.6700895974
 20
-80.9116378309
 10
-88.8917529805
 20
-81.0927190815
 10
-99.0136785748
 20
-81.2957853049
 10
-109.0245094383
 20
-81.5206086577
 10
-118.9130132788
 20
-81.7669368852
 10
-128.668095057
 20
-82.0344936036
 10
-138.2788094347
 20
-82.3229786105
 10
-147.7343730561
 20
-82.6320682218
 10
-157.0241766468
 20
-82.9614156344
 10
-166.1377969173
 20
-83.3106513162
 10
-175.0650082584
 20
-83.6793834197
 10
-183.7957942141
 20
-84.0671982223
 10
-192.3203587207
 20
-84.4736605905
 10
-200.6291370976
 20
-84.8983144678
 10
-208.7128067794
 20
-85.3406833865
 10
-216.5622977759
 20
-85.8002710027
 10
-224.1688028483
 20
-86.2765616525
 10
-231.5237873919
 20
-86.7690209313
 10
-238.618999011
 20
-87.2770962927
 10
-245.4464767792
 20
-87.8002176692
 10
-251.998560171
 20
-88.3377981113
 10
-258.2678976573
 20
-88.8892344461
 10
-264.2474549538
 20
-89.4539079545
 10
-269.9305229137
 20
-90.0311850648
  0
SPLINE
  5
129
330
11A
100
AcDbEntity
  8
0
  6
Continuous
 62
     7
370
    25
100
AcDbSpline
210
0.0
220
0.0
230
1.0
 70
     8
 71
     3
 72
    32
 73
    28
 74
     0
 42
0.000000001
 43
0.00000001
 40
0.0
 40
0.0
 40
0.0
 40
0.0
 40
0.124999999999996
 40
0.124999999999996
 40
0.2499999999999921
 40
0.2499999999999921
 40
0.3124999999999901
 40
0.3124999999999901
 40
0.3749999999999881
 40
0.3749999999999881
 40
0.4999999999999886
 40
0.4999999999999886
 40
0.5624999999999883
 40
0.5624999999999883
 40
0.6249999999999881
 40
0.6249999999999881
 40
0.7499999999999868
 40
0.7499999999999868
 40
0.7812499999999875
 40
0.7812499999999875
 40
0.812499999999988
 40
0.812499999999988
 40
0.874999999999992
 40
0.874999999999992
 40
0.937499999999996
 40
0.937499999999996
 40
1.0
 40
1.0
 40
1.0
 40
1.0
 10
-269.9305229137406
 20
-90.03118506484748
 30
0.0
 10
-271.3167032980473
 20
-90.0311850648475
 30
0.0
 10
-272.6823502189592
 20
-89.92679209481497
 30
0.0
 10
-275.373108704837
 20
-89.51192274265185
 30
0.0
 10
-276.6982400194678
 20
-89.2015467686284
 30
0.0
 10
-278.653048764476
 20
-88.56877771300297
 30
0.0
 10
-279.2992328819349
 20
-88.3297903843046
 30
0.0
 10
-280.5793011792631
 20
-87.79134910697306
 30
0.0
 10
-281.2030498148633
 20
-87.49614307556861
 30
0.0
 10
-283.025019519891
 20
-86.53189918364507
 30
0.0
 10
-284.1744808795365
 20
-85.78505964727162
 30
0.0
 10
-285.7910425726028
 20
-84.49306385452621
 30
0.0
 10
-286.3144566607974
 20
-84.03067072527021
 30
0.0
 10
-287.3004934799607
 20
-83.06482356065715
 30
0.0
 10
-287.7651387756857
 20
-82.5602622004242
 30
0.0
 10
-289.0730073037141
 20
-80.98094181299695
 30
0.0
 10
-289.8312414771663
 20
-79.84136880765058
 30
0.0
 10
-290.6198977392297
 20
-78.29554261545543
 30
0.0
 10
-290.7694109457653
 20
-77.98037138807268
 30
0.0
 10
-291.0477210003504
 20
-77.34688920058203
 30
0.0
 10
-291.1771202764976
 20
-77.0274434926943
 30
0.0
 10
-291.5363200667205
 20
-76.06106716189126
 30
0.0
 10
-291.7371992720193
 20
-75.40611860375307
 30
0.0
 10
-292.061360854757
 20
-74.07470910212565
 30
0.0
 10
-292.1846527877607
 20
-73.39825080775236
 30
0.0
 10
-292.3506518525041
 20
-72.02299346944108
 30
0.0
 10
-292.3927981108576
 20
-71.32479263705868
 30
0.0
 10
-292.3927981108576
 20
-70.62796207484907
 30
0.0
  0
SPLINE
  5
12A
330
11A
100
AcDbEntity
  8
0
  6
Continuous
 62
     7
370
    25
100
AcDbSpline
210
0.0
220
0.0
230
1.0
 70
     8
 71
     3
 72
    32
 73
    28
 74
     0
 42
0.000000001
 43
0.00000001
 40
0.0
 40
0.0
 40
0.0
 40
0.0
 40
0.124999999999994
 40
0.124999999999994
 40
0.187499999999991
 40
0.187499999999991
 40
0.249999999999988
 40
0.249999999999988
 40
0.312499999999985
 40
0.312499999999985
 40
0.3437499999999826
 40
0.3437499999999826
 40
0.3749999999999802
 40
0.3749999999999802
 40
0.4999999999999823
 40
0.4999999999999823
 40
0.5624999999999815
 40
0.5624999999999815
 40
0.6249999999999805
 40
0.6249999999999805
 40
0.7499999999999836
 40
0.7499999999999836
 40
0.8124999999999877
 40
0.8124999999999877
 40
0.8749999999999918
 40
0.8749999999999918
 40
1.0
 40
1.0
 40
1.0
 40
1.0
 10
292.3927981108577
 20
-70.6279620748491
 30
0.0
 10
292.3927981108577
 20
-72.01633138123287
 30
0.0
 10
292.2287557997635
 20
-73.37619952244484
 30
0.0
 10
291.7460908616358
 20
-75.37489393973246
 30
0.0
 10
291.5446269323153
 20
-76.03637819045733
 30
0.0
 10
291.0633725489268
 20
-77.33573783455137
 30
0.0
 10
290.7869201805649
 20
-77.96545550934103
 30
0.0
 10
290.1663225525568
 20
-79.18717170189737
 30
0.0
 10
289.8221617752516
 20
-79.77916157306922
 30
0.0
 10
289.2563648705975
 20
-80.6395334258844
 30
0.0
 10
289.0594901190512
 20
-80.92171269413035
 30
0.0
 10
288.6492043239684
 20
-81.47685704310074
 30
0.0
 10
288.4351717550792
 20
-81.75053375518068
 30
0.0
 10
287.3342164430509
 20
-83.08304056159477
 30
0.0
 10
286.3530314094618
 20
-84.0407772498551
 30
0.0
 10
284.7450586046378
 20
-85.33054324845673
 30
0.0
 10
284.1837475844591
 20
-85.73731921183314
 30
0.0
 10
283.027664717441
 20
-86.49426583529075
 30
0.0
 10
282.4353784938375
 20
-86.8432015176402
 30
0.0
 10
280.6184822558088
 20
-87.80698769783679
 30
0.0
 10
279.3541428617594
 20
-88.3394563786808
 30
0.0
 10
277.3820107236837
 20
-88.98134939993346
 30
0.0
 10
276.7168085250983
 20
-89.16728748979752
 30
0.0
 10
275.3812309534671
 20
-89.48342087845157
 30
0.0
 10
274.7093031654496
 20
-89.61411883213947
 30
0.0
 10
272.6815726045048
 20
-89.92721304131196
 30
0.0
 10
271.3139096560221
 20
-90.03118506484748
 30
0.0
 10
269.9305229137406
 20
-90.03118506484748
 30
0.0
  0
LINE
  5
12D
330
11A
100
AcDbEntity
  8
0
  6
Continuous
 62
     7
370
    25
100
AcDbLine
 10
-292.3927981109
 20
-70.6279620748
 30
0.0
 11
-292.3927981109
 21
265.6279620748
 31
0.0
  0
LINE
  5
12E
330
11A
100
AcDbEntity
  8
0
  6
Continuous
 62
     7
370
    25
100
AcDbLine
 10
292.3927981109
 20
-70.6279620748
 30
0.0
 11
292.3927981109
 21
265.6279620748
 31
0.0
  0
LINE
  5
12F
330
11A
100
AcDbEntity
  8
0
  6
Continuous
 62
     7
370
    25
100
AcDbLine
 10
269.9305229137
 20
-90.0311850648
 30
0.0
 11
-269.9305229137
 21
-90.0311850648
 31
0.0
  0
LINE
  5
130
330
11A
100
AcDbEntity
  8
0
  6
Continuous
 62
     7
370
    25
100
AcDbLine
 10
269.9305229137
 20
285.0311850648
 30
0.0
 11
-269.9305229137
 21
285.0311850648
 31
0.0
  0
VIEWPORT
  5
1CF
330
11A
100
AcDbEntity
  8
0
100
AcDbViewport
 10
0.0
 20
0.0
 30
0.0
 40
205.6
 41
156.0
 68
     1
 69
     1
 12
0.0
 22
-97.5
 13
0.0
 23
0.0
 14
10.0
 24
10.0
 15
10.0
 25
10.0
 16
0.0
 26
0.0
 36
1.0
 17
0.0
 27
0.0
 37
0.0
 42
50.0
 43
0.0
 44
0.0
 45
452.5830937296
 50
0.0
 51
0.0
 72
   100
 90
   557152
  1

281
     0
 71
     1
 74
     0
110
0.0
120
0.0
130
0.0
111
1.0
121
0.0
131
0.0
112
0.0
122
1.0
132
0.0
 79
     0
146
0.0
170
     0
 61
     5
348
2F
292
     1
282
     1
141
0.0
142
0.0
 63
   256
361
1D0
  0
ENDBLK
  5
11D
330
11A
100
AcDbEntity
  8
0
100
AcDbBlockEnd
  0
BLOCK
  5
133
330
131
100
AcDbEntity
  8
0
100
AcDbBlockBegin
  2
*Paper_Space5
 70
     0
 10
0.0
 20
0.0
 30
0.0
  3
*Paper_Space5
  1

  0
SPLINE
  5
135
330
131
100
AcDbEntity
  8
0
  6
Continuous
 62
     7
370
    25
100
AcDbSpline
210
0.0
220
0.0
230
1.0
 70
     8
 71
     3
 72
    67
 73
    63
 74
     0
 42
0.000000001
 43
0.00000001
 40
0.0
 40
0.0
 40
0.0
 40
0.0
 40
0.0125814190831262
 40
0.029648190985475
 40
0.0467085382253776
 40
0.063763082294925
 40
0.0808124521935488
 40
0.0978572832293976
 40
0.1148982164215326
 40
0.1319358983305634
 40
0.1489709812078776
 40
0.166004123368945
 40
0.183035989707324
 40
0.2000672522734925
 40
0.2170985908465602
 40
0.2341305053821042
 40
0.2511636501392834
 40
0.2681987277669054
 40
0.2852364494555732
 40
0.3022775344476258
 40
0.319322709043651
 40
0.3363727049653683
 40
0.3534282569102832
 40
0.3704900990997901
 40
0.3875589605817464
 40
0.404635558999689
 40
0.4217205924835218
 40
0.4388147292496522
 40
0.4559185944231604
 40
0.4730327535109655
 40
0.4901576918664849
 40
0.5072937893979652
 40
0.524441289693888
 40
0.5416002626839614
 40
0.5587705599456163
 40
0.5759517618358089
 40
0.5931431158214799
 40
0.6103434657589089
 40
0.6275511725072298
 40
0.6447640272415186
 40
0.661978880664616
 40
0.6791910055890042
 40
0.6963956541091799
 40
0.7135871627967512
 40
0.7307589301815914
 40
0.7479034459564766
 40
0.765012388200228
 40
0.7820768035567442
 40
0.7990873800480981
 40
0.8160348130937048
 40
0.8329102528962503
 40
0.8497058074063567
 40
0.866415062446679
 40
0.8830335725148724
 40
0.899559274850077
 40
0.9159927863441426
 40
0.932337556398578
 40
0.948599865674994
 40
0.9647886770178022
 40
0.980915357455988
 40
0.9969932974617255
 40
1.0
 40
1.0
 40
1.0
 40
1.0
 10
-399.0518929565411
 20
0.4068684998573963
 30
0.0
 10
-398.0441070444735
 20
-1.844583737922858
 30
0.0
 10
-395.6692533816207
 20
-7.150144700430613
 30
0.0
 10
-391.7094311910818
 20
-15.48136126157555
 30
0.0
 10
-387.2127239590835
 20
-24.57933567423749
 30
0.0
 10
-382.5337855874864
 20
-33.63151024958298
 30
0.0
 10
-377.6851920394026
 20
-42.63065736977396
 30
0.0
 10
-372.6692932954762
 20
-51.5685060761716
 30
0.0
 10
-367.4913323151623
 20
-60.43711301729255
 30
0.0
 10
-362.1559271055764
 20
-69.22850485453958
 30
0.0
 10
-356.668008084204
 20
-77.93478361844815
 30
0.0
 10
-351.032561647746
 20
-86.5481079880831
 30
0.0
 10
-345.2546930573458
 20
-95.06070765541475
 30
0.0
 10
-339.3396033734402
 20
-103.4648886095612
 30
0.0
 10
-333.2926112860843
 20
-111.753010078006
 30
0.0
 10
-327.1191312468532
 20
-119.9175168283301
 30
0.0
 10
-320.8246634071293
 20
-127.9509527961358
 30
0.0
 10
-314.4147630869409
 20
-135.8459957348192
 30
0.0
 10
-307.8950513531869
 20
-143.595438629842
 30
0.0
 10
-301.271213529036
 20
-151.1921884911097
 30
0.0
 10
-294.5489928441601
 20
-158.6292709922913
 30
0.0
 10
-287.7341840814763
 20
-165.899834552378
 30
0.0
 10
-280.8326272996283
 20
-172.9971538061839
 30
0.0
 10
-273.8502017217846
 20
-179.9146324095159
 30
0.0
 10
-266.792819900984
 20
-186.6458051251124
 30
0.0
 10
-259.6664222946533
 20
-193.1843391376092
 30
0.0
 10
-252.4769724081026
 20
-199.524034550851
 30
0.0
 10
-245.2304526987653
 20
-205.6588240302906
 30
0.0
 10
-237.9328614699874
 20
-211.5827715686891
 30
0.0
 10
-230.5902110250594
 20
-217.2900703772947
 30
0.0
 10
-223.2085273981794
 20
-222.7750399400248
 30
0.0
 10
-215.7938520271934
 20
-228.0321223186346
 30
0.0
 10
-208.352245780031
 20
-233.0558778668092
 30
0.0
 10
-200.8897957870574
 20
-237.8409806055477
 30
0.0
 10
-193.4126255565176
 20
-242.3822136363922
 30
0.0
 10
-185.926908847044
 20
-246.6744651278098
 30
0.0
 10
-178.4388877220209
 20
-250.7127256064522
 30
0.0
 10
-170.9548950918023
 20
-254.4920875184127
 30
0.0
 10
-163.4813818319073
 20
-258.007748288218
 30
0.0
 10
-156.0249885873471
 20
-261.2550007948631
 30
0.0
 10
-148.5926988790475
 20
-264.2292087453175
 30
0.0
 10
-141.191755409294
 20
-266.9259055936287
 30
0.0
 10
-133.8296559999911
 20
-269.3408487514918
 30
0.0
 10
-126.5140684938874
 20
-271.4700949987588
 30
0.0
 10
-119.2529688755899
 20
-273.3100146790262
 30
0.0
 10
-112.0546431191999
 20
-274.8573661588626
 30
0.0
 10
-104.927667618817
 20
-276.109379737261
 30
0.0
 10
-97.88086348211017
 20
-277.0638461504109
 30
0.0
 10
-90.9232218122541
 20
-277.7192026172855
 30
0.0
 10
-84.06380041523059
 20
-278.0746072945603
 30
0.0
 10
-77.31159600689884
 20
-278.1299929245939
 30
0.0
 10
-70.67540213698533
 20
-277.8860882558328
 30
0.0
 10
-64.16366013996172
 20
-277.3444089217671
 30
0.0
 10
-57.78433666552646
 20
-276.507184002236
 30
0.0
 10
-51.54477084211776
 20
-275.3773355908502
 30
0.0
 10
-45.45176439193479
 20
-273.9580922847715
 30
0.0
 10
-39.51094978349051
 20
-272.253824289194
 30
0.0
 10
-33.7290321907989
 20
-270.2662738142232
 30
0.0
 10
-28.10558418640105
 20
-268.007820147141
 30
0.0
 10
-22.66374720646264
 20
-265.4516230336731
 30
0.0
 10
-18.7761228426255
 20
-263.455275471099
 30
0.0
 10
-16.75601240618255
 20
-262.2301979260503
 30
0.0
 10
-16.4377527813119
 20
-262.0371922799772
 30
0.0
  0
SPLINE
  5
137
330
131
100
AcDbEntity
  8
0
  6
Continuous
 62
     7
370
    25
100
AcDbSpline
210
0.0
220
0.0
230
1.0
 70
     8
 71
     3
 72
    17
 73
    13
 74
     0
 42
0.000000001
 43
0.00000001
 40
0.0
 40
0.0
 40
0.0
 40
0.0
 40
0.0601689227775432
 40
0.1699820073046772
 40
0.2798948187874089
 40
0.3899664719390598
 40
0.500251511632074
 40
0.6107984414924155
 40
0.7216484894467049
 40
0.8328346610734516
 40
0.9443811220020848
 40
1.0
 40
1.0
 40
1.0
 40
1.0
 10
215.1626718582542
 20
-128.3198862292278
 30
0.0
 10
216.2148695863611
 20
-127.718334889906
 30
0.0
 10
219.187412115771
 20
-126.018904362742
 30
0.0
 10
223.9124101206931
 20
-122.9178416772144
 30
0.0
 10
229.3441315630486
 20
-119.0446730098757
 30
0.0
 10
234.606089171334
 20
-114.8884957105274
 30
0.0
 10
239.7035380097168
 20
-110.4694865092616
 30
0.0
 10
244.6286730203327
 20
-105.7850899754661
 30
0.0
 10
249.3811022720158
 20
-100.8435025196482
 30
0.0
 10
253.9432655240125
 20
-95.63366773653327
 30
0.0
 10
257.6157443773313
 20
-91.1246085912949
 30
0.0
 10
259.6922662429843
 20
-88.27206797351285
 30
0.0
 10
260.3831619576546
 20
-87.32297703382811
 30
0.0
  0
SPLINE
  5
139
330
131
100
AcDbEntity
  8
0
  6
Continuous
 62
     7
370
    25
100
AcDbSpline
210
0.0
220
0.0
230
1.0
 70
     8
 71
     3
 72
    20
 73
    16
 74
     0
 42
0.000000001
 43
0.00000001
 40
0.0
 40
0.0
 40
0.0
 40
0.0
 40
0.1249999999999976
 40
0.1249999999999976
 40
0.2499999999999952
 40
0.2499999999999952
 40
0.3749999999999928
 40
0.3749999999999928
 40
0.4999999999999905
 40
0.4999999999999905
 40
0.624999999999988
 40
0.624999999999988
 40
0.7499999999999857
 40
0.7499999999999857
 40
1.0
 40
1.0
 40
1.0
 40
1.0
 10
244.0626015769092
 20
-83.61788988126573
 30
0.0
 10
244.308947153618
 20
-83.4756776069052
 30
0.0
 10
244.5204342075641
 20
-83.31932264179765
 30
0.0
 10
244.8764735110018
 20
-82.97945613222741
 30
0.0
 10
245.0207878096654
 20
-82.79438803181824
 30
0.0
 10
245.2289813806219
 20
-82.41609766523815
 30
0.0
 10
245.2957757244669
 20
-82.21928819068182
 30
0.0
 10
245.3553726932981
 20
-81.82065429032518
 30
0.0
 10
245.3483283099063
 20
-81.62209517070096
 30
0.0
 10
245.2677759756169
 20
-81.22634403790215
 30
0.0
 10
245.1934487448504
 20
-81.02924790970312
 30
0.0
 10
244.9882604719234
 20
-80.65023455387386
 30
0.0
 10
244.8571141129794
 20
-80.46639092783522
 30
0.0
 10
244.3819158496098
 20
-79.93107617842921
 30
0.0
 10
243.9740378489573
 20
-79.61260573139334
 30
0.0
 10
243.4831931310072
 20
-79.32924710717863
 30
0.0
  0
SPLINE
  5
13B
330
131
100
AcDbEntity
  8
0
  6
Continuous
 62
     7
370
    25
100
AcDbSpline
210
0.0
220
0.0
230
1.0
 70
     8
 71
     3
 72
    24
 73
    20
 74
     0
 42
0.000000001
 43
0.00000001
 40
0.0
 40
0.0
 40
0.0
 40
0.0
 40
0.2499999999999916
 40
0.2499999999999916
 40
0.3749999999999875
 40
0.3749999999999875
 40
0.4999999999999832
 40
0.4999999999999832
 40
0.5624999999999827
 40
0.5624999999999827
 40
0.6249999999999821
 40
0.6249999999999821
 40
0.7499999999999849
 40
0.7499999999999849
 40
0.8124999999999888
 40
0.8124999999999888
 40
0.8749999999999926
 40
0.8749999999999926
 40
1.0
 40
1.0
 40
1.0
 40
1.0
 10
-137.4171759530249
 20
140.5598554938817
 30
0.0
 10
-137.909063759545
 20
140.8438162803105
 30
0.0
 10
-138.4591680272094
 20
141.077953558742
 30
0.0
 10
-139.3765780813258
 20
141.3502058521268
 30
0.0
 10
-139.7008973797745
 20
141.4277477092754
 30
0.0
 10
-140.3588408008353
 20
141.546741348996
 30
0.0
 10
-140.6947762226201
 20
141.5891902916438
 30
0.0
 10
-141.2102258553701
 20
141.6245966927714
 30
0.0
 10
-141.3849953694621
 20
141.6316335023703
 30
0.0
 10
-141.7312862141268
 20
141.6353225792563
 30
0.0
 10
-141.9032762079255
 20
141.6320683148271
 30
0.0
 10
-142.4157291899721
 20
141.60678531768
 30
0.0
 10
-142.7527203649697
 20
141.5694357833218
 30
0.0
 10
-143.2503453394656
 20
141.4787181138498
 30
0.0
 10
-143.4138283058856
 20
141.442742736708
 30
0.0
 10
-143.728454889595
 20
141.3609341453954
 30
0.0
 10
-143.8807213502295
 20
141.3149089558549
 30
0.0
 10
-144.3222889384577
 20
141.1613780657304
 30
0.0
 10
-144.5987989915162
 20
141.037120911115
 30
0.0
 10
-144.8461280756912
 20
140.8943408699795
 30
0.0
  0
SPLINE
  5
13D
330
131
100
AcDbEntity
  8
0
  6
Continuous
 62
     7
370
    25
100
AcDbSpline
210
0.0
220
0.0
230
1.0
 70
     8
 71
     3
 72
    20
 73
    16
 74
     0
 42
0.000000001
 43
0.00000001
 40
0.0
 40
0.0
 40
0.0
 40
0.0
 40
0.1249999999999976
 40
0.1249999999999976
 40
0.2499999999999952
 40
0.2499999999999952
 40
0.3749999999999928
 40
0.3749999999999928
 40
0.4999999999999905
 40
0.4999999999999905
 40
0.624999999999988
 40
0.624999999999988
 40
0.7499999999999857
 40
0.7499999999999857
 40
1.0
 40
1.0
 40
1.0
 40
1.0
 10
-381.9484239082862
 20
4.018098978551807
 30
0.0
 10
-382.194769484995
 20
3.87588670419127
 30
0.0
 10
-382.4062565389411
 20
3.719531739083723
 30
0.0
 10
-382.7622958423789
 20
3.379665229513537
 30
0.0
 10
-382.9066101410424
 20
3.194597129104373
 30
0.0
 10
-383.1148037119989
 20
2.81630676252427
 30
0.0
 10
-383.1815980558438
 20
2.619497287967898
 30
0.0
 10
-383.241195024675
 20
2.220863387611294
 30
0.0
 10
-383.2341506412833
 20
2.022304267987052
 30
0.0
 10
-383.153598306994
 20
1.626553135188225
 30
0.0
 10
-383.0792710762274
 20
1.429457006989196
 30
0.0
 10
-382.8740828033004
 20
1.050443651159944
 30
0.0
 10
-382.7429364443565
 20
0.8666000251212752
 30
0.0
 10
-382.2677381809868
 20
0.3312852757152984
 30
0.0
 10
-381.8598601803344
 20
0.0128148286794305
 30
0.0
 10
-381.3690154623842
 20
-0.2705437955352746
 30
0.0
  0
SPLINE
  5
13F
330
131
100
AcDbEntity
  8
0
  6
Continuous
 62
     7
370
    25
100
AcDbSpline
210
0.0
220
0.0
230
1.0
 70
     8
 71
     3
 72
    24
 73
    20
 74
     0
 42
0.000000001
 43
0.00000001
 40
0.0
 40
0.0
 40
0.0
 40
0.0
 40
0.2499999999999921
 40
0.2499999999999921
 40
0.3749999999999882
 40
0.3749999999999882
 40
0.4999999999999842
 40
0.4999999999999842
 40
0.5624999999999839
 40
0.5624999999999839
 40
0.6249999999999836
 40
0.6249999999999836
 40
0.749999999999983
 40
0.749999999999983
 40
0.8124999999999872
 40
0.8124999999999872
 40
0.8749999999999915
 40
0.8749999999999915
 40
1.0
 40
1.0
 40
1.0
 40
1.0
 10
-0.4686463783521444
 20
-220.1596463965957
 30
0.0
 10
0.023241428167925
 20
-220.4436071830245
 30
0.0
 10
0.5733456958323391
 20
-220.6777444614559
 30
0.0
 10
1.490755749948891
 20
-220.9499967548407
 30
0.0
 10
1.815075048397452
 20
-221.0275386119893
 30
0.0
 10
2.473018469458216
 20
-221.1465322517099
 30
0.0
 10
2.808953891243193
 20
-221.1889811943578
 30
0.0
 10
3.324403523993186
 20
-221.2243875954854
 30
0.0
 10
3.499173038085113
 20
-221.2314244050842
 30
0.0
 10
3.845463882749728
 20
-221.2351134819701
 30
0.0
 10
4.017453876548532
 20
-221.231859217541
 30
0.0
 10
4.529906858595195
 20
-221.2065762203939
 30
0.0
 10
4.866898033592692
 20
-221.1692266860358
 30
0.0
 10
5.364523008088678
 20
-221.0785090165638
 30
0.0
 10
5.528005974508588
 20
-221.0425336394218
 30
0.0
 10
5.84263255821782
 20
-220.9607250481093
 30
0.0
 10
5.994899018852501
 20
-220.9146998585687
 30
0.0
 10
6.436466607080638
 20
-220.7611689684443
 30
0.0
 10
6.712976660139397
 20
-220.6369118138291
 30
0.0
 10
6.960305744314249
 20
-220.4941317726935
 30
0.0
  0
SPLINE
  5
140
330
131
100
AcDbEntity
  8
0
  6
Continuous
 62
     7
370
    25
100
AcDbSpline
210
0.0
220
0.0
230
1.0
 70
     8
 71
     3
 72
    32
 73
    28
 74
     0
 42
0.000000001
 43
0.00000001
 40
0.0
 40
0.0
 40
0.0
 40
0.0
 40
0.1249999999999935
 40
0.1249999999999935
 40
0.1874999999999927
 40
0.1874999999999927
 40
0.249999999999992
 40
0.249999999999992
 40
0.3124999999999912
 40
0.3124999999999912
 40
0.3437499999999894
 40
0.3437499999999894
 40
0.3749999999999876
 40
0.3749999999999876
 40
0.4999999999999901
 40
0.4999999999999901
 40
0.562499999999991
 40
0.562499999999991
 40
0.6249999999999919
 40
0.6249999999999919
 40
0.749999999999998
 40
0.749999999999998
 40
0.8124999999999987
 40
0.8124999999999987
 40
0.8749999999999993
 40
0.8749999999999993
 40
1.0
 40
1.0
 40
1.0
 40
1.0
 10
-394.5802635701854
 20
10.92551462570147
 30
0.0
 10
-395.5619889215206
 20
10.3587766437328
 30
0.0
 10
-396.4075654751151
 20
9.736710216255704
 30
0.0
 10
-397.4795602003076
 20
8.72380926320157
 30
0.0
 10
-397.8048436890565
 20
8.371550316065706
 30
0.0
 10
-398.3833314666256
 20
7.644696448034768
 30
0.0
 10
-398.6331277603587
 20
7.274794161074905
 30
0.0
 10
-399.0581827736477
 20
6.522754187258951
 30
0.0
 10
-399.2334244064961
 20
6.140613695606548
 30
0.0
 10
-399.4417203499087
 20
5.558445824393576
 30
0.0
 10
-399.5020397521329
 20
5.362894030513779
 30
0.0
 10
-399.6044702178997
 20
4.968801530012127
 30
0.0
 10
-399.6466449960079
 20
4.769716623414952
 30
0.0
 10
-399.810376627882
 20
3.776367516760151
 30
0.0
 10
-399.7937961438924
 20
2.984891805806591
 30
0.0
 10
-399.5687899533926
 20
1.80202307327644
 30
0.0
 10
-399.4595171667967
 20
1.406846040114318
 30
0.0
 10
-399.1772852223577
 20
0.6259396430240982
 30
0.0
 10
-399.0052104044318
 20
0.241729043501504
 30
0.0
 10
-398.4019704974403
 20
-0.8933567978194751
 30
0.0
 10
-397.884459753181
 20
-1.626821141685178
 30
0.0
 10
-396.9438386530756
 20
-2.693876813977425
 30
0.0
 10
-396.6049477518194
 20
-3.041315731872024
 30
0.0
 10
-395.8840918569951
 20
-3.715550845053803
 30
0.0
 10
-395.5013845709602
 20
-4.04318592819669
 30
0.0
 10
-394.2889535793529
 20
-4.998720093536427
 30
0.0
 10
-393.395389156999
 20
-5.599447457935239
 30
0.0
 10
-392.4171870105283
 20
-6.16415153702847
 30
0.0
  0
SPLINE
  5
142
330
131
100
AcDbEntity
  8
0
  6
Continuous
 62
     7
370
    25
100
AcDbSpline
210
0.0
220
0.0
230
1.0
 70
     8
 71
     3
 72
    32
 73
    28
 74
     0
 42
0.000000001
 43
0.00000001
 40
0.0
 40
0.0
 40
0.0
 40
0.0
 40
0.124999999999996
 40
0.124999999999996
 40
0.2499999999999921
 40
0.2499999999999921
 40
0.3124999999999901
 40
0.3124999999999901
 40
0.3749999999999881
 40
0.3749999999999881
 40
0.4999999999999886
 40
0.4999999999999886
 40
0.5624999999999883
 40
0.5624999999999883
 40
0.6249999999999881
 40
0.6249999999999881
 40
0.7499999999999868
 40
0.7499999999999868
 40
0.7812499999999875
 40
0.7812499999999875
 40
0.812499999999988
 40
0.812499999999988
 40
0.874999999999992
 40
0.874999999999992
 40
0.937499999999996
 40
0.937499999999996
 40
1.0
 40
1.0
 40
1.0
 40
1.0
 10
-127.2080417239216
 20
146.9378291696384
 30
0.0
 10
-128.1882192736126
 20
147.5036736247371
 30
0.0
 10
-129.2276944491142
 20
148.0185226030203
 30
0.0
 10
-131.4237049532346
 20
148.9475497782072
 30
0.0
 10
-132.580183247722
 20
149.3617770240008
 30
0.0
 10
-134.4098770573978
 20
149.9014389872827
 30
0.0
 10
-135.0357877894884
 20
150.0676583680088
 30
0.0
 10
-136.321668241383
 20
150.3703935255449
 30
0.0
 10
-136.971467318025
 20
150.5045059491173
 30
0.0
 10
-138.9416178462633
 20
150.8546331048862
 30
0.0
 10
-140.2825050690085
 20
151.0189849661443
 30
0.0
 10
-142.3391657906968
 20
151.1514740830658
 30
0.0
 10
-143.0362367590988
 20
151.1763830860002
 30
0.0
 10
-144.4164271601164
 20
151.184624584875
 30
0.0
 10
-145.1017597589154
 20
151.1683306854469
 30
0.0
 10
-147.1433106196008
 20
151.0575229354556
 30
0.0
 10
-148.4852629451137
 20
150.9018588775999
 30
0.0
 10
-150.135991319081
 20
150.592779041106
 30
0.0
 10
-150.4645728334165
 20
150.5251567651019
 30
0.0
 10
-151.1093073108215
 20
150.3801740599032
 30
0.0
 10
-151.4266886427342
 20
150.3025963356552
 30
0.0
 10
-152.3640125068906
 20
150.0547444091362
 30
0.0
 10
-152.9691741219446
 20
149.8693914576421
 30
0.0
 10
-154.1398396624355
 20
149.4582287718431
 30
0.0
 10
-154.7053484714693
 20
149.2324240195383
 30
0.0
 10
-155.7951813256165
 20
148.7387998876235
 30
0.0
 10
-156.3186857739076
 20
148.4709957496057
 30
0.0
 10
-156.811419389784
 20
148.1865466878288
 30
0.0
  0
SPLINE
  5
144
330
131
100
AcDbEntity
  8
0
  6
Continuous
 62
     7
370
    25
100
AcDbSpline
210
0.0
220
0.0
230
1.0
 70
     8
 71
     3
 72
    32
 73
    28
 74
     0
 42
0.000000001
 43
0.00000001
 40
0.0
 40
0.0
 40
0.0
 40
0.0
 40
0.124999999999994
 40
0.124999999999994
 40
0.187499999999991
 40
0.187499999999991
 40
0.249999999999988
 40
0.249999999999988
 40
0.312499999999985
 40
0.312499999999985
 40
0.3437499999999826
 40
0.3437499999999826
 40
0.3749999999999802
 40
0.3749999999999802
 40
0.4999999999999823
 40
0.4999999999999823
 40
0.5624999999999815
 40
0.5624999999999815
 40
0.6249999999999805
 40
0.6249999999999805
 40
0.7499999999999836
 40
0.7499999999999836
 40
0.8124999999999877
 40
0.8124999999999877
 40
0.8749999999999918
 40
0.8749999999999918
 40
1.0
 40
1.0
 40
1.0
 40
1.0
 10
256.6944412388085
 20
-90.52530552841544
 30
0.0
 10
257.6761665901437
 20
-89.95856754644676
 30
0.0
 10
258.521743143738
 20
-89.33650111896965
 30
0.0
 10
259.5937378689306
 20
-88.32360016591552
 30
0.0
 10
259.9190213576793
 20
-87.97134121877966
 30
0.0
 10
260.4975091352485
 20
-87.24448735074864
 30
0.0
 10
260.7473054289817
 20
-86.87458506378884
 30
0.0
 10
261.1723604422708
 20
-86.12254508997286
 30
0.0
 10
261.3476020751192
 20
-85.74040459832048
 30
0.0
 10
261.5558980185316
 20
-85.15823672710748
 30
0.0
 10
261.6162174207558
 20
-84.96268493322768
 30
0.0
 10
261.7186478865226
 20
-84.56859243272608
 30
0.0
 10
261.7608226646308
 20
-84.36950752612884
 30
0.0
 10
261.9245542965049
 20
-83.37615841947404
 30
0.0
 10
261.9079738125153
 20
-82.58468270852048
 30
0.0
 10
261.6829676220158
 20
-81.40181397599042
 30
0.0
 10
261.5736948354198
 20
-81.0066369428282
 30
0.0
 10
261.2914628909808
 20
-80.225730545738
 30
0.0
 10
261.1193880730547
 20
-79.84151994621539
 30
0.0
 10
260.5161481660631
 20
-78.7064341048944
 30
0.0
 10
259.9986374218038
 20
-77.9729697610287
 30
0.0
 10
259.0580163216987
 20
-76.90591408873651
 30
0.0
 10
258.7191254204425
 20
-76.55847517084189
 30
0.0
 10
257.9982695256181
 20
-75.88424005766018
 30
0.0
 10
257.6155622395832
 20
-75.5566049745172
 30
0.0
 10
256.403131247976
 20
-74.60107080917754
 30
0.0
 10
255.509566825622
 20
-74.00034344477871
 30
0.0
 10
254.5313646791512
 20
-73.43563936568543
 30
0.0
  0
SPLINE
  5
146
330
131
100
AcDbEntity
  8
0
  6
Continuous
 62
     7
370
    25
100
AcDbSpline
210
0.0
220
0.0
230
1.0
 70
     8
 71
     3
 72
    32
 73
    28
 74
     0
 42
0.000000001
 43
0.00000001
 40
0.0
 40
0.0
 40
0.0
 40
0.0
 40
0.124999999999997
 40
0.124999999999997
 40
0.2499999999999941
 40
0.2499999999999941
 40
0.3124999999999926
 40
0.3124999999999926
 40
0.3749999999999911
 40
0.3749999999999911
 40
0.4999999999999902
 40
0.4999999999999902
 40
0.5624999999999933
 40
0.5624999999999933
 40
0.6249999999999963
 40
0.6249999999999963
 40
0.7500000000000064
 40
0.7500000000000064
 40
0.7812500000000068
 40
0.7812500000000068
 40
0.812500000000007
 40
0.812500000000007
 40
0.8750000000000047
 40
0.8750000000000047
 40
0.9375000000000022
 40
0.9375000000000022
 40
1.0
 40
1.0
 40
1.0
 40
1.0
 10
-10.67778060745539
 20
-226.5376200723523
 30
0.0
 10
-9.697603057764375
 20
-227.103464527451
 30
0.0
 10
-8.658127882262834
 20
-227.6183135057342
 30
0.0
 10
-6.462117378142423
 20
-228.5473406809211
 30
0.0
 10
-5.305639083654973
 20
-228.9615679267147
 30
0.0
 10
-3.475945273979153
 20
-229.5012298899966
 30
0.0
 10
-2.850034541888757
 20
-229.6674492707228
 30
0.0
 10
-1.564154089994135
 20
-229.9701844282588
 30
0.0
 10
-0.9143550133521028
 20
-230.1042968518313
 30
0.0
 10
1.055795514886382
 20
-230.4544240076001
 30
0.0
 10
2.396682737631384
 20
-230.6187758688582
 30
0.0
 10
4.453343459319803
 20
-230.7512649857797
 30
0.0
 10
5.150414427721683
 20
-230.7761739887141
 30
0.0
 10
6.530604828739378
 20
-230.7844154875889
 30
0.0
 10
7.215937427538427
 20
-230.7681215881609
 30
0.0
 10
9.257488288223842
 20
-230.6573138381695
 30
0.0
 10
10.59944061373663
 20
-230.5016497803138
 30
0.0
 10
12.25016898770387
 20
-230.1925699438199
 30
0.0
 10
12.57875050203938
 20
-230.1249476678159
 30
0.0
 10
13.22348497944462
 20
-229.9799649626172
 30
0.0
 10
13.54086631135715
 20
-229.9023872383691
 30
0.0
 10
14.47819017551366
 20
-229.6545353118501
 30
0.0
 10
15.08335179056752
 20
-229.469182360356
 30
0.0
 10
16.2540173310585
 20
-229.058019674557
 30
0.0
 10
16.81952614009219
 20
-228.8322149222522
 30
0.0
 10
17.90935899423948
 20
-228.3385907903375
 30
0.0
 10
18.43286344253056
 20
-228.0707866523197
 30
0.0
 10
18.92559705840705
 20
-227.7863375905427
 30
0.0
  0
LWPOLYLINE
  5
148
330
131
100
AcDbEntity
  8
0
  6
Continuous
 62
     7
370
    25
100
AcDbPolyline
 90
       62
 70
   128
 43
0.0
 10
-392.4171870105
 20
-6.164151537
 10
-387.9904545588
 20
-15.554596036
 10
-383.362984579
 20
-24.9116975179
 10
-378.5399691571
 20
-34.224957184
 10
-373.5268197839
 20
-43.4839254269
 10
-368.3291612829
 20
-52.6782135549
 10
-362.9528254996
 20
-61.7975054482
 10
-357.4038447579
 20
-70.8315691338
 10
-351.6884450917
 20
-79.7702682662
 10
-345.8130392593
 20
-88.6035735
 10
-339.7842195482
 20
-97.3215737433
 10
-333.6087503782
 20
-105.914487278
 10
-327.2935607121
 20
-114.372672735
 10
-320.8457362809
 20
-122.6866399122
 10
-314.2725116338
 20
-130.8470604221
 10
-307.5812620205
 20
-138.8447781589
 10
-300.7794951168
 20
-146.6708195716
 10
-293.8748426
 20
-154.3164037324
 10
-286.8750515868
 20
-161.7729521891
 10
-279.7879759405
 20
-169.0320985899
 10
-272.6215674591
 20
-176.0856980714
 10
-265.3838669528
 20
-182.9258363962
 10
-258.0829952229
 20
-189.5448388337
 10
-250.7271439494
 20
-195.9352787706
 10
-243.3245665003
 20
-202.089986044
 10
-235.8835686708
 20
-208.0020549863
 10
-228.4124993645
 20
-213.6648521737
 10
-220.9197412256
 20
-219.0720238685
 10
-213.4137012334
 20
-224.2175031485
 10
-205.9028012695
 20
-229.0955167141
 10
-198.3954686688
 20
-233.7005913659
 10
-190.9001267633
 20
-238.0275601458
 10
-183.4251854313
 20
-242.0715681345
 10
-175.9790316615
 20
-245.8280778983
 10
-168.5700201424
 20
-249.2928745809
 10
-161.2064638885
 20
-252.462070632
 10
-153.8966249127
 20
-255.3321101693
 10
-146.6487049566
 20
-257.8997729684
 10
-139.4708362876
 20
-260.1621780757
 10
-132.3710725747
 20
-262.1167870412
 10
-125.3573798519
 20
-263.7614067661
 10
-118.4376275804
 20
-265.0941919643
 10
-111.619579819
 20
-266.113647232
 10
-104.9108865126
 20
-266.8186287263
 10
-98.3190749087
 20
-267.2083454481
 10
-91.8515411121
 20
-267.2823601297
 10
-85.5155417861
 20
-267.0405897257
 10
-79.3181860105
 20
-266.4833055058
 10
-73.2664273049
 20
-265.6111327506
 10
-67.3670558274
 20
-264.4250500503
 10
-61.6266907549
 20
-262.9263882062
 10
-56.0517728575
 20
-261.1168287377
 10
-50.6485572709
 20
-258.998401996
 10
-45.4231064784
 20
-256.5734848854
 10
-40.3812835088
 20
-253.8447981968
 10
-35.528745358
 20
-250.8154035548
 10
-30.8709366416
 20
-247.4886999825
 10
-26.413083486
 20
-243.8684200877
 10
-22.1601876648
 20
-239.9586258752
 10
-18.1170209864
 20
-235.7637041887
 10
-14.2881199405
 20
-231.2883617888
 10
-10.6777806075
 20
-226.5376200723
  0
LWPOLYLINE
  5
14A
330
131
100
AcDbEntity
  8
0
  6
Continuous
 62
     7
370
    25
100
AcDbPolyline
 90
       33
 70
   128
 43
0.0
 10
-23.3345237792
 20
-140.0345596874
 10
-18.4721894577
 20
-142.2745554888
 10
-12.8861199185
 20
-143.8204524194
 10
-6.8374076365
 20
-144.6200611085
 10
-0.4935772197
 20
-144.6754644216
 10
5.8380444408
 20
-144.0117647136
 10
11.9678496988
 20
-142.6787903603
 10
17.6391846819
 20
-140.7524172015
 10
22.6184592334
 20
-138.330937681
 10
26.7496597926
 20
-135.4933413994
 10
29.8312913952
 20
-132.3739708589
 10
31.7796451071
 20
-129.0438314011
 10
32.5019850617
 20
-125.6322633139
 10
31.9787288487
 20
-122.2311852808
 10
30.2227251294
 20
-118.9330056443
 10
27.317832785
 20
-115.8652746733
 10
23.3339908314
 20
-113.0927843398
 10
18.444478798
 20
-110.7430408978
 10
12.8856511546
 20
-108.9251755984
 10
6.8053986027
 20
-107.6999127937
 10
0.4812072402
 20
-107.1489253576
 10
-5.8590087018
 20
-107.3169238572
 10
-11.9947188929
 20
-108.2297618091
 10
-17.6416151157
 20
-109.8674798295
 10
-22.6432246846
 20
-112.2026888612
 10
-26.7512491358
 20
-115.1269876899
 10
-29.8426994252
 20
-118.543492544
 10
-31.7842201026
 20
-122.2948321745
 10
-32.5021651768
 20
-126.1989465739
 10
-31.9727769529
 20
-130.1110466738
 10
-30.2227863659
 20
-133.8127509217
 10
-27.2997086201
 20
-137.1787868973
 10
-23.3345237792
 20
-140.0345596874
  0
SPLINE
  5
14B
330
131
100
AcDbEntity
  8
0
  6
Continuous
 62
     7
370
    25
100
AcDbSpline
210
0.0
220
0.0
230
1.0
 70
     8
 71
     3
 72
    50
 73
    46
 74
     0
 42
0.000000001
 43
0.00000001
 40
0.0
 40
0.0
 40
0.0
 40
0.0
 40
0.0134743924600598
 40
0.0453344430066795
 40
0.0630016274678379
 40
0.0821269343337916
 40
0.1010793891974778
 40
0.1193551169614784
 40
0.1394304454655122
 40
0.159457194854462
 40
0.1775921970509108
 40
0.1965584543200909
 40
0.2157734718801887
 40
0.2334922949887753
 40
0.2805039578422563
 40
0.3273426935815959
 40
0.3586135114966507
 40
0.3896114013314683
 40
0.4213126477074144
 40
0.4390439325815791
 40
0.4582810684639012
 40
0.4772277571657331
 40
0.495346580052838
 40
0.5154899336842019
 40
0.5356068574711317
 40
0.5537603821384339
 40
0.5727080814006837
 40
0.5919396268334436
 40
0.6096812548269194
 40
0.6565008859811038
 40
0.7036596364460841
 40
0.7349880584712896
 40
0.766019524399036
 40
0.79771816581787
 40
0.8154594543883671
 40
0.8346908346147486
 40
0.8536374441160853
 40
0.871790920095078
 40
0.8919008750129618
 40
0.9120516584519848
 40
0.9301707958142122
 40
0.9491190903655261
 40
0.9683569128166
 40
0.9860890164002087
 40
1.0
 40
1.0
 40
1.0
 40
1.0
 10
-19.17709842860527
 20
-141.9498157586942
 30
0.0
 10
-19.42353827588677
 20
-141.7363526273017
 30
0.0
 10
-20.25268239086444
 20
-141.0181583047876
 30
0.0
 10
-21.10710638289957
 20
-139.8781659649618
 30
0.0
 10
-21.87975253935216
 20
-138.5953399451218
 30
0.0
 10
-22.36885810140318
 20
-137.5156705159373
 30
0.0
 10
-22.72633913905631
 20
-136.3984466725878
 30
0.0
 10
-22.94874965576274
 20
-135.2440155092291
 30
0.0
 10
-23.02680357772439
 20
-134.0579806976581
 30
0.0
 10
-22.9489704546633
 20
-132.8747450972466
 30
0.0
 10
-22.72783839616342
 20
-131.7237505165666
 30
0.0
 10
-22.37226892224489
 20
-130.6066469075982
 30
0.0
 10
-21.88071307912173
 20
-129.5244505172005
 30
0.0
 10
-20.94625577202254
 20
-127.9506166743041
 30
0.0
 10
-19.25277327512662
 20
-126.0002677733228
 30
0.0
 10
-16.69416873752082
 20
-124.1527164442527
 30
0.0
 10
-14.06095147949106
 20
-122.8449616374779
 30
0.0
 10
-11.55454519757563
 20
-121.942921495146
 30
0.0
 10
-9.240239947533507
 20
-121.3742677322108
 30
0.0
 10
-7.180279380649281
 20
-121.0296274758244
 30
0.0
 10
-5.459873352589725
 20
-120.833928748213
 30
0.0
 10
-3.694285298937658
 20
-120.7251919610773
 30
0.0
 10
-1.878264454390793
 20
-120.7004907478922
 30
0.0
 10
-0.0126068359875414
 20
-120.7637666078298
 30
0.0
 10
1.854236496910022
 20
-120.9175391101979
 30
0.0
 10
3.67080573867691
 20
-121.1492888683808
 30
0.0
 10
5.437682756152626
 20
-121.4517533796834
 30
0.0
 10
7.158816950964986
 20
-121.8243345019004
 30
0.0
 10
9.6730907209083
 20
-122.4819050316156
 30
0.0
 10
12.85045663547221
 20
-123.5786282959528
 30
0.0
 10
15.97493248559755
 20
-125.1046073008263
 30
0.0
 10
18.293783162828
 20
-126.6042538342289
 30
0.0
 10
19.97309853076469
 20
-127.9856489917151
 30
0.0
 10
21.11640434351178
 20
-129.2308252929826
 30
0.0
 10
21.88103867874351
 20
-130.3227749284952
 30
0.0
 10
22.37259399357457
 20
-131.2274475340013
 30
0.0
 10
22.72814148855619
 20
-132.1501353952774
 30
0.0
 10
22.94948466943443
 20
-133.0946391097773
 30
0.0
 10
23.0269453673546
 20
-134.0632254014252
 30
0.0
 10
22.9480587560725
 20
-135.0312403192025
 30
0.0
 10
22.72410170091307
 20
-135.975502790178
 30
0.0
 10
22.37086341508844
 20
-136.8981123106377
 30
0.0
 10
21.86430997356738
 20
-137.7999651961627
 30
0.0
 10
21.34005132305343
 20
-138.6163849207678
 30
0.0
 10
20.83645055805074
 20
-139.0948654035768
 30
0.0
 10
20.61505680016008
 20
-139.3052157436242
 30
0.0
  0
LWPOLYLINE
  5
14C
330
131
100
AcDbEntity
  8
0
  6
Continuous
 62
     7
370
    25
100
AcDbPolyline
 90
       18
 70
   128
 43
0.0
 10
19.4468296711
 20
-139.8877261681
 10
18.1735652846
 20
-138.8394007928
 10
16.2634559673
 20
-137.5886528535
 10
14.096862234
 20
-136.4859702158
 10
11.7079525623
 20
-135.5487428437
 10
9.1344014846
 20
-134.7917513727
 10
6.4167954389
 20
-134.2269340105
 10
3.5979926959
 20
-133.8631982643
 10
0.7224474588
 20
-133.7062804641
 10
-2.1644912063
 20
-133.7586552974
 10
-5.0172945521
 20
-134.0194967817
 10
-7.7909721656
 20
-134.484691291
 10
-10.441781494
 20
-135.14690243
 10
-12.9279176906
 20
-135.9956867335
 10
-15.2101729024
 20
-137.0176583659
 10
-17.2525546015
 20
-138.1967002242
 10
-19.0228532083
 20
-139.5142181138
 10
-20.3831957001
 20
-140.8264455828
  0
LWPOLYLINE
  5
150
330
131
100
AcDbEntity
  8
0
  6
Continuous
 62
    60
370
    25
100
AcDbPolyline
 90
       49
 70
   128
 43
0.0
 10
-144.8461280757
 20
140.89434087
 10
-141.247651588
 20
130.9900035911
 10
-137.4317298816
 20
121.1271949811
 10
-133.4025466335
 20
111.3167283657
 10
-129.1645193349
 20
101.5693596843
 10
-124.7222944482
 20
91.8957756975
 10
-120.0807423129
 20
82.30658227
 10
-115.2449518055
 20
72.8122927433
 10
-110.2202247605
 20
63.4233164083
 10
-105.0120701573
 20
54.1499470935
 10
-99.6261980807
 20
45.002351879
 10
-94.0685134602
 20
35.9905599493
 10
-88.345109596
 20
27.1244515976
 10
-82.4622614787
 20
18.4137473937
 10
-76.4264189093
 20
9.8679975261
 10
-70.2441994281
 20
1.496571332
 10
-63.9223810591
 20
-6.6913529757
 10
-57.4678948787
 20
-14.6867983705
 10
-50.8878174172
 20
-22.4809988549
 10
-44.1893628996
 20
-30.0654090711
 10
-37.3798753365
 20
-37.4317136696
 10
-30.4668204723
 20
-44.5718364265
 10
-23.4577775999
 20
-51.4779490977
 10
-16.3604312507
 20
-58.1424800016
 10
-9.18256277
 20
-64.5581223204
 10
-1.9320417854
 20
-70.7178421116
 10
5.3831824213
 20
-76.6148860192
 10
12.7550896293
 20
-82.2427886782
 10
20.175597472
 20
-87.5953798031
 10
27.6365702983
 20
-92.6667909528
 10
35.1298280926
 20
-97.4514619645
 10
42.6471554426
 20
-101.9441470499
 10
50.1803105469
 20
-106.1399205463
 10
57.721034251
 20
-110.0341823173
 10
65.2610591023
 20
-113.622662796
 10
72.7921184145
 20
-116.901427666
 10
80.3059553308
 20
-119.8668821752
 10
87.7943318767
 20
-122.5157750767
 10
95.2490379915
 20
-124.8452021935
 10
102.6619005302
 20
-126.8526096025
 10
110.0247922239
 20
-128.5357964346
 10
117.3296405904
 20
-129.8929172878
 10
124.5684367848
 20
-130.9224842502
 10
131.7332443797
 20
-131.6233685315
 10
138.8162080675
 20
-131.9948017004
 10
145.8095622715
 20
-132.0363765274
 10
152.7056396609
 20
-131.7480474308
 10
159.4968795565
 20
-131.1301305271
 10
162.3995503308
 20
-130.760965897
  0
LWPOLYLINE
  5
151
330
131
100
AcDbEntity
  8
0
  6
Continuous
 62
    60
370
    25
100
AcDbPolyline
 90
        3
 70
   128
 43
0.0
 10
243.483193131
 20
-79.3292471072
 10
239.0507035842
 20
-84.5033069838
 10
234.9021347667
 20
-88.9061148077
  0
LWPOLYLINE
  5
152
330
131
100
AcDbEntity
  8
0
  6
Continuous
 62
    60
370
    25
100
AcDbPolyline
 90
       50
 70
   128
 43
0.0
 10
178.0902078683
 20
-121.7029421061
 10
171.975598614
 20
-123.0980866047
 10
165.4181986019
 20
-124.2475705492
 10
158.7440273157
 20
-125.0684996465
 10
151.9605208621
 20
-125.5599592485
 10
145.0752371649
 20
-125.7214017899
 10
138.0958475443
 20
-125.5526473974
 10
131.0301281696
 20
-125.0538840909
 10
123.8859513954
 20
-124.2256675732
 10
116.6712769907
 20
-123.0689206117
 10
109.3941432702
 20
-121.5849320096
 10
102.0626581383
 20
-119.7753551703
 10
94.6849900557
 20
-117.6422062553
 10
87.2693589384
 20
-115.1878619376
 10
79.8240269994
 20
-112.4150567538
 10
72.3572895432
 20
-109.3268800577
 10
64.8774657235
 20
-105.9267725777
 10
57.3928892743
 20
-102.2185225838
 10
49.9118992248
 20
-98.2062616664
 10
42.4428306085
 20
-93.8944601334
 10
34.9940051763
 20
-89.2879220295
 10
27.5737221249
 20
-84.3917797834
 10
20.1902488505
 20
-79.2114884899
 10
12.8518117368
 20
-73.7528198316
 10
5.5665869904
 20
-68.0218556486
 10
-1.6573084698
 20
-62.0249811625
 10
-8.8118260552
 20
-55.7688778617
 10
-15.8889944755
 20
-49.2605160575
 10
-22.8809286202
 20
-42.5071471181
 10
-29.7798383431
 20
-35.5162953893
 10
-36.5780371425
 20
-28.295749811
 10
-43.267950725
 20
-20.8535552394
 10
-49.8421254444
 20
-13.1980034834
 10
-56.2932366063
 20
-5.3376240664
 10
-62.614096629
 20
2.7188252771
 10
-68.7976630517
 20
10.9623683589
 10
-74.8370463808
 20
19.3838205382
 10
-80.7255177662
 20
27.9737989545
 10
-86.4565164978
 20
36.7227329821
 10
-92.0236573159
 20
45.6208748927
 10
-97.4207375246
 20
54.6583107165
 10
-102.6417439034
 20
63.8249712876
 10
-107.6808594064
 20
73.110643463
 10
-112.5324696436
 20
82.5049815014
 10
-117.191169136
 20
91.9975185901
 10
-121.6517673387
 20
101.5776785068
 10
-125.9092944235
 20
111.2347874033
 10
-129.9590068164
 20
120.9580856977
 10
-133.7963924824
 20
130.7367400622
 10
-137.417175953
 20
140.5598554939
  0
LINE
  5
153
330
131
100
AcDbEntity
  8
0
  6
Continuous
 62
     7
370
    25
100
AcDbLine
 10
-16.5483533902
 20
-262.128961194
 30
0.0
 11
215.0868014264
 21
-128.4088326313
 31
0.0
  0
LINE
  5
154
330
131
100
AcDbEntity
  8
0
  6
Continuous
 62
     7
370
    25
100
AcDbLine
 10
244.0626015769
 20
-83.6178898813
 30
0.0
 11
6.9603057443
 21
-220.4941317727
 31
0.0
  0
LINE
  5
155
330
131
100
AcDbEntity
  8
0
  6
Continuous
 62
     7
370
    25
100
AcDbLine
 10
243.483193131
 20
-79.3292471072
 30
0.0
 11
-137.417175953
 21
140.5598554939
 31
0.0
  0
LINE
  5
156
330
131
100
AcDbEntity
  8
0
  6
Continuous
 62
     7
370
    25
100
AcDbLine
 10
-144.8461280757
 20
140.89434087
 30
0.0
 11
-381.9484239083
 21
4.0180989786
 31
0.0
  0
LINE
  5
157
330
131
100
AcDbEntity
  8
0
  6
Continuous
 62
     7
370
    25
100
AcDbLine
 10
-0.4686463784
 20
-220.1596463966
 30
0.0
 11
-381.3690154624
 21
-0.2705437955
 31
0.0
  0
LINE
  5
158
330
131
100
AcDbEntity
  8
0
  6
Continuous
 62
     7
370
    25
100
AcDbLine
 10
-156.8114193898
 20
148.1865466878
 30
0.0
 11
-394.5802635702
 21
10.9255146257
 31
0.0
  0
LINE
  5
159
330
131
100
AcDbEntity
  8
0
  6
Continuous
 62
     7
370
    25
100
AcDbLine
 10
254.5313646792
 20
-73.4356393657
 30
0.0
 11
-127.2080417239
 21
146.9378291696
 31
0.0
  0
LINE
  5
15A
330
131
100
AcDbEntity
  8
0
  6
Continuous
 62
     7
370
    25
100
AcDbLine
 10
256.6944412388
 20
-90.5253055284
 30
0.0
 11
18.9255970584
 21
-227.7863375905
 31
0.0
  0
LINE
  5
15B
330
131
100
AcDbEntity
  8
0
  6
Continuous
 62
     7
370
    25
100
AcDbLine
 10
-10.6777806075
 20
-226.5376200724
 30
0.0
 11
-392.4171870105
 21
-6.164151537
 31
0.0
  0
LINE
  5
15C
330
131
100
AcDbEntity
  8
0
  6
Continuous
 62
     7
370
    25
100
AcDbLine
 10
-16.4402404062
 20
-262.0664579158
 30
0.0
 11
-16.5483533902
 21
-262.128961194
 31
0.0
  0
LINE
  5
15D
330
131
100
AcDbEntity
  8
0
  6
Continuous
 62
    60
370
    25
100
AcDbLine
 10
-379.455534831
 20
-1.3751726514
 30
0.0
 11
-381.9484239083
 21
4.0180989786
 31
0.0
  0
ARC
  5
15E
330
131
100
AcDbEntity
  8
0
  6
Continuous
 62
    60
370
    25
100
AcDbCircle
 10
-68.8471656249
 20
-172.6166740541
 30
0.0
 40
103.6713540173477
100
AcDbArc
 50
300.3652253542
 51
327.8485411482
  0
ARC
  5
15F
330
131
100
AcDbEntity
  8
0
  6
Continuous
 62
    60
370
    25
100
AcDbCircle
 10
146.575705822
 20
-11.3721154514
 30
0.0
 40
135.6147609560792
100
AcDbArc
 50
300.3439043671
 51
324.2914735312
  0
VIEWPORT
  5
1D1
330
131
100
AcDbEntity
  8
0
100
AcDbViewport
 10
0.0
 20
0.0
 30
0.0
 40
205.6
 41
156.0
 68
     1
 69
     1
 12
0.0
 22
-97.5
 13
0.0
 23
0.0
 14
10.0
 24
10.0
 15
10.0
 25
10.0
 16
0.0
 26
0.0
 36
1.0
 17
0.0
 27
0.0
 37
0.0
 42
50.0
 43
0.0
 44
0.0
 45
452.5830937296
 50
0.0
 51
0.0
 72
   100
 90
   557152
  1

281
     0
 71
     1
 74
     0
110
0.0
120
0.0
130
0.0
111
1.0
121
0.0
131
0.0
112
0.0
122
1.0
132
0.0
 79
     0
146
0.0
170
     0
 61
     5
348
2F
292
     1
282
     1
141
0.0
142
0.0
 63
   256
361
1D2
  0
ENDBLK
  5
134
330
131
100
AcDbEntity
  8
0
100
AcDbBlockEnd
  0
BLOCK
  5
162
330
160
100
AcDbEntity
  8
0
100
AcDbBlockBegin
  2
*Paper_Space6
 70
     0
 10
0.0
 20
0.0
 30
0.0
  3
*Paper_Space6
  1

  0
SPLINE
  5
164
330
160
100
AcDbEntity
  8
0
  6
Continuous
 62
     7
370
    25
100
AcDbSpline
210
0.0
220
0.0
230
1.0
 70
     8
 71
     3
 72
    71
 73
    67
 74
     0
 42
0.000000001
 43
0.00000001
 40
0.0
 40
0.0
 40
0.0
 40
0.0
 40
0.0148341979943163
 40
0.030688083767415
 40
0.0465396768123886
 40
0.0623888759064558
 40
0.0782356314230818
 40
0.0940799398932779
 40
0.1099218389413968
 40
0.1257614025665311
 40
0.1415987367490196
 40
0.1574339753534615
 40
0.1732672762936859
 40
0.1890988179210369
 40
0.2049287955943812
 40
0.2207574183883821
 40
0.2365849058953673
 40
0.25241148507527
 40
0.268237387107724
 40
0.2840628442002436
 40
0.2998880863062521
 40
0.3157133377071227
 40
0.3315388134127274
 40
0.3473646781622648
 40
0.3631910955471831
 40
0.3790182363158018
 40
0.3948462464735675
 40
0.4106752422778998
 40
0.4265053048402928
 40
0.4423364743139641
 40
0.4581687436607587
 40
0.4740020520069337
 40
0.4898362776181005
 40
0.5056712305496869
 40
0.5215065971234136
 40
0.5373419416090637
 40
0.5531767922015451
 40
0.5690105764235017
 40
0.5848426146488519
 40
0.6006721147176379
 40
0.6164981680745126
 40
0.6323197479442587
 40
0.64813571011527
 40
0.6639447969422254
 40
0.6797456451938872
 40
0.6955367983501652
 40
0.7113167238839048
 40
0.7270838359380906
 40
0.742836523621704
 40
0.7585731848951625
 40
0.7742922657044441
 40
0.7899923036638831
 40
0.805671975202865
 40
0.8213301447105833
 40
0.8369659138703396
 40
0.8525786691078299
 40
0.8681681249202571
 40
0.883734360831603
 40
0.8992778498474022
 40
0.9147994765598948
 40
0.9303005434641696
 40
0.9457827645593425
 40
0.9612482458866031
 40
0.9766994532563071
 40
0.9921391679982231
 40
0.9999999999999999
 40
0.9999999999999999
 40
0.9999999999999999
 40
0.9999999999999999
 10
-383.8088774241169
 20
-57.668010881927
 30
0.0
 10
-382.2774640829562
 20
-60.37149708346644
 30
0.0
 10
-379.1093695952
 20
-65.96430439591306
 30
0.0
 10
-374.0104440359531
 20
-74.35030269964699
 30
0.0
 10
-368.5897426393928
 20
-82.83878300681548
 30
0.0
 10
-362.9389456177893
 20
-91.23021229573672
 30
0.0
 10
-357.0703381617844
 20
-99.51894868633103
 30
0.0
 10
-350.9877093970994
 20
-107.6968635778611
 30
0.0
 10
-344.6973434924628
 20
-115.7566296512644
 30
0.0
 10
-338.2050688623804
 20
-123.6908451035627
 30
0.0
 10
-331.5170422723353
 20
-131.4922734465172
 30
0.0
 10
-324.6395324117919
 20
-139.1537845765285
 30
0.0
 10
-317.5789714767937
 20
-146.6683759611426
 30
0.0
 10
-310.3419349184808
 20
-154.0291724252115
 30
0.0
 10
-302.9351403908731
 20
-161.2294317032916
 30
0.0
 10
-295.3654415100619
 20
-168.2625484524337
 30
0.0
 10
-287.6398229640471
 20
-175.1220586563022
 30
0.0
 10
-279.7653952329152
 20
-181.8016438797013
 30
0.0
 10
-271.7493894022845
 20
-188.2951354982309
 30
0.0
 10
-263.5991519619062
 20
-194.5965188535413
 30
0.0
 10
-255.3221396434253
 20
-200.6999373361762
 30
0.0
 10
-246.9259143116832
 20
-206.599696389247
 30
0.0
 10
-238.4181445967868
 20
-212.2902629800701
 30
0.0
 10
-229.8065985114249
 20
-217.7662722286212
 30
0.0
 10
-221.099133534275
 20
-223.0225349842855
 30
0.0
 10
-212.3036845012479
 20
-228.0540452984923
 30
0.0
 10
-203.4282613910025
 20
-232.8559816300363
 30
0.0
 10
-194.48094996423
 20
-237.4237073496436
 30
0.0
 10
-185.4699076899564
 20
-241.7527744353964
 30
0.0
 10
-176.4033599184943
 20
-245.8389272628976
 30
0.0
 10
-167.2895963098376
 20
-249.6781065461054
 30
0.0
 10
-158.1369675151908
 20
-253.266453493754
 30
0.0
 10
-148.953882096893
 20
-256.6003142538866
 30
0.0
 10
-139.7488129429534
 20
-259.6762416223012
 30
0.0
 10
-130.5303021087164
 20
-262.4909994703625
 30
0.0
 10
-121.3069474281322
 20
-265.0415741875572
 30
0.0
 10
-112.0873906730414
 20
-267.3251839636424
 30
0.0
 10
-102.8803073999007
 20
-269.3392867595583
 30
0.0
 10
-93.69441461223104
 20
-271.0815850292132
 30
0.0
 10
-84.53846666745868
 20
-272.5500346203813
 30
0.0
 10
-75.42125032765149
 20
-273.7428544425076
 30
0.0
 10
-66.35157869074197
 20
-274.6585368430577
 30
0.0
 10
-57.33828371757864
 20
-275.2958585765565
 30
0.0
 10
-48.39020706636235
 20
-275.6538921808911
 30
0.0
 10
-39.51618896032523
 20
-275.7320174971487
 30
0.0
 10
-30.72505485209681
 20
-275.5299329856983
 30
0.0
 10
-22.02559971319615
 20
-275.0476664079852
 30
0.0
 10
-13.42656987218729
 20
-274.2855843679466
 30
0.0
 10
-4.936642450234091
 20
-273.2444001483327
 30
0.0
 10
3.435597404327487
 20
-271.9251792447955
 30
0.0
 10
11.68168111036826
 20
-270.3293420072533
 30
0.0
 10
19.79328251791934
 20
-268.4586628415191
 30
0.0
 10
27.76224433434848
 20
-266.3152655501012
 30
0.0
 10
35.58060416246494
 20
-263.9016144507791
 30
0.0
 10
43.24061944912733
 20
-261.2205014574071
 30
0.0
 10
50.73478928535872
 20
-258.2750282527601
 30
0.0
 10
58.05587592498697
 20
-255.0685877412058
 30
0.0
 10
65.19691076912939
 20
-251.6048313330845
 30
0.0
 10
72.15123763309776
 20
-247.8876754522834
 30
0.0
 10
78.91239357375412
 20
-243.9211527824216
 30
0.0
 10
85.47456928060629
 20
-239.7098376872161
 30
0.0
 10
91.83088494998584
 20
-235.2571345231696
 30
0.0
 10
97.97977959226903
 20
-230.5715347074384
 30
0.0
 10
103.9011467080628
 20
-225.643194065973
 30
0.0
 10
108.7064553254142
 20
-221.3666058348493
 30
0.0
 10
111.4495063954725
 20
-218.649403669671
 30
0.0
 10
112.3749208877251
 20
-217.7327097409711
 30
0.0
  0
SPLINE
  5
166
330
160
100
AcDbEntity
  8
0
  6
Continuous
 62
     7
370
    25
100
AcDbSpline
210
0.0
220
0.0
230
1.0
 70
     8
 71
     3
 72
    13
 73
     9
 74
     0
 42
0.000000001
 43
0.00000001
 40
0.0
 40
0.0
 40
0.0
 40
0.0
 40
0.0688989957743729
 40
0.2787885163974327
 40
0.4887343270568584
 40
0.6987597381580263
 40
0.9088868249287357
 40
1.0
 40
1.0
 40
1.0
 40
1.0
 10
266.7152905253541
 20
-67.0986797708049
 30
0.0
 10
267.3720778689001
 20
-66.47194378606673
 30
0.0
 10
270.0296604219964
 20
-63.9359591408011
 30
0.0
 10
274.4666037540112
 20
-59.2553775096557
 30
0.0
 10
280.0207400653923
 20
-53.06441925182009
 30
0.0
 10
285.3208713483025
 20
-46.629580467963
 30
0.0
 10
289.4691088040008
 20
-41.27074960466498
 30
0.0
 10
291.7760503414354
 20
-37.99838322733041
 30
0.0
 10
292.4738082270986
 20
-37.00862279885285
 30
0.0
  0
SPLINE
  5
169
330
160
100
AcDbEntity
  8
0
  6
Continuous
 62
     7
370
    25
100
AcDbSpline
210
0.0
220
0.0
230
1.0
 70
     8
 71
     3
 72
    12
 73
     8
 74
     0
 42
0.000000001
 43
0.00000001
 40
0.0
 40
0.0
 40
0.0
 40
0.0
 40
0.0546593108339437
 40
0.2599738479173949
 40
0.4730591599102171
 40
0.712936339481482
 40
0.9999999999999999
 40
0.9999999999999999
 40
0.9999999999999999
 40
0.9999999999999999
 10
276.2894128512239
 20
-33.61381785074316
 30
0.0
 10
276.3336226042611
 20
-33.55031357964302
 30
0.0
 10
276.5438956471738
 20
-33.24827080842621
 30
0.0
 10
276.425541802589
 20
-32.64322917723643
 30
0.0
 10
275.9190213134328
 20
-31.87698886694414
 30
0.0
 10
274.8555343361939
 20
-31.12125984766837
 30
0.0
 10
273.7895857581065
 20
-30.76848969672869
 30
0.0
 10
273.2088847050279
 20
-30.57630969634545
 30
0.0
  0
SPLINE
  5
16B
330
160
100
AcDbEntity
  8
0
  6
Continuous
 62
     7
370
    25
100
AcDbSpline
210
0.0
220
0.0
230
1.0
 70
     8
 71
     3
 72
    24
 73
    20
 74
     0
 42
0.000000001
 43
0.00000001
 40
0.0
 40
0.0
 40
0.0
 40
0.0
 40
0.2499999999999916
 40
0.2499999999999916
 40
0.3749999999999875
 40
0.3749999999999875
 40
0.4999999999999832
 40
0.4999999999999832
 40
0.5624999999999827
 40
0.5624999999999827
 40
0.6249999999999821
 40
0.6249999999999821
 40
0.7499999999999849
 40
0.7499999999999849
 40
0.8124999999999888
 40
0.8124999999999888
 40
0.8749999999999926
 40
0.8749999999999926
 40
1.0
 40
1.0
 40
1.0
 40
1.0
 10
-203.2045763655187
 20
98.90266071698645
 30
0.0
 10
-203.8198080412616
 20
99.06986750363322
 30
0.0
 10
-204.4651659915244
 20
99.18575022573286
 30
0.0
 10
-205.4809430029641
 20
99.27824280351957
 30
0.0
 10
-205.8304666747421
 20
99.2949980824265
 30
0.0
 10
-206.519937856213
 20
99.29633131252166
 30
0.0
 10
-206.862603744576
 20
99.28140758865281
 30
0.0
 10
-207.3731708124022
 20
99.23317172806736
 30
0.0
 10
-207.5437428258548
 20
99.21258209592068
 30
0.0
 10
-207.876470251478
 20
99.16304559022826
 30
0.0
 10
-208.039121239745
 20
99.13410708811601
 30
0.0
 10
-208.5157730730351
 20
99.0345977945556
 30
0.0
 10
-208.8186179824949
 20
98.9514963045498
 30
0.0
 10
-209.247623158305
 20
98.79846878306795
 30
0.0
 10
-209.3854046309676
 20
98.74293422876426
 30
0.0
 10
-209.6441349369516
 20
98.62533985342967
 30
0.0
 10
-209.7660582880938
 20
98.56294558276318
 30
0.0
 10
-210.109368309592
 20
98.36490644851195
 30
0.0
 10
-210.3099635878434
 20
98.21692918457906
 30
0.0
 10
-210.4732025019705
 20
98.05760300007091
 30
0.0
  0
SPLINE
  5
16D
330
160
100
AcDbEntity
  8
0
  6
Continuous
 62
     7
370
    25
100
AcDbSpline
210
0.0
220
0.0
230
1.0
 70
     8
 71
     3
 72
    20
 73
    16
 74
     0
 42
0.000000001
 43
0.00000001
 40
0.0
 40
0.0
 40
0.0
 40
0.0
 40
0.1249999999999976
 40
0.1249999999999976
 40
0.2499999999999952
 40
0.2499999999999952
 40
0.3749999999999928
 40
0.3749999999999928
 40
0.4999999999999905
 40
0.4999999999999905
 40
0.624999999999988
 40
0.624999999999988
 40
0.7499999999999857
 40
0.7499999999999857
 40
1.0
 40
1.0
 40
1.0
 40
1.0
 10
-366.9623652619734
 20
-54.68061725074744
 30
0.0
 10
-367.1249550543388
 20
-54.83930987251654
 30
0.0
 10
-367.24700542002
 20
-55.00475418284101
 30
0.0
 10
-367.4132629617471
 20
-55.34860729301419
 30
0.0
 10
-367.4564463777761
 20
-55.52830664207816
 30
0.0
 10
-367.4617949175919
 20
-55.88241912527811
 30
0.0
 10
-367.4249096186625
 20
-56.06033332535984
 30
0.0
 10
-367.2778827535545
 20
-56.40917997969196
 30
0.0
 10
-367.1695580767366
 20
-56.5773524869235
 30
0.0
 10
-366.8901101511975
 20
-56.90242118612056
 30
0.0
 10
-366.7182532380569
 20
-57.05911101306463
 30
0.0
 10
-366.3282944771371
 20
-57.35095231453275
 30
0.0
 10
-366.1089343834788
 20
-57.48770237203156
 30
0.0
 10
-365.3810400178139
 20
-57.87169258373151
 30
0.0
 10
-364.8284125727387
 20
-58.08109441959115
 30
0.0
 10
-364.2144855463901
 20
-58.24794663048777
 30
0.0
  0
SPLINE
  5
16F
330
160
100
AcDbEntity
  8
0
  6
Continuous
 62
     7
370
    25
100
AcDbSpline
210
0.0
220
0.0
230
1.0
 70
     8
 71
     3
 72
    24
 73
    20
 74
     0
 42
0.000000001
 43
0.00000001
 40
0.0
 40
0.0
 40
0.0
 40
0.0
 40
0.2499999999999921
 40
0.2499999999999921
 40
0.3749999999999882
 40
0.3749999999999882
 40
0.4999999999999842
 40
0.4999999999999842
 40
0.5624999999999839
 40
0.5624999999999839
 40
0.6249999999999836
 40
0.6249999999999836
 40
0.749999999999983
 40
0.749999999999983
 40
0.8124999999999872
 40
0.8124999999999872
 40
0.8749999999999915
 40
0.8749999999999915
 40
1.0
 40
1.0
 40
1.0
 40
1.0
 10
112.1989755241566
 20
-187.7269170438197
 30
0.0
 10
112.8142071998994
 20
-187.8941238304665
 30
0.0
 10
113.4595651501622
 20
-188.0100065525661
 30
0.0
 10
114.4753421616021
 20
-188.1024991303528
 30
0.0
 10
114.8248658333799
 20
-188.1192544092598
 30
0.0
 10
115.5143370148508
 20
-188.1205876393549
 30
0.0
 10
115.857002903214
 20
-188.1056639154861
 30
0.0
 10
116.3675699710401
 20
-188.0574280549006
 30
0.0
 10
116.5381419844927
 20
-188.0368384227539
 30
0.0
 10
116.8708694101158
 20
-187.9873019170615
 30
0.0
 10
117.0335203983829
 20
-187.9583634149492
 30
0.0
 10
117.510172231673
 20
-187.8588541213888
 30
0.0
 10
117.8130171411328
 20
-187.7757526313831
 30
0.0
 10
118.242022316943
 20
-187.6227251099012
 30
0.0
 10
118.3798037896055
 20
-187.5671905555974
 30
0.0
 10
118.6385340955892
 20
-187.4495961802629
 30
0.0
 10
118.7604574467317
 20
-187.3872019095964
 30
0.0
 10
119.1037674682298
 20
-187.1891627753452
 30
0.0
 10
119.3043627464815
 20
-187.0411855114124
 30
0.0
 10
119.4676016606084
 20
-186.8818593269042
 30
0.0
  0
SPLINE
  5
170
330
160
100
AcDbEntity
  8
0
  6
Continuous
 62
     7
370
    25
100
AcDbSpline
210
0.0
220
0.0
230
1.0
 70
     8
 71
     3
 72
    32
 73
    28
 74
     0
 42
0.000000001
 43
0.00000001
 40
0.0
 40
0.0
 40
0.0
 40
0.0
 40
0.1249999999999935
 40
0.1249999999999935
 40
0.1874999999999927
 40
0.1874999999999927
 40
0.249999999999992
 40
0.249999999999992
 40
0.3124999999999912
 40
0.3124999999999912
 40
0.3437499999999894
 40
0.3437499999999894
 40
0.3749999999999876
 40
0.3749999999999876
 40
0.4999999999999901
 40
0.4999999999999901
 40
0.562499999999991
 40
0.562499999999991
 40
0.6249999999999919
 40
0.6249999999999919
 40
0.749999999999998
 40
0.749999999999998
 40
0.8124999999999987
 40
0.8124999999999987
 40
0.8749999999999993
 40
0.8749999999999993
 40
1.0
 40
1.0
 40
1.0
 40
1.0
 10
-382.5648343684317
 20
-50.71467266710618
 30
0.0
 10
-383.212779921853
 20
-51.34708739093456
 30
0.0
 10
-383.7023421202561
 20
-52.00594975419502
 30
0.0
 10
-384.2082459707059
 20
-53.03238925280457
 30
0.0
 10
-384.3387792704139
 20
-53.38212634448662
 30
0.0
 10
-384.5195543270688
 20
-54.08967350588311
 30
0.0
 10
-384.568941177861
 20
-54.44296529935248
 30
0.0
 10
-384.5902427030278
 20
-55.14863853291538
 30
0.0
 10
-384.5621396179776
 20
-55.50101976432313
 30
0.0
 10
-384.4632701587867
 20
-56.0289251716779
 30
0.0
 10
-384.4208423241606
 20
-56.20478234569347
 30
0.0
 10
-384.3170614397775
 20
-56.5562743089372
 30
0.0
 10
-384.2554908168081
 20
-56.73238264615471
 30
0.0
 10
-383.9036607699645
 20
-57.60398360668699
 30
0.0
 10
-383.48285424176
 20
-58.27608471278559
 30
0.0
 10
-382.6626617983551
 20
-59.25008656367753
 30
0.0
 10
-382.3560686266472
 20
-59.57029670430809
 30
0.0
 10
-381.6868714877294
 20
-60.19297560162269
 30
0.0
 10
-381.3258894923404
 20
-60.49428435577369
 30
0.0
 10
-380.1687881004326
 20
-61.37001753128838
 30
0.0
 10
-379.2990841064844
 20
-61.91646588088878
 30
0.0
 10
-377.8544632184325
 20
-62.68288723927772
 30
0.0
 10
-377.3529227885899
 20
-62.92747563552739
 30
0.0
 10
-376.3192517761049
 20
-63.39250453933591
 30
0.0
 10
-375.7859827962525
 20
-63.61354715834133
 30
0.0
 10
-374.1387407659952
 20
-64.24356166105716
 30
0.0
 10
-372.9776781339722
 20
-64.61966138247135
 30
0.0
 10
-371.7541858298102
 20
-64.95218037447366
 30
0.0
  0
SPLINE
  5
172
330
160
100
AcDbEntity
  8
0
  6
Continuous
 62
     7
370
    25
100
AcDbSpline
210
0.0
220
0.0
230
1.0
 70
     8
 71
     3
 72
    32
 73
    28
 74
     0
 42
0.000000001
 43
0.00000001
 40
0.0
 40
0.0
 40
0.0
 40
0.0
 40
0.124999999999996
 40
0.124999999999996
 40
0.2499999999999921
 40
0.2499999999999921
 40
0.3124999999999901
 40
0.3124999999999901
 40
0.3749999999999881
 40
0.3749999999999881
 40
0.4999999999999886
 40
0.4999999999999886
 40
0.5624999999999883
 40
0.5624999999999883
 40
0.6249999999999881
 40
0.6249999999999881
 40
0.7499999999999868
 40
0.7499999999999868
 40
0.7812499999999875
 40
0.7812499999999875
 40
0.812499999999988
 40
0.812499999999988
 40
0.874999999999992
 40
0.874999999999992
 40
0.937499999999996
 40
0.937499999999996
 40
1.0
 40
1.0
 40
1.0
 40
1.0
 10
-196.7143071291013
 20
105.8921073329604
 30
0.0
 10
-197.9402701808958
 20
106.2252978212276
 30
0.0
 10
-199.1967927833143
 20
106.506000827098
 30
0.0
 10
-201.7701659629447
 20
106.9637906713771
 30
0.0
 10
-203.0869871471179
 20
107.1409279937287
 30
0.0
 10
-205.1111658261347
 20
107.3225653425941
 30
0.0
 10
-205.7941970538717
 20
107.3690250853835
 30
0.0
 10
-207.1776007143537
 20
107.4314449954675
 30
0.0
 10
-207.8670266046909
 20
107.4469038881538
 30
0.0
 10
-209.9284178071293
 20
107.4456214888626
 30
0.0
 10
-211.293568831664
 20
107.3817206615227
 30
0.0
 10
-213.3262537668127
 20
107.1817712388396
 30
0.0
 10
-214.00496741285
 20
107.0969578993782
 30
0.0
 10
-215.3277926624952
 20
106.89401543893
 30
0.0
 10
-215.9742098424396
 20
106.7758680770761
 30
0.0
 10
-217.867974011855
 20
106.3708404048419
 30
0.0
 10
-219.0704035222755
 20
106.0340082724773
 30
0.0
 10
-220.4893353682036
 20
105.5194365870074
 30
0.0
 10
-220.7686565160367
 20
105.411811129905
 30
0.0
 10
-221.310442187628
 20
105.1901505331229
 30
0.0
 10
-221.5739690912693
 20
105.0757433087776
 30
0.0
 10
-222.3426552726021
 20
104.7218895650815
 30
0.0
 10
-222.8259779541059
 20
104.4718391077612
 30
0.0
 10
-223.734035007418
 20
103.943287476882
 30
0.0
 10
-224.1587765940106
 20
103.6647898068512
 30
0.0
 10
-224.9474154334333
 20
103.0782482162905
 30
0.0
 10
-225.310537457102
 20
102.7703419716788
 30
0.0
 10
-225.6357450673508
 20
102.4529293743759
 30
0.0
  0
SPLINE
  5
174
330
160
100
AcDbEntity
  8
0
  6
Continuous
 62
     7
370
    25
100
AcDbSpline
210
0.0
220
0.0
230
1.0
 70
     8
 71
     3
 72
    32
 73
    28
 74
     0
 42
0.000000001
 43
0.00000001
 40
0.0
 40
0.0
 40
0.0
 40
0.0
 40
0.124999999999994
 40
0.124999999999994
 40
0.187499999999991
 40
0.187499999999991
 40
0.249999999999988
 40
0.249999999999988
 40
0.312499999999985
 40
0.312499999999985
 40
0.3437499999999826
 40
0.3437499999999826
 40
0.3749999999999802
 40
0.3749999999999802
 40
0.4999999999999823
 40
0.4999999999999823
 40
0.5624999999999815
 40
0.5624999999999815
 40
0.6249999999999805
 40
0.6249999999999805
 40
0.7499999999999836
 40
0.7499999999999836
 40
0.8124999999999877
 40
0.8124999999999877
 40
0.8749999999999918
 40
0.8749999999999918
 40
1.0
 40
1.0
 40
1.0
 40
1.0
 10
291.5592335270696
 20
-38.10958365972708
 30
0.0
 10
292.207179080491
 20
-37.47716893589867
 30
0.0
 10
292.6967412788939
 20
-36.81830657263824
 30
0.0
 10
293.2026451293438
 20
-35.79186707402868
 30
0.0
 10
293.3331784290516
 20
-35.44212998234664
 30
0.0
 10
293.5139534857066
 20
-34.7345828209501
 30
0.0
 10
293.5633403364989
 20
-34.38129102748078
 30
0.0
 10
293.5846418616657
 20
-33.67561779391782
 30
0.0
 10
293.5565387766155
 20
-33.32323656251009
 30
0.0
 10
293.4576693174246
 20
-32.79533115515532
 30
0.0
 10
293.4152414827984
 20
-32.61947398113975
 30
0.0
 10
293.3114605984154
 20
-32.26798201789607
 30
0.0
 10
293.2498899754457
 20
-32.0918736806785
 30
0.0
 10
292.8980599286023
 20
-31.22027272014621
 30
0.0
 10
292.4772534003978
 20
-30.54817161404762
 30
0.0
 10
291.6570609569931
 20
-29.57416976315572
 30
0.0
 10
291.350467785285
 20
-29.25395962252508
 30
0.0
 10
290.6812706463673
 20
-28.63128072521051
 30
0.0
 10
290.3202886509781
 20
-28.32997197105952
 30
0.0
 10
289.1631872590703
 20
-27.45423879554484
 30
0.0
 10
288.2934832651219
 20
-26.90779044594442
 30
0.0
 10
286.8488623770704
 20
-26.14136908755554
 30
0.0
 10
286.3473219472279
 20
-25.8967806913058
 30
0.0
 10
285.3136509347429
 20
-25.43175178749738
 30
0.0
 10
284.7803819548904
 20
-25.21070916849187
 30
0.0
 10
283.1331399246332
 20
-24.58069466577609
 30
0.0
 10
281.97207729261
 20
-24.2045949443619
 30
0.0
 10
280.748584988448
 20
-23.87207595235957
 30
0.0
  0
SPLINE
  5
176
330
160
100
AcDbEntity
  8
0
  6
Continuous
 62
     7
370
    25
100
AcDbSpline
210
0.0
220
0.0
230
1.0
 70
     8
 71
     3
 72
    32
 73
    28
 74
     0
 42
0.000000001
 43
0.00000001
 40
0.0
 40
0.0
 40
0.0
 40
0.0
 40
0.124999999999997
 40
0.124999999999997
 40
0.2499999999999941
 40
0.2499999999999941
 40
0.3124999999999926
 40
0.3124999999999926
 40
0.3749999999999911
 40
0.3749999999999911
 40
0.4999999999999902
 40
0.4999999999999902
 40
0.5624999999999933
 40
0.5624999999999933
 40
0.6249999999999963
 40
0.6249999999999963
 40
0.7500000000000064
 40
0.7500000000000064
 40
0.7812500000000068
 40
0.7812500000000068
 40
0.812500000000007
 40
0.812500000000007
 40
0.8750000000000047
 40
0.8750000000000047
 40
0.9375000000000022
 40
0.9375000000000022
 40
1.0
 40
1.0
 40
1.0
 40
1.0
 10
105.7087062877391
 20
-194.7163636597937
 30
0.0
 10
106.9346693395337
 20
-195.0495541480608
 30
0.0
 10
108.1911919419521
 20
-195.3302571539313
 30
0.0
 10
110.7645651215826
 20
-195.7880469982103
 30
0.0
 10
112.0813863057558
 20
-195.9651843205619
 30
0.0
 10
114.1055649847725
 20
-196.1468216694273
 30
0.0
 10
114.7885962125095
 20
-196.1932814122167
 30
0.0
 10
116.1719998729916
 20
-196.2557013223008
 30
0.0
 10
116.8614257633288
 20
-196.271160214987
 30
0.0
 10
118.9228169657673
 20
-196.2698778156957
 30
0.0
 10
120.2879679903018
 20
-196.205976988356
 30
0.0
 10
122.3206529254505
 20
-196.0060275656728
 30
0.0
 10
122.9993665714878
 20
-195.9212142262114
 30
0.0
 10
124.322191821133
 20
-195.7182717657632
 30
0.0
 10
124.9686090010775
 20
-195.6001244039094
 30
0.0
 10
126.862373170493
 20
-195.1950967316751
 30
0.0
 10
128.0648026809133
 20
-194.8582645993106
 30
0.0
 10
129.4837345268414
 20
-194.3436929138407
 30
0.0
 10
129.7630556746746
 20
-194.2360674567383
 30
0.0
 10
130.304841346266
 20
-194.0144068599561
 30
0.0
 10
130.5683682499071
 20
-193.8999996356108
 30
0.0
 10
131.33705443124
 20
-193.5461458919147
 30
0.0
 10
131.8203771127438
 20
-193.2960954345944
 30
0.0
 10
132.7284341660558
 20
-192.7675438037152
 30
0.0
 10
133.1531757526484
 20
-192.4890461336845
 30
0.0
 10
133.9418145920712
 20
-191.9025045431238
 30
0.0
 10
134.30493661574
 20
-191.5945982985121
 30
0.0
 10
134.6301442259887
 20
-191.2771857012091
 30
0.0
  0
LWPOLYLINE
  5
178
330
160
100
AcDbEntity
  8
0
  6
Continuous
 62
     7
370
    25
100
AcDbPolyline
 90
       62
 70
   128
 43
0.0
 10
-371.7541858298
 20
-64.9521803745
 10
-366.4585649738
 20
-73.7249986336
 10
-360.9066056185
 20
-82.4073712419
 10
-355.10453714
 20
-90.9895564558
 10
-349.05886954
 20
-99.4619249438
 10
-342.7763861422
 20
-107.81497059
 10
-336.2641359807
 20
-116.0393211604
 10
-329.5294258911
 20
-124.1257488188
 10
-322.5798123124
 20
-132.0651804805
 10
-315.4230928079
 20
-139.848707992
 10
-308.067297317
 20
-147.4675981269
 10
-300.5206791451
 20
-154.9133023839
 10
-292.791705703
 20
-162.1774665787
 10
-284.8890490072
 20
-169.2519402178
 10
-276.8215759486
 20
-176.1287856428
 10
-268.598338345
 20
-182.8002869371
 10
-260.2285627837
 20
-189.258958583
 10
-251.7216402699
 20
-195.4975538606
 10
-243.0871156895
 20
-201.509072979
 10
-234.3346770997
 20
-207.2867709296
 10
-225.4741448589
 20
-212.8241650546
 10
-216.5154606081
 20
-218.1150423205
 10
-207.4686761162
 20
-223.153466289
 10
-198.3439420018
 20
-227.9337837781
 10
-189.151496344
 20
-232.4506312047
 10
-179.9016531954
 20
-236.6989406028
 10
-170.6047910092
 20
-240.6739453101
 10
-161.2713409946
 20
-244.3711853157
 10
-151.911775413
 20
-247.7865122646
 10
-142.5365958278
 20
-250.9160941123
 10
-133.1563213213
 20
-253.7564194241
 10
-123.7814766928
 20
-256.3043013155
 10
-114.4225806488
 20
-258.5568810274
 10
-105.0901340015
 20
-260.5116311338
 10
-95.7946078864
 20
-262.1663583778
 10
-86.5464320137
 20
-263.5192061323
 10
-77.3559829659
 20
-264.5686564833
 10
-68.2335725554
 20
-265.3135319327
 10
-59.1894362539
 20
-265.75299672
 10
-50.2337217088
 20
-265.8865577594
 10
-41.3764773571
 20
-265.7140651937
 10
-32.6276411505
 20
-265.2357125618
 10
-23.9970294056
 20
-264.4520365822
 10
-15.4943257893
 20
-263.3639165503
 10
-7.1290704539
 20
-261.9725733518
 10
1.0893506673
 20
-260.2795680934
 10
9.1517163909
 20
-258.2868003506
 10
17.0489806299
 20
-255.9965060365
 10
24.7722825435
 20
-253.4112548936
 10
32.3129564791
 20
-250.5339476096
 10
39.6625416951
 20
-247.3678125635
 10
46.8127918542
 20
-243.9164022031
 10
53.7556842759
 20
-240.1835890591
 10
60.4834289378
 20
-236.1735613999
 10
66.9884772165
 20
-231.8908185326
 10
73.2635303568
 20
-227.3401657545
 10
79.3015476615
 20
-222.5267089617
 10
85.0957543908
 20
-217.4558489199
 10
90.6396493637
 20
-212.133275205
 10
95.9270122528
 20
-206.5649598189
 10
100.9519105628
 20
-200.7571504895
 10
105.7087062877
 20
-194.7163636598
  0
LWPOLYLINE
  5
17A
330
160
100
AcDbEntity
  8
0
  6
Continuous
 62
     7
370
    25
100
AcDbPolyline
 90
       33
 70
   128
 43
0.0
 10
-15.4009478347
 20
-147.8927288334
 10
-9.5841223696
 20
-149.0525416346
 10
-3.3839474125
 20
-149.4924792522
 10
2.9117545089
 20
-149.2122818941
 10
9.1287467689
 20
-148.24509452
 10
14.9656450687
 20
-146.6670193502
 10
20.2484280405
 20
-144.5564595486
 10
24.7536639579
 20
-142.0237117598
 10
28.2972953664
 20
-139.192406446
 10
30.7668050954
 20
-136.1551025573
 10
32.0426663667
 20
-133.0553259095
 10
32.0916532435
 20
-129.9623143349
 10
30.908652007
 20
-126.9937437763
 10
28.5410761084
 20
-124.2235761008
 10
25.0675300957
 20
-121.7212736083
 10
20.6505184504
 20
-119.5761912241
 10
15.4002812508
 20
-117.8289532257
 10
9.5522549609
 20
-116.5600867739
 10
3.3834440463
 20
-115.8284456756
 10
-2.944074095
 20
-115.6672583246
 10
-9.1405076859
 20
-116.1105235862
 10
-14.9843522143
 20
-117.1690538126
 10
-20.270709952
 20
-118.8386745849
 10
-24.7555003564
 20
-121.0658074079
 10
-28.3136405348
 20
-123.80731288
 10
-30.7676294634
 20
-126.9346617864
 10
-32.0456716669
 20
-130.3450726383
 10
-32.0896907626
 20
-133.8798034149
 10
-30.9054013988
 20
-137.3658809394
 10
-28.5258343816
 20
-140.6691974791
 10
-25.0676337026
 20
-143.5997202487
 10
-20.6250791038
 20
-146.052031592
 10
-15.4009478347
 20
-147.8927288334
  0
LWPOLYLINE
  5
17B
330
160
100
AcDbEntity
  8
0
  6
Continuous
 62
     7
370
    25
100
AcDbPolyline
 90
       62
 70
   128
 43
0.0
 10
273.208884705
 20
-30.5763096963
 10
267.904678694
 20
-37.0947097795
 10
262.3465546922
 20
-43.3696198279
 10
256.540705349
 20
-49.3940485766
 10
250.49359932
 20
-55.1612838371
 10
244.2119740599
 20
-60.6648999761
 10
237.7028283155
 20
-65.8987650748
 10
230.9734143286
 20
-70.8570477605
 10
224.031229755
 20
-75.5342237041
 10
216.8840093118
 20
-79.9250817747
 10
209.5397161589
 20
-84.024729846
 10
202.0065330274
 20
-87.8286002467
 10
194.292853102
 20
-91.3324548497
 10
186.4072706705
 20
-94.5323897939
 10
178.3585715475
 20
-97.4248398342
 10
170.1557232863
 20
-100.006582313
 10
161.807865187
 20
-102.2747407517
 10
153.3242981144
 20
-104.2267880545
 10
144.7144741348
 20
-105.8605493251
 10
135.9879859853
 20
-107.174204289
 10
127.1545563857
 20
-108.1662893219
 10
118.2240272059
 20
-108.8356990808
 10
109.2063485005
 20
-109.1816877346
 10
100.1115674225
 20
-109.2038697963
 10
90.9498170298
 20
-108.9022205512
 10
81.7313049947
 20
-108.2770760855
 10
72.4663022313
 20
-107.3291329113
 10
63.1651314517
 20
-106.0594471906
 10
53.8381556653
 20
-104.4694335588
 10
44.4957666321
 20
-102.5608635484
 10
35.1483732853
 20
-100.3358636151
 10
25.8063901335
 20
-97.7969127689
 10
16.4802256576
 20
-94.9468398119
 10
7.1802707138
 20
-91.7888201865
 10
-2.0831130433
 20
-88.3263724376
 10
-11.2996047053
 20
-84.5633542922
 10
-20.4589356092
 20
-80.5039583613
 10
-29.5509007783
 20
-76.152707469
 10
-38.5653702922
 20
-71.5144496127
 10
-47.4923005734
 20
-66.5943525623
 10
-56.3217455771
 20
-61.3978981018
 10
-65.0438678728
 20
-55.9308759225
 10
-73.648949605
 20
-50.1993771717
 10
-82.1274033203
 20
-44.2097876663
 10
-90.4697826495
 20
-37.9687807782
 10
-98.6667928319
 20
-31.4833099989
 10
-106.7093010721
 20
-24.7606011923
 10
-114.5883467144
 20
-17.8081445437
 10
-122.2951512272
 20
-10.6336862149
 10
-129.8211279832
 20
-3.2452197133
 10
-137.1578918265
 20
4.349023014
 10
-144.297268415
 20
12.1405807517
 10
-151.2313033282
 20
20.1207724438
 10
-157.952270929
 20
28.2807068655
 10
-164.452682972
 20
36.6112925294
 10
-170.7252969466
 20
45.1032478153
 10
-176.7631241456
 20
53.7471113109
 10
-182.5594374527
 20
62.5332523536
 10
-188.1077788369
 20
71.4518817606
 10
-193.4019665483
 20
80.4930627357
 10
-198.436102005
 20
89.6467219403
 10
-203.2045763655
 20
98.902660717
  0
SPLINE
  5
17C
330
160
100
AcDbEntity
  8
0
  6
Continuous
 62
     7
370
    25
100
AcDbSpline
210
0.0
220
0.0
230
1.0
 70
     8
 71
     3
 72
    46
 73
    42
 74
     0
 42
0.000000001
 43
0.00000001
 40
0.0
 40
0.0
 40
0.0
 40
0.0
 40
0.014250163144122
 40
0.0358203867989279
 40
0.0573384139291736
 40
0.0768238262490367
 40
0.0972023924632133
 40
0.1178482427275839
 40
0.136886485477901
 40
0.1873988385848581
 40
0.2377253876823186
 40
0.2713247649558168
 40
0.3046308907524481
 40
0.3386927480380145
 40
0.3577443805104774
 40
0.3784139961223068
 40
0.398771536609596
 40
0.4182395648392778
 40
0.4398828790644504
 40
0.4614977953654996
 40
0.4810031094189192
 40
0.5013617357172937
 40
0.5220253445906846
 40
0.5410880903755291
 40
0.5913941122784011
 40
0.6420645057719079
 40
0.6757257766049131
 40
0.7090679787145066
 40
0.7431270370666704
 40
0.7621894181536438
 40
0.7828528495186802
 40
0.8032103049078653
 40
0.8227155666474346
 40
0.8443229951475292
 40
0.8659742924357376
 40
0.8854426585577101
 40
0.9058019244729281
 40
0.926472277778366
 40
0.9455247899248932
 40
0.9958325432412434
 40
1.0
 40
1.0
 40
1.0
 40
1.0
 10
-20.80921281283688
 20
-145.9503889057572
 30
0.0
 10
-20.98788929412899
 20
-145.727301722128
 30
0.0
 10
-21.43702525187376
 20
-145.1665313557357
 30
0.0
 10
-21.99623093781835
 20
-144.2301270380257
 30
0.0
 10
-22.47535915023223
 20
-143.1892867881524
 30
0.0
 10
-22.79888314175039
 20
-142.1538044610409
 30
0.0
 10
-22.98114772396571
 20
-141.1283696924497
 30
0.0
 10
-23.0196210019044
 20
-140.1135752827439
 30
0.0
 10
-22.87085706440169
 20
-138.6063027527208
 30
0.0
 10
-22.19002623801419
 20
-136.6628089028127
 30
0.0
 10
-20.66689102733815
 20
-134.6895261503558
 30
0.0
 10
-18.83402174178549
 20
-133.1795552439009
 30
0.0
 10
-16.93561932079437
 20
-132.0427551073215
 30
0.0
 10
-15.06271987506332
 20
-131.224187876654
 30
0.0
 10
-13.32107427531071
 20
-130.6363639980046
 30
0.0
 10
-11.82308022561675
 20
-130.2253947794195
 30
0.0
 10
-10.24171207585928
 20
-129.8833288960714
 30
0.0
 10
-8.572618855837787
 20
-129.6065523360315
 30
0.0
 10
-6.813635989029655
 20
-129.3981953385127
 30
0.0
 10
-5.007236485165108
 20
-129.26680138637
 30
0.0
 10
-3.206376629483018
 20
-129.2085198569001
 30
0.0
 10
-1.413353017358121
 20
-129.2167388521116
 30
0.0
 10
0.3761596691660846
 20
-129.2900166434154
 30
0.0
 10
3.053720298636091
 20
-129.4915364153494
 30
0.0
 10
6.589771320652707
 20
-129.9663863995372
 30
0.0
 10
10.33165056282001
 20
-130.8009951908977
 30
0.0
 10
13.32819814165007
 20
-131.7211273115483
 30
0.0
 10
15.67403065432944
 20
-132.6297381100746
 30
0.0
 10
17.45056319207575
 20
-133.4989647390123
 30
0.0
 10
18.78976626683906
 20
-134.294096129146
 30
0.0
 10
19.76772613862374
 20
-134.9728883880526
 30
0.0
 10
20.62929111412359
 20
-135.6860611737527
 30
0.0
 10
21.37722121797764
 20
-136.4369133538897
 30
0.0
 10
22.00274164790411
 20
-137.229179500993
 30
0.0
 10
22.47809750247692
 20
-138.0447418593627
 30
0.0
 10
22.8018461754391
 20
-138.8631364673299
 30
0.0
 10
22.98126033007073
 20
-139.6839673194643
 30
0.0
 10
23.02283126978087
 20
-140.5124954811697
 30
0.0
 10
22.84861006854495
 20
-141.7645334211457
 30
0.0
 10
22.57687402730291
 20
-142.8133557776358
 30
0.0
 10
21.95236536091147
 20
-143.5676927350571
 30
0.0
 10
21.90458926497595
 20
-143.6254009411796
 30
0.0
  0
LWPOLYLINE
  5
17D
330
160
100
AcDbEntity
  8
0
  6
Continuous
 62
     7
370
    25
100
AcDbPolyline
 90
       16
 70
   128
 43
0.0
 10
16.5034166439
 20
-146.0392549778
 10
15.4555201736
 20
-145.5174130368
 10
13.1988338063
 20
-144.5889131359
 10
10.7339939454
 20
-143.8134069699
 10
8.0998725878
 20
-143.2031247342
 10
5.3380114008
 20
-142.7676909443
 10
2.4919665852
 20
-142.5139726511
 10
-0.393378032
 20
-142.4459711437
 10
-3.2725188427
 20
-142.5647588466
 10
-6.1000500763
 20
-142.8684624065
 10
-8.8313798762
 20
-143.3522922371
 10
-11.4234335398
 20
-144.0086180527
 10
-13.8353328325
 20
-144.8270892034
 10
-16.0290406616
 20
-145.7947979099
 10
-17.9699609442
 20
-146.8964828281
 10
-18.0566472701
 20
-146.9527195052
  0
LWPOLYLINE
  5
181
330
160
100
AcDbEntity
  8
0
  6
Continuous
 62
    60
370
    25
100
AcDbPolyline
 90
       56
 70
   128
 43
0.0
 10
-210.473202502
 20
98.0576030001
 10
-205.7332604771
 20
88.7102220362
 10
-200.7264513548
 20
79.4623251392
 10
-195.4582644698
 20
70.3240514618
 10
-189.9344757249
 20
61.3054199687
 10
-184.1611412576
 20
52.4163184519
 10
-178.1445908011
 20
43.6664926902
 10
-171.8914207442
 20
35.0655357641
 10
-165.4084868993
 20
26.6228775381
 10
-158.7028969858
 20
18.3477743222
 10
-151.7820028373
 20
10.2492987236
 10
-144.6533923414
 20
2.3363296995
 10
-137.3248811207
 20
-5.3824571777
 10
-129.8045039633
 20
-12.8985992315
 10
-122.1005060144
 20
-20.20385596
 10
-114.2213337363
 20
-27.2902180706
 10
-106.1756256475
 20
-34.1499162607
 10
-97.9722028525
 20
-40.7754297366
 10
-89.6200593697
 20
-47.1594944582
 10
-81.1283522711
 20
-53.2951111037
 10
-72.5063916427
 20
-59.1755527431
 10
-63.7636303769
 20
-64.7943722139
 10
-54.9096538089
 20
-70.1454091891
 10
-45.9541692074
 20
-75.2227969315
 10
-36.9069951318
 20
-80.0209687258
 10
-27.7780506677
 20
-84.5346639816
 10
-18.5773445512
 20
-88.7589340014
 10
-9.3149641963
 20
-92.6891474059
 10
-0.001064635
 20
-96.3209952117
 10
9.3541426165
 20
-99.6504955556
 10
18.7404007532
 20
-102.6739980605
 10
28.1474189268
 20
-105.3881878373
 10
37.5648835283
 20
-107.7900891189
 10
46.9824694953
 20
-109.8770685238
 10
56.3898516325
 20
-111.646837942
 10
65.7767159319
 20
-113.0974570447
 10
75.1327708805
 20
-114.2273354109
 10
84.4477587439
 20
-115.0352342715
 10
93.7114668128
 20
-115.5202678672
 10
102.9137385995
 20
-115.68190442
 10
112.0444849736
 20
-115.5199667157
 10
121.093695223
 20
-115.0346322986
 10
130.0514480301
 20
-114.2264332767
 10
138.9079223486
 20
-113.0962557383
 10
147.6534081712
 20
-111.6453387804
 10
156.2783171757
 20
-109.8752731506
 10
164.7731932371
 20
-107.7879995027
 10
173.1287227952
 20
-105.3858062689
 10
181.3357450654
 20
-102.6713271511
 10
189.3852620829
 20
-99.6475382335
 10
197.2684485674
 20
-96.3177547191
 10
204.9766615991
 20
-92.6856272957
 10
212.5014500945
 20
-88.755138133
 10
219.8345640721
 20
-84.5305965166
 10
226.9679636971
 20
-80.0166341237
 10
233.8151276944
 20
-75.2751684325
  0
LINE
  5
182
330
160
100
AcDbEntity
  8
0
  6
Continuous
 62
     7
370
    25
100
AcDbLine
 10
112.1676465805
 20
-217.9905971742
 30
0.0
 11
266.8349586895
 21
-67.0305590101
 31
0.0
  0
LINE
  5
183
330
160
100
AcDbEntity
  8
0
  6
Continuous
 62
     7
370
    25
100
AcDbLine
 10
275.9567644206
 20
-34.1436390761
 30
0.0
 11
119.4676016606
 21
-186.8818593269
 31
0.0
  0
LINE
  5
184
330
160
100
AcDbEntity
  8
0
  6
Continuous
 62
     7
370
    25
100
AcDbLine
 10
275.9567644206
 20
-34.1436390761
 30
0.0
 11
276.1033060482
 21
-33.9102369086
 31
0.0
  0
LINE
  5
185
330
160
100
AcDbEntity
  8
0
  6
Continuous
 62
     7
370
    25
100
AcDbLine
 10
273.208884705
 20
-30.5763096963
 30
0.0
 11
-203.2045763655
 21
98.902660717
 31
0.0
  0
LINE
  5
186
330
160
100
AcDbEntity
  8
0
  6
Continuous
 62
     7
370
    25
100
AcDbLine
 10
-210.473202502
 20
98.0576030001
 30
0.0
 11
-366.962365262
 21
-54.6806172507
 31
0.0
  0
LINE
  5
187
330
160
100
AcDbEntity
  8
0
  6
Continuous
 62
     7
370
    25
100
AcDbLine
 10
112.1989755242
 20
-187.7269170438
 30
0.0
 11
-364.2144855464
 21
-58.2479466305
 31
0.0
  0
LINE
  5
188
330
160
100
AcDbEntity
  8
0
  6
Continuous
 62
     7
370
    25
100
AcDbLine
 10
-225.6357450674
 20
102.4529293744
 30
0.0
 11
-382.5648343684
 21
-50.7146726671
 31
0.0
  0
LINE
  5
189
330
160
100
AcDbEntity
  8
0
  6
Continuous
 62
     7
370
    25
100
AcDbLine
 10
280.7485849884
 20
-23.8720759524
 30
0.0
 11
-196.7143071291
 21
105.892107333
 31
0.0
  0
LINE
  5
18A
330
160
100
AcDbEntity
  8
0
  6
Continuous
 62
     7
370
    25
100
AcDbLine
 10
291.5592335271
 20
-38.1095836597
 30
0.0
 11
134.630144226
 21
-191.2771857012
 31
0.0
  0
LINE
  5
18B
330
160
100
AcDbEntity
  8
0
  6
Continuous
 62
     7
370
    25
100
AcDbLine
 10
105.7087062877
 20
-194.7163636598
 30
0.0
 11
-371.7541858298
 21
-64.9521803745
 31
0.0
  0
LINE
  5
18C
330
160
100
AcDbEntity
  8
0
  6
Continuous
 62
     7
370
    25
100
AcDbLine
 10
112.3916716015
 20
-217.7715559995
 30
0.0
 11
112.1676465805
 21
-217.9905971742
 31
0.0
  0
LINE
  5
18D
330
160
100
AcDbEntity
  8
0
  6
Continuous
 62
    60
370
    25
100
AcDbLine
 10
-365.0470849895
 20
-57.9456731938
 30
0.0
 11
-366.962365262
 21
-54.6806172507
 31
0.0
  0
ARC
  5
18E
330
160
100
AcDbEntity
  8
0
  6
Continuous
 62
    60
370
    25
100
AcDbCircle
 10
-12.0976646613
 20
-90.6991508166
 30
0.0
 40
177.8903904153009
100
AcDbArc
 50
314.4117001043
 51
325.5703927756
  0
ARC
  5
18F
330
160
100
AcDbEntity
  8
0
  6
Continuous
 62
    60
370
    25
100
AcDbCircle
 10
118.6091037655
 20
84.7151208201
 30
0.0
 40
212.1265080444215
100
AcDbArc
 50
314.3277300225
 51
324.6186163172
  0
VIEWPORT
  5
1D3
330
160
100
AcDbEntity
  8
0
100
AcDbViewport
 10
0.0
 20
0.0
 30
0.0
 40
205.6
 41
156.0
 68
     1
 69
     1
 12
0.0
 22
-97.5
 13
0.0
 23
0.0
 14
10.0
 24
10.0
 15
10.0
 25
10.0
 16
0.0
 26
0.0
 36
1.0
 17
0.0
 27
0.0
 37
0.0
 42
50.0
 43
0.0
 44
0.0
 45
452.5830937296
 50
0.0
 51
0.0
 72
   100
 90
   557152
  1

281
     0
 71
     1
 74
     0
110
0.0
120
0.0
130
0.0
111
1.0
121
0.0
131
0.0
112
0.0
122
1.0
132
0.0
 79
     0
146
0.0
170
     0
 61
     5
348
2F
292
     1
282
     1
141
0.0
142
0.0
 63
   256
361
1D4
  0
ENDBLK
  5
163
330
160
100
AcDbEntity
  8
0
100
AcDbBlockEnd
  0
BLOCK
  5
192
330
190
100
AcDbEntity
  8
0
100
AcDbBlockBegin
  2
*Paper_Space7
 70
     0
 10
0.0
 20
0.0
 30
0.0
  3
*Paper_Space7
  1

  0
SPLINE
  5
194
330
190
100
AcDbEntity
  8
0
  6
Continuous
 62
     7
370
    25
100
AcDbSpline
210
0.0
220
0.0
230
1.0
 70
     8
 71
     3
 72
    67
 73
    63
 74
     0
 42
0.000000001
 43
0.00000001
 40
0.0
 40
0.0
 40
0.0
 40
0.0
 40
0.0007067275835752
 40
0.0178076244527134
 40
0.0349082392905976
 40
0.0520086749426843
 40
0.069108752409581
 40
0.0862083122002473
 40
0.103307213043668
 40
0.1204053304884809
 40
0.1375025554043784
 40
0.1545987924003404
 40
0.1716939581725486
 40
0.1887879797929931
 40
0.2058807929484089
 40
0.2229723401380772
 40
0.2400625688384575
 40
0.2571514296423755
 40
0.2742388743806516
 40
0.2913248542347557
 40
0.3084093178500478
 40
0.3254922094606001
 40
0.3425734670385074
 40
0.3596530204827467
 40
0.3767307898652664
 40
0.3938066837549491
 40
0.4108805976431775
 40
0.4279524124981933
 40
0.4450219934789608
 40
0.4620891888426724
 40
0.4791538290835193
 40
0.496215726343219
 40
0.5132746741365286
 40
0.5303304474365906
 40
0.5473828031656961
 40
0.5644314811366665
 40
0.5814762054876421
 40
0.5985166866492724
 40
0.6155526238768998
 40
0.6325837083717822
 40
0.6496096270042805
 40
0.6666300666380294
 40
0.6836447190378669
 40
0.700653286325402
 40
0.7176554869256236
 40
0.7346510619255314
 40
0.7516397817432492
 40
0.7686214529832504
 40
0.7855959253323039
 40
0.802563098331861
 40
0.8195229278475327
 40
0.8364754320461891
 40
0.8534206966868001
 40
0.8703588795337017
 40
0.8872902137107305
 40
0.9042150098321655
 40
0.9211336567711957
 40
0.9380466209584933
 40
0.9549544441411284
 40
0.9718577395746445
 40
0.9887571866665251
 40
1.0
 40
1.0
 40
1.0
 40
1.0
 10
-368.2199507482566
 20
-51.55149251625954
 30
0.0
 10
-368.1517721877815
 20
-51.6742960524639
 30
0.0
 10
-366.4338567860282
 20
-54.76861316278475
 30
0.0
 10
-362.899481600279
 20
-60.75924161495723
 30
0.0
 10
-357.5132363173199
 20
-69.46445929791342
 30
0.0
 10
-351.8667488058657
 20
-78.03015771602598
 30
0.0
 10
-345.9850010803563
 20
-86.45707938587665
 30
0.0
 10
-339.8683022270552
 20
-94.7349876901701
 30
0.0
 10
-333.5238510682383
 20
-102.8567546849616
 30
0.0
 10
-326.9572634042038
 20
-110.8146079093036
 30
0.0
 10
-320.1748348577661
 20
-118.6011435936663
 30
0.0
 10
-313.1829272052355
 20
-126.2090625988486
 30
0.0
 10
-305.9881253804757
 20
-133.6312484178596
 30
0.0
 10
-298.5971879491017
 20
-140.8607533784232
 30
0.0
 10
-291.0170528749688
 20
-147.8908093011098
 30
0.0
 10
-283.2548284285151
 20
-154.7148314744493
 30
0.0
 10
-275.3177880304912
 20
-161.3264242986764
 30
0.0
 10
-267.2133639935636
 20
-167.7193863689615
 30
0.0
 10
-258.949141508334
 20
-173.8877156035969
 30
0.0
 10
-250.5328525088518
 20
-179.8256142630129
 30
0.0
 10
-241.9723695099935
 20
-185.5274939088891
 30
0.0
 10
-233.2756993850648
 20
-190.9879802979714
 30
0.0
 10
-224.4509770834559
 20
-196.2019182195695
 30
0.0
 10
-215.5064592777304
 20
-201.1643762813977
 30
0.0
 10
-206.4505179300555
 20
-205.8706516488307
 30
0.0
 10
-197.2916337652623
 20
-210.3162747414326
 30
0.0
 10
-188.038389635863
 20
-214.4970138893842
 30
0.0
 10
-178.6994637621315
 20
-218.4088799506648
 30
0.0
 10
-169.283622828187
 20
-222.0481308876037
 30
0.0
 10
-159.7997149129609
 20
-225.4112762986055
 30
0.0
 10
-150.2566622331279
 20
-228.4950818974326
 30
0.0
 10
-140.6634536736234
 20
-231.2965739284056
 30
0.0
 10
-131.0291370805016
 20
-233.813043501214
 30
0.0
 10
-121.3628112907123
 20
-236.0420508237954
 30
0.0
 10
-111.6736178741217
 20
-237.9814293059837
 30
0.0
 10
-101.9707325649868
 20
-239.6292895004944
 30
0.0
 10
-92.26335636320026
 20
-240.9840228414621
 30
0.0
 10
-82.56070629027742
 20
-242.0443051344187
 30
0.0
 10
-72.87200579121149
 20
-242.8090997455789
 30
0.0
 10
-63.20647478117253
 20
-243.2776604329265
 30
0.0
 10
-53.57331934550044
 20
-243.449533757263
 30
0.0
 10
-43.98172111244971
 20
-243.3245610084977
 30
0.0
 10
-34.44082633050976
 20
-242.9028795814726
 30
0.0
 10
-24.95973469546076
 20
-242.1849237368885
 30
0.0
 10
-15.54748798616364
 20
-241.1714246869842
 30
0.0
 10
-6.213058582221209
 20
-239.86340995215
 30
0.0
 10
3.034662051417961
 20
-238.2622019461543
 30
0.0
 10
12.18687481160742
 20
-236.3694157554681
 30
0.0
 10
21.23488424250809
 20
-234.1869561143307
 30
0.0
 10
30.17010949533025
 20
-231.7170135213152
 30
0.0
 10
38.98409503621389
 20
-228.9620597421726
 30
0.0
 10
47.66852028121908
 20
-225.9248419278084
 30
0.0
 10
56.2152106892504
 20
-222.6083784694025
 30
0.0
 10
64.61614037951993
 20
-219.0159452967593
 30
0.0
 10
72.86346288851182
 20
-215.1510951923341
 30
0.0
 10
80.94943314968197
 20
-211.0175518726037
 30
0.0
 10
88.86673113275012
 20
-206.6195696958185
 30
0.0
 10
96.607283080735
 20
-201.9605557482145
 30
0.0
 10
104.1666828032094
 20
-197.0481734633125
 30
0.0
 10
111.5277186344339
 20
-191.8752682802632
 30
0.0
 10
117.9196175991103
 20
-187.0914002032432
 30
0.0
 10
121.7674278254191
 20
-183.9305616562366
 30
0.0
 10
123.3046253164228
 20
-182.6678088700663
 30
0.0
  0
SPLINE
  5
196
330
190
100
AcDbEntity
  8
0
  6
Continuous
 62
     7
370
    25
100
AcDbSpline
210
0.0
220
0.0
230
1.0
 70
     8
 71
     3
 72
    16
 73
    12
 74
     0
 42
0.000000001
 43
0.00000001
 40
0.0
 40
0.0
 40
0.0
 40
0.0
 40
0.0095289200716474
 40
0.1393609854012756
 40
0.2692183173851744
 40
0.3991042251501305
 40
0.529021790691103
 40
0.6589738403530339
 40
0.7889629203532161
 40
0.9189912766821421
 40
1.0
 40
1.0
 40
1.0
 40
1.0
 10
253.6039044055354
 20
-67.74188618476514
 30
0.0
 10
253.772604601815
 20
-67.5864532258967
 30
0.0
 10
256.23985434409
 20
-65.31323756778764
 30
0.0
 10
260.8087988047352
 20
-60.70293520991809
 30
0.0
 10
267.2869125883317
 20
-53.90051218515552
 30
0.0
 10
273.5186390849601
 20
-46.85093733981918
 30
0.0
 10
279.5261623159287
 20
-39.59248917157105
 30
0.0
 10
285.2999902919282
 20
-32.1259438743628
 30
0.0
 10
290.8220653971923
 20
-24.45014112038164
 30
0.0
 10
295.4725197762714
 20
-17.59638100062884
 30
0.0
 10
298.1685747720888
 20
-13.22385848820046
 30
0.0
 10
299.2034828250788
 20
-11.54542137656461
 30
0.0
  0
SPLINE
  5
199
330
190
100
AcDbEntity
  8
0
  6
Continuous
 62
     7
370
    25
100
AcDbSpline
210
0.0
220
0.0
230
1.0
 70
     8
 71
     3
 72
    20
 73
    16
 74
     0
 42
0.000000001
 43
0.00000001
 40
0.0
 40
0.0
 40
0.0
 40
0.0
 40
0.1249999999999998
 40
0.1249999999999998
 40
0.2499999999999996
 40
0.2499999999999996
 40
0.3749999999999994
 40
0.3749999999999994
 40
0.4999999999999992
 40
0.4999999999999992
 40
0.624999999999999
 40
0.624999999999999
 40
0.7499999999999989
 40
0.7499999999999989
 40
1.0
 40
1.0
 40
1.0
 40
1.0
 10
282.3191206111964
 20
-10.05170074866385
 30
0.0
 10
282.3239303062742
 20
-9.95636585856656
 30
0.0
 10
282.3007946929827
 20
-9.862417698640893
 30
0.0
 10
282.2033564211314
 20
-9.677060441322993
 30
0.0
 10
282.1280514293636
 20
-9.584871687729299
 30
0.0
 10
281.9314103045016
 20
-9.407186348817625
 30
0.0
 10
281.8109898302691
 20
-9.321990231059562
 30
0.0
 10
281.5295941855241
 20
-9.158289642003576
 30
0.0
 10
281.3672701591858
 20
-9.079352156936018
 30
0.0
 10
281.0129377277405
 20
-8.932048206696797
 30
0.0
 10
280.8204180280379
 20
-8.863211697493629
 30
0.0
 10
280.4067536912875
 20
-8.734516602946622
 30
0.0
 10
280.1840692280874
 20
-8.674361938569742
 30
0.0
 10
279.4903361617679
 20
-8.511058048388739
 30
0.0
 10
278.9916494943402
 20
-8.42351972344807
 30
0.0
 10
278.4584170189357
 20
-8.356338746295794
 30
0.0
  0
SPLINE
  5
19B
330
190
100
AcDbEntity
  8
0
  6
Continuous
 62
     7
370
    25
100
AcDbSpline
210
0.0
220
0.0
230
1.0
 70
     8
 71
     3
 72
    24
 73
    20
 74
     0
 42
0.000000001
 43
0.00000001
 40
0.0
 40
0.0
 40
0.0
 40
0.0
 40
0.2499999999999916
 40
0.2499999999999916
 40
0.3749999999999875
 40
0.3749999999999875
 40
0.4999999999999832
 40
0.4999999999999832
 40
0.5624999999999827
 40
0.5624999999999827
 40
0.6249999999999821
 40
0.6249999999999821
 40
0.7499999999999849
 40
0.7499999999999849
 40
0.8124999999999888
 40
0.8124999999999888
 40
0.8749999999999926
 40
0.8749999999999926
 40
1.0
 40
1.0
 40
1.0
 40
1.0
 10
-225.4254084421108
 20
55.12705607137458
 30
0.0
 10
-226.0761148466309
 20
55.20903737242297
 30
0.0
 10
-226.7443723011037
 20
55.25681361061346
 30
0.0
 10
-227.7745710367482
 20
55.27427436423271
 30
0.0
 10
-228.1254326500813
 20
55.27060369886466
 30
0.0
 10
-228.8099149445236
 20
55.24299291283599
 30
0.0
 10
-229.1463529155375
 20
55.21926058818616
 30
0.0
 10
-229.6413876502214
 20
55.16720229800274
 30
0.0
 10
-229.805694390129
 20
55.14693667154974
 30
0.0
 10
-230.1239462016055
 20
55.10138575950202
 30
0.0
 10
-230.2783850462025
 20
55.07608538875247
 30
0.0
 10
-230.7274346733806
 20
54.99249870946888
 30
0.0
 10
-231.0079618493149
 20
54.92662557739192
 30
0.0
 10
-231.3968608259115
 20
54.81063580823228
 30
0.0
 10
-231.5202254305799
 20
54.76928180878965
 30
0.0
 10
-231.7486823266453
 20
54.6830781595356
 30
0.0
 10
-231.8546611974742
 20
54.63797348430499
 30
0.0
 10
-232.1476998388594
 20
54.49661467410896
 30
0.0
 10
-232.3111624374654
 20
54.39329889660144
 30
0.0
 10
-232.4348269795246
 20
54.28423702183713
 30
0.0
  0
SPLINE
  5
19D
330
190
100
AcDbEntity
  8
0
  6
Continuous
 62
     7
370
    25
100
AcDbSpline
210
0.0
220
0.0
230
1.0
 70
     8
 71
     3
 72
    20
 73
    16
 74
     0
 42
0.000000001
 43
0.00000001
 40
0.0
 40
0.0
 40
0.0
 40
0.0
 40
0.1249999999999976
 40
0.1249999999999976
 40
0.2499999999999952
 40
0.2499999999999952
 40
0.3749999999999928
 40
0.3749999999999928
 40
0.4999999999999905
 40
0.4999999999999905
 40
0.624999999999988
 40
0.624999999999988
 40
0.7499999999999857
 40
0.7499999999999857
 40
1.0
 40
1.0
 40
1.0
 40
1.0
 10
-350.9859748686254
 20
-50.26804796596479
 30
0.0
 10
-351.1091476569516
 20
-50.37667615470117
 30
0.0
 10
-351.1904694538767
 20
-50.48796659575143
 30
0.0
 10
-351.2727514114998
 20
-50.71565949419438
 30
0.0
 10
-351.2723853242432
 20
-50.83284849547526
 30
0.0
 10
-351.1925300812175
 20
-51.06048650143868
 30
0.0
 10
-351.1131411982197
 20
-51.17322315767189
 30
0.0
 10
-350.8833503826124
 20
-51.39118805408219
 30
0.0
 10
-350.7354151036433
 20
-51.49471882449899
 30
0.0
 10
-350.3799414844265
 20
-51.69194568154489
 30
0.0
 10
-350.1717247595468
 20
-51.78547894531255
 30
0.0
 10
-349.7145823861649
 20
-51.95680380046657
 30
0.0
 10
-349.4640237287385
 20
-52.03557007886639
 30
0.0
 10
-348.6493867129676
 20
-52.25212181566183
 30
0.0
 10
-348.0506546968522
 20
-52.36378632335309
 30
0.0
 10
-347.4013281688081
 20
-52.44559377630653
 30
0.0
  0
SPLINE
  5
19F
330
190
100
AcDbEntity
  8
0
  6
Continuous
 62
     7
370
    25
100
AcDbSpline
210
0.0
220
0.0
230
1.0
 70
     8
 71
     3
 72
    24
 73
    20
 74
     0
 42
0.000000001
 43
0.00000001
 40
0.0
 40
0.0
 40
0.0
 40
0.0
 40
0.2499999999999921
 40
0.2499999999999921
 40
0.3749999999999882
 40
0.3749999999999882
 40
0.4999999999999842
 40
0.4999999999999842
 40
0.5624999999999839
 40
0.5624999999999839
 40
0.6249999999999836
 40
0.6249999999999836
 40
0.749999999999983
 40
0.749999999999983
 40
0.8124999999999872
 40
0.8124999999999872
 40
0.8749999999999915
 40
0.8749999999999915
 40
1.0
 40
1.0
 40
1.0
 40
1.0
 10
156.4824972922385
 20
-115.928988593977
 30
0.0
 10
157.1332036967584
 20
-116.0109698950254
 30
0.0
 10
157.8014611512313
 20
-116.0587461332158
 30
0.0
 10
158.8316598868759
 20
-116.076206886835
 30
0.0
 10
159.1825215002089
 20
-116.072536221467
 30
0.0
 10
159.8670037946512
 20
-116.0449254354383
 30
0.0
 10
160.2034417656652
 20
-116.0211931107885
 30
0.0
 10
160.6984765003492
 20
-115.9691348206051
 30
0.0
 10
160.8627832402566
 20
-115.9488691941521
 30
0.0
 10
161.1810350517331
 20
-115.9033182821044
 30
0.0
 10
161.3354738963301
 20
-115.8780179113548
 30
0.0
 10
161.7845235235083
 20
-115.7944312320712
 30
0.0
 10
162.0650506994425
 20
-115.7285580999943
 30
0.0
 10
162.4539496760394
 20
-115.6125683308346
 30
0.0
 10
162.5773142807076
 20
-115.571214331392
 30
0.0
 10
162.8057711767727
 20
-115.4850106821379
 30
0.0
 10
162.9117500476018
 20
-115.4399060069073
 30
0.0
 10
163.2047886889869
 20
-115.2985471967113
 30
0.0
 10
163.3682512875933
 20
-115.1952314192038
 30
0.0
 10
163.4919158296523
 20
-115.0861695444395
 30
0.0
  0
SPLINE
  5
1A0
330
190
100
AcDbEntity
  8
0
  6
Continuous
 62
     7
370
    25
100
AcDbSpline
210
0.0
220
0.0
230
1.0
 70
     8
 71
     3
 72
    32
 73
    28
 74
     0
 42
0.000000001
 43
0.00000001
 40
0.0
 40
0.0
 40
0.0
 40
0.0
 40
0.1249999999999935
 40
0.1249999999999935
 40
0.1874999999999927
 40
0.1874999999999927
 40
0.249999999999992
 40
0.249999999999992
 40
0.3124999999999912
 40
0.3124999999999912
 40
0.3437499999999894
 40
0.3437499999999894
 40
0.3749999999999876
 40
0.3749999999999876
 40
0.4999999999999901
 40
0.4999999999999901
 40
0.562499999999991
 40
0.562499999999991
 40
0.6249999999999919
 40
0.6249999999999919
 40
0.749999999999998
 40
0.749999999999998
 40
0.8124999999999987
 40
0.8124999999999987
 40
0.8749999999999993
 40
0.8749999999999993
 40
1.0
 40
1.0
 40
1.0
 40
1.0
 10
-367.4220848381115
 20
-48.36524714931794
 30
0.0
 10
-367.9129475136666
 20
-48.79814733846255
 30
0.0
 10
-368.2402859743744
 20
-49.24149329976296
 30
0.0
 10
-368.4954394544186
 20
-49.92157838560269
 30
0.0
 10
-368.5408572041991
 20
-50.15157509006043
 30
0.0
 10
-368.5500779572178
 20
-50.61343801381241
 30
0.0
 10
-368.5141192646536
 20
-50.84236722026914
 30
0.0
 10
-368.3655452419936
 20
-51.2964423033839
 30
0.0
 10
-368.2529123394241
 20
-51.52158731276602
 30
0.0
 10
-368.0278451831427
 20
-51.85653517556054
 30
0.0
 10
-367.9434511530594
 20
-51.96772193279436
 30
0.0
 10
-367.7559371008838
 20
-52.18917124022844
 30
0.0
 10
-367.6524872947388
 20
-52.29972892795367
 30
0.0
 10
-367.0937502000535
 20
-52.84495975022303
 30
0.0
 10
-366.5145466961957
 20
-53.25922039476714
 30
0.0
 10
-365.4664270071937
 20
-53.85087701329499
 30
0.0
 10
-365.0851856469748
 20
-54.04386284203599
 30
0.0
 10
-364.2713901923242
 20
-54.41612809149206
 30
0.0
 10
-363.840724554964
 20
-54.59472950673702
 30
0.0
 10
-362.4819236191401
 20
-55.10936592171267
 30
0.0
 10
-361.4874985182718
 20
-55.42439602922669
 30
0.0
 10
-359.8696812766898
 20
-55.85695934415596
 30
0.0
 10
-359.3131806387574
 20
-55.99333056063925
 30
0.0
 10
-358.1756322485032
 20
-56.24930178923433
 30
0.0
 10
-357.5933100602886
 20
-56.36924148540576
 30
0.0
 10
-355.8072373214923
 20
-56.70583609532684
 30
0.0
 10
-354.564665439438
 20
-56.89943569360977
 30
0.0
 10
-353.2706256336401
 20
-57.06246938461201
 30
0.0
  0
SPLINE
  5
1A2
330
190
100
AcDbEntity
  8
0
  6
Continuous
 62
     7
370
    25
100
AcDbSpline
210
0.0
220
0.0
230
1.0
 70
     8
 71
     3
 72
    32
 73
    28
 74
     0
 42
0.000000001
 43
0.00000001
 40
0.0
 40
0.0
 40
0.0
 40
0.0
 40
0.124999999999996
 40
0.124999999999996
 40
0.2499999999999921
 40
0.2499999999999921
 40
0.3124999999999901
 40
0.3124999999999901
 40
0.3749999999999881
 40
0.3749999999999881
 40
0.4999999999999886
 40
0.4999999999999886
 40
0.5624999999999883
 40
0.5624999999999883
 40
0.6249999999999881
 40
0.6249999999999881
 40
0.7499999999999868
 40
0.7499999999999868
 40
0.7812499999999875
 40
0.7812499999999875
 40
0.812499999999988
 40
0.812499999999988
 40
0.874999999999992
 40
0.874999999999992
 40
0.937499999999996
 40
0.937499999999996
 40
1.0
 40
1.0
 40
1.0
 40
1.0
 10
-220.6660530207574
 20
59.88377123278821
 30
0.0
 10
-221.9627060393854
 20
60.04713415766036
 30
0.0
 10
-223.2770602502668
 20
60.1755269633849
 30
0.0
 10
-225.9407128076033
 20
60.36327764390756
 30
0.0
 10
-227.2899941285519
 20
60.42266915395395
 30
0.0
 10
-229.3422679187619
 20
60.45574515621455
 30
0.0
 10
-230.0312125932091
 20
60.45738129277181
 30
0.0
 10
-231.4189745825089
 20
60.44035022308356
 30
0.0
 10
-232.1068090983016
 20
60.4218130523975
 30
0.0
 10
-234.1520173969514
 20
60.33587838454346
 30
0.0
 10
-235.4912876940223
 20
60.23847556588024
 30
0.0
 10
-237.4602321871338
 20
60.02613872163559
 30
0.0
 10
-238.1133218931065
 20
59.94364727451865
 30
0.0
 10
-239.3771534199156
 20
59.75869706325035
 30
0.0
 10
-239.9901786753065
 20
59.6561313914496
 30
0.0
 10
-241.7719517377331
 20
59.31782552618184
 30
0.0
 10
-242.8841147615331
 20
59.05185996774034
 30
0.0
 10
-244.1683672350942
 20
58.66280800039286
 30
0.0
 10
-244.4196538895453
 20
58.58215640485492
 30
0.0
 10
-244.9039588826583
 20
58.41743278384054
 30
0.0
 10
-245.1379419351303
 20
58.33307793541193
 30
0.0
 10
-245.8156082005112
 20
58.07408927531915
 30
0.0
 10
-246.235072774447
 20
57.89354702418476
 30
0.0
 10
-247.0090225130572
 20
57.516609983429
 30
0.0
 10
-247.3635156795399
 20
57.3202171459487
 30
0.0
 10
-248.0050204810305
 20
56.91096850853533
 30
0.0
 10
-248.2912959673023
 20
56.69823313426365
 30
0.0
 10
-248.537662775184
 20
56.48095803260644
 30
0.0
  0
SPLINE
  5
1A4
330
190
100
AcDbEntity
  8
0
  6
Continuous
 62
     7
370
    25
100
AcDbSpline
210
0.0
220
0.0
230
1.0
 70
     8
 71
     3
 72
    32
 73
    28
 74
     0
 42
0.000000001
 43
0.00000001
 40
0.0
 40
0.0
 40
0.0
 40
0.0
 40
0.124999999999994
 40
0.124999999999994
 40
0.187499999999991
 40
0.187499999999991
 40
0.249999999999988
 40
0.249999999999988
 40
0.312499999999985
 40
0.312499999999985
 40
0.3437499999999826
 40
0.3437499999999826
 40
0.3749999999999802
 40
0.3749999999999802
 40
0.4999999999999823
 40
0.4999999999999823
 40
0.5624999999999815
 40
0.5624999999999815
 40
0.6249999999999805
 40
0.6249999999999805
 40
0.7499999999999836
 40
0.7499999999999836
 40
0.8124999999999877
 40
0.8124999999999877
 40
0.8749999999999918
 40
0.8749999999999918
 40
1.0
 40
1.0
 40
1.0
 40
1.0
 10
298.4791736882393
 20
-12.43668537328439
 30
0.0
 10
298.9700363637943
 20
-12.00378518413978
 30
0.0
 10
299.297374824502
 20
-11.56043922283941
 30
0.0
 10
299.5525283045463
 20
-10.88035413699966
 30
0.0
 10
299.5979460543266
 20
-10.65035743254195
 30
0.0
 10
299.6071668073453
 20
-10.18849450878992
 30
0.0
 10
299.5712081147811
 20
-9.959565302333232
 30
0.0
 10
299.4226340921211
 20
-9.505490219218427
 30
0.0
 10
299.3100011895519
 20
-9.28034520983631
 30
0.0
 10
299.0849340332703
 20
-8.945397347041778
 30
0.0
 10
299.0005400031868
 20
-8.834210589807975
 30
0.0
 10
298.8130259510115
 20
-8.612761282373926
 30
0.0
 10
298.7095761448663
 20
-8.502203594648664
 30
0.0
 10
298.1508390501812
 20
-7.956972772379306
 30
0.0
 10
297.5716355463232
 20
-7.542712127835194
 30
0.0
 10
296.5235158573215
 20
-6.951055509307357
 30
0.0
 10
296.1422744971024
 20
-6.758069680566317
 30
0.0
 10
295.328479042452
 20
-6.385804431110254
 30
0.0
 10
294.8978134050915
 20
-6.207203015865318
 30
0.0
 10
293.5390124692676
 20
-5.692566600889681
 30
0.0
 10
292.5445873683993
 20
-5.377536493375635
 30
0.0
 10
290.9267701268175
 20
-4.944973178446388
 30
0.0
 10
290.3702694888851
 20
-4.808601961963061
 30
0.0
 10
289.232721098631
 20
-4.552630733368035
 30
0.0
 10
288.6503989104161
 20
-4.432691037196568
 30
0.0
 10
286.86432617162
 20
-4.096096427275528
 30
0.0
 10
285.6217542895657
 20
-3.902496828992588
 30
0.0
 10
284.3277144837676
 20
-3.739463137990326
 30
0.0
  0
SPLINE
  5
1A6
330
190
100
AcDbEntity
  8
0
  6
Continuous
 62
     7
370
    25
100
AcDbSpline
210
0.0
220
0.0
230
1.0
 70
     8
 71
     3
 72
    32
 73
    28
 74
     0
 42
0.000000001
 43
0.00000001
 40
0.0
 40
0.0
 40
0.0
 40
0.0
 40
0.124999999999997
 40
0.124999999999997
 40
0.2499999999999941
 40
0.2499999999999941
 40
0.3124999999999926
 40
0.3124999999999926
 40
0.3749999999999911
 40
0.3749999999999911
 40
0.4999999999999902
 40
0.4999999999999902
 40
0.5624999999999933
 40
0.5624999999999933
 40
0.6249999999999963
 40
0.6249999999999963
 40
0.7500000000000064
 40
0.7500000000000064
 40
0.7812500000000068
 40
0.7812500000000068
 40
0.812500000000007
 40
0.812500000000007
 40
0.8750000000000047
 40
0.8750000000000047
 40
0.9375000000000022
 40
0.9375000000000022
 40
1.0
 40
1.0
 40
1.0
 40
1.0
 10
151.723141870885
 20
-120.6857037553905
 30
0.0
 10
153.0197948895131
 20
-120.8490666802627
 30
0.0
 10
154.3341491003944
 20
-120.9774594859873
 30
0.0
 10
156.997801657731
 20
-121.1652101665099
 30
0.0
 10
158.3470829786796
 20
-121.2246016765563
 30
0.0
 10
160.3993567688896
 20
-121.2576776788168
 30
0.0
 10
161.0883014433366
 20
-121.2593138153742
 30
0.0
 10
162.4760634326365
 20
-121.2422827456859
 30
0.0
 10
163.1638979484292
 20
-121.2237455749999
 30
0.0
 10
165.2091062470791
 20
-121.1378109071458
 30
0.0
 10
166.5483765441499
 20
-121.0404080884826
 30
0.0
 10
168.5173210372614
 20
-120.8280712442379
 30
0.0
 10
169.1704107432341
 20
-120.745579797121
 30
0.0
 10
170.4342422700432
 20
-120.5606295858527
 30
0.0
 10
171.0472675254341
 20
-120.458063914052
 30
0.0
 10
172.8290405878609
 20
-120.1197580487842
 30
0.0
 10
173.9412036116607
 20
-119.8537924903427
 30
0.0
 10
175.2254560852217
 20
-119.4647405229952
 30
0.0
 10
175.4767427396729
 20
-119.3840889274573
 30
0.0
 10
175.961047732786
 20
-119.2193653064429
 30
0.0
 10
176.1950307852579
 20
-119.1350104580143
 30
0.0
 10
176.8726970506389
 20
-118.8760217979215
 30
0.0
 10
177.2921616245747
 20
-118.6954795467871
 30
0.0
 10
178.0661113631848
 20
-118.3185425060313
 30
0.0
 10
178.4206045296675
 20
-118.122149668551
 30
0.0
 10
179.0621093311582
 20
-117.7129010311377
 30
0.0
 10
179.34838481743
 20
-117.500165656866
 30
0.0
 10
179.5947516253117
 20
-117.2828905552088
 30
0.0
  0
LWPOLYLINE
  5
1A8
330
190
100
AcDbEntity
  8
0
  6
Continuous
 62
     7
370
    25
100
AcDbPolyline
 90
       62
 70
   128
 43
0.0
 10
-353.2706256336
 20
-57.0624693846
 10
-347.7505040509
 20
-65.9882898294
 10
-341.9574981352
 20
-74.7687984978
 10
-335.8981077203
 20
-83.3941435364
 10
-329.5791315267
 20
-91.8546471875
 10
-323.0076595341
 20
-100.1408166478
 10
-316.1910650258
 20
-108.2433547194
 10
-309.1369963162
 20
-116.1531702414
 10
-301.8533681688
 20
-123.8613882903
 10
-294.3483529164
 20
-131.3593601377
 10
-286.6303712907
 20
-138.6386729544
 10
-278.7080829751
 20
-145.6911592498
 10
-270.5903768877
 20
-152.5089060356
 10
-262.2863612081
 20
-159.0842637047
 10
-253.8053531581
 20
-165.409854614
 10
-245.1568685471
 20
-171.478581362
 10
-236.3506110957
 20
-177.2836347526
 10
-227.3964615478
 20
-182.8185014347
 10
-218.3044665843
 20
-188.0769712106
 10
-209.0848275506
 20
-193.0531440037
 10
-199.7478890105
 20
-197.7414364787
 10
-190.3041271396
 20
-202.1365883058
 10
-180.7641379705
 20
-206.2336680633
 10
-171.1386255044
 20
-210.0280787705
 10
-161.4383897008
 20
-213.5155630455
 10
-151.6743143598
 20
-216.6922078823
 10
-141.8573549104
 20
-219.5544490409
 10
-131.9985261182
 20
-222.0990750468
 10
-122.1088897269
 20
-224.323230794
 10
-112.1995420467
 20
-226.2244207488
 10
-102.2816015042
 20
-227.8005117495
 10
-92.3661961672
 20
-229.0497353998
 10
-82.464451259
 20
-229.9706900535
 10
-72.5874766758
 20
-230.5623423864
 10
-62.7463545211
 20
-230.8240285566
 10
-52.9521266714
 20
-230.7554549483
 10
-43.2157823872
 20
-230.3566985022
 10
-33.5482459829
 20
-229.6282066286
 10
-23.9603645694
 20
-228.5707967054
 10
-14.4628958835
 20
-227.1856551616
 10
-5.0664962179
 20
-225.4743361451
 10
4.2182915357
 20
-223.4387597798
 10
13.3810497158
 20
-221.0812100109
 10
22.4114975796
 20
-218.4043320421
 10
31.2995028385
 20
-215.411129368
 10
40.0350930263
 20
-212.1049604037
 10
48.6084666889
 20
-208.4895347171
 10
57.0100043811
 20
-204.5689088662
 10
65.2302794604
 20
-200.3474818481
 10
73.2600686632
 20
-195.8299901628
 10
81.0903624538
 20
-191.0215024991
 10
88.7123751333
 20
-185.9274140474
 10
96.1175546967
 20
-180.5534404461
 10
103.2975924294
 20
-174.9056113687
 10
110.2444322285
 20
-168.9902637583
 10
116.9502796427
 20
-162.8140347175
 10
123.4076106176
 20
-156.3838540617
 10
129.6091799376
 20
-149.7069365434
 10
135.5480293553
 20
-142.7907737573
 10
141.2174953986
 20
-135.6431257348
 10
146.6112168474
 20
-128.2720122367
 10
151.7231418709
 20
-120.6857037554
  0
LWPOLYLINE
  5
1AA
330
190
100
AcDbEntity
  8
0
  6
Continuous
 62
     7
370
    25
100
AcDbPolyline
 90
        3
 70
   128
 43
0.0
 10
245.9795718656
 20
-74.7364733152
 10
247.9314873264
 20
-72.9984184234
 10
253.4996253952
 20
-67.8515266229
  0
LWPOLYLINE
  5
1B0
330
190
100
AcDbEntity
  8
0
  6
Continuous
 62
    60
370
    25
100
AcDbPolyline
 90
        3
 70
   128
 43
0.0
 10
278.4584170189
 20
-8.3563387463
 10
272.9287510887
 20
-16.2518264842
 10
267.7279156061
 20
-23.1586585193
  0
LINE
  5
1B3
330
190
100
AcDbEntity
  8
0
  6
Continuous
 62
     7
370
    25
100
AcDbLine
 10
130.1611649648
 20
-176.8787072854
 30
0.0
 11
245.9795718656
 21
-74.7364733152
 31
0.0
  0
LINE
  5
1B4
330
190
100
AcDbEntity
  8
0
  6
Continuous
 62
     7
370
    25
100
AcDbLine
 10
282.0430637188
 20
-10.5338845566
 30
0.0
 11
163.4919158297
 21
-115.0861695444
 31
0.0
  0
LINE
  5
1B5
330
190
100
AcDbEntity
  8
0
  6
Continuous
 62
     7
370
    25
100
AcDbLine
 10
282.0430637188
 20
-10.5338845566
 30
0.0
 11
282.1592859635
 21
-10.3308811683
 31
0.0
  0
LINE
  5
1B6
330
190
100
AcDbEntity
  8
0
  6
Continuous
 62
     7
370
    25
100
AcDbLine
 10
278.4584170189
 20
-8.3563387463
 30
0.0
 11
-225.4254084421
 21
55.1270560714
 31
0.0
  0
LINE
  5
1B7
330
190
100
AcDbEntity
  8
0
  6
Continuous
 62
     7
370
    25
100
AcDbLine
 10
-232.4348269795
 20
54.2842370218
 30
0.0
 11
-350.9859748686
 21
-50.268047966
 31
0.0
  0
LINE
  5
1B8
330
190
100
AcDbEntity
  8
0
  6
Continuous
 62
     7
370
    25
100
AcDbLine
 10
156.4824972922
 20
-115.928988594
 30
0.0
 11
-347.4013281688
 21
-52.4455937763
 31
0.0
  0
LINE
  5
1B9
330
190
100
AcDbEntity
  8
0
  6
Continuous
 62
     7
370
    25
100
AcDbLine
 10
-248.5376627752
 20
56.4809580326
 30
0.0
 11
-367.4220848381
 21
-48.3652471493
 31
0.0
  0
LINE
  5
1BA
330
190
100
AcDbEntity
  8
0
  6
Continuous
 62
     7
370
    25
100
AcDbLine
 10
284.3277144838
 20
-3.739463138
 30
0.0
 11
-220.6660530208
 21
59.8837712328
 31
0.0
  0
LINE
  5
1BB
330
190
100
AcDbEntity
  8
0
  6
Continuous
 62
     7
370
    25
100
AcDbLine
 10
298.4791736882
 20
-12.4366853733
 30
0.0
 11
179.5947516253
 21
-117.2828905552
 31
0.0
  0
LINE
  5
1BC
330
190
100
AcDbEntity
  8
0
  6
Continuous
 62
     7
370
    25
100
AcDbLine
 10
151.7231418709
 20
-120.6857037554
 30
0.0
 11
-353.2706256336
 21
-57.0624693846
 31
0.0
  0
LINE
  5
1BD
330
190
100
AcDbEntity
  8
0
  6
Continuous
 62
    60
370
    25
100
AcDbLine
 10
-350.0758833795
 20
-51.7967746586
 30
0.0
 11
-350.9859748686
 21
-50.268047966
 31
0.0
  0
ARC
  5
1BE
330
190
100
AcDbEntity
  8
0
  6
Continuous
 62
     7
370
    25
100
AcDbCircle
 10
-35.1296752326
 20
10.5388416916
 30
0.0
 40
249.89274459227
100
AcDbArc
 50
309.3914791195
 51
313.3938095326
  0
ARC
  5
1BF
330
190
100
AcDbEntity
  8
0
  6
Continuous
 62
    60
370
    25
100
AcDbCircle
 10
-35.5315463459
 20
10.8475016837
 30
0.0
 40
250.3931338796687
100
AcDbArc
 50
313.4121078467
 51
329.2217421967
  0
ARC
  5
1C0
330
190
100
AcDbEntity
  8
0
  6
Continuous
 62
    60
370
    25
100
AcDbCircle
 10
61.3517055164
 20
134.0746827997
 30
0.0
 40
278.7382592424097
100
AcDbArc
 50
313.5785928601
 51
328.2897762585
  0
ARC
  5
1C1
330
190
100
AcDbEntity
  8
0
  6
Continuous
 62
    60
370
    25
100
AcDbCircle
 10
80.2594290338
 20
218.1364889246
 30
0.0
 40
353.0230278569857
100
AcDbArc
 50
207.6546048565
 51
238.5868091502
  0
ARC
  5
1C2
330
190
100
AcDbEntity
  8
0
  6
Continuous
 62
    60
370
    25
100
AcDbCircle
 10
61.7046909747
 20
135.4278704978
 30
0.0
 40
264.6172894383669
100
AcDbArc
 50
288.9661804828
 51
296.087385455
  0
ARC
  5
1C3
330
190
100
AcDbEntity
  8
0
  6
Continuous
 62
    60
370
    25
100
AcDbCircle
 10
62.7279929682
 20
137.4080114798
 30
0.0
 40
260.6311730997783
100
AcDbArc
 50
285.9771444282
 51
300.6155219882
  0
ARC
  5
1C4
330
190
100
AcDbEntity
  8
0
  6
Continuous
 62
    60
370
    25
100
AcDbCircle
 10
80.1029777005
 20
217.7397663108
 30
0.0
 40
346.1076252703892
100
AcDbArc
 50
208.0234429366
 51
241.0854202061
  0
VIEWPORT
  5
1D5
330
190
100
AcDbEntity
  8
0
100
AcDbViewport
 10
0.0
 20
0.0
 30
0.0
 40
205.6
 41
156.0
 68
     1
 69
     1
 12
0.0
 22
-97.5
 13
0.0
 23
0.0
 14
10.0
 24
10.0
 15
10.0
 25
10.0
 16
0.0
 26
0.0
 36
1.0
 17
0.0
 27
0.0
 37
0.0
 42
50.0
 43
0.0
 44
0.0
 45
452.5830937296
 50
0.0
 51
0.0
 72
   100
 90
   557152
  1

281
     0
 71
     1
 74
     0
110
0.0
120
0.0
130
0.0
111
1.0
121
0.0
131
0.0
112
0.0
122
1.0
132
0.0
 79
     0
146
0.0
170
     0
 61
     5
348
2F
292
     1
282
     1
141
0.0
142
0.0
 63
   256
361
1D6
  0
ENDBLK
  5
193
330
190
100
AcDbEntity
  8
0
100
AcDbBlockEnd
  0
ENDSEC
  0
SECTION
  2
ENTITIES
  0
SPLINE
  5
74
330
1F
100
AcDbEntity
  8
0
  6
Continuous
 62
     7
370
    25
100
AcDbSpline
210
0.0
220
0.0
230
1.0
 70
     8
 71
     3
 72
    20
 73
    16
 74
     0
 42
0.000000001
 43
0.00000001
 40
0.0
 40
0.0
 40
0.0
 40
0.0
 40
0.1249999999999976
 40
0.1249999999999976
 40
0.2499999999999952
 40
0.2499999999999952
 40
0.3749999999999928
 40
0.3749999999999928
 40
0.4999999999999905
 40
0.4999999999999905
 40
0.624999999999988
 40
0.624999999999988
 40
0.7499999999999857
 40
0.7499999999999857
 40
1.0
 40
1.0
 40
1.0
 40
1.0
 10
275.0
 20
70.15664121812648
 30
0.0
 10
275.0000000000001
 20
70.50502647373858
 30
0.0
 10
274.9580282372223
 20
70.84608609647327
 30
0.0
 10
274.7934911720819
 20
71.51413877327323
 30
0.0
 10
274.6688510225796
 20
71.8428701611899
 30
0.0
 10
274.3527067160815
 20
72.45344463933367
 30
0.0
 10
274.1588699347877
 20
72.74174288758273
 30
0.0
 10
273.7127336246527
 20
73.2721620393151
 30
0.0
 10
273.4645418775826
 20
73.51039152385414
 30
0.0
 10
272.9228360822096
 20
73.93817911559425
 30
0.0
 10
272.6288601629135
 20
74.12704045708668
 30
0.0
 10
272.0195251780571
 20
74.44619540352964
 30
0.0
 10
271.7016047608258
 20
74.57864686128669
 30
0.0
 10
270.7098938065506
 20
74.89832598668839
 30
0.0
 10
270.0313931929226
 20
75.00000000000001
 30
0.0
 10
269.3372339357783
 20
75.00000000000001
 30
0.0
  0
SPLINE
  5
76
330
1F
100
AcDbEntity
  8
0
  6
Continuous
 62
     7
370
    25
100
AcDbSpline
210
0.0
220
0.0
230
1.0
 70
     8
 71
     3
 72
    24
 73
    20
 74
     0
 42
0.000000001
 43
0.00000001
 40
0.0
 40
0.0
 40
0.0
 40
0.0
 40
0.2499999999999916
 40
0.2499999999999916
 40
0.3749999999999875
 40
0.3749999999999875
 40
0.4999999999999832
 40
0.4999999999999832
 40
0.5624999999999827
 40
0.5624999999999827
 40
0.6249999999999821
 40
0.6249999999999821
 40
0.7499999999999849
 40
0.7499999999999849
 40
0.8124999999999888
 40
0.8124999999999888
 40
0.8749999999999926
 40
0.8749999999999926
 40
1.0
 40
1.0
 40
1.0
 40
1.0
 10
-269.3372339357783
 20
74.99999999999999
 30
0.0
 10
-270.0328683429251
 20
75.00000000000001
 30
0.0
 10
-270.7086403061509
 20
74.89780704717558
 30
0.0
 10
-271.6908229093832
 20
74.58257590961895
 30
0.0
 10
-272.0151305676499
 20
74.44822681748018
 30
0.0
 10
-272.6261194648974
 20
74.12874320538943
 30
0.0
 10
-272.9156564382266
 20
73.94319574914893
 30
0.0
 10
-273.3235028761678
 20
73.6220863257348
 30
0.0
 10
-273.4557028151057
 20
73.50712484755456
 30
0.0
 10
-273.7050860872342
 20
73.26677891063255
 30
0.0
 10
-273.8227153025761
 20
73.14117754415186
 30
0.0
 10
-274.1541057046214
 20
72.74784998890831
 30
0.0
 10
-274.3466458420514
 20
72.46381263625662
 30
0.0
 10
-274.5874017957036
 20
72.0008206020013
 30
0.0
 10
-274.6589362766354
 20
71.84115525460486
 30
0.0
 10
-274.7812053573963
 20
71.5184751536008
 30
0.0
 10
-274.8324987810407
 20
71.35443128352142
 30
0.0
 10
-274.9566776704306
 20
70.8541393009345
 30
0.0
 10
-274.9999999999998
 20
70.5064173633359
 30
0.0
 10
-274.9999999999999
 20
70.15664121812648
 30
0.0
  0
SPLINE
  5
78
330
1F
100
AcDbEntity
  8
0
  6
Continuous
 62
     7
370
    25
100
AcDbSpline
210
0.0
220
0.0
230
1.0
 70
     8
 71
     3
 72
    20
 73
    16
 74
     0
 42
0.000000001
 43
0.00000001
 40
0.0
 40
0.0
 40
0.0
 40
0.0
 40
0.1249999999999976
 40
0.1249999999999976
 40
0.2499999999999952
 40
0.2499999999999952
 40
0.3749999999999928
 40
0.3749999999999928
 40
0.4999999999999905
 40
0.4999999999999905
 40
0.624999999999988
 40
0.624999999999988
 40
0.7499999999999857
 40
0.7499999999999857
 40
1.0
 40
1.0
 40
1.0
 40
1.0
 10
-275.0
 20
-265.1566412181265
 30
0.0
 10
-275.0000000000001
 20
-265.5050264737386
 30
0.0
 10
-274.9580282372223
 20
-265.8460860964733
 30
0.0
 10
-274.793491172082
 20
-266.5141387732732
 30
0.0
 10
-274.6688510225797
 20
-266.8428701611899
 30
0.0
 10
-274.3527067160815
 20
-267.4534446393336
 30
0.0
 10
-274.1588699347877
 20
-267.7417428875827
 30
0.0
 10
-273.7127336246527
 20
-268.272162039315
 30
0.0
 10
-273.4645418775826
 20
-268.5103915238541
 30
0.0
 10
-272.9228360822096
 20
-268.9381791155943
 30
0.0
 10
-272.6288601629135
 20
-269.1270404570867
 30
0.0
 10
-272.0195251780571
 20
-269.4461954035297
 30
0.0
 10
-271.7016047608258
 20
-269.5786468612868
 30
0.0
 10
-270.7098938065506
 20
-269.8983259866883
 30
0.0
 10
-270.0313931929226
 20
-269.9999999999999
 30
0.0
 10
-269.3372339357783
 20
-269.9999999999999
 30
0.0
  0
SPLINE
  5
7A
330
1F
100
AcDbEntity
  8
0
  6
Continuous
 62
     7
370
    25
100
AcDbSpline
210
0.0
220
0.0
230
1.0
 70
     8
 71
     3
 72
    24
 73
    20
 74
     0
 42
0.000000001
 43
0.00000001
 40
0.0
 40
0.0
 40
0.0
 40
0.0
 40
0.2499999999999921
 40
0.2499999999999921
 40
0.3749999999999882
 40
0.3749999999999882
 40
0.4999999999999842
 40
0.4999999999999842
 40
0.5624999999999839
 40
0.5624999999999839
 40
0.6249999999999836
 40
0.6249999999999836
 40
0.749999999999983
 40
0.749999999999983
 40
0.8124999999999872
 40
0.8124999999999872
 40
0.8749999999999915
 40
0.8749999999999915
 40
1.0
 40
1.0
 40
1.0
 40
1.0
 10
269.3372339357783
 20
-270.0
 30
0.0
 10
270.0328683429251
 20
-270.0000000000001
 30
0.0
 10
270.7086403061509
 20
-269.8978070471756
 30
0.0
 10
271.6908229093833
 20
-269.5825759096189
 30
0.0
 10
272.0151305676499
 20
-269.4482268174802
 30
0.0
 10
272.6261194648974
 20
-269.1287432053895
 30
0.0
 10
272.9156564382267
 20
-268.9431957491489
 30
0.0
 10
273.3235028761679
 20
-268.6220863257348
 30
0.0
 10
273.4557028151057
 20
-268.5071248475545
 30
0.0
 10
273.7050860872341
 20
-268.2667789106325
 30
0.0
 10
273.8227153025761
 20
-268.1411775441518
 30
0.0
 10
274.1541057046214
 20
-267.7478499889082
 30
0.0
 10
274.3466458420514
 20
-267.4638126362567
 30
0.0
 10
274.5874017957038
 20
-267.0008206020012
 30
0.0
 10
274.6589362766353
 20
-266.8411552546048
 30
0.0
 10
274.7812053573961
 20
-266.5184751536009
 30
0.0
 10
274.8324987810407
 20
-266.3544312835214
 30
0.0
 10
274.9566776704305
 20
-265.8541393009345
 30
0.0
 10
275.0000000000001
 20
-265.506417363336
 30
0.0
 10
275.0
 20
-265.1566412181265
 30
0.0
  0
SPLINE
  5
7B
330
1F
100
AcDbEntity
  8
0
  6
Continuous
 62
     7
370
    25
100
AcDbSpline
210
0.0
220
0.0
230
1.0
 70
     8
 71
     3
 72
    32
 73
    28
 74
     0
 42
0.000000001
 43
0.00000001
 40
0.0
 40
0.0
 40
0.0
 40
0.0
 40
0.1249999999999935
 40
0.1249999999999935
 40
0.1874999999999927
 40
0.1874999999999927
 40
0.249999999999992
 40
0.249999999999992
 40
0.3124999999999912
 40
0.3124999999999912
 40
0.3437499999999894
 40
0.3437499999999894
 40
0.3749999999999876
 40
0.3749999999999876
 40
0.4999999999999901
 40
0.4999999999999901
 40
0.562499999999991
 40
0.562499999999991
 40
0.6249999999999919
 40
0.6249999999999919
 40
0.749999999999998
 40
0.749999999999998
 40
0.8124999999999987
 40
0.8124999999999987
 40
0.8749999999999993
 40
0.8749999999999993
 40
1.0
 40
1.0
 40
1.0
 40
1.0
 10
-292.3927981108576
 20
-265.6279620748491
 30
0.0
 10
-292.3927981108577
 20
-267.0163313812328
 30
0.0
 10
-292.2287557997635
 20
-268.3761995224449
 30
0.0
 10
-291.7460908616357
 20
-270.3748939397325
 30
0.0
 10
-291.5446269323153
 20
-271.0363781904575
 30
0.0
 10
-291.0633725489268
 20
-272.3357378345514
 30
0.0
 10
-290.7869201805649
 20
-272.9654555093411
 30
0.0
 10
-290.1663225525568
 20
-274.1871717018973
 30
0.0
 10
-289.8221617752515
 20
-274.7791615730691
 30
0.0
 10
-289.2563648705975
 20
-275.6395334258844
 30
0.0
 10
-289.0594901190514
 20
-275.9217126941304
 30
0.0
 10
-288.6492043239684
 20
-276.4768570431008
 30
0.0
 10
-288.4351717550793
 20
-276.7505337551807
 30
0.0
 10
-287.334216443051
 20
-278.0830405615948
 30
0.0
 10
-286.3530314094619
 20
-279.0407772498551
 30
0.0
 10
-284.7450586046377
 20
-280.3305432484567
 30
0.0
 10
-284.1837475844591
 20
-280.737319211833
 30
0.0
 10
-283.0276647174409
 20
-281.4942658352907
 30
0.0
 10
-282.4353784938376
 20
-281.8432015176402
 30
0.0
 10
-280.6184822558089
 20
-282.8069876978369
 30
0.0
 10
-279.3541428617596
 20
-283.3394563786808
 30
0.0
 10
-277.3820107236837
 20
-283.9813493999335
 30
0.0
 10
-276.7168085250983
 20
-284.1672874897974
 30
0.0
 10
-275.381230953467
 20
-284.4834208784516
 30
0.0
 10
-274.7093031654497
 20
-284.6141188321395
 30
0.0
 10
-272.6815726045047
 20
-284.927213041312
 30
0.0
 10
-271.3139096560221
 20
-285.0311850648475
 30
0.0
 10
-269.9305229137407
 20
-285.0311850648475
 30
0.0
  0
SPLINE
  5
7D
330
1F
100
AcDbEntity
  8
0
  6
Continuous
 62
     7
370
    25
100
AcDbSpline
210
0.0
220
0.0
230
1.0
 70
     8
 71
     3
 72
    32
 73
    28
 74
     0
 42
0.000000001
 43
0.00000001
 40
0.0
 40
0.0
 40
0.0
 40
0.0
 40
0.124999999999996
 40
0.124999999999996
 40
0.2499999999999921
 40
0.2499999999999921
 40
0.3124999999999901
 40
0.3124999999999901
 40
0.3749999999999881
 40
0.3749999999999881
 40
0.4999999999999886
 40
0.4999999999999886
 40
0.5624999999999883
 40
0.5624999999999883
 40
0.6249999999999881
 40
0.6249999999999881
 40
0.7499999999999868
 40
0.7499999999999868
 40
0.7812499999999875
 40
0.7812499999999875
 40
0.812499999999988
 40
0.812499999999988
 40
0.874999999999992
 40
0.874999999999992
 40
0.937499999999996
 40
0.937499999999996
 40
1.0
 40
1.0
 40
1.0
 40
1.0
 10
-269.9305229137406
 20
90.03118506484748
 30
0.0
 10
-271.3167032980473
 20
90.0311850648475
 30
0.0
 10
-272.6823502189592
 20
89.92679209481497
 30
0.0
 10
-275.373108704837
 20
89.51192274265185
 30
0.0
 10
-276.6982400194678
 20
89.2015467686284
 30
0.0
 10
-278.653048764476
 20
88.56877771300297
 30
0.0
 10
-279.2992328819349
 20
88.3297903843046
 30
0.0
 10
-280.5793011792631
 20
87.79134910697306
 30
0.0
 10
-281.2030498148633
 20
87.49614307556861
 30
0.0
 10
-283.025019519891
 20
86.53189918364507
 30
0.0
 10
-284.1744808795365
 20
85.78505964727162
 30
0.0
 10
-285.7910425726028
 20
84.49306385452621
 30
0.0
 10
-286.3144566607974
 20
84.03067072527021
 30
0.0
 10
-287.3004934799607
 20
83.06482356065715
 30
0.0
 10
-287.7651387756857
 20
82.5602622004242
 30
0.0
 10
-289.0730073037141
 20
80.98094181299695
 30
0.0
 10
-289.8312414771663
 20
79.84136880765058
 30
0.0
 10
-290.6198977392297
 20
78.29554261545543
 30
0.0
 10
-290.7694109457653
 20
77.98037138807268
 30
0.0
 10
-291.0477210003504
 20
77.34688920058203
 30
0.0
 10
-291.1771202764976
 20
77.0274434926943
 30
0.0
 10
-291.5363200667205
 20
76.06106716189126
 30
0.0
 10
-291.7371992720193
 20
75.40611860375307
 30
0.0
 10
-292.061360854757
 20
74.07470910212565
 30
0.0
 10
-292.1846527877607
 20
73.39825080775236
 30
0.0
 10
-292.3506518525041
 20
72.02299346944108
 30
0.0
 10
-292.3927981108576
 20
71.32479263705868
 30
0.0
 10
-292.3927981108576
 20
70.62796207484907
 30
0.0
  0
SPLINE
  5
7F
330
1F
100
AcDbEntity
  8
0
  6
Continuous
 62
     7
370
    25
100
AcDbSpline
210
0.0
220
0.0
230
1.0
 70
     8
 71
     3
 72
    32
 73
    28
 74
     0
 42
0.000000001
 43
0.00000001
 40
0.0
 40
0.0
 40
0.0
 40
0.0
 40
0.124999999999994
 40
0.124999999999994
 40
0.187499999999991
 40
0.187499999999991
 40
0.249999999999988
 40
0.249999999999988
 40
0.312499999999985
 40
0.312499999999985
 40
0.3437499999999826
 40
0.3437499999999826
 40
0.3749999999999802
 40
0.3749999999999802
 40
0.4999999999999823
 40
0.4999999999999823
 40
0.5624999999999815
 40
0.5624999999999815
 40
0.6249999999999805
 40
0.6249999999999805
 40
0.7499999999999836
 40
0.7499999999999836
 40
0.8124999999999877
 40
0.8124999999999877
 40
0.8749999999999918
 40
0.8749999999999918
 40
1.0
 40
1.0
 40
1.0
 40
1.0
 10
292.3927981108577
 20
70.6279620748491
 30
0.0
 10
292.3927981108577
 20
72.01633138123287
 30
0.0
 10
292.2287557997635
 20
73.37619952244484
 30
0.0
 10
291.7460908616358
 20
75.37489393973246
 30
0.0
 10
291.5446269323153
 20
76.03637819045733
 30
0.0
 10
291.0633725489268
 20
77.33573783455137
 30
0.0
 10
290.7869201805649
 20
77.96545550934103
 30
0.0
 10
290.1663225525568
 20
79.18717170189737
 30
0.0
 10
289.8221617752516
 20
79.77916157306922
 30
0.0
 10
289.2563648705975
 20
80.6395334258844
 30
0.0
 10
289.0594901190512
 20
80.92171269413035
 30
0.0
 10
288.6492043239684
 20
81.47685704310074
 30
0.0
 10
288.4351717550792
 20
81.75053375518068
 30
0.0
 10
287.3342164430509
 20
83.08304056159477
 30
0.0
 10
286.3530314094618
 20
84.0407772498551
 30
0.0
 10
284.7450586046378
 20
85.33054324845673
 30
0.0
 10
284.1837475844591
 20
85.73731921183314
 30
0.0
 10
283.027664717441
 20
86.49426583529075
 30
0.0
 10
282.4353784938375
 20
86.8432015176402
 30
0.0
 10
280.6184822558088
 20
87.80698769783679
 30
0.0
 10
279.3541428617594
 20
88.3394563786808
 30
0.0
 10
277.3820107236837
 20
88.98134939993346
 30
0.0
 10
276.7168085250983
 20
89.16728748979752
 30
0.0
 10
275.3812309534671
 20
89.48342087845157
 30
0.0
 10
274.7093031654496
 20
89.61411883213947
 30
0.0
 10
272.6815726045048
 20
89.92721304131196
 30
0.0
 10
271.3139096560221
 20
90.03118506484748
 30
0.0
 10
269.9305229137406
 20
90.03118506484748
 30
0.0
  0
SPLINE
  5
81
330
1F
100
AcDbEntity
  8
0
  6
Continuous
 62
     7
370
    25
100
AcDbSpline
210
0.0
220
0.0
230
1.0
 70
     8
 71
     3
 72
    32
 73
    28
 74
     0
 42
0.000000001
 43
0.00000001
 40
0.0
 40
0.0
 40
0.0
 40
0.0
 40
0.124999999999997
 40
0.124999999999997
 40
0.2499999999999941
 40
0.2499999999999941
 40
0.3124999999999926
 40
0.3124999999999926
 40
0.3749999999999911
 40
0.3749999999999911
 40
0.4999999999999902
 40
0.4999999999999902
 40
0.5624999999999933
 40
0.5624999999999933
 40
0.6249999999999963
 40
0.6249999999999963
 40
0.7500000000000064
 40
0.7500000000000064
 40
0.7812500000000068
 40
0.7812500000000068
 40
0.812500000000007
 40
0.812500000000007
 40
0.8750000000000047
 40
0.8750000000000047
 40
0.9375000000000022
 40
0.9375000000000022
 40
1.0
 40
1.0
 40
1.0
 40
1.0
 10
269.9305229137406
 20
-285.0311850648475
 30
0.0
 10
271.3167032980472
 20
-285.0311850648474
 30
0.0
 10
272.6823502189592
 20
-284.926792094815
 30
0.0
 10
275.373108704837
 20
-284.5119227426518
 30
0.0
 10
276.6982400194678
 20
-284.2015467686284
 30
0.0
 10
278.653048764476
 20
-283.5687777130029
 30
0.0
 10
279.2992328819349
 20
-283.3297903843048
 30
0.0
 10
280.579301179263
 20
-282.7913491069731
 30
0.0
 10
281.2030498148633
 20
-282.4961430755687
 30
0.0
 10
283.025019519891
 20
-281.531899183645
 30
0.0
 10
284.1744808795365
 20
-280.7850596472716
 30
0.0
 10
285.7910425726027
 20
-279.4930638545262
 30
0.0
 10
286.3144566607974
 20
-279.0306707252703
 30
0.0
 10
287.3004934799606
 20
-278.0648235606571
 30
0.0
 10
287.7651387756858
 20
-277.5602622004243
 30
0.0
 10
289.0730073037142
 20
-275.9809418129969
 30
0.0
 10
289.8312414771662
 20
-274.8413688076507
 30
0.0
 10
290.6198977392297
 20
-273.2955426154555
 30
0.0
 10
290.7694109457653
 20
-272.9803713880728
 30
0.0
 10
291.0477210003505
 20
-272.346889200582
 30
0.0
 10
291.1771202764975
 20
-272.0274434926943
 30
0.0
 10
291.5363200667205
 20
-271.0610671618912
 30
0.0
 10
291.7371992720193
 20
-270.4061186037532
 30
0.0
 10
292.0613608547569
 20
-269.0747091021257
 30
0.0
 10
292.1846527877606
 20
-268.3982508077524
 30
0.0
 10
292.3506518525042
 20
-267.0229934694411
 30
0.0
 10
292.3927981108577
 20
-266.3247926370587
 30
0.0
 10
292.3927981108577
 20
-265.6279620748491
 30
0.0
  0
LWPOLYLINE
  5
83
330
1F
100
AcDbEntity
  8
0
  6
Continuous
 62
     7
370
    25
100
AcDbPolyline
 90
       33
 70
   128
 43
0.0
 10
0.0
 20
-33.0
 10
6.2425403802
 20
-32.3661612379
 10
12.259283184
 20
-30.4830087391
 10
17.7737299813
 20
-27.4432845924
 10
22.6334609594
 20
-23.3314845576
 10
26.6025626589
 20
-18.3463210329
 10
29.5640220467
 20
-12.6389266902
 10
31.388474875
 20
-6.4429006686
 10
32.0043752936
 20
-0.0170434858
 10
31.3888681026
 20
6.440863565
 10
29.574178741
 20
12.6136381332
 10
26.6130276851
 20
18.3301774328
 10
22.639696823
 20
23.3250512553
 10
17.7986311985
 20
27.4261208468
 10
12.2577037484
 20
30.4836840215
 10
6.2734411806
 20
32.3598084386
 10
-0.0007536928
 20
32.9999999908
 10
-6.2750456276
 20
32.3594776946
 10
-12.2597475561
 20
30.4828101789
 10
-17.8005262279
 20
27.4248132293
 10
-22.6420710835
 20
23.322600889
 10
-26.6142225167
 20
18.3283329485
 10
-29.5749097873
 20
12.6118156521
 10
-31.3890309745
 20
6.4400196157
 10
-32.0043748113
 20
-0.0179806335
 10
-31.3883304026
 20
-6.4436489356
 10
-29.5633484019
 20
-12.640601863
 10
-26.6011010903
 20
-18.3485740483
 10
-22.6316305027
 20
-23.3333722968
 10
-17.7715476012
 20
-27.4447871924
 10
-12.257855022
 20
-30.4836193494
 10
-6.2411775026
 20
-32.3664406768
 10
0.0
 20
-33.0
  0
LWPOLYLINE
  5
84
330
1F
100
AcDbEntity
  8
0
  6
Continuous
 62
     7
370
    25
100
AcDbPolyline
 90
       63
 70
   128
 43
0.0
 10
275.0
 20
-265.1566412181
 10
269.3385352207
 20
-264.5841906916
 10
263.3817747047
 20
-264.0239584057
 10
257.1362492886
 20
-263.4765585844
 10
250.6088064034
 20
-262.9425913826
 10
243.806602567
 20
-262.422642228
 10
236.7370955381
 20
-261.9172811793
 10
229.4080361396
 20
-261.4270623012
 10
221.8274597609
 20
-260.9525230568
 10
214.0036775478
 20
-260.4941837185
 10
205.945267291
 20
-260.0525467976
 10
197.6610640211
 20
-259.6280964934
 10
189.160150322
 20
-259.2212981621
 10
180.4518463737
 20
-258.8325978066
 10
171.5456997332
 20
-258.462421588
 10
162.4514748671
 20
-258.1111753578
 10
153.1791424461
 20
-257.7792442132
 10
143.7388684133
 20
-257.4669920747
 10
134.1410028386
 20
-257.1747612876
 10
124.3960685712
 20
-256.902872246
 10
114.5147497027
 20
-256.6516230419
 10
104.5078798529
 20
-256.4212891385
 10
94.3864302926
 20
-256.2121230678
 10
84.1614979149
 20
-256.0243541539
 10
73.8442930686
 20
-255.858188262
 10
63.4461272677
 20
-255.7138075718
 10
52.9784007896
 20
-255.5913703786
 10
42.4525901763
 20
-255.4910109194
 10
31.8802356517
 20
-255.4128392256
 10
21.2729284693
 20
-255.3569410027
 10
10.6422982036
 20
-255.323377536
 10
0.0
 20
-255.3121856235
 10
-10.6422982036
 20
-255.323377536
 10
-21.2729284693
 20
-255.3569410027
 10
-31.8802356518
 20
-255.4128392256
 10
-42.4525901763
 20
-255.4910109194
 10
-52.9784007896
 20
-255.5913703786
 10
-63.4461272677
 20
-255.7138075718
 10
-73.8442930686
 20
-255.858188262
 10
-84.1614979149
 20
-256.0243541539
 10
-94.3864302926
 20
-256.2121230678
 10
-104.5078798529
 20
-256.4212891385
 10
-114.5147497027
 20
-256.6516230419
 10
-124.3960685713
 20
-256.902872246
 10
-134.1410028386
 20
-257.1747612876
 10
-143.7388684133
 20
-257.4669920747
 10
-153.1791424461
 20
-257.7792442132
 10
-162.4514748671
 20
-258.1111753578
 10
-171.5456997332
 20
-258.462421588
 10
-180.4518463737
 20
-258.8325978066
 10
-189.160150322
 20
-259.2212981621
 10
-197.6610640211
 20
-259.6280964934
 10
-205.945267291
 20
-260.0525467976
 10
-214.0036775478
 20
-260.4941837185
 10
-221.8274597609
 20
-260.9525230568
 10
-229.4080361396
 20
-261.4270623012
 10
-236.7370955381
 20
-261.9172811793
 10
-243.806602567
 20
-262.422642228
 10
-250.6088064034
 20
-262.9425913826
 10
-257.1362492886
 20
-263.4765585844
 10
-263.3817747047
 20
-264.0239584057
 10
-269.3385352207
 20
-264.5841906916
 10
-275.0
 20
-265.1566412181
  0
LWPOLYLINE
  5
85
330
1F
100
AcDbEntity
  8
0
  6
Continuous
 62
     7
370
    25
100
AcDbPolyline
 90
       63
 70
   128
 43
0.0
 10
-275.0
 20
70.1566412181
 10
-269.3385352207
 20
69.5841906916
 10
-263.3817747047
 20
69.0239584057
 10
-257.1362492886
 20
68.4765585844
 10
-250.6088064034
 20
67.9425913826
 10
-243.806602567
 20
67.422642228
 10
-236.7370955381
 20
66.9172811793
 10
-229.4080361396
 20
66.4270623012
 10
-221.8274597609
 20
65.9525230568
 10
-214.0036775478
 20
65.4941837185
 10
-205.945267291
 20
65.0525467976
 10
-197.6610640211
 20
64.6280964934
 10
-189.160150322
 20
64.2212981621
 10
-180.4518463737
 20
63.8325978066
 10
-171.5456997332
 20
63.462421588
 10
-162.4514748671
 20
63.1111753578
 10
-153.1791424461
 20
62.7792442132
 10
-143.7388684133
 20
62.4669920747
 10
-134.1410028386
 20
62.1747612876
 10
-124.3960685712
 20
61.902872246
 10
-114.5147497027
 20
61.6516230419
 10
-104.5078798529
 20
61.4212891385
 10
-94.3864302926
 20
61.2121230678
 10
-84.1614979149
 20
61.0243541539
 10
-73.8442930686
 20
60.858188262
 10
-63.4461272677
 20
60.7138075718
 10
-52.9784007896
 20
60.5913703786
 10
-42.4525901763
 20
60.4910109194
 10
-31.8802356517
 20
60.4128392256
 10
-21.2729284693
 20
60.3569410027
 10
-10.6422982036
 20
60.323377536
 10
0.0
 20
60.3121856235
 10
10.6422982036
 20
60.323377536
 10
21.2729284693
 20
60.3569410027
 10
31.8802356517
 20
60.4128392256
 10
42.4525901763
 20
60.4910109194
 10
52.9784007896
 20
60.5913703786
 10
63.4461272677
 20
60.7138075718
 10
73.8442930686
 20
60.858188262
 10
84.1614979149
 20
61.0243541539
 10
94.3864302926
 20
61.2121230678
 10
104.5078798529
 20
61.4212891385
 10
114.5147497027
 20
61.6516230419
 10
124.3960685712
 20
61.902872246
 10
134.1410028386
 20
62.1747612876
 10
143.7388684133
 20
62.4669920747
 10
153.1791424461
 20
62.7792442132
 10
162.4514748671
 20
63.1111753578
 10
171.5456997332
 20
63.462421588
 10
180.4518463737
 20
63.8325978066
 10
189.160150322
 20
64.2212981621
 10
197.6610640211
 20
64.6280964934
 10
205.945267291
 20
65.0525467976
 10
214.0036775478
 20
65.4941837185
 10
221.8274597609
 20
65.9525230568
 10
229.4080361396
 20
66.4270623012
 10
236.7370955381
 20
66.9172811793
 10
243.806602567
 20
67.422642228
 10
250.6088064034
 20
67.9425913826
 10
257.1362492886
 20
68.4765585844
 10
263.3817747047
 20
69.0239584057
 10
269.3385352207
 20
69.5841906916
 10
275.0
 20
70.1566412181
  0
LWPOLYLINE
  5
86
330
1F
100
AcDbEntity
  8
0
  6
Continuous
 62
     7
370
    25
100
AcDbPolyline
 90
       62
 70
   128
 43
0.0
 10
-269.3372339358
 20
-270.0
 10
-263.6427099744
 20
-269.4260371292
 10
-257.6544453748
 20
-268.8646553825
 10
-251.3791120328
 20
-268.3164802302
 10
-244.823701685
 20
-267.7821224279
 10
-237.9955181193
 20
-267.2621773368
 10
-230.9021690371
 20
-266.7572242599
 10
-223.551557577
 20
-266.2678257964
 10
-215.9518735095
 20
-265.7945272156
 10
-208.1115841124
 20
-265.3378558487
 10
-200.0394247366
 20
-264.8983205014
 10
-191.7443890739
 20
-264.4764108871
 10
-183.2357191361
 20
-264.0725970816
 10
-174.5228949584
 20
-263.6873289987
 10
-165.6156240367
 20
-263.3210358895
 10
-156.523830512
 20
-262.9741258636
 10
-147.2576441135
 20
-262.646985435
 10
-137.827388872
 20
-262.3399790911
 10
-128.243571618
 20
-262.0534488866
 10
-118.5168702744
 20
-261.7877140625
 10
-108.6581219604
 20
-261.5430706904
 10
-98.678310917
 20
-261.3197913427
 10
-88.5885562683
 20
-261.1181247886
 10
-78.4000996337
 20
-260.9382957172
 10
-68.1242926024
 20
-260.7805044874
 10
-57.7725840862
 20
-260.6449269041
 10
-47.3565075633
 20
-260.5317140225
 10
-36.8876682283
 20
-260.4409919803
 10
-26.3777300622
 20
-260.3728618564
 10
-15.8384028368
 20
-260.3273995588
 10
-5.2814290678
 20
-260.3046557398
 10
5.2814290678
 20
-260.3046557398
 10
15.8384028368
 20
-260.3273995588
 10
26.3777300622
 20
-260.3728618564
 10
36.8876682283
 20
-260.4409919803
 10
47.3565075633
 20
-260.5317140225
 10
57.7725840862
 20
-260.6449269041
 10
68.1242926024
 20
-260.7805044874
 10
78.4000996337
 20
-260.9382957172
 10
88.5885562683
 20
-261.1181247886
 10
98.678310917
 20
-261.3197913427
 10
108.6581219605
 20
-261.5430706904
 10
118.5168702744
 20
-261.7877140625
 10
128.243571618
 20
-262.0534488866
 10
137.827388872
 20
-262.3399790911
 10
147.2576441135
 20
-262.646985435
 10
156.523830512
 20
-262.9741258636
 10
165.6156240367
 20
-263.3210358895
 10
174.5228949584
 20
-263.6873289987
 10
183.2357191361
 20
-264.0725970816
 10
191.7443890739
 20
-264.4764108871
 10
200.0394247366
 20
-264.8983205014
 10
208.1115841124
 20
-265.3378558487
 10
215.9518735095
 20
-265.7945272156
 10
223.551557577
 20
-266.2678257964
 10
230.9021690371
 20
-266.7572242599
 10
237.9955181193
 20
-267.2621773368
 10
244.823701685
 20
-267.7821224279
 10
251.3791120328
 20
-268.3164802302
 10
257.6544453748
 20
-268.8646553825
 10
263.6427099744
 20
-269.4260371292
 10
269.3372339358
 20
-270.0
  0
LWPOLYLINE
  5
87
330
1F
100
AcDbEntity
  8
0
  6
Continuous
 62
     7
370
    25
100
AcDbPolyline
 90
       62
 70
   128
 43
0.0
 10
269.3372339358
 20
75.0
 10
263.6427099744
 20
74.4260371292
 10
257.6544453748
 20
73.8646553825
 10
251.3791120328
 20
73.3164802302
 10
244.823701685
 20
72.7821224279
 10
237.9955181193
 20
72.2621773368
 10
230.9021690371
 20
71.7572242599
 10
223.551557577
 20
71.2678257964
 10
215.9518735095
 20
70.7945272156
 10
208.1115841124
 20
70.3378558487
 10
200.0394247366
 20
69.8983205014
 10
191.7443890739
 20
69.4764108871
 10
183.2357191361
 20
69.0725970816
 10
174.5228949584
 20
68.6873289987
 10
165.6156240367
 20
68.3210358895
 10
156.523830512
 20
67.9741258636
 10
147.2576441135
 20
67.646985435
 10
137.827388872
 20
67.3399790911
 10
128.243571618
 20
67.0534488866
 10
118.5168702744
 20
66.7877140625
 10
108.6581219604
 20
66.5430706904
 10
98.678310917
 20
66.3197913427
 10
88.5885562683
 20
66.1181247886
 10
78.4000996337
 20
65.9382957172
 10
68.1242926024
 20
65.7805044874
 10
57.7725840862
 20
65.6449269041
 10
47.3565075633
 20
65.5317140225
 10
36.8876682283
 20
65.4409919803
 10
26.3777300622
 20
65.3728618564
 10
15.8384028368
 20
65.3273995588
 10
5.2814290678
 20
65.3046557398
 10
-5.2814290678
 20
65.3046557398
 10
-15.8384028368
 20
65.3273995588
 10
-26.3777300622
 20
65.3728618564
 10
-36.8876682283
 20
65.4409919803
 10
-47.3565075633
 20
65.5317140225
 10
-57.7725840862
 20
65.6449269041
 10
-68.1242926024
 20
65.7805044874
 10
-78.4000996337
 20
65.9382957172
 10
-88.5885562683
 20
66.1181247886
 10
-98.678310917
 20
66.3197913427
 10
-108.6581219604
 20
66.5430706904
 10
-118.5168702744
 20
66.7877140625
 10
-128.243571618
 20
67.0534488866
 10
-137.827388872
 20
67.3399790911
 10
-147.2576441135
 20
67.646985435
 10
-156.523830512
 20
67.9741258636
 10
-165.6156240367
 20
68.3210358895
 10
-174.5228949584
 20
68.6873289987
 10
-183.2357191361
 20
69.0725970816
 10
-191.7443890739
 20
69.4764108871
 10
-200.0394247366
 20
69.8983205014
 10
-208.1115841124
 20
70.3378558487
 10
-215.9518735095
 20
70.7945272156
 10
-223.551557577
 20
71.2678257964
 10
-230.9021690371
 20
71.7572242599
 10
-237.9955181193
 20
72.2621773368
 10
-244.823701685
 20
72.7821224279
 10
-251.3791120328
 20
73.3164802302
 10
-257.6544453748
 20
73.8646553825
 10
-263.6427099744
 20
74.4260371292
 10
-269.3372339358
 20
75.0
  0
CIRCLE
  5
88
330
1F
100
AcDbEntity
  8
0
  6
Continuous
 62
     7
370
    25
100
AcDbCircle
 10
0.0
 20
0.0
 30
0.0
 40
23.0
  0
LINE
  5
89
330
1F
100
AcDbEntity
  8
0
  6
Continuous
 62
     7
370
    25
100
AcDbLine
 10
275.0
 20
70.1566412181
 30
0.0
 11
275.0
 21
-265.1566412181
 31
0.0
  0
LINE
  5
8A
330
1F
100
AcDbEntity
  8
0
  6
Continuous
 62
     7
370
    25
100
AcDbLine
 10
269.3372339358
 20
75.0
 30
0.0
 11
-269.3372339358
 21
75.0
 31
0.0
  0
LINE
  5
8B
330
1F
100
AcDbEntity
  8
0
  6
Continuous
 62
     7
370
    25
100
AcDbLine
 10
-275.0
 20
70.1566412181
 30
0.0
 11
-275.0
 21
-265.1566412181
 31
0.0
  0
LINE
  5
8C
330
1F
100
AcDbEntity
  8
0
  6
Continuous
 62
     7
370
    25
100
AcDbLine
 10
269.3372339358
 20
-270.0
 30
0.0
 11
-269.3372339358
 21
-270.0
 31
0.0
  0
LINE
  5
8D
330
1F
100
AcDbEntity
  8
0
  6
Continuous
 62
     7
370
    25
100
AcDbLine
 10
-292.3927981109
 20
70.6279620748
 30
0.0
 11
-292.3927981109
 21
-265.6279620748
 31
0.0
  0
LINE
  5
8E
330
1F
100
AcDbEntity
  8
0
  6
Continuous
 62
     7
370
    25
100
AcDbLine
 10
269.9305229137
 20
90.0311850648
 30
0.0
 11
-269.9305229137
 21
90.0311850648
 31
0.0
  0
LINE
  5
8F
330
1F
100
AcDbEntity
  8
0
  6
Continuous
 62
     7
370
    25
100
AcDbLine
 10
292.3927981109
 20
70.6279620748
 30
0.0
 11
292.3927981109
 21
-265.6279620748
 31
0.0
  0
LINE
  5
90
330
1F
100
AcDbEntity
  8
0
  6
Continuous
 62
     7
370
    25
100
AcDbLine
 10
269.9305229137
 20
-285.0311850648
 30
0.0
 11
-269.9305229137
 21
-285.0311850648
 31
0.0
  0
SPLINE
  5
97
330
1B
100
AcDbEntity
 67
     1
  8
0
  6
Continuous
 62
     7
370
    25
100
AcDbSpline
210
0.0
220
0.0
230
1.0
 70
    24
 71
     3
 72
    32
 73
    28
 74
     0
 42
0.000000001
 43
0.00000001
 40
0.0
 40
0.0
 40
0.0
 40
0.0
 40
0.1249999999999935
 40
0.1249999999999935
 40
0.1874999999999927
 40
0.1874999999999927
 40
0.249999999999992
 40
0.249999999999992
 40
0.3124999999999912
 40
0.3124999999999912
 40
0.3437499999999894
 40
0.3437499999999894
 40
0.3749999999999876
 40
0.3749999999999876
 40
0.4999999999999901
 40
0.4999999999999901
 40
0.562499999999991
 40
0.562499999999991
 40
0.6249999999999919
 40
0.6249999999999919
 40
0.749999999999998
 40
0.749999999999998
 40
0.8124999999999987
 40
0.8124999999999987
 40
0.8749999999999993
 40
0.8749999999999993
 40
1.0
 40
1.0
 40
1.0
 40
1.0
 10
-292.3927981108576
 20
0.0
 30
0.0
 10
-292.3927981108577
 20
0.0
 30
0.0
 10
-292.2287557997635
 20
0.0
 30
0.0
 10
-291.7460908616357
 20
0.0
 30
0.0
 10
-291.5446269323153
 20
0.0
 30
0.0
 10
-291.0633725489268
 20
0.0
 30
0.0
 10
-290.7869201805649
 20
0.0
 30
0.0
 10
-290.1663225525568
 20
0.0
 30
0.0
 10
-289.8221617752515
 20
0.0
 30
0.0
 10
-289.2563648705975
 20
0.0
 30
0.0
 10
-289.0594901190514
 20
0.0
 30
0.0
 10
-288.6492043239684
 20
0.0
 30
0.0
 10
-288.4351717550793
 20
0.0
 30
0.0
 10
-287.334216443051
 20
0.0
 30
0.0
 10
-286.3530314094619
 20
0.0
 30
0.0
 10
-284.7450586046377
 20
0.0
 30
0.0
 10
-284.1837475844591
 20
0.0
 30
0.0
 10
-283.0276647174409
 20
0.0
 30
0.0
 10
-282.4353784938376
 20
0.0
 30
0.0
 10
-280.6184822558089
 20
0.0
 30
0.0
 10
-279.3541428617596
 20
0.0
 30
0.0
 10
-277.3820107236837
 20
0.0
 30
0.0
 10
-276.7168085250983
 20
0.0
 30
0.0
 10
-275.381230953467
 20
0.0
 30
0.0
 10
-274.7093031654497
 20
0.0
 30
0.0
 10
-272.6815726045047
 20
0.0
 30
0.0
 10
-271.3139096560221
 20
0.0
 30
0.0
 10
-269.9305229137407
 20
0.0
 30
0.0
  0
SPLINE
  5
98
330
1B
100
AcDbEntity
 67
     1
  8
0
  6
Continuous
 62
     7
370
    25
100
AcDbSpline
210
0.0
220
0.0
230
1.0
 70
    24
 71
     3
 72
    32
 73
    28
 74
     0
 42
0.000000001
 43
0.00000001
 40
0.0
 40
0.0
 40
0.0
 40
0.0
 40
0.124999999999997
 40
0.124999999999997
 40
0.2499999999999941
 40
0.2499999999999941
 40
0.3124999999999926
 40
0.3124999999999926
 40
0.3749999999999911
 40
0.3749999999999911
 40
0.4999999999999902
 40
0.4999999999999902
 40
0.5624999999999933
 40
0.5624999999999933
 40
0.6249999999999963
 40
0.6249999999999963
 40
0.7500000000000064
 40
0.7500000000000064
 40
0.7812500000000068
 40
0.7812500000000068
 40
0.812500000000007
 40
0.812500000000007
 40
0.8750000000000047
 40
0.8750000000000047
 40
0.9375000000000022
 40
0.9375000000000022
 40
1.0
 40
1.0
 40
1.0
 40
1.0
 10
269.9305229137406
 20
0.0000000000000555
 30
0.0
 10
271.3167032980472
 20
0.0000000000000555
 30
0.0
 10
272.6823502189592
 20
0.0000000000000694
 30
0.0
 10
275.373108704837
 20
0.0000000000000694
 30
0.0
 10
276.6982400194678
 20
0.0000000000000694
 30
0.0
 10
278.653048764476
 20
0.0000000000000694
 30
0.0
 10
279.2992328819349
 20
0.0000000000000694
 30
0.0
 10
280.579301179263
 20
0.0000000000000694
 30
0.0
 10
281.2030498148633
 20
0.0000000000000694
 30
0.0
 10
283.025019519891
 20
0.0000000000000694
 30
0.0
 10
284.1744808795365
 20
0.0000000000000694
 30
0.0
 10
285.7910425726027
 20
0.0000000000000694
 30
0.0
 10
286.3144566607974
 20
0.0000000000000694
 30
0.0
 10
287.3004934799606
 20
0.0000000000000694
 30
0.0
 10
287.7651387756858
 20
0.0000000000000694
 30
0.0
 10
289.0730073037142
 20
0.0000000000000694
 30
0.0
 10
289.8312414771662
 20
0.0000000000000694
 30
0.0
 10
290.6198977392297
 20
0.0000000000000694
 30
0.0
 10
290.7694109457653
 20
0.0000000000000694
 30
0.0
 10
291.0477210003505
 20
0.0000000000000694
 30
0.0
 10
291.1771202764975
 20
0.0000000000000694
 30
0.0
 10
291.5363200667205
 20
0.0000000000000694
 30
0.0
 10
291.7371992720193
 20
0.0000000000000694
 30
0.0
 10
292.0613608547569
 20
0.0000000000000694
 30
0.0
 10
292.1846527877606
 20
0.0000000000000694
 30
0.0
 10
292.3506518525042
 20
0.0000000000000694
 30
0.0
 10
292.3927981108577
 20
0.0000000000000694
 30
0.0
 10
292.3927981108577
 20
0.0000000000000694
 30
0.0
  0
SPLINE
  5
9A
330
1B
100
AcDbEntity
 67
     1
  8
0
  6
Continuous
 62
     7
370
    25
100
AcDbSpline
210
0.0
220
0.0
230
1.0
 70
     8
 71
     3
 72
    27
 73
    23
 74
     0
 42
0.000000001
 43
0.00000001
 40
0.0
 40
0.0
 40
0.0
 40
0.0
 40
0.020600954643163
 40
0.0732013001212308
 40
0.1273240887127775
 40
0.1799954252964244
 40
0.2341777446236092
 40
0.2871363475935229
 40
0.3416268828046956
 40
0.3946338470105262
 40
0.4491919532682889
 40
0.5019515291293691
 40
0.5562509730922869
 40
0.6088539197567049
 40
0.6629737232004258
 40
0.7157411966920285
 40
0.7700246347738158
 40
0.8230347551865519
 40
0.8775843306605334
 40
0.930537184357701
 40
0.9850424119775179
 40
1.0
 40
1.0
 40
1.0
 40
1.0
 10
37.86928917415307
 20
-169.1471949139458
 30
0.0
 10
37.90327561074198
 20
-169.1434044977761
 30
0.0
 10
38.02403949707093
 20
-169.1299360252503
 30
0.0
 10
37.11394682115725
 20
-169.2316517175958
 30
0.0
 10
35.19552454490583
 20
-169.4371264071074
 30
0.0
 10
32.19704956256463
 20
-169.7349886181554
 30
0.0
 10
28.33744022829007
 20
-170.0769880810136
 30
0.0
 10
23.62683920692998
 20
-170.4324527475174
 30
0.0
 10
18.28073543975778
 20
-170.7554694675224
 30
0.0
 10
12.358494286562
 20
-171.0152455805118
 30
0.0
 10
6.143776572111229
 20
-171.1790728423942
 30
0.0
 10
-0.294716359718588
 20
-171.2324460187648
 30
0.0
 10
-6.649980339749321
 20
-171.1696724076244
 30
0.0
 10
-12.86598387054905
 20
-170.9967333383629
 30
0.0
 10
-18.66316507735933
 20
-170.7349399933631
 30
0.0
 10
-23.9887906556488
 20
-170.4075019569354
 30
0.0
 10
-28.60680024613751
 20
-170.0545779517994
 30
0.0
 10
-32.45539707857164
 20
-169.7106036025406
 30
0.0
 10
-35.37836215292437
 20
-169.4180166279273
 30
0.0
 10
-37.23740285092114
 20
-169.2180550540217
 30
0.0
 10
-38.06757423423393
 20
-169.1250792388246
 30
0.0
 10
-37.92491047048656
 20
-169.1409861064235
 30
0.0
 10
-37.89419035377176
 20
-169.1444113688473
 30
0.0
  0
LINE
  5
9D
330
1B
100
AcDbEntity
 67
     1
  8
0
  6
Continuous
 62
     7
370
    25
100
AcDbLine
 10
37.991417145
 20
-169.1420707682
 30
0.0
 11
39.3081653138
 21
-167.6869947045
 31
0.0
  0
LINE
  5
9E
330
1B
100
AcDbEntity
 67
     1
  8
0
  6
Continuous
 62
     7
370
    25
100
AcDbLine
 10
-39.3081653127
 20
-167.6869947043
 30
0.0
 11
-37.991417144
 21
-169.142070768
 31
0.0
  0
LINE
  5
9F
330
1B
100
AcDbEntity
 67
     1
  8
0
  6
Continuous
 62
     7
370
    25
100
AcDbLine
 10
-38.0
 20
-169.1444151492
 30
0.0
 11
-38.0
 21
-180.0
 31
0.0
  0
LINE
  5
A0
330
1B
100
AcDbEntity
 67
     1
  8
0
  6
Continuous
 62
     7
370
    25
100
AcDbLine
 10
38.0
 20
-180.0
 30
0.0
 11
38.0
 21
-169.1471957228
 31
0.0
  0
LINE
  5
A1
330
1B
100
AcDbEntity
 67
     1
  8
0
  6
Continuous
 62
     7
370
    25
100
AcDbLine
 10
269.9305229137
 20
0.0
 30
0.0
 11
-269.9305229137
 21
0.0
 31
0.0
  0
LINE
  5
A2
330
1B
100
AcDbEntity
 67
     1
  8
0
  6
Continuous
 62
     7
370
    25
100
AcDbLine
 10
-38.0
 20
-180.0
 30
0.0
 11
38.0
 21
-180.0
 31
0.0
  0
ARC
  5
A3
330
1B
100
AcDbEntity
 67
     1
  8
0
  6
Continuous
 62
     7
370
    25
100
AcDbCircle
 10
0.0
 20
165.1639673433
 30
0.0
 40
316.4516129032258
100
AcDbArc
 50
211.4614568484
 51
328.5385431516
  0
ARC
  5
A4
330
1B
100
AcDbEntity
 67
     1
  8
0
  6
Continuous
 62
     7
370
    25
100
AcDbCircle
 10
0.0
 20
166.4516129032
 30
0.0
 40
336.4516129032259
100
AcDbArc
 50
209.6517335229
 51
330.3482664771
  0
VIEWPORT
  5
1C5
330
1B
100
AcDbEntity
 67
     1
  8
0
100
AcDbViewport
 10
0.0
 20
0.0
 30
0.0
 40
205.6
 41
156.0
 68
     1
 69
     1
 12
0.0
 22
-97.5
 13
0.0
 23
0.0
 14
10.0
 24
10.0
 15
10.0
 25
10.0
 16
0.0
 26
0.0
 36
1.0
 17
0.0
 27
0.0
 37
0.0
 42
50.0
 43
0.0
 44
0.0
 45
452.5830937296
 50
0.0
 51
0.0
 72
   100
 90
   557152
  1

281
     0
 71
     1
 74
     0
110
0.0
120
0.0
130
0.0
111
1.0
121
0.0
131
0.0
112
0.0
122
1.0
132
0.0
 79
     0
146
0.0
170
     0
 61
     5
348
2F
292
     1
282
     1
141
0.0
142
0.0
 63
   256
361
1C6
  0
ENDSEC
  0
SECTION
  2
OBJECTS
  0
DICTIONARY
  5
C
330
0
100
AcDbDictionary
281
     1
  3
ACAD_DETAILVIEWSTYLE
350
1DE
  3
ACAD_GROUP
350
D
  3
ACAD_LAYOUT
350
1A
  3
ACAD_MATERIAL
350
43
  3
ACAD_MLEADERSTYLE
350
6B
  3
ACAD_MLINESTYLE
350
17
  3
ACAD_PLOTSETTINGS
350
19
  3
ACAD_PLOTSTYLENAME
350
E
  3
ACAD_SCALELIST
350
47
  3
ACAD_SECTIONVIEWSTYLE
350
1DF
  3
ACAD_TABLESTYLE
350
69
  3
ACAD_VISUALSTYLE
350
2A
  3
ACDB_RECOMPOSE_DATA
350
1DB
  3
AcDbVariableDictionary
350
1D7
  0
SUN
  5
6D
330
29
100
AcDbSun
 90
        1
290
     0
 63
     7
421
 16777215
 40
1.0
291
     1
 91
  2455826
 92
 54000000
292
     0
 70
     2
 71
   256
280
     1
  0
SUN
  5
1C8
330
1C7
100
AcDbSun
 90
        1
290
     0
 63
     7
421
 16777215
 40
1.0
291
     1
 91
  2455826
 92
 54000000
292
     0
 70
     2
 71
   256
280
     1
  0
SUN
  5
1CA
330
1C9
100
AcDbSun
 90
        1
290
     0
 63
     7
421
 16777215
 40
1.0
291
     1
 91
  2455826
 92
 54000000
292
     0
 70
     2
 71
   256
280
     1
  0
SUN
  5
1CC
330
1CB
100
AcDbSun
 90
        1
290
     0
 63
     7
421
 16777215
 40
1.0
291
     1
 91
  2455826
 92
 54000000
292
     0
 70
     2
 71
   256
280
     1
  0
SUN
  5
1CE
330
1CD
100
AcDbSun
 90
        1
290
     0
 63
     7
421
 16777215
 40
1.0
291
     1
 91
  2455826
 92
 54000000
292
     0
 70
     2
 71
   256
280
     1
  0
SUN
  5
1D0
330
1CF
100
AcDbSun
 90
        1
290
     0
 63
     7
421
 16777215
 40
1.0
291
     1
 91
  2455826
 92
 54000000
292
     0
 70
     2
 71
   256
280
     1
  0
SUN
  5
1D2
330
1D1
100
AcDbSun
 90
        1
290
     0
 63
     7
421
 16777215
 40
1.0
291
     1
 91
  2455826
 92
 54000000
292
     0
 70
     2
 71
   256
280
     1
  0
SUN
  5
1D4
330
1D3
100
AcDbSun
 90
        1
290
     0
 63
     7
421
 16777215
 40
1.0
291
     1
 91
  2455826
 92
 54000000
292
     0
 70
     2
 71
   256
280
     1
  0
SUN
  5
1D6
330
1D5
100
AcDbSun
 90
        1
290
     0
 63
     7
421
 16777215
 40
1.0
291
     1
 91
  2455826
 92
 54000000
292
     0
 70
     2
 71
   256
280
     1
  0
SUN
  5
1C6
330
1C5
100
AcDbSun
 90
        1
290
     0
 63
     7
421
 16777215
 40
1.0
291
     1
 91
  2455826
 92
 54000000
292
     0
 70
     2
 71
   256
280
     1
  0
DICTIONARY
  5
1DE
102
{ACAD_REACTORS
330
C
102
}
330
C
100
AcDbDictionary
281
     1
  0
DICTIONARY
  5
D
102
{ACAD_REACTORS
330
C
102
}
330
C
100
AcDbDictionary
281
     1
  0
DICTIONARY
  5
1A
102
{ACAD_REACTORS
330
C
102
}
330
C
100
AcDbDictionary
281
     1
  3
_Dimetrisch
350
191
  3
_Isometrisch
350
132
  3
_Links
350
26
  3
_Normal auf
350
C6
  3
_Rechts
350
F6
  3
_Rückseite
350
DE
  3
_Trimetrisch
350
161
  3
_Unten
350
11B
  3
_Vorderseite
350
1E
  3
Model
350
22
  0
DICTIONARY
  5
43
102
{ACAD_REACTORS
330
C
102
}
330
C
100
AcDbDictionary
281
     1
  3
ByBlock
350
45
  3
ByLayer
350
44
  3
Global
350
46
  0
DICTIONARY
  5
6B
102
{ACAD_REACTORS
330
C
102
}
330
C
100
AcDbDictionary
281
     1
  3
Standard
350
6C
  0
DICTIONARY
  5
17
102
{ACAD_REACTORS
330
C
102
}
330
C
100
AcDbDictionary
281
     1
  3
Standard
350
18
  0
DICTIONARY
  5
19
102
{ACAD_REACTORS
330
C
102
}
330
C
100
AcDbDictionary
281
     1
  0
ACDBDICTIONARYWDFLT
  5
E
102
{ACAD_REACTORS
330
C
102
}
330
C
100
AcDbDictionary
281
     1
  3
Normal
350
F
100
AcDbDictionaryWithDefault
340
F
  0
DICTIONARY
  5
47
102
{ACAD_REACTORS
330
C
102
}
330
C
100
AcDbDictionary
281
     1
  3
A0
350
48
  3
A1
350
49
  3
A2
350
4A
  3
A3
350
4B
  3
A4
350
4C
  3
A5
350
4D
  3
A6
350
4E
  3
A7
350
4F
  3
A8
350
50
  3
A9
350
51
  3
B0
350
52
  3
B1
350
53
  3
B2
350
54
  3
B3
350
55
  3
B4
350
56
  3
B5
350
57
  3
B6
350
58
  3
B7
350
59
  3
B8
350
5A
  3
B9
350
5B
  3
C0
350
5C
  3
C1
350
5D
  3
C2
350
5E
  3
C3
350
5F
  3
C4
350
60
  3
C5
350
61
  3
C6
350
62
  3
C7
350
63
  3
C8
350
64
  3
C9
350
65
  3
D0
350
66
  3
D1
350
67
  3
D2
350
68
  0
DICTIONARY
  5
1DF
102
{ACAD_REACTORS
330
C
102
}
330
C
100
AcDbDictionary
281
     1
  0
DICTIONARY
  5
69
102
{ACAD_REACTORS
330
C
102
}
330
C
100
AcDbDictionary
281
     1
  3
Standard
350
6A
  0
DICTIONARY
  5
2A
102
{ACAD_REACTORS
330
C
102
}
330
C
100
AcDbDictionary
281
     1
  3
2dWireframe
350
2F
  3
Basic
350
32
  3
Brighten
350
36
  3
ColorChange
350
3A
  3
Conceptual
350
34
  3
Dim
350
35
  3
EdgeColorOff
350
3D
  3
Facepattern
350
39
  3
Flat
350
2B
  3
FlatWithEdges
350
2C
  3
Gouraud
350
2D
  3
GouraudWithEdges
350
2E
  3
Hidden
350
31
  3
JitterOff
350
3B
  3
Linepattern
350
38
  3
OverhangOff
350
3C
  3
Realistic
350
33
  3
Shaded
350
42
  3
Shaded with edges
350
41
  3
Shades of Gray
350
3E
  3
Sketchy
350
3F
  3
Thicken
350
37
  3
Wireframe
350
30
  3
X-Ray
350
40
  0
XRECORD
  5
1DB
102
{ACAD_REACTORS
330
C
102
}
330
C
100
AcDbXrecord
280
     1
 90
        1
330
6A
  0
DICTIONARY
  5
1D7
102
{ACAD_REACTORS
330
C
102
}
330
C
100
AcDbDictionary
281
     1
  3
CANNOSCALE
350
1D8
  3
CMLEADERSTYLE
350
1DD
  3
CTABLESTYLE
350
1DC
  0
LAYOUT
  5
191
102
{ACAD_REACTORS
330
1A
102
}
330
1A
100
AcDbPlotSettings
  1

  2
none_device
  4
ISO_A4_(210.00_x_297.00_MM)
  6

 40
7.5
 41
20.0
 42
7.5
 43
20.0
 44
210.0
 45
297.0
 46
0.0
 47
0.0
 48
0.0
 49
0.0
140
0.0
141
0.0
142
1.0
143
2.2754303355
 70
   688
 72
     1
 73
     1
 74
     1
  7

 75
     0
 76
     0
 77
     2
 78
   300
147
0.4394773087
148
292.3927981109
149
180.0
100
AcDbLayout
  1
_Dimetrisch
 70
     1
 71
     9
 10
0.0
 20
0.0
 11
0.0
 21
0.0
 12
0.0
 22
0.0
 32
0.0
 14
0.0
 24
0.0
 34
0.0
 15
0.0
 25
0.0
 35
0.0
146
0.0
 13
0.0
 23
0.0
 33
0.0
 16
1.0
 26
0.0
 36
0.0
 17
0.0
 27
1.0
 37
0.0
 76
     0
330
190
331
1D5
  0
LAYOUT
  5
132
102
{ACAD_REACTORS
330
1A
102
}
330
1A
100
AcDbPlotSettings
  1

  2
none_device
  4
ISO_A4_(210.00_x_297.00_MM)
  6

 40
7.5
 41
20.0
 42
7.5
 43
20.0
 44
210.0
 45
297.0
 46
0.0
 47
0.0
 48
0.0
 49
0.0
140
0.0
141
0.0
142
1.0
143
2.2754303355
 70
   688
 72
     1
 73
     1
 74
     1
  7

 75
     0
 76
     0
 77
     2
 78
   300
147
0.4394773087
148
292.3927981109
149
180.0
100
AcDbLayout
  1
_Isometrisch
 70
     1
 71
     7
 10
0.0
 20
0.0
 11
0.0
 21
0.0
 12
0.0
 22
0.0
 32
0.0
 14
0.0
 24
0.0
 34
0.0
 15
0.0
 25
0.0
 35
0.0
146
0.0
 13
0.0
 23
0.0
 33
0.0
 16
1.0
 26
0.0
 36
0.0
 17
0.0
 27
1.0
 37
0.0
 76
     0
330
131
331
1D1
  0
LAYOUT
  5
26
102
{ACAD_REACTORS
330
1A
102
}
330
1A
100
AcDbPlotSettings
  1

  2
none_device
  4
ISO_A4_(210.00_x_297.00_MM)
  6

 40
7.5
 41
20.0
 42
7.5
 43
20.0
 44
210.0
 45
297.0
 46
0.0
 47
0.0
 48
0.0
 49
0.0
140
0.0
141
0.0
142
1.0
143
2.2754303355
 70
   688
 72
     1
 73
     1
 74
     1
  7

 75
     0
 76
     0
 77
     2
 78
   300
147
0.4394773087
148
292.3927981109
149
180.0
100
AcDbLayout
  1
_Links
 70
     1
 71
     2
 10
0.0
 20
0.0
 11
0.0
 21
0.0
 12
0.0
 22
0.0
 32
0.0
 14
0.0
 24
0.0
 34
0.0
 15
0.0
 25
0.0
 35
0.0
146
0.0
 13
0.0
 23
0.0
 33
0.0
 16
1.0
 26
0.0
 36
0.0
 17
0.0
 27
1.0
 37
0.0
 76
     0
330
23
331
1C7
  0
LAYOUT
  5
C6
102
{ACAD_REACTORS
330
1A
102
}
330
1A
100
AcDbPlotSettings
  1

  2
none_device
  4
ISO_A4_(210.00_x_297.00_MM)
  6

 40
7.5
 41
20.0
 42
7.5
 43
20.0
 44
210.0
 45
297.0
 46
0.0
 47
0.0
 48
0.0
 49
0.0
140
0.0
141
0.0
142
1.0
143
2.2754303355
 70
   688
 72
     1
 73
     1
 74
     1
  7

 75
     0
 76
     0
 77
     2
 78
   300
147
0.4394773087
148
292.3927981109
149
180.0
100
AcDbLayout
  1
_Normal auf
 70
     1
 71
     3
 10
0.0
 20
0.0
 11
0.0
 21
0.0
 12
0.0
 22
0.0
 32
0.0
 14
0.0
 24
0.0
 34
0.0
 15
0.0
 25
0.0
 35
0.0
146
0.0
 13
0.0
 23
0.0
 33
0.0
 16
1.0
 26
0.0
 36
0.0
 17
0.0
 27
1.0
 37
0.0
 76
     0
330
C5
331
1C9
  0
LAYOUT
  5
F6
102
{ACAD_REACTORS
330
1A
102
}
330
1A
100
AcDbPlotSettings
  1

  2
none_device
  4
ISO_A4_(210.00_x_297.00_MM)
  6

 40
7.5
 41
20.0
 42
7.5
 43
20.0
 44
210.0
 45
297.0
 46
0.0
 47
0.0
 48
0.0
 49
0.0
140
0.0
141
0.0
142
1.0
143
2.2754303355
 70
   688
 72
     1
 73
     1
 74
     1
  7

 75
     0
 76
     0
 77
     2
 78
   300
147
0.4394773087
148
292.3927981109
149
180.0
100
AcDbLayout
  1
_Rechts
 70
     1
 71
     5
 10
0.0
 20
0.0
 11
0.0
 21
0.0
 12
0.0
 22
0.0
 32
0.0
 14
0.0
 24
0.0
 34
0.0
 15
0.0
 25
0.0
 35
0.0
146
0.0
 13
0.0
 23
0.0
 33
0.0
 16
1.0
 26
0.0
 36
0.0
 17
0.0
 27
1.0
 37
0.0
 76
     0
330
F5
331
1CD
  0
LAYOUT
  5
DE
102
{ACAD_REACTORS
330
1A
102
}
330
1A
100
AcDbPlotSettings
  1

  2
none_device
  4
ISO_A4_(210.00_x_297.00_MM)
  6

 40
7.5
 41
20.0
 42
7.5
 43
20.0
 44
210.0
 45
297.0
 46
0.0
 47
0.0
 48
0.0
 49
0.0
140
0.0
141
0.0
142
1.0
143
2.2754303355
 70
   688
 72
     1
 73
     1
 74
     1
  7

 75
     0
 76
     0
 77
     2
 78
   300
147
0.4394773087
148
292.3927981109
149
180.0
100
AcDbLayout
  1
_Rückseite
 70
     1
 71
     4
 10
0.0
 20
0.0
 11
0.0
 21
0.0
 12
0.0
 22
0.0
 32
0.0
 14
0.0
 24
0.0
 34
0.0
 15
0.0
 25
0.0
 35
0.0
146
0.0
 13
0.0
 23
0.0
 33
0.0
 16
1.0
 26
0.0
 36
0.0
 17
0.0
 27
1.0
 37
0.0
 76
     0
330
DD
331
1CB
  0
LAYOUT
  5
161
102
{ACAD_REACTORS
330
1A
102
}
330
1A
100
AcDbPlotSettings
  1

  2
none_device
  4
ISO_A4_(210.00_x_297.00_MM)
  6

 40
7.5
 41
20.0
 42
7.5
 43
20.0
 44
210.0
 45
297.0
 46
0.0
 47
0.0
 48
0.0
 49
0.0
140
0.0
141
0.0
142
1.0
143
2.2754303355
 70
   688
 72
     1
 73
     1
 74
     1
  7

 75
     0
 76
     0
 77
     2
 78
   300
147
0.4394773087
148
292.3927981109
149
180.0
100
AcDbLayout
  1
_Trimetrisch
 70
     1
 71
     8
 10
0.0
 20
0.0
 11
0.0
 21
0.0
 12
0.0
 22
0.0
 32
0.0
 14
0.0
 24
0.0
 34
0.0
 15
0.0
 25
0.0
 35
0.0
146
0.0
 13
0.0
 23
0.0
 33
0.0
 16
1.0
 26
0.0
 36
0.0
 17
0.0
 27
1.0
 37
0.0
 76
     0
330
160
331
1D3
  0
LAYOUT
  5
11B
102
{ACAD_REACTORS
330
1A
102
}
330
1A
100
AcDbPlotSettings
  1

  2
none_device
  4
ISO_A4_(210.00_x_297.00_MM)
  6

 40
7.5
 41
20.0
 42
7.5
 43
20.0
 44
210.0
 45
297.0
 46
0.0
 47
0.0
 48
0.0
 49
0.0
140
0.0
141
0.0
142
1.0
143
2.2754303355
 70
   688
 72
     1
 73
     1
 74
     1
  7

 75
     0
 76
     0
 77
     2
 78
   300
147
0.4394773087
148
292.3927981109
149
180.0
100
AcDbLayout
  1
_Unten
 70
     1
 71
     6
 10
0.0
 20
0.0
 11
0.0
 21
0.0
 12
0.0
 22
0.0
 32
0.0
 14
0.0
 24
0.0
 34
0.0
 15
0.0
 25
0.0
 35
0.0
146
0.0
 13
0.0
 23
0.0
 33
0.0
 16
1.0
 26
0.0
 36
0.0
 17
0.0
 27
1.0
 37
0.0
 76
     0
330
11A
331
1CF
  0
LAYOUT
  5
1E
102
{ACAD_REACTORS
330
1A
102
}
330
1A
100
AcDbPlotSettings
  1

  2
none_device
  4
ISO_A4_(210.00_x_297.00_MM)
  6

 40
7.5
 41
20.0
 42
7.5
 43
20.0
 44
210.0
 45
297.0
 46
0.0
 47
0.0
 48
0.0
 49
0.0
140
0.0
141
0.0
142
1.0
143
2.2754303355
 70
   688
 72
     1
 73
     1
 74
     1
  7

 75
     0
 76
     0
 77
     2
 78
   300
147
0.4394773087
148
292.3927981109
149
180.0
100
AcDbLayout
  1
_Vorderseite
 70
     1
 71
     1
 10
-337.9014048207
 20
-197.0657275162
 11
337.9014048207
 21
280.7746429373
 12
0.0
 22
0.0
 32
0.0
 14
-292.3927981109
 24
-180.0
 34
0.0
 15
292.3927981109
 25
0.0
 35
0.0
146
0.0
 13
0.0
 23
0.0
 33
0.0
 16
1.0
 26
0.0
 36
0.0
 17
0.0
 27
1.0
 37
0.0
 76
     0
330
1B
331
1C5
  0
LAYOUT
  5
22
102
{ACAD_REACTORS
330
1A
102
}
330
1A
100
AcDbPlotSettings
  1

  2
none_device
  4
ANSI_A_(11.00_x_8.50_Inches)
  6

 40
6.35
 41
19.05
 42
6.35000508
 43
19.05000254
 44
279.4
 45
215.9
 46
133.34999746
 47
135.017901042
 48
0.0
 49
0.0
140
0.0
141
0.0
142
0.0186222097
143
1.0
 70
  1696
 72
     0
 73
     0
 74
     0
  7

 75
     0
 76
     0
 77
     2
 78
   300
147
0.0179189148
148
-1300.4909072572
149
0.0
100
AcDbLayout
  1
Model
 70
     1
 71
     0
 10
0.0
 20
0.0
 11
420.0
 21
297.0
 12
0.0
 22
0.0
 32
0.0
 14
-292.3927981109
 24
-285.0311850648
 34
0.0
 15
292.3927981109
 25
90.0311850648
 35
0.0
146
0.0
 13
0.0
 23
0.0
 33
0.0
 16
1.0
 26
0.0
 36
0.0
 17
0.0
 27
1.0
 37
0.0
 76
     0
330
1F
331
29
  0
MATERIAL
  5
45
102
{ACAD_REACTORS
330
43
102
}
330
43
100
AcDbMaterial
  1
ByBlock
 72
     1
 94
      127
  0
MATERIAL
  5
44
102
{ACAD_REACTORS
330
43
102
}
330
43
100
AcDbMaterial
  1
ByLayer
 72
     1
 94
      127
  0
MATERIAL
  5
46
102
{ACAD_REACTORS
330
43
102
}
330
43
100
AcDbMaterial
  1
Global
 72
     1
 94
      127
  0
MLEADERSTYLE
  5
6C
102
{ACAD_REACTORS
330
6B
102
}
330
6B
100
AcDbMLeaderStyle
179
     2
170
     2
171
     1
172
     0
 90
        2
 40
0.0
 41
0.0
173
     1
 91
-1056964608
340
14
 92
       -2
290
     1
 42
2.0
291
     1
 43
8.0
  3
Standard
341
0
 44
4.0
300

342
11
174
     1
178
     6
175
     1
176
     0
 93
-1056964608
 45
4.0
292
     0
297
     0
 46
4.0
343
0
 94
-1056964608
 47
1.0
 49
1.0
140
1.0
293
     1
141
0.0
294
     1
177
     0
142
1.0
295
     0
296
     0
143
3.75
271
     0
272
     9
273
     9
298
     0
  0
MLINESTYLE
  5
18
102
{ACAD_REACTORS
330
17
102
}
330
17
100
AcDbMlineStyle
  2
Standard
 70
     0
  3

 62
   256
 51
90.0
 52
90.0
 71
     2
 49
0.5
 62
   256
  6
BYLAYER
 49
-0.5
 62
   256
  6
BYLAYER
  0
ACDBPLACEHOLDER
  5
F
102
{ACAD_REACTORS
330
E
102
}
330
E
  0
SCALE
  5
48
102
{ACAD_REACTORS
330
47
102
}
330
47
100
AcDbScale
 70
     0
300
1:1
140
1.0
141
1.0
290
     1
  0
SCALE
  5
49
102
{ACAD_REACTORS
330
47
102
}
330
47
100
AcDbScale
 70
     0
300
1:2
140
1.0
141
2.0
290
     0
  0
SCALE
  5
4A
102
{ACAD_REACTORS
330
47
102
}
330
47
100
AcDbScale
 70
     0
300
1:4
140
1.0
141
4.0
290
     0
  0
SCALE
  5
4B
102
{ACAD_REACTORS
330
47
102
}
330
47
100
AcDbScale
 70
     0
300
1:5
140
1.0
141
5.0
290
     0
  0
SCALE
  5
4C
102
{ACAD_REACTORS
330
47
102
}
330
47
100
AcDbScale
 70
     0
300
1:8
140
1.0
141
8.0
290
     0
  0
SCALE
  5
4D
102
{ACAD_REACTORS
330
47
102
}
330
47
100
AcDbScale
 70
     0
300
1:10
140
1.0
141
10.0
290
     0
  0
SCALE
  5
4E
102
{ACAD_REACTORS
330
47
102
}
330
47
100
AcDbScale
 70
     0
300
1:16
140
1.0
141
16.0
290
     0
  0
SCALE
  5
4F
102
{ACAD_REACTORS
330
47
102
}
330
47
100
AcDbScale
 70
     0
300
1:20
140
1.0
141
20.0
290
     0
  0
SCALE
  5
50
102
{ACAD_REACTORS
330
47
102
}
330
47
100
AcDbScale
 70
     0
300
1:30
140
1.0
141
30.0
290
     0
  0
SCALE
  5
51
102
{ACAD_REACTORS
330
47
102
}
330
47
100
AcDbScale
 70
     0
300
1:40
140
1.0
141
40.0
290
     0
  0
SCALE
  5
52
102
{ACAD_REACTORS
330
47
102
}
330
47
100
AcDbScale
 70
     0
300
1:50
140
1.0
141
50.0
290
     0
  0
SCALE
  5
53
102
{ACAD_REACTORS
330
47
102
}
330
47
100
AcDbScale
 70
     0
300
1:100
140
1.0
141
100.0
290
     0
  0
SCALE
  5
54
102
{ACAD_REACTORS
330
47
102
}
330
47
100
AcDbScale
 70
     0
300
2:1
140
2.0
141
1.0
290
     0
  0
SCALE
  5
55
102
{ACAD_REACTORS
330
47
102
}
330
47
100
AcDbScale
 70
     0
300
4:1
140
4.0
141
1.0
290
     0
  0
SCALE
  5
56
102
{ACAD_REACTORS
330
47
102
}
330
47
100
AcDbScale
 70
     0
300
8:1
140
8.0
141
1.0
290
     0
  0
SCALE
  5
57
102
{ACAD_REACTORS
330
47
102
}
330
47
100
AcDbScale
 70
     0
300
10:1
140
10.0
141
1.0
290
     0
  0
SCALE
  5
58
102
{ACAD_REACTORS
330
47
102
}
330
47
100
AcDbScale
 70
     0
300
100:1
140
100.0
141
1.0
290
     0
  0
SCALE
  5
59
102
{ACAD_REACTORS
330
47
102
}
330
47
100
AcDbScale
 70
     0
300
1/128" = 1'-0"
140
0.0078125
141
12.0
290
     0
  0
SCALE
  5
5A
102
{ACAD_REACTORS
330
47
102
}
330
47
100
AcDbScale
 70
     0
300
1/64" = 1'-0"
140
0.015625
141
12.0
290
     0
  0
SCALE
  5
5B
102
{ACAD_REACTORS
330
47
102
}
330
47
100
AcDbScale
 70
     0
300
1/32" = 1'-0"
140
0.03125
141
12.0
290
     0
  0
SCALE
  5
5C
102
{ACAD_REACTORS
330
47
102
}
330
47
100
AcDbScale
 70
     0
300
1/16" = 1'-0"
140
0.0625
141
12.0
290
     0
  0
SCALE
  5
5D
102
{ACAD_REACTORS
330
47
102
}
330
47
100
AcDbScale
 70
     0
300
3/32" = 1'-0"
140
0.09375
141
12.0
290
     0
  0
SCALE
  5
5E
102
{ACAD_REACTORS
330
47
102
}
330
47
100
AcDbScale
 70
     0
300
1/8" = 1'-0"
140
0.125
141
12.0
290
     0
  0
SCALE
  5
5F
102
{ACAD_REACTORS
330
47
102
}
330
47
100
AcDbScale
 70
     0
300
3/16" = 1'-0"
140
0.1875
141
12.0
290
     0
  0
SCALE
  5
60
102
{ACAD_REACTORS
330
47
102
}
330
47
100
AcDbScale
 70
     0
300
1/4" = 1'-0"
140
0.25
141
12.0
290
     0
  0
SCALE
  5
61
102
{ACAD_REACTORS
330
47
102
}
330
47
100
AcDbScale
 70
     0
300
3/8" = 1'-0"
140
0.375
141
12.0
290
     0
  0
SCALE
  5
62
102
{ACAD_REACTORS
330
47
102
}
330
47
100
AcDbScale
 70
     0
300
1/2" = 1'-0"
140
0.5
141
12.0
290
     0
  0
SCALE
  5
63
102
{ACAD_REACTORS
330
47
102
}
330
47
100
AcDbScale
 70
     0
300
3/4" = 1'-0"
140
0.75
141
12.0
290
     0
  0
SCALE
  5
64
102
{ACAD_REACTORS
330
47
102
}
330
47
100
AcDbScale
 70
     0
300
1" = 1'-0"
140
1.0
141
12.0
290
     0
  0
SCALE
  5
65
102
{ACAD_REACTORS
330
47
102
}
330
47
100
AcDbScale
 70
     0
300
1-1/2" = 1'-0"
140
1.5
141
12.0
290
     0
  0
SCALE
  5
66
102
{ACAD_REACTORS
330
47
102
}
330
47
100
AcDbScale
 70
     0
300
3" = 1'-0"
140
3.0
141
12.0
290
     0
  0
SCALE
  5
67
102
{ACAD_REACTORS
330
47
102
}
330
47
100
AcDbScale
 70
     0
300
6" = 1'-0"
140
6.0
141
12.0
290
     0
  0
SCALE
  5
68
102
{ACAD_REACTORS
330
47
102
}
330
47
100
AcDbScale
 70
     0
300
1'-0" = 1'-0"
140
12.0
141
12.0
290
     0
  0
TABLESTYLE
  5
6A
102
{ACAD_REACTORS
330
69
102
}
102
{ACAD_XDICTIONARY
360
1D9
102
}
330
69
100
AcDbTableStyle
  3
Standard
 70
     0
 71
     0
 40
0.06
 41
0.06
280
     0
281
     0
  7
STANDARD
140
4.5
170
     2
 62
     0
 63
   257
283
     0
 90
        4
 91
        0
  1

274
    -2
284
     1
 64
     0
275
    -2
285
     1
 65
     0
276
    -2
286
     1
 66
     0
277
    -2
287
     1
 67
     0
278
    -2
288
     1
 68
     0
279
    -2
289
     1
 69
     0
  7
STANDARD
140
6.0
170
     5
 62
     0
 63
   257
283
     0
 90
        4
 91
        0
  1

274
    -2
284
     1
 64
     0
275
    -2
285
     1
 65
     0
276
    -2
286
     1
 66
     0
277
    -2
287
     1
 67
     0
278
    -2
288
     1
 68
     0
279
    -2
289
     1
 69
     0
  7
STANDARD
140
4.5
170
     5
 62
     0
 63
   257
283
     0
 90
        4
 91
        0
  1

274
    -2
284
     1
 64
     0
275
    -2
285
     1
 65
     0
276
    -2
286
     1
 66
     0
277
    -2
287
     1
 67
     0
278
    -2
288
     1
 68
     0
279
    -2
289
     1
 69
     0
  0
VISUALSTYLE
  5
2F
102
{ACAD_REACTORS
330
2A
102
}
330
2A
100
AcDbVisualStyle
  2
2dWireframe
 70
     4
177
     3
291
     0
 70
    58
 90
        0
176
     1
 90
        2
176
     1
 90
        0
176
     1
 90
        0
176
     1
 40
0.6
176
     1
 40
30.0
176
     1
 62
     7
420
 16777215
176
     1
 90
        1
176
     1
 90
        4
176
     1
 62
     7
176
     1
 62
   257
176
     1
 90
        1
176
     1
 90
        1
176
     1
 40
1.0
176
     1
 90
        0
176
     1
 62
   257
176
     1
 40
1.0
176
     1
 90
        1
176
     1
 90
        6
176
     1
 90
        2
176
     1
 62
     7
176
     1
 90
        5
176
     1
 90
        0
176
     1
 90
        0
176
     1
290
     0
176
     1
 90
        1
176
     1
 40
0.0
176
     1
 90
        0
176
     1
290
     1
176
     1
290
     1
176
     1
290
     0
176
     1
290
     0
176
     1
290
     0
176
     1
290
     0
176
     1
290
     0
176
     1
290
     0
176
     1
290
     0
176
     1
 90
       50
176
     1
 40
0.0
176
     1
 40
1.0
176
     1
 90
        0
176
     1
 62
    18
420
        0
176
     1
 90
       50
176
     1
 90
        3
176
     1
 62
     5
420
      255
176
     1
290
     0
176
     1
 90
       50
176
     1
 90
       50
176
     1
 90
       50
176
     1
290
     0
176
     1
 90
       50
176
     1
 62
   256
176
     0
 40
1.0
176
     0
 90
        2
176
     1
  1
strokes_ogs.tif
176
     1
290
     0
176
     1
 40
1.0
176
     1
 40
1.0
176
     1
  0
VISUALSTYLE
  5
32
102
{ACAD_REACTORS
330
2A
102
}
330
2A
100
AcDbVisualStyle
  2
Basic
 70
     7
177
     3
291
     1
 70
    58
 90
        1
176
     1
 90
        0
176
     1
 90
        1
176
     1
 90
        0
176
     1
 40
0.6
176
     1
 40
30.0
176
     1
 62
     7
420
 16777215
176
     1
 90
        0
176
     1
 90
        4
176
     1
 62
     7
176
     1
 62
   257
176
     1
 90
        1
176
     1
 90
        1
176
     1
 40
1.0
176
     1
 90
        8
176
     1
 62
     7
176
     1
 40
1.0
176
     1
 90
        1
176
     1
 90
        6
176
     1
 90
        2
176
     1
 62
     7
176
     1
 90
        5
176
     1
 90
        0
176
     1
 90
        0
176
     1
290
     0
176
     1
 90
        1
176
     1
 40
0.0
176
     1
 90
        0
176
     1
290
     0
176
     1
290
     1
176
     1
290
     1
176
     1
290
     0
176
     1
290
     0
176
     1
290
     0
176
     1
290
     0
176
     1
290
     0
176
     1
290
     0
176
     1
 90
       50
176
     1
 40
0.0
176
     1
 40
1.0
176
     1
 90
        0
176
     1
 62
    18
420
        0
176
     1
 90
       50
176
     1
 90
        3
176
     1
 62
     5
420
      255
176
     1
290
     0
176
     1
 90
       50
176
     1
 90
       50
176
     1
 90
       50
176
     1
290
     0
176
     1
 90
       50
176
     1
 62
   256
176
     0
 40
1.0
176
     0
 90
        2
176
     1
  1
strokes_ogs.tif
176
     1
290
     0
176
     1
 40
1.0
176
     1
 40
1.0
176
     1
  0
VISUALSTYLE
  5
36
102
{ACAD_REACTORS
330
2A
102
}
330
2A
100
AcDbVisualStyle
  2
Brighten
 70
    12
177
     3
291
     1
 70
    58
 90
        2
176
     1
 90
        2
176
     1
 90
        0
176
     1
 90
        0
176
     1
 40
0.6
176
     1
 40
30.0
176
     1
 62
     7
420
 16777215
176
     1
 90
        1
176
     1
 90
        4
176
     1
 62
     7
176
     1
 62
   257
176
     1
 90
        1
176
     1
 90
        1
176
     1
 40
1.0
176
     1
 90
        8
176
     1
 62
     7
176
     1
 40
1.0
176
     1
 90
        1
176
     1
 90
        6
176
     1
 90
        2
176
     1
 62
     7
176
     1
 90
        5
176
     1
 90
        0
176
     1
 90
        0
176
     1
290
     0
176
     1
 90
        1
176
     1
 40
50.0
176
     1
 90
        0
176
     1
290
     0
176
     1
290
     1
176
     1
290
     1
176
     1
290
     0
176
     1
290
     0
176
     1
290
     0
176
     1
290
     0
176
     1
290
     0
176
     1
290
     0
176
     1
 90
       50
176
     1
 40
0.0
176
     1
 40
1.0
176
     1
 90
        0
176
     1
 62
    18
420
        0
176
     1
 90
       50
176
     1
 90
        3
176
     1
 62
     5
420
      255
176
     1
290
     0
176
     1
 90
       50
176
     1
 90
       50
176
     1
 90
       50
176
     1
290
     0
176
     1
 90
       50
176
     1
 62
   256
176
     0
 40
1.0
176
     0
 90
        2
176
     1
  1
strokes_ogs.tif
176
     1
290
     0
176
     1
 40
1.0
176
     1
 40
1.0
176
     1
  0
VISUALSTYLE
  5
3A
102
{ACAD_REACTORS
330
2A
102
}
330
2A
100
AcDbVisualStyle
  2
ColorChange
 70
    16
177
     3
291
     1
 70
    58
 90
        2
176
     1
 90
        2
176
     1
 90
        3
176
     1
 90
        0
176
     1
 40
0.6
176
     1
 40
30.0
176
     1
 62
     8
420
  8421504
176
     1
 90
        1
176
     1
 90
        4
176
     1
 62
     7
176
     1
 62
   257
176
     1
 90
        1
176
     1
 90
        1
176
     1
 40
1.0
176
     1
 90
        8
176
     1
 62
     8
420
  8421504
176
     1
 40
1.0
176
     1
 90
        1
176
     1
 90
        6
176
     1
 90
        2
176
     1
 62
     7
176
     1
 90
        5
176
     1
 90
        0
176
     1
 90
        0
176
     1
290
     0
176
     1
 90
        1
176
     1
 40
0.0
176
     1
 90
        0
176
     1
290
     0
176
     1
290
     1
176
     1
290
     1
176
     1
290
     0
176
     1
290
     0
176
     1
290
     0
176
     1
290
     0
176
     1
290
     0
176
     1
290
     0
176
     1
 90
       50
176
     1
 40
0.0
176
     1
 40
1.0
176
     1
 90
        0
176
     1
 62
    18
420
        0
176
     1
 90
       50
176
     1
 90
        3
176
     1
 62
     5
420
      255
176
     1
290
     0
176
     1
 90
       50
176
     1
 90
       50
176
     1
 90
       50
176
     1
290
     0
176
     1
 90
       50
176
     1
 62
   256
176
     0
 40
1.0
176
     0
 90
        2
176
     1
  1
strokes_ogs.tif
176
     1
290
     0
176
     1
 40
1.0
176
     1
 40
1.0
176
     1
  0
VISUALSTYLE
  5
34
102
{ACAD_REACTORS
330
2A
102
}
330
2A
100
AcDbVisualStyle
  2
Conceptual
 70
     9
177
     3
291
     0
 70
    58
 90
        3
176
     1
 90
        2
176
     1
 90
        0
176
     1
 90
        0
176
     1
 40
0.6
176
     1
 40
30.0
176
     1
 62
     7
420
 16777215
176
     1
 90
        2
176
     1
 90
        2
176
     1
 62
     7
176
     1
 62
   257
176
     1
 90
        1
176
     1
 90
        1
176
     1
 40
179.0
176
     1
 90
        8
176
     1
 62
     7
176
     1
 40
1.0
176
     1
 90
        1
176
     1
 90
        6
176
     1
 90
        2
176
     1
 62
     7
176
     1
 90
        3
176
     1
 90
        0
176
     1
 90
        0
176
     1
290
     0
176
     1
 90
        1
176
     1
 40
0.0
176
     1
 90
        0
176
     1
290
     0
176
     1
290
     1
176
     1
290
     1
176
     1
290
     0
176
     1
290
     0
176
     1
290
     0
176
     1
290
     0
176
     1
290
     0
176
     1
290
     0
176
     1
 90
       50
176
     1
 40
0.0
176
     1
 40
1.0
176
     1
 90
        0
176
     1
 62
    18
420
        0
176
     1
 90
       50
176
     1
 90
        3
176
     1
 62
     5
420
      255
176
     1
290
     0
176
     1
 90
       50
176
     1
 90
       50
176
     1
 90
       50
176
     1
290
     0
176
     1
 90
       50
176
     1
 62
   256
176
     0
 40
1.0
176
     0
 90
        2
176
     1
  1
strokes_ogs.tif
176
     1
290
     0
176
     1
 40
1.0
176
     1
 40
1.0
176
     1
  0
VISUALSTYLE
  5
35
102
{ACAD_REACTORS
330
2A
102
}
330
2A
100
AcDbVisualStyle
  2
Dim
 70
    11
177
     3
291
     1
 70
    58
 90
        2
176
     1
 90
        2
176
     1
 90
        0
176
     1
 90
        0
176
     1
 40
0.6
176
     1
 40
30.0
176
     1
 62
     7
420
 16777215
176
     1
 90
        1
176
     1
 90
        4
176
     1
 62
     7
176
     1
 62
   257
176
     1
 90
        1
176
     1
 90
        1
176
     1
 40
1.0
176
     1
 90
        8
176
     1
 62
     7
176
     1
 40
1.0
176
     1
 90
        1
176
     1
 90
        6
176
     1
 90
        2
176
     1
 62
     7
176
     1
 90
        5
176
     1
 90
        0
176
     1
 90
        0
176
     1
290
     0
176
     1
 90
        1
176
     1
 40
-50.0
176
     1
 90
        0
176
     1
290
     0
176
     1
290
     1
176
     1
290
     1
176
     1
290
     0
176
     1
290
     0
176
     1
290
     0
176
     1
290
     0
176
     1
290
     0
176
     1
290
     0
176
     1
 90
       50
176
     1
 40
0.0
176
     1
 40
1.0
176
     1
 90
        0
176
     1
 62
    18
420
        0
176
     1
 90
       50
176
     1
 90
        3
176
     1
 62
     5
420
      255
176
     1
290
     0
176
     1
 90
       50
176
     1
 90
       50
176
     1
 90
       50
176
     1
290
     0
176
     1
 90
       50
176
     1
 62
   256
176
     0
 40
1.0
176
     0
 90
        2
176
     1
  1
strokes_ogs.tif
176
     1
290
     0
176
     1
 40
1.0
176
     1
 40
1.0
176
     1
  0
VISUALSTYLE
  5
3D
102
{ACAD_REACTORS
330
2A
102
}
330
2A
100
AcDbVisualStyle
  2
EdgeColorOff
 70
    22
177
     3
291
     1
 70
    58
 90
        2
176
     0
 90
        2
176
     0
 90
        0
176
     0
 90
        0
176
     0
 40
0.6
176
     0
 40
30.0
176
     0
 62
     7
420
 16777215
176
     0
 90
        1
176
     0
 90
        4
176
     0
 62
     7
176
     0
 62
   257
176
     0
 90
        1
176
     0
 90
        1
176
     0
 40
1.0
176
     0
 90
        8
176
     2
 62
     7
176
     0
 40
1.0
176
     0
 90
        1
176
     0
 90
        6
176
     0
 90
        2
176
     0
 62
     7
176
     0
 90
        5
176
     0
 90
        0
176
     0
 90
        0
176
     0
290
     0
176
     0
 90
        1
176
     0
 40
0.0
176
     0
 90
        0
176
     0
290
     0
176
     0
290
     1
176
     0
290
     1
176
     0
290
     0
176
     0
290
     0
176
     0
290
     0
176
     0
290
     0
176
     0
290
     0
176
     0
290
     0
176
     0
 90
       50
176
     0
 40
0.0
176
     0
 40
1.0
176
     0
 90
        0
176
     0
 62
    18
420
        0
176
     0
 90
       50
176
     0
 90
        3
176
     0
 62
     5
420
      255
176
     0
290
     0
176
     0
 90
       50
176
     0
 90
       50
176
     0
 90
       50
176
     0
290
     0
176
     0
 90
       50
176
     0
 62
   256
176
     0
 40
1.0
176
     0
 90
        2
176
     0
  1
strokes_ogs.tif
176
     0
290
     0
176
     0
 40
1.0
176
     0
 40
1.0
176
     0
  0
VISUALSTYLE
  5
39
102
{ACAD_REACTORS
330
2A
102
}
330
2A
100
AcDbVisualStyle
  2
Facepattern
 70
    15
177
     3
291
     1
 70
    58
 90
        2
176
     1
 90
        2
176
     1
 90
        0
176
     1
 90
        0
176
     1
 40
0.6
176
     1
 40
30.0
176
     1
 62
     7
420
 16777215
176
     1
 90
        1
176
     1
 90
        4
176
     1
 62
     7
176
     1
 62
   257
176
     1
 90
        1
176
     1
 90
        1
176
     1
 40
1.0
176
     1
 90
        8
176
     1
 62
     7
176
     1
 40
1.0
176
     1
 90
        1
176
     1
 90
        6
176
     1
 90
        2
176
     1
 62
     7
176
     1
 90
        5
176
     1
 90
        0
176
     1
 90
        0
176
     1
290
     0
176
     1
 90
        1
176
     1
 40
0.0
176
     1
 90
        0
176
     1
290
     0
176
     1
290
     1
176
     1
290
     1
176
     1
290
     0
176
     1
290
     0
176
     1
290
     0
176
     1
290
     0
176
     1
290
     0
176
     1
290
     0
176
     1
 90
       50
176
     1
 40
0.0
176
     1
 40
1.0
176
     1
 90
        0
176
     1
 62
    18
420
        0
176
     1
 90
       50
176
     1
 90
        3
176
     1
 62
     5
420
      255
176
     1
290
     0
176
     1
 90
       50
176
     1
 90
       50
176
     1
 90
       50
176
     1
290
     0
176
     1
 90
       50
176
     1
 62
   256
176
     0
 40
1.0
176
     0
 90
        2
176
     1
  1
strokes_ogs.tif
176
     1
290
     0
176
     1
 40
1.0
176
     1
 40
1.0
176
     1
  0
VISUALSTYLE
  5
2B
102
{ACAD_REACTORS
330
2A
102
}
330
2A
100
AcDbVisualStyle
  2
Flat
 70
     0
177
     3
291
     1
 70
    58
 90
        2
176
     1
 90
        1
176
     1
 90
        1
176
     1
 90
        2
176
     1
 40
0.6
176
     1
 40
30.0
176
     1
 62
     7
420
 16777215
176
     1
 90
        0
176
     1
 90
        0
176
     1
 62
     7
176
     1
 62
   257
176
     1
 90
        1
176
     1
 90
        1
176
     1
 40
1.0
176
     1
 90
        8
176
     1
 62
     7
176
     1
 40
1.0
176
     1
 90
        1
176
     1
 90
        6
176
     1
 90
        2
176
     1
 62
     7
176
     1
 90
        5
176
     1
 90
        0
176
     1
 90
        0
176
     1
290
     0
176
     1
 90
       13
176
     1
 40
0.0
176
     1
 90
        0
176
     1
290
     0
176
     1
290
     1
176
     1
290
     1
176
     1
290
     0
176
     1
290
     0
176
     1
290
     0
176
     1
290
     0
176
     1
290
     0
176
     1
290
     0
176
     1
 90
       50
176
     1
 40
0.0
176
     1
 40
1.0
176
     1
 90
        0
176
     1
 62
    18
420
        0
176
     1
 90
       50
176
     1
 90
        3
176
     1
 62
     5
420
      255
176
     1
290
     0
176
     1
 90
       50
176
     1
 90
       50
176
     1
 90
       50
176
     1
290
     0
176
     1
 90
       50
176
     1
 62
   256
176
     0
 40
1.0
176
     0
 90
        2
176
     1
  1
strokes_ogs.tif
176
     1
290
     0
176
     1
 40
1.0
176
     1
 40
1.0
176
     1
  0
VISUALSTYLE
  5
2C
102
{ACAD_REACTORS
330
2A
102
}
330
2A
100
AcDbVisualStyle
  2
FlatWithEdges
 70
     1
177
     3
291
     1
 70
    58
 90
        2
176
     1
 90
        1
176
     1
 90
        1
176
     1
 90
        2
176
     1
 40
0.6
176
     1
 40
30.0
176
     1
 62
     7
420
 16777215
176
     1
 90
        1
176
     1
 90
        0
176
     1
 62
     7
176
     1
 62
   257
176
     1
 90
        1
176
     1
 90
        1
176
     1
 40
1.0
176
     1
 90
        0
176
     1
 62
   257
176
     1
 40
1.0
176
     1
 90
        1
176
     1
 90
        6
176
     1
 90
        2
176
     1
 62
     7
176
     1
 90
        5
176
     1
 90
        0
176
     1
 90
        0
176
     1
290
     0
176
     1
 90
       13
176
     1
 40
0.0
176
     1
 90
        0
176
     1
290
     0
176
     1
290
     1
176
     1
290
     1
176
     1
290
     0
176
     1
290
     0
176
     1
290
     0
176
     1
290
     0
176
     1
290
     0
176
     1
290
     0
176
     1
 90
       50
176
     1
 40
0.0
176
     1
 40
1.0
176
     1
 90
        0
176
     1
 62
    18
420
        0
176
     1
 90
       50
176
     1
 90
        3
176
     1
 62
     5
420
      255
176
     1
290
     0
176
     1
 90
       50
176
     1
 90
       50
176
     1
 90
       50
176
     1
290
     0
176
     1
 90
       50
176
     1
 62
   256
176
     0
 40
1.0
176
     0
 90
        2
176
     1
  1
strokes_ogs.tif
176
     1
290
     0
176
     1
 40
1.0
176
     1
 40
1.0
176
     1
  0
VISUALSTYLE
  5
2D
102
{ACAD_REACTORS
330
2A
102
}
330
2A
100
AcDbVisualStyle
  2
Gouraud
 70
     2
177
     3
291
     1
 70
    58
 90
        2
176
     1
 90
        2
176
     1
 90
        1
176
     1
 90
        2
176
     1
 40
0.6
176
     1
 40
30.0
176
     1
 62
     7
420
 16777215
176
     1
 90
        0
176
     1
 90
        0
176
     1
 62
     7
176
     1
 62
   257
176
     1
 90
        1
176
     1
 90
        1
176
     1
 40
1.0
176
     1
 90
        0
176
     1
 62
     7
176
     1
 40
1.0
176
     1
 90
        1
176
     1
 90
        6
176
     1
 90
        2
176
     1
 62
     7
176
     1
 90
        5
176
     1
 90
        0
176
     1
 90
        0
176
     1
290
     0
176
     1
 90
       13
176
     1
 40
0.0
176
     1
 90
        0
176
     1
290
     0
176
     1
290
     1
176
     1
290
     1
176
     1
290
     0
176
     1
290
     0
176
     1
290
     0
176
     1
290
     0
176
     1
290
     0
176
     1
290
     0
176
     1
 90
       50
176
     1
 40
0.0
176
     1
 40
1.0
176
     1
 90
        0
176
     1
 62
    18
420
        0
176
     1
 90
       50
176
     1
 90
        3
176
     1
 62
     5
420
      255
176
     1
290
     0
176
     1
 90
       50
176
     1
 90
       50
176
     1
 90
       50
176
     1
290
     0
176
     1
 90
       50
176
     1
 62
   256
176
     0
 40
1.0
176
     0
 90
        2
176
     1
  1
strokes_ogs.tif
176
     1
290
     0
176
     1
 40
1.0
176
     1
 40
1.0
176
     1
  0
VISUALSTYLE
  5
2E
102
{ACAD_REACTORS
330
2A
102
}
330
2A
100
AcDbVisualStyle
  2
GouraudWithEdges
 70
     3
177
     3
291
     1
 70
    58
 90
        2
176
     1
 90
        2
176
     1
 90
        1
176
     1
 90
        2
176
     1
 40
0.6
176
     1
 40
30.0
176
     1
 62
     7
420
 16777215
176
     1
 90
        1
176
     1
 90
        0
176
     1
 62
     7
176
     1
 62
   257
176
     1
 90
        1
176
     1
 90
        1
176
     1
 40
1.0
176
     1
 90
        0
176
     1
 62
   257
176
     1
 40
1.0
176
     1
 90
        1
176
     1
 90
        6
176
     1
 90
        2
176
     1
 62
     7
176
     1
 90
        5
176
     1
 90
        0
176
     1
 90
        0
176
     1
290
     0
176
     1
 90
       13
176
     1
 40
0.0
176
     1
 90
        0
176
     1
290
     0
176
     1
290
     1
176
     1
290
     1
176
     1
290
     0
176
     1
290
     0
176
     1
290
     0
176
     1
290
     0
176
     1
290
     0
176
     1
290
     0
176
     1
 90
       50
176
     1
 40
0.0
176
     1
 40
1.0
176
     1
 90
        0
176
     1
 62
    18
420
        0
176
     1
 90
       50
176
     1
 90
        3
176
     1
 62
     5
420
      255
176
     1
290
     0
176
     1
 90
       50
176
     1
 90
       50
176
     1
 90
       50
176
     1
290
     0
176
     1
 90
       50
176
     1
 62
   256
176
     0
 40
1.0
176
     0
 90
        2
176
     1
  1
strokes_ogs.tif
176
     1
290
     0
176
     1
 40
1.0
176
     1
 40
1.0
176
     1
  0
VISUALSTYLE
  5
31
102
{ACAD_REACTORS
330
2A
102
}
330
2A
100
AcDbVisualStyle
  2
Hidden
 70
     6
177
     3
291
     0
 70
    58
 90
        1
176
     1
 90
        2
176
     1
 90
        2
176
     1
 90
        0
176
     1
 40
0.6
176
     1
 40
30.0
176
     1
 62
     7
420
 16777215
176
     1
 90
        2
176
     1
 90
        2
176
     1
 62
     7
176
     1
 62
   257
176
     1
 90
        2
176
     1
 90
        1
176
     1
 40
40.0
176
     1
 90
        0
176
     1
 62
   257
176
     1
 40
1.0
176
     1
 90
        1
176
     1
 90
        6
176
     1
 90
        2
176
     1
 62
     7
176
     1
 90
        3
176
     1
 90
        0
176
     1
 90
        0
176
     1
290
     0
176
     1
 90
        1
176
     1
 40
0.0
176
     1
 90
        0
176
     1
290
     0
176
     1
290
     1
176
     1
290
     1
176
     1
290
     0
176
     1
290
     0
176
     1
290
     0
176
     1
290
     0
176
     1
290
     0
176
     1
290
     0
176
     1
 90
       50
176
     1
 40
0.0
176
     1
 40
1.0
176
     1
 90
        0
176
     1
 62
    18
420
        0
176
     1
 90
       50
176
     1
 90
        3
176
     1
 62
     5
420
      255
176
     1
290
     0
176
     1
 90
       50
176
     1
 90
       50
176
     1
 90
       50
176
     1
290
     0
176
     1
 90
       50
176
     1
 62
   256
176
     0
 40
1.0
176
     0
 90
        2
176
     1
  1
strokes_ogs.tif
176
     1
290
     0
176
     1
 40
1.0
176
     1
 40
1.0
176
     1
  0
VISUALSTYLE
  5
3B
102
{ACAD_REACTORS
330
2A
102
}
330
2A
100
AcDbVisualStyle
  2
JitterOff
 70
    20
177
     3
291
     1
 70
    58
 90
        2
176
     0
 90
        2
176
     0
 90
        0
176
     0
 90
        0
176
     0
 40
0.6
176
     0
 40
30.0
176
     0
 62
     7
420
 16777215
176
     0
 90
        1
176
     0
 90
        4
176
     0
 62
     7
176
     0
 62
   257
176
     0
 90
        1
176
     0
 90
        1
176
     0
 40
1.0
176
     0
 90
       10
176
     2
 62
     7
176
     0
 40
1.0
176
     0
 90
        1
176
     0
 90
        6
176
     0
 90
        2
176
     0
 62
     7
176
     0
 90
        5
176
     0
 90
        0
176
     0
 90
        0
176
     0
290
     0
176
     0
 90
        1
176
     0
 40
0.0
176
     0
 90
        0
176
     0
290
     0
176
     0
290
     1
176
     0
290
     1
176
     0
290
     0
176
     0
290
     0
176
     0
290
     0
176
     0
290
     0
176
     0
290
     0
176
     0
290
     0
176
     0
 90
       50
176
     0
 40
0.0
176
     0
 40
1.0
176
     0
 90
        0
176
     0
 62
    18
420
        0
176
     0
 90
       50
176
     0
 90
        3
176
     0
 62
     5
420
      255
176
     0
290
     0
176
     0
 90
       50
176
     0
 90
       50
176
     0
 90
       50
176
     0
290
     0
176
     0
 90
       50
176
     0
 62
   256
176
     0
 40
1.0
176
     0
 90
        2
176
     0
  1
strokes_ogs.tif
176
     0
290
     0
176
     0
 40
1.0
176
     0
 40
1.0
176
     0
  0
VISUALSTYLE
  5
38
102
{ACAD_REACTORS
330
2A
102
}
330
2A
100
AcDbVisualStyle
  2
Linepattern
 70
    14
177
     3
291
     1
 70
    58
 90
        2
176
     1
 90
        2
176
     1
 90
        0
176
     1
 90
        0
176
     1
 40
0.6
176
     1
 40
30.0
176
     1
 62
     7
420
 16777215
176
     1
 90
        1
176
     1
 90
        4
176
     1
 62
     7
176
     1
 62
   257
176
     1
 90
        7
176
     1
 90
        7
176
     1
 40
1.0
176
     1
 90
        8
176
     1
 62
     7
176
     1
 40
1.0
176
     1
 90
        1
176
     1
 90
        6
176
     1
 90
        2
176
     1
 62
     7
176
     1
 90
        5
176
     1
 90
        0
176
     1
 90
        0
176
     1
290
     0
176
     1
 90
        1
176
     1
 40
0.0
176
     1
 90
        0
176
     1
290
     0
176
     1
290
     1
176
     1
290
     1
176
     1
290
     0
176
     1
290
     0
176
     1
290
     0
176
     1
290
     0
176
     1
290
     0
176
     1
290
     0
176
     1
 90
       50
176
     1
 40
0.0
176
     1
 40
1.0
176
     1
 90
        0
176
     1
 62
    18
420
        0
176
     1
 90
       50
176
     1
 90
        3
176
     1
 62
     5
420
      255
176
     1
290
     0
176
     1
 90
       50
176
     1
 90
       50
176
     1
 90
       50
176
     1
290
     0
176
     1
 90
       50
176
     1
 62
   256
176
     0
 40
1.0
176
     0
 90
        2
176
     1
  1
strokes_ogs.tif
176
     1
290
     0
176
     1
 40
1.0
176
     1
 40
1.0
176
     1
  0
VISUALSTYLE
  5
3C
102
{ACAD_REACTORS
330
2A
102
}
330
2A
100
AcDbVisualStyle
  2
OverhangOff
 70
    21
177
     3
291
     1
 70
    58
 90
        2
176
     0
 90
        2
176
     0
 90
        0
176
     0
 90
        0
176
     0
 40
0.6
176
     0
 40
30.0
176
     0
 62
     7
420
 16777215
176
     0
 90
        1
176
     0
 90
        4
176
     0
 62
     7
176
     0
 62
   257
176
     0
 90
        1
176
     0
 90
        1
176
     0
 40
1.0
176
     0
 90
        9
176
     2
 62
     7
176
     0
 40
1.0
176
     0
 90
        1
176
     0
 90
        6
176
     0
 90
        2
176
     0
 62
     7
176
     0
 90
        5
176
     0
 90
        0
176
     0
 90
        0
176
     0
290
     0
176
     0
 90
        1
176
     0
 40
0.0
176
     0
 90
        0
176
     0
290
     0
176
     0
290
     1
176
     0
290
     1
176
     0
290
     0
176
     0
290
     0
176
     0
290
     0
176
     0
290
     0
176
     0
290
     0
176
     0
290
     0
176
     0
 90
       50
176
     0
 40
0.0
176
     0
 40
1.0
176
     0
 90
        0
176
     0
 62
    18
420
        0
176
     0
 90
       50
176
     0
 90
        3
176
     0
 62
     5
420
      255
176
     0
290
     0
176
     0
 90
       50
176
     0
 90
       50
176
     0
 90
       50
176
     0
290
     0
176
     0
 90
       50
176
     0
 62
   256
176
     0
 40
1.0
176
     0
 90
        2
176
     0
  1
strokes_ogs.tif
176
     0
290
     0
176
     0
 40
1.0
176
     0
 40
1.0
176
     0
  0
VISUALSTYLE
  5
33
102
{ACAD_REACTORS
330
2A
102
}
330
2A
100
AcDbVisualStyle
  2
Realistic
 70
     8
177
     3
291
     0
 70
    58
 90
        2
176
     1
 90
        3
176
     1
 90
        0
176
     1
 90
        2
176
     1
 40
0.6
176
     1
 40
30.0
176
     1
 62
     7
420
 16777215
176
     1
 90
        0
176
     1
 90
        0
176
     1
 62
     7
176
     1
 62
   257
176
     1
 90
        1
176
     1
 90
        1
176
     1
 40
1.0
176
     1
 90
        8
176
     1
 62
   257
176
     1
 40
1.0
176
     1
 90
        1
176
     1
 90
        6
176
     1
 90
        2
176
     1
 62
     7
176
     1
 90
        3
176
     1
 90
        0
176
     1
 90
        0
176
     1
290
     0
176
     1
 90
       13
176
     1
 40
0.0
176
     1
 90
        0
176
     1
290
     0
176
     1
290
     1
176
     1
290
     1
176
     1
290
     0
176
     1
290
     0
176
     1
290
     0
176
     1
290
     0
176
     1
290
     0
176
     1
290
     0
176
     1
 90
       50
176
     1
 40
0.0
176
     1
 40
1.0
176
     1
 90
        0
176
     1
 62
    18
420
        0
176
     1
 90
       50
176
     1
 90
        3
176
     1
 62
     5
420
      255
176
     1
290
     0
176
     1
 90
       50
176
     1
 90
       50
176
     1
 90
       50
176
     1
290
     0
176
     1
 90
       50
176
     1
 62
   256
176
     0
 40
1.0
176
     0
 90
        2
176
     1
  1
strokes_ogs.tif
176
     1
290
     0
176
     1
 40
1.0
176
     1
 40
1.0
176
     1
  0
VISUALSTYLE
  5
42
102
{ACAD_REACTORS
330
2A
102
}
330
2A
100
AcDbVisualStyle
  2
Shaded
 70
    27
177
     3
291
     0
 70
    58
 90
        2
176
     1
 90
        2
176
     1
 90
        1
176
     1
 90
        2
176
     1
 40
0.6
176
     1
 40
30.0
176
     1
 62
     7
420
 16777215
176
     1
 90
        0
176
     1
 90
        4
176
     1
 62
     7
176
     1
 62
   257
176
     1
 90
        1
176
     1
 90
        1
176
     1
 40
1.0
176
     1
 90
        8
176
     1
 62
   257
176
     1
 40
1.0
176
     1
 90
        1
176
     1
 90
        6
176
     1
 90
        2
176
     1
 62
     8
420
  7895160
176
     1
 90
        3
176
     1
 90
        0
176
     1
 90
        0
176
     1
290
     0
176
     1
 90
        5
176
     1
 40
0.0
176
     1
 90
        0
176
     1
290
     0
176
     1
290
     1
176
     1
290
     1
176
     1
290
     0
176
     1
290
     0
176
     1
290
     0
176
     1
290
     0
176
     1
290
     0
176
     1
290
     0
176
     1
 90
       50
176
     1
 40
0.0
176
     1
 40
1.0
176
     1
 90
        0
176
     1
 62
    18
420
        0
176
     1
 90
       50
176
     1
 90
        3
176
     1
 62
     5
420
      255
176
     1
290
     0
176
     1
 90
       50
176
     1
 90
       50
176
     1
 90
       50
176
     1
290
     0
176
     1
 90
       50
176
     1
 62
   256
176
     0
 40
1.0
176
     0
 90
        2
176
     1
  1
strokes_ogs.tif
176
     1
290
     0
176
     1
 40
1.0
176
     1
 40
1.0
176
     1
  0
VISUALSTYLE
  5
41
102
{ACAD_REACTORS
330
2A
102
}
330
2A
100
AcDbVisualStyle
  2
Shaded with edges
 70
    26
177
     3
291
     0
 70
    58
 90
        2
176
     1
 90
        2
176
     1
 90
        1
176
     1
 90
        2
176
     1
 40
0.6
176
     1
 40
30.0
176
     1
 62
     7
420
 16777215
176
     1
 90
        1
176
     1
 90
       10
176
     1
 62
     7
176
     1
 62
   257
176
     1
 90
        2
176
     1
 90
        1
176
     1
 40
1.0
176
     1
 90
        8
176
     1
 62
   257
176
     1
 40
1.0
176
     1
 90
        1
176
     1
 90
        6
176
     1
 90
        2
176
     1
 62
     7
176
     1
 90
        3
176
     1
 90
        0
176
     1
 90
        0
176
     1
290
     0
176
     1
 90
        5
176
     1
 40
0.0
176
     1
 90
        0
176
     1
290
     0
176
     1
290
     1
176
     1
290
     1
176
     1
290
     0
176
     1
290
     0
176
     1
290
     0
176
     1
290
     0
176
     1
290
     0
176
     1
290
     0
176
     1
 90
       50
176
     1
 40
0.0
176
     1
 40
1.0
176
     1
 90
        0
176
     1
 62
    18
420
        0
176
     1
 90
       50
176
     1
 90
        3
176
     1
 62
     5
420
      255
176
     1
290
     0
176
     1
 90
       50
176
     1
 90
       50
176
     1
 90
       50
176
     1
290
     0
176
     1
 90
       50
176
     1
 62
   256
176
     0
 40
1.0
176
     0
 90
        2
176
     1
  1
strokes_ogs.tif
176
     1
290
     0
176
     1
 40
1.0
176
     1
 40
1.0
176
     1
  0
VISUALSTYLE
  5
3E
102
{ACAD_REACTORS
330
2A
102
}
330
2A
100
AcDbVisualStyle
  2
Shades of Gray
 70
    23
177
     3
291
     0
 70
    58
 90
        2
176
     1
 90
        2
176
     1
 90
        3
176
     1
 90
        0
176
     1
 40
0.6
176
     1
 40
30.0
176
     1
 62
     7
420
 16777215
176
     1
 90
        2
176
     1
 90
        2
176
     1
 62
     7
176
     1
 62
     7
176
     1
 90
        1
176
     1
 90
        1
176
     1
 40
40.0
176
     1
 90
        8
176
     1
 62
     7
176
     1
 40
1.0
176
     1
 90
        1
176
     1
 90
        6
176
     1
 90
        2
176
     1
 62
     7
176
     1
 90
        3
176
     1
 90
        0
176
     1
 90
        0
176
     1
290
     0
176
     1
 90
        1
176
     1
 40
0.0
176
     1
 90
        0
176
     1
290
     0
176
     1
290
     1
176
     1
290
     1
176
     1
290
     0
176
     1
290
     0
176
     1
290
     0
176
     1
290
     0
176
     1
290
     0
176
     1
290
     0
176
     1
 90
       50
176
     1
 40
0.0
176
     1
 40
1.0
176
     1
 90
        0
176
     1
 62
    18
420
        0
176
     1
 90
       50
176
     1
 90
        3
176
     1
 62
     5
420
      255
176
     1
290
     0
176
     1
 90
       50
176
     1
 90
       50
176
     1
 90
       50
176
     1
290
     0
176
     1
 90
       50
176
     1
 62
   256
176
     0
 40
1.0
176
     0
 90
        2
176
     1
  1
strokes_ogs.tif
176
     1
290
     0
176
     1
 40
1.0
176
     1
 40
1.0
176
     1
  0
VISUALSTYLE
  5
3F
102
{ACAD_REACTORS
330
2A
102
}
330
2A
100
AcDbVisualStyle
  2
Sketchy
 70
    24
177
     3
291
     0
 70
    58
 90
        1
176
     1
 90
        2
176
     1
 90
        2
176
     1
 90
        0
176
     1
 40
0.6
176
     1
 40
30.0
176
     1
 62
     7
420
 16777215
176
     1
 90
        2
176
     1
 90
        2
176
     1
 62
     7
176
     1
 62
     7
176
     1
 90
        1
176
     1
 90
        1
176
     1
 40
40.0
176
     1
 90
       11
176
     1
 62
     7
176
     1
 40
1.0
176
     1
 90
        1
176
     1
 90
        6
176
     1
 90
        2
176
     1
 62
     7
176
     1
 90
        6
176
     1
 90
        0
176
     1
 90
        0
176
     1
290
     0
176
     1
 90
        1
176
     1
 40
0.0
176
     1
 90
        0
176
     1
290
     0
176
     1
290
     1
176
     1
290
     1
176
     1
290
     0
176
     1
290
     0
176
     1
290
     0
176
     1
290
     0
176
     1
290
     0
176
     1
290
     0
176
     1
 90
       50
176
     1
 40
0.0
176
     1
 40
1.0
176
     1
 90
        0
176
     1
 62
    18
420
        0
176
     1
 90
       50
176
     1
 90
        3
176
     1
 62
     5
420
      255
176
     1
290
     0
176
     1
 90
       50
176
     1
 90
       50
176
     1
 90
       50
176
     1
290
     0
176
     1
 90
       50
176
     1
 62
   256
176
     0
 40
1.0
176
     0
 90
        2
176
     1
  1
strokes_ogs.tif
176
     1
290
     0
176
     1
 40
1.0
176
     1
 40
1.0
176
     1
  0
VISUALSTYLE
  5
37
102
{ACAD_REACTORS
330
2A
102
}
330
2A
100
AcDbVisualStyle
  2
Thicken
 70
    13
177
     3
291
     1
 70
    58
 90
        2
176
     1
 90
        2
176
     1
 90
        0
176
     1
 90
        0
176
     1
 40
0.6
176
     1
 40
30.0
176
     1
 62
     7
420
 16777215
176
     1
 90
        1
176
     1
 90
        4
176
     1
 62
     7
176
     1
 62
   257
176
     1
 90
        1
176
     1
 90
        1
176
     1
 40
1.0
176
     1
 90
       12
176
     1
 62
     7
176
     1
 40
1.0
176
     1
 90
        1
176
     1
 90
        6
176
     1
 90
        2
176
     1
 62
     7
176
     1
 90
        5
176
     1
 90
        0
176
     1
 90
        0
176
     1
290
     0
176
     1
 90
        1
176
     1
 40
0.0
176
     1
 90
        0
176
     1
290
     0
176
     1
290
     1
176
     1
290
     1
176
     1
290
     0
176
     1
290
     0
176
     1
290
     0
176
     1
290
     0
176
     1
290
     0
176
     1
290
     0
176
     1
 90
       50
176
     1
 40
0.0
176
     1
 40
1.0
176
     1
 90
        0
176
     1
 62
    18
420
        0
176
     1
 90
       50
176
     1
 90
        3
176
     1
 62
     5
420
      255
176
     1
290
     0
176
     1
 90
       50
176
     1
 90
       50
176
     1
 90
       50
176
     1
290
     0
176
     1
 90
       50
176
     1
 62
   256
176
     0
 40
1.0
176
     0
 90
        2
176
     1
  1
strokes_ogs.tif
176
     1
290
     0
176
     1
 40
1.0
176
     1
 40
1.0
176
     1
  0
VISUALSTYLE
  5
30
102
{ACAD_REACTORS
330
2A
102
}
330
2A
100
AcDbVisualStyle
  2
Wireframe
 70
     5
177
     3
291
     0
 70
    58
 90
        0
176
     1
 90
        2
176
     1
 90
        0
176
     1
 90
        0
176
     1
 40
0.6
176
     1
 40
30.0
176
     1
 62
     7
420
 16777215
176
     1
 90
        1
176
     1
 90
        4
176
     1
 62
     7
176
     1
 62
   257
176
     1
 90
        1
176
     1
 90
        1
176
     1
 40
1.0
176
     1
 90
        0
176
     1
 62
   257
176
     1
 40
1.0
176
     1
 90
        1
176
     1
 90
        6
176
     1
 90
        2
176
     1
 62
     7
176
     1
 90
        3
176
     1
 90
        0
176
     1
 90
        0
176
     1
290
     0
176
     1
 90
        1
176
     1
 40
0.0
176
     1
 90
        0
176
     1
290
     0
176
     1
290
     1
176
     1
290
     1
176
     1
290
     0
176
     1
290
     0
176
     1
290
     0
176
     1
290
     0
176
     1
290
     0
176
     1
290
     0
176
     1
 90
       50
176
     1
 40
0.0
176
     1
 40
1.0
176
     1
 90
        0
176
     1
 62
    18
420
        0
176
     1
 90
       50
176
     1
 90
        3
176
     1
 62
     5
420
      255
176
     1
290
     0
176
     1
 90
       50
176
     1
 90
       50
176
     1
 90
       50
176
     1
290
     0
176
     1
 90
       50
176
     1
 62
   256
176
     0
 40
1.0
176
     0
 90
        2
176
     1
  1
strokes_ogs.tif
176
     1
290
     0
176
     1
 40
1.0
176
     1
 40
1.0
176
     1
  0
VISUALSTYLE
  5
40
102
{ACAD_REACTORS
330
2A
102
}
330
2A
100
AcDbVisualStyle
  2
X-Ray
 70
    25
177
     3
291
     0
 70
    58
 90
        2
176
     1
 90
        2
176
     1
 90
        1
176
     1
 90
        1
176
     1
 40
0.5
176
     1
 40
30.0
176
     1
 62
     7
420
 16777215
176
     1
 90
        1
176
     1
 90
        0
176
     1
 62
     7
176
     1
 62
   257
176
     1
 90
        1
176
     1
 90
        1
176
     1
 40
1.0
176
     1
 90
        8
176
     1
 62
     7
176
     1
 40
1.0
176
     1
 90
        1
176
     1
 90
        6
176
     1
 90
        2
176
     1
 62
     7
176
     1
 90
        3
176
     1
 90
        0
176
     1
 90
        0
176
     1
290
     0
176
     1
 90
       13
176
     1
 40
0.0
176
     1
 90
        0
176
     1
290
     0
176
     1
290
     1
176
     1
290
     1
176
     1
290
     0
176
     1
290
     0
176
     1
290
     0
176
     1
290
     0
176
     1
290
     0
176
     1
290
     0
176
     1
 90
       50
176
     1
 40
0.0
176
     1
 40
1.0
176
     1
 90
        0
176
     1
 62
    18
420
        0
176
     1
 90
       50
176
     1
 90
        3
176
     1
 62
     5
420
      255
176
     1
290
     0
176
     1
 90
       50
176
     1
 90
       50
176
     1
 90
       50
176
     1
290
     0
176
     1
 90
       50
176
     1
 62
   256
176
     0
 40
1.0
176
     0
 90
        2
176
     1
  1
strokes_ogs.tif
176
     1
290
     0
176
     1
 40
1.0
176
     1
 40
1.0
176
     1
  0
DICTIONARYVAR
  5
1D8
102
{ACAD_REACTORS
330
1D7
102
}
330
1D7
100
DictionaryVariables
280
     0
  1
1:1
  0
DICTIONARYVAR
  5
1DD
102
{ACAD_REACTORS
330
1D7
102
}
330
1D7
100
DictionaryVariables
280
     0
  1
Standard
  0
DICTIONARYVAR
  5
1DC
102
{ACAD_REACTORS
330
1D7
102
}
330
1D7
100
DictionaryVariables
280
     0
  1
Standard
  0
DICTIONARY
  5
1D9
330
6A
100
AcDbDictionary
280
     1
281
     1
  3
ACAD_ROUNDTRIP_2008_TABLESTYLE_CELLSTYLEMAP
360
1DA
  0
CELLSTYLEMAP
  5
1DA
102
{ACAD_REACTORS
330
1D9
102
}
330
1D9
100
AcDbCellStyleMap
 90
        3
300
CELLSTYLE
  1
TABLEFORMAT_BEGIN
 90
        5
170
     1
 91
        0
 92
    32768
 62
   257
 93
        1
300
CONTENTFORMAT
  1
CONTENTFORMAT_BEGIN
 90
        0
 91
        0
 92
        4
 93
        0
300

 40
0.0
140
1.0
 94
        5
 62
     0
340
11
144
6.0
309
CONTENTFORMAT_END
171
     1
301
MARGIN
  1
CELLMARGIN_BEGIN
 40
1.5
 40
1.5
 40
1.5
 40
1.5
 40
1.5
 40
1.5
309
CELLMARGIN_END
 94
        6
 95
        1
302
GRIDFORMAT
  1
GRIDFORMAT_BEGIN
 90
        0
 91
        1
 62
     0
 92
       -2
340
14
 93
        0
 40
0.045
309
GRIDFORMAT_END
 95
        2
302
GRIDFORMAT
  1
GRIDFORMAT_BEGIN
 90
        0
 91
        1
 62
     0
 92
       -2
340
14
 93
        0
 40
0.045
309
GRIDFORMAT_END
 95
        4
302
GRIDFORMAT
  1
GRIDFORMAT_BEGIN
 90
        0
 91
        1
 62
     0
 92
       -2
340
14
 93
        0
 40
0.045
309
GRIDFORMAT_END
 95
        8
302
GRIDFORMAT
  1
GRIDFORMAT_BEGIN
 90
        0
 91
        1
 62
     0
 92
       -2
340
14
 93
        0
 40
0.045
309
GRIDFORMAT_END
 95
       16
302
GRIDFORMAT
  1
GRIDFORMAT_BEGIN
 90
        0
 91
        1
 62
     0
 92
       -2
340
14
 93
        0
 40
0.045
309
GRIDFORMAT_END
 95
       32
302
GRIDFORMAT
  1
GRIDFORMAT_BEGIN
 90
        0
 91
        1
 62
     0
 92
       -2
340
14
 93
        0
 40
0.045
309
GRIDFORMAT_END
309
TABLEFORMAT_END
  1
CELLSTYLE_BEGIN
 90
        1
 91
        1
300
_TITLE
309
CELLSTYLE_END
300
CELLSTYLE
  1
TABLEFORMAT_BEGIN
 90
        5
170
     1
 91
        0
 92
        0
 62
   257
 93
        1
300
CONTENTFORMAT
  1
CONTENTFORMAT_BEGIN
 90
        0
 91
        0
 92
        4
 93
        0
300

 40
0.0
140
1.0
 94
        5
 62
     0
340
11
144
4.5
309
CONTENTFORMAT_END
171
     1
301
MARGIN
  1
CELLMARGIN_BEGIN
 40
1.5
 40
1.5
 40
1.5
 40
1.5
 40
1.5
 40
1.5
309
CELLMARGIN_END
 94
        6
 95
        1
302
GRIDFORMAT
  1
GRIDFORMAT_BEGIN
 90
        0
 91
        1
 62
     0
 92
       -2
340
14
 93
        0
 40
0.045
309
GRIDFORMAT_END
 95
        2
302
GRIDFORMAT
  1
GRIDFORMAT_BEGIN
 90
        0
 91
        1
 62
     0
 92
       -2
340
14
 93
        0
 40
0.045
309
GRIDFORMAT_END
 95
        4
302
GRIDFORMAT
  1
GRIDFORMAT_BEGIN
 90
        0
 91
        1
 62
     0
 92
       -2
340
14
 93
        0
 40
0.045
309
GRIDFORMAT_END
 95
        8
302
GRIDFORMAT
  1
GRIDFORMAT_BEGIN
 90
        0
 91
        1
 62
     0
 92
       -2
340
14
 93
        0
 40
0.045
309
GRIDFORMAT_END
 95
       16
302
GRIDFORMAT
  1
GRIDFORMAT_BEGIN
 90
        0
 91
        1
 62
     0
 92
       -2
340
14
 93
        0
 40
0.045
309
GRIDFORMAT_END
 95
       32
302
GRIDFORMAT
  1
GRIDFORMAT_BEGIN
 90
        0
 91
        1
 62
     0
 92
       -2
340
14
 93
        0
 40
0.045
309
GRIDFORMAT_END
309
TABLEFORMAT_END
  1
CELLSTYLE_BEGIN
 90
        2
 91
        1
300
_HEADER
309
CELLSTYLE_END
300
CELLSTYLE
  1
TABLEFORMAT_BEGIN
 90
        5
170
     1
 91
        0
 92
        0
 62
   257
 93
        1
300
CONTENTFORMAT
  1
CONTENTFORMAT_BEGIN
 90
        0
 91
        0
 92
        4
 93
        0
300

 40
0.0
140
1.0
 94
        2
 62
     0
340
11
144
4.5
309
CONTENTFORMAT_END
171
     1
301
MARGIN
  1
CELLMARGIN_BEGIN
 40
1.5
 40
1.5
 40
1.5
 40
1.5
 40
1.5
 40
1.5
309
CELLMARGIN_END
 94
        6
 95
        1
302
GRIDFORMAT
  1
GRIDFORMAT_BEGIN
 90
        0
 91
        1
 62
     0
 92
       -2
340
14
 93
        0
 40
0.045
309
GRIDFORMAT_END
 95
        2
302
GRIDFORMAT
  1
GRIDFORMAT_BEGIN
 90
        0
 91
        1
 62
     0
 92
       -2
340
14
 93
        0
 40
0.045
309
GRIDFORMAT_END
 95
        4
302
GRIDFORMAT
  1
GRIDFORMAT_BEGIN
 90
        0
 91
        1
 62
     0
 92
       -2
340
14
 93
        0
 40
0.045
309
GRIDFORMAT_END
 95
        8
302
GRIDFORMAT
  1
GRIDFORMAT_BEGIN
 90
        0
 91
        1
 62
     0
 92
       -2
340
14
 93
        0
 40
0.045
309
GRIDFORMAT_END
 95
       16
302
GRIDFORMAT
  1
GRIDFORMAT_BEGIN
 90
        0
 91
        1
 62
     0
 92
       -2
340
14
 93
        0
 40
0.045
309
GRIDFORMAT_END
 95
       32
302
GRIDFORMAT
  1
GRIDFORMAT_BEGIN
 90
        0
 91
        1
 62
     0
 92
       -2
340
14
 93
        0
 40
0.045
309
GRIDFORMAT_END
309
TABLEFORMAT_END
  1
CELLSTYLE_BEGIN
 90
        3
 91
        2
300
_DATA
309
CELLSTYLE_END
  0
ENDSEC
  0
EOF
