  0
SECTION
  2
HEADER
  9
$ACADVER
  1
AC1027
  9
$ACADMAINTVER
 70
   105
  9
$DWGCODEPAGE
  3
ANSI_1252
  9
$REQUIREDVERSIONS
160
                 0
  9
$INSBASE
 10
0.0
 20
0.0
 30
0.0
  9
$EXTMIN
 10
-280.401522154
 20
-206.5801364085
 30
0.0
  9
$EXTMAX
 10
280.4015221553
 20
205.0510796635
 30
0.0
  9
$LIMMIN
 10
0.0
 20
0.0
  9
$LIMMAX
 10
420.0
 20
297.0
  9
$ORTHOMODE
 70
     0
  9
$REGENMODE
 70
     1
  9
$FILLMODE
 70
     1
  9
$QTEXTMODE
 70
     0
  9
$MIRRTEXT
 70
     1
  9
$LTSCALE
 40
1.0
  9
$ATTMODE
 70
     1
  9
$TEXTSIZE
 40
3.5
  9
$TRACEWID
 40
1.0
  9
$TEXTSTYLE
  7
STANDARD
  9
$CLAYER
  8
0
  9
$CELTYPE
  6
ByLayer
  9
$CECOLOR
 62
   256
  9
$CELTSCALE
 40
1.0
  9
$DISPSILH
 70
     0
  9
$DIMSCALE
 40
1.0
  9
$DIMASZ
 40
6.0
  9
$DIMEXO
 40
1.0
  9
$DIMDLI
 40
3.75
  9
$DIMRND
 40
0.0
  9
$DIMDLE
 40
0.0
  9
$DIMEXE
 40
1.0
  9
$DIMTP
 40
0.0
  9
$DIMTM
 40
0.0
  9
$DIMTXT
 40
3.5
  9
$DIMCEN
 40
2.5
  9
$DIMTSZ
 40
0.0
  9
$DIMTOL
 70
     0
  9
$DIMLIM
 70
     0
  9
$DIMTIH
 70
     1
  9
$DIMTOH
 70
     1
  9
$DIMSE1
 70
     0
  9
$DIMSE2
 70
     0
  9
$DIMTAD
 70
     1
  9
$DIMZIN
 70
     0
  9
$DIMBLK
  1

  9
$DIMASO
 70
     1
  9
$DIMSHO
 70
     1
  9
$DIMPOST
  1

  9
$DIMAPOST
  1

  9
$DIMALT
 70
     0
  9
$DIMALTD
 70
     3
  9
$DIMALTF
 40
0.0393700787
  9
$DIMLFAC
 40
1.0
  9
$DIMTOFL
 70
     1
  9
$DIMTVP
 40
0.0
  9
$DIMTIX
 70
     0
  9
$DIMSOXD
 70
     0
  9
$DIMSAH
 70
     0
  9
$DIMBLK1
  1

  9
$DIMBLK2
  1

  9
$DIMSTYLE
  2
ISO-25
  9
$DIMCLRD
 70
     0
  9
$DIMCLRE
 70
     0
  9
$DIMCLRT
 70
     0
  9
$DIMTFAC
 40
1.0
  9
$DIMGAP
 40
1.524
  9
$DIMJUST
 70
     0
  9
$DIMSD1
 70
     0
  9
$DIMSD2
 70
     0
  9
$DIMTOLJ
 70
     0
  9
$DIMTZIN
 70
     0
  9
$DIMALTZ
 70
     0
  9
$DIMALTTZ
 70
     0
  9
$DIMUPT
 70
     0
  9
$DIMDEC
 70
     2
  9
$DIMTDEC
 70
     2
  9
$DIMALTU
 70
     2
  9
$DIMALTTD
 70
     3
  9
$DIMTXSTY
  7
STANDARD
  9
$DIMAUNIT
 70
     0
  9
$DIMADEC
 70
     2
  9
$DIMALTRND
 40
0.0
  9
$DIMAZIN
 70
     0
  9
$DIMDSEP
 70
    44
  9
$DIMATFIT
 70
     3
  9
$DIMFRAC
 70
     0
  9
$DIMLDRBLK
  1

  9
$DIMLUNIT
 70
     2
  9
$DIMLWD
 70
    -2
  9
$DIMLWE
 70
    -2
  9
$DIMTMOVE
 70
     0
  9
$DIMFXL
 40
1.0
  9
$DIMFXLON
 70
     0
  9
$DIMJOGANG
 40
0.7853981634
  9
$DIMTFILL
 70
     0
  9
$DIMTFILLCLR
 70
     0
  9
$DIMARCSYM
 70
     0
  9
$DIMLTYPE
  6

  9
$DIMLTEX1
  6

  9
$DIMLTEX2
  6

  9
$DIMTXTDIRECTION
 70
     0
  9
$LUNITS
 70
     2
  9
$LUPREC
 70
     2
  9
$SKETCHINC
 40
1.0
  9
$FILLETRAD
 40
10.0
  9
$AUNITS
 70
     0
  9
$AUPREC
 70
     2
  9
$MENU
  1
.
  9
$ELEVATION
 40
0.0
  9
$PELEVATION
 40
0.0
  9
$THICKNESS
 40
0.0
  9
$LIMCHECK
 70
     0
  9
$CHAMFERA
 40
0.0
  9
$CHAMFERB
 40
0.0
  9
$CHAMFERC
 40
0.0
  9
$CHAMFERD
 40
0.0
  9
$SKPOLY
 70
     0
  9
$TDCREATE
 40
2458299.40945941
  9
$TDUCREATE
 40
2458299.326126076
  9
$TDUPDATE
 40
2458299.409486562
  9
$TDUUPDATE
 40
2458299.326153229
  9
$TDINDWG
 40
0.0000000116
  9
$TDUSRTIMER
 40
0.0000000116
  9
$USRTIMER
 70
     1
  9
$ANGBASE
 50
0.0
  9
$ANGDIR
 70
     0
  9
$PDMODE
 70
     0
  9
$PDSIZE
 40
-1.0
  9
$PLINEWID
 40
0.0
  9
$SPLFRAME
 70
     0
  9
$SPLINETYPE
 70
     6
  9
$SPLINESEGS
 70
     8
  9
$HANDSEED
  5
117
  9
$SURFTAB1
 70
     6
  9
$SURFTAB2
 70
     6
  9
$SURFTYPE
 70
     6
  9
$SURFU
 70
     6
  9
$SURFV
 70
     6
  9
$UCSBASE
  2

  9
$UCSNAME
  2

  9
$UCSORG
 10
0.0
 20
0.0
 30
0.0
  9
$UCSXDIR
 10
1.0
 20
0.0
 30
0.0
  9
$UCSYDIR
 10
0.0
 20
1.0
 30
0.0
  9
$UCSORTHOREF
  2

  9
$UCSORTHOVIEW
 70
     0
  9
$UCSORGTOP
 10
0.0
 20
0.0
 30
0.0
  9
$UCSORGBOTTOM
 10
0.0
 20
0.0
 30
0.0
  9
$UCSORGLEFT
 10
0.0
 20
0.0
 30
0.0
  9
$UCSORGRIGHT
 10
0.0
 20
0.0
 30
0.0
  9
$UCSORGFRONT
 10
0.0
 20
0.0
 30
0.0
  9
$UCSORGBACK
 10
0.0
 20
0.0
 30
0.0
  9
$PUCSBASE
  2

  9
$PUCSNAME
  2

  9
$PUCSORG
 10
0.0
 20
0.0
 30
0.0
  9
$PUCSXDIR
 10
1.0
 20
0.0
 30
0.0
  9
$PUCSYDIR
 10
0.0
 20
1.0
 30
0.0
  9
$PUCSORTHOREF
  2

  9
$PUCSORTHOVIEW
 70
     0
  9
$PUCSORGTOP
 10
0.0
 20
0.0
 30
0.0
  9
$PUCSORGBOTTOM
 10
0.0
 20
0.0
 30
0.0
  9
$PUCSORGLEFT
 10
0.0
 20
0.0
 30
0.0
  9
$PUCSORGRIGHT
 10
0.0
 20
0.0
 30
0.0
  9
$PUCSORGFRONT
 10
0.0
 20
0.0
 30
0.0
  9
$PUCSORGBACK
 10
0.0
 20
0.0
 30
0.0
  9
$USERI1
 70
     0
  9
$USERI2
 70
     0
  9
$USERI3
 70
     0
  9
$USERI4
 70
     0
  9
$USERI5
 70
     0
  9
$USERR1
 40
0.0
  9
$USERR2
 40
0.0
  9
$USERR3
 40
0.0
  9
$USERR4
 40
0.0
  9
$USERR5
 40
0.0
  9
$WORLDVIEW
 70
     1
  9
$SHADEDGE
 70
     3
  9
$SHADEDIF
 70
    70
  9
$TILEMODE
 70
     1
  9
$MAXACTVP
 70
    64
  9
$PINSBASE
 10
0.0
 20
0.0
 30
0.0
  9
$PLIMCHECK
 70
     0
  9
$PEXTMIN
 10
-280.4375795668
 20
-195.0
 30
0.0
  9
$PEXTMAX
 10
280.4375795661
 20
0.0
 30
0.0
  9
$PLIMMIN
 10
-324.0854518728
 20
-211.3679521148
  9
$PLIMMAX
 10
324.0854518722
 20
246.9347070989
  9
$UNITMODE
 70
     0
  9
$VISRETAIN
 70
     1
  9
$PLINEGEN
 70
     0
  9
$PSLTSCALE
 70
     1
  9
$TREEDEPTH
 70
  3020
  9
$CMLSTYLE
  2
Standard
  9
$CMLJUST
 70
     0
  9
$CMLSCALE
 40
20.0
  9
$PROXYGRAPHICS
 70
     1
  9
$MEASUREMENT
 70
     1
  9
$CELWEIGHT
370
    -1
  9
$ENDCAPS
280
     0
  9
$JOINSTYLE
280
     0
  9
$LWDISPLAY
290
     1
  9
$INSUNITS
 70
     4
  9
$HYPERLINKBASE
  1

  9
$STYLESHEET
  1

  9
$XEDIT
290
     1
  9
$CEPSNTYPE
380
     0
  9
$PSTYLEMODE
290
     1
  9
$FINGERPRINTGUID
  2
{3A7C04BB-2936-4CC1-993D-33952F690CA9}
  9
$VERSIONGUID
  2
{FAEB1C32-E019-11D5-929B-00C0DF256EC4}
  9
$EXTNAMES
290
     1
  9
$PSVPSCALE
 40
0.0
  9
$OLESTARTUP
290
     0
  9
$SORTENTS
280
   127
  9
$INDEXCTL
280
     0
  9
$HIDETEXT
280
     1
  9
$XCLIPFRAME
280
     2
  9
$HALOGAP
280
     0
  9
$OBSCOLOR
 70
   257
  9
$OBSLTYPE
280
     0
  9
$INTERSECTIONDISPLAY
280
     0
  9
$INTERSECTIONCOLOR
 70
   257
  9
$DIMASSOC
280
     2
  9
$PROJECTNAME
  1

  9
$CAMERADISPLAY
290
     0
  9
$LENSLENGTH
 40
50.0
  9
$CAMERAHEIGHT
 40
0.0
  9
$STEPSPERSEC
 40
2.0
  9
$STEPSIZE
 40
6.0
  9
$3DDWFPREC
 40
2.0
  9
$PSOLWIDTH
 40
5.0
  9
$PSOLHEIGHT
 40
80.0
  9
$LOFTANG1
 40
1.5707963268
  9
$LOFTANG2
 40
1.5707963268
  9
$LOFTMAG1
 40
0.0
  9
$LOFTMAG2
 40
0.0
  9
$LOFTPARAM
 70
     7
  9
$LOFTNORMALS
280
     1
  9
$LATITUDE
 40
37.795
  9
$LONGITUDE
 40
-122.394
  9
$NORTHDIRECTION
 40
0.0
  9
$TIMEZONE
 70
 -8000
  9
$LIGHTGLYPHDISPLAY
280
     1
  9
$TILEMODELIGHTSYNCH
280
     1
  9
$CMATERIAL
347
44
  9
$SOLIDHIST
280
     0
  9
$SHOWHIST
280
     1
  9
$DWFFRAME
280
     2
  9
$DGNFRAME
280
     2
  9
$REALWORLDSCALE
290
     1
  9
$INTERFERECOLOR
 62
   256
  9
$CSHADOW
280
     0
  9
$SHADOWPLANELOCATION
 40
0.0
  0
ENDSEC
  0
SECTION
  2
CLASSES
  0
CLASS
  1
ACDBDICTIONARYWDFLT
  2
AcDbDictionaryWithDefault
  3
ObjectDBX Classes
 90
        0
 91
        4
280
     0
281
     0
  0
CLASS
  1
VISUALSTYLE
  2
AcDbVisualStyle
  3
ObjectDBX Classes
 90
     4095
 91
        4
280
     0
281
     0
  0
CLASS
  1
MATERIAL
  2
AcDbMaterial
  3
ObjectDBX Classes
 90
     1153
 91
        4
280
     0
281
     0
  0
CLASS
  1
SCALE
  2
AcDbScale
  3
ObjectDBX Classes
 90
     1153
 91
        4
280
     0
281
     0
  0
CLASS
  1
TABLESTYLE
  2
AcDbTableStyle
  3
ObjectDBX Classes
 90
     4095
 91
        4
280
     0
281
     0
  0
CLASS
  1
MLEADERSTYLE
  2
AcDbMLeaderStyle
  3
ACDB_MLEADERSTYLE_CLASS
 90
     4095
 91
        4
280
     0
281
     0
  0
CLASS
  1
SUN
  2
AcDbSun
  3
SCENEOE
 90
     1153
 91
        4
280
     0
281
     0
  0
CLASS
  1
DICTIONARYVAR
  2
AcDbDictionaryVar
  3
ObjectDBX Classes
 90
        0
 91
        4
280
     0
281
     0
  0
CLASS
  1
CELLSTYLEMAP
  2
AcDbCellStyleMap
  3
ObjectDBX Classes
 90
     1152
 91
        4
280
     0
281
     0
  0
ENDSEC
  0
SECTION
  2
TABLES
  0
TABLE
  2
VPORT
  5
8
330
0
100
AcDbSymbolTable
 70
     1
  0
VPORT
  5
29
330
8
100
AcDbSymbolTableRecord
100
AcDbViewportTableRecord
  2
*Active
 70
     0
 10
0.0
 20
0.0
 11
1.0
 21
1.0
 12
0.0000000006
 22
-0.7645283725
 13
0.0
 23
0.0
 14
10.0
 24
10.0
 15
10.0
 25
10.0
 16
0.0
 26
0.0
 36
1.0
 17
0.0
 27
0.0
 37
0.0
 40
419.8638403935
 41
1.3623919237
 42
50.0
 43
0.0
 44
0.0
 50
0.0
 51
0.0
 71
     0
 72
   100
 73
     1
 74
     3
 75
     0
 76
     0
 77
     0
 78
     0
281
     0
 65
     1
110
0.0
120
0.0
130
0.0
111
1.0
121
0.0
131
0.0
112
0.0
122
1.0
132
0.0
 79
     0
146
0.0
348
2F
 60
     3
 61
     5
292
     1
282
     1
141
0.0
142
0.0
 63
   250
361
6D
  0
ENDTAB
  0
TABLE
  2
LTYPE
  5
5
330
0
100
AcDbSymbolTable
 70
     6
  0
LTYPE
  5
14
330
5
100
AcDbSymbolTableRecord
100
AcDbLinetypeTableRecord
  2
ByBlock
 70
     0
  3

 72
    65
 73
     0
 40
0.0
  0
LTYPE
  5
15
330
5
100
AcDbSymbolTableRecord
100
AcDbLinetypeTableRecord
  2
ByLayer
 70
     0
  3

 72
    65
 73
     0
 40
0.0
  0
LTYPE
  5
16
330
5
100
AcDbSymbolTableRecord
100
AcDbLinetypeTableRecord
  2
Continuous
 70
     0
  3
Solid line
 72
    65
 73
     0
 40
0.0
  0
LTYPE
  5
6E
330
5
100
AcDbSymbolTableRecord
100
AcDbLinetypeTableRecord
  2
HIDDEN
 70
     0
  3
Hidden __ __ __ __ __ __ __ __ __ __ __ __ __ __
 72
    65
 73
     2
 40
1.905
 49
1.27
 74
     0
 49
-0.635
 74
     0
  0
LTYPE
  5
6F
330
5
100
AcDbSymbolTableRecord
100
AcDbLinetypeTableRecord
  2
PHANTOM
 70
     0
  3
Phantom ______  __  __  ______  __  __  ______
 72
    65
 73
     6
 40
12.7
 49
6.35
 74
     0
 49
-1.27
 74
     0
 49
1.27
 74
     0
 49
-1.27
 74
     0
 49
1.27
 74
     0
 49
-1.27
 74
     0
  0
LTYPE
  5
70
330
5
100
AcDbSymbolTableRecord
100
AcDbLinetypeTableRecord
  2
CENTER
 70
     0
  3
Center ____ _ ____ _ ____ _ ____ _ ____ _ ____
 72
    65
 73
     4
 40
10.16
 49
6.35
 74
     0
 49
-1.27
 74
     0
 49
1.27
 74
     0
 49
-1.27
 74
     0
  0
LTYPE
  5
71
330
5
100
AcDbSymbolTableRecord
100
AcDbLinetypeTableRecord
  2
CENTERX2
 70
     0
  3
Center (2x) ________  __  ________  __  _____
 72
    65
 73
     4
 40
20.32
 49
12.7
 74
     0
 49
-2.54
 74
     0
 49
2.54
 74
     0
 49
-2.54
 74
     0
  0
LTYPE
  5
72
330
5
100
AcDbSymbolTableRecord
100
AcDbLinetypeTableRecord
  2
DOT2
 70
     0
  3
Dot (.5x) ........................................
 72
    65
 73
     2
 40
0.635
 49
0.0
 74
     0
 49
-0.635
 74
     0
  0
ENDTAB
  0
TABLE
  2
LAYER
  5
2
330
0
100
AcDbSymbolTable
 70
     1
  0
LAYER
  5
10
330
2
100
AcDbSymbolTableRecord
100
AcDbLayerTableRecord
  2
0
 70
     0
 62
     7
  6
Continuous
370
    -3
390
F
347
46
348
0
  0
ENDTAB
  0
TABLE
  2
STYLE
  5
3
330
0
100
AcDbSymbolTable
 70
     1
  0
STYLE
  5
11
330
3
100
AcDbSymbolTableRecord
100
AcDbTextStyleTableRecord
  2
STANDARD
 70
     0
 40
0.0
 41
1.0
 50
0.0
 71
     0
 42
3.5
  3
GOTHIC.TTF
  4

1001
ACAD
1000
CENTURY GOTHIC
1071
       34
  0
ENDTAB
  0
TABLE
  2
VIEW
  5
6
330
0
100
AcDbSymbolTable
 70
     0
  0
ENDTAB
  0
TABLE
  2
UCS
  5
7
330
0
100
AcDbSymbolTable
 70
     0
  0
ENDTAB
  0
TABLE
  2
APPID
  5
9
330
0
100
AcDbSymbolTable
 70
     1
  0
APPID
  5
12
330
9
100
AcDbSymbolTableRecord
100
AcDbRegAppTableRecord
  2
ACAD
 70
     0
  0
ENDTAB
  0
TABLE
  2
DIMSTYLE
  5
A
330
0
100
AcDbSymbolTable
 70
     1
100
AcDbDimStyleTable
  0
DIMSTYLE
105
27
330
A
100
AcDbSymbolTableRecord
100
AcDbDimStyleTableRecord
  2
ISO-25
 70
     0
 41
2.5
 42
0.625
 43
3.75
 44
1.25
 73
     0
 74
     0
 77
     1
 78
     8
140
2.5
141
2.5
143
0.0393700787
147
0.625
171
     3
172
     1
178
     0
271
     2
272
     2
274
     3
278
    44
283
     0
284
     8
340
11
  0
ENDTAB
  0
TABLE
  2
BLOCK_RECORD
  5
1
330
0
100
AcDbSymbolTable
 70
     8
  0
BLOCK_RECORD
  5
1F
330
1
100
AcDbSymbolTableRecord
100
AcDbBlockTableRecord
  2
*Model_Space
340
22
 70
     0
280
     1
281
     0
  0
BLOCK_RECORD
  5
1B
330
1
100
AcDbSymbolTableRecord
100
AcDbBlockTableRecord
  2
*Paper_Space
340
1E
 70
     0
280
     1
281
     0
  0
BLOCK_RECORD
  5
23
330
1
100
AcDbSymbolTableRecord
100
AcDbBlockTableRecord
  2
*Paper_Space0
340
26
 70
     0
280
     1
281
     0
  0
BLOCK_RECORD
  5
90
330
1
100
AcDbSymbolTableRecord
100
AcDbBlockTableRecord
  2
*Paper_Space1
340
91
 70
     0
280
     1
281
     0
  0
BLOCK_RECORD
  5
9E
330
1
100
AcDbSymbolTableRecord
100
AcDbBlockTableRecord
  2
*Paper_Space2
340
9F
 70
     0
280
     1
281
     0
  0
BLOCK_RECORD
  5
B0
330
1
100
AcDbSymbolTableRecord
100
AcDbBlockTableRecord
  2
*Paper_Space3
340
B1
 70
     0
280
     1
281
     0
  0
BLOCK_RECORD
  5
C1
330
1
100
AcDbSymbolTableRecord
100
AcDbBlockTableRecord
  2
*Paper_Space4
340
C2
 70
     0
280
     1
281
     0
  0
BLOCK_RECORD
  5
D5
330
1
100
AcDbSymbolTableRecord
100
AcDbBlockTableRecord
  2
*Paper_Space5
340
D6
 70
     0
280
     1
281
     0
  0
BLOCK_RECORD
  5
EA
330
1
100
AcDbSymbolTableRecord
100
AcDbBlockTableRecord
  2
*Paper_Space6
340
EB
 70
     0
280
     1
281
     0
  0
BLOCK_RECORD
  5
F5
330
1
100
AcDbSymbolTableRecord
100
AcDbBlockTableRecord
  2
*Paper_Space7
340
F6
 70
     0
280
     1
281
     0
  0
ENDTAB
  0
ENDSEC
  0
SECTION
  2
BLOCKS
  0
BLOCK
  5
20
330
1F
100
AcDbEntity
  8
0
100
AcDbBlockBegin
  2
*Model_Space
 70
     0
 10
0.0
 20
0.0
 30
0.0
  3
*Model_Space
  1

  0
ENDBLK
  5
21
330
1F
100
AcDbEntity
  8
0
100
AcDbBlockEnd
  0
BLOCK
  5
1C
330
1B
100
AcDbEntity
 67
     1
  8
0
100
AcDbBlockBegin
  2
*Paper_Space
 70
     0
 10
0.0
 20
0.0
 30
0.0
  3
*Paper_Space
  1

  0
ENDBLK
  5
1D
330
1B
100
AcDbEntity
 67
     1
  8
0
100
AcDbBlockEnd
  0
BLOCK
  5
24
330
23
100
AcDbEntity
  8
0
100
AcDbBlockBegin
  2
*Paper_Space0
 70
     0
 10
0.0
 20
0.0
 30
0.0
  3
*Paper_Space0
  1

  0
SPLINE
  5
81
330
23
100
AcDbEntity
  8
0
  6
Continuous
 62
     7
370
    25
100
AcDbSpline
210
0.0
220
0.0
230
1.0
 70
     8
 71
     3
 72
    35
 73
    31
 74
     0
 42
0.000000001
 43
0.00000001
 40
0.0
 40
0.0
 40
0.0
 40
0.0
 40
0.0482643623336564
 40
0.0940205729421267
 40
0.1372684404847341
 40
0.1780080790342584
 40
0.2162393768028658
 40
0.2519621299205579
 40
0.2851763358875108
 40
0.3158819862966065
 40
0.3440789672165931
 40
0.3697671981449534
 40
0.3929466692839055
 40
0.4136173778469899
 40
0.432141716245874
 40
0.4522312267706422
 40
0.4788770567130068
 40
0.5089777917154981
 40
0.5425333925365998
 40
0.5795437532941538
 40
0.6200086168214678
 40
0.6639278647562524
 40
0.6991359231081082
 40
0.7362871968247746
 40
0.775381628948498
 40
0.8164192936324877
 40
0.8594000080192478
 40
0.9043236440987951
 40
0.9511903627893492
 40
1.0
 40
1.0
 40
1.0
 40
1.0
 10
-39.39243568514718
 20
-188.4174479950054
 30
0.0
 10
-34.18863638334165
 20
-187.778464287759
 30
0.0
 10
-24.05146336012291
 20
-186.5337029079097
 30
0.0
 10
-9.395972172697642
 20
-183.7504704477139
 30
0.0
 10
4.318775678677276
 20
-180.5008254781291
 30
0.0
 10
17.08139849688657
 20
-176.83672069127
 30
0.0
 10
28.89879089701173
 20
-172.8882800359191
 30
0.0
 10
39.78223053112137
 20
-168.7551838399966
 30
0.0
 10
49.74889357945087
 20
-164.533602231805
 30
0.0
 10
58.82060023655544
 20
-160.311607548491
 30
0.0
 10
67.02188181655161
 20
-156.1687192130538
 30
0.0
 10
74.37891976635676
 20
-152.1761797933632
 30
0.0
 10
80.91856009480755
 20
-148.397374440933
 30
0.0
 10
86.70138304180257
 20
-144.868245023699
 30
0.0
 10
92.12454717332538
 20
-141.397080492522
 30
0.0
 10
98.01244209693044
 20
-137.4509726082128
 30
0.0
 10
104.8243945548632
 20
-132.6291074518091
 30
0.0
 10
112.6507771071681
 20
-126.7162807215767
 30
0.0
 10
121.140929755031
 20
-119.8246005233942
 30
0.0
 10
130.2057277901414
 20
-111.8677567026453
 30
0.0
 10
139.7401764158178
 20
-102.7562695442314
 30
0.0
 10
148.7092695633398
 20
-93.35509954999061
 30
0.0
 10
157.0251765147887
 20
-83.84764468344831
 30
0.0
 10
164.6300905950675
 20
-74.42644728336907
 30
0.0
 10
172.2126962815393
 20
-64.18712068625409
 30
0.0
 10
179.6931179293883
 20
-53.0998557629164
 30
0.0
 10
186.9905382866695
 20
-41.14141622831951
 30
0.0
 10
193.9947014315622
 20
-28.2844988761284
 30
0.0
 10
200.6736579864052
 20
-14.54159894183511
 30
0.0
 10
204.5848352532356
 20
-4.912380456590523
 30
0.0
 10
206.5801364084935
 20
0.0000000000000278
 30
0.0
  0
SPLINE
  5
82
330
23
100
AcDbEntity
  8
0
  6
Continuous
 62
     7
370
    25
100
AcDbSpline
210
0.0
220
0.0
230
1.0
 70
     8
 71
     3
 72
    26
 73
    22
 74
     0
 42
0.000000001
 43
0.00000001
 40
0.0
 40
0.0
 40
0.0
 40
0.0
 40
0.0746549012585731
 40
0.143121520745705
 40
0.2053995967454113
 40
0.2614889734082704
 40
0.3113896252964466
 40
0.346255913312877
 40
0.3773014015068766
 40
0.4045260431385737
 40
0.4279973949497895
 40
0.4524299241379541
 40
0.4890833518489538
 40
0.5319612184929038
 40
0.5810634656812175
 40
0.6363899771783859
 40
0.6979405442159864
 40
0.7644502206033338
 40
0.8369634472115427
 40
0.915480146220544
 40
0.9999999999999999
 40
0.9999999999999999
 40
0.9999999999999999
 40
0.9999999999999999
 10
-205.0510796635245
 20
0.0
 30
0.0
 10
-204.663491557245
 20
-4.820312271874919
 30
0.0
 10
-203.9204432341142
 20
-14.06137228520791
 30
0.0
 10
-202.248734820583
 20
-27.26350975459065
 30
0.0
 10
-200.3681913197694
 20
-39.21892526569362
 30
0.0
 10
-198.3499301952172
 20
-49.93054286537979
 30
0.0
 10
-196.4250323675522
 20
-58.84920088784803
 30
0.0
 10
-194.6873554874163
 20
-66.14655208423382
 30
0.0
 10
-193.193640339376
 20
-71.99127035946795
 30
0.0
 10
-191.8082334501563
 20
-77.10125061172508
 30
0.0
 10
-190.4756058712767
 20
-81.7813075406086
 30
0.0
 10
-188.9128532037837
 20
-87.03041233623587
 30
0.0
 10
-186.8931581883391
 20
-93.45439087562158
 30
0.0
 10
-184.2366500849467
 20
-101.3516239744078
 30
0.0
 10
-180.9874293317165
 20
-110.3231797742937
 30
0.0
 10
-177.0641532547473
 20
-120.3334741841969
 30
0.0
 10
-172.4081141806632
 20
-131.2625374405097
 30
0.0
 10
-166.9380561367506
 20
-143.0485716303437
 30
0.0
 10
-160.555586865494
 20
-155.6123685939301
 30
0.0
 10
-153.1741334820644
 20
-168.9710554038817
 30
0.0
 10
-147.5927190214215
 20
-177.9369844659988
 30
0.0
 10
-144.6992554022036
 20
-182.5850158452587
 30
0.0
  0
SPLINE
  5
83
330
23
100
AcDbEntity
  8
0
  6
Continuous
 62
     7
370
    25
100
AcDbSpline
210
0.0
220
0.0
230
1.0
 70
     8
 71
     3
 72
     9
 73
     5
 74
     0
 42
0.000000001
 43
0.00000001
 40
0.0
 40
0.0
 40
0.0
 40
0.0
 40
0.5000000385895449
 40
1.0
 40
1.0
 40
1.0
 40
1.0
 10
-52.99983690778691
 20
-189.5641902118075
 30
0.0
 10
-50.72865194359512
 20
-189.4120418367903
 30
0.0
 10
-46.18628236578755
 20
-189.1077451102412
 30
0.0
 10
-41.65705112884
 20
-188.6475470215781
 30
0.0
 10
-39.39243568514718
 20
-188.4174479950054
 30
0.0
  0
LWPOLYLINE
  5
87
330
23
100
AcDbEntity
  8
0
  6
Continuous
 62
     7
370
    25
100
AcDbPolyline
 90
       25
 70
   128
 43
0.0
 10
-39.3924356851
 20
-188.417447995
 10
-39.8854558309
 20
-188.4321978623
 10
-41.3994721083
 20
-188.4678162725
 10
-43.9522739506
 20
-188.511356438
 10
-47.4881877359
 20
-188.549871571
 10
-51.8567417327
 20
-188.5704148841
 10
-56.8594033345
 20
-188.5600395894
 10
-61.7616017809
 20
-188.5135658947
 10
-66.9789934236
 20
-188.4221230216
 10
-72.4569427648
 20
-188.276272762
 10
-78.1354120015
 20
-188.066659471
 10
-83.9785364069
 20
-187.7907168819
 10
-91.4057993132
 20
-187.3666281177
 10
-98.8287610892
 20
-186.8734370404
 10
-106.1195997031
 20
-186.3313441807
 10
-113.1407338431
 20
-185.7605500697
 10
-119.7381696807
 20
-185.1812552383
 10
-125.7722588159
 20
-184.6136602175
 10
-131.1366735713
 20
-184.0779655381
 10
-135.7430346066
 20
-183.594371731
 10
-139.5006347077
 20
-183.1830793273
 10
-142.3158102146
 20
-182.8642888578
 10
-144.0851462698
 20
-182.6582008535
 10
-144.6992554022
 20
-182.5850158453
 10
-144.6992554022
 20
-182.5850158453
  0
LWPOLYLINE
  5
89
330
23
100
AcDbEntity
  8
0
  6
Continuous
 62
     7
370
    25
100
AcDbPolyline
 90
       24
 70
   128
 43
0.0
 10
-52.9998369078
 20
-189.5641902118
 10
-53.3529112359
 20
-189.5658459023
 10
-54.4440626223
 20
-189.5693475641
 10
-56.2962013701
 20
-189.5724970828
 10
-58.8815051056
 20
-189.5730963439
 10
-62.1081969389
 20
-189.5689472329
 10
-65.852522058
 20
-189.5578516353
 10
-70.5586986386
 20
-189.5343289556
 10
-75.7317786359
 20
-189.4961029029
 10
-81.3069966802
 20
-189.4400437868
 10
-87.2211186338
 20
-189.3643299145
 10
-93.3563825055
 20
-189.2718640581
 10
-99.5688670181
 20
-189.1666153175
 10
-105.7318727691
 20
-189.0525527924
 10
-111.7111713582
 20
-188.9336455828
 10
-117.3612433661
 20
-188.8138627886
 10
-122.5517565521
 20
-188.6971735095
 10
-127.1847945226
 20
-188.5875468456
 10
-131.1792194517
 20
-188.4889518966
 10
-134.4504691545
 20
-188.4053577624
 10
-136.9099171002
 20
-188.3407335429
 10
-138.4604527818
 20
-188.2990483379
 10
-139.0
 20
-188.2842712475
 10
-139.0
 20
-188.2842712475
  0
LINE
  5
8B
330
23
100
AcDbEntity
  8
0
  6
Continuous
 62
     7
370
    25
100
AcDbLine
 10
-144.6992554022
 20
-182.5850158453
 30
0.0
 11
-139.0
 21
-188.2842712475
 31
0.0
  0
LINE
  5
8C
330
23
100
AcDbEntity
  8
0
  6
Continuous
 62
     7
370
    25
100
AcDbLine
 10
-52.9999813202
 20
-195.0
 30
0.0
 11
-52.9998369078
 21
-189.5641902118
 31
0.0
  0
LINE
  5
8D
330
23
100
AcDbEntity
  8
0
  6
Continuous
 62
     7
370
    25
100
AcDbLine
 10
-139.0
 20
-188.2842712475
 30
0.0
 11
-139.0
 21
-195.0
 31
0.0
  0
LINE
  5
8E
330
23
100
AcDbEntity
  8
0
  6
Continuous
 62
     7
370
    25
100
AcDbLine
 10
206.5801364086
 20
0.0
 30
0.0
 11
-205.0510796635
 21
0.0
 31
0.0
  0
LINE
  5
8F
330
23
100
AcDbEntity
  8
0
  6
Continuous
 62
     7
370
    25
100
AcDbLine
 10
-52.9999813202
 20
-195.0
 30
0.0
 11
-139.0
 21
-195.0
 31
0.0
  0
VIEWPORT
  5
FE
330
23
100
AcDbEntity
  8
0
100
AcDbViewport
 10
0.0
 20
0.0
 30
0.0
 40
205.6
 41
156.0
 68
     1
 69
     1
 12
0.0000000006
 22
-0.7645283725
 13
0.0
 23
0.0
 14
10.0
 24
10.0
 15
10.0
 25
10.0
 16
0.0
 26
0.0
 36
1.0
 17
0.0
 27
0.0
 37
0.0
 42
50.0
 43
0.0
 44
0.0
 45
434.0222782612
 50
0.0
 51
0.0
 72
   100
 90
   557152
  1

281
     0
 71
     1
 74
     0
110
0.0
120
0.0
130
0.0
111
1.0
121
0.0
131
0.0
112
0.0
122
1.0
132
0.0
 79
     0
146
0.0
170
     0
 61
     5
348
2F
292
     1
282
     1
141
0.0
142
0.0
 63
   256
361
FF
  0
ENDBLK
  5
25
330
23
100
AcDbEntity
  8
0
100
AcDbBlockEnd
  0
BLOCK
  5
92
330
90
100
AcDbEntity
  8
0
100
AcDbBlockBegin
  2
*Paper_Space1
 70
     0
 10
0.0
 20
0.0
 30
0.0
  3
*Paper_Space1
  1

  0
SPLINE
  5
94
330
90
100
AcDbEntity
  8
0
  6
Continuous
 62
     7
370
    25
100
AcDbSpline
210
0.0
220
0.0
230
1.0
 70
     8
 71
     3
 72
    41
 73
    37
 74
     0
 42
0.000000001
 43
0.00000001
 40
0.0
 40
0.0
 40
0.0
 40
0.0
 40
0.0339534669356275
 40
0.0648204420187455
 40
0.0926060437403563
 40
0.1173148807654399
 40
0.1389513537422632
 40
0.1575199291279883
 40
0.1730255567182588
 40
0.1865298334528866
 40
0.1976709894686293
 40
0.2075016400766008
 40
0.216024080116455
 40
0.2239071214900788
 40
0.2324463727869549
 40
0.2472559996194562
 40
0.2635501854960797
 40
0.2805930252231379
 40
0.312732237426947
 40
0.347058206506008
 40
0.383569579029472
 40
0.4087015170918522
 40
0.4365283854270806
 40
0.4673040015442094
 40
0.5010269606236296
 40
0.5376957067221172
 40
0.577308462738809
 40
0.6198631138176568
 40
0.6595110387248544
 40
0.7014087362726493
 40
0.7455548909766074
 40
0.791948617263085
 40
0.8405894844082212
 40
0.891477388685533
 40
0.9446135440403949
 40
1.0
 40
1.0
 40
1.0
 40
1.0
 10
52.10991405256819
 20
-188.2670044008468
 30
0.0
 10
55.43377799573064
 20
-187.8298589419341
 30
0.0
 10
61.7793547350498
 20
-186.9953061132956
 30
0.0
 10
70.81214261566274
 20
-185.3570141750332
 30
0.0
 10
78.91739858366606
 20
-183.6210137652226
 30
0.0
 10
86.10157789133054
 20
-181.8455570492584
 30
0.0
 10
92.37488886444336
 20
-180.1155094259341
 30
0.0
 10
97.74942580842531
 20
-178.4971515684851
 30
0.0
 10
102.3354972619186
 20
-177.0170896836044
 30
0.0
 10
106.2183837713138
 20
-175.691647607647
 30
0.0
 10
109.5552090880268
 20
-174.4990272750436
 30
0.0
 10
112.397021714443
 20
-173.444212943264
 30
0.0
 10
114.9166694397464
 20
-172.4784958491139
 30
0.0
 10
117.3038231921324
 20
-171.5375953164
 30
0.0
 10
120.2853075507394
 20
-170.3297926621839
 30
0.0
 10
124.0547045570758
 20
-168.7436577774074
 30
0.0
 10
128.6066999940862
 20
-166.7318683523924
 30
0.0
 10
134.7468344356025
 20
-163.8772079118271
 30
0.0
 10
142.4838234279111
 20
-160.0137981845849
 30
0.0
 10
151.8542409031196
 20
-154.8874531383004
 30
0.0
 10
160.4058056276571
 20
-149.7579418754263
 30
0.0
 10
168.2202444251441
 20
-144.697123123867
 30
0.0
 10
175.3897269368501
 20
-139.7491767815688
 30
0.0
 10
183.1185229019991
 20
-134.037939325666
 30
0.0
 10
191.3678118584098
 20
-127.477862347411
 30
0.0
 10
200.0669518908685
 20
-119.9948024275847
 30
0.0
 10
209.1346532363849
 20
-111.5146876920333
 30
0.0
 10
218.049490147149
 20
-102.4004109565437
 30
0.0
 10
226.7249873736376
 20
-92.70364676212782
 30
0.0
 10
235.0879188057705
 20
-82.48747745606065
 30
0.0
 10
243.410584194317
 20
-71.30665970098624
 30
0.0
 10
251.5929969938377
 20
-59.12172841231492
 30
0.0
 10
259.5349365576243
 20
-45.90370661109036
 30
0.0
 10
267.100832321926
 20
-31.62011177898251
 30
0.0
 10
274.2464802306419
 20
-16.2871875343281
 30
0.0
 10
278.3455473412548
 20
-5.503597879472425
 30
0.0
 10
280.4375795661296
 20
0.0000000000000555
 30
0.0
  0
SPLINE
  5
95
330
90
100
AcDbEntity
  8
0
  6
Continuous
 62
     7
370
    25
100
AcDbSpline
210
0.0
220
0.0
230
1.0
 70
     8
 71
     3
 72
    45
 73
    41
 74
     0
 42
0.000000001
 43
0.00000001
 40
0.0
 40
0.0
 40
0.0
 40
0.0
 40
0.046163530829114
 40
0.0903432801199606
 40
0.1325414852595269
 40
0.1727601805051604
 40
0.2110008072865549
 40
0.2580860513712241
 40
0.3017828837957396
 40
0.3420921791041603
 40
0.3780982225977869
 40
0.4108910358204067
 40
0.440470946849102
 40
0.4675784724195364
 40
0.4950323100948737
 40
0.5231115444742461
 40
0.551821053144895
 40
0.5902912785668549
 40
0.6298559531519596
 40
0.6705259675936962
 40
0.6900870337232968
 40
0.708861491499227
 40
0.7253105690901902
 40
0.7394154150977662
 40
0.7511720031022672
 40
0.7601372660283635
 40
0.7669912588696361
 40
0.7719659865130655
 40
0.7767156126602549
 40
0.7831296513017909
 40
0.7913327935559774
 40
0.8023387569931265
 40
0.8163770425642042
 40
0.8334525515397252
 40
0.8535700692007537
 40
0.8767347548563268
 40
0.9029525113674216
 40
0.9322302545349055
 40
0.9645761478649508
 40
1.0
 40
1.0
 40
1.0
 40
1.0
 10
-280.4375795667506
 20
0.0000000000000139
 30
0.0
 10
-278.7112073377888
 20
-4.581095602719881
 30
0.0
 10
-275.3326501288573
 20
-13.54642377107192
 30
0.0
 10
-269.6012302441003
 20
-26.35588300881188
 30
0.0
 10
-263.627307409777
 20
-38.3284628035948
 30
0.0
 10
-257.4403221341067
 20
-49.4582781015159
 30
0.0
 10
-250.5398081905959
 20
-60.74543199992041
 30
0.0
 10
-242.9382854400533
 20
-71.99542472358607
 30
0.0
 10
-234.6825832479863
 20
-83.01884923108909
 30
0.0
 10
-226.6885819489009
 20
-92.74676380663044
 30
0.0
 10
-219.0716159963746
 20
-101.2756392566597
 30
0.0
 10
-211.9267313889331
 20
-108.699789748267
 30
0.0
 10
-205.2052663044457
 20
-115.2270830822784
 30
0.0
 10
-198.6960587513288
 20
-121.1693184352163
 30
0.0
 10
-192.1336421432962
 20
-126.8108469575504
 30
0.0
 10
-185.2750428661192
 20
-132.3524047328384
 30
0.0
 10
-177.3335332035059
 20
-138.3684858514551
 30
0.0
 10
-168.1999729462917
 20
-144.7684704731122
 30
0.0
 10
-157.763264645754
 20
-151.4260215042998
 30
0.0
 10
-148.7676403814635
 20
-156.6108891202545
 30
0.0
 10
-141.5290903255491
 20
-160.4624991507661
 30
0.0
 10
-136.4616515520962
 20
-163.0196717971177
 30
0.0
 10
-131.8635932695574
 20
-165.2259930443033
 30
0.0
 10
-127.8941942716619
 20
-167.0465548105245
 30
0.0
 10
-124.6098335426831
 20
-168.494685715249
 30
0.0
 10
-121.9984223160345
 20
-169.6093325596626
 30
0.0
 10
-120.0228608856286
 20
-170.4315039251483
 30
0.0
 10
-118.4427723508001
 20
-171.0765527584552
 30
0.0
 10
-116.8994218769033
 20
-171.696557447667
 30
0.0
 10
-115.0435490856468
 20
-172.4282949949764
 30
0.0
 10
-112.5807948631291
 20
-173.3753610073126
 30
0.0
 10
-109.3979839191402
 20
-174.5590539970193
 30
0.0
 10
-105.3637407514983
 20
-175.9937190785282
 30
0.0
 10
-100.447827834903
 20
-177.6433783453669
 30
0.0
 10
-94.63789820627325
 20
-179.4554281896079
 30
0.0
 10
-87.9221672623503
 20
-181.36635249896
 30
0.0
 10
-80.28930560809422
 20
-183.3044949184852
 30
0.0
 10
-71.72962039586083
 20
-185.178968213369
 30
0.0
 10
-62.23813417977287
 20
-186.929197975143
 30
0.0
 10
-55.58668567925861
 20
-187.8077679934561
 30
0.0
 10
-52.10991405278893
 20
-188.2670044005787
 30
0.0
  0
SPLINE
  5
96
330
90
100
AcDbEntity
  8
0
  6
Continuous
 62
     7
370
    25
100
AcDbSpline
210
0.0
220
0.0
230
1.0
 70
     8
 71
     3
 72
     9
 73
     5
 74
     0
 42
0.000000001
 43
0.00000001
 40
0.0
 40
0.0
 40
0.0
 40
0.0
 40
0.4957497030947954
 40
0.9999999999999999
 40
0.9999999999999999
 40
0.9999999999999999
 40
0.9999999999999999
 10
40.52343385510541
 20
-189.4289953528358
 30
0.0
 10
42.51984510107837
 20
-189.2564551746511
 30
0.0
 10
46.54689995055192
 20
-188.9084162810168
 30
0.0
 10
50.26174408707808
 20
-188.4800168324869
 30
0.0
 10
52.13495534587795
 20
-188.2639962833717
 30
0.0
  0
SPLINE
  5
97
330
90
100
AcDbEntity
  8
0
  6
Continuous
 62
     7
370
    25
100
AcDbSpline
210
0.0
220
0.0
230
1.0
 70
     8
 71
     3
 72
     9
 73
     5
 74
     0
 42
0.000000001
 43
0.00000001
 40
0.0
 40
0.0
 40
0.0
 40
0.0
 40
0.5042502969084747
 40
0.9999999999999999
 40
0.9999999999999999
 40
0.9999999999999999
 40
0.9999999999999999
 10
-52.13495534595508
 20
-188.2639962831208
 30
0.0
 10
-50.26174408724251
 20
-188.4800168322506
 30
0.0
 10
-46.54689995091356
 20
-188.9084162808066
 30
0.0
 10
-42.51984510132844
 20
-189.256455174523
 30
0.0
 10
-40.52343385531333
 20
-189.4289953527473
 30
0.0
  0
SPLINE
  5
98
330
90
100
AcDbEntity
  8
0
  6
Continuous
 62
     7
370
    25
100
AcDbSpline
210
0.0
220
0.0
230
1.0
 70
     8
 71
     3
 72
     9
 73
     5
 74
     0
 42
0.000000001
 43
0.00000001
 40
0.0
 40
0.0
 40
0.0
 40
0.0
 40
0.5006961992629647
 40
1.0
 40
1.0
 40
1.0
 40
1.0
 10
41.30532461298451
 20
-194.9999999999999
 30
0.0
 10
41.2598166326243
 20
-194.0544408570677
 30
0.0
 10
41.16892722617944
 20
-192.1659521001644
 30
0.0
 10
41.08515316884598
 20
-190.2769716278488
 30
0.0
 10
41.04332446361624
 20
-189.3337964985036
 30
0.0
  0
SPLINE
  5
99
330
90
100
AcDbEntity
  8
0
  6
Continuous
 62
     7
370
    25
100
AcDbSpline
210
0.0
220
0.0
230
1.0
 70
     8
 71
     3
 72
     9
 73
     5
 74
     0
 42
0.000000001
 43
0.00000001
 40
0.0
 40
0.0
 40
0.0
 40
0.0
 40
0.4993038007357781
 40
1.0
 40
1.0
 40
1.0
 40
1.0
 10
-41.04332446312566
 20
-189.3337964984491
 30
0.0
 10
-41.08515316844372
 20
-190.2769716278017
 30
0.0
 10
-41.16892722595425
 20
-192.1659521001371
 30
0.0
 10
-41.25981663259832
 20
-194.0544408570571
 30
0.0
 10
-41.30532461305839
 20
-195.0000000000002
 30
0.0
  0
SPLINE
  5
9A
330
90
100
AcDbEntity
  8
0
  6
Continuous
 62
     7
370
    25
100
AcDbSpline
210
0.0
220
0.0
230
1.0
 70
     8
 71
     3
 72
    27
 73
    23
 74
     0
 42
0.000000001
 43
0.00000001
 40
0.0
 40
0.0
 40
0.0
 40
0.0
 40
0.0020334974717735
 40
0.0457651036864932
 40
0.0902315018738388
 40
0.1363022990878822
 40
0.1905299001368642
 40
0.2484559118526628
 40
0.3096568570338891
 40
0.372813105804433
 40
0.4367519492068149
 40
0.4999951724815813
 40
0.5632383957634768
 40
0.6271772391859141
 40
0.6903334879851325
 40
0.7515344331969988
 40
0.8094604449387105
 40
0.8636880460062074
 40
0.9097588432315716
 40
0.9542252414263288
 40
0.9979568476448594
 40
1.0
 40
1.0
 40
1.0
 40
1.0
 10
52.08463210188742
 20
-188.2665005907689
 30
0.0
 10
52.06679687793426
 20
-188.269778539658
 30
0.0
 10
51.66540426013233
 20
-188.3435507832308
 30
0.0
 10
50.14969460509182
 20
-188.4274115117934
 30
0.0
 10
47.41255370350859
 20
-188.5236817698783
 30
0.0
 10
43.52108635969659
 20
-188.5680481461808
 30
0.0
 10
38.43905868751892
 20
-188.5753518717065
 30
0.0
 10
32.06665976374446
 20
-188.5518412787684
 30
0.0
 10
24.75173132111452
 20
-188.5114983215582
 30
0.0
 10
16.77108232915277
 20
-188.4662321973513
 30
0.0
 10
8.44523514701843
 20
-188.4289413263913
 30
0.0
 10
-0.0000000009005249
 20
-188.4117327606833
 30
0.0
 10
-8.445235143683357
 20
-188.4289413260638
 30
0.0
 10
-16.77108234635389
 20
-188.4662321984709
 30
0.0
 10
-24.75173127611584
 20
-188.5114983170914
 30
0.0
 10
-32.06665995282386
 20
-188.5518412939024
 30
0.0
 10
-38.43905808188852
 20
-188.5753518190578
 30
0.0
 10
-43.52108837535378
 20
-188.5680483163287
 30
0.0
 10
-47.41254754807166
 20
-188.5236812452077
 30
0.0
 10
-50.14971669552653
 20
-188.4274133889633
 30
0.0
 10
-51.66551800289407
 20
-188.343537689843
 30
0.0
 10
-52.0669707812545
 20
-188.2697477978618
 30
0.0
 10
-52.08488959099031
 20
-188.2664541924714
 30
0.0
  0
SPLINE
  5
9B
330
90
100
AcDbEntity
  8
0
  6
Continuous
 62
     7
370
    25
100
AcDbSpline
210
0.0
220
0.0
230
1.0
 70
    24
 71
     3
 72
    56
 73
    52
 74
     0
 42
0.000000001
 43
0.00000001
 40
0.0
 40
0.0
 40
0.0
 40
0.0
 40
0.0138236481794942
 40
0.0288822182257471
 40
0.0444613248858338
 40
0.0606014471113097
 40
0.0763767876578195
 40
0.0927430703157136
 40
0.1097578415392177
 40
0.1274879044667574
 40
0.1460092269604986
 40
0.1644118308613397
 40
0.1836208065286659
 40
0.2036118767046394
 40
0.2243548945694457
 40
0.2458172837414591
 40
0.2675273408359043
 40
0.2897533683885958
 40
0.3123755070825568
 40
0.335280456705765
 40
0.362802926057206
 40
0.3904901118590228
 40
0.4182357358491346
 40
0.4458566250029881
 40
0.4731843501148391
 40
0.4999963173308662
 40
0.5228958664411671
 40
0.5461907340884457
 40
0.5697370721314756
 40
0.593443106655679
 40
0.6171690925606573
 40
0.6404083263118729
 40
0.6635228019175033
 40
0.6864400211396684
 40
0.7090794306706145
 40
0.7317780511413496
 40
0.7539433207595467
 40
0.7754594270137063
 40
0.7962534496666548
 40
0.8162924074718174
 40
0.8355459902113529
 40
0.853989703067375
 40
0.8736067685057
 40
0.8923391239010194
 40
0.9102764386892185
 40
0.9274966933602243
 40
0.9440664418330572
 40
0.9600418362091455
 40
0.9746010278475419
 40
0.9887080559797791
 40
1.0
 40
1.0
 40
1.0
 40
1.0
 10
280.4151819693635
 20
0.0000000000000555
 30
0.0
 10
280.3559236860764
 20
0.0000000000000555
 30
0.0
 10
280.2321133396788
 20
0.0000000000000555
 30
0.0
 10
278.9184049921012
 20
0.0000000000000555
 30
0.0
 10
276.6934571403622
 20
0.0000000000000555
 30
0.0
 10
273.4877008412618
 20
0.0000000000000555
 30
0.0
 10
269.3397907524088
 20
0.0000000000000416
 30
0.0
 10
264.2543397331551
 20
0.0000000000000555
 30
0.0
 10
258.1011245777269
 20
0.0000000000000555
 30
0.0
 10
250.8244608151572
 20
0.0000000000000555
 30
0.0
 10
242.5208845916596
 20
0.0000000000000555
 30
0.0
 10
233.212614304562
 20
0.0000000000000416
 30
0.0
 10
222.9362664272067
 20
0.0000000000000278
 30
0.0
 10
211.5523638475758
 20
0.0000000000000139
 30
0.0
 10
199.0812851987882
 20
0.0000000000000139
 30
0.0
 10
185.6431205681804
 20
0.0000000000000139
 30
0.0
 10
171.3312614066353
 20
0.0000000000000278
 30
0.0
 10
156.2778680065209
 20
0.0000000000000416
 30
0.0
 10
140.5210133904503
 20
0.0000000000000416
 30
0.0
 10
123.1229840204136
 20
0.0000000000000278
 30
0.0
 10
104.1105144097892
 20
0.0
 30
0.0
 10
83.54202987949594
 20
-0.0000000000000139
 30
0.0
 10
62.65811574051039
 20
-0.0000000000000139
 30
0.0
 10
41.65626372420867
 20
0.0
 30
0.0
 10
20.75757529773969
 20
0.0000000000000278
 30
0.0
 10
1.003034907229073
 20
0.0000000000000278
 30
0.0
 10
-17.71641171878248
 20
0.0000000000000139
 30
0.0
 10
-35.55735918869188
 20
0.0
 30
0.0
 10
-53.5202903551012
 20
-0.0000000000000139
 30
0.0
 10
-71.46411899632054
 20
-0.0000000000000278
 30
0.0
 10
-89.15286404877949
 20
-0.0000000000000139
 30
0.0
 10
-106.4687294096175
 20
0.0
 30
0.0
 10
-123.3115260482149
 20
0.0000000000000139
 30
0.0
 10
-139.6854373632559
 20
0.0000000000000278
 30
0.0
 10
-155.5801730162397
 20
0.0000000000000139
 30
0.0
 10
-170.8670089584024
 20
0.0
 30
0.0
 10
-185.4054842943333
 20
-0.0000000000000139
 30
0.0
 10
-198.9672969393359
 20
-0.0000000000000139
 30
0.0
 10
-211.4739022792178
 20
-0.0000000000000139
 30
0.0
 10
-222.8887384744224
 20
0.0
 30
0.0
 10
-233.1912927784593
 20
0.0
 30
0.0
 10
-242.6962989548454
 20
0.0000000000000139
 30
0.0
 10
-251.3017567728494
 20
0.0
 30
0.0
 10
-258.9122000794173
 20
-0.0000000000000139
 30
0.0
 10
-265.265667876757
 20
-0.0000000000000139
 30
0.0
 10
-270.4290929597037
 20
-0.0000000000000139
 30
0.0
 10
-274.4632425437744
 20
0.0
 30
0.0
 10
-277.3829956253896
 20
0.0000000000000139
 30
0.0
 10
-279.2767643884815
 20
0.0000000000000278
 30
0.0
 10
-280.3099796285371
 20
0.0000000000000278
 30
0.0
 10
-280.359584331181
 20
0.0000000000000278
 30
0.0
 10
-280.3816377246031
 20
0.0000000000000139
 30
0.0
  0
SPLINE
  5
9C
330
90
100
AcDbEntity
  8
0
  6
Continuous
 62
     7
370
    25
100
AcDbSpline
210
0.0
220
0.0
230
1.0
 70
     8
 71
     3
 72
    27
 73
    23
 74
     0
 42
0.000000001
 43
0.00000001
 40
0.0
 40
0.0
 40
0.0
 40
0.0
 40
0.0079709878175505
 40
0.0609027979807432
 40
0.1133161344685129
 40
0.1667477433529793
 40
0.2166949929960668
 40
0.2697030471906863
 40
0.3255974644729861
 40
0.3833367339673932
 40
0.4419096312192626
 40
0.4999999999810617
 40
0.5580903687493074
 40
0.6166632660192348
 40
0.6744025355394189
 40
0.7302969528493862
 40
0.783305007067865
 40
0.8332522567288458
 40
0.8866838656276848
 40
0.9390972021249295
 40
0.9920290122929779
 40
0.9999999999999999
 40
0.9999999999999999
 40
0.9999999999999999
 40
0.9999999999999999
 10
40.45462874169821
 20
-189.4289718277705
 30
0.0
 10
40.42537689842791
 20
-189.4327133299573
 30
0.0
 10
40.20187648141145
 20
-189.4613004959444
 30
0.0
 10
38.95812713312289
 20
-189.4979204595745
 30
0.0
 10
36.55390199013331
 20
-189.5373808354574
 30
0.0
 10
33.16047071634963
 20
-189.5592996008048
 30
0.0
 10
28.99818034309618
 20
-189.5703263557533
 30
0.0
 10
24.16622613372191
 20
-189.5739005931063
 30
0.0
 10
18.64462885957012
 20
-189.572875295633
 30
0.0
 10
12.63286077318088
 20
-189.5693757115578
 30
0.0
 10
6.362328144956488
 20
-189.5655571544725
 30
0.0
 10
0.0000000000528206
 20
-189.5635095673697
 30
0.0
 10
-6.362328145512334
 20
-189.5655571544597
 30
0.0
 10
-12.63286077552132
 20
-189.5693757115313
 30
0.0
 10
-18.64462886424336
 20
-189.5728752955912
 30
0.0
 10
-24.1662261405082
 20
-189.5739005930476
 30
0.0
 10
-28.99818035109113
 20
-189.570326355675
 30
0.0
 10
-33.16047072436672
 20
-189.5592996007019
 30
0.0
 10
-36.55390199703911
 20
-189.5373808353257
 30
0.0
 10
-38.958127137757
 20
-189.4979204594003
 30
0.0
 10
-40.20187648374283
 20
-189.4613004957821
 30
0.0
 10
-40.42537689973555
 20
-189.432713329834
 30
0.0
 10
-40.45462874251701
 20
-189.4289718276978
 30
0.0
  0
SPLINE
  5
9D
330
90
100
AcDbEntity
  8
0
  6
Continuous
 62
     7
370
    25
100
AcDbSpline
210
0.0
220
0.0
230
1.0
 70
    24
 71
     3
 72
    27
 73
    23
 74
     0
 42
0.000000001
 43
0.00000001
 40
0.0
 40
0.0
 40
0.0
 40
0.0
 40
0.0250018348309736
 40
0.0729514488058942
 40
0.1198076271145787
 40
0.166338419064149
 40
0.2136279206975973
 40
0.26639977380323
 40
0.3223126488658243
 40
0.3807705791117854
 40
0.4404820076622565
 40
0.4999999999904568
 40
0.5595179923259826
 40
0.6192294208962402
 40
0.6776873511685263
 40
0.7336002262562981
 40
0.7863720793814422
 40
0.8336615810282614
 40
0.8801923729868762
 40
0.9270485513001677
 40
0.9749981652759253
 40
1.0
 40
1.0
 40
1.0
 40
1.0
 10
41.19954667214046
 20
-194.9999999999999
 30
0.0
 10
41.22396892636222
 20
-194.9999999999999
 30
0.0
 10
41.29522924947963
 20
-194.9999999999999
 30
0.0
 10
40.50398009229747
 20
-195.0
 30
0.0
 10
38.80778611821728
 20
-194.9999999999999
 30
0.0
 10
36.13353763875436
 20
-195.0
 30
0.0
 10
32.40185037251549
 20
-194.9999999999997
 30
0.0
 10
27.52026868723263
 20
-195.0000000000006
 30
0.0
 10
21.51477358329992
 20
-194.9999999999996
 30
0.0
 10
14.71997286340191
 20
-194.9999999999998
 30
0.0
 10
7.456093003687104
 20
-195.0000000000006
 30
0.0
 10
-0.0000000000877281
 20
-194.9999999999993
 30
0.0
 10
-7.45609300466893
 20
-195.0000000000006
 30
0.0
 10
-14.71997286645454
 20
-194.9999999999997
 30
0.0
 10
-21.51477358876719
 20
-194.9999999999997
 30
0.0
 10
-27.52026869441137
 20
-195.0000000000005
 30
0.0
 10
-32.4018503801144
 20
-194.9999999999995
 30
0.0
 10
-36.13353764551906
 20
-195.0000000000006
 30
0.0
 10
-38.80778612339793
 20
-194.9999999999999
 30
0.0
 10
-40.50398009528801
 20
-194.9999999999995
 30
0.0
 10
-41.29522925040545
 20
-195.0000000000002
 30
0.0
 10
-41.22396892660961
 20
-195.0000000000001
 30
0.0
 10
-41.19954667222427
 20
-195.0000000000001
 30
0.0
  0
VIEWPORT
  5
100
330
90
100
AcDbEntity
  8
0
100
AcDbViewport
 10
0.0
 20
0.0
 30
0.0
 40
205.6
 41
156.0
 68
     1
 69
     1
 12
0.0000000006
 22
-0.7645283725
 13
0.0
 23
0.0
 14
10.0
 24
10.0
 15
10.0
 25
10.0
 16
0.0
 26
0.0
 36
1.0
 17
0.0
 27
0.0
 37
0.0
 42
50.0
 43
0.0
 44
0.0
 45
434.0222782612
 50
0.0
 51
0.0
 72
   100
 90
   557152
  1

281
     0
 71
     1
 74
     0
110
0.0
120
0.0
130
0.0
111
1.0
121
0.0
131
0.0
112
0.0
122
1.0
132
0.0
 79
     0
146
0.0
170
     0
 61
     5
348
2F
292
     1
282
     1
141
0.0
142
0.0
 63
   256
361
101
  0
ENDBLK
  5
93
330
90
100
AcDbEntity
  8
0
100
AcDbBlockEnd
  0
BLOCK
  5
A0
330
9E
100
AcDbEntity
  8
0
100
AcDbBlockBegin
  2
*Paper_Space2
 70
     0
 10
0.0
 20
0.0
 30
0.0
  3
*Paper_Space2
  1

  0
SPLINE
  5
A2
330
9E
100
AcDbEntity
  8
0
  6
Continuous
 62
     7
370
    25
100
AcDbSpline
210
0.0
220
0.0
230
1.0
 70
     8
 71
     3
 72
    41
 73
    37
 74
     0
 42
0.000000001
 43
0.00000001
 40
0.0
 40
0.0
 40
0.0
 40
0.0
 40
0.033953466935227
 40
0.0648204420180195
 40
0.0926060437393689
 40
0.1173148807642456
 40
0.1389513537409079
 40
0.1575199291265111
 40
0.1730255567166933
 40
0.1865298334512585
 40
0.1976709894669723
 40
0.2075016400749143
 40
0.2160240801147357
 40
0.2239071214883258
 40
0.2324463727851669
 40
0.2472559996176114
 40
0.2635501854941838
 40
0.2805930252211982
 40
0.3127322374249344
 40
0.3470582065039198
 40
0.3835695790272913
 40
0.4087015170895715
 40
0.436528385424684
 40
0.4673040015417186
 40
0.5010269606210727
 40
0.5376957067195267
 40
0.5773084627362226
 40
0.6198631138151195
 40
0.6595110387224018
 40
0.7014087362703272
 40
0.7455548909744688
 40
0.7919486172611921
 40
0.8405894844066495
 40
0.8914773886843721
 40
0.9446135440397515
 40
1.0
 40
1.0
 40
1.0
 40
1.0
 10
52.10991405278893
 20
-188.2670044005787
 30
0.0
 10
55.43377799599211
 20
-187.8298589416031
 30
0.0
 10
61.77935473539281
 20
-186.9953061128443
 30
0.0
 10
70.81214261610704
 20
-185.3570141744304
 30
0.0
 10
78.91739858419884
 20
-183.6210137644943
 30
0.0
 10
86.10157789193892
 20
-181.8455570484289
 30
0.0
 10
92.37488886511558
 20
-180.1155094250237
 30
0.0
 10
97.74942580914968
 20
-178.4971515675114
 30
0.0
 10
102.3354972626862
 20
-177.0170896825815
 30
0.0
 10
106.2183837721153
 20
-175.6916476065863
 30
0.0
 10
109.5552090888565
 20
-174.4990272739537
 30
0.0
 10
112.3970217152998
 20
-173.4442129421494
 30
0.0
 10
114.9166694406278
 20
-172.478495847978
 30
0.0
 10
117.3038231930383
 20
-171.5375953152445
 30
0.0
 10
120.2853075516709
 20
-170.3297926610069
 30
0.0
 10
124.0547045580359
 20
-168.7436577762071
 30
0.0
 10
128.6066999950762
 20
-166.7318683511697
 30
0.0
 10
134.7468344366438
 20
-163.8772079105741
 30
0.0
 10
142.4838234290269
 20
-160.0137981832966
 30
0.0
 10
151.8542409043383
 20
-154.8874531369737
 30
0.0
 10
160.4058056289753
 20
-149.7579418740697
 30
0.0
 10
168.2202444265576
 20
-144.697123122485
 30
0.0
 10
175.3897269383205
 20
-139.7491767801874
 30
0.0
 10
183.1185229035129
 20
-134.0379393243047
 30
0.0
 10
191.3678118599525
 20
-127.4778623460907
 30
0.0
 10
200.0669518924239
 20
-119.9948024263282
 30
0.0
 10
209.1346532379339
 20
-111.5146876908639
 30
0.0
 10
218.0494901486714
 20
-102.400410955481
 30
0.0
 10
226.724987375115
 20
-92.70364676118592
 30
0.0
 10
235.0879188071858
 20
-82.48747745524858
 30
0.0
 10
243.4105841956501
 20
-71.30665970031525
 30
0.0
 10
251.5929969950678
 20
-59.12172841179158
 30
0.0
 10
259.5349365587303
 20
-45.90370661071508
 30
0.0
 10
267.1008323228884
 20
-31.62011177874832
 30
0.0
 10
274.2464802314433
 20
-16.28718753421929
 30
0.0
 10
278.3455473419355
 20
-5.503597879439035
 30
0.0
 10
280.4375795667506
 20
0.0000000000000139
 30
0.0
  0
SPLINE
  5
A3
330
9E
100
AcDbEntity
  8
0
  6
Continuous
 62
     7
370
    25
100
AcDbSpline
210
0.0
220
0.0
230
1.0
 70
     8
 71
     3
 72
    45
 73
    41
 74
     0
 42
0.000000001
 43
0.00000001
 40
0.0
 40
0.0
 40
0.0
 40
0.0
 40
0.0461635308281743
 40
0.0903432801182542
 40
0.1325414852572097
 40
0.17276018050237
 40
0.2110008072834126
 40
0.2580860513677791
 40
0.3017828837921434
 40
0.3420921791005384
 40
0.3780982225942399
 40
0.4108910358170152
 40
0.4404709468459282
 40
0.4675784724165421
 40
0.4950323100920082
 40
0.5231115444715002
 40
0.5518210531422602
 40
0.5902912785643545
 40
0.6298559531495884
 40
0.6705259675914603
 40
0.6900870337211308
 40
0.7088614914971862
 40
0.7253105690882676
 40
0.7394154150959462
 40
0.7511720031005327
 40
0.7601372660266926
 40
0.7669912588680106
 40
0.7719659865114665
 40
0.7767156126586802
 40
0.7831296513002518
 40
0.7913327935544899
 40
0.8023387569917104
 40
0.8163770425628685
 40
0.8334525515384801
 40
0.8535700691996134
 40
0.8767347548553139
 40
0.9029525113665704
 40
0.9322302545342641
 40
0.964576147864586
 40
1.0
 40
1.0
 40
1.0
 40
1.0
 10
-280.4375795661296
 20
0.0000000000000555
 30
0.0
 10
-278.7112073371192
 20
-4.581095602744723
 30
0.0
 10
-275.332650128088
 20
-13.54642377115864
 30
0.0
 10
-269.6012302431869
 20
-26.35588300900232
 30
0.0
 10
-263.6273074087254
 20
-38.32846280391022
 30
0.0
 10
-257.4403221329257
 20
-49.45827810196877
 30
0.0
 10
-250.5398081892848
 20
-60.74543200053363
 30
0.0
 10
-242.9382854386174
 20
-71.99542472437139
 30
0.0
 10
-234.6825832464418
 20
-83.01884923204571
 30
0.0
 10
-226.6885819472733
 20
-92.74676380773634
 30
0.0
 10
-219.0716159946871
 20
-101.2756392578892
 30
0.0
 10
-211.9267313872078
 20
-108.6997897495928
 30
0.0
 10
-205.205266302709
 20
-115.2270830836679
 30
0.0
 10
-198.6960587496179
 20
-121.1693184366309
 30
0.0
 10
-192.1336421416194
 20
-126.810846958983
 30
0.0
 10
-185.2750428644911
 20
-132.3524047342778
 30
0.0
 10
-177.333533201944
 20
-138.3684858528934
 30
0.0
 10
-168.1999729448174
 20
-144.7684704745366
 30
0.0
 10
-157.763264644393
 20
-151.4260215056925
 30
0.0
 10
-148.7676403802115
 20
-156.6108891216061
 30
0.0
 10
-141.5290903243858
 20
-160.4624991520788
 30
0.0
 10
-136.4616515509898
 20
-163.0196717984026
 30
0.0
 10
-131.8635932684987
 20
-165.2259930455625
 30
0.0
 10
-127.8941942706439
 20
-167.0465548117586
 30
0.0
 10
-124.6098335416993
 20
-168.4946857164607
 30
0.0
 10
-121.9984223150771
 20
-169.6093325608557
 30
0.0
 10
-120.0228608846925
 20
-170.4315039263261
 30
0.0
 10
-118.4427723498758
 20
-171.0765527596224
 30
0.0
 10
-116.8994218760091
 20
-171.6965574488164
 30
0.0
 10
-115.0435490847951
 20
-172.4282949961013
 30
0.0
 10
-112.5807948623417
 20
-173.3753610084023
 30
0.0
 10
-109.3979839184097
 20
-174.559053998072
 30
0.0
 10
-105.3637407508243
 20
-175.9937190795376
 30
0.0
 10
-100.4478278342848
 20
-177.6433783463245
 30
0.0
 10
-94.63789820571083
 20
-179.4554281905026
 30
0.0
 10
-87.9221672618444
 20
-181.366352499777
 30
0.0
 10
-80.28930560764735
 20
-183.3044949192065
 30
0.0
 10
-71.72962039547751
 20
-185.1789682139705
 30
0.0
 10
-62.23813417945868
 20
-186.929197975597
 30
0.0
 10
-55.58668567900771
 20
-187.8077679937878
 30
0.0
 10
-52.10991405256819
 20
-188.2670044008468
 30
0.0
  0
SPLINE
  5
A4
330
9E
100
AcDbEntity
  8
0
  6
Continuous
 62
     7
370
    25
100
AcDbSpline
210
0.0
220
0.0
230
1.0
 70
     8
 71
     3
 72
     9
 73
     5
 74
     0
 42
0.000000001
 43
0.00000001
 40
0.0
 40
0.0
 40
0.0
 40
0.0
 40
0.4726674523278568
 40
1.0
 40
1.0
 40
1.0
 40
1.0
 10
41.04547224974693
 20
-189.3815487642063
 30
0.0
 10
42.86452666229813
 20
-189.2239633873969
 30
0.0
 10
46.71301338079857
 20
-188.8905675167201
 30
0.0
 10
50.26295538486328
 20
-188.4803286106258
 30
0.0
 10
52.13495534595508
 20
-188.2639962831208
 30
0.0
  0
SPLINE
  5
A5
330
9E
100
AcDbEntity
  8
0
  6
Continuous
 62
     7
370
    25
100
AcDbSpline
210
0.0
220
0.0
230
1.0
 70
     8
 71
     3
 72
     9
 73
     5
 74
     0
 42
0.000000001
 43
0.00000001
 40
0.0
 40
0.0
 40
0.0
 40
0.0
 40
0.5273325477011399
 40
0.9999999999999999
 40
0.9999999999999999
 40
0.9999999999999999
 40
0.9999999999999999
 10
-52.13495534587795
 20
-188.2639962833717
 30
0.0
 10
-50.26295538469932
 20
-188.4803286108627
 30
0.0
 10
-46.71301338066517
 20
-188.8905675169079
 30
0.0
 10
-42.86452666250896
 20
-189.223963387487
 30
0.0
 10
-41.04547225023206
 20
-189.3815487642406
 30
0.0
  0
SPLINE
  5
A6
330
9E
100
AcDbEntity
  8
0
  6
Continuous
 62
     7
370
    25
100
AcDbSpline
210
0.0
220
0.0
230
1.0
 70
     8
 71
     3
 72
     9
 73
     5
 74
     0
 42
0.000000001
 43
0.00000001
 40
0.0
 40
0.0
 40
0.0
 40
0.0
 40
0.5006961992642218
 40
1.0
 40
1.0
 40
1.0
 40
1.0
 10
41.30532461305839
 20
-195.0000000000002
 30
0.0
 10
41.25981663259832
 20
-194.0544408570571
 30
0.0
 10
41.16892722595423
 20
-192.1659521001371
 30
0.0
 10
41.08515316844372
 20
-190.2769716278018
 30
0.0
 10
41.04332446312566
 20
-189.3337964984491
 30
0.0
  0
SPLINE
  5
A7
330
9E
100
AcDbEntity
  8
0
  6
Continuous
 62
     7
370
    25
100
AcDbSpline
210
0.0
220
0.0
230
1.0
 70
     8
 71
     3
 72
     9
 73
     5
 74
     0
 42
0.000000001
 43
0.00000001
 40
0.0
 40
0.0
 40
0.0
 40
0.0
 40
0.4993038007370353
 40
1.0
 40
1.0
 40
1.0
 40
1.0
 10
-41.04332446361624
 20
-189.3337964985036
 30
0.0
 10
-41.08515316884598
 20
-190.2769716278488
 30
0.0
 10
-41.16892722617944
 20
-192.1659521001644
 30
0.0
 10
-41.25981663262431
 20
-194.0544408570677
 30
0.0
 10
-41.30532461298451
 20
-194.9999999999999
 30
0.0
  0
SPLINE
  5
A8
330
9E
100
AcDbEntity
  8
0
  6
Continuous
 62
     7
370
    25
100
AcDbSpline
210
0.0
220
0.0
230
1.0
 70
     8
 71
     3
 72
    21
 73
    17
 74
     0
 42
0.000000001
 43
0.00000001
 40
0.0
 40
0.0
 40
0.0
 40
0.0
 40
0.0690582148877377
 40
0.138885011569587
 40
0.2097798960330508
 40
0.2818594429556687
 40
0.3552863548321782
 40
0.4301397500895314
 40
0.5062755240229064
 40
0.5832933473750833
 40
0.6604959683121487
 40
0.737060029605913
 40
0.8124802294174432
 40
0.8866284931891136
 40
0.9449902733864952
 40
1.0
 40
1.0
 40
1.0
 40
1.0
 10
-0.0000000000868785
 20
-182.5850158452587
 30
0.0
 10
-2.315981793033059
 20
-182.5998913001015
 30
0.0
 10
-6.97372104434692
 20
-182.6298077658154
 30
0.0
 10
-13.79408762471149
 20
-182.8494674707688
 30
0.0
 10
-20.35138720598127
 20
-183.1701886555719
 30
0.0
 10
-26.54621418959107
 20
-183.5866798413542
 30
0.0
 10
-32.29832190166768
 20
-184.0742639151703
 30
0.0
 10
-37.54730627212439
 20
-184.6131505393057
 30
0.0
 10
-42.21581692290268
 20
-185.1827119878869
 30
0.0
 10
-46.21505482088051
 20
-185.7626858623077
 30
0.0
 10
-49.46796595043685
 20
-186.3337145751016
 30
0.0
 10
-51.88044961140789
 20
-186.8774327908475
 30
0.0
 10
-53.35677912403006
 20
-187.3745683093855
 30
0.0
 10
-53.76006046831987
 20
-187.772986816559
 30
0.0
 10
-53.36622104892128
 20
-188.0757178995655
 30
0.0
 10
-52.50349736353198
 20
-188.2041411241148
 30
0.0
 10
-52.08488958975136
 20
-188.2664541926449
 30
0.0
  0
SPLINE
  5
A9
330
9E
100
AcDbEntity
  8
0
  6
Continuous
 62
     7
370
    25
100
AcDbSpline
210
0.0
220
0.0
230
1.0
 70
     8
 71
     3
 72
    21
 73
    17
 74
     0
 42
0.000000001
 43
0.00000001
 40
0.0
 40
0.0
 40
0.0
 40
0.0
 40
0.0550217987473086
 40
0.1133828333907603
 40
0.1875301499382656
 40
0.2629493862742409
 40
0.3395124694771302
 40
0.4167141041626934
 40
0.4937309436208511
 40
0.5698657449260015
 40
0.6447181839357903
 40
0.7181441577868455
 40
0.7902227838953174
 40
0.8611167626747832
 40
0.9309426673186487
 40
0.9999999999999999
 40
0.9999999999999999
 40
0.9999999999999999
 40
0.9999999999999999
 10
52.08463210312647
 20
-188.2665005905954
 30
0.0
 10
52.50334259077089
 20
-188.2041735317509
 30
0.0
 10
53.36617482345709
 20
-188.0757368268524
 30
0.0
 10
53.76006741159431
 20
-187.7729874223692
 30
0.0
 10
53.3567770393314
 20
-187.3745681260532
 30
0.0
 10
51.88045017790861
 20
-186.877432839385
 30
0.0
 10
49.46796578858154
 20
-186.3337145600863
 30
0.0
 10
46.21505485519184
 20
-185.7626858645592
 30
0.0
 10
42.21581690393511
 20
-185.1827119855966
 30
0.0
 10
37.54730626708164
 20
-184.6131505383434
 30
0.0
 10
32.29832189347373
 20
-184.0742639140371
 30
0.0
 10
26.54621418324707
 20
-183.5866798404811
 30
0.0
 10
20.35138720076807
 20
-183.1701886548897
 30
0.0
 10
13.79408762144086
 20
-182.8494674702958
 30
0.0
 10
6.973721042731305
 20
-182.6298077655629
 30
0.0
 10
2.315981792526383
 20
-182.5998913000186
 30
0.0
 10
-0.0000000000868785
 20
-182.5850158452587
 30
0.0
  0
SPLINE
  5
AA
330
9E
100
AcDbEntity
  8
0
  6
Continuous
 62
     7
370
    25
100
AcDbSpline
210
0.0
220
0.0
230
1.0
 70
    24
 71
     3
 72
    32
 73
    28
 74
     0
 42
0.000000001
 43
0.00000001
 40
0.0
 40
0.0
 40
0.0
 40
0.0
 40
0.0536769047043263
 40
0.1072299009219926
 40
0.1605415799673425
 40
0.2134915825125659
 40
0.2659783338895986
 40
0.3180248547449019
 40
0.3697015790597931
 40
0.4167495181732585
 40
0.4634636661457749
 40
0.5097829376973639
 40
0.5556225132432007
 40
0.600925293448115
 40
0.6456631949538334
 40
0.6794464069472009
 40
0.7129027132024442
 40
0.7460499223438498
 40
0.7789320670720247
 40
0.8116497440088822
 40
0.8437509090593924
 40
0.8759636237365097
 40
0.9084395358241227
 40
0.9413125036338499
 40
0.9696131993727546
 40
0.9983909170663428
 40
1.0
 40
1.0
 40
1.0
 40
1.0
 10
-0.0000000004312527
 20
0.0
 30
0.0
 10
-6.844489540211207
 20
0.0
 30
0.0
 10
-20.51766870832866
 20
0.0
 30
0.0
 10
-40.92490187461688
 20
0.0000000000000139
 30
0.0
 10
-61.11496645825055
 20
0.0000000000000278
 30
0.0
 10
-80.98487132279303
 20
0.0000000000000278
 30
0.0
 10
-100.448644387342
 20
0.0000000000000278
 30
0.0
 10
-119.4399901377704
 20
0.0000000000000278
 30
0.0
 10
-137.3968726997477
 20
0.0000000000000278
 30
0.0
 10
-154.3028845201536
 20
0.0000000000000139
 30
0.0
 10
-170.1395371327353
 20
0.0000000000000278
 30
0.0
 10
-185.3228965732511
 20
0.0000000000000416
 30
0.0
 10
-199.7505944159301
 20
0.0000000000000555
 30
0.0
 10
-213.3184847253435
 20
0.0000000000000555
 30
0.0
 10
-224.9604169401998
 20
0.0000000000000416
 30
0.0
 10
-234.8267811338656
 20
0.0000000000000416
 30
0.0
 10
-243.1040490004941
 20
0.0000000000000416
 30
0.0
 10
-250.6832325004696
 20
0.0000000000000555
 30
0.0
 10
-257.5221790426401
 20
0.0000000000000555
 30
0.0
 10
-263.5395158216538
 20
0.0000000000000555
 30
0.0
 10
-268.7090989512039
 20
0.0000000000000555
 30
0.0
 10
-273.0105624530378
 20
0.0000000000000555
 30
0.0
 10
-276.4140294224165
 20
0.0000000000000555
 30
0.0
 10
-278.7664916906941
 20
0.0000000000000694
 30
0.0
 10
-280.0377556438363
 20
0.0000000000000694
 30
0.0
 10
-280.5549574368602
 20
0.0000000000000694
 30
0.0
 10
-280.4222152985586
 20
0.0000000000000555
 30
0.0
 10
-280.4151861574542
 20
0.0000000000000555
 30
0.0
  0
SPLINE
  5
AB
330
9E
100
AcDbEntity
  8
0
  6
Continuous
 62
     7
370
    25
100
AcDbSpline
210
0.0
220
0.0
230
1.0
 70
    24
 71
     3
 72
    33
 73
    29
 74
     0
 42
0.000000001
 43
0.00000001
 40
0.0
 40
0.0
 40
0.0
 40
0.0
 40
0.0049224253573101
 40
0.0320127969234122
 40
0.0586848724063964
 40
0.0921508101632639
 40
0.1252074130222112
 40
0.1579969791269707
 40
0.1906792370954505
 40
0.223404216507659
 40
0.2557127866638815
 40
0.2882808543688343
 40
0.3211479783122569
 40
0.3543306343746544
 40
0.3970230116485539
 40
0.4402307945615802
 40
0.4839311169167718
 40
0.5280774655384661
 40
0.5725984570605419
 40
0.6174304350563108
 40
0.6625511790633656
 40
0.7079451148280994
 40
0.7558309124700264
 40
0.8041088257995219
 40
0.8527556709838874
 40
0.9016810687787232
 40
0.9507925090840308
 40
1.0
 40
1.0
 40
1.0
 40
1.0
 10
280.3816308932245
 20
0.0000000000000139
 30
0.0
 10
280.3981590429603
 20
0.0000000000000139
 30
0.0
 10
280.5056492053511
 20
0.0000000000000139
 30
0.0
 10
279.987203002266
 20
0.0000000000000139
 30
0.0
 10
278.7128435627395
 20
0.0
 30
0.0
 10
276.3678245410455
 20
0.0
 30
0.0
 10
272.8752034315755
 20
0.0
 30
0.0
 10
268.455496032499
 20
0.0
 30
0.0
 10
263.1700585139192
 20
0.0000000000000139
 30
0.0
 10
257.0958499454956
 20
0.0000000000000139
 30
0.0
 10
250.2922295807524
 20
0.0000000000000139
 30
0.0
 10
242.8173923328317
 20
0.0
 30
0.0
 10
234.670535468762
 20
0.0
 30
0.0
 10
225.0842536442534
 20
0.0
 30
0.0
 10
213.9064878844648
 20
0.0000000000000139
 30
0.0
 10
201.0154021342241
 20
0.0000000000000139
 30
0.0
 10
187.3327496105268
 20
0.0
 30
0.0
 10
172.9477152910691
 20
-0.0000000000000139
 30
0.0
 10
157.9514000446276
 20
-0.0000000000000139
 30
0.0
 10
142.4219632015095
 20
0.0
 30
0.0
 10
126.4230823966152
 20
0.0000000000000139
 30
0.0
 10
109.7414411456758
 20
0.0
 30
0.0
 10
92.39405869068825
 20
-0.0000000000000139
 30
0.0
 10
74.40542678014687
 20
-0.0000000000000278
 30
0.0
 10
56.0957058153818
 20
-0.0000000000000278
 30
0.0
 10
37.53736823766221
 20
-0.0000000000000139
 30
0.0
 10
18.81132000343253
 20
-0.0000000000000139
 30
0.0
 10
6.274522521008087
 20
0.0
 30
0.0
 10
-0.0000000004312527
 20
0.0
 30
0.0
  0
SPLINE
  5
AC
330
9E
100
AcDbEntity
  8
0
  6
Continuous
 62
     7
370
    25
100
AcDbSpline
210
0.0
220
0.0
230
1.0
 70
     8
 71
     3
 72
    19
 73
    15
 74
     0
 42
0.000000001
 43
0.00000001
 40
0.0
 40
0.0
 40
0.0
 40
0.0
 40
0.0775564125894665
 40
0.1563631948109304
 40
0.2369612021405145
 40
0.3195541976291491
 40
0.404336274259967
 40
0.4914315049754698
 40
0.580688134823961
 40
0.6715688325780307
 40
0.7630553501446824
 40
0.8538953680706538
 40
0.943143812101012
 40
1.0
 40
1.0
 40
1.0
 40
1.0
 10
-0.0000000000724778
 20
-188.2842712474621
 30
0.0
 10
-1.824119093494896
 20
-188.2872836688553
 30
0.0
 10
-5.501765849449745
 20
-188.2933570780996
 30
0.0
 10
-10.86654823478359
 20
-188.3379180250095
 30
0.0
 10
-16.00268232496046
 20
-188.4030065064114
 30
0.0
 10
-20.82646206586995
 20
-188.4876918421823
 30
0.0
 10
-25.27131918123264
 20
-188.5871311817
 30
0.0
 10
-29.29362361104702
 20
-188.6974141022516
 30
0.0
 10
-32.83850694804264
 20
-188.8144488944241
 30
0.0
 10
-35.83861433589299
 20
-188.9341755343443
 30
0.0
 10
-38.24947632186712
 20
-189.0530140590371
 30
0.0
 10
-39.95724351298549
 20
-189.16675012074
 30
0.0
 10
-40.91997285069485
 20
-189.2618390891024
 30
0.0
 10
-40.94260195638371
 20
-189.3125013625976
 30
0.0
 10
-40.95140800632231
 20
-189.3322164373574
 30
0.0
  0
SPLINE
  5
AD
330
9E
100
AcDbEntity
  8
0
  6
Continuous
 62
     7
370
    25
100
AcDbSpline
210
0.0
220
0.0
230
1.0
 70
     8
 71
     3
 72
    19
 73
    15
 74
     0
 42
0.000000001
 43
0.00000001
 40
0.0
 40
0.0
 40
0.0
 40
0.0
 40
0.0568561881066479
 40
0.1461046321311504
 40
0.2369446500471629
 40
0.328431167599515
 40
0.4193118653350674
 40
0.5085684951624411
 40
0.5956637258552957
 40
0.6804458024625796
 40
0.7630387979266207
 40
0.8436368052273988
 40
0.9224435874218194
 40
1.0
 40
1.0
 40
1.0
 40
1.0
 10
40.95140800615668
 20
-189.3322164373077
 30
0.0
 10
40.94260195577837
 20
-189.3125013624701
 30
0.0
 10
40.91997284901102
 20
-189.2618390888898
 30
0.0
 10
39.95724350928305
 20
-189.1667501204375
 30
0.0
 10
38.24947631665443
 20
-189.0530140587302
 30
0.0
 10
35.8386143298373
 20
-188.9341755340459
 30
0.0
 10
32.83850694150368
 20
-188.8144488941416
 30
0.0
 10
29.29362360448377
 20
-188.6974141019938
 30
0.0
 10
25.27131917504599
 20
-188.5871311814738
 30
0.0
 10
20.82646206041013
 20
-188.4876918419941
 30
0.0
 10
16.00268232063307
 20
-188.4030065062687
 30
0.0
 10
10.86654823203413
 20
-188.3379180249099
 30
0.0
 10
5.501765848100666
 20
-188.2933570780464
 30
0.0
 10
1.824119093072169
 20
-188.2872836688379
 30
0.0
 10
-0.0000000000724778
 20
-188.2842712474621
 30
0.0
  0
SPLINE
  5
AE
330
9E
100
AcDbEntity
  8
0
  6
Continuous
 62
     7
370
    25
100
AcDbSpline
210
0.0
220
0.0
230
1.0
 70
    24
 71
     3
 72
    19
 73
    15
 74
     0
 42
0.000000001
 43
0.00000001
 40
0.0
 40
0.0
 40
0.0
 40
0.0
 40
0.0799491293998807
 40
0.161021112532048
 40
0.2436620085678231
 40
0.3279961781947606
 40
0.414153220484255
 40
0.5022679356900034
 40
0.5922542471668318
 40
0.6836666466025292
 40
0.7755906417120939
 40
0.8668928650390367
 40
0.9567387068015916
 40
1.0
 40
1.0
 40
1.0
 40
1.0
 10
-0.0000000000651503
 20
-195.0000000000001
 30
0.0
 10
-1.865916240305352
 20
-195.0000000000001
 30
0.0
 10
-5.623954772436531
 20
-195.0
 30
0.0
 10
-11.10892596378742
 20
-194.9999999999997
 30
0.0
 10
-16.35812178035009
 20
-194.9999999999997
 30
0.0
 10
-21.28179593762423
 20
-194.9999999999999
 30
0.0
 10
-25.80588895309543
 20
-195.0000000000002
 30
0.0
 10
-29.88038945841112
 20
-195.0
 30
0.0
 10
-33.44793376192019
 20
-194.9999999999997
 30
0.0
 10
-36.43855954236619
 20
-195.0000000000001
 30
0.0
 10
-38.80959604603594
 20
-194.9999999999999
 30
0.0
 10
-40.4285709844673
 20
-195.0000000000001
 30
0.0
 10
-41.26739404430072
 20
-194.9999999999999
 30
0.0
 10
-41.21618890845452
 20
-194.9999999999999
 30
0.0
 10
-41.19954667214046
 20
-194.9999999999999
 30
0.0
  0
SPLINE
  5
AF
330
9E
100
AcDbEntity
  8
0
  6
Continuous
 62
     7
370
    25
100
AcDbSpline
210
0.0
220
0.0
230
1.0
 70
    24
 71
     3
 72
    19
 73
    15
 74
     0
 42
0.000000001
 43
0.00000001
 40
0.0
 40
0.0
 40
0.0
 40
0.0
 40
0.0432612933874866
 40
0.1331071351450438
 40
0.2244093584629286
 40
0.316333353559257
 40
0.4077457529777391
 40
0.4977320644349879
 40
0.5858467796198586
 40
0.6720038218877875
 40
0.7563379914922963
 40
0.8389788875019504
 40
0.9200508706098266
 40
1.0
 40
1.0
 40
1.0
 40
1.0
 10
41.19954667222427
 20
-195.0000000000001
 30
0.0
 10
41.21618890833972
 20
-195.0000000000001
 30
0.0
 10
41.26739404342184
 20
-195.0000000000001
 30
0.0
 10
40.42857098191459
 20
-194.9999999999999
 30
0.0
 10
38.80959604198103
 20
-195.0
 30
0.0
 10
36.43855953745603
 20
-195.0
 30
0.0
 10
33.4479337564627
 20
-194.9999999999998
 30
0.0
 10
29.88038945282557
 20
-195.0000000000001
 30
0.0
 10
25.80588894774905
 20
-195.0
 30
0.0
 10
21.28179593284549
 20
-194.9999999999997
 30
0.0
 10
16.35812177652514
 20
-195.0000000000001
 30
0.0
 10
11.10892596133424
 20
-195.0000000000003
 30
0.0
 10
5.623954771214775
 20
-195.0000000000002
 30
0.0
 10
1.8659162399248
 20
-195.0000000000001
 30
0.0
 10
-0.0000000000651503
 20
-195.0000000000001
 30
0.0
  0
VIEWPORT
  5
102
330
9E
100
AcDbEntity
  8
0
100
AcDbViewport
 10
0.0
 20
0.0
 30
0.0
 40
205.6
 41
156.0
 68
     1
 69
     1
 12
0.0000000006
 22
-0.7645283725
 13
0.0
 23
0.0
 14
10.0
 24
10.0
 15
10.0
 25
10.0
 16
0.0
 26
0.0
 36
1.0
 17
0.0
 27
0.0
 37
0.0
 42
50.0
 43
0.0
 44
0.0
 45
434.0222782612
 50
0.0
 51
0.0
 72
   100
 90
   557152
  1

281
     0
 71
     1
 74
     0
110
0.0
120
0.0
130
0.0
111
1.0
121
0.0
131
0.0
112
0.0
122
1.0
132
0.0
 79
     0
146
0.0
170
     0
 61
     5
348
2F
292
     1
282
     1
141
0.0
142
0.0
 63
   256
361
103
  0
ENDBLK
  5
A1
330
9E
100
AcDbEntity
  8
0
100
AcDbBlockEnd
  0
BLOCK
  5
B2
330
B0
100
AcDbEntity
  8
0
100
AcDbBlockBegin
  2
*Paper_Space3
 70
     0
 10
0.0
 20
0.0
 30
0.0
  3
*Paper_Space3
  1

  0
SPLINE
  5
B4
330
B0
100
AcDbEntity
  8
0
  6
Continuous
 62
     7
370
    25
100
AcDbSpline
210
0.0
220
0.0
230
1.0
 70
     8
 71
     3
 72
    26
 73
    22
 74
     0
 42
0.000000001
 43
0.00000001
 40
0.0
 40
0.0
 40
0.0
 40
0.0
 40
0.074654901258573
 40
0.1431215207457051
 40
0.2053995967454111
 40
0.2614889734082706
 40
0.3113896252964468
 40
0.3462559133128773
 40
0.3773014015068772
 40
0.4045260431385746
 40
0.4279973949497904
 40
0.4524299241379549
 40
0.4890833518489544
 40
0.5319612184929048
 40
0.5810634656812178
 40
0.6363899771783862
 40
0.6979405442159865
 40
0.7644502206033338
 40
0.8369634472115426
 40
0.915480146220544
 40
1.0
 40
1.0
 40
1.0
 40
1.0
 10
144.6992554022036
 20
-182.5850158452587
 30
0.0
 10
147.2607709869357
 20
-178.4832756233904
 30
0.0
 10
152.171473428707
 20
-170.6197959541276
 30
0.0
 10
158.6971297565964
 20
-159.0220870307829
 30
0.0
 10
164.3120833780068
 20
-148.3010469818426
 30
0.0
 10
169.0751848351389
 20
-138.4967115082956
 30
0.0
 10
172.8447111986705
 20
-130.1877787511163
 30
0.0
 10
175.7983304797854
 20
-123.2923463088848
 30
0.0
 10
178.082130246126
 20
-117.7087833525276
 30
0.0
 10
180.0150220579314
 20
-112.7797692856972
 30
0.0
 10
181.7340755316498
 20
-108.2274419384959
 30
0.0
 10
183.6074710155544
 20
-103.0810173139512
 30
0.0
 10
185.8141252519888
 20
-96.71883645274286
 30
0.0
 10
188.3874259946749
 20
-88.79409991405313
 30
0.0
 10
191.1250356225968
 20
-79.65343568770733
 30
0.0
 10
193.9404283240278
 20
-69.27694045637874
 30
0.0
 10
196.7149632146051
 20
-57.72596302324109
 30
0.0
 10
199.3465615046809
 20
-45.00170165499743
 30
0.0
 10
201.709007877532
 20
-31.10912251085869
 30
0.0
 10
203.7429907876316
 20
-15.98287774027722
 30
0.0
 10
204.6044764749672
 20
-5.456818946079522
 30
0.0
 10
205.0510796635245
 20
0.0
 30
0.0
  0
SPLINE
  5
B5
330
B0
100
AcDbEntity
  8
0
  6
Continuous
 62
     7
370
    25
100
AcDbSpline
210
0.0
220
0.0
230
1.0
 70
     8
 71
     3
 72
    35
 73
    31
 74
     0
 42
0.000000001
 43
0.00000001
 40
0.0
 40
0.0
 40
0.0
 40
0.0
 40
0.0482640110968134
 40
0.0940199188343788
 40
0.1372675247077778
 40
0.1780069355954458
 40
0.2162380325029209
 40
0.2519606045940723
 40
0.2851746426698866
 40
0.3158801318640865
 40
0.344076952177047
 40
0.3697650174731196
 40
0.392944312765665
 40
0.4136148305142723
 40
0.4321390925414123
 40
0.4522287235712086
 40
0.4788746703044335
 40
0.5089755038275883
 40
0.5425311935618321
 40
0.5795416431805834
 40
0.6200066060091493
 40
0.6639259750711982
 40
0.6991341457679173
 40
0.7362855561340966
 40
0.7753801547199518
 40
0.8164180212257471
 40
0.8593989783740172
 40
0.9043229038122095
 40
0.9511899639466701
 40
1.0
 40
1.0
 40
1.0
 40
1.0
 10
-206.5801364084935
 20
0.0000000000000278
 30
0.0
 10
-204.6080589381574
 20
-4.857812077780174
 30
0.0
 10
-200.7663856192081
 20
-14.32099358479159
 30
0.0
 10
-194.2626805001467
 20
-27.74592059530298
 30
0.0
 10
-187.5536313171929
 20
-40.14111067765602
 30
0.0
 10
-180.6923640474677
 20
-51.50910208694726
 30
0.0
 10
-173.8027201579065
 20
-61.89043657079389
 30
0.0
 10
-166.9780060357725
 20
-71.32195979734041
 30
0.0
 10
-160.3066028672649
 20
-79.84529861225552
 30
0.0
 10
-153.8678638578513
 20
-87.50445500554227
 30
0.0
 10
-147.7321781697932
 20
-94.34382132626122
 30
0.0
 10
-141.9615137825262
 20
-100.4072277967019
 30
0.0
 10
-136.6100791191606
 20
-105.737100140992
 30
0.0
 10
-131.696790431111
 20
-110.4012975973981
 30
0.0
 10
-126.9331061787473
 20
-114.7333640313629
 30
0.0
 10
-121.5898154843538
 20
-119.390462543876
 30
0.0
 10
-115.1603257080848
 20
-124.7116795291716
 30
0.0
 10
-107.4133401405475
 20
-130.7282106696535
 30
0.0
 10
-98.54841788826639
 20
-137.1306912785196
 30
0.0
 10
-88.50543483464561
 20
-143.8105972925479
 30
0.0
 10
-77.22533924561412
 20
-150.6432569485611
 30
0.0
 10
-65.8127848288716
 20
-156.8546311108144
 30
0.0
 10
-54.46771322353662
 20
-162.4076817500594
 30
0.0
 10
-43.39107618927637
 20
-167.2967391468232
 30
0.0
 10
-31.53034073564618
 20
-171.9512067364331
 30
0.0
 10
-18.87752570135806
 20
-176.286203439501
 30
0.0
 10
-5.431240945860998
 20
-180.2176505469903
 30
0.0
 10
8.806164118395225
 20
-183.6319876323238
 30
0.0
 10
23.81430747397121
 20
-186.5016220481465
 30
0.0
 10
34.12989785332152
 20
-187.7702517216235
 30
0.0
 10
39.39243568514718
 20
-188.4174479950054
 30
0.0
  0
SPLINE
  5
B7
330
B0
100
AcDbEntity
  8
0
  6
Continuous
 62
     7
370
    25
100
AcDbSpline
210
0.0
220
0.0
230
1.0
 70
     8
 71
     3
 72
     9
 73
     5
 74
     0
 42
0.000000001
 43
0.00000001
 40
0.0
 40
0.0
 40
0.0
 40
0.0
 40
0.4999999614104551
 40
1.0
 40
1.0
 40
1.0
 40
1.0
 10
39.39243568514718
 20
-188.4174479950054
 30
0.0
 10
41.65705112884
 20
-188.6475470215781
 30
0.0
 10
46.18628236578756
 20
-189.1077451102412
 30
0.0
 10
50.72865194359514
 20
-189.4120418367903
 30
0.0
 10
52.99983690778691
 20
-189.5641902118075
 30
0.0
  0
SPLINE
  5
BA
330
B0
100
AcDbEntity
  8
0
  6
Continuous
 62
     7
370
    25
100
AcDbSpline
210
0.0
220
0.0
230
1.0
 70
     8
 71
     3
 72
    33
 73
    29
 74
     0
 42
0.000000001
 43
0.00000001
 40
0.0
 40
0.0
 40
0.0
 40
0.0
 40
0.0062500000000001
 40
0.0093749999999999
 40
0.0125
 40
0.0625
 40
0.09375
 40
0.125
 40
0.15625
 40
0.1875
 40
0.21875
 40
0.25
 40
0.265625
 40
0.296875
 40
0.3054857052560912
 40
0.3125
 40
0.34375
 40
0.375
 40
0.3828125
 40
0.40625
 40
0.4140625
 40
0.4375
 40
0.453125
 40
0.46875
 40
0.4765625
 40
0.484375
 40
0.4921875
 40
0.5
 40
0.5
 40
0.5
 40
0.5
 10
144.6992554022036
 20
-182.5850158452587
 30
0.0
 10
144.6992554021647
 20
-182.5850158452693
 30
0.0
 10
144.6767715987691
 20
-182.5877376857654
 30
0.0
 10
144.6028636866687
 20
-182.5966189564276
 30
0.0
 10
144.1400467081505
 20
-182.6520538279699
 30
0.0
 10
141.8052248663399
 20
-182.9287748135914
 30
0.0
 10
135.9943730557966
 20
-183.5729490939137
 30
0.0
 10
129.6439658135401
 20
-184.2382968222423
 30
0.0
 10
121.9998071324566
 20
-184.9842976386385
 30
0.0
 10
113.2672718233679
 20
-185.763068803113
 30
0.0
 10
103.7755085391016
 20
-186.5267275756733
 30
0.0
 10
95.54721669454776
 20
-187.1106139428859
 30
0.0
 10
87.26462080898561
 20
-187.6252016401633
 30
0.0
 10
81.41056682149751
 20
-187.9308262590496
 30
0.0
 10
76.6124542933525
 20
-188.1307606229102
 30
0.0
 10
71.87774141917345
 20
-188.3062080223917
 30
0.0
 10
65.07688395082013
 20
-188.4819152520103
 30
0.0
 10
58.78746261995988
 20
-188.5528456477799
 30
0.0
 10
53.61790207499119
 20
-188.5747710803913
 30
0.0
 10
50.62262991139467
 20
-188.5701883742507
 30
0.0
 10
46.91353428740473
 20
-188.5477304140798
 30
0.0
 10
44.19438698824877
 20
-188.5174612641727
 30
0.0
 10
41.84290804374543
 20
-188.4780251590796
 30
0.0
 10
40.65275489903377
 20
-188.4520526336871
 30
0.0
 10
39.99380496512703
 20
-188.4353232490509
 30
0.0
 10
39.6446307668949
 20
-188.425483269167
 30
0.0
 10
39.43799745595621
 20
-188.4190330886306
 30
0.0
 10
39.39243568513358
 20
-188.4174479950075
 30
0.0
 10
39.39243568514718
 20
-188.4174479950054
 30
0.0
  0
SPLINE
  5
BB
330
B0
100
AcDbEntity
  8
0
  6
Continuous
 62
     7
370
    25
100
AcDbSpline
210
0.0
220
0.0
230
1.0
 70
    24
 71
     3
 72
    33
 73
    29
 74
     0
 42
0.000000001
 43
0.00000001
 40
0.0
 40
0.0
 40
0.0
 40
0.0
 40
0.0062500000000001
 40
0.0093749999999999
 40
0.0125
 40
0.0625
 40
0.09375
 40
0.125
 40
0.15625
 40
0.1875
 40
0.21875
 40
0.25
 40
0.265625
 40
0.296875
 40
0.3054857052560912
 40
0.3125
 40
0.34375
 40
0.375
 40
0.3828125
 40
0.40625
 40
0.4140625
 40
0.4375
 40
0.453125
 40
0.46875
 40
0.4765625
 40
0.484375
 40
0.4921875
 40
0.5
 40
0.5
 40
0.5
 40
0.5
 10
205.0510796635245
 20
0.0
 30
0.0
 10
205.0510796634464
 20
0.0
 30
0.0
 10
205.0007564376678
 20
0.0
 30
0.0
 10
204.833874782347
 20
0.0
 30
0.0
 10
203.784848916116
 20
0.0
 30
0.0
 10
198.427559277243
 20
0.0000000000000416
 30
0.0
 10
184.1067789135404
 20
0.0000000000000278
 30
0.0
 10
167.5949326817669
 20
0.0000000000000139
 30
0.0
 10
146.6212914496558
 20
0.0000000000000555
 30
0.0
 10
121.3712363878847
 20
0.0000000000000416
 30
0.0
 10
92.25477105462608
 20
0.0000000000000555
 30
0.0
 10
65.11524757476633
 20
0.0000000000000555
 30
0.0
 10
35.71856551067243
 20
0.0000000000000555
 30
0.0
 10
13.21813552440383
 20
0.0000000000000694
 30
0.0
 10
-6.747780143511701
 20
0.0000000000000555
 30
0.0
 10
-27.13743804263394
 20
0.0000000000000555
 30
0.0
 10
-59.03535611449462
 20
0.0000000000000416
 30
0.0
 10
-92.13723695732405
 20
0.0000000000000555
 30
0.0
 10
-120.8901658117633
 20
0.0000000000000278
 30
0.0
 10
-138.2774309676355
 20
0.0000000000000139
 30
0.0
 10
-160.3536674166088
 20
0.0000000000000278
 30
0.0
 10
-176.9210053709582
 20
0.0000000000000555
 30
0.0
 10
-191.4028019002504
 20
0.0000000000000139
 30
0.0
 10
-198.7663702824324
 20
-0.0000000000000139
 30
0.0
 10
-202.8496754743139
 20
-0.0000000000000139
 30
0.0
 10
-205.0141799277578
 20
0.0
 30
0.0
 10
-206.2945001938767
 20
0.0000000000000278
 30
0.0
 10
-206.5801364084917
 20
0.0000000000000278
 30
0.0
 10
-206.5801364084935
 20
0.0000000000000278
 30
0.0
  0
SPLINE
  5
BC
330
B0
100
AcDbEntity
  8
0
  6
Continuous
 62
     7
370
    25
100
AcDbSpline
210
0.0
220
0.0
230
1.0
 70
     8
 71
     3
 72
    33
 73
    29
 74
     0
 42
0.000000001
 43
0.00000001
 40
0.0
 40
0.0
 40
0.0
 40
0.0
 40
0.0062500000000001
 40
0.0093749999999999
 40
0.0125
 40
0.0625
 40
0.09375
 40
0.125
 40
0.15625
 40
0.1875
 40
0.21875
 40
0.25
 40
0.265625
 40
0.296875
 40
0.3054857052560912
 40
0.3125
 40
0.34375
 40
0.375
 40
0.3828125
 40
0.40625
 40
0.4140625
 40
0.4375
 40
0.453125
 40
0.46875
 40
0.4765625
 40
0.484375
 40
0.4921875
 40
0.5
 40
0.5
 40
0.5
 40
0.5
 10
139.0000000000001
 20
-188.2842712474621
 30
0.0
 10
138.9999999999716
 20
-188.2842712474643
 30
0.0
 10
138.9802107123844
 20
-188.2848201757221
 30
0.0
 10
138.9152150388066
 20
-188.2866123036276
 30
0.0
 10
138.5083575647636
 20
-188.2978011004677
 30
0.0
 10
136.4582901560532
 20
-188.3536983867492
 30
0.0
 10
131.393260357028
 20
-188.4845072108658
 30
0.0
 10
125.8881567284324
 20
-188.6201826795317
 30
0.0
 10
119.2979867074928
 20
-188.7731180266961
 30
0.0
 10
111.8097546935417
 20
-188.933905015626
 30
0.0
 10
103.7300225918281
 20
-189.0931354095842
 30
0.0
 10
96.80085327686635
 20
-189.216690044794
 30
0.0
 10
89.90910837844085
 20
-189.3275115122276
 30
0.0
 10
85.10735241907062
 20
-189.395087402219
 30
0.0
 10
81.23504618849654
 20
-189.4411794311972
 30
0.0
 10
77.44216966624724
 20
-189.4826367360181
 30
0.0
 10
72.09902344489005
 20
-189.528040865982
 30
0.0
 10
67.30051252891334
 20
-189.5529708620775
 30
0.0
 10
63.41395238668125
 20
-189.5665577951001
 30
0.0
 10
61.18914536150219
 20
-189.5711494837973
 30
0.0
 10
58.45649048209373
 20
-189.5737404724629
 30
0.0
 10
56.47013032533546
 20
-189.573135805656
 30
0.0
 10
54.76377541024159
 20
-189.5703383528437
 30
0.0
 10
53.9046250380793
 20
-189.5679175136268
 30
0.0
 10
53.4306030025981
 20
-189.5661909118446
 30
0.0
 10
53.18007288717462
 20
-189.5651169114975
 30
0.0
 10
53.03221149487611
 20
-189.5643797783333
 30
0.0
 10
52.99983690778929
 20
-189.5641902118083
 30
0.0
 10
52.99983690778691
 20
-189.5641902118075
 30
0.0
  0
SPLINE
  5
BD
330
B0
100
AcDbEntity
  8
0
  6
Continuous
 62
     7
370
    25
100
AcDbSpline
210
0.0
220
0.0
230
1.0
 70
    24
 71
     3
 72
    33
 73
    29
 74
     0
 42
0.000000001
 43
0.00000001
 40
0.0
 40
0.0
 40
0.0
 40
0.0
 40
0.0062500000000001
 40
0.0093749999999999
 40
0.0125
 40
0.0625
 40
0.09375
 40
0.125
 40
0.15625
 40
0.1875
 40
0.21875
 40
0.25
 40
0.265625
 40
0.296875
 40
0.3054857052560912
 40
0.3125
 40
0.34375
 40
0.375
 40
0.3828125
 40
0.40625
 40
0.4140625
 40
0.4375
 40
0.453125
 40
0.46875
 40
0.4765625
 40
0.484375
 40
0.4921875
 40
0.5
 40
0.5
 40
0.5
 40
0.5
 10
139.0
 20
-195.0000000000001
 30
0.0
 10
138.9999999999655
 20
-195.0000000000001
 30
0.0
 10
138.9802891873732
 20
-195.0000000000001
 30
0.0
 10
138.9155430492041
 20
-195.0
 30
0.0
 10
138.5102251188579
 20
-195.0
 30
0.0
 10
136.4675486971732
 20
-194.9999999999997
 30
0.0
 10
131.4152182659922
 20
-194.9999999999998
 30
0.0
 10
125.9227890415104
 20
-195.0000000000003
 30
0.0
 10
119.3455284221978
 20
-194.9999999999997
 30
0.0
 10
111.8669197355764
 20
-195.0000000000001
 30
0.0
 10
103.787857769072
 20
-195.0
 30
0.0
 10
96.84781605842484
 20
-195.0
 30
0.0
 10
89.94022104297602
 20
-194.9999999999999
 30
0.0
 10
85.1246330854718
 20
-194.9999999999999
 30
0.0
 10
81.23580555132312
 20
-194.9999999999999
 30
0.0
 10
77.42552730156363
 20
-195.0
 30
0.0
 10
72.06234271970739
 20
-195.0000000000001
 30
0.0
 10
67.26575940592573
 20
-194.9999999999997
 30
0.0
 10
63.39796038042648
 20
-195.0
 30
0.0
 10
61.19202845983675
 20
-195.0000000000003
 30
0.0
 10
58.48237721261453
 20
-195.0
 30
0.0
 10
56.50900807598472
 20
-194.9999999999995
 30
0.0
 10
54.79879762395065
 20
-195.0000000000001
 30
0.0
 10
53.92870088293201
 20
-195.0000000000004
 30
0.0
 10
53.44462287013398
 20
-195.0000000000002
 30
0.0
 10
53.18700086222226
 20
-194.9999999999999
 30
0.0
 10
53.0337470229742
 20
-194.9999999999997
 30
0.0
 10
52.9999813201442
 20
-194.9999999999997
 30
0.0
 10
52.99998132016004
 20
-194.9999999999997
 30
0.0
  0
LINE
  5
BE
330
B0
100
AcDbEntity
  8
0
  6
Continuous
 62
     7
370
    25
100
AcDbLine
 10
139.0
 20
-188.2842712475
 30
0.0
 11
144.6992554022
 21
-182.5850158453
 31
0.0
  0
LINE
  5
BF
330
B0
100
AcDbEntity
  8
0
  6
Continuous
 62
     7
370
    25
100
AcDbLine
 10
139.0
 20
-195.0
 30
0.0
 11
139.0
 21
-188.2842712475
 31
0.0
  0
LINE
  5
C0
330
B0
100
AcDbEntity
  8
0
  6
Continuous
 62
     7
370
    25
100
AcDbLine
 10
52.9998369078
 20
-189.5641902118
 30
0.0
 11
52.9999813202
 21
-195.0
 31
0.0
  0
VIEWPORT
  5
104
330
B0
100
AcDbEntity
  8
0
100
AcDbViewport
 10
0.0
 20
0.0
 30
0.0
 40
205.6
 41
156.0
 68
     1
 69
     1
 12
0.0000000006
 22
-0.7645283725
 13
0.0
 23
0.0
 14
10.0
 24
10.0
 15
10.0
 25
10.0
 16
0.0
 26
0.0
 36
1.0
 17
0.0
 27
0.0
 37
0.0
 42
50.0
 43
0.0
 44
0.0
 45
434.0222782612
 50
0.0
 51
0.0
 72
   100
 90
   557152
  1

281
     0
 71
     1
 74
     0
110
0.0
120
0.0
130
0.0
111
1.0
121
0.0
131
0.0
112
0.0
122
1.0
132
0.0
 79
     0
146
0.0
170
     0
 61
     5
348
2F
292
     1
282
     1
141
0.0
142
0.0
 63
   256
361
105
  0
ENDBLK
  5
B3
330
B0
100
AcDbEntity
  8
0
100
AcDbBlockEnd
  0
BLOCK
  5
C3
330
C1
100
AcDbEntity
  8
0
100
AcDbBlockBegin
  2
*Paper_Space4
 70
     0
 10
0.0
 20
0.0
 30
0.0
  3
*Paper_Space4
  1

  0
SPLINE
  5
C5
330
C1
100
AcDbEntity
  8
0
  6
Continuous
 62
     7
370
    25
100
AcDbSpline
210
0.0
220
0.0
230
1.0
 70
    11
 71
     3
 72
    59
 73
    55
 74
     0
 42
0.000000001
 43
0.00000001
 40
0.0
 40
0.0
 40
0.0
 40
0.0
 40
0.0062500000000001
 40
0.0093749999999999
 40
0.0125
 40
0.0625
 40
0.09375
 40
0.125
 40
0.15625
 40
0.1875
 40
0.21875
 40
0.25
 40
0.265625
 40
0.296875
 40
0.3054857052560912
 40
0.3125
 40
0.34375
 40
0.375
 40
0.3828125
 40
0.40625
 40
0.4140625
 40
0.4375
 40
0.453125
 40
0.46875
 40
0.4765625
 40
0.484375
 40
0.4921875
 40
0.5
 40
0.5078125
 40
0.515625
 40
0.5234375
 40
0.53125
 40
0.546875
 40
0.5625
 40
0.5859375
 40
0.59375
 40
0.6171875
 40
0.625
 40
0.65625
 40
0.6875
 40
0.6945142946655007
 40
0.703125
 40
0.734375
 40
0.75
 40
0.78125
 40
0.8125
 40
0.84375
 40
0.875
 40
0.90625
 40
0.9375
 40
0.9875
 40
0.990625
 40
0.99375
 40
1.0
 40
1.0
 40
1.0
 40
1.0
 10
0.0000000000651503
 20
-139.0
 30
0.0
 10
0.4962463856925624
 20
-138.9999999999655
 30
0.0
 10
1.240641496262699
 20
-138.9802891873732
 30
0.0
 10
2.232160209336287
 20
-138.9155430492041
 30
0.0
 10
6.689381367190632
 20
-138.5102251188579
 30
0.0
 10
13.29614016807593
 20
-136.4675486971732
 30
0.0
 10
21.28298599787368
 20
-131.4152182659922
 30
0.0
 10
27.22901627485277
 20
-125.9227890415104
 30
0.0
 10
32.35833150372145
 20
-119.3455284221978
 30
0.0
 10
36.516361289811
 20
-111.8669197355764
 30
0.0
 10
39.54269966660215
 20
-103.787857769072
 30
0.0
 10
40.96322824334472
 20
-96.84781605842484
 30
0.0
 10
41.45094331389598
 20
-89.94022104297602
 30
0.0
 10
41.13218549646843
 20
-85.1246330854718
 30
0.0
 10
40.36780647825242
 20
-81.23580555132312
 30
0.0
 10
39.40600265566986
 20
-77.42552730156363
 30
0.0
 10
37.25888165233681
 20
-72.06234271970739
 30
0.0
 10
33.84340239074048
 20
-67.26575940592573
 30
0.0
 10
30.07231301474977
 20
-63.39796038042648
 30
0.0
 10
27.34623968472494
 20
-61.19202845983675
 30
0.0
 10
23.04604223984499
 20
-58.48237721261453
 30
0.0
 10
18.97435795137778
 20
-56.50900807598472
 30
0.0
 10
13.8524946894852
 20
-54.79879762395065
 30
0.0
 10
10.05016499077673
 20
-53.92870088293201
 30
0.0
 10
6.960587397615221
 20
-53.44462287013398
 30
0.0
 10
4.635038030661721
 20
-53.18700086222226
 30
0.0
 10
2.307241119089336
 20
-53.0337470229742
 30
0.0
 10
0.0000000002358862
 20
-52.9830984687292
 30
0.0
 10
-2.307241118706857
 20
-53.03374702306921
 30
0.0
 10
-4.635038030546395
 20
-53.18700086243522
 30
0.0
 10
-6.960587397932603
 20
-53.44462287051153
 30
0.0
 10
-10.05016499186558
 20
-53.92870088362181
 30
0.0
 10
-13.8524946918417
 20
-54.79879762525923
 30
0.0
 10
-18.97435795577172
 20
-56.50900807868465
 30
0.0
 10
-23.04604224584819
 20
-58.4823772170631
 30
0.0
 10
-27.34623969196858
 20
-61.19202846660489
 30
0.0
 10
-30.07231302240499
 20
-63.39796038894731
 30
0.0
 10
-33.84340239828047
 20
-67.26575941707617
 30
0.0
 10
-37.25888165885776
 20
-72.06234273358344
 30
0.0
 10
-39.40600265784267
 20
-77.42552731106632
 30
0.0
 10
-40.36780648000754
 20
-81.23580556105411
 30
0.0
 10
-41.13218549776685
 20
-85.12463309528158
 30
0.0
 10
-41.45094331400375
 20
-89.94022105961277
 30
0.0
 10
-40.96322824139946
 20
-96.84781607452723
 30
0.0
 10
-39.54269966288707
 20
-103.7878577840672
 30
0.0
 10
-36.51636128477369
 20
-111.8669197486064
 30
0.0
 10
-32.35833149808011
 20
-119.345528432705
 30
0.0
 10
-27.22901626931725
 20
-125.9227890494218
 30
0.0
 10
-21.28298599303691
 20
-131.4152182713943
 30
0.0
 10
-13.29614016468665
 20
-136.4675486998676
 30
0.0
 10
-6.689381366362667
 20
-138.510225119953
 30
0.0
 10
-2.232160209080453
 20
-138.9155430495431
 30
0.0
 10
-1.240641496101417
 20
-138.9802891875524
 30
0.0
 10
-0.4962463855622528
 20
-139.0000000000345
 30
0.0
 10
0.0000000000651503
 20
-139.0
 30
0.0
  0
SPLINE
  5
C6
330
C1
100
AcDbEntity
  8
0
  6
Continuous
 62
     7
370
    25
100
AcDbSpline
210
0.0
220
0.0
230
1.0
 70
     8
 71
     3
 72
    25
 73
    21
 74
     0
 42
0.000000001
 43
0.00000001
 40
0.0
 40
0.0
 40
0.0
 40
0.0
 40
0.0523775667341445
 40
0.1058085271407097
 40
0.1602775300715033
 40
0.2111945236637614
 40
0.2652317484369385
 40
0.322211376082957
 40
0.3810716744152248
 40
0.4407817856899139
 40
0.5000000000090637
 40
0.5592182143347852
 40
0.6189283256278829
 40
0.6777886239864281
 40
0.7347682516606515
 40
0.788805476458151
 40
0.8397224700686499
 40
0.8941914730140951
 40
0.9476224334303194
 40
1.0
 40
1.0
 40
1.0
 40
1.0
 10
40.31475893169957
 20
-81.14354768381237
 30
0.0
 10
39.88793169559781
 20
-79.31892126553203
 30
0.0
 10
39.02569306918935
 20
-75.63297237676055
 30
0.0
 10
36.52871218889543
 20
-70.43348166847252
 30
0.0
 10
33.1667692692402
 20
-65.83085539584926
 30
0.0
 10
28.9964315748918
 20
-61.91628723545629
 30
0.0
 10
24.16673500731406
 20
-58.69589088093563
 30
0.0
 10
18.64448445797619
 20
-56.13840130291258
 30
0.0
 10
12.63290044676717
 20
-54.3065520788126
 30
0.0
 10
6.362318263181587
 20
-53.23408951400061
 30
0.0
 10
0.0000000000528185
 20
-52.88319504832531
 30
0.0
 10
-6.362318263737394
 20
-53.2340895140353
 30
0.0
 10
-12.63290044910783
 20
-54.30655207937246
 30
0.0
 10
-18.64448446264856
 20
-56.13840130484326
 30
0.0
 10
-24.16673501410343
 20
-58.69589088508884
 30
0.0
 10
-28.99643158287621
 20
-61.91628724243584
 30
0.0
 10
-33.16676927729435
 20
-65.83085540581529
 30
0.0
 10
-36.52871219565634
 20
-70.43348168125323
 30
0.0
 10
-39.02569307172249
 20
-75.63297238603596
 30
0.0
 10
-39.88793169543885
 20
-79.31892126972744
 30
0.0
 10
-40.31475892949219
 20
-81.14354768243334
 30
0.0
  0
SPLINE
  5
CB
330
C1
100
AcDbEntity
  8
0
  6
Continuous
 62
     7
370
    25
100
AcDbSpline
210
0.0
220
0.0
230
1.0
 70
     8
 71
     3
 72
    19
 73
    15
 74
     0
 42
0.000000001
 43
0.00000001
 40
0.9168042551513278
 40
0.9168042551513278
 40
0.9168042551513278
 40
0.9168042551513278
 40
0.9375
 40
0.9875
 40
0.990625
 40
0.99375
 40
1.0
 40
1.0
 40
1.0
 40
1.00625
 40
1.009375
 40
1.0125
 40
1.0625
 40
1.083195744829134
 40
1.083195744829134
 40
1.083195744829134
 40
1.083195744829134
 10
-11.58700203943683
 20
-115.8680996508998
 30
0.0
 10
-10.72983032208776
 20
-116.3608538627285
 30
0.0
 10
-7.674182146430796
 20
-117.8670485162459
 30
0.0
 10
-4.1220942766111
 20
-118.7567947957323
 30
0.0
 10
-1.375774120044687
 20
-118.9581010952417
 30
0.0
 10
-0.7647161629169004
 20
-118.9902342309269
 30
0.0
 10
-0.3058699265545486
 20
-119.0
 30
0.0
 10
0.0000000000404437
 20
-119.0
 30
0.0
 10
0.3058699266354415
 20
-119.0
 30
0.0
 10
0.7647161630172498
 20
-118.9902342309217
 30
0.0
 10
1.375774120204306
 20
-118.9581010952193
 30
0.0
 10
4.122094277128983
 20
-118.7567947956033
 30
0.0
 10
7.674182147406254
 20
-117.8670485158888
 30
0.0
 10
10.72983032292298
 20
-116.360853862256
 30
0.0
 10
11.58700203967101
 20
-115.8680996507628
 30
0.0
  0
SPLINE
  5
CC
330
C1
100
AcDbEntity
  8
0
  6
Continuous
 62
     7
370
    25
100
AcDbSpline
210
0.0
220
0.0
230
1.0
 70
     8
 71
     3
 72
    15
 73
    11
 74
     0
 42
0.000000001
 43
0.00000001
 40
0.666795572566317
 40
0.666795572566317
 40
0.666795572566317
 40
0.666795572566317
 40
0.6875
 40
0.6945142946655007
 40
0.703125
 40
0.734375
 40
0.75
 40
0.78125
 40
0.8125
 40
0.8332123968632783
 40
0.8332123968632783
 40
0.8332123968632783
 40
0.8332123968632783
 10
-19.86748557734816
 20
-84.41194507978737
 30
0.0
 10
-20.36050356120045
 20
-85.2695212636853
 30
0.0
 10
-20.95114744342889
 20
-86.46776917560123
 30
0.0
 10
-21.59367985723609
 20
-88.10823032170273
 30
0.0
 10
-22.32389864792997
 20
-90.26978477849259
 30
0.0
 10
-22.87828425750995
 20
-92.9417907563803
 30
0.0
 10
-23.08093173060647
 20
-96.76454037264654
 30
0.0
 10
-22.67564082341847
 20
-100.5873302591783
 30
0.0
 10
-21.46743851485466
 20
-104.4849938361841
 30
0.0
 10
-20.36015052934519
 20
-106.7311838448801
 30
0.0
 10
-19.86690763404674
 20
-107.5890457355322
 30
0.0
  0
SPLINE
  5
CD
330
C1
100
AcDbEntity
  8
0
  6
Continuous
 62
     7
370
    25
100
AcDbSpline
210
0.0
220
0.0
230
1.0
 70
     8
 71
     3
 72
    21
 73
    17
 74
     0
 42
0.000000001
 43
0.00000001
 40
0.4167977030962983
 40
0.4167977030962983
 40
0.4167977030962983
 40
0.4167977030962983
 40
0.4375
 40
0.453125
 40
0.46875
 40
0.4765625
 40
0.484375
 40
0.4921875
 40
0.5
 40
0.5078125
 40
0.515625
 40
0.5234375
 40
0.53125
 40
0.546875
 40
0.5625
 40
0.5832022968842516
 40
0.5832022968842516
 40
0.5832022968842516
 40
0.5832022968842516
 10
11.58779112689601
 20
-76.13236056298011
 30
0.0
 10
10.73031183752623
 20
-75.63941260111979
 30
0.0
 10
9.15995956314069
 20
-74.8653653182473
 30
0.0
 10
6.782949773384777
 20
-74.00496537570741
 30
0.0
 10
4.93283548362712
 20
-73.52891885710798
 30
0.0
 10
3.428236385790209
 20
-73.25744622604576
 30
0.0
 10
2.290596687641286
 20
-73.11005110110995
 30
0.0
 10
1.146830072965277
 20
-73.02039238098719
 30
0.0
 10
0.0000000000049878
 20
-72.99050614094551
 30
0.0
 10
-1.146830072991381
 20
-73.02039238098959
 30
0.0
 10
-2.29059668777563
 20
-73.11005110112409
 30
0.0
 10
-3.428236386094162
 20
-73.25744622609021
 30
0.0
 10
-4.932835484228258
 20
-73.52891885723005
 30
0.0
 10
-6.782949774470356
 20
-74.00496537601944
 30
0.0
 10
-9.159959564081552
 20
-74.86536531866959
 30
0.0
 10
-10.73031183819769
 20
-75.639412601496
 30
0.0
 10
-11.58779112710431
 20
-76.13236056310153
 30
0.0
  0
SPLINE
  5
CE
330
C1
100
AcDbEntity
  8
0
  6
Continuous
 62
     7
370
    25
100
AcDbSpline
210
0.0
220
0.0
230
1.0
 70
     8
 71
     3
 72
    15
 73
    11
 74
     0
 42
0.000000001
 43
0.00000001
 40
0.166787603097563
 40
0.166787603097563
 40
0.166787603097563
 40
0.166787603097563
 40
0.1875
 40
0.21875
 40
0.25
 40
0.265625
 40
0.296875
 40
0.3054857052560912
 40
0.3125
 40
0.3332044273835598
 40
0.3332044273835598
 40
0.3332044273835598
 40
0.3332044273835598
 10
19.86690763408685
 20
-107.5890457354632
 30
0.0
 10
20.36015053040588
 20
-106.7311838430252
 30
0.0
 10
21.46743851666483
 20
-104.4849938320263
 30
0.0
 10
22.67564082492387
 20
-100.5873302522285
 30
0.0
 10
23.08093173087266
 20
-96.7645403651133
 30
0.0
 10
22.87828425645817
 20
-92.94179074865389
 30
0.0
 10
22.32389864671336
 20
-90.26978477459299
 30
0.0
 10
21.59367985584198
 20
-88.10823031789361
 30
0.0
 10
20.95114744280406
 20
-86.46776917417284
 30
0.0
 10
20.36050355986093
 20
-85.26952126134294
 30
0.0
 10
19.86748557729494
 20
-84.41194507969632
 30
0.0
  0
SPLINE
  5
CF
330
C1
100
AcDbEntity
  8
0
  6
Continuous
 62
     7
370
    25
100
AcDbSpline
210
0.0
220
0.0
230
1.0
 70
    11
 71
     3
 72
    59
 73
    55
 74
     0
 42
0.000000001
 43
0.00000001
 40
0.0
 40
0.0
 40
0.0
 40
0.0
 40
0.0062500000000001
 40
0.0093749999999999
 40
0.0125
 40
0.0625
 40
0.09375
 40
0.125
 40
0.15625
 40
0.1875
 40
0.21875
 40
0.25
 40
0.265625
 40
0.296875
 40
0.3054857052560912
 40
0.3125
 40
0.34375
 40
0.375
 40
0.3828125
 40
0.40625
 40
0.4140625
 40
0.4375
 40
0.453125
 40
0.46875
 40
0.4765625
 40
0.484375
 40
0.4921875
 40
0.5
 40
0.5078125
 40
0.515625
 40
0.5234375
 40
0.53125
 40
0.546875
 40
0.5625
 40
0.5859375
 40
0.59375
 40
0.6171875
 40
0.625
 40
0.65625
 40
0.6875
 40
0.6945142946655007
 40
0.703125
 40
0.734375
 40
0.75
 40
0.78125
 40
0.8125
 40
0.84375
 40
0.875
 40
0.90625
 40
0.9375
 40
0.9875
 40
0.990625
 40
0.99375
 40
1.0
 40
1.0
 40
1.0
 40
1.0
 10
0.0000000000868785
 20
-144.6992554022036
 30
0.0
 10
0.6162999250527419
 20
-144.6992554021647
 30
0.0
 10
1.540761438821545
 20
-144.6767715987691
 30
0.0
 10
2.772208783967623
 20
-144.6028636866687
 30
0.0
 10
8.308430928709395
 20
-144.1400467081505
 30
0.0
 10
16.52252223159628
 20
-141.8052248663399
 30
0.0
 10
26.5472755098368
 20
-135.9943730557966
 30
0.0
 10
34.12285989050917
 20
-129.6439658135401
 30
0.0
 10
40.78079002916337
 20
-121.9998071324566
 30
0.0
 10
46.30887036502767
 20
-113.2672718233679
 30
0.0
 10
50.50107118933241
 20
-103.7755085391016
 30
0.0
 10
52.6801317640962
 20
-95.54721669454776
 30
0.0
 10
53.73878125019773
 20
-87.26462080898561
 30
0.0
 10
53.67557148146281
 20
-81.41056682149751
 30
0.0
 10
52.98142634317694
 20
-76.6124542933525
 30
0.0
 10
52.02712379147554
 20
-71.87774141917345
 30
0.0
 10
49.6468659370454
 20
-65.07688395082013
 30
0.0
 10
45.46557193944276
 20
-58.78746261995988
 30
0.0
 10
40.64312136281524
 20
-53.61790207499119
 30
0.0
 10
37.06945250949098
 20
-50.62262991139467
 30
0.0
 10
31.32916450014688
 20
-46.91353428740473
 30
0.0
 10
25.82059993576903
 20
-44.19438698824877
 30
0.0
 10
18.8487201274291
 20
-41.84290804374543
 30
0.0
 10
13.6633556405666
 20
-40.65275489903377
 30
0.0
 10
9.450795167498127
 20
-39.99380496512703
 30
0.0
 10
6.285177308244661
 20
-39.6446307668949
 30
0.0
 10
3.121685717876439
 20
-39.43799745595621
 30
0.0
 10
0.0000000004383381
 20
-39.36965479972227
 30
0.0
 10
-3.121685717132385
 20
-39.4379974560378
 30
0.0
 10
-6.285177307897714
 20
-39.64463076709274
 30
0.0
 10
-9.450795167799754
 20
-39.99380496551201
 30
0.0
 10
-13.66335564202933
 20
-40.65275489980906
 30
0.0
 10
-18.84872013080269
 20
-41.842908045354
 30
0.0
 10
-25.82059994220305
 20
-44.19438699183812
 30
0.0
 10
-31.32916450893489
 20
-46.91353429353482
 30
0.0
 10
-37.06945251992877
 20
-50.62262992085502
 30
0.0
 10
-40.6431213736382
 20
-53.61790208690392
 30
0.0
 10
-45.46557194964596
 20
-58.78746263536435
 30
0.0
 10
-49.64686594521501
 20
-65.07688396960097
 30
0.0
 10
-52.027123793905
 20
-71.87774143196123
 30
0.0
 10
-52.98142634486621
 20
-76.61245430633002
 30
0.0
 10
-53.6755714823687
 20
-81.41056683444354
 30
0.0
 10
-53.73878124898718
 20
-87.26462082994406
 30
0.0
 10
-52.68013176025102
 20
-95.54721671447007
 30
0.0
 10
-50.50107118331675
 20
-103.7755085574046
 30
0.0
 10
-46.30887035747033
 20
-113.2672718390743
 30
0.0
 10
-40.78079002103891
 20
-121.9998071449916
 30
0.0
 10
-34.12285988275811
 20
-129.6439658228811
 30
0.0
 10
-26.54727550322527
 20
-135.9943730621021
 30
0.0
 10
-16.52252222705959
 20
-141.8052248694355
 30
0.0
 10
-8.30843092760347
 20
-144.140046709396
 30
0.0
 10
-2.772208783626266
 20
-144.6028636870528
 30
0.0
 10
-1.540761438606465
 20
-144.6767715989717
 30
0.0
 10
-0.6162999248789742
 20
-144.6992554022426
 30
0.0
 10
0.0000000000868785
 20
-144.6992554022036
 30
0.0
  0
SPLINE
  5
D0
330
C1
100
AcDbEntity
  8
0
  6
Continuous
 62
     7
370
    25
100
AcDbSpline
210
0.0
220
0.0
230
1.0
 70
    11
 71
     3
 72
    59
 73
    55
 74
     0
 42
0.000000001
 43
0.00000001
 40
0.0
 40
0.0
 40
0.0
 40
0.0
 40
0.0062500000000001
 40
0.0093749999999999
 40
0.0125
 40
0.0625
 40
0.09375
 40
0.125
 40
0.15625
 40
0.1875
 40
0.21875
 40
0.25
 40
0.265625
 40
0.296875
 40
0.3054857052560912
 40
0.3125
 40
0.34375
 40
0.375
 40
0.3828125
 40
0.40625
 40
0.4140625
 40
0.4375
 40
0.453125
 40
0.46875
 40
0.4765625
 40
0.484375
 40
0.4921875
 40
0.5
 40
0.5078125
 40
0.515625
 40
0.5234375
 40
0.53125
 40
0.546875
 40
0.5625
 40
0.5859375
 40
0.59375
 40
0.6171875
 40
0.625
 40
0.65625
 40
0.6875
 40
0.6945142946655007
 40
0.703125
 40
0.734375
 40
0.75
 40
0.78125
 40
0.8125
 40
0.84375
 40
0.875
 40
0.90625
 40
0.9375
 40
0.9875
 40
0.990625
 40
0.99375
 40
1.0
 40
1.0
 40
1.0
 40
1.0
 10
0.0000000004312527
 20
-205.0510796635245
 30
0.0
 10
2.853176713689127
 20
-205.0510796634464
 30
0.0
 10
7.132732992354984
 20
-205.0007564376678
 30
0.0
 10
12.83455205597571
 20
-204.833874782347
 30
0.0
 10
38.47421233022952
 20
-203.784848916116
 30
0.0
 10
76.62409321307108
 20
-198.427559277243
 30
0.0
 10
124.464083742586
 20
-184.1067789135404
 30
0.0
 10
162.0483769521071
 20
-167.5949326817669
 30
0.0
 10
196.5617086116238
 20
-146.6212914496558
 30
0.0
 10
226.740144625199
 20
-121.3712363878847
 30
0.0
 10
251.5161483508349
 20
-92.25477105462608
 30
0.0
 10
266.6648883934851
 20
-65.11524757476633
 30
0.0
 10
277.0279730740771
 20
-35.71856551067243
 30
0.0
 10
280.6743342874475
 20
-13.21813552440383
 30
0.0
 10
280.3862413055193
 20
6.747780143511701
 30
0.0
 10
278.674592816409
 20
27.13743804263394
 30
0.0
 10
270.7077345740138
 20
59.03535611449462
 30
0.0
 10
251.6600618899791
 20
92.13723695732405
 30
0.0
 10
227.3860807907819
 20
120.8901658117633
 30
0.0
 10
208.4659871337438
 20
138.2774309676355
 30
0.0
 10
177.0331222219847
 20
160.3536674166088
 30
0.0
 10
146.142938261336
 20
176.9210053709582
 30
0.0
 10
106.6481701087779
 20
191.4028019002504
 30
0.0
 10
77.18796044650911
 20
198.7663702824324
 30
0.0
 10
53.26595660923549
 20
202.8496754743139
 30
0.0
 10
35.34244728008745
 20
205.0141799277578
 30
0.0
 10
17.48360314876686
 20
206.294500194014
 30
0.0
 10
0.0000000036514819
 20
206.7229545158684
 30
0.0
 10
-17.48360314230773
 20
206.2945001934735
 30
0.0
 10
-35.34244727615431
 20
205.0141799264609
 30
0.0
 10
-53.2659566094818
 20
202.8496754718152
 30
0.0
 10
-77.18796045428591
 20
198.7663702774487
 30
0.0
 10
-106.6481701289818
 20
191.402801890009
 30
0.0
 10
-146.1429383013714
 20
176.9210053480932
 30
0.0
 10
-177.0331222767267
 20
160.3536673777236
 30
0.0
 10
-208.465987197269
 20
138.2774309085661
 30
0.0
 10
-227.3860808547243
 20
120.8901657387458
 30
0.0
 10
-251.6600619459401
 20
92.13723686688242
 30
0.0
 10
-270.7077346124227
 20
59.0353560106327
 30
0.0
 10
-278.6745928249896
 20
27.13743797444133
 30
0.0
 10
-280.3862413088701
 20
6.747780076105865
 30
0.0
 10
-280.6743342854093
 20
-13.21813558965489
 30
0.0
 10
-277.0279730554157
 20
-35.71856560146389
 30
0.0
 10
-266.6648883625138
 20
-65.11524765488188
 30
0.0
 10
-251.5161483108772
 20
-92.25477112375036
 30
0.0
 10
-226.7401445796706
 20
-121.3712364435094
 30
0.0
 10
-196.5617085655909
 20
-146.6212914914518
 30
0.0
 10
-162.0483769102151
 20
-167.5949327109416
 30
0.0
 10
-124.464083708415
 20
-184.1067789317423
 30
0.0
 10
-76.62409319053987
 20
-198.4275592850701
 30
0.0
 10
-38.47421232475515
 20
-203.784848918918
 30
0.0
 10
-12.83455205428525
 20
-204.8338747831691
 30
0.0
 10
-7.132732991288722
 20
-205.0007564380861
 30
0.0
 10
-2.853176712826571
 20
-205.0510796636026
 30
0.0
 10
0.0000000004312527
 20
-205.0510796635245
 30
0.0
  0
ARC
  5
D1
330
C1
100
AcDbEntity
  8
0
  6
Continuous
 62
     7
370
    25
100
AcDbCircle
 10
0.0
 20
-96.0
 30
0.0
 40
23.00000000000031
100
AcDbArc
 50
30.253614749
 51
59.747146001
  0
ARC
  5
D2
330
C1
100
AcDbEntity
  8
0
  6
Continuous
 62
     7
370
    25
100
AcDbCircle
 10
0.0
 20
-96.0
 30
0.0
 40
22.99999999999981
100
AcDbArc
 50
120.2528539996
 51
149.7463852513
  0
ARC
  5
D3
330
C1
100
AcDbEntity
  8
0
  6
Continuous
 62
     7
370
    25
100
AcDbCircle
 10
0.0
 20
-96.0
 30
0.0
 40
23.00000000000008
100
AcDbArc
 50
210.2564721995
 51
239.7494216039
  0
ARC
  5
D4
330
C1
100
AcDbEntity
  8
0
  6
Continuous
 62
     7
370
    25
100
AcDbCircle
 10
0.0
 20
-96.0
 30
0.0
 40
23.00000000000017
100
AcDbArc
 50
300.2505783968
 51
329.7435278007
  0
VIEWPORT
  5
106
330
C1
100
AcDbEntity
  8
0
100
AcDbViewport
 10
0.0
 20
0.0
 30
0.0
 40
205.6
 41
156.0
 68
     1
 69
     1
 12
0.0000000006
 22
-0.7645283725
 13
0.0
 23
0.0
 14
10.0
 24
10.0
 15
10.0
 25
10.0
 16
0.0
 26
0.0
 36
1.0
 17
0.0
 27
0.0
 37
0.0
 42
50.0
 43
0.0
 44
0.0
 45
434.0222782612
 50
0.0
 51
0.0
 72
   100
 90
   557152
  1

281
     0
 71
     1
 74
     0
110
0.0
120
0.0
130
0.0
111
1.0
121
0.0
131
0.0
112
0.0
122
1.0
132
0.0
 79
     0
146
0.0
170
     0
 61
     5
348
2F
292
     1
282
     1
141
0.0
142
0.0
 63
   256
361
107
  0
ENDBLK
  5
C4
330
C1
100
AcDbEntity
  8
0
100
AcDbBlockEnd
  0
BLOCK
  5
D7
330
D5
100
AcDbEntity
  8
0
100
AcDbBlockBegin
  2
*Paper_Space5
 70
     0
 10
0.0
 20
0.0
 30
0.0
  3
*Paper_Space5
  1

  0
SPLINE
  5
D9
330
D5
100
AcDbEntity
  8
0
  6
Continuous
 62
     7
370
    25
100
AcDbSpline
210
0.0
220
0.0
230
1.0
 70
     8
 71
     3
 72
   124
 73
   120
 74
     0
 42
0.000000001
 43
0.00000001
 40
0.0
 40
0.0
 40
0.0
 40
0.0
 40
0.0093013221966056
 40
0.0164810878102529
 40
0.0215900860199831
 40
0.0260314053742715
 40
0.0304814082686458
 40
0.0478240503087411
 40
0.0778248600499551
 40
0.0864949671567628
 40
0.0950479613566892
 40
0.1034837387869165
 40
0.1124207659517578
 40
0.1227923714687646
 40
0.133494740418963
 40
0.1449501645745599
 40
0.1541220078609413
 40
0.1623588996399636
 40
0.1705419756325
 40
0.1767821071234852
 40
0.1842993591359431
 40
0.1916539192229298
 40
0.1982467983784448
 40
0.2034844443141707
 40
0.2088283661412757
 40
0.214908932499228
 40
0.2237930648744632
 40
0.2316096878650594
 40
0.2373584702518409
 40
0.2427755145444532
 40
0.2508443833735189
 40
0.2594205739580308
 40
0.2782026019450085
 40
0.3002926102958732
 40
0.3204179306557352
 40
0.3420810540693716
 40
0.3631627632673906
 40
0.3832979621985953
 40
0.3921018717138048
 40
0.4012780902577017
 40
0.4113905082662113
 40
0.4214676220806426
 40
0.4298212964393708
 40
0.4369823233942252
 40
0.4434559253604275
 40
0.4500802869786238
 40
0.4572326018583329
 40
0.4654440989514996
 40
0.4738967083393252
 40
0.4823641208254965
 40
0.4908418499130432
 40
0.4987957263827242
 40
0.5054680461345731
 40
0.5108700772414354
 40
0.5160851929701119
 40
0.5224337575735573
 40
0.5298969383312384
 40
0.538441267776813
 40
0.551189156296611
 40
0.5654820562235457
 40
0.579442713006648
 40
0.5966442255893978
 40
0.6122371324859832
 40
0.6263288466889982
 40
0.6390582108981541
 40
0.6522333742761851
 40
0.6642325594277271
 40
0.6760235191362752
 40
0.6885385694693167
 40
0.6959844262444297
 40
0.7038749036637982
 40
0.7131195094621073
 40
0.7238594770701685
 40
0.7302613431845824
 40
0.7354323470815226
 40
0.7395785472588875
 40
0.7441938447504973
 40
0.7496124399282249
 40
0.7551438456838019
 40
0.7600680928587459
 40
0.7640104898305491
 40
0.7670038524758013
 40
0.7706119082235738
 40
0.7758278880864403
 40
0.782477745238213
 40
0.7907609396550821
 40
0.7972413185398594
 40
0.8026262944136207
 40
0.8072145907869026
 40
0.8108200152150615
 40
0.815950810959454
 40
0.8225580248703886
 40
0.8287800192771586
 40
0.8336939495957237
 40
0.838085000039599
 40
0.8428278937157421
 40
0.8522588113053241
 40
0.8622376204667055
 40
0.872189690245068
 40
0.8812750187276592
 40
0.8896624201992198
 40
0.8975448109765162
 40
0.9055039704823988
 40
0.9132023240420568
 40
0.921565846055248
 40
0.9317617986400705
 40
0.9416217058766936
 40
0.9473022878276024
 40
0.9524087190561682
 40
0.9576897514196029
 40
0.9639168137119369
 40
0.9707846080054733
 40
0.9747603512914657
 40
0.9786359608550643
 40
0.9820121255336445
 40
0.9848761451902868
 40
0.9882542503815575
 40
0.9932955813784385
 40
1.0
 40
1.0
 40
1.0
 40
1.0
 10
-233.6820288567972
 20
-1.785912082559599
 30
0.0
 10
-232.7832593531283
 20
-3.463411530295307
 30
0.0
 10
-231.1907224214918
 20
-6.435786329855767
 30
0.0
 10
-229.0279524611923
 20
-10.2916319884148
 30
0.0
 10
-227.3210006700226
 20
-13.26480641975829
 30
0.0
 10
-225.8707139408162
 20
-15.74012944438775
 30
0.0
 10
-223.1178232706901
 20
-20.35444067566887
 30
0.0
 10
-217.5088039238542
 20
-29.35182126085077
 30
0.0
 10
-211.0336609426583
 20
-38.81956238062593
 30
0.0
 10
-205.3097203665047
 20
-46.59798289571866
 30
0.0
 10
-202.1361362004935
 20
-50.7749437720522
 30
0.0
 10
-198.8670141328189
 20
-54.94532975021284
 30
0.0
 10
-195.3016270327662
 20
-59.35208329784674
 30
0.0
 10
-191.3646896888341
 20
-64.05146862228852
 30
0.0
 10
-187.0046907754392
 20
-69.06320911198397
 30
0.0
 10
-182.713479166389
 20
-73.80536611471823
 30
0.0
 10
-178.6818039684107
 20
-78.10107111593278
 30
0.0
 10
-175.0524874357736
 20
-81.85152303152854
 30
0.0
 10
-171.7899854378718
 20
-85.12730570000048
 30
0.0
 10
-168.5957662546957
 20
-88.25472152463499
 30
0.0
 10
-165.4875360520423
 20
-91.22585508688014
 30
0.0
 10
-162.2889543993361
 20
-94.20518818342329
 30
0.0
 10
-159.398204966362
 20
-96.83318061426682
 30
0.0
 10
-156.7865992280061
 20
-99.15897168216354
 30
0.0
 10
-154.2331765056114
 20
-101.3913869626788
 30
0.0
 10
-151.0965409793322
 20
-104.0795580976479
 30
0.0
 10
-147.5414807129162
 20
-107.0479096999207
 30
0.0
 10
-143.9937246468805
 20
-109.9252067883177
 30
0.0
 10
-140.9701328850859
 20
-112.3200560359868
 30
0.0
 10
-137.8831947639729
 20
-114.7178449956448
 30
0.0
 10
-134.3154118643336
 20
-117.4243711312808
 30
0.0
 10
-128.5148537800461
 20
-121.6972586161616
 30
0.0
 10
-120.2945890403244
 20
-127.4625256456618
 30
0.0
 10
-109.9166787630161
 20
-134.2241458239834
 30
0.0
 10
-98.78331094887783
 20
-140.9294013760123
 30
0.0
 10
-87.59032619663373
 20
-147.1334301269406
 30
0.0
 10
-76.21046473046783
 20
-152.9293849303638
 30
0.0
 10
-66.9954461353957
 20
-157.2420738156325
 30
0.0
 10
-59.89460186136804
 20
-160.364046809639
 30
0.0
 10
-54.63780235843263
 20
-162.5853064454751
 30
0.0
 10
-49.05411843521215
 20
-164.8428998042964
 30
0.0
 10
-43.58634996858022
 20
-166.9459621504961
 30
0.0
 10
-38.6932727023296
 20
-168.7459723800712
 30
0.0
 10
-34.60433132053845
 20
-170.1933445006663
 30
0.0
 10
-30.70512135071426
 20
-171.524104059604
 30
0.0
 10
-26.77911750165034
 20
-172.8163445844226
 30
0.0
 10
-22.50707923165463
 20
-174.1681849035263
 30
0.0
 10
-17.85726811331879
 20
-175.5736930889848
 30
0.0
 10
-12.9247779319809
 20
-176.9890942823359
 30
0.0
 10
-7.914553519302133
 20
-178.3488975585617
 30
0.0
 10
-2.979155430499883
 20
-179.6113274380469
 30
0.0
 10
1.619827294105716
 20
-180.7175661244484
 30
0.0
 10
5.618728973290008
 20
-181.6248323272782
 30
0.0
 10
9.078566754260644
 20
-182.3708462593488
 30
0.0
 10
12.47332314660476
 20
-183.0691720997688
 30
0.0
 10
16.28125168721283
 20
-183.8112666758209
 30
0.0
 10
20.76426402398386
 20
-184.6265537378024
 30
0.0
 10
26.54788744342495
 20
-185.590011420785
 30
0.0
 10
33.73758248908106
 20
-186.6390926148726
 30
0.0
 10
42.06840431260691
 20
-187.6268303606699
 30
0.0
 10
51.34376987476471
 20
-188.4522638325816
 30
0.0
 10
60.9144009617228
 20
-188.9830485643184
 30
0.0
 10
70.52402352286674
 20
-189.1627781653444
 30
0.0
 10
79.21508560845368
 20
-189.0193897471894
 30
0.0
 10
87.40074684905086
 20
-188.6074318635908
 30
0.0
 10
95.14187031532117
 20
-187.9499687660071
 30
0.0
 10
102.6660622227535
 20
-187.0413023016576
 30
0.0
 10
110.0139466672272
 20
-185.8907043198399
 30
0.0
 10
116.3878645316671
 20
-184.6460657950358
 30
0.0
 10
121.9245457542255
 20
-183.3790601777316
 30
0.0
 10
126.7738310602125
 20
-182.1395068785354
 30
0.0
 10
132.2162352780567
 20
-180.5789257652904
 30
0.0
 10
137.3158359723363
 20
-178.9225972188925
 30
0.0
 10
141.5812669850844
 20
-177.3899327389753
 30
0.0
 10
144.5569132894735
 20
-176.2485857030988
 30
0.0
 10
147.1504098450816
 20
-175.2020940836924
 30
0.0
 10
149.7606851803936
 20
-174.099143226431
 30
0.0
 10
152.6014700021569
 20
-172.8352823864979
 30
0.0
 10
155.4726476155444
 20
-171.4856657390131
 30
0.0
 10
158.0529667847739
 20
-170.2085763462082
 30
0.0
 10
160.1573708823246
 20
-169.1212472243855
 30
0.0
 10
162.005748719409
 20
-168.1340326767145
 30
0.0
 10
164.038282011834
 20
-167.01461773612
 30
0.0
 10
166.673243556044
 20
-165.5043319689147
 30
0.0
 10
170.0648353921831
 20
-163.4555801769663
 30
0.0
 10
173.6134208238537
 20
-161.1696445990444
 30
0.0
 10
176.8783524247876
 20
-158.9323412282702
 30
0.0
 10
179.4915840596864
 20
-157.0529820619575
 30
0.0
 10
181.6038629652802
 20
-155.4722550783762
 30
0.0
 10
183.6338990931351
 20
-153.9038664082843
 30
0.0
 10
185.9519548343972
 20
-152.0519276286358
 30
0.0
 10
188.6266489170892
 20
-149.8173438529154
 30
0.0
 10
191.2327202134812
 20
-147.5323537955722
 30
0.0
 10
193.493208812233
 20
-145.4655927548571
 30
0.0
 10
195.5062311477264
 20
-143.5593333834991
 30
0.0
 10
198.0902584458399
 20
-141.0281504652872
 30
0.0
 10
201.3535492614482
 20
-137.6625068381157
 30
0.0
 10
205.1774901642952
 20
-133.433068361526
 30
0.0
 10
208.8019062544329
 20
-129.1268032878623
 30
0.0
 10
212.0883100755447
 20
-124.9460751747068
 30
0.0
 10
215.0091929561052
 20
-120.9889118316207
 30
0.0
 10
217.6922944817642
 20
-117.1332066291447
 30
0.0
 10
220.1979342062292
 20
-113.3179088681514
 30
0.0
 10
222.6518320752466
 20
-109.3585302401077
 30
0.0
 10
225.2184599488489
 20
-104.9597760184474
 30
0.0
 10
227.8541858168817
 20
-100.1093970092949
 30
0.0
 10
230.1003422416243
 20
-95.6360266016109
 30
0.0
 10
231.8152692208811
 20
-91.99851024433885
 30
0.0
 10
233.1011164511492
 20
-89.14614730551932
 30
0.0
 10
234.383814757151
 20
-86.17267943168804
 30
0.0
 10
235.744443552942
 20
-82.85698888905421
 30
0.0
 10
236.9482156306647
 20
-79.74680294269024
 30
0.0
 10
237.9422808140178
 20
-77.04703510132147
 30
0.0
 10
238.6768543204712
 20
-74.97670889325036
 30
0.0
 10
239.3192129743358
 20
-73.10163416278975
 30
0.0
 10
239.9136973279214
 20
-71.31241645751206
 30
0.0
 10
240.5901527051156
 20
-69.2097573517099
 30
0.0
 10
241.4664971538594
 20
-66.37727497556423
 30
0.0
 10
242.1003056971583
 20
-64.1528064409051
 30
0.0
 10
242.4620806317717
 20
-62.88309026685781
 30
0.0
  0
SPLINE
  5
DA
330
D5
100
AcDbEntity
  8
0
  6
Continuous
 62
     7
370
    25
100
AcDbSpline
210
0.0
220
0.0
230
1.0
 70
    11
 71
     3
 72
    59
 73
    55
 74
     0
 42
0.000000001
 43
0.00000001
 40
0.0
 40
0.0
 40
0.0
 40
0.0
 40
0.0062500000000001
 40
0.0093749999999999
 40
0.0125
 40
0.0625
 40
0.09375
 40
0.125
 40
0.15625
 40
0.1875
 40
0.21875
 40
0.25
 40
0.265625
 40
0.296875
 40
0.3054857052560912
 40
0.3125
 40
0.34375
 40
0.375
 40
0.3828125
 40
0.40625
 40
0.4140625
 40
0.4375
 40
0.453125
 40
0.46875
 40
0.4765625
 40
0.484375
 40
0.4921875
 40
0.5
 40
0.5078125
 40
0.515625
 40
0.5234375
 40
0.53125
 40
0.546875
 40
0.5625
 40
0.5859375
 40
0.59375
 40
0.6171875
 40
0.625
 40
0.65625
 40
0.6875
 40
0.6945142946655007
 40
0.703125
 40
0.734375
 40
0.75
 40
0.78125
 40
0.8125
 40
0.84375
 40
0.875
 40
0.90625
 40
0.9375
 40
0.9875
 40
0.990625
 40
0.99375
 40
1.0
 40
1.0
 40
1.0
 40
1.0
 10
144.9930089200064
 20
83.70268238747676
 30
0.0
 10
147.0105095218193
 20
82.53800408086116
 30
0.0
 10
150.0010288927342
 20
80.77052970553952
 30
0.0
 10
153.9148206675862
 20
78.37490226913769
 30
0.0
 10
171.3030250111782
 20
67.48047233964661
 30
0.0
 10
194.490888652467
 20
49.72066887145584
 30
0.0
 10
218.1925494607298
 20
24.34639007426796
 30
0.0
 10
233.0930196148891
 20
2.264126545185291
 30
0.0
 10
242.6670265312741
 20
-20.38588083942051
 30
0.0
 10
246.1519181225653
 20
-43.01201570942326
 30
0.0
 10
243.0827482863353
 20
-65.01114016234116
 30
0.0
 10
234.6039840061451
 20
-82.27338084967789
 30
0.0
 10
221.1451982258963
 20
-98.50347889694801
 30
0.0
 10
207.8133583436224
 20
-109.1767051137079
 30
0.0
 10
193.4916114811069
 20
-117.2092721456324
 30
0.0
 10
177.8636278609061
 20
-124.8337113431498
 30
0.0
 10
149.6749741986109
 20
-134.6024670277948
 30
0.0
 10
112.7996712639144
 20
-140.3394518008372
 30
0.0
 10
75.30398365032964
 20
-142.1677764407421
 30
0.0
 10
49.63080402674758
 20
-141.5420696295496
 30
0.0
 10
11.79415559937545
 20
-137.7226559413848
 30
0.0
 10
-21.76337996502892
 20
-131.8760121094196
 30
0.0
 10
-59.93057487671949
 20
-121.6656156424069
 30
0.0
 10
-85.96891804085898
 20
-112.6456770498572
 30
0.0
 10
-105.7716619645994
 20
-104.547439798805
 30
0.0
 10
-119.9760327308389
 20
-98.11455009141571
 30
0.0
 10
-133.5094656626096
 20
-91.34712940867324
 30
0.0
 10
-146.175202962507
 20
-84.3851484848463
 30
0.0
 10
-158.2350143497951
 20
-77.07337397654689
 30
0.0
 10
-169.9578009980964
 20
-69.26068944136195
 30
0.0
 10
-181.1011002125641
 20
-61.06068073790809
 30
0.0
 10
-195.129178558205
 20
-49.62880000106773
 30
0.0
 10
-210.7538634538705
 20
-34.59718444212437
 30
0.0
 10
-228.4407053114051
 20
-12.56373180158317
 30
0.0
 10
-238.5684868474211
 20
6.808621140163812
 30
0.0
 10
-245.1846222744382
 20
28.65125335561117
 30
0.0
 10
-246.2684956924408
 20
43.47206448833401
 30
0.0
 10
-243.1014013441644
 20
65.11786420770913
 30
0.0
 10
-233.1635754289724
 20
86.40552346965465
 30
0.0
 10
-216.2417607467066
 20
102.6784868223965
 30
0.0
 10
-203.0344136306793
 20
111.7003297285565
 30
0.0
 10
-189.1200917681442
 20
119.9680982048069
 30
0.0
 10
-170.6315183747965
 20
127.6644055519756
 30
0.0
 10
-142.5171176900783
 20
135.4339971931219
 30
0.0
 10
-112.6147997901255
 20
140.3286836175905
 30
0.0
 10
-74.50706946930153
 20
142.1004776425651
 30
0.0
 10
-35.31320756840776
 20
140.0886925431115
 30
0.0
 10
3.922007218923731
 20
134.5617359913985
 30
0.0
 10
42.17375424065764
 20
125.9598776657776
 30
0.0
 10
86.12805684746841
 20
112.2772001256642
 30
0.0
 10
116.8922721379979
 20
98.89113138094444
 30
0.0
 10
135.7640230848185
 20
88.85313467889264
 30
0.0
 10
139.9138211592094
 20
86.59375077969906
 30
0.0
 10
142.9755083181934
 20
84.8673606940923
 30
0.0
 10
144.9930089200064
 20
83.70268238747676
 30
0.0
  0
SPLINE
  5
DB
330
D5
100
AcDbEntity
  8
0
  6
Continuous
 62
     7
370
    25
100
AcDbSpline
210
0.0
220
0.0
230
1.0
 70
    11
 71
     3
 72
    59
 73
    55
 74
     0
 42
0.000000001
 43
0.00000001
 40
0.0
 40
0.0
 40
0.0
 40
0.0
 40
0.0062500000000001
 40
0.0093749999999999
 40
0.0125
 40
0.0625
 40
0.09375
 40
0.125
 40
0.15625
 40
0.1875
 40
0.21875
 40
0.25
 40
0.265625
 40
0.296875
 40
0.3054857052560912
 40
0.3125
 40
0.34375
 40
0.375
 40
0.3828125
 40
0.40625
 40
0.4140625
 40
0.4375
 40
0.453125
 40
0.46875
 40
0.4765625
 40
0.484375
 40
0.4921875
 40
0.5
 40
0.5078125
 40
0.515625
 40
0.5234375
 40
0.53125
 40
0.546875
 40
0.5625
 40
0.5859375
 40
0.59375
 40
0.6171875
 40
0.625
 40
0.65625
 40
0.6875
 40
0.6945142946655007
 40
0.703125
 40
0.734375
 40
0.75
 40
0.78125
 40
0.8125
 40
0.84375
 40
0.875
 40
0.90625
 40
0.9375
 40
0.9875
 40
0.990625
 40
0.99375
 40
1.0
 40
1.0
 40
1.0
 40
1.0
 10
130.8147545198348
 20
75.51775034341381
 30
0.0
 10
132.6297586226846
 20
74.46997077745378
 30
0.0
 10
135.3231629250823
 20
72.88168533107304
 30
0.0
 10
138.8541434945658
 20
70.73225322929324
 30
0.0
 10
154.5598483611628
 20
60.96692528388169
 30
0.0
 10
175.7374720505773
 20
45.16362456466068
 30
0.0
 10
197.8576733753324
 20
22.68138259353064
 30
0.0
 10
212.18401777663
 20
3.069313226482004
 30
0.0
 10
221.9461379893619
 20
-17.15361214639492
 30
0.0
 10
226.382557161095
 20
-37.48424096721826
 30
0.0
 10
225.0450429639486
 20
-57.41065366067031
 30
0.0
 10
218.6673732433716
 20
-73.20603592442338
 30
0.0
 10
207.7963369489366
 20
-88.23225744521794
 30
0.0
 10
196.6405703931961
 20
-98.25748828592099
 30
0.0
 10
184.3886593208662
 20
-105.9072968321888
 30
0.0
 10
170.9153418912641
 20
-113.2164376762092
 30
0.0
 10
146.1644566281114
 20
-122.7611556854751
 30
0.0
 10
112.8131381798539
 20
-128.5833122740015
 30
0.0
 10
78.28006752825495
 20
-130.6039722638933
 30
0.0
 10
54.35774971624483
 20
-130.1489949559852
 30
0.0
 10
18.81338930261564
 20
-126.6125919627245
 30
0.0
 10
-12.91148377040795
 20
-121.0440064382763
 30
0.0
 10
-49.08566261284478
 20
-111.2386683843469
 30
0.0
 10
-73.78805572059684
 20
-102.5698511905201
 30
0.0
 10
-92.58435086410415
 20
-94.8008607807043
 30
0.0
 10
-106.0634403723019
 20
-88.64479363256594
 30
0.0
 10
-118.9068960759449
 20
-82.18598695309453
 30
0.0
 10
-130.9121904025931
 20
-75.57399888479424
 30
0.0
 10
-142.3657306917264
 20
-68.64348998983739
 30
0.0
 10
-153.5539242828244
 20
-61.22912083039628
 30
0.0
 10
-164.2177008033784
 20
-53.44780808530807
 30
0.0
 10
-177.6754450957755
 20
-42.59693786247719
 30
0.0
 10
-192.691903987732
 20
-28.33654985536588
 30
0.0
 10
-209.6770880688852
 20
-7.453640901867689
 30
0.0
 10
-219.3232063001253
 20
10.8607385030496
 30
0.0
 10
-225.4490997058015
 20
31.38006101528822
 30
0.0
 10
-226.2372289049944
 20
45.1901211382862
 30
0.0
 10
-222.7369638580432
 20
65.125638489115
 30
0.0
 10
-212.6516000440887
 20
84.37894480841581
 30
0.0
 10
-196.1178720474511
 20
98.66732670864677
 30
0.0
 10
-183.4566968774037
 20
106.4453072987557
 30
0.0
 10
-170.2054039990183
 20
113.5181850067265
 30
0.0
 10
-152.8393131449881
 20
119.9582719598879
 30
0.0
 10
-126.8103137278078
 20
126.2339876207886
 30
0.0
 10
-99.44894446211875
 20
129.9157379741426
 30
0.0
 10
-64.93164524879153
 20
130.6878684774929
 30
0.0
 10
-29.71414730139446
 20
128.1267781987702
 30
0.0
 10
5.316782584643201
 20
122.4912261534607
 30
0.0
 10
39.28956417868711
 20
114.2208035712043
 30
0.0
 10
78.23416925491475
 20
101.4510831594784
 30
0.0
 10
105.6092551603405
 20
89.22550123861308
 30
0.0
 10
122.5251321815749
 20
80.15879081089146
 30
0.0
 10
126.2484612191917
 20
78.12039911674924
 30
0.0
 10
128.9997504169851
 20
76.56552990937381
 30
0.0
 10
130.8147545198348
 20
75.51775034341381
 30
0.0
  0
LWPOLYLINE
  5
DC
330
D5
100
AcDbEntity
  8
0
  6
Continuous
 62
     7
370
    25
100
AcDbPolyline
 90
       35
 70
   128
 43
0.0
 10
91.2167747731
 20
-86.153614808
 10
87.2013783294
 20
-84.1911525703
 10
82.7101150898
 20
-82.6232072068
 10
77.9032157375
 20
-81.4796088721
 10
72.9249355956
 20
-80.7860095658
 10
67.8822392285
 20
-80.5554169621
 10
61.585902335
 20
-80.9160624154
 10
55.4275480773
 20
-81.9967167289
 10
49.6456251785
 20
-83.7614009753
 10
44.5478490822
 20
-86.1536932068
 10
40.4038134704
 20
-89.0967667512
 10
37.3470208032
 20
-92.4343654683
 10
35.4750218066
 20
-95.9895534453
 10
34.8503357907
 20
-99.6243423239
 10
35.4750285728
 20
-103.2591592466
 10
37.3469939849
 20
-106.8142910438
 10
40.4038414712
 20
-110.1521325525
 10
44.5482022458
 20
-113.0948082686
 10
49.6456184119
 20
-115.4872968182
 10
55.4275559775
 20
-117.2519773098
 10
61.5858921464
 20
-118.3326399396
 10
67.8822619576
 20
-118.6932674066
 10
74.1785831896
 20
-118.3326438457
 10
80.3370166753
 20
-117.2519618279
 10
86.118533668
 20
-115.4873129827
 10
91.2166389677
 20
-113.0950121456
 10
95.3606596725
 20
-110.1521286462
 10
98.4175136631
 20
-106.8142956045
 10
100.2894646692
 20
-103.2591533649
 10
100.914188608
 20
-99.6243554451
 10
100.5147472221
 20
-96.7132687966
 10
99.3132678009
 20
-93.8393688434
 10
97.3322827377
 20
-91.0644049141
 10
94.6162274144
 20
-88.4716538341
 10
91.2167747731
 20
-86.153614808
  0
SPLINE
  5
DD
330
D5
100
AcDbEntity
  8
0
  6
Continuous
 62
     7
370
    25
100
AcDbSpline
210
0.0
220
0.0
230
1.0
 70
     8
 71
     3
 72
    14
 73
    10
 74
     0
 42
0.000000001
 43
0.00000001
 40
0.0
 40
0.0
 40
0.0
 40
0.0
 40
0.1465733628676623
 40
0.2924162491926334
 40
0.4359613957502684
 40
0.5770855094350937
 40
0.718208416834531
 40
0.8617696777278212
 40
1.0
 40
1.0
 40
1.0
 40
1.0
 10
84.1457069612592
 20
-98.40106348601854
 30
0.0
 10
85.16046993984993
 20
-99.06348648242282
 30
0.0
 10
87.18493863056943
 20
-100.3850311628323
 30
0.0
 10
89.27958140116098
 20
-102.7391193898242
 30
0.0
 10
90.6098881926506
 20
-105.2237449684728
 30
0.0
 10
91.05327937257107
 20
-107.791010595866
 30
0.0
 10
90.59893482035247
 20
-110.3507918822771
 30
0.0
 10
89.34703477376867
 20
-112.8144181525152
 30
0.0
 10
87.87003382671821
 20
-114.2843447494002
 30
0.0
 10
87.1455043194362
 20
-115.0054039979461
 30
0.0
  0
SPLINE
  5
DE
330
D5
100
AcDbEntity
  8
0
  6
Continuous
 62
     7
370
    25
100
AcDbSpline
210
0.0
220
0.0
230
1.0
 70
     8
 71
     3
 72
    22
 73
    18
 74
     0
 42
0.000000001
 43
0.00000001
 40
0.0
 40
0.0
 40
0.0
 40
0.0
 40
0.0641707350683178
 40
0.1308137630657583
 40
0.1963253160733495
 40
0.2618363616398283
 40
0.3284804548034276
 40
0.3961931085605998
 40
0.4642167680341036
 40
0.5322376852497082
 40
0.5999543511254245
 40
0.6665975149014087
 40
0.7321087605647953
 40
0.7976205662025606
 40
0.864256249470621
 40
0.9319585759637597
 40
1.0
 40
1.0
 40
1.0
 40
1.0
 10
48.61906561219136
 20
-115.0054809847017
 30
0.0
 10
47.89450318571639
 20
-114.2843884017901
 30
0.0
 10
46.41746326273064
 20
-112.8144218478919
 30
0.0
 10
45.16568957939376
 20
-110.3508786566174
 30
0.0
 10
44.71071631528409
 20
-107.7906961749298
 30
0.0
 10
45.15664811004638
 20
-105.2248440611888
 30
0.0
 10
46.47720068374125
 20
-102.7342036779876
 30
0.0
 10
48.61011450797675
 20
-100.4022652640472
 30
0.0
 10
51.50416925267751
 20
-98.33496976264865
 30
0.0
 10
55.08525345552509
 20
-96.6640800249946
 30
0.0
 10
59.12462320193365
 20
-95.43304757601499
 30
0.0
 10
63.43981426681135
 20
-94.67005859485043
 30
0.0
 10
67.88170420432746
 20
-94.41490502865135
 30
0.0
 10
72.32675204802734
 20
-94.66896232959101
 30
0.0
 10
76.6312807110558
 20
-95.4374525873698
 30
0.0
 10
80.70897109516578
 20
-96.64652410846375
 30
0.0
 10
82.99822210195154
 20
-97.81524384515923
 30
0.0
 10
84.1457069612592
 20
-98.40106348601854
 30
0.0
  0
SPLINE
  5
E0
330
D5
100
AcDbEntity
  8
0
  6
Continuous
 62
     7
370
    25
100
AcDbSpline
210
0.0
220
0.0
230
1.0
 70
     8
 71
     3
 72
    11
 73
     7
 74
     0
 42
0.000000001
 43
0.00000001
 40
0.8332123968526638
 40
0.8332123968526638
 40
0.8332123968526638
 40
0.8332123968526638
 40
0.84375
 40
0.875
 40
0.90625
 40
0.9168042551460986
 40
0.9168042551460986
 40
0.9168042551460986
 40
0.9168042551460986
 10
62.02891871112607
 20
-103.1147171428782
 30
0.0
 10
62.51497382231913
 20
-103.0389940951025
 30
0.0
 10
64.45290828983822
 20
-102.7761465898705
 30
0.0
 10
67.88222122914614
 20
-102.5813411887234
 30
0.0
 10
71.312416861324
 20
-102.7762207924493
 30
0.0
 10
73.2510814711958
 20
-103.0392030137469
 30
0.0
 10
73.7378712703779
 20
-103.1150648016616
 30
0.0
  0
SPLINE
  5
E2
330
D5
100
AcDbEntity
  8
0
  6
Continuous
 62
     7
370
    25
100
AcDbSpline
210
0.0
220
0.0
230
1.0
 70
     8
 71
     3
 72
    12
 73
     8
 74
     0
 42
0.000000001
 43
0.00000001
 40
0.0
 40
0.0
 40
0.0
 40
0.0
 40
0.1504068391673123
 40
0.3637541489690476
 40
0.577112676480493
 40
0.7898463325565872
 40
1.0
 40
1.0
 40
1.0
 40
1.0
 10
47.59815342517105
 20
-113.8907236766813
 30
0.0
 10
48.04711842390305
 20
-113.4027314690596
 30
0.0
 10
49.13292597051988
 20
-112.2225378610449
 30
0.0
 10
51.54173077429822
 20
-110.6000740768654
 30
0.0
 10
54.67343313994174
 20
-109.0968664616621
 30
0.0
 10
58.19585457322582
 20
-107.9157587060835
 30
0.0
 10
60.75643794390279
 20
-107.4358911639605
 30
0.0
 10
62.02891871174393
 20
-107.1974212022107
 30
0.0
  0
SPLINE
  5
E3
330
D5
100
AcDbEntity
  8
0
  6
Continuous
 62
     7
370
    25
100
AcDbSpline
210
0.0
220
0.0
230
1.0
 70
     8
 71
     3
 72
    12
 73
     8
 74
     0
 42
0.000000001
 43
0.00000001
 40
0.0
 40
0.0
 40
0.0
 40
0.0
 40
0.2100990872656561
 40
0.422787889137848
 40
0.6361984304247494
 40
0.849608971694149
 40
1.0
 40
1.0
 40
1.0
 40
1.0
 10
73.73787127064143
 20
-107.1977688611316
 30
0.0
 10
75.00984332394177
 20
-107.4361997194989
 30
0.0
 10
77.56946595941379
 20
-107.9160003727353
 30
0.0
 10
81.09074389839427
 20
-109.0972194017809
 30
0.0
 10
84.22317612029475
 20
-110.5998872670968
 30
0.0
 10
86.63140073857758
 20
-112.2227938764176
 30
0.0
 10
87.71737309459759
 20
-113.4029264637483
 30
0.0
 10
88.16630051270705
 20
-113.890778546281
 30
0.0
  0
LINE
  5
E6
330
D5
100
AcDbEntity
  8
0
  6
Continuous
 62
     7
370
    25
100
AcDbLine
 10
73.7378712704
 20
-103.1150648017
 30
0.0
 11
73.7378712706
 21
-107.1977688611
 31
0.0
  0
LINE
  5
E7
330
D5
100
AcDbEntity
  8
0
  6
Continuous
 62
     7
370
    25
100
AcDbLine
 10
62.0289187117
 20
-107.1974212022
 30
0.0
 11
62.0289187111
 21
-103.1147171429
 31
0.0
  0
ARC
  5
E8
330
D5
100
AcDbEntity
  8
0
  6
Continuous
 62
     7
370
    25
100
AcDbCircle
 10
67.8822401782
 20
-142.0083302848
 30
0.0
 40
39.33159690926568
100
AcDbArc
 50
81.4380575457
 51
98.5585400353
  0
ARC
  5
E9
330
D5
100
AcDbEntity
  8
0
  6
Continuous
 62
     7
370
    25
100
AcDbCircle
 10
67.8822401781
 20
-146.0910343443
 30
0.0
 40
39.33159690930086
100
AcDbArc
 50
81.4380575454
 51
98.5585400344
  0
VIEWPORT
  5
108
330
D5
100
AcDbEntity
  8
0
100
AcDbViewport
 10
0.0
 20
0.0
 30
0.0
 40
205.6
 41
156.0
 68
     1
 69
     1
 12
0.0000000006
 22
-0.7645283725
 13
0.0
 23
0.0
 14
10.0
 24
10.0
 15
10.0
 25
10.0
 16
0.0
 26
0.0
 36
1.0
 17
0.0
 27
0.0
 37
0.0
 42
50.0
 43
0.0
 44
0.0
 45
434.0222782612
 50
0.0
 51
0.0
 72
   100
 90
   557152
  1

281
     0
 71
     1
 74
     0
110
0.0
120
0.0
130
0.0
111
1.0
121
0.0
131
0.0
112
0.0
122
1.0
132
0.0
 79
     0
146
0.0
170
     0
 61
     5
348
2F
292
     1
282
     1
141
0.0
142
0.0
 63
   256
361
109
  0
ENDBLK
  5
D8
330
D5
100
AcDbEntity
  8
0
100
AcDbBlockEnd
  0
BLOCK
  5
EC
330
EA
100
AcDbEntity
  8
0
100
AcDbBlockBegin
  2
*Paper_Space6
 70
     0
 10
0.0
 20
0.0
 30
0.0
  3
*Paper_Space6
  1

  0
SPLINE
  5
EE
330
EA
100
AcDbEntity
  8
0
  6
Continuous
 62
     7
370
    25
100
AcDbSpline
210
0.0
220
0.0
230
1.0
 70
     8
 71
     3
 72
   140
 73
   136
 74
     0
 42
0.000000001
 43
0.00000001
 40
0.0
 40
0.0
 40
0.0
 40
0.0
 40
0.0096161090285437
 40
0.0178405913819483
 40
0.0248889781937724
 40
0.031167426770693
 40
0.0369237631373226
 40
0.0429673104785444
 40
0.0487361858000874
 40
0.0539784661362859
 40
0.0592727814964807
 40
0.065573266439873
 40
0.0718203521012688
 40
0.0784432019099303
 40
0.0849530353080293
 40
0.0918478264271494
 40
0.0992001928989917
 40
0.1113389255554071
 40
0.123652732822535
 40
0.1381263496135583
 40
0.1529014589024064
 40
0.1680554482800408
 40
0.1828827468659898
 40
0.1954025738004868
 40
0.2006717484357666
 40
0.206001985925086
 40
0.2120522665806704
 40
0.219538736874405
 40
0.226879399187227
 40
0.2320191331692909
 40
0.2362218178765531
 40
0.2399875863178614
 40
0.2437154758436098
 40
0.2484089192017888
 40
0.2539665026335931
 40
0.2592808995680955
 40
0.2637105806150144
 40
0.2675400393540162
 40
0.2709409115221171
 40
0.2751078153494915
 40
0.2804892118365763
 40
0.285493972199577
 40
0.2895033648335018
 40
0.2937304106640032
 40
0.2980792496035039
 40
0.3041365692182729
 40
0.3108510618151937
 40
0.3162386064061833
 40
0.3207565238269231
 40
0.3268968020321567
 40
0.3336160188073514
 40
0.3399368097259142
 40
0.3460253143724642
 40
0.3537365309685732
 40
0.3604405422807226
 40
0.3659361820733116
 40
0.3731879095903731
 40
0.3786566666726467
 40
0.3828995057763123
 40
0.387659902890127
 40
0.3933967892463167
 40
0.3988006668857791
 40
0.4035791785282243
 40
0.4099070691364827
 40
0.4166809192389716
 40
0.4222210153738841
 40
0.426921793489083
 40
0.4322709961552452
 40
0.4382301398994611
 40
0.4432159568752197
 40
0.4466905518958078
 40
0.4489476326482817
 40
0.4515095683016339
 40
0.4545921370952178
 40
0.4581956882638191
 40
0.4623191189068036
 40
0.4698470416643581
 40
0.4786551060023789
 40
0.4879935221061663
 40
0.5075150109498762
 40
0.5260567481723926
 40
0.5436873566283115
 40
0.5604774112510817
 40
0.5737451261059103
 40
0.588357077376934
 40
0.6042141458970051
 40
0.621134152712649
 40
0.6311472880659666
 40
0.6408496454834892
 40
0.6497066814931515
 40
0.6578643553206998
 40
0.6658023618888426
 40
0.6739112517536676
 40
0.6817732141132454
 40
0.6883928931846335
 40
0.6951546079693193
 40
0.703895937376479
 40
0.7129803574816991
 40
0.7199416980360197
 40
0.727349552812527
 40
0.7364118581025156
 40
0.7466090322298478
 40
0.7640581981042054
 40
0.7798893437412138
 40
0.7947434941076934
 40
0.8092114072975941
 40
0.8175472284911495
 40
0.8257252652726959
 40
0.8335667518354317
 40
0.8419237132603625
 40
0.8496463514804727
 40
0.857698470229808
 40
0.8651414131410232
 40
0.871447443930742
 40
0.8780347129875915
 40
0.8855143688268371
 40
0.8945588389383925
 40
0.9030217169626197
 40
0.9100382749588762
 40
0.9143196771852166
 40
0.9192329769847711
 40
0.9246743687249691
 40
0.9305473300174383
 40
0.9361955027603491
 40
0.9407083100083323
 40
0.9451884554005804
 40
0.9508122124934296
 40
0.956650461741188
 40
0.9619849659895755
 40
0.9666745194320409
 40
0.9705704709127139
 40
0.9756343337739006
 40
0.9822924797069688
 40
0.9904370871354301
 40
1.0
 40
1.0
 40
1.0
 40
1.0
 10
-258.7327003849601
 20
3.058268272771558
 30
0.0
 10
-257.7608100214734
 20
1.207629966427259
 30
0.0
 10
-255.9576795877867
 20
-2.225825469785656
 30
0.0
 10
-253.3229838192576
 20
-6.954495788089571
 30
0.0
 10
-250.9790100567638
 20
-11.01677977350876
 30
0.0
 10
-248.8507387709186
 20
-14.58397682444644
 30
0.0
 10
-246.7903666618319
 20
-17.93934297007213
 30
0.0
 10
-244.7458918816617
 20
-21.17667690756128
 30
0.0
 10
-242.7212591034317
 20
-24.29513711388272
 30
0.0
 10
-240.7510717849802
 20
-27.25344604198037
 30
0.0
 10
-238.6816924281923
 20
-30.28665449018363
 30
0.0
 10
-236.4600015801642
 20
-33.45871338869971
 30
0.0
 10
-234.0015184072562
 20
-36.87312976371552
 30
0.0
 10
-231.4843306372492
 20
-40.26496108807473
 30
0.0
 10
-228.8692934067202
 20
-43.69649601999981
 30
0.0
 10
-226.0943596479615
 20
-47.23155767207784
 30
0.0
 10
-222.4582564128507
 20
-51.72407861491339
 30
0.0
 10
-217.9773057258429
 20
-57.03400031658479
 30
0.0
 10
-212.3214153586334
 20
-63.39927062599468
 30
0.0
 10
-206.0937476311147
 20
-70.02511631447167
 30
0.0
 10
-199.2252264079602
 20
-76.90178603948205
 30
0.0
 10
-192.0893142241326
 20
-83.61727146268588
 30
0.0
 10
-185.1191027283044
 20
-89.78387476265831
 30
0.0
 10
-179.6419640342802
 20
-94.36572311084832
 30
0.0
 10
-175.7036554803653
 20
-97.54274653726469
 30
0.0
 10
-172.8436930447001
 20
-99.80037524731797
 30
0.0
 10
-169.5752362690462
 20
-102.321018794833
 30
0.0
 10
-165.921592921514
 20
-105.0615017329938
 30
0.0
 10
-162.391723966606
 20
-107.6295261542858
 30
0.0
 10
-159.4176909713142
 20
-109.7380999508435
 30
0.0
 10
-157.0637293663368
 20
-111.3749934045891
 30
0.0
 10
-154.9522326375736
 20
-112.8190577770824
 30
0.0
 10
-152.7425409633952
 20
-114.3067398684341
 30
0.0
 10
-150.1958397953187
 20
-115.9912278880572
 30
0.0
 10
-147.3411272670992
 20
-117.8389900863132
 30
0.0
 10
-144.5154076255276
 20
-119.6261261182133
 30
0.0
 10
-141.995276772316
 20
-121.1870679949927
 30
0.0
 10
-139.8201871172861
 20
-122.5105913620588
 30
0.0
 10
-137.6855924540933
 20
-123.7893584808753
 30
0.0
 10
-135.2521780403601
 20
-125.2234323391153
 30
0.0
 10
-132.5023749391489
 20
-126.8106408254933
 30
0.0
 10
-129.7662797310468
 20
-128.3544037689578
 30
0.0
 10
-127.2393760309931
 20
-129.752079456716
 30
0.0
 10
-124.8277974131229
 20
-131.0618151102746
 30
0.0
 10
-122.0136483405028
 20
-132.5611856649695
 30
0.0
 10
-118.7096705424
 20
-134.2808111850076
 30
0.0
 10
-115.1808475591673
 20
-136.0649458046186
 30
0.0
 10
-111.929586376091
 20
-137.6636726310905
 30
0.0
 10
-108.7766306416189
 20
-139.178838323806
 30
0.0
 10
-105.3514746628564
 20
-140.7842609831879
 30
0.0
 10
-101.5546835466074
 20
-142.510712608612
 30
0.0
 10
-97.74756008083249
 20
-144.1887869649492
 30
0.0
 10
-93.72880268908519
 20
-145.9077618912033
 30
0.0
 10
-89.61313227436328
 20
-147.6095796826479
 30
0.0
 10
-85.58955506933711
 20
-149.2146154926858
 30
0.0
 10
-81.64653679081769
 20
-150.7398155411281
 30
0.0
 10
-77.94960732631554
 20
-152.1240462131517
 30
0.0
 10
-74.48491514567293
 20
-153.3792759132701
 30
0.0
 10
-71.50843566322136
 20
-154.4300995523558
 30
0.0
 10
-68.48257524358642
 20
-155.4727119441227
 30
0.0
 10
-65.22085579046775
 20
-156.5648605620534
 30
0.0
 10
-61.93774766970926
 20
-157.6307762664718
 30
0.0
 10
-58.51961225068231
 20
-158.7092012556819
 30
0.0
 10
-54.80811155952284
 20
-159.8435896120843
 30
0.0
 10
-50.92001606612092
 20
-160.9869794863243
 30
0.0
 10
-47.34815658400299
 20
-161.9980665080882
 30
0.0
 10
-44.06277691936978
 20
-162.8978976139326
 30
0.0
 10
-40.69621112815218
 20
-163.7901028714384
 30
0.0
 10
-37.27227550580638
 20
-164.6639303380418
 30
0.0
 10
-34.2308658347734
 20
-165.41183539567
 30
0.0
 10
-31.96398759186686
 20
-165.9533520730184
 30
0.0
 10
-30.20653643580858
 20
-166.3648370093696
 30
0.0
 10
-28.53675315093669
 20
-166.7491534348169
 30
0.0
 10
-26.58338313087868
 20
-167.1896654429359
 30
0.0
 10
-24.29937027053191
 20
-167.6921667013489
 30
0.0
 10
-21.07177933753025
 20
-168.3816525242811
 30
0.0
 10
-16.73162130659534
 20
-169.2671236122957
 30
0.0
 10
-11.26007756689054
 20
-170.3103677343327
 30
0.0
 10
-3.200100969485947
 20
-171.7282099867521
 30
0.0
 10
6.991510334504514
 20
-173.2792980172779
 30
0.0
 10
19.02494900704362
 20
-174.7274956844085
 30
0.0
 10
30.50721072528941
 20
-175.7519422637515
 30
0.0
 10
40.8525958517226
 20
-176.3590472087584
 30
0.0
 10
50.56476118762848
 20
-176.6619505928941
 30
0.0
 10
60.1440023775524
 20
-176.7245924922293
 30
0.0
 10
70.51979570305008
 20
-176.4954561556168
 30
0.0
 10
79.84806121629681
 20
-175.9766282282612
 30
0.0
 10
87.74130935147616
 20
-175.3028455405021
 30
0.0
 10
93.88086579855724
 20
-174.6363326325778
 30
0.0
 10
99.66633863567176
 20
-173.8760194639356
 30
0.0
 10
105.0730781329875
 20
-173.0497810501219
 30
0.0
 10
110.2824941990772
 20
-172.1455308071278
 30
0.0
 10
115.4103282545529
 20
-171.1453568814467
 30
0.0
 10
120.231031143565
 20
-170.0979391149632
 30
0.0
 10
124.73824649818
 20
-169.024162541541
 30
0.0
 10
129.3758369204122
 20
-167.8270531527681
 30
0.0
 10
134.5029922665564
 20
-166.3820604567357
 30
0.0
 10
139.64313780327
 20
-164.7866458852193
 30
0.0
 10
144.4367333712305
 20
-163.1709338133804
 30
0.0
 10
149.1806943514027
 20
-161.4555493971793
 30
0.0
 10
154.5131657687081
 20
-159.3721607536957
 30
0.0
 10
161.7352399468323
 20
-156.2957220555014
 30
0.0
 10
170.0693843727199
 20
-152.3025807981855
 30
0.0
 10
178.9710542392572
 20
-147.4298231078282
 30
0.0
 10
187.0144103468547
 20
-142.4855299398474
 30
0.0
 10
193.4778746875006
 20
-138.0673238004198
 30
0.0
 10
198.6214156601589
 20
-134.2584923630518
 30
0.0
 10
202.5650285708544
 20
-131.1673735146587
 30
0.0
 10
206.4087913055637
 20
-127.9862234872041
 30
0.0
 10
210.0889755950253
 20
-124.7703479994051
 30
0.0
 10
213.7071499502618
 20
-121.4354861969777
 30
0.0
 10
217.1072508590435
 20
-118.1347358241346
 30
0.0
 10
220.2188234073634
 20
-114.9569304600334
 30
0.0
 10
223.0527379427948
 20
-111.9299925355172
 30
0.0
 10
225.8237311315785
 20
-108.8431560977489
 30
0.0
 10
228.8822150742579
 20
-105.2761633579342
 30
0.0
 10
232.0887863494084
 20
-101.3286221223304
 30
0.0
 10
235.1242595678821
 20
-97.36980670803972
 30
0.0
 10
237.492515936063
 20
-94.11797706148592
 30
0.0
 10
239.3835122993657
 20
-91.42116787044122
 30
0.0
 10
241.0559711645733
 20
-88.96071374233102
 30
0.0
 10
242.8657606017194
 20
-86.20232716611737
 30
0.0
 10
244.7055982977188
 20
-83.28635719929008
 30
0.0
 10
246.3969334688711
 20
-80.49531939431576
 30
0.0
 10
247.9017579461879
 20
-77.9204957511556
 30
0.0
 10
249.3645667544639
 20
-75.33501656398725
 30
0.0
 10
250.9169198870912
 20
-72.4880911498941
 30
0.0
 10
252.5011799779826
 20
-69.45588576001587
 30
0.0
 10
253.9472191610536
 20
-66.5681181982614
 30
0.0
 10
255.1770320568142
 20
-64.01498660072821
 30
0.0
 10
256.3518435134125
 20
-61.4915921089199
 30
0.0
 10
257.6507982246421
 20
-58.59973124790369
 30
0.0
 10
259.2323544267749
 20
-54.9005691113931
 30
0.0
 10
261.0899141994119
 20
-50.29992310391947
 30
0.0
 10
262.3347103369633
 20
-46.88241083727333
 30
0.0
 10
263.0069601382097
 20
-45.03678979724564
 30
0.0
  0
SPLINE
  5
EF
330
EA
100
AcDbEntity
  8
0
  6
Continuous
 62
     7
370
    25
100
AcDbSpline
210
0.0
220
0.0
230
1.0
 70
    11
 71
     3
 72
    59
 73
    55
 74
     0
 42
0.000000001
 43
0.00000001
 40
0.0
 40
0.0
 40
0.0
 40
0.0
 40
0.0062500000000001
 40
0.0093749999999999
 40
0.0125
 40
0.0625
 40
0.09375
 40
0.125
 40
0.15625
 40
0.1875
 40
0.21875
 40
0.25
 40
0.265625
 40
0.296875
 40
0.3054857052560912
 40
0.3125
 40
0.34375
 40
0.375
 40
0.3828125
 40
0.40625
 40
0.4140625
 40
0.4375
 40
0.453125
 40
0.46875
 40
0.4765625
 40
0.484375
 40
0.4921875
 40
0.5
 40
0.5078125
 40
0.515625
 40
0.5234375
 40
0.53125
 40
0.546875
 40
0.5625
 40
0.5859375
 40
0.59375
 40
0.6171875
 40
0.625
 40
0.65625
 40
0.6875
 40
0.6945142946655007
 40
0.703125
 40
0.734375
 40
0.75
 40
0.78125
 40
0.8125
 40
0.84375
 40
0.875
 40
0.90625
 40
0.9375
 40
0.9875
 40
0.990625
 40
0.99375
 40
1.0
 40
1.0
 40
1.0
 40
1.0
 10
95.69639337447911
 20
93.40261364157226
 30
0.0
 10
98.21979456399596
 20
92.71680726816317
 30
0.0
 10
101.9812260721595
 20
91.66522521179787
 30
0.0
 10
106.9461352795162
 20
90.21868627417581
 30
0.0
 10
129.1327399250806
 20
83.5779456625241
 30
0.0
 10
160.3729635460759
 20
71.96772172946905
 30
0.0
 10
196.0000759496349
 20
53.94537516403955
 30
0.0
 10
221.5343034554821
 20
37.39009822313015
 30
0.0
 10
242.2702177625221
 20
19.54058789355948
 30
0.0
 10
257.1764891892518
 20
0.7850936180543722
 30
0.0
 10
265.5003157539776
 20
-18.43302488975393
 30
0.0
 10
266.2322455024682
 20
-34.43656272889185
 30
0.0
 10
261.6782494213057
 20
-50.31794830018398
 30
0.0
 10
254.4023104330569
 20
-61.44355769129081
 30
0.0
 10
244.8295150011288
 20
-70.46896437976754
 30
0.0
 10
233.7999427360362
 20
-79.34521527800628
 30
0.0
 10
211.8672976530204
 20
-91.96004324879031
 30
0.0
 10
179.5726956012193
 20
-102.4598372285164
 30
0.0
 10
144.6854875172332
 20
-109.7224181092669
 30
0.0
 10
119.8376573487647
 20
-113.0947287520833
 30
0.0
 10
81.73498424890104
 20
-115.5952645939376
 30
0.0
 10
46.68324554201317
 20
-115.7168895462617
 30
0.0
 10
4.994769212798525
 20
-112.8202830177376
 30
0.0
 10
-24.49691749096385
 20
-109.0932250849935
 30
0.0
 10
-47.55963089613074
 20
-105.2031735224477
 30
0.0
 10
-64.42167159862443
 20
-101.8809244404831
 30
0.0
 10
-80.81387654519231
 20
-98.17146480571124
 30
0.0
 10
-96.47664965532529
 20
-94.16416769604582
 30
0.0
 10
-111.7395074531992
 20
-89.76654098071366
 30
0.0
 10
-126.9366732724171
 20
-84.89068651924262
 30
0.0
 10
-141.7783854825646
 20
-79.59653488810265
 30
0.0
 10
-161.0297794839413
 20
-71.98651873774952
 30
0.0
 10
-183.6483793761696
 20
-61.55111735901731
 30
0.0
 10
-211.8196803897442
 20
-45.46133331237716
 30
0.0
 10
-231.4076186418804
 20
-30.4898149399162
 30
0.0
 10
-248.9045362287611
 20
-12.878501692769
 30
0.0
 10
-257.5232534423891
 20
-0.4107005647437656
 30
0.0
 10
-265.5727428819828
 20
18.52115469092329
 30
0.0
 10
-266.9703546034756
 20
38.17777044523249
 30
0.0
 10
-259.1297771155449
 20
54.62252041110582
 30
0.0
 10
-251.1278307296159
 20
64.3216151486678
 30
0.0
 10
-242.0646246018181
 20
73.48551728957436
 30
0.0
 10
-228.3388697163749
 20
82.85820493753432
 30
0.0
 10
-205.4542738533212
 20
93.75772625913318
 30
0.0
 10
-179.3905631703932
 20
102.4787831837329
 30
0.0
 10
-143.8896963810931
 20
109.7862890796438
 30
0.0
 10
-105.4152564252535
 20
114.0340498035995
 30
0.0
 10
-65.10273882356677
 20
115.2919044426912
 30
0.0
 10
-24.1565063314873
 20
113.7792168537195
 30
0.0
 10
24.8374903801758
 20
108.8033591666266
 30
0.0
 10
61.07815872699014
 20
102.0737226005141
 30
0.0
 10
84.24391443756072
 20
96.3886634497479
 30
0.0
 10
89.36458944224736
 20
95.09415670622995
 30
0.0
 10
93.17299218496231
 20
94.08842001498141
 30
0.0
 10
95.69639337447911
 20
93.40261364157226
 30
0.0
  0
SPLINE
  5
F0
330
EA
100
AcDbEntity
  8
0
  6
Continuous
 62
     7
370
    25
100
AcDbSpline
210
0.0
220
0.0
230
1.0
 70
    11
 71
     3
 72
    59
 73
    55
 74
     0
 42
0.000000001
 43
0.00000001
 40
0.0
 40
0.0
 40
0.0
 40
0.0
 40
0.0062500000000001
 40
0.0093749999999999
 40
0.0125
 40
0.0625
 40
0.09375
 40
0.125
 40
0.15625
 40
0.1875
 40
0.21875
 40
0.25
 40
0.265625
 40
0.296875
 40
0.3054857052560912
 40
0.3125
 40
0.34375
 40
0.375
 40
0.3828125
 40
0.40625
 40
0.4140625
 40
0.4375
 40
0.453125
 40
0.46875
 40
0.4765625
 40
0.484375
 40
0.4921875
 40
0.5
 40
0.5078125
 40
0.515625
 40
0.5234375
 40
0.53125
 40
0.546875
 40
0.5625
 40
0.5859375
 40
0.59375
 40
0.6171875
 40
0.625
 40
0.65625
 40
0.6875
 40
0.6945142946655007
 40
0.703125
 40
0.734375
 40
0.75
 40
0.78125
 40
0.8125
 40
0.84375
 40
0.875
 40
0.90625
 40
0.9375
 40
0.9875
 40
0.990625
 40
0.99375
 40
1.0
 40
1.0
 40
1.0
 40
1.0
 10
86.33864695246587
 20
84.26916625868064
 30
0.0
 10
88.6087744101401
 20
83.6521942586322
 30
0.0
 10
91.99466400436542
 20
82.708146095535
 30
0.0
 10
96.46787434696972
 20
81.41321785569544
 30
0.0
 10
116.4693346419146
 20
75.47892316479643
 30
0.0
 10
144.7879494924562
 20
65.230530888017
 30
0.0
 10
177.4244274330411
 20
49.43265928504908
 30
0.0
 10
201.1462481980694
 20
34.89553965814926
 30
0.0
 10
220.8200435988577
 20
19.14339828371214
 30
0.0
 10
235.4608700762367
 20
2.4892602378941
 30
0.0
 10
244.3785663775094
 20
-14.69872311002579
 30
0.0
 10
246.3673114236217
 20
-29.1323294607238
 30
0.0
 10
243.6696288766222
 20
-43.59390480479853
 30
0.0
 10
238.1411173379355
 20
-53.83614364546675
 30
0.0
 10
230.3499628748774
 20
-62.22041934280197
 30
0.0
 10
221.2175935742033
 20
-70.5001344971796
 30
0.0
 10
202.4546979678106
 20
-82.4010165663064
 30
0.0
 10
173.5704245346737
 20
-92.43730695166852
 30
0.0
 10
141.6120561172982
 20
-99.41312668307272
 30
0.0
 10
118.5243223007613
 20
-102.6646034683744
 30
0.0
 10
82.75646385005085
 20
-105.0576429158735
 30
0.0
 10
49.59788812496398
 20
-105.1374726907912
 30
0.0
 10
10.02075439758256
 20
-102.2829265404065
 30
0.0
 10
-18.01493580444495
 20
-98.65191404379404
 30
0.0
 10
-39.94764445863341
 20
-94.88938963539684
 30
0.0
 10
-55.97512603333367
 20
-91.69275704132734
 30
0.0
 10
-71.55023428480663
 20
-88.14138247183423
 30
0.0
 10
-86.40295531030644
 20
-84.33193319219274
 30
0.0
 10
-100.8915148375323
 20
-80.16705112539533
 30
0.0
 10
-115.3741385941836
 20
-75.54937819443455
 30
0.0
 10
-129.5434940365701
 20
-70.53915752699467
 30
0.0
 10
-147.9527220372249
 20
-63.3376079749055
 30
0.0
 10
-169.5956283592417
 20
-53.46704241744493
 30
0.0
 10
-196.5078922175225
 20
-38.25119499283683
 30
0.0
 10
-215.0943363385421
 20
-24.10817757640431
 30
0.0
 10
-231.4458021526687
 20
-7.550222564247602
 30
0.0
 10
-239.2648107362493
 20
4.101044562011769
 30
0.0
 10
-246.1209133131885
 20
21.62580582602964
 30
0.0
 10
-246.3366746243871
 20
39.57086212403775
 30
0.0
 10
-237.8514386002128
 20
54.26499182455494
 30
0.0
 10
-229.7348611863441
 20
62.82077744739561
 30
0.0
 10
-220.6937238296371
 20
70.86533457671874
 30
0.0
 10
-207.397611285628
 20
78.99650591648441
 30
0.0
 10
-185.7410138570687
 20
88.3054544298178
 30
0.0
 10
-161.4842686398663
 20
95.60609889342075
 30
0.0
 10
-128.9021463475847
 20
101.5153207735849
 30
0.0
 10
-93.94559399535665
 20
104.6899539892207
 30
0.0
 10
-57.59420863142775
 20
105.21565169956
 30
0.0
 10
-20.90560280915138
 20
103.334511813384
 30
0.0
 10
22.8350985067637
 20
98.37470265465382
 30
0.0
 10
55.24408147543145
 20
92.11863507738937
 30
0.0
 10
76.04426379965128
 20
86.96391757749234
 30
0.0
 10
80.6444254674818
 20
85.79289772368409
 30
0.0
 10
84.06851949479167
 20
84.88613825872909
 30
0.0
 10
86.33864695246587
 20
84.26916625868064
 30
0.0
  0
SPLINE
  5
F1
330
EA
100
AcDbEntity
  8
0
  6
Continuous
 62
     7
370
    25
100
AcDbSpline
210
0.0
220
0.0
230
1.0
 70
     8
 71
     3
 72
    19
 73
    15
 74
     0
 42
0.000000001
 43
0.00000001
 40
0.0
 40
0.0
 40
0.0
 40
0.0
 40
0.0774141130648892
 40
0.1546444202143288
 40
0.2311454469776984
 40
0.3065005075623619
 40
0.3809326659825441
 40
0.4740337630430049
 40
0.5687434819046918
 40
0.6649788048349634
 40
0.7616465135787731
 40
0.8583181194695186
 40
0.9545477405758702
 40
1.0
 40
1.0
 40
1.0
 40
1.0
 10
60.2037051719781
 20
-86.95777924161146
 30
0.0
 10
58.61091919032336
 20
-86.57511940184423
 30
0.0
 10
55.42912901141838
 20
-85.81070827941082
 30
0.0
 10
50.30359850693581
 20
-85.18176591940232
 30
0.0
 10
45.1222096236158
 20
-84.9299685497736
 30
0.0
 10
39.98290000844047
 20
-85.09524271721037
 30
0.0
 10
34.5927708486274
 20
-85.71757085385985
 30
0.0
 10
29.08147880223982
 20
-86.91459773804738
 30
0.0
 10
23.72613688919574
 20
-88.78940425362848
 30
0.0
 10
19.09655715678004
 20
-91.17662628473855
 30
0.0
 10
15.39973475548257
 20
-94.00170578762078
 30
0.0
 10
13.00504721394394
 20
-97.16152916479754
 30
0.0
 10
11.83309309035399
 20
-99.91101121685621
 30
0.0
 10
11.93357701223805
 20
-101.5663092698918
 30
0.0
 10
11.96581275945095
 20
-102.0973372054976
 30
0.0
  0
SPLINE
  5
F2
330
EA
100
AcDbEntity
  8
0
  6
Continuous
 62
     7
370
    25
100
AcDbSpline
210
0.0
220
0.0
230
1.0
 70
     8
 71
     3
 72
    15
 73
    11
 74
     0
 42
0.000000001
 43
0.00000001
 40
0.0
 40
0.0
 40
0.0
 40
0.0
 40
0.0642462150051325
 40
0.2200721377987011
 40
0.3732513947630866
 40
0.4957146425769667
 40
0.6196963415398611
 40
0.7455634989270168
 40
0.8726305415054764
 40
1.0
 40
1.0
 40
1.0
 40
1.0
 10
77.16235104493627
 20
-104.8158000410426
 30
0.0
 10
77.34756588381869
 20
-104.3695606768781
 30
0.0
 10
77.9820098824518
 20
-102.8409904594147
 30
0.0
 10
77.7921647710471
 20
-100.1614131276756
 30
0.0
 10
76.65559927552191
 20
-97.1476276631573
 30
0.0
 10
74.59910020770334
 20
-94.5036061447326
 30
0.0
 10
71.96639482721798
 20
-92.22552738908207
 30
0.0
 10
68.63767175544544
 20
-90.16460549958013
 30
0.0
 10
64.73701153050716
 20
-88.34038342081934
 30
0.0
 10
61.71600418566999
 20
-87.41901233974711
 30
0.0
 10
60.2037051719781
 20
-86.95777924161146
 30
0.0
  0
SPLINE
  5
F3
330
EA
100
AcDbEntity
  8
0
  6
Continuous
 62
     7
370
    25
100
AcDbSpline
210
0.0
220
0.0
230
1.0
 70
     8
 71
     3
 72
    10
 73
     6
 74
     0
 42
0.000000001
 43
0.00000001
 40
0.0
 40
0.0
 40
0.0
 40
0.0
 40
0.3429363348889321
 40
0.6841635805997779
 40
1.0
 40
1.0
 40
1.0
 40
1.0
 10
55.53675128275231
 20
-100.084542316696
 30
0.0
 10
56.84175182689521
 20
-100.4958186465808
 30
0.0
 10
59.44524919399291
 20
-101.3163216316642
 30
0.0
 10
62.63773675805756
 20
-102.9561445558071
 30
0.0
 10
64.18974332804463
 20
-104.2363873788596
 30
0.0
 10
64.9357596183648
 20
-104.8517726613915
 30
0.0
  0
SPLINE
  5
F4
330
EA
100
AcDbEntity
  8
0
  6
Continuous
 62
     7
370
    25
100
AcDbSpline
210
0.0
220
0.0
230
1.0
 70
     8
 71
     3
 72
    15
 73
    11
 74
     0
 42
0.000000001
 43
0.00000001
 40
0.0
 40
0.0
 40
0.0
 40
0.0
 40
0.022423523847088
 40
0.1639445859680201
 40
0.3032221360173154
 40
0.4401340903678689
 40
0.5770472150088939
 40
0.7163091315444463
 40
0.8578002257892833
 40
1.0
 40
1.0
 40
1.0
 40
1.0
 10
26.60173141138745
 20
-103.3805987473019
 30
0.0
 10
26.73303410602043
 20
-103.2765504746477
 30
0.0
 10
27.69302442934707
 20
-102.5158247699239
 30
0.0
 10
30.15655236981215
 20
-101.3767540640582
 30
0.0
 10
33.83446903654769
 20
-100.0502744520097
 30
0.0
 10
37.96186003133698
 20
-99.16220566719733
 30
0.0
 10
42.3347600595303
 20
-98.7011549269276
 30
0.0
 10
46.84147151653331
 20
-98.70171831740743
 30
0.0
 10
51.35557462534267
 20
-99.11184765591696
 30
0.0
 10
54.14070657771595
 20
-99.75977124336876
 30
0.0
 10
55.53675128275231
 20
-100.084542316696
 30
0.0
  0
VIEWPORT
  5
10A
330
EA
100
AcDbEntity
  8
0
100
AcDbViewport
 10
0.0
 20
0.0
 30
0.0
 40
205.6
 41
156.0
 68
     1
 69
     1
 12
0.0000000006
 22
-0.7645283725
 13
0.0
 23
0.0
 14
10.0
 24
10.0
 15
10.0
 25
10.0
 16
0.0
 26
0.0
 36
1.0
 17
0.0
 27
0.0
 37
0.0
 42
50.0
 43
0.0
 44
0.0
 45
434.0222782612
 50
0.0
 51
0.0
 72
   100
 90
   557152
  1

281
     0
 71
     1
 74
     0
110
0.0
120
0.0
130
0.0
111
1.0
121
0.0
131
0.0
112
0.0
122
1.0
132
0.0
 79
     0
146
0.0
170
     0
 61
     5
348
2F
292
     1
282
     1
141
0.0
142
0.0
 63
   256
361
10B
  0
ENDBLK
  5
ED
330
EA
100
AcDbEntity
  8
0
100
AcDbBlockEnd
  0
BLOCK
  5
F7
330
F5
100
AcDbEntity
  8
0
100
AcDbBlockBegin
  2
*Paper_Space7
 70
     0
 10
0.0
 20
0.0
 30
0.0
  3
*Paper_Space7
  1

  0
SPLINE
  5
F9
330
F5
100
AcDbEntity
  8
0
  6
Continuous
 62
     7
370
    25
100
AcDbSpline
210
0.0
220
0.0
230
1.0
 70
     8
 71
     3
 72
   131
 73
   127
 74
     0
 42
0.000000001
 43
0.00000001
 40
0.0
 40
0.0
 40
0.0
 40
0.0
 40
0.008987583673133
 40
0.0160753249593796
 40
0.0201559311468488
 40
0.0231591491558732
 40
0.0252933993816225
 40
0.0275757065558591
 40
0.0301417505400345
 40
0.0329915967630828
 40
0.0361253018168588
 40
0.0543220488248501
 40
0.06204269580199
 40
0.0683453416926466
 40
0.0742109332367875
 40
0.080716529447185
 40
0.089264515205108
 40
0.0985912274651179
 40
0.1083524530058091
 40
0.1172865474487174
 40
0.1252241060857636
 40
0.1326960441083078
 40
0.1486319633210795
 40
0.1702603234726877
 40
0.1887896727222988
 40
0.2070451098600333
 40
0.2285306287484392
 40
0.2494478874356673
 40
0.260152411939188
 40
0.2723411578182485
 40
0.283380269123705
 40
0.2947394753328155
 40
0.3053125578429092
 40
0.3162070941507949
 40
0.331350129163825
 40
0.347659433559925
 40
0.3544018105561042
 40
0.3613266608371925
 40
0.3680070205208385
 40
0.3734081742014073
 40
0.3785831285504522
 40
0.3839551968956404
 40
0.3907574573119231
 40
0.3979865605330102
 40
0.4044588960927102
 40
0.4095238711557609
 40
0.4129773730652163
 40
0.4174619185250887
 40
0.4225476654344017
 40
0.4266262439708169
 40
0.4296164243959146
 40
0.4330532831765689
 40
0.4375876176103553
 40
0.4497755861328215
 40
0.4609955478080561
 40
0.472162423343419
 40
0.4838632183241598
 40
0.4964623807112917
 40
0.5043320887387946
 40
0.5115128716297768
 40
0.5176488485841445
 40
0.522737879654474
 40
0.5267876624080814
 40
0.5309995574949641
 40
0.5355497938669521
 40
0.5411926621188556
 40
0.5478913146143249
 40
0.5543384927781585
 40
0.559821600790089
 40
0.5643522998277626
 40
0.5709995987401748
 40
0.5800510088181104
 40
0.5916896587663281
 40
0.6027403450882907
 40
0.6125666997947918
 40
0.6212511971751932
 40
0.6285458314853266
 40
0.6358435652985289
 40
0.6434454018781781
 40
0.6535387503515281
 40
0.6581928555249109
 40
0.6616866663597922
 40
0.6651270035077235
 40
0.668868778494314
 40
0.6735505110931295
 40
0.6787579640043522
 40
0.6958404633788763
 40
0.7117158694760858
 40
0.7269286369033755
 40
0.7415014333116572
 40
0.7471014090335184
 40
0.7525573956181019
 40
0.7593386953283288
 40
0.7671486891442908
 40
0.7745293271850773
 40
0.7805851714728007
 40
0.7835867385350018
 40
0.7865741552045145
 40
0.7895945169841081
 40
0.7932461236560279
 40
0.7977452089439946
 40
0.8028831581673004
 40
0.807296922283678
 40
0.8107398034282561
 40
0.8165049885710035
 40
0.822645104768207
 40
0.8310519396582963
 40
0.8408501849050289
 40
0.8495981669631838
 40
0.857188277249987
 40
0.8644692687524361
 40
0.8740649389144579
 40
0.8833477975477759
 40
0.891733526491708
 40
0.9006709557064734
 40
0.9106674877116454
 40
0.921453480195315
 40
0.9323966025188597
 40
0.9424294364165884
 40
0.9514492972266477
 40
0.9598375278332866
 40
0.9645817537559623
 40
0.9709750118408289
 40
0.9790128402247081
 40
0.9886898265243985
 40
1.0
 40
1.0
 40
1.0
 40
1.0
 10
-269.9721832439137
 20
6.246673192784866
 30
0.0
 10
-269.1110534682319
 20
4.381969250893292
 30
0.0
 10
-267.5708240272908
 20
1.046732227336991
 30
0.0
 10
-265.5403199774505
 20
-3.084946921695864
 30
0.0
 10
-264.07940767378
 20
-5.972823427283627
 30
0.0
 10
-263.113295324718
 20
-7.843351061690734
 30
0.0
 10
-262.3260771828254
 20
-9.345844584091795
 30
0.0
 10
-261.5775656016419
 20
-10.75688837438329
 30
0.0
 10
-260.743413086088
 20
-12.30836783659299
 30
0.0
 10
-259.8060508341937
 20
-14.02598816823437
 30
0.0
 10
-257.1213956240905
 20
-18.86560237498658
 30
0.0
 10
-253.7507872237477
 20
-24.60426635493382
 30
0.0
 10
-249.8232911534287
 20
-30.85453587067596
 30
0.0
 10
-247.3354173459628
 20
-34.67482708740452
 30
0.0
 10
-244.9468766289642
 20
-38.23208227196603
 30
0.0
 10
-242.214190184246
 20
-42.17869449147671
 30
0.0
 10
-238.947309872179
 20
-46.72566008315421
 30
0.0
 10
-235.1368601208366
 20
-51.80431856580573
 30
0.0
 10
-231.1562262825809
 20
-56.87263570860767
 30
0.0
 10
-227.2694655918562
 20
-61.60672703572216
 30
0.0
 10
-223.630991644758
 20
-65.86581487675394
 30
0.0
 10
-218.8458375223154
 20
-71.26850817836872
 30
0.0
 10
-211.7555629819797
 20
-78.84906820459125
 30
0.0
 10
-202.5079752101623
 20
-87.91096440332625
 30
0.0
 10
-192.4405339117939
 20
-96.89629337303745
 30
0.0
 10
-182.0113201691439
 20
-105.432860836054
 30
0.0
 10
-170.7433329567822
 20
-113.8205239909179
 30
0.0
 10
-160.5207409808974
 20
-120.678985102526
 30
0.0
 10
-151.8832921450309
 20
-126.0286045979121
 30
0.0
 10
-145.087639786153
 20
-129.9944848420498
 30
0.0
 10
-138.0503994913157
 20
-133.8549666458607
 30
0.0
 10
-131.2513353895502
 20
-137.3627096563762
 30
0.0
 10
-124.3964528753595
 20
-140.6869219612381
 30
0.0
 10
-116.6652656035721
 20
-144.2093493525483
 30
0.0
 10
-107.611457330587
 20
-148.0229379247575
 30
0.0
 10
-99.34454087976293
 20
-151.179402221387
 30
0.0
 10
-92.80859188411827
 20
-153.4966778985532
 30
0.0
 10
-88.35480572634998
 20
-155.0056233096555
 30
0.0
 10
-84.17682069633524
 20
-156.3571622202031
 30
0.0
 10
-80.36974615198496
 20
-157.5379743702813
 30
0.0
 10
-76.84278472945053
 20
-158.5914721657311
 30
0.0
 10
-72.99139692573505
 20
-159.6986633819534
 30
0.0
 10
-68.69101715952428
 20
-160.8805765012315
 30
0.0
 10
-64.1274044490025
 20
-162.07027907653
 30
0.0
 10
-59.94027820805645
 20
-163.1054490865048
 30
0.0
 10
-56.58289982053667
 20
-163.8983124532956
 30
0.0
 10
-53.6764754262056
 20
-164.5615050330352
 30
0.0
 10
-50.76390603716001
 20
-165.2048852516704
 30
0.0
 10
-47.70178285497604
 20
-165.854941377748
 30
0.0
 10
-44.96677112653742
 20
-166.4134435185846
 30
0.0
 10
-42.60486386986388
 20
-166.881277137003
 30
0.0
 10
-40.1457434583924
 20
-167.3549042986605
 30
0.0
 10
-35.60857152655152
 20
-168.1986167371544
 30
0.0
 10
-29.29368956336591
 20
-169.2868349152497
 30
0.0
 10
-21.47339223679126
 20
-170.4920809691673
 30
0.0
 10
-13.70493905315439
 20
-171.5625371206583
 30
0.0
 10
-5.58365521674832
 20
-172.5464171116548
 30
0.0
 10
1.782674455224592
 20
-173.314207472127
 30
0.0
 10
8.126328221729478
 20
-173.883628998249
 30
0.0
 10
13.005752126396
 20
-174.2688655935485
 30
0.0
 10
17.25620815824147
 20
-174.5630868839415
 30
0.0
 10
20.78889512992096
 20
-174.7778325390768
 30
0.0
 10
23.87968524477002
 20
-174.9441785524029
 30
0.0
 10
26.84350832033582
 20
-175.0847415307942
 30
0.0
 10
30.17571868638009
 20
-175.2198400498535
 30
0.0
 10
34.0877334993054
 20
-175.3464645530773
 30
0.0
 10
38.4446397066183
 20
-175.4434794202985
 30
0.0
 10
42.76728180307481
 20
-175.4920243305401
 30
0.0
 10
46.58707143360953
 20
-175.4953613855527
 30
0.0
 10
50.45291358292871
 20
-175.4641935582729
 30
0.0
 10
55.14698744914627
 20
-175.3787860946991
 30
0.0
 10
61.47700968500546
 20
-175.1706439946376
 30
0.0
 10
68.83057240803517
 20
-174.7786009889921
 30
0.0
 10
76.35328633276809
 20
-174.1931547823684
 30
0.0
 10
83.1781913191051
 20
-173.4974915585055
 30
0.0
 10
89.11916988881703
 20
-172.7579490467928
 30
0.0
 10
94.46207385463617
 20
-171.983132648353
 30
0.0
 10
99.52538726575186
 20
-171.149452266339
 30
0.0
 10
105.197217365997
 20
-170.096864083135
 30
0.0
 10
110.2195451917817
 20
-169.0347388848909
 30
0.0
 10
114.302502685004
 20
-168.0785556821537
 30
0.0
 10
116.8670257551414
 20
-167.4451394496455
 30
0.0
 10
119.2247148739438
 20
-166.8368545984316
 30
0.0
 10
121.8326228484751
 20
-166.1337153841173
 30
0.0
 10
124.8093929781179
 20
-165.2900725671097
 30
0.0
 10
130.6693545795218
 20
-163.5327599230003
 30
0.0
 10
138.8137747564867
 20
-160.7791922276237
 30
0.0
 10
148.8101662590329
 20
-156.8114827512608
 30
0.0
 10
158.0182427164023
 20
-152.6214681060293
 30
0.0
 10
164.9471041797484
 20
-149.0662938464606
 30
0.0
 10
169.8567421558062
 20
-146.3478918760953
 30
0.0
 10
173.233988965261
 20
-144.4008058697917
 30
0.0
 10
176.9724661679378
 20
-142.149384966591
 30
0.0
 10
181.0191103553573
 20
-139.5854331025739
 30
0.0
 10
184.8606141601858
 20
-137.0225235224547
 30
0.0
 10
187.7926693146334
 20
-134.9770312933201
 30
0.0
 10
189.912625809909
 20
-133.4536397650642
 30
0.0
 10
191.4862186408592
 20
-132.3007862597444
 30
0.0
 10
193.1598596609996
 20
-131.0507858211902
 30
0.0
 10
195.0761300948488
 20
-129.5889268579668
 30
0.0
 10
197.3345815710704
 20
-127.8213005253605
 30
0.0
 10
199.6988056132209
 20
-125.9144173829694
 30
0.0
 10
201.8641475860033
 20
-124.1155258090411
 30
0.0
 10
204.1111752195617
 20
-122.2031392586622
 30
0.0
 10
206.6101754391364
 20
-120.0156965309521
 30
0.0
 10
209.8577462788636
 20
-117.0689561619449
 30
0.0
 10
213.669017404598
 20
-113.4572179742987
 30
0.0
 10
217.7952398939771
 20
-109.3300368714656
 30
0.0
 10
221.6953424811455
 20
-105.2088710398048
 30
0.0
 10
225.1307607720147
 20
-101.3993046041915
 30
0.0
 10
228.6001675595134
 20
-97.37953819764357
 30
0.0
 10
232.20304970136
 20
-92.99177157050207
 30
0.0
 10
235.8361101275608
 20
-88.31201068686215
 30
0.0
 10
239.2649519762412
 20
-83.65472404176077
 30
0.0
 10
242.6637365464063
 20
-78.78928315706331
 30
0.0
 10
246.2228608590786
 20
-73.38893194803109
 30
0.0
 10
249.8495880972582
 20
-67.51566075511313
 30
0.0
 10
253.3036163778015
 20
-61.51793719668424
 30
0.0
 10
256.3990914386227
 20
-55.75590503425644
 30
0.0
 10
259.0870716373669
 20
-50.41564334577411
 30
0.0
 10
261.156288432695
 20
-46.04384172662378
 30
0.0
 10
262.904405784541
 20
-42.16950438763438
 30
0.0
 10
264.5620414117159
 20
-38.3414706575876
 30
0.0
 10
266.5519430517875
 20
-33.47774208921612
 30
0.0
 10
268.8238638341744
 20
-27.55344752212167
 30
0.0
 10
270.3149829968056
 20
-23.18934262427678
 30
0.0
 10
271.118560831192
 20
-20.83748634697062
 30
0.0
  0
SPLINE
  5
FA
330
F5
100
AcDbEntity
  8
0
  6
Continuous
 62
     7
370
    25
100
AcDbSpline
210
0.0
220
0.0
230
1.0
 70
    11
 71
     3
 72
    59
 73
    55
 74
     0
 42
0.000000001
 43
0.00000001
 40
0.0
 40
0.0
 40
0.0
 40
0.0
 40
0.0062500000000001
 40
0.0093749999999999
 40
0.0125
 40
0.0625
 40
0.09375
 40
0.125
 40
0.15625
 40
0.1875
 40
0.21875
 40
0.25
 40
0.265625
 40
0.296875
 40
0.3054857052560912
 40
0.3125
 40
0.34375
 40
0.375
 40
0.3828125
 40
0.40625
 40
0.4140625
 40
0.4375
 40
0.453125
 40
0.46875
 40
0.4765625
 40
0.484375
 40
0.4921875
 40
0.5
 40
0.5078125
 40
0.515625
 40
0.5234375
 40
0.53125
 40
0.546875
 40
0.5625
 40
0.5859375
 40
0.59375
 40
0.6171875
 40
0.625
 40
0.65625
 40
0.6875
 40
0.6945142946655007
 40
0.703125
 40
0.734375
 40
0.75
 40
0.78125
 40
0.8125
 40
0.84375
 40
0.875
 40
0.90625
 40
0.9375
 40
0.9875
 40
0.990625
 40
0.99375
 40
1.0
 40
1.0
 40
1.0
 40
1.0
 10
72.49650444362274
 20
63.93590722758193
 30
0.0
 10
75.16540687491577
 20
63.59965712740335
 30
0.0
 10
79.15077326849767
 20
63.07961556100152
 30
0.0
 10
84.42533504798077
 20
62.35561524229976
 30
0.0
 10
108.0381544619099
 20
59.00686102079662
 30
0.0
 10
141.8300124497577
 20
52.84042591508977
 30
0.0
 10
181.5170654858458
 20
42.73714116340275
 30
0.0
 10
210.8361333466596
 20
33.15931711557048
 30
0.0
 10
235.7050969652213
 20
22.55220033887605
 30
0.0
 10
255.007196396308
 20
11.12254963049243
 30
0.0
 10
267.8888006974551
 20
-0.8759835397083165
 30
0.0
 10
272.4638789249556
 20
-11.12351288073138
 30
0.0
 10
271.7643603979299
 20
-21.51084016953644
 30
0.0
 10
267.2201156806282
 20
-28.95630962997721
 30
0.0
 10
259.8916121930705
 20
-35.14782553207372
 30
0.0
 10
251.0816789581902
 20
-41.30369866292445
 30
0.0
 10
232.3517483753506
 20
-50.3107188113551
 30
0.0
 10
202.830999870687
 20
-58.38725380447649
 30
0.0
 10
169.9590742147452
 20
-64.49183841700123
 30
0.0
 10
146.1136206189946
 20
-67.68351642152388
 30
0.0
 10
108.9057395756106
 20
-70.86259386509435
 30
0.0
 10
74.15317982035069
 20
-72.3879259769627
 30
0.0
 10
32.08911880626561
 20
-72.24891632766614
 30
0.0
 10
1.928201462889537
 20
-71.07299316010693
 30
0.0
 10
-21.8924505239718
 20
-69.52695205848345
 30
0.0
 10
-39.42362618239464
 20
-68.08954906752643
 30
0.0
 10
-56.58170676981847
 20
-66.38407408533254
 30
0.0
 10
-73.0876014623619
 20
-64.45720580220895
 30
0.0
 10
-89.29053319916117
 20
-62.26314930582861
 30
0.0
 10
-105.5432906465278
 20
-59.75925435965268
 30
0.0
 10
-121.5439305318477
 20
-56.97204568861643
 30
0.0
 10
-142.4772497347033
 20
-52.87961641357712
 30
0.0
 10
-167.4313379522677
 20
-47.11170157215498
 30
0.0
 10
-199.2552224531632
 20
-37.94170509217397
 30
0.0
 10
-222.2929052054736
 20
-29.13548679342171
 30
0.0
 10
-243.8905297573719
 20
-18.54761203557648
 30
0.0
 10
-255.4413302533959
 20
-10.89642518688096
 30
0.0
 10
-267.9818649284272
 20
0.9295916413410293
 30
0.0
 10
-274.0960490033034
 20
13.49570614138108
 30
0.0
 10
-270.270745401681
 20
24.38053277028028
 30
0.0
 10
-264.6630132687118
 20
30.93984531796663
 30
0.0
 10
-257.8734823938473
 20
37.19926538576897
 30
0.0
 10
-246.5075204673158
 20
43.78527927240601
 30
0.0
 10
-226.420445759464
 20
51.7300040736874
 30
0.0
 10
-202.6548264410656
 20
58.40694114169627
 30
0.0
 10
-169.1847720628734
 20
64.56571422806036
 30
0.0
 10
-132.0281874807878
 20
68.88223935179576
 30
0.0
 10
-92.32861993256451
 20
71.35448584291633
 30
0.0
 10
-51.33391364513454
 20
72.07360702752526
 30
0.0
 10
-1.520539718868175
 20
70.90089787751204
 30
0.0
 10
36.05949408280623
 20
68.0753198299592
 30
0.0
 10
60.41408679597771
 20
65.38074817170049
 30
0.0
 10
65.80665172484
 20
64.76081684931633
 30
0.0
 10
69.82760201232973
 20
64.2721573277605
 30
0.0
 10
72.49650444362274
 20
63.93590722758193
 30
0.0
  0
SPLINE
  5
FB
330
F5
100
AcDbEntity
  8
0
  6
Continuous
 62
     7
370
    25
100
AcDbSpline
210
0.0
220
0.0
230
1.0
 70
    11
 71
     3
 72
    59
 73
    55
 74
     0
 42
0.000000001
 43
0.00000001
 40
0.0
 40
0.0
 40
0.0
 40
0.0
 40
0.0062500000000001
 40
0.0093749999999999
 40
0.0125
 40
0.0625
 40
0.09375
 40
0.125
 40
0.15625
 40
0.1875
 40
0.21875
 40
0.25
 40
0.265625
 40
0.296875
 40
0.3054857052560912
 40
0.3125
 40
0.34375
 40
0.375
 40
0.3828125
 40
0.40625
 40
0.4140625
 40
0.4375
 40
0.453125
 40
0.46875
 40
0.4765625
 40
0.484375
 40
0.4921875
 40
0.5
 40
0.5078125
 40
0.515625
 40
0.5234375
 40
0.53125
 40
0.546875
 40
0.5625
 40
0.5859375
 40
0.59375
 40
0.6171875
 40
0.625
 40
0.65625
 40
0.6875
 40
0.6945142946655007
 40
0.703125
 40
0.734375
 40
0.75
 40
0.78125
 40
0.8125
 40
0.84375
 40
0.875
 40
0.90625
 40
0.9375
 40
0.9875
 40
0.990625
 40
0.99375
 40
1.0
 40
1.0
 40
1.0
 40
1.0
 10
65.40737724517842
 20
57.68388470087661
 30
0.0
 10
67.80840198760833
 20
57.38138401720967
 30
0.0
 10
71.3952570055715
 20
56.9148971391983
 30
0.0
 10
76.14544467739259
 20
56.26796248775472
 30
0.0
 10
97.42004990304861
 20
53.28267945036379
 30
0.0
 10
127.9852831232492
 20
47.87020833309548
 30
0.0
 10
164.1697550926252
 20
39.07204210801553
 30
0.0
 10
191.2050147832779
 20
30.71548269388594
 30
0.0
 10
214.5156301285237
 20
21.41147965814781
 30
0.0
 10
233.0489612427728
 20
11.32039660442737
 30
0.0
 10
246.0316228220741
 20
0.6501712219045552
 30
0.0
 10
251.4762757241096
 20
-8.53722929094898
 30
0.0
 10
252.277316999473
 20
-17.93608603711723
 30
0.0
 10
249.254596050775
 20
-24.74209152152798
 30
0.0
 10
243.5398239942962
 20
-30.44830127737355
 30
0.0
 10
236.4690192322927
 20
-36.142736758391
 30
0.0
 10
220.7127272680712
 20
-44.56037529051057
 30
0.0
 10
194.4645742008913
 20
-52.19843398328474
 30
0.0
 10
164.4299687414693
 20
-57.99792915910841
 30
0.0
 10
142.3019971907886
 20
-61.03933439283379
 30
0.0
 10
107.3850982675877
 20
-64.05297554373702
 30
0.0
 10
74.5010709365237
 20
-65.47330081631728
 30
0.0
 10
34.54220871112737
 20
-65.27412957977128
 30
0.0
 10
5.849173971341825
 20
-64.09977301195987
 30
0.0
 10
-16.81950552116225
 20
-62.58897622079647
 30
0.0
 10
-33.4923386293987
 20
-61.19778888906705
 30
0.0
 10
-49.80159606432572
 20
-59.56010244131566
 30
0.0
 10
-65.45609518401781
 20
-57.7268498884937
 30
0.0
 10
-80.83471728551852
 20
-55.65029667399359
 30
0.0
 10
-96.31634366587153
 20
-53.28270824120771
 30
0.0
 10
-111.5815202831094
 20
-50.6500845698674
 30
0.0
 10
-131.5809243551788
 20
-46.78520812360648
 30
0.0
 10
-155.4309919956162
 20
-41.33975602612422
 30
0.0
 10
-185.7953568544068
 20
-32.67903344129532
 30
0.0
 10
-207.6400067757769
 20
-24.36354294792059
 30
0.0
 10
-227.8476722032884
 20
-14.40485948855742
 30
0.0
 10
-238.4085494501009
 20
-7.245046415663148
 30
0.0
 10
-249.426487059139
 20
3.726583032465411
 30
0.0
 10
-253.956298988855
 20
15.24230083464492
 30
0.0
 10
-249.0702843111084
 20
25.02946556285958
 30
0.0
 10
-243.0738427725512
 20
30.85925808664248
 30
0.0
 10
-236.0370128528055
 20
36.3989042071816
 30
0.0
 10
-224.7988050894471
 20
42.16985565179586
 30
0.0
 10
-205.5477459552833
 20
49.04238520734346
 30
0.0
 10
-183.2335735588254
 20
54.73250245962318
 30
0.0
 10
-152.3235052754179
 20
59.87276366977752
 30
0.0
 10
-118.3996347769908
 20
63.35486053447926
 30
0.0
 10
-82.45461460094103
 20
65.19335521899885
 30
0.0
 10
-45.59613632127121
 20
65.50006030026913
 30
0.0
 10
-0.9994624855817341
 20
64.12075879308966
 30
0.0
 10
32.66450183126729
 20
61.44111164700307
 30
0.0
 10
54.54419313174434
 20
58.98946437203541
 30
0.0
 10
59.39055503722101
 20
58.42734742281912
 30
0.0
 10
63.00635250274856
 20
57.98638538454352
 30
0.0
 10
65.40737724517842
 20
57.68388470087661
 30
0.0
  0
VIEWPORT
  5
10C
330
F5
100
AcDbEntity
  8
0
100
AcDbViewport
 10
0.0
 20
0.0
 30
0.0
 40
205.6
 41
156.0
 68
     1
 69
     1
 12
0.0000000006
 22
-0.7645283725
 13
0.0
 23
0.0
 14
10.0
 24
10.0
 15
10.0
 25
10.0
 16
0.0
 26
0.0
 36
1.0
 17
0.0
 27
0.0
 37
0.0
 42
50.0
 43
0.0
 44
0.0
 45
434.0222782612
 50
0.0
 51
0.0
 72
   100
 90
   557152
  1

281
     0
 71
     1
 74
     0
110
0.0
120
0.0
130
0.0
111
1.0
121
0.0
131
0.0
112
0.0
122
1.0
132
0.0
 79
     0
146
0.0
170
     0
 61
     5
348
2F
292
     1
282
     1
141
0.0
142
0.0
 63
   256
361
10D
  0
ENDBLK
  5
F8
330
F5
100
AcDbEntity
  8
0
100
AcDbBlockEnd
  0
ENDSEC
  0
SECTION
  2
ENTITIES
  0
SPLINE
  5
73
330
1F
100
AcDbEntity
  8
0
  6
Continuous
 62
     7
370
    25
100
AcDbSpline
210
0.0
220
0.0
230
1.0
 70
    11
 71
     3
 72
    59
 73
    55
 74
     0
 42
0.000000001
 43
0.00000001
 40
0.0
 40
0.0
 40
0.0
 40
0.0
 40
0.0062500000000001
 40
0.0093749999999999
 40
0.0125
 40
0.0625
 40
0.09375
 40
0.125
 40
0.15625
 40
0.1875
 40
0.21875
 40
0.25
 40
0.265625
 40
0.296875
 40
0.3054857052560912
 40
0.3125
 40
0.34375
 40
0.375
 40
0.3828125
 40
0.40625
 40
0.4140625
 40
0.4375
 40
0.453125
 40
0.46875
 40
0.4765625
 40
0.484375
 40
0.4921875
 40
0.5
 40
0.5078125
 40
0.515625
 40
0.5234375
 40
0.53125
 40
0.546875
 40
0.5625
 40
0.5859375
 40
0.59375
 40
0.6171875
 40
0.625
 40
0.65625
 40
0.6875
 40
0.6945142946655007
 40
0.703125
 40
0.734375
 40
0.75
 40
0.78125
 40
0.8125
 40
0.84375
 40
0.875
 40
0.90625
 40
0.9375
 40
0.9875
 40
0.990625
 40
0.99375
 40
1.0
 40
1.0
 40
1.0
 40
1.0
 10
0.0000000004572232
 20
185.0
 30
0.0
 10
2.566803418470212
 20
185.0
 30
0.0
 10
6.416783114061224
 20
184.9590691978138
 30
0.0
 10
11.54635463045117
 20
184.8230582912634
 30
0.0
 10
34.61329639869962
 20
183.9673373519855
 30
0.0
 10
68.9452466088887
 20
179.5850697822003
 30
0.0
 10
112.1245853174007
 20
167.6884197895803
 30
0.0
 10
146.2772248432047
 20
153.7962908153193
 30
0.0
 10
177.9506943263257
 20
135.9285441345604
 30
0.0
 10
205.990248028478
 20
114.1630345934451
 30
0.0
 10
229.4518990156733
 20
88.80985288877889
 30
0.0
 10
244.2896152594268
 20
64.95274962984925
 30
0.0
 10
255.0079137717297
 20
38.86048415290632
 30
0.0
 10
259.3992761764651
 20
18.6924853863746
 30
0.0
 10
260.105945826475
 20
0.6589969328866944
 30
0.0
 10
259.5316745247481
 20
-17.82088000448749
 30
0.0
 10
253.7212669017756
 20
-47.01351000140578
 30
0.0
 10
237.2697525929354
 20
-77.72788256511545
 30
0.0
 10
215.3262452974708
 20
-104.6215121355303
 30
0.0
 10
197.8533206427431
 20
-120.9798537739468
 30
0.0
 10
168.3880015876912
 20
-141.7818512817267
 30
0.0
 10
139.1342930917563
 20
-157.3938885502268
 30
0.0
 10
101.5449470893769
 20
-170.9625568745315
 30
0.0
 10
73.4594775037711
 20
-177.8115466449803
 30
0.0
 10
50.65242750113804
 20
-181.5864721566629
 30
0.0
 10
33.58084321689379
 20
-183.5771990633528
 30
0.0
 10
16.58790103883739
 20
-184.7476461291265
 30
0.0
 10
0.0000000038884772
 20
-185.1377951512043
 30
0.0
 10
-16.58790103192467
 20
-184.7476461294701
 30
0.0
 10
-33.58084321257379
 20
-183.5771990638075
 30
0.0
 10
-50.65242750111526
 20
-181.5864721567493
 30
0.0
 10
-73.45947751149606
 20
-177.8115466436257
 30
0.0
 10
-101.5449471098859
 20
-170.9625568690589
 30
0.0
 10
-139.1342931326054
 20
-157.3938885333099
 30
0.0
 10
-168.3880016434328
 20
-141.7818512493566
 30
0.0
 10
-197.8533207069275
 20
-120.9798537218213
 30
0.0
 10
-215.3262453614607
 20
-104.621512069689
 30
0.0
 10
-237.2697526475223
 20
-77.7278824823286
 30
0.0
 10
-253.7212669368725
 20
-47.01350990581718
 30
0.0
 10
-259.5316745309577
 20
-17.82087994229939
 30
0.0
 10
-260.1059458262677
 20
0.6589969940730568
 30
0.0
 10
-259.3992761697405
 20
18.69248544513646
 30
0.0
 10
-255.0079137470581
 20
38.86048423362695
 30
0.0
 10
-244.2896152223376
 20
64.95274969968422
 30
0.0
 10
-229.4518989697168
 20
88.80985294769923
 30
0.0
 10
-205.9902479773966
 20
114.1630346393566
 30
0.0
 10
-177.9506942754561
 20
135.9285441674716
 30
0.0
 10
-146.2772247974058
 20
153.7962908367968
 30
0.0
 10
-112.1245852803712
 20
167.6884198015981
 30
0.0
 10
-68.94524658473652
 20
179.5850697860287
 30
0.0
 10
-34.61329639284462
 20
183.9673373527186
 30
0.0
 10
-11.54635462865013
 20
184.8230582913892
 30
0.0
 10
-6.416783112928707
 20
184.959069197843
 30
0.0
 10
-2.56680341755572
 20
185.0
 30
0.0
 10
0.0000000004572232
 20
185.0
 30
0.0
  0
SPLINE
  5
74
330
1F
100
AcDbEntity
  8
0
  6
Continuous
 62
     7
370
    25
100
AcDbSpline
210
0.0
220
0.0
230
1.0
 70
    11
 71
     3
 72
    59
 73
    55
 74
     0
 42
0.000000001
 43
0.00000001
 40
0.0
 40
0.0
 40
0.0
 40
0.0
 40
0.0062500000000001
 40
0.0093749999999999
 40
0.0125
 40
0.0625
 40
0.09375
 40
0.125
 40
0.15625
 40
0.1875
 40
0.21875
 40
0.25
 40
0.265625
 40
0.296875
 40
0.3054857052560912
 40
0.3125
 40
0.34375
 40
0.375
 40
0.3828125
 40
0.40625
 40
0.4140625
 40
0.4375
 40
0.453125
 40
0.46875
 40
0.4765625
 40
0.484375
 40
0.4921875
 40
0.5
 40
0.5078125
 40
0.515625
 40
0.5234375
 40
0.53125
 40
0.546875
 40
0.5625
 40
0.5859375
 40
0.59375
 40
0.6171875
 40
0.625
 40
0.65625
 40
0.6875
 40
0.6945142946655007
 40
0.703125
 40
0.734375
 40
0.75
 40
0.78125
 40
0.8125
 40
0.84375
 40
0.875
 40
0.90625
 40
0.9375
 40
0.9875
 40
0.990625
 40
0.99375
 40
1.0
 40
1.0
 40
1.0
 40
1.0
 10
0.0000000004312527
 20
205.0510796635245
 30
0.0
 10
2.853176713689127
 20
205.0510796634464
 30
0.0
 10
7.132732992354984
 20
205.0007564376678
 30
0.0
 10
12.83455205597571
 20
204.833874782347
 30
0.0
 10
38.47421233022952
 20
203.784848916116
 30
0.0
 10
76.62409321307108
 20
198.427559277243
 30
0.0
 10
124.464083742586
 20
184.1067789135404
 30
0.0
 10
162.0483769521071
 20
167.5949326817669
 30
0.0
 10
196.5617086116238
 20
146.6212914496558
 30
0.0
 10
226.740144625199
 20
121.3712363878847
 30
0.0
 10
251.5161483508349
 20
92.25477105462608
 30
0.0
 10
266.6648883934851
 20
65.11524757476633
 30
0.0
 10
277.0279730740771
 20
35.71856551067243
 30
0.0
 10
280.6743342874475
 20
13.21813552440383
 30
0.0
 10
280.3862413055193
 20
-6.747780143511701
 30
0.0
 10
278.674592816409
 20
-27.13743804263394
 30
0.0
 10
270.7077345740138
 20
-59.03535611449462
 30
0.0
 10
251.6600618899791
 20
-92.13723695732405
 30
0.0
 10
227.3860807907819
 20
-120.8901658117633
 30
0.0
 10
208.4659871337438
 20
-138.2774309676355
 30
0.0
 10
177.0331222219847
 20
-160.3536674166088
 30
0.0
 10
146.142938261336
 20
-176.9210053709582
 30
0.0
 10
106.6481701087779
 20
-191.4028019002504
 30
0.0
 10
77.18796044650911
 20
-198.7663702824324
 30
0.0
 10
53.26595660923549
 20
-202.8496754743139
 30
0.0
 10
35.34244728008745
 20
-205.0141799277578
 30
0.0
 10
17.48360314876686
 20
-206.294500194014
 30
0.0
 10
0.0000000036514819
 20
-206.7229545158684
 30
0.0
 10
-17.48360314230773
 20
-206.2945001934735
 30
0.0
 10
-35.34244727615431
 20
-205.0141799264609
 30
0.0
 10
-53.2659566094818
 20
-202.8496754718152
 30
0.0
 10
-77.18796045428591
 20
-198.7663702774487
 30
0.0
 10
-106.6481701289818
 20
-191.402801890009
 30
0.0
 10
-146.1429383013714
 20
-176.9210053480932
 30
0.0
 10
-177.0331222767267
 20
-160.3536673777236
 30
0.0
 10
-208.465987197269
 20
-138.2774309085661
 30
0.0
 10
-227.3860808547243
 20
-120.8901657387458
 30
0.0
 10
-251.6600619459401
 20
-92.13723686688242
 30
0.0
 10
-270.7077346124227
 20
-59.0353560106327
 30
0.0
 10
-278.6745928249896
 20
-27.13743797444133
 30
0.0
 10
-280.3862413088701
 20
-6.747780076105865
 30
0.0
 10
-280.6743342854093
 20
13.21813558965489
 30
0.0
 10
-277.0279730554157
 20
35.71856560146389
 30
0.0
 10
-266.6648883625138
 20
65.11524765488188
 30
0.0
 10
-251.5161483108772
 20
92.25477112375036
 30
0.0
 10
-226.7401445796706
 20
121.3712364435094
 30
0.0
 10
-196.5617085655909
 20
146.6212914914518
 30
0.0
 10
-162.0483769102151
 20
167.5949327109416
 30
0.0
 10
-124.464083708415
 20
184.1067789317423
 30
0.0
 10
-76.62409319053987
 20
198.4275592850701
 30
0.0
 10
-38.47421232475515
 20
203.784848918918
 30
0.0
 10
-12.83455205428525
 20
204.8338747831691
 30
0.0
 10
-7.132732991288722
 20
205.0007564380861
 30
0.0
 10
-2.853176712826571
 20
205.0510796636026
 30
0.0
 10
0.0000000004312527
 20
205.0510796635245
 30
0.0
  0
LWPOLYLINE
  5
75
330
1F
100
AcDbEntity
  8
0
  6
Continuous
 62
     7
370
    25
100
AcDbPolyline
 90
       35
 70
   128
 43
0.0
 10
0.0
 20
129.0
 10
-5.2430900695
 20
128.5644619605
 10
-10.3394338995
 20
127.3092004049
 10
-15.1391929996
 20
125.3109772481
 10
-19.5089428928
 20
122.6403758473
 10
-23.3571154021
 20
119.3570987632
 10
-27.3675513825
 20
114.4631697157
 10
-30.3984961887
 20
108.7848864087
 10
-32.3254108929
 20
102.5349273328
 10
-32.9998177979
 20
95.9999901444
 10
-32.3251886517
 20
89.4648096332
 10
-30.3985176043
 20
83.2151809385
 10
-27.36755071
 20
77.5368076744
 10
-23.3570989882
 20
72.6429165167
 10
-18.4631686956
 20
68.6324352288
 10
-12.7848879927
 20
65.6015133999
 10
-6.5349231449
 20
63.6745837255
 10
0.0
 20
63.0006717953
 10
6.5349231449
 20
63.6745837255
 10
12.7848879927
 20
65.6015133999
 10
18.4631686956
 20
68.6324352288
 10
23.3570989882
 20
72.6429165167
 10
27.36755071
 20
77.5368076744
 10
30.3985176043
 20
83.2151809385
 10
32.3251886517
 20
89.4648096332
 10
32.9998177979
 20
95.9999901444
 10
32.3254108929
 20
102.5349273328
 10
30.3984961887
 20
108.7848864087
 10
27.3675513825
 20
114.4631697157
 10
23.3571154021
 20
119.3570987632
 10
19.5089428928
 20
122.6403758473
 10
15.1391929996
 20
125.3109772481
 10
10.3394338995
 20
127.3092004049
 10
5.2430900695
 20
128.5644619605
 10
0.0
 20
129.0
  0
SPLINE
  5
76
330
1F
100
AcDbEntity
  8
0
  6
Continuous
 62
     7
370
    25
100
AcDbSpline
210
0.0
220
0.0
230
1.0
 70
    11
 71
     3
 72
    59
 73
    55
 74
     0
 42
0.000000001
 43
0.00000001
 40
0.0
 40
0.0
 40
0.0
 40
0.0
 40
0.0062500000000001
 40
0.0093749999999999
 40
0.0125
 40
0.0625
 40
0.09375
 40
0.125
 40
0.15625
 40
0.1875
 40
0.21875
 40
0.25
 40
0.265625
 40
0.296875
 40
0.3054857052560912
 40
0.3125
 40
0.34375
 40
0.375
 40
0.3828125
 40
0.40625
 40
0.4140625
 40
0.4375
 40
0.453125
 40
0.46875
 40
0.4765625
 40
0.484375
 40
0.4921875
 40
0.5
 40
0.5078125
 40
0.515625
 40
0.5234375
 40
0.53125
 40
0.546875
 40
0.5625
 40
0.5859375
 40
0.59375
 40
0.6171875
 40
0.625
 40
0.65625
 40
0.6875
 40
0.6945142946655007
 40
0.703125
 40
0.734375
 40
0.75
 40
0.78125
 40
0.8125
 40
0.84375
 40
0.875
 40
0.90625
 40
0.9375
 40
0.9875
 40
0.990625
 40
0.99375
 40
1.0
 40
1.0
 40
1.0
 40
1.0
 10
0.0000000000847209
 20
119.0
 30
0.0
 10
0.3058699266864356
 20
119.0
 30
0.0
 10
0.7647161630889862
 20
118.9902342309183
 30
0.0
 10
1.375774120321899
 20
118.9581010952052
 30
0.0
 10
4.122094277502834
 20
118.7567947955219
 30
0.0
 10
8.182029121282506
 20
117.7398402450182
 30
0.0
 10
12.96234587668759
 20
115.1875946236695
 30
0.0
 10
16.38131799018901
 20
112.3812758852788
 30
0.0
 10
19.18759204840877
 20
108.9624420951827
 30
0.0
 10
21.31443780127601
 20
104.9785745126997
 30
0.0
 10
22.67564082587357
 20
100.5873302478435
 30
0.0
 10
23.08093173104091
 20
96.7645403603613
 30
0.0
 10
22.87828425579437
 20
92.94179074377875
 30
0.0
 10
22.32389864545218
 20
90.26978476975162
 30
0.0
 10
21.59367985414373
 20
88.10823031322795
 30
0.0
 10
20.76463549410802
 20
85.99158214008709
 30
0.0
 10
19.18759621633339
 20
83.03750560994116
 30
0.0
 10
17.08285628647697
 20
80.4734482853734
 30
0.0
 10
14.956761072262
 20
78.44943143743873
 30
0.0
 10
13.50281750573157
 20
77.3154968446557
 30
0.0
 10
11.30249787055705
 20
75.92620870441546
 30
0.0
 10
9.285105222877398
 20
74.91066396142513
 30
0.0
 10
6.782949772612059
 20
74.00496537548366
 30
0.0
 10
4.932835483171626
 20
73.52891885701408
 30
0.0
 10
3.428236385537307
 20
73.2574462260085
 30
0.0
 10
2.290596687510511
 20
73.11005110109676
 30
0.0
 10
1.146830072922588
 20
73.02039238098483
 30
0.0
 10
0.0000000000106447
 20
72.99050614094601
 30
0.0
 10
-1.146830072976911
 20
73.02039238099
 30
0.0
 10
-2.290596687791668
 20
73.11005110112659
 30
0.0
 10
-3.428236386173915
 20
73.25744622610189
 30
0.0
 10
-4.932835484431043
 20
73.52891885727
 30
0.0
 10
-6.782949774886735
 20
74.0049653761373
 30
0.0
 10
-9.28510522679604
 20
74.91066396303239
 30
0.0
 10
-11.30249787588832
 20
75.92620870730147
 30
0.0
 10
-13.50281751246897
 20
77.31549684938477
 30
0.0
 10
-14.9567610797726
 20
78.44943144371629
 30
0.0
 10
-17.08285629473387
 20
80.47344829433389
 30
0.0
 10
-19.18759622468299
 20
83.03750562213108
 30
0.0
 10
-20.76463549929519
 20
85.99158215140261
 30
0.0
 10
-21.59367985848776
 20
88.10823032514112
 30
0.0
 10
-22.32389864886001
 20
90.26978478206144
 30
0.0
 10
-22.87828425799856
 20
92.9417907599714
 30
0.0
 10
-23.0809317304828
 20
96.76454037614823
 30
0.0
 10
-22.67564082271853
 20
100.5873302624094
 30
0.0
 10
-21.31443779605882
 20
104.9785745250017
 30
0.0
 10
-19.18759204201423
 20
108.9624421045271
 30
0.0
 10
-16.38131798353868
 20
112.3812758917474
 30
0.0
 10
-12.96234587058782
 20
115.1875946275601
 30
0.0
 10
-8.18202911684917
 20
117.7398402463982
 30
0.0
 10
-4.122094276417561
 20
118.7567947957921
 30
0.0
 10
-1.375774119987456
 20
118.958101095252
 30
0.0
 10
-0.7647161628787569
 20
118.9902342309293
 30
0.0
 10
-0.3058699265169885
 20
119.0
 30
0.0
 10
0.0000000000847209
 20
119.0
 30
0.0
  0
SPLINE
  5
77
330
1B
100
AcDbEntity
 67
     1
  8
0
  6
Continuous
 62
     7
370
    25
100
AcDbSpline
210
0.0
220
0.0
230
1.0
 70
     8
 71
     3
 72
    41
 73
    37
 74
     0
 42
0.000000001
 43
0.00000001
 40
0.0
 40
0.0
 40
0.0
 40
0.0
 40
0.0339534669356275
 40
0.0648204420187455
 40
0.0926060437403563
 40
0.1173148807654399
 40
0.1389513537422632
 40
0.1575199291279883
 40
0.1730255567182588
 40
0.1865298334528866
 40
0.1976709894686293
 40
0.2075016400766008
 40
0.216024080116455
 40
0.2239071214900788
 40
0.2324463727869549
 40
0.2472559996194562
 40
0.2635501854960797
 40
0.2805930252231379
 40
0.312732237426947
 40
0.347058206506008
 40
0.383569579029472
 40
0.4087015170918522
 40
0.4365283854270806
 40
0.4673040015442094
 40
0.5010269606236296
 40
0.5376957067221172
 40
0.577308462738809
 40
0.6198631138176568
 40
0.6595110387248544
 40
0.7014087362726493
 40
0.7455548909766074
 40
0.791948617263085
 40
0.8405894844082212
 40
0.891477388685533
 40
0.9446135440403949
 40
1.0
 40
1.0
 40
1.0
 40
1.0
 10
52.10991405256819
 20
-188.2670044008468
 30
0.0
 10
55.43377799573064
 20
-187.8298589419341
 30
0.0
 10
61.7793547350498
 20
-186.9953061132956
 30
0.0
 10
70.81214261566274
 20
-185.3570141750332
 30
0.0
 10
78.91739858366606
 20
-183.6210137652226
 30
0.0
 10
86.10157789133054
 20
-181.8455570492584
 30
0.0
 10
92.37488886444336
 20
-180.1155094259341
 30
0.0
 10
97.74942580842531
 20
-178.4971515684851
 30
0.0
 10
102.3354972619186
 20
-177.0170896836044
 30
0.0
 10
106.2183837713138
 20
-175.691647607647
 30
0.0
 10
109.5552090880268
 20
-174.4990272750436
 30
0.0
 10
112.397021714443
 20
-173.444212943264
 30
0.0
 10
114.9166694397464
 20
-172.4784958491139
 30
0.0
 10
117.3038231921324
 20
-171.5375953164
 30
0.0
 10
120.2853075507394
 20
-170.3297926621839
 30
0.0
 10
124.0547045570758
 20
-168.7436577774074
 30
0.0
 10
128.6066999940862
 20
-166.7318683523924
 30
0.0
 10
134.7468344356025
 20
-163.8772079118271
 30
0.0
 10
142.4838234279111
 20
-160.0137981845849
 30
0.0
 10
151.8542409031196
 20
-154.8874531383004
 30
0.0
 10
160.4058056276571
 20
-149.7579418754263
 30
0.0
 10
168.2202444251441
 20
-144.697123123867
 30
0.0
 10
175.3897269368501
 20
-139.7491767815688
 30
0.0
 10
183.1185229019991
 20
-134.037939325666
 30
0.0
 10
191.3678118584098
 20
-127.477862347411
 30
0.0
 10
200.0669518908685
 20
-119.9948024275847
 30
0.0
 10
209.1346532363849
 20
-111.5146876920333
 30
0.0
 10
218.049490147149
 20
-102.4004109565437
 30
0.0
 10
226.7249873736376
 20
-92.70364676212782
 30
0.0
 10
235.0879188057705
 20
-82.48747745606065
 30
0.0
 10
243.410584194317
 20
-71.30665970098624
 30
0.0
 10
251.5929969938377
 20
-59.12172841231492
 30
0.0
 10
259.5349365576243
 20
-45.90370661109036
 30
0.0
 10
267.100832321926
 20
-31.62011177898251
 30
0.0
 10
274.2464802306419
 20
-16.2871875343281
 30
0.0
 10
278.3455473412548
 20
-5.503597879472425
 30
0.0
 10
280.4375795661296
 20
0.0000000000000555
 30
0.0
  0
SPLINE
  5
78
330
1B
100
AcDbEntity
 67
     1
  8
0
  6
Continuous
 62
     7
370
    25
100
AcDbSpline
210
0.0
220
0.0
230
1.0
 70
     8
 71
     3
 72
    45
 73
    41
 74
     0
 42
0.000000001
 43
0.00000001
 40
0.0
 40
0.0
 40
0.0
 40
0.0
 40
0.046163530829114
 40
0.0903432801199606
 40
0.1325414852595269
 40
0.1727601805051604
 40
0.2110008072865549
 40
0.2580860513712241
 40
0.3017828837957396
 40
0.3420921791041603
 40
0.3780982225977869
 40
0.4108910358204067
 40
0.440470946849102
 40
0.4675784724195364
 40
0.4950323100948737
 40
0.5231115444742461
 40
0.551821053144895
 40
0.5902912785668549
 40
0.6298559531519596
 40
0.6705259675936962
 40
0.6900870337232968
 40
0.708861491499227
 40
0.7253105690901902
 40
0.7394154150977662
 40
0.7511720031022672
 40
0.7601372660283635
 40
0.7669912588696361
 40
0.7719659865130655
 40
0.7767156126602549
 40
0.7831296513017909
 40
0.7913327935559774
 40
0.8023387569931265
 40
0.8163770425642042
 40
0.8334525515397252
 40
0.8535700692007537
 40
0.8767347548563268
 40
0.9029525113674216
 40
0.9322302545349055
 40
0.9645761478649508
 40
1.0
 40
1.0
 40
1.0
 40
1.0
 10
-280.4375795667506
 20
0.0000000000000139
 30
0.0
 10
-278.7112073377888
 20
-4.581095602719881
 30
0.0
 10
-275.3326501288573
 20
-13.54642377107192
 30
0.0
 10
-269.6012302441003
 20
-26.35588300881188
 30
0.0
 10
-263.627307409777
 20
-38.3284628035948
 30
0.0
 10
-257.4403221341067
 20
-49.4582781015159
 30
0.0
 10
-250.5398081905959
 20
-60.74543199992041
 30
0.0
 10
-242.9382854400533
 20
-71.99542472358607
 30
0.0
 10
-234.6825832479863
 20
-83.01884923108909
 30
0.0
 10
-226.6885819489009
 20
-92.74676380663044
 30
0.0
 10
-219.0716159963746
 20
-101.2756392566597
 30
0.0
 10
-211.9267313889331
 20
-108.699789748267
 30
0.0
 10
-205.2052663044457
 20
-115.2270830822784
 30
0.0
 10
-198.6960587513288
 20
-121.1693184352163
 30
0.0
 10
-192.1336421432962
 20
-126.8108469575504
 30
0.0
 10
-185.2750428661192
 20
-132.3524047328384
 30
0.0
 10
-177.3335332035059
 20
-138.3684858514551
 30
0.0
 10
-168.1999729462917
 20
-144.7684704731122
 30
0.0
 10
-157.763264645754
 20
-151.4260215042998
 30
0.0
 10
-148.7676403814635
 20
-156.6108891202545
 30
0.0
 10
-141.5290903255491
 20
-160.4624991507661
 30
0.0
 10
-136.4616515520962
 20
-163.0196717971177
 30
0.0
 10
-131.8635932695574
 20
-165.2259930443033
 30
0.0
 10
-127.8941942716619
 20
-167.0465548105245
 30
0.0
 10
-124.6098335426831
 20
-168.494685715249
 30
0.0
 10
-121.9984223160345
 20
-169.6093325596626
 30
0.0
 10
-120.0228608856286
 20
-170.4315039251483
 30
0.0
 10
-118.4427723508001
 20
-171.0765527584552
 30
0.0
 10
-116.8994218769033
 20
-171.696557447667
 30
0.0
 10
-115.0435490856468
 20
-172.4282949949764
 30
0.0
 10
-112.5807948631291
 20
-173.3753610073126
 30
0.0
 10
-109.3979839191402
 20
-174.5590539970193
 30
0.0
 10
-105.3637407514983
 20
-175.9937190785282
 30
0.0
 10
-100.447827834903
 20
-177.6433783453669
 30
0.0
 10
-94.63789820627325
 20
-179.4554281896079
 30
0.0
 10
-87.9221672623503
 20
-181.36635249896
 30
0.0
 10
-80.28930560809422
 20
-183.3044949184852
 30
0.0
 10
-71.72962039586083
 20
-185.178968213369
 30
0.0
 10
-62.23813417977287
 20
-186.929197975143
 30
0.0
 10
-55.58668567925861
 20
-187.8077679934561
 30
0.0
 10
-52.10991405278893
 20
-188.2670044005787
 30
0.0
  0
SPLINE
  5
79
330
1B
100
AcDbEntity
 67
     1
  8
0
  6
Continuous
 62
     7
370
    25
100
AcDbSpline
210
0.0
220
0.0
230
1.0
 70
     8
 71
     3
 72
     9
 73
     5
 74
     0
 42
0.000000001
 43
0.00000001
 40
0.0
 40
0.0
 40
0.0
 40
0.0
 40
0.4957497030947954
 40
0.9999999999999999
 40
0.9999999999999999
 40
0.9999999999999999
 40
0.9999999999999999
 10
40.52343385510541
 20
-189.4289953528358
 30
0.0
 10
42.51984510107837
 20
-189.2564551746511
 30
0.0
 10
46.54689995055192
 20
-188.9084162810168
 30
0.0
 10
50.26174408707808
 20
-188.4800168324869
 30
0.0
 10
52.13495534587795
 20
-188.2639962833717
 30
0.0
  0
SPLINE
  5
7A
330
1B
100
AcDbEntity
 67
     1
  8
0
  6
Continuous
 62
     7
370
    25
100
AcDbSpline
210
0.0
220
0.0
230
1.0
 70
     8
 71
     3
 72
     9
 73
     5
 74
     0
 42
0.000000001
 43
0.00000001
 40
0.0
 40
0.0
 40
0.0
 40
0.0
 40
0.5042502969084747
 40
0.9999999999999999
 40
0.9999999999999999
 40
0.9999999999999999
 40
0.9999999999999999
 10
-52.13495534595508
 20
-188.2639962831208
 30
0.0
 10
-50.26174408724251
 20
-188.4800168322506
 30
0.0
 10
-46.54689995091356
 20
-188.9084162808066
 30
0.0
 10
-42.51984510132844
 20
-189.256455174523
 30
0.0
 10
-40.52343385531333
 20
-189.4289953527473
 30
0.0
  0
SPLINE
  5
7B
330
1B
100
AcDbEntity
 67
     1
  8
0
  6
Continuous
 62
     7
370
    25
100
AcDbSpline
210
0.0
220
0.0
230
1.0
 70
     8
 71
     3
 72
     9
 73
     5
 74
     0
 42
0.000000001
 43
0.00000001
 40
0.0
 40
0.0
 40
0.0
 40
0.0
 40
0.5006961992629647
 40
1.0
 40
1.0
 40
1.0
 40
1.0
 10
41.30532461298451
 20
-194.9999999999999
 30
0.0
 10
41.2598166326243
 20
-194.0544408570677
 30
0.0
 10
41.16892722617944
 20
-192.1659521001644
 30
0.0
 10
41.08515316884598
 20
-190.2769716278488
 30
0.0
 10
41.04332446361624
 20
-189.3337964985036
 30
0.0
  0
SPLINE
  5
7C
330
1B
100
AcDbEntity
 67
     1
  8
0
  6
Continuous
 62
     7
370
    25
100
AcDbSpline
210
0.0
220
0.0
230
1.0
 70
     8
 71
     3
 72
     9
 73
     5
 74
     0
 42
0.000000001
 43
0.00000001
 40
0.0
 40
0.0
 40
0.0
 40
0.0
 40
0.4993038007357781
 40
1.0
 40
1.0
 40
1.0
 40
1.0
 10
-41.04332446312566
 20
-189.3337964984491
 30
0.0
 10
-41.08515316844372
 20
-190.2769716278017
 30
0.0
 10
-41.16892722595425
 20
-192.1659521001371
 30
0.0
 10
-41.25981663259832
 20
-194.0544408570571
 30
0.0
 10
-41.30532461305839
 20
-195.0000000000002
 30
0.0
  0
SPLINE
  5
7D
330
1B
100
AcDbEntity
 67
     1
  8
0
  6
Continuous
 62
     7
370
    25
100
AcDbSpline
210
0.0
220
0.0
230
1.0
 70
     8
 71
     3
 72
    27
 73
    23
 74
     0
 42
0.000000001
 43
0.00000001
 40
0.0
 40
0.0
 40
0.0
 40
0.0
 40
0.0020334974717735
 40
0.0457651036864932
 40
0.0902315018738388
 40
0.1363022990878822
 40
0.1905299001368642
 40
0.2484559118526628
 40
0.3096568570338891
 40
0.372813105804433
 40
0.4367519492068149
 40
0.4999951724815813
 40
0.5632383957634768
 40
0.6271772391859141
 40
0.6903334879851325
 40
0.7515344331969988
 40
0.8094604449387105
 40
0.8636880460062074
 40
0.9097588432315716
 40
0.9542252414263288
 40
0.9979568476448594
 40
1.0
 40
1.0
 40
1.0
 40
1.0
 10
52.08463210188742
 20
-188.2665005907689
 30
0.0
 10
52.06679687793426
 20
-188.269778539658
 30
0.0
 10
51.66540426013233
 20
-188.3435507832308
 30
0.0
 10
50.14969460509182
 20
-188.4274115117934
 30
0.0
 10
47.41255370350859
 20
-188.5236817698783
 30
0.0
 10
43.52108635969659
 20
-188.5680481461808
 30
0.0
 10
38.43905868751892
 20
-188.5753518717065
 30
0.0
 10
32.06665976374446
 20
-188.5518412787684
 30
0.0
 10
24.75173132111452
 20
-188.5114983215582
 30
0.0
 10
16.77108232915277
 20
-188.4662321973513
 30
0.0
 10
8.44523514701843
 20
-188.4289413263913
 30
0.0
 10
-0.0000000009005249
 20
-188.4117327606833
 30
0.0
 10
-8.445235143683357
 20
-188.4289413260638
 30
0.0
 10
-16.77108234635389
 20
-188.4662321984709
 30
0.0
 10
-24.75173127611584
 20
-188.5114983170914
 30
0.0
 10
-32.06665995282386
 20
-188.5518412939024
 30
0.0
 10
-38.43905808188852
 20
-188.5753518190578
 30
0.0
 10
-43.52108837535378
 20
-188.5680483163287
 30
0.0
 10
-47.41254754807166
 20
-188.5236812452077
 30
0.0
 10
-50.14971669552653
 20
-188.4274133889633
 30
0.0
 10
-51.66551800289407
 20
-188.343537689843
 30
0.0
 10
-52.0669707812545
 20
-188.2697477978618
 30
0.0
 10
-52.08488959099031
 20
-188.2664541924714
 30
0.0
  0
SPLINE
  5
7E
330
1B
100
AcDbEntity
 67
     1
  8
0
  6
Continuous
 62
     7
370
    25
100
AcDbSpline
210
0.0
220
0.0
230
1.0
 70
    24
 71
     3
 72
    56
 73
    52
 74
     0
 42
0.000000001
 43
0.00000001
 40
0.0
 40
0.0
 40
0.0
 40
0.0
 40
0.0138236481794942
 40
0.0288822182257471
 40
0.0444613248858338
 40
0.0606014471113097
 40
0.0763767876578195
 40
0.0927430703157136
 40
0.1097578415392177
 40
0.1274879044667574
 40
0.1460092269604986
 40
0.1644118308613397
 40
0.1836208065286659
 40
0.2036118767046394
 40
0.2243548945694457
 40
0.2458172837414591
 40
0.2675273408359043
 40
0.2897533683885958
 40
0.3123755070825568
 40
0.335280456705765
 40
0.362802926057206
 40
0.3904901118590228
 40
0.4182357358491346
 40
0.4458566250029881
 40
0.4731843501148391
 40
0.4999963173308662
 40
0.5228958664411671
 40
0.5461907340884457
 40
0.5697370721314756
 40
0.593443106655679
 40
0.6171690925606573
 40
0.6404083263118729
 40
0.6635228019175033
 40
0.6864400211396684
 40
0.7090794306706145
 40
0.7317780511413496
 40
0.7539433207595467
 40
0.7754594270137063
 40
0.7962534496666548
 40
0.8162924074718174
 40
0.8355459902113529
 40
0.853989703067375
 40
0.8736067685057
 40
0.8923391239010194
 40
0.9102764386892185
 40
0.9274966933602243
 40
0.9440664418330572
 40
0.9600418362091455
 40
0.9746010278475419
 40
0.9887080559797791
 40
1.0
 40
1.0
 40
1.0
 40
1.0
 10
280.4151819693635
 20
0.0000000000000555
 30
0.0
 10
280.3559236860764
 20
0.0000000000000555
 30
0.0
 10
280.2321133396788
 20
0.0000000000000555
 30
0.0
 10
278.9184049921012
 20
0.0000000000000555
 30
0.0
 10
276.6934571403622
 20
0.0000000000000555
 30
0.0
 10
273.4877008412618
 20
0.0000000000000555
 30
0.0
 10
269.3397907524088
 20
0.0000000000000416
 30
0.0
 10
264.2543397331551
 20
0.0000000000000555
 30
0.0
 10
258.1011245777269
 20
0.0000000000000555
 30
0.0
 10
250.8244608151572
 20
0.0000000000000555
 30
0.0
 10
242.5208845916596
 20
0.0000000000000555
 30
0.0
 10
233.212614304562
 20
0.0000000000000416
 30
0.0
 10
222.9362664272067
 20
0.0000000000000278
 30
0.0
 10
211.5523638475758
 20
0.0000000000000139
 30
0.0
 10
199.0812851987882
 20
0.0000000000000139
 30
0.0
 10
185.6431205681804
 20
0.0000000000000139
 30
0.0
 10
171.3312614066353
 20
0.0000000000000278
 30
0.0
 10
156.2778680065209
 20
0.0000000000000416
 30
0.0
 10
140.5210133904503
 20
0.0000000000000416
 30
0.0
 10
123.1229840204136
 20
0.0000000000000278
 30
0.0
 10
104.1105144097892
 20
0.0
 30
0.0
 10
83.54202987949594
 20
-0.0000000000000139
 30
0.0
 10
62.65811574051039
 20
-0.0000000000000139
 30
0.0
 10
41.65626372420867
 20
0.0
 30
0.0
 10
20.75757529773969
 20
0.0000000000000278
 30
0.0
 10
1.003034907229073
 20
0.0000000000000278
 30
0.0
 10
-17.71641171878248
 20
0.0000000000000139
 30
0.0
 10
-35.55735918869188
 20
0.0
 30
0.0
 10
-53.5202903551012
 20
-0.0000000000000139
 30
0.0
 10
-71.46411899632054
 20
-0.0000000000000278
 30
0.0
 10
-89.15286404877949
 20
-0.0000000000000139
 30
0.0
 10
-106.4687294096175
 20
0.0
 30
0.0
 10
-123.3115260482149
 20
0.0000000000000139
 30
0.0
 10
-139.6854373632559
 20
0.0000000000000278
 30
0.0
 10
-155.5801730162397
 20
0.0000000000000139
 30
0.0
 10
-170.8670089584024
 20
0.0
 30
0.0
 10
-185.4054842943333
 20
-0.0000000000000139
 30
0.0
 10
-198.9672969393359
 20
-0.0000000000000139
 30
0.0
 10
-211.4739022792178
 20
-0.0000000000000139
 30
0.0
 10
-222.8887384744224
 20
0.0
 30
0.0
 10
-233.1912927784593
 20
0.0
 30
0.0
 10
-242.6962989548454
 20
0.0000000000000139
 30
0.0
 10
-251.3017567728494
 20
0.0
 30
0.0
 10
-258.9122000794173
 20
-0.0000000000000139
 30
0.0
 10
-265.265667876757
 20
-0.0000000000000139
 30
0.0
 10
-270.4290929597037
 20
-0.0000000000000139
 30
0.0
 10
-274.4632425437744
 20
0.0
 30
0.0
 10
-277.3829956253896
 20
0.0000000000000139
 30
0.0
 10
-279.2767643884815
 20
0.0000000000000278
 30
0.0
 10
-280.3099796285371
 20
0.0000000000000278
 30
0.0
 10
-280.359584331181
 20
0.0000000000000278
 30
0.0
 10
-280.3816377246031
 20
0.0000000000000139
 30
0.0
  0
SPLINE
  5
7F
330
1B
100
AcDbEntity
 67
     1
  8
0
  6
Continuous
 62
     7
370
    25
100
AcDbSpline
210
0.0
220
0.0
230
1.0
 70
     8
 71
     3
 72
    27
 73
    23
 74
     0
 42
0.000000001
 43
0.00000001
 40
0.0
 40
0.0
 40
0.0
 40
0.0
 40
0.0079709878175505
 40
0.0609027979807432
 40
0.1133161344685129
 40
0.1667477433529793
 40
0.2166949929960668
 40
0.2697030471906863
 40
0.3255974644729861
 40
0.3833367339673932
 40
0.4419096312192626
 40
0.4999999999810617
 40
0.5580903687493074
 40
0.6166632660192348
 40
0.6744025355394189
 40
0.7302969528493862
 40
0.783305007067865
 40
0.8332522567288458
 40
0.8866838656276848
 40
0.9390972021249295
 40
0.9920290122929779
 40
0.9999999999999999
 40
0.9999999999999999
 40
0.9999999999999999
 40
0.9999999999999999
 10
40.45462874169821
 20
-189.4289718277705
 30
0.0
 10
40.42537689842791
 20
-189.4327133299573
 30
0.0
 10
40.20187648141145
 20
-189.4613004959444
 30
0.0
 10
38.95812713312289
 20
-189.4979204595745
 30
0.0
 10
36.55390199013331
 20
-189.5373808354574
 30
0.0
 10
33.16047071634963
 20
-189.5592996008048
 30
0.0
 10
28.99818034309618
 20
-189.5703263557533
 30
0.0
 10
24.16622613372191
 20
-189.5739005931063
 30
0.0
 10
18.64462885957012
 20
-189.572875295633
 30
0.0
 10
12.63286077318088
 20
-189.5693757115578
 30
0.0
 10
6.362328144956488
 20
-189.5655571544725
 30
0.0
 10
0.0000000000528206
 20
-189.5635095673697
 30
0.0
 10
-6.362328145512334
 20
-189.5655571544597
 30
0.0
 10
-12.63286077552132
 20
-189.5693757115313
 30
0.0
 10
-18.64462886424336
 20
-189.5728752955912
 30
0.0
 10
-24.1662261405082
 20
-189.5739005930476
 30
0.0
 10
-28.99818035109113
 20
-189.570326355675
 30
0.0
 10
-33.16047072436672
 20
-189.5592996007019
 30
0.0
 10
-36.55390199703911
 20
-189.5373808353257
 30
0.0
 10
-38.958127137757
 20
-189.4979204594003
 30
0.0
 10
-40.20187648374283
 20
-189.4613004957821
 30
0.0
 10
-40.42537689973555
 20
-189.432713329834
 30
0.0
 10
-40.45462874251701
 20
-189.4289718276978
 30
0.0
  0
SPLINE
  5
80
330
1B
100
AcDbEntity
 67
     1
  8
0
  6
Continuous
 62
     7
370
    25
100
AcDbSpline
210
0.0
220
0.0
230
1.0
 70
    24
 71
     3
 72
    27
 73
    23
 74
     0
 42
0.000000001
 43
0.00000001
 40
0.0
 40
0.0
 40
0.0
 40
0.0
 40
0.0250018348309736
 40
0.0729514488058942
 40
0.1198076271145787
 40
0.166338419064149
 40
0.2136279206975973
 40
0.26639977380323
 40
0.3223126488658243
 40
0.3807705791117854
 40
0.4404820076622565
 40
0.4999999999904568
 40
0.5595179923259826
 40
0.6192294208962402
 40
0.6776873511685263
 40
0.7336002262562981
 40
0.7863720793814422
 40
0.8336615810282614
 40
0.8801923729868762
 40
0.9270485513001677
 40
0.9749981652759253
 40
1.0
 40
1.0
 40
1.0
 40
1.0
 10
41.19954667214046
 20
-194.9999999999999
 30
0.0
 10
41.22396892636222
 20
-194.9999999999999
 30
0.0
 10
41.29522924947963
 20
-194.9999999999999
 30
0.0
 10
40.50398009229747
 20
-195.0
 30
0.0
 10
38.80778611821728
 20
-194.9999999999999
 30
0.0
 10
36.13353763875436
 20
-195.0
 30
0.0
 10
32.40185037251549
 20
-194.9999999999997
 30
0.0
 10
27.52026868723263
 20
-195.0000000000006
 30
0.0
 10
21.51477358329992
 20
-194.9999999999996
 30
0.0
 10
14.71997286340191
 20
-194.9999999999998
 30
0.0
 10
7.456093003687104
 20
-195.0000000000006
 30
0.0
 10
-0.0000000000877281
 20
-194.9999999999993
 30
0.0
 10
-7.45609300466893
 20
-195.0000000000006
 30
0.0
 10
-14.71997286645454
 20
-194.9999999999997
 30
0.0
 10
-21.51477358876719
 20
-194.9999999999997
 30
0.0
 10
-27.52026869441137
 20
-195.0000000000005
 30
0.0
 10
-32.4018503801144
 20
-194.9999999999995
 30
0.0
 10
-36.13353764551906
 20
-195.0000000000006
 30
0.0
 10
-38.80778612339793
 20
-194.9999999999999
 30
0.0
 10
-40.50398009528801
 20
-194.9999999999995
 30
0.0
 10
-41.29522925040545
 20
-195.0000000000002
 30
0.0
 10
-41.22396892660961
 20
-195.0000000000001
 30
0.0
 10
-41.19954667222427
 20
-195.0000000000001
 30
0.0
  0
VIEWPORT
  5
FC
330
1B
100
AcDbEntity
 67
     1
  8
0
100
AcDbViewport
 10
0.0
 20
0.0
 30
0.0
 40
205.6
 41
156.0
 68
     1
 69
     1
 12
0.0000000006
 22
-0.7645283725
 13
0.0
 23
0.0
 14
10.0
 24
10.0
 15
10.0
 25
10.0
 16
0.0
 26
0.0
 36
1.0
 17
0.0
 27
0.0
 37
0.0
 42
50.0
 43
0.0
 44
0.0
 45
434.0222782612
 50
0.0
 51
0.0
 72
   100
 90
   557152
  1

281
     0
 71
     1
 74
     0
110
0.0
120
0.0
130
0.0
111
1.0
121
0.0
131
0.0
112
0.0
122
1.0
132
0.0
 79
     0
146
0.0
170
     0
 61
     5
348
2F
292
     1
282
     1
141
0.0
142
0.0
 63
   256
361
FD
  0
ENDSEC
  0
SECTION
  2
OBJECTS
  0
DICTIONARY
  5
C
330
0
100
AcDbDictionary
281
     1
  3
ACAD_DETAILVIEWSTYLE
350
115
  3
ACAD_GROUP
350
D
  3
ACAD_LAYOUT
350
1A
  3
ACAD_MATERIAL
350
43
  3
ACAD_MLEADERSTYLE
350
6B
  3
ACAD_MLINESTYLE
350
17
  3
ACAD_PLOTSETTINGS
350
19
  3
ACAD_PLOTSTYLENAME
350
E
  3
ACAD_SCALELIST
350
47
  3
ACAD_SECTIONVIEWSTYLE
350
116
  3
ACAD_TABLESTYLE
350
69
  3
ACAD_VISUALSTYLE
350
2A
  3
ACDB_RECOMPOSE_DATA
350
112
  3
AcDbVariableDictionary
350
10E
  0
SUN
  5
6D
330
29
100
AcDbSun
 90
        1
290
     0
 63
     7
421
 16777215
 40
1.0
291
     1
 91
  2455826
 92
 54000000
292
     0
 70
     2
 71
   256
280
     1
  0
SUN
  5
FF
330
FE
100
AcDbSun
 90
        1
290
     0
 63
     7
421
 16777215
 40
1.0
291
     1
 91
  2455826
 92
 54000000
292
     0
 70
     2
 71
   256
280
     1
  0
SUN
  5
101
330
100
100
AcDbSun
 90
        1
290
     0
 63
     7
421
 16777215
 40
1.0
291
     1
 91
  2455826
 92
 54000000
292
     0
 70
     2
 71
   256
280
     1
  0
SUN
  5
103
330
102
100
AcDbSun
 90
        1
290
     0
 63
     7
421
 16777215
 40
1.0
291
     1
 91
  2455826
 92
 54000000
292
     0
 70
     2
 71
   256
280
     1
  0
SUN
  5
105
330
104
100
AcDbSun
 90
        1
290
     0
 63
     7
421
 16777215
 40
1.0
291
     1
 91
  2455826
 92
 54000000
292
     0
 70
     2
 71
   256
280
     1
  0
SUN
  5
107
330
106
100
AcDbSun
 90
        1
290
     0
 63
     7
421
 16777215
 40
1.0
291
     1
 91
  2455826
 92
 54000000
292
     0
 70
     2
 71
   256
280
     1
  0
SUN
  5
109
330
108
100
AcDbSun
 90
        1
290
     0
 63
     7
421
 16777215
 40
1.0
291
     1
 91
  2455826
 92
 54000000
292
     0
 70
     2
 71
   256
280
     1
  0
SUN
  5
10B
330
10A
100
AcDbSun
 90
        1
290
     0
 63
     7
421
 16777215
 40
1.0
291
     1
 91
  2455826
 92
 54000000
292
     0
 70
     2
 71
   256
280
     1
  0
SUN
  5
10D
330
10C
100
AcDbSun
 90
        1
290
     0
 63
     7
421
 16777215
 40
1.0
291
     1
 91
  2455826
 92
 54000000
292
     0
 70
     2
 71
   256
280
     1
  0
SUN
  5
FD
330
FC
100
AcDbSun
 90
        1
290
     0
 63
     7
421
 16777215
 40
1.0
291
     1
 91
  2455826
 92
 54000000
292
     0
 70
     2
 71
   256
280
     1
  0
DICTIONARY
  5
115
102
{ACAD_REACTORS
330
C
102
}
330
C
100
AcDbDictionary
281
     1
  0
DICTIONARY
  5
D
102
{ACAD_REACTORS
330
C
102
}
330
C
100
AcDbDictionary
281
     1
  0
DICTIONARY
  5
1A
102
{ACAD_REACTORS
330
C
102
}
330
C
100
AcDbDictionary
281
     1
  3
_Dimetrisch
350
F6
  3
_Isometrisch
350
D6
  3
_Links
350
26
  3
_Normal auf
350
91
  3
_Rechts
350
B1
  3
_Rückseite
350
9F
  3
_Trimetrisch
350
EB
  3
_Unten
350
C2
  3
_Vorderseite
350
1E
  3
Model
350
22
  0
DICTIONARY
  5
43
102
{ACAD_REACTORS
330
C
102
}
330
C
100
AcDbDictionary
281
     1
  3
ByBlock
350
45
  3
ByLayer
350
44
  3
Global
350
46
  0
DICTIONARY
  5
6B
102
{ACAD_REACTORS
330
C
102
}
330
C
100
AcDbDictionary
281
     1
  3
Standard
350
6C
  0
DICTIONARY
  5
17
102
{ACAD_REACTORS
330
C
102
}
330
C
100
AcDbDictionary
281
     1
  3
Standard
350
18
  0
DICTIONARY
  5
19
102
{ACAD_REACTORS
330
C
102
}
330
C
100
AcDbDictionary
281
     1
  0
ACDBDICTIONARYWDFLT
  5
E
102
{ACAD_REACTORS
330
C
102
}
330
C
100
AcDbDictionary
281
     1
  3
Normal
350
F
100
AcDbDictionaryWithDefault
340
F
  0
DICTIONARY
  5
47
102
{ACAD_REACTORS
330
C
102
}
330
C
100
AcDbDictionary
281
     1
  3
A0
350
48
  3
A1
350
49
  3
A2
350
4A
  3
A3
350
4B
  3
A4
350
4C
  3
A5
350
4D
  3
A6
350
4E
  3
A7
350
4F
  3
A8
350
50
  3
A9
350
51
  3
B0
350
52
  3
B1
350
53
  3
B2
350
54
  3
B3
350
55
  3
B4
350
56
  3
B5
350
57
  3
B6
350
58
  3
B7
350
59
  3
B8
350
5A
  3
B9
350
5B
  3
C0
350
5C
  3
C1
350
5D
  3
C2
350
5E
  3
C3
350
5F
  3
C4
350
60
  3
C5
350
61
  3
C6
350
62
  3
C7
350
63
  3
C8
350
64
  3
C9
350
65
  3
D0
350
66
  3
D1
350
67
  3
D2
350
68
  0
DICTIONARY
  5
116
102
{ACAD_REACTORS
330
C
102
}
330
C
100
AcDbDictionary
281
     1
  0
DICTIONARY
  5
69
102
{ACAD_REACTORS
330
C
102
}
330
C
100
AcDbDictionary
281
     1
  3
Standard
350
6A
  0
DICTIONARY
  5
2A
102
{ACAD_REACTORS
330
C
102
}
330
C
100
AcDbDictionary
281
     1
  3
2dWireframe
350
2F
  3
Basic
350
32
  3
Brighten
350
36
  3
ColorChange
350
3A
  3
Conceptual
350
34
  3
Dim
350
35
  3
EdgeColorOff
350
3D
  3
Facepattern
350
39
  3
Flat
350
2B
  3
FlatWithEdges
350
2C
  3
Gouraud
350
2D
  3
GouraudWithEdges
350
2E
  3
Hidden
350
31
  3
JitterOff
350
3B
  3
Linepattern
350
38
  3
OverhangOff
350
3C
  3
Realistic
350
33
  3
Shaded
350
42
  3
Shaded with edges
350
41
  3
Shades of Gray
350
3E
  3
Sketchy
350
3F
  3
Thicken
350
37
  3
Wireframe
350
30
  3
X-Ray
350
40
  0
XRECORD
  5
112
102
{ACAD_REACTORS
330
C
102
}
330
C
100
AcDbXrecord
280
     1
 90
        1
330
6A
  0
DICTIONARY
  5
10E
102
{ACAD_REACTORS
330
C
102
}
330
C
100
AcDbDictionary
281
     1
  3
CANNOSCALE
350
10F
  3
CMLEADERSTYLE
350
114
  3
CTABLESTYLE
350
113
  0
LAYOUT
  5
F6
102
{ACAD_REACTORS
330
1A
102
}
330
1A
100
AcDbPlotSettings
  1

  2
none_device
  4
ISO_A4_(210.00_x_297.00_MM)
  6

 40
7.5
 41
20.0
 42
7.5
 43
20.0
 44
210.0
 45
297.0
 46
0.0
 47
0.0
 48
0.0
 49
0.0
140
0.0
141
0.0
142
1.0
143
2.1823936153
 70
   688
 72
     1
 73
     1
 74
     1
  7

 75
     0
 76
     0
 77
     2
 78
   300
147
0.4582124842
148
280.4375795668
149
195.0
100
AcDbLayout
  1
_Dimetrisch
 70
     1
 71
     9
 10
0.0
 20
0.0
 11
0.0
 21
0.0
 12
0.0
 22
0.0
 32
0.0
 14
0.0
 24
0.0
 34
0.0
 15
0.0
 25
0.0
 35
0.0
146
0.0
 13
0.0
 23
0.0
 33
0.0
 16
1.0
 26
0.0
 36
0.0
 17
0.0
 27
1.0
 37
0.0
 76
     0
330
F5
331
10C
  0
LAYOUT
  5
D6
102
{ACAD_REACTORS
330
1A
102
}
330
1A
100
AcDbPlotSettings
  1

  2
none_device
  4
ISO_A4_(210.00_x_297.00_MM)
  6

 40
7.5
 41
20.0
 42
7.5
 43
20.0
 44
210.0
 45
297.0
 46
0.0
 47
0.0
 48
0.0
 49
0.0
140
0.0
141
0.0
142
1.0
143
2.1823936153
 70
   688
 72
     1
 73
     1
 74
     1
  7

 75
     0
 76
     0
 77
     2
 78
   300
147
0.4582124842
148
280.4375795668
149
195.0
100
AcDbLayout
  1
_Isometrisch
 70
     1
 71
     7
 10
0.0
 20
0.0
 11
0.0
 21
0.0
 12
0.0
 22
0.0
 32
0.0
 14
0.0
 24
0.0
 34
0.0
 15
0.0
 25
0.0
 35
0.0
146
0.0
 13
0.0
 23
0.0
 33
0.0
 16
1.0
 26
0.0
 36
0.0
 17
0.0
 27
1.0
 37
0.0
 76
     0
330
D5
331
108
  0
LAYOUT
  5
26
102
{ACAD_REACTORS
330
1A
102
}
330
1A
100
AcDbPlotSettings
  1

  2
none_device
  4
ISO_A4_(210.00_x_297.00_MM)
  6

 40
7.5
 41
20.0
 42
7.5
 43
20.0
 44
210.0
 45
297.0
 46
0.0
 47
0.0
 48
0.0
 49
0.0
140
0.0
141
0.0
142
1.0
143
2.1823936153
 70
   688
 72
     1
 73
     1
 74
     1
  7

 75
     0
 76
     0
 77
     2
 78
   300
147
0.4582124842
148
280.4375795668
149
195.0
100
AcDbLayout
  1
_Links
 70
     1
 71
     2
 10
0.0
 20
0.0
 11
0.0
 21
0.0
 12
0.0
 22
0.0
 32
0.0
 14
0.0
 24
0.0
 34
0.0
 15
0.0
 25
0.0
 35
0.0
146
0.0
 13
0.0
 23
0.0
 33
0.0
 16
1.0
 26
0.0
 36
0.0
 17
0.0
 27
1.0
 37
0.0
 76
     0
330
23
331
FE
  0
LAYOUT
  5
91
102
{ACAD_REACTORS
330
1A
102
}
330
1A
100
AcDbPlotSettings
  1

  2
none_device
  4
ISO_A4_(210.00_x_297.00_MM)
  6

 40
7.5
 41
20.0
 42
7.5
 43
20.0
 44
210.0
 45
297.0
 46
0.0
 47
0.0
 48
0.0
 49
0.0
140
0.0
141
0.0
142
1.0
143
2.1823936153
 70
   688
 72
     1
 73
     1
 74
     1
  7

 75
     0
 76
     0
 77
     2
 78
   300
147
0.4582124842
148
280.4375795668
149
195.0
100
AcDbLayout
  1
_Normal auf
 70
     1
 71
     3
 10
0.0
 20
0.0
 11
0.0
 21
0.0
 12
0.0
 22
0.0
 32
0.0
 14
0.0
 24
0.0
 34
0.0
 15
0.0
 25
0.0
 35
0.0
146
0.0
 13
0.0
 23
0.0
 33
0.0
 16
1.0
 26
0.0
 36
0.0
 17
0.0
 27
1.0
 37
0.0
 76
     0
330
90
331
100
  0
LAYOUT
  5
B1
102
{ACAD_REACTORS
330
1A
102
}
330
1A
100
AcDbPlotSettings
  1

  2
none_device
  4
ISO_A4_(210.00_x_297.00_MM)
  6

 40
7.5
 41
20.0
 42
7.5
 43
20.0
 44
210.0
 45
297.0
 46
0.0
 47
0.0
 48
0.0
 49
0.0
140
0.0
141
0.0
142
1.0
143
2.1823936153
 70
   688
 72
     1
 73
     1
 74
     1
  7

 75
     0
 76
     0
 77
     2
 78
   300
147
0.4582124842
148
280.4375795668
149
195.0
100
AcDbLayout
  1
_Rechts
 70
     1
 71
     5
 10
0.0
 20
0.0
 11
0.0
 21
0.0
 12
0.0
 22
0.0
 32
0.0
 14
0.0
 24
0.0
 34
0.0
 15
0.0
 25
0.0
 35
0.0
146
0.0
 13
0.0
 23
0.0
 33
0.0
 16
1.0
 26
0.0
 36
0.0
 17
0.0
 27
1.0
 37
0.0
 76
     0
330
B0
331
104
  0
LAYOUT
  5
9F
102
{ACAD_REACTORS
330
1A
102
}
330
1A
100
AcDbPlotSettings
  1

  2
none_device
  4
ISO_A4_(210.00_x_297.00_MM)
  6

 40
7.5
 41
20.0
 42
7.5
 43
20.0
 44
210.0
 45
297.0
 46
0.0
 47
0.0
 48
0.0
 49
0.0
140
0.0
141
0.0
142
1.0
143
2.1823936153
 70
   688
 72
     1
 73
     1
 74
     1
  7

 75
     0
 76
     0
 77
     2
 78
   300
147
0.4582124842
148
280.4375795668
149
195.0
100
AcDbLayout
  1
_Rückseite
 70
     1
 71
     4
 10
0.0
 20
0.0
 11
0.0
 21
0.0
 12
0.0
 22
0.0
 32
0.0
 14
0.0
 24
0.0
 34
0.0
 15
0.0
 25
0.0
 35
0.0
146
0.0
 13
0.0
 23
0.0
 33
0.0
 16
1.0
 26
0.0
 36
0.0
 17
0.0
 27
1.0
 37
0.0
 76
     0
330
9E
331
102
  0
LAYOUT
  5
EB
102
{ACAD_REACTORS
330
1A
102
}
330
1A
100
AcDbPlotSettings
  1

  2
none_device
  4
ISO_A4_(210.00_x_297.00_MM)
  6

 40
7.5
 41
20.0
 42
7.5
 43
20.0
 44
210.0
 45
297.0
 46
0.0
 47
0.0
 48
0.0
 49
0.0
140
0.0
141
0.0
142
1.0
143
2.1823936153
 70
   688
 72
     1
 73
     1
 74
     1
  7

 75
     0
 76
     0
 77
     2
 78
   300
147
0.4582124842
148
280.4375795668
149
195.0
100
AcDbLayout
  1
_Trimetrisch
 70
     1
 71
     8
 10
0.0
 20
0.0
 11
0.0
 21
0.0
 12
0.0
 22
0.0
 32
0.0
 14
0.0
 24
0.0
 34
0.0
 15
0.0
 25
0.0
 35
0.0
146
0.0
 13
0.0
 23
0.0
 33
0.0
 16
1.0
 26
0.0
 36
0.0
 17
0.0
 27
1.0
 37
0.0
 76
     0
330
EA
331
10A
  0
LAYOUT
  5
C2
102
{ACAD_REACTORS
330
1A
102
}
330
1A
100
AcDbPlotSettings
  1

  2
none_device
  4
ISO_A4_(210.00_x_297.00_MM)
  6

 40
7.5
 41
20.0
 42
7.5
 43
20.0
 44
210.0
 45
297.0
 46
0.0
 47
0.0
 48
0.0
 49
0.0
140
0.0
141
0.0
142
1.0
143
2.1823936153
 70
   688
 72
     1
 73
     1
 74
     1
  7

 75
     0
 76
     0
 77
     2
 78
   300
147
0.4582124842
148
280.4375795668
149
195.0
100
AcDbLayout
  1
_Unten
 70
     1
 71
     6
 10
0.0
 20
0.0
 11
0.0
 21
0.0
 12
0.0
 22
0.0
 32
0.0
 14
0.0
 24
0.0
 34
0.0
 15
0.0
 25
0.0
 35
0.0
146
0.0
 13
0.0
 23
0.0
 33
0.0
 16
1.0
 26
0.0
 36
0.0
 17
0.0
 27
1.0
 37
0.0
 76
     0
330
C1
331
106
  0
LAYOUT
  5
1E
102
{ACAD_REACTORS
330
1A
102
}
330
1A
100
AcDbPlotSettings
  1

  2
none_device
  4
ISO_A4_(210.00_x_297.00_MM)
  6

 40
7.5
 41
20.0
 42
7.5
 43
20.0
 44
210.0
 45
297.0
 46
0.0
 47
0.0
 48
0.0
 49
0.0
140
0.0
141
0.0
142
1.0
143
2.1823936153
 70
   688
 72
     1
 73
     1
 74
     1
  7

 75
     0
 76
     0
 77
     2
 78
   300
147
0.4582124842
148
280.4375795668
149
195.0
100
AcDbLayout
  1
_Vorderseite
 70
     1
 71
     1
 10
-324.0854518728
 20
-211.3679521148
 11
324.0854518722
 21
246.9347070989
 12
0.0
 22
0.0
 32
0.0
 14
-280.4375795668
 24
-195.0
 34
0.0
 15
280.4375795661
 25
0.0
 35
0.0
146
0.0
 13
0.0
 23
0.0
 33
0.0
 16
1.0
 26
0.0
 36
0.0
 17
0.0
 27
1.0
 37
0.0
 76
     0
330
1B
331
FC
  0
LAYOUT
  5
22
102
{ACAD_REACTORS
330
1A
102
}
330
1A
100
AcDbPlotSettings
  1

  2
none_device
  4
ANSI_A_(11.00_x_8.50_Inches)
  6

 40
6.35
 41
19.05
 42
6.35000508
 43
19.05000254
 44
279.4
 45
215.9
 46
133.3499974597
 47
89.2770885785
 48
0.0
 49
0.0
140
0.0
141
0.0
142
0.0194185822
143
1.0
 70
  1696
 72
     0
 73
     0
 74
     0
  7

 75
     0
 76
     0
 77
     2
 78
   300
147
0.0179189148
148
-1300.4909072572
149
0.0
100
AcDbLayout
  1
Model
 70
     1
 71
     0
 10
0.0
 20
0.0
 11
420.0
 21
297.0
 12
0.0
 22
0.0
 32
0.0
 14
-280.401522154
 24
-206.5801364085
 34
0.0
 15
280.4015221553
 25
205.0510796635
 35
0.0
146
0.0
 13
0.0
 23
0.0
 33
0.0
 16
1.0
 26
0.0
 36
0.0
 17
0.0
 27
1.0
 37
0.0
 76
     0
330
1F
331
29
  0
MATERIAL
  5
45
102
{ACAD_REACTORS
330
43
102
}
330
43
100
AcDbMaterial
  1
ByBlock
 72
     1
 94
      127
  0
MATERIAL
  5
44
102
{ACAD_REACTORS
330
43
102
}
330
43
100
AcDbMaterial
  1
ByLayer
 72
     1
 94
      127
  0
MATERIAL
  5
46
102
{ACAD_REACTORS
330
43
102
}
330
43
100
AcDbMaterial
  1
Global
 72
     1
 94
      127
  0
MLEADERSTYLE
  5
6C
102
{ACAD_REACTORS
330
6B
102
}
330
6B
100
AcDbMLeaderStyle
179
     2
170
     2
171
     1
172
     0
 90
        2
 40
0.0
 41
0.0
173
     1
 91
-1056964608
340
14
 92
       -2
290
     1
 42
2.0
291
     1
 43
8.0
  3
Standard
341
0
 44
4.0
300

342
11
174
     1
178
     6
175
     1
176
     0
 93
-1056964608
 45
4.0
292
     0
297
     0
 46
4.0
343
0
 94
-1056964608
 47
1.0
 49
1.0
140
1.0
293
     1
141
0.0
294
     1
177
     0
142
1.0
295
     0
296
     0
143
3.75
271
     0
272
     9
273
     9
298
     0
  0
MLINESTYLE
  5
18
102
{ACAD_REACTORS
330
17
102
}
330
17
100
AcDbMlineStyle
  2
Standard
 70
     0
  3

 62
   256
 51
90.0
 52
90.0
 71
     2
 49
0.5
 62
   256
  6
BYLAYER
 49
-0.5
 62
   256
  6
BYLAYER
  0
ACDBPLACEHOLDER
  5
F
102
{ACAD_REACTORS
330
E
102
}
330
E
  0
SCALE
  5
48
102
{ACAD_REACTORS
330
47
102
}
330
47
100
AcDbScale
 70
     0
300
1:1
140
1.0
141
1.0
290
     1
  0
SCALE
  5
49
102
{ACAD_REACTORS
330
47
102
}
330
47
100
AcDbScale
 70
     0
300
1:2
140
1.0
141
2.0
290
     0
  0
SCALE
  5
4A
102
{ACAD_REACTORS
330
47
102
}
330
47
100
AcDbScale
 70
     0
300
1:4
140
1.0
141
4.0
290
     0
  0
SCALE
  5
4B
102
{ACAD_REACTORS
330
47
102
}
330
47
100
AcDbScale
 70
     0
300
1:5
140
1.0
141
5.0
290
     0
  0
SCALE
  5
4C
102
{ACAD_REACTORS
330
47
102
}
330
47
100
AcDbScale
 70
     0
300
1:8
140
1.0
141
8.0
290
     0
  0
SCALE
  5
4D
102
{ACAD_REACTORS
330
47
102
}
330
47
100
AcDbScale
 70
     0
300
1:10
140
1.0
141
10.0
290
     0
  0
SCALE
  5
4E
102
{ACAD_REACTORS
330
47
102
}
330
47
100
AcDbScale
 70
     0
300
1:16
140
1.0
141
16.0
290
     0
  0
SCALE
  5
4F
102
{ACAD_REACTORS
330
47
102
}
330
47
100
AcDbScale
 70
     0
300
1:20
140
1.0
141
20.0
290
     0
  0
SCALE
  5
50
102
{ACAD_REACTORS
330
47
102
}
330
47
100
AcDbScale
 70
     0
300
1:30
140
1.0
141
30.0
290
     0
  0
SCALE
  5
51
102
{ACAD_REACTORS
330
47
102
}
330
47
100
AcDbScale
 70
     0
300
1:40
140
1.0
141
40.0
290
     0
  0
SCALE
  5
52
102
{ACAD_REACTORS
330
47
102
}
330
47
100
AcDbScale
 70
     0
300
1:50
140
1.0
141
50.0
290
     0
  0
SCALE
  5
53
102
{ACAD_REACTORS
330
47
102
}
330
47
100
AcDbScale
 70
     0
300
1:100
140
1.0
141
100.0
290
     0
  0
SCALE
  5
54
102
{ACAD_REACTORS
330
47
102
}
330
47
100
AcDbScale
 70
     0
300
2:1
140
2.0
141
1.0
290
     0
  0
SCALE
  5
55
102
{ACAD_REACTORS
330
47
102
}
330
47
100
AcDbScale
 70
     0
300
4:1
140
4.0
141
1.0
290
     0
  0
SCALE
  5
56
102
{ACAD_REACTORS
330
47
102
}
330
47
100
AcDbScale
 70
     0
300
8:1
140
8.0
141
1.0
290
     0
  0
SCALE
  5
57
102
{ACAD_REACTORS
330
47
102
}
330
47
100
AcDbScale
 70
     0
300
10:1
140
10.0
141
1.0
290
     0
  0
SCALE
  5
58
102
{ACAD_REACTORS
330
47
102
}
330
47
100
AcDbScale
 70
     0
300
100:1
140
100.0
141
1.0
290
     0
  0
SCALE
  5
59
102
{ACAD_REACTORS
330
47
102
}
330
47
100
AcDbScale
 70
     0
300
1/128" = 1'-0"
140
0.0078125
141
12.0
290
     0
  0
SCALE
  5
5A
102
{ACAD_REACTORS
330
47
102
}
330
47
100
AcDbScale
 70
     0
300
1/64" = 1'-0"
140
0.015625
141
12.0
290
     0
  0
SCALE
  5
5B
102
{ACAD_REACTORS
330
47
102
}
330
47
100
AcDbScale
 70
     0
300
1/32" = 1'-0"
140
0.03125
141
12.0
290
     0
  0
SCALE
  5
5C
102
{ACAD_REACTORS
330
47
102
}
330
47
100
AcDbScale
 70
     0
300
1/16" = 1'-0"
140
0.0625
141
12.0
290
     0
  0
SCALE
  5
5D
102
{ACAD_REACTORS
330
47
102
}
330
47
100
AcDbScale
 70
     0
300
3/32" = 1'-0"
140
0.09375
141
12.0
290
     0
  0
SCALE
  5
5E
102
{ACAD_REACTORS
330
47
102
}
330
47
100
AcDbScale
 70
     0
300
1/8" = 1'-0"
140
0.125
141
12.0
290
     0
  0
SCALE
  5
5F
102
{ACAD_REACTORS
330
47
102
}
330
47
100
AcDbScale
 70
     0
300
3/16" = 1'-0"
140
0.1875
141
12.0
290
     0
  0
SCALE
  5
60
102
{ACAD_REACTORS
330
47
102
}
330
47
100
AcDbScale
 70
     0
300
1/4" = 1'-0"
140
0.25
141
12.0
290
     0
  0
SCALE
  5
61
102
{ACAD_REACTORS
330
47
102
}
330
47
100
AcDbScale
 70
     0
300
3/8" = 1'-0"
140
0.375
141
12.0
290
     0
  0
SCALE
  5
62
102
{ACAD_REACTORS
330
47
102
}
330
47
100
AcDbScale
 70
     0
300
1/2" = 1'-0"
140
0.5
141
12.0
290
     0
  0
SCALE
  5
63
102
{ACAD_REACTORS
330
47
102
}
330
47
100
AcDbScale
 70
     0
300
3/4" = 1'-0"
140
0.75
141
12.0
290
     0
  0
SCALE
  5
64
102
{ACAD_REACTORS
330
47
102
}
330
47
100
AcDbScale
 70
     0
300
1" = 1'-0"
140
1.0
141
12.0
290
     0
  0
SCALE
  5
65
102
{ACAD_REACTORS
330
47
102
}
330
47
100
AcDbScale
 70
     0
300
1-1/2" = 1'-0"
140
1.5
141
12.0
290
     0
  0
SCALE
  5
66
102
{ACAD_REACTORS
330
47
102
}
330
47
100
AcDbScale
 70
     0
300
3" = 1'-0"
140
3.0
141
12.0
290
     0
  0
SCALE
  5
67
102
{ACAD_REACTORS
330
47
102
}
330
47
100
AcDbScale
 70
     0
300
6" = 1'-0"
140
6.0
141
12.0
290
     0
  0
SCALE
  5
68
102
{ACAD_REACTORS
330
47
102
}
330
47
100
AcDbScale
 70
     0
300
1'-0" = 1'-0"
140
12.0
141
12.0
290
     0
  0
TABLESTYLE
  5
6A
102
{ACAD_REACTORS
330
69
102
}
102
{ACAD_XDICTIONARY
360
110
102
}
330
69
100
AcDbTableStyle
  3
Standard
 70
     0
 71
     0
 40
0.06
 41
0.06
280
     0
281
     0
  7
STANDARD
140
4.5
170
     2
 62
     0
 63
   257
283
     0
 90
        4
 91
        0
  1

274
    -2
284
     1
 64
     0
275
    -2
285
     1
 65
     0
276
    -2
286
     1
 66
     0
277
    -2
287
     1
 67
     0
278
    -2
288
     1
 68
     0
279
    -2
289
     1
 69
     0
  7
STANDARD
140
6.0
170
     5
 62
     0
 63
   257
283
     0
 90
        4
 91
        0
  1

274
    -2
284
     1
 64
     0
275
    -2
285
     1
 65
     0
276
    -2
286
     1
 66
     0
277
    -2
287
     1
 67
     0
278
    -2
288
     1
 68
     0
279
    -2
289
     1
 69
     0
  7
STANDARD
140
4.5
170
     5
 62
     0
 63
   257
283
     0
 90
        4
 91
        0
  1

274
    -2
284
     1
 64
     0
275
    -2
285
     1
 65
     0
276
    -2
286
     1
 66
     0
277
    -2
287
     1
 67
     0
278
    -2
288
     1
 68
     0
279
    -2
289
     1
 69
     0
  0
VISUALSTYLE
  5
2F
102
{ACAD_REACTORS
330
2A
102
}
330
2A
100
AcDbVisualStyle
  2
2dWireframe
 70
     4
177
     3
291
     0
 70
    58
 90
        0
176
     1
 90
        2
176
     1
 90
        0
176
     1
 90
        0
176
     1
 40
0.6
176
     1
 40
30.0
176
     1
 62
     7
420
 16777215
176
     1
 90
        1
176
     1
 90
        4
176
     1
 62
     7
176
     1
 62
   257
176
     1
 90
        1
176
     1
 90
        1
176
     1
 40
1.0
176
     1
 90
        0
176
     1
 62
   257
176
     1
 40
1.0
176
     1
 90
        1
176
     1
 90
        6
176
     1
 90
        2
176
     1
 62
     7
176
     1
 90
        5
176
     1
 90
        0
176
     1
 90
        0
176
     1
290
     0
176
     1
 90
        1
176
     1
 40
0.0
176
     1
 90
        0
176
     1
290
     1
176
     1
290
     1
176
     1
290
     0
176
     1
290
     0
176
     1
290
     0
176
     1
290
     0
176
     1
290
     0
176
     1
290
     0
176
     1
290
     0
176
     1
 90
       50
176
     1
 40
0.0
176
     1
 40
1.0
176
     1
 90
        0
176
     1
 62
    18
420
        0
176
     1
 90
       50
176
     1
 90
        3
176
     1
 62
     5
420
      255
176
     1
290
     0
176
     1
 90
       50
176
     1
 90
       50
176
     1
 90
       50
176
     1
290
     0
176
     1
 90
       50
176
     1
 62
   256
176
     0
 40
1.0
176
     0
 90
        2
176
     1
  1
strokes_ogs.tif
176
     1
290
     0
176
     1
 40
1.0
176
     1
 40
1.0
176
     1
  0
VISUALSTYLE
  5
32
102
{ACAD_REACTORS
330
2A
102
}
330
2A
100
AcDbVisualStyle
  2
Basic
 70
     7
177
     3
291
     1
 70
    58
 90
        1
176
     1
 90
        0
176
     1
 90
        1
176
     1
 90
        0
176
     1
 40
0.6
176
     1
 40
30.0
176
     1
 62
     7
420
 16777215
176
     1
 90
        0
176
     1
 90
        4
176
     1
 62
     7
176
     1
 62
   257
176
     1
 90
        1
176
     1
 90
        1
176
     1
 40
1.0
176
     1
 90
        8
176
     1
 62
     7
176
     1
 40
1.0
176
     1
 90
        1
176
     1
 90
        6
176
     1
 90
        2
176
     1
 62
     7
176
     1
 90
        5
176
     1
 90
        0
176
     1
 90
        0
176
     1
290
     0
176
     1
 90
        1
176
     1
 40
0.0
176
     1
 90
        0
176
     1
290
     0
176
     1
290
     1
176
     1
290
     1
176
     1
290
     0
176
     1
290
     0
176
     1
290
     0
176
     1
290
     0
176
     1
290
     0
176
     1
290
     0
176
     1
 90
       50
176
     1
 40
0.0
176
     1
 40
1.0
176
     1
 90
        0
176
     1
 62
    18
420
        0
176
     1
 90
       50
176
     1
 90
        3
176
     1
 62
     5
420
      255
176
     1
290
     0
176
     1
 90
       50
176
     1
 90
       50
176
     1
 90
       50
176
     1
290
     0
176
     1
 90
       50
176
     1
 62
   256
176
     0
 40
1.0
176
     0
 90
        2
176
     1
  1
strokes_ogs.tif
176
     1
290
     0
176
     1
 40
1.0
176
     1
 40
1.0
176
     1
  0
VISUALSTYLE
  5
36
102
{ACAD_REACTORS
330
2A
102
}
330
2A
100
AcDbVisualStyle
  2
Brighten
 70
    12
177
     3
291
     1
 70
    58
 90
        2
176
     1
 90
        2
176
     1
 90
        0
176
     1
 90
        0
176
     1
 40
0.6
176
     1
 40
30.0
176
     1
 62
     7
420
 16777215
176
     1
 90
        1
176
     1
 90
        4
176
     1
 62
     7
176
     1
 62
   257
176
     1
 90
        1
176
     1
 90
        1
176
     1
 40
1.0
176
     1
 90
        8
176
     1
 62
     7
176
     1
 40
1.0
176
     1
 90
        1
176
     1
 90
        6
176
     1
 90
        2
176
     1
 62
     7
176
     1
 90
        5
176
     1
 90
        0
176
     1
 90
        0
176
     1
290
     0
176
     1
 90
        1
176
     1
 40
50.0
176
     1
 90
        0
176
     1
290
     0
176
     1
290
     1
176
     1
290
     1
176
     1
290
     0
176
     1
290
     0
176
     1
290
     0
176
     1
290
     0
176
     1
290
     0
176
     1
290
     0
176
     1
 90
       50
176
     1
 40
0.0
176
     1
 40
1.0
176
     1
 90
        0
176
     1
 62
    18
420
        0
176
     1
 90
       50
176
     1
 90
        3
176
     1
 62
     5
420
      255
176
     1
290
     0
176
     1
 90
       50
176
     1
 90
       50
176
     1
 90
       50
176
     1
290
     0
176
     1
 90
       50
176
     1
 62
   256
176
     0
 40
1.0
176
     0
 90
        2
176
     1
  1
strokes_ogs.tif
176
     1
290
     0
176
     1
 40
1.0
176
     1
 40
1.0
176
     1
  0
VISUALSTYLE
  5
3A
102
{ACAD_REACTORS
330
2A
102
}
330
2A
100
AcDbVisualStyle
  2
ColorChange
 70
    16
177
     3
291
     1
 70
    58
 90
        2
176
     1
 90
        2
176
     1
 90
        3
176
     1
 90
        0
176
     1
 40
0.6
176
     1
 40
30.0
176
     1
 62
     8
420
  8421504
176
     1
 90
        1
176
     1
 90
        4
176
     1
 62
     7
176
     1
 62
   257
176
     1
 90
        1
176
     1
 90
        1
176
     1
 40
1.0
176
     1
 90
        8
176
     1
 62
     8
420
  8421504
176
     1
 40
1.0
176
     1
 90
        1
176
     1
 90
        6
176
     1
 90
        2
176
     1
 62
     7
176
     1
 90
        5
176
     1
 90
        0
176
     1
 90
        0
176
     1
290
     0
176
     1
 90
        1
176
     1
 40
0.0
176
     1
 90
        0
176
     1
290
     0
176
     1
290
     1
176
     1
290
     1
176
     1
290
     0
176
     1
290
     0
176
     1
290
     0
176
     1
290
     0
176
     1
290
     0
176
     1
290
     0
176
     1
 90
       50
176
     1
 40
0.0
176
     1
 40
1.0
176
     1
 90
        0
176
     1
 62
    18
420
        0
176
     1
 90
       50
176
     1
 90
        3
176
     1
 62
     5
420
      255
176
     1
290
     0
176
     1
 90
       50
176
     1
 90
       50
176
     1
 90
       50
176
     1
290
     0
176
     1
 90
       50
176
     1
 62
   256
176
     0
 40
1.0
176
     0
 90
        2
176
     1
  1
strokes_ogs.tif
176
     1
290
     0
176
     1
 40
1.0
176
     1
 40
1.0
176
     1
  0
VISUALSTYLE
  5
34
102
{ACAD_REACTORS
330
2A
102
}
330
2A
100
AcDbVisualStyle
  2
Conceptual
 70
     9
177
     3
291
     0
 70
    58
 90
        3
176
     1
 90
        2
176
     1
 90
        0
176
     1
 90
        0
176
     1
 40
0.6
176
     1
 40
30.0
176
     1
 62
     7
420
 16777215
176
     1
 90
        2
176
     1
 90
        2
176
     1
 62
     7
176
     1
 62
   257
176
     1
 90
        1
176
     1
 90
        1
176
     1
 40
179.0
176
     1
 90
        8
176
     1
 62
     7
176
     1
 40
1.0
176
     1
 90
        1
176
     1
 90
        6
176
     1
 90
        2
176
     1
 62
     7
176
     1
 90
        3
176
     1
 90
        0
176
     1
 90
        0
176
     1
290
     0
176
     1
 90
        1
176
     1
 40
0.0
176
     1
 90
        0
176
     1
290
     0
176
     1
290
     1
176
     1
290
     1
176
     1
290
     0
176
     1
290
     0
176
     1
290
     0
176
     1
290
     0
176
     1
290
     0
176
     1
290
     0
176
     1
 90
       50
176
     1
 40
0.0
176
     1
 40
1.0
176
     1
 90
        0
176
     1
 62
    18
420
        0
176
     1
 90
       50
176
     1
 90
        3
176
     1
 62
     5
420
      255
176
     1
290
     0
176
     1
 90
       50
176
     1
 90
       50
176
     1
 90
       50
176
     1
290
     0
176
     1
 90
       50
176
     1
 62
   256
176
     0
 40
1.0
176
     0
 90
        2
176
     1
  1
strokes_ogs.tif
176
     1
290
     0
176
     1
 40
1.0
176
     1
 40
1.0
176
     1
  0
VISUALSTYLE
  5
35
102
{ACAD_REACTORS
330
2A
102
}
330
2A
100
AcDbVisualStyle
  2
Dim
 70
    11
177
     3
291
     1
 70
    58
 90
        2
176
     1
 90
        2
176
     1
 90
        0
176
     1
 90
        0
176
     1
 40
0.6
176
     1
 40
30.0
176
     1
 62
     7
420
 16777215
176
     1
 90
        1
176
     1
 90
        4
176
     1
 62
     7
176
     1
 62
   257
176
     1
 90
        1
176
     1
 90
        1
176
     1
 40
1.0
176
     1
 90
        8
176
     1
 62
     7
176
     1
 40
1.0
176
     1
 90
        1
176
     1
 90
        6
176
     1
 90
        2
176
     1
 62
     7
176
     1
 90
        5
176
     1
 90
        0
176
     1
 90
        0
176
     1
290
     0
176
     1
 90
        1
176
     1
 40
-50.0
176
     1
 90
        0
176
     1
290
     0
176
     1
290
     1
176
     1
290
     1
176
     1
290
     0
176
     1
290
     0
176
     1
290
     0
176
     1
290
     0
176
     1
290
     0
176
     1
290
     0
176
     1
 90
       50
176
     1
 40
0.0
176
     1
 40
1.0
176
     1
 90
        0
176
     1
 62
    18
420
        0
176
     1
 90
       50
176
     1
 90
        3
176
     1
 62
     5
420
      255
176
     1
290
     0
176
     1
 90
       50
176
     1
 90
       50
176
     1
 90
       50
176
     1
290
     0
176
     1
 90
       50
176
     1
 62
   256
176
     0
 40
1.0
176
     0
 90
        2
176
     1
  1
strokes_ogs.tif
176
     1
290
     0
176
     1
 40
1.0
176
     1
 40
1.0
176
     1
  0
VISUALSTYLE
  5
3D
102
{ACAD_REACTORS
330
2A
102
}
330
2A
100
AcDbVisualStyle
  2
EdgeColorOff
 70
    22
177
     3
291
     1
 70
    58
 90
        2
176
     0
 90
        2
176
     0
 90
        0
176
     0
 90
        0
176
     0
 40
0.6
176
     0
 40
30.0
176
     0
 62
     7
420
 16777215
176
     0
 90
        1
176
     0
 90
        4
176
     0
 62
     7
176
     0
 62
   257
176
     0
 90
        1
176
     0
 90
        1
176
     0
 40
1.0
176
     0
 90
        8
176
     2
 62
     7
176
     0
 40
1.0
176
     0
 90
        1
176
     0
 90
        6
176
     0
 90
        2
176
     0
 62
     7
176
     0
 90
        5
176
     0
 90
        0
176
     0
 90
        0
176
     0
290
     0
176
     0
 90
        1
176
     0
 40
0.0
176
     0
 90
        0
176
     0
290
     0
176
     0
290
     1
176
     0
290
     1
176
     0
290
     0
176
     0
290
     0
176
     0
290
     0
176
     0
290
     0
176
     0
290
     0
176
     0
290
     0
176
     0
 90
       50
176
     0
 40
0.0
176
     0
 40
1.0
176
     0
 90
        0
176
     0
 62
    18
420
        0
176
     0
 90
       50
176
     0
 90
        3
176
     0
 62
     5
420
      255
176
     0
290
     0
176
     0
 90
       50
176
     0
 90
       50
176
     0
 90
       50
176
     0
290
     0
176
     0
 90
       50
176
     0
 62
   256
176
     0
 40
1.0
176
     0
 90
        2
176
     0
  1
strokes_ogs.tif
176
     0
290
     0
176
     0
 40
1.0
176
     0
 40
1.0
176
     0
  0
VISUALSTYLE
  5
39
102
{ACAD_REACTORS
330
2A
102
}
330
2A
100
AcDbVisualStyle
  2
Facepattern
 70
    15
177
     3
291
     1
 70
    58
 90
        2
176
     1
 90
        2
176
     1
 90
        0
176
     1
 90
        0
176
     1
 40
0.6
176
     1
 40
30.0
176
     1
 62
     7
420
 16777215
176
     1
 90
        1
176
     1
 90
        4
176
     1
 62
     7
176
     1
 62
   257
176
     1
 90
        1
176
     1
 90
        1
176
     1
 40
1.0
176
     1
 90
        8
176
     1
 62
     7
176
     1
 40
1.0
176
     1
 90
        1
176
     1
 90
        6
176
     1
 90
        2
176
     1
 62
     7
176
     1
 90
        5
176
     1
 90
        0
176
     1
 90
        0
176
     1
290
     0
176
     1
 90
        1
176
     1
 40
0.0
176
     1
 90
        0
176
     1
290
     0
176
     1
290
     1
176
     1
290
     1
176
     1
290
     0
176
     1
290
     0
176
     1
290
     0
176
     1
290
     0
176
     1
290
     0
176
     1
290
     0
176
     1
 90
       50
176
     1
 40
0.0
176
     1
 40
1.0
176
     1
 90
        0
176
     1
 62
    18
420
        0
176
     1
 90
       50
176
     1
 90
        3
176
     1
 62
     5
420
      255
176
     1
290
     0
176
     1
 90
       50
176
     1
 90
       50
176
     1
 90
       50
176
     1
290
     0
176
     1
 90
       50
176
     1
 62
   256
176
     0
 40
1.0
176
     0
 90
        2
176
     1
  1
strokes_ogs.tif
176
     1
290
     0
176
     1
 40
1.0
176
     1
 40
1.0
176
     1
  0
VISUALSTYLE
  5
2B
102
{ACAD_REACTORS
330
2A
102
}
330
2A
100
AcDbVisualStyle
  2
Flat
 70
     0
177
     3
291
     1
 70
    58
 90
        2
176
     1
 90
        1
176
     1
 90
        1
176
     1
 90
        2
176
     1
 40
0.6
176
     1
 40
30.0
176
     1
 62
     7
420
 16777215
176
     1
 90
        0
176
     1
 90
        0
176
     1
 62
     7
176
     1
 62
   257
176
     1
 90
        1
176
     1
 90
        1
176
     1
 40
1.0
176
     1
 90
        8
176
     1
 62
     7
176
     1
 40
1.0
176
     1
 90
        1
176
     1
 90
        6
176
     1
 90
        2
176
     1
 62
     7
176
     1
 90
        5
176
     1
 90
        0
176
     1
 90
        0
176
     1
290
     0
176
     1
 90
       13
176
     1
 40
0.0
176
     1
 90
        0
176
     1
290
     0
176
     1
290
     1
176
     1
290
     1
176
     1
290
     0
176
     1
290
     0
176
     1
290
     0
176
     1
290
     0
176
     1
290
     0
176
     1
290
     0
176
     1
 90
       50
176
     1
 40
0.0
176
     1
 40
1.0
176
     1
 90
        0
176
     1
 62
    18
420
        0
176
     1
 90
       50
176
     1
 90
        3
176
     1
 62
     5
420
      255
176
     1
290
     0
176
     1
 90
       50
176
     1
 90
       50
176
     1
 90
       50
176
     1
290
     0
176
     1
 90
       50
176
     1
 62
   256
176
     0
 40
1.0
176
     0
 90
        2
176
     1
  1
strokes_ogs.tif
176
     1
290
     0
176
     1
 40
1.0
176
     1
 40
1.0
176
     1
  0
VISUALSTYLE
  5
2C
102
{ACAD_REACTORS
330
2A
102
}
330
2A
100
AcDbVisualStyle
  2
FlatWithEdges
 70
     1
177
     3
291
     1
 70
    58
 90
        2
176
     1
 90
        1
176
     1
 90
        1
176
     1
 90
        2
176
     1
 40
0.6
176
     1
 40
30.0
176
     1
 62
     7
420
 16777215
176
     1
 90
        1
176
     1
 90
        0
176
     1
 62
     7
176
     1
 62
   257
176
     1
 90
        1
176
     1
 90
        1
176
     1
 40
1.0
176
     1
 90
        0
176
     1
 62
   257
176
     1
 40
1.0
176
     1
 90
        1
176
     1
 90
        6
176
     1
 90
        2
176
     1
 62
     7
176
     1
 90
        5
176
     1
 90
        0
176
     1
 90
        0
176
     1
290
     0
176
     1
 90
       13
176
     1
 40
0.0
176
     1
 90
        0
176
     1
290
     0
176
     1
290
     1
176
     1
290
     1
176
     1
290
     0
176
     1
290
     0
176
     1
290
     0
176
     1
290
     0
176
     1
290
     0
176
     1
290
     0
176
     1
 90
       50
176
     1
 40
0.0
176
     1
 40
1.0
176
     1
 90
        0
176
     1
 62
    18
420
        0
176
     1
 90
       50
176
     1
 90
        3
176
     1
 62
     5
420
      255
176
     1
290
     0
176
     1
 90
       50
176
     1
 90
       50
176
     1
 90
       50
176
     1
290
     0
176
     1
 90
       50
176
     1
 62
   256
176
     0
 40
1.0
176
     0
 90
        2
176
     1
  1
strokes_ogs.tif
176
     1
290
     0
176
     1
 40
1.0
176
     1
 40
1.0
176
     1
  0
VISUALSTYLE
  5
2D
102
{ACAD_REACTORS
330
2A
102
}
330
2A
100
AcDbVisualStyle
  2
Gouraud
 70
     2
177
     3
291
     1
 70
    58
 90
        2
176
     1
 90
        2
176
     1
 90
        1
176
     1
 90
        2
176
     1
 40
0.6
176
     1
 40
30.0
176
     1
 62
     7
420
 16777215
176
     1
 90
        0
176
     1
 90
        0
176
     1
 62
     7
176
     1
 62
   257
176
     1
 90
        1
176
     1
 90
        1
176
     1
 40
1.0
176
     1
 90
        0
176
     1
 62
     7
176
     1
 40
1.0
176
     1
 90
        1
176
     1
 90
        6
176
     1
 90
        2
176
     1
 62
     7
176
     1
 90
        5
176
     1
 90
        0
176
     1
 90
        0
176
     1
290
     0
176
     1
 90
       13
176
     1
 40
0.0
176
     1
 90
        0
176
     1
290
     0
176
     1
290
     1
176
     1
290
     1
176
     1
290
     0
176
     1
290
     0
176
     1
290
     0
176
     1
290
     0
176
     1
290
     0
176
     1
290
     0
176
     1
 90
       50
176
     1
 40
0.0
176
     1
 40
1.0
176
     1
 90
        0
176
     1
 62
    18
420
        0
176
     1
 90
       50
176
     1
 90
        3
176
     1
 62
     5
420
      255
176
     1
290
     0
176
     1
 90
       50
176
     1
 90
       50
176
     1
 90
       50
176
     1
290
     0
176
     1
 90
       50
176
     1
 62
   256
176
     0
 40
1.0
176
     0
 90
        2
176
     1
  1
strokes_ogs.tif
176
     1
290
     0
176
     1
 40
1.0
176
     1
 40
1.0
176
     1
  0
VISUALSTYLE
  5
2E
102
{ACAD_REACTORS
330
2A
102
}
330
2A
100
AcDbVisualStyle
  2
GouraudWithEdges
 70
     3
177
     3
291
     1
 70
    58
 90
        2
176
     1
 90
        2
176
     1
 90
        1
176
     1
 90
        2
176
     1
 40
0.6
176
     1
 40
30.0
176
     1
 62
     7
420
 16777215
176
     1
 90
        1
176
     1
 90
        0
176
     1
 62
     7
176
     1
 62
   257
176
     1
 90
        1
176
     1
 90
        1
176
     1
 40
1.0
176
     1
 90
        0
176
     1
 62
   257
176
     1
 40
1.0
176
     1
 90
        1
176
     1
 90
        6
176
     1
 90
        2
176
     1
 62
     7
176
     1
 90
        5
176
     1
 90
        0
176
     1
 90
        0
176
     1
290
     0
176
     1
 90
       13
176
     1
 40
0.0
176
     1
 90
        0
176
     1
290
     0
176
     1
290
     1
176
     1
290
     1
176
     1
290
     0
176
     1
290
     0
176
     1
290
     0
176
     1
290
     0
176
     1
290
     0
176
     1
290
     0
176
     1
 90
       50
176
     1
 40
0.0
176
     1
 40
1.0
176
     1
 90
        0
176
     1
 62
    18
420
        0
176
     1
 90
       50
176
     1
 90
        3
176
     1
 62
     5
420
      255
176
     1
290
     0
176
     1
 90
       50
176
     1
 90
       50
176
     1
 90
       50
176
     1
290
     0
176
     1
 90
       50
176
     1
 62
   256
176
     0
 40
1.0
176
     0
 90
        2
176
     1
  1
strokes_ogs.tif
176
     1
290
     0
176
     1
 40
1.0
176
     1
 40
1.0
176
     1
  0
VISUALSTYLE
  5
31
102
{ACAD_REACTORS
330
2A
102
}
330
2A
100
AcDbVisualStyle
  2
Hidden
 70
     6
177
     3
291
     0
 70
    58
 90
        1
176
     1
 90
        2
176
     1
 90
        2
176
     1
 90
        0
176
     1
 40
0.6
176
     1
 40
30.0
176
     1
 62
     7
420
 16777215
176
     1
 90
        2
176
     1
 90
        2
176
     1
 62
     7
176
     1
 62
   257
176
     1
 90
        2
176
     1
 90
        1
176
     1
 40
40.0
176
     1
 90
        0
176
     1
 62
   257
176
     1
 40
1.0
176
     1
 90
        1
176
     1
 90
        6
176
     1
 90
        2
176
     1
 62
     7
176
     1
 90
        3
176
     1
 90
        0
176
     1
 90
        0
176
     1
290
     0
176
     1
 90
        1
176
     1
 40
0.0
176
     1
 90
        0
176
     1
290
     0
176
     1
290
     1
176
     1
290
     1
176
     1
290
     0
176
     1
290
     0
176
     1
290
     0
176
     1
290
     0
176
     1
290
     0
176
     1
290
     0
176
     1
 90
       50
176
     1
 40
0.0
176
     1
 40
1.0
176
     1
 90
        0
176
     1
 62
    18
420
        0
176
     1
 90
       50
176
     1
 90
        3
176
     1
 62
     5
420
      255
176
     1
290
     0
176
     1
 90
       50
176
     1
 90
       50
176
     1
 90
       50
176
     1
290
     0
176
     1
 90
       50
176
     1
 62
   256
176
     0
 40
1.0
176
     0
 90
        2
176
     1
  1
strokes_ogs.tif
176
     1
290
     0
176
     1
 40
1.0
176
     1
 40
1.0
176
     1
  0
VISUALSTYLE
  5
3B
102
{ACAD_REACTORS
330
2A
102
}
330
2A
100
AcDbVisualStyle
  2
JitterOff
 70
    20
177
     3
291
     1
 70
    58
 90
        2
176
     0
 90
        2
176
     0
 90
        0
176
     0
 90
        0
176
     0
 40
0.6
176
     0
 40
30.0
176
     0
 62
     7
420
 16777215
176
     0
 90
        1
176
     0
 90
        4
176
     0
 62
     7
176
     0
 62
   257
176
     0
 90
        1
176
     0
 90
        1
176
     0
 40
1.0
176
     0
 90
       10
176
     2
 62
     7
176
     0
 40
1.0
176
     0
 90
        1
176
     0
 90
        6
176
     0
 90
        2
176
     0
 62
     7
176
     0
 90
        5
176
     0
 90
        0
176
     0
 90
        0
176
     0
290
     0
176
     0
 90
        1
176
     0
 40
0.0
176
     0
 90
        0
176
     0
290
     0
176
     0
290
     1
176
     0
290
     1
176
     0
290
     0
176
     0
290
     0
176
     0
290
     0
176
     0
290
     0
176
     0
290
     0
176
     0
290
     0
176
     0
 90
       50
176
     0
 40
0.0
176
     0
 40
1.0
176
     0
 90
        0
176
     0
 62
    18
420
        0
176
     0
 90
       50
176
     0
 90
        3
176
     0
 62
     5
420
      255
176
     0
290
     0
176
     0
 90
       50
176
     0
 90
       50
176
     0
 90
       50
176
     0
290
     0
176
     0
 90
       50
176
     0
 62
   256
176
     0
 40
1.0
176
     0
 90
        2
176
     0
  1
strokes_ogs.tif
176
     0
290
     0
176
     0
 40
1.0
176
     0
 40
1.0
176
     0
  0
VISUALSTYLE
  5
38
102
{ACAD_REACTORS
330
2A
102
}
330
2A
100
AcDbVisualStyle
  2
Linepattern
 70
    14
177
     3
291
     1
 70
    58
 90
        2
176
     1
 90
        2
176
     1
 90
        0
176
     1
 90
        0
176
     1
 40
0.6
176
     1
 40
30.0
176
     1
 62
     7
420
 16777215
176
     1
 90
        1
176
     1
 90
        4
176
     1
 62
     7
176
     1
 62
   257
176
     1
 90
        7
176
     1
 90
        7
176
     1
 40
1.0
176
     1
 90
        8
176
     1
 62
     7
176
     1
 40
1.0
176
     1
 90
        1
176
     1
 90
        6
176
     1
 90
        2
176
     1
 62
     7
176
     1
 90
        5
176
     1
 90
        0
176
     1
 90
        0
176
     1
290
     0
176
     1
 90
        1
176
     1
 40
0.0
176
     1
 90
        0
176
     1
290
     0
176
     1
290
     1
176
     1
290
     1
176
     1
290
     0
176
     1
290
     0
176
     1
290
     0
176
     1
290
     0
176
     1
290
     0
176
     1
290
     0
176
     1
 90
       50
176
     1
 40
0.0
176
     1
 40
1.0
176
     1
 90
        0
176
     1
 62
    18
420
        0
176
     1
 90
       50
176
     1
 90
        3
176
     1
 62
     5
420
      255
176
     1
290
     0
176
     1
 90
       50
176
     1
 90
       50
176
     1
 90
       50
176
     1
290
     0
176
     1
 90
       50
176
     1
 62
   256
176
     0
 40
1.0
176
     0
 90
        2
176
     1
  1
strokes_ogs.tif
176
     1
290
     0
176
     1
 40
1.0
176
     1
 40
1.0
176
     1
  0
VISUALSTYLE
  5
3C
102
{ACAD_REACTORS
330
2A
102
}
330
2A
100
AcDbVisualStyle
  2
OverhangOff
 70
    21
177
     3
291
     1
 70
    58
 90
        2
176
     0
 90
        2
176
     0
 90
        0
176
     0
 90
        0
176
     0
 40
0.6
176
     0
 40
30.0
176
     0
 62
     7
420
 16777215
176
     0
 90
        1
176
     0
 90
        4
176
     0
 62
     7
176
     0
 62
   257
176
     0
 90
        1
176
     0
 90
        1
176
     0
 40
1.0
176
     0
 90
        9
176
     2
 62
     7
176
     0
 40
1.0
176
     0
 90
        1
176
     0
 90
        6
176
     0
 90
        2
176
     0
 62
     7
176
     0
 90
        5
176
     0
 90
        0
176
     0
 90
        0
176
     0
290
     0
176
     0
 90
        1
176
     0
 40
0.0
176
     0
 90
        0
176
     0
290
     0
176
     0
290
     1
176
     0
290
     1
176
     0
290
     0
176
     0
290
     0
176
     0
290
     0
176
     0
290
     0
176
     0
290
     0
176
     0
290
     0
176
     0
 90
       50
176
     0
 40
0.0
176
     0
 40
1.0
176
     0
 90
        0
176
     0
 62
    18
420
        0
176
     0
 90
       50
176
     0
 90
        3
176
     0
 62
     5
420
      255
176
     0
290
     0
176
     0
 90
       50
176
     0
 90
       50
176
     0
 90
       50
176
     0
290
     0
176
     0
 90
       50
176
     0
 62
   256
176
     0
 40
1.0
176
     0
 90
        2
176
     0
  1
strokes_ogs.tif
176
     0
290
     0
176
     0
 40
1.0
176
     0
 40
1.0
176
     0
  0
VISUALSTYLE
  5
33
102
{ACAD_REACTORS
330
2A
102
}
330
2A
100
AcDbVisualStyle
  2
Realistic
 70
     8
177
     3
291
     0
 70
    58
 90
        2
176
     1
 90
        3
176
     1
 90
        0
176
     1
 90
        2
176
     1
 40
0.6
176
     1
 40
30.0
176
     1
 62
     7
420
 16777215
176
     1
 90
        0
176
     1
 90
        0
176
     1
 62
     7
176
     1
 62
   257
176
     1
 90
        1
176
     1
 90
        1
176
     1
 40
1.0
176
     1
 90
        8
176
     1
 62
   257
176
     1
 40
1.0
176
     1
 90
        1
176
     1
 90
        6
176
     1
 90
        2
176
     1
 62
     7
176
     1
 90
        3
176
     1
 90
        0
176
     1
 90
        0
176
     1
290
     0
176
     1
 90
       13
176
     1
 40
0.0
176
     1
 90
        0
176
     1
290
     0
176
     1
290
     1
176
     1
290
     1
176
     1
290
     0
176
     1
290
     0
176
     1
290
     0
176
     1
290
     0
176
     1
290
     0
176
     1
290
     0
176
     1
 90
       50
176
     1
 40
0.0
176
     1
 40
1.0
176
     1
 90
        0
176
     1
 62
    18
420
        0
176
     1
 90
       50
176
     1
 90
        3
176
     1
 62
     5
420
      255
176
     1
290
     0
176
     1
 90
       50
176
     1
 90
       50
176
     1
 90
       50
176
     1
290
     0
176
     1
 90
       50
176
     1
 62
   256
176
     0
 40
1.0
176
     0
 90
        2
176
     1
  1
strokes_ogs.tif
176
     1
290
     0
176
     1
 40
1.0
176
     1
 40
1.0
176
     1
  0
VISUALSTYLE
  5
42
102
{ACAD_REACTORS
330
2A
102
}
330
2A
100
AcDbVisualStyle
  2
Shaded
 70
    27
177
     3
291
     0
 70
    58
 90
        2
176
     1
 90
        2
176
     1
 90
        1
176
     1
 90
        2
176
     1
 40
0.6
176
     1
 40
30.0
176
     1
 62
     7
420
 16777215
176
     1
 90
        0
176
     1
 90
        4
176
     1
 62
     7
176
     1
 62
   257
176
     1
 90
        1
176
     1
 90
        1
176
     1
 40
1.0
176
     1
 90
        8
176
     1
 62
   257
176
     1
 40
1.0
176
     1
 90
        1
176
     1
 90
        6
176
     1
 90
        2
176
     1
 62
     8
420
  7895160
176
     1
 90
        3
176
     1
 90
        0
176
     1
 90
        0
176
     1
290
     0
176
     1
 90
        5
176
     1
 40
0.0
176
     1
 90
        0
176
     1
290
     0
176
     1
290
     1
176
     1
290
     1
176
     1
290
     0
176
     1
290
     0
176
     1
290
     0
176
     1
290
     0
176
     1
290
     0
176
     1
290
     0
176
     1
 90
       50
176
     1
 40
0.0
176
     1
 40
1.0
176
     1
 90
        0
176
     1
 62
    18
420
        0
176
     1
 90
       50
176
     1
 90
        3
176
     1
 62
     5
420
      255
176
     1
290
     0
176
     1
 90
       50
176
     1
 90
       50
176
     1
 90
       50
176
     1
290
     0
176
     1
 90
       50
176
     1
 62
   256
176
     0
 40
1.0
176
     0
 90
        2
176
     1
  1
strokes_ogs.tif
176
     1
290
     0
176
     1
 40
1.0
176
     1
 40
1.0
176
     1
  0
VISUALSTYLE
  5
41
102
{ACAD_REACTORS
330
2A
102
}
330
2A
100
AcDbVisualStyle
  2
Shaded with edges
 70
    26
177
     3
291
     0
 70
    58
 90
        2
176
     1
 90
        2
176
     1
 90
        1
176
     1
 90
        2
176
     1
 40
0.6
176
     1
 40
30.0
176
     1
 62
     7
420
 16777215
176
     1
 90
        1
176
     1
 90
       10
176
     1
 62
     7
176
     1
 62
   257
176
     1
 90
        2
176
     1
 90
        1
176
     1
 40
1.0
176
     1
 90
        8
176
     1
 62
   257
176
     1
 40
1.0
176
     1
 90
        1
176
     1
 90
        6
176
     1
 90
        2
176
     1
 62
     7
176
     1
 90
        3
176
     1
 90
        0
176
     1
 90
        0
176
     1
290
     0
176
     1
 90
        5
176
     1
 40
0.0
176
     1
 90
        0
176
     1
290
     0
176
     1
290
     1
176
     1
290
     1
176
     1
290
     0
176
     1
290
     0
176
     1
290
     0
176
     1
290
     0
176
     1
290
     0
176
     1
290
     0
176
     1
 90
       50
176
     1
 40
0.0
176
     1
 40
1.0
176
     1
 90
        0
176
     1
 62
    18
420
        0
176
     1
 90
       50
176
     1
 90
        3
176
     1
 62
     5
420
      255
176
     1
290
     0
176
     1
 90
       50
176
     1
 90
       50
176
     1
 90
       50
176
     1
290
     0
176
     1
 90
       50
176
     1
 62
   256
176
     0
 40
1.0
176
     0
 90
        2
176
     1
  1
strokes_ogs.tif
176
     1
290
     0
176
     1
 40
1.0
176
     1
 40
1.0
176
     1
  0
VISUALSTYLE
  5
3E
102
{ACAD_REACTORS
330
2A
102
}
330
2A
100
AcDbVisualStyle
  2
Shades of Gray
 70
    23
177
     3
291
     0
 70
    58
 90
        2
176
     1
 90
        2
176
     1
 90
        3
176
     1
 90
        0
176
     1
 40
0.6
176
     1
 40
30.0
176
     1
 62
     7
420
 16777215
176
     1
 90
        2
176
     1
 90
        2
176
     1
 62
     7
176
     1
 62
     7
176
     1
 90
        1
176
     1
 90
        1
176
     1
 40
40.0
176
     1
 90
        8
176
     1
 62
     7
176
     1
 40
1.0
176
     1
 90
        1
176
     1
 90
        6
176
     1
 90
        2
176
     1
 62
     7
176
     1
 90
        3
176
     1
 90
        0
176
     1
 90
        0
176
     1
290
     0
176
     1
 90
        1
176
     1
 40
0.0
176
     1
 90
        0
176
     1
290
     0
176
     1
290
     1
176
     1
290
     1
176
     1
290
     0
176
     1
290
     0
176
     1
290
     0
176
     1
290
     0
176
     1
290
     0
176
     1
290
     0
176
     1
 90
       50
176
     1
 40
0.0
176
     1
 40
1.0
176
     1
 90
        0
176
     1
 62
    18
420
        0
176
     1
 90
       50
176
     1
 90
        3
176
     1
 62
     5
420
      255
176
     1
290
     0
176
     1
 90
       50
176
     1
 90
       50
176
     1
 90
       50
176
     1
290
     0
176
     1
 90
       50
176
     1
 62
   256
176
     0
 40
1.0
176
     0
 90
        2
176
     1
  1
strokes_ogs.tif
176
     1
290
     0
176
     1
 40
1.0
176
     1
 40
1.0
176
     1
  0
VISUALSTYLE
  5
3F
102
{ACAD_REACTORS
330
2A
102
}
330
2A
100
AcDbVisualStyle
  2
Sketchy
 70
    24
177
     3
291
     0
 70
    58
 90
        1
176
     1
 90
        2
176
     1
 90
        2
176
     1
 90
        0
176
     1
 40
0.6
176
     1
 40
30.0
176
     1
 62
     7
420
 16777215
176
     1
 90
        2
176
     1
 90
        2
176
     1
 62
     7
176
     1
 62
     7
176
     1
 90
        1
176
     1
 90
        1
176
     1
 40
40.0
176
     1
 90
       11
176
     1
 62
     7
176
     1
 40
1.0
176
     1
 90
        1
176
     1
 90
        6
176
     1
 90
        2
176
     1
 62
     7
176
     1
 90
        6
176
     1
 90
        0
176
     1
 90
        0
176
     1
290
     0
176
     1
 90
        1
176
     1
 40
0.0
176
     1
 90
        0
176
     1
290
     0
176
     1
290
     1
176
     1
290
     1
176
     1
290
     0
176
     1
290
     0
176
     1
290
     0
176
     1
290
     0
176
     1
290
     0
176
     1
290
     0
176
     1
 90
       50
176
     1
 40
0.0
176
     1
 40
1.0
176
     1
 90
        0
176
     1
 62
    18
420
        0
176
     1
 90
       50
176
     1
 90
        3
176
     1
 62
     5
420
      255
176
     1
290
     0
176
     1
 90
       50
176
     1
 90
       50
176
     1
 90
       50
176
     1
290
     0
176
     1
 90
       50
176
     1
 62
   256
176
     0
 40
1.0
176
     0
 90
        2
176
     1
  1
strokes_ogs.tif
176
     1
290
     0
176
     1
 40
1.0
176
     1
 40
1.0
176
     1
  0
VISUALSTYLE
  5
37
102
{ACAD_REACTORS
330
2A
102
}
330
2A
100
AcDbVisualStyle
  2
Thicken
 70
    13
177
     3
291
     1
 70
    58
 90
        2
176
     1
 90
        2
176
     1
 90
        0
176
     1
 90
        0
176
     1
 40
0.6
176
     1
 40
30.0
176
     1
 62
     7
420
 16777215
176
     1
 90
        1
176
     1
 90
        4
176
     1
 62
     7
176
     1
 62
   257
176
     1
 90
        1
176
     1
 90
        1
176
     1
 40
1.0
176
     1
 90
       12
176
     1
 62
     7
176
     1
 40
1.0
176
     1
 90
        1
176
     1
 90
        6
176
     1
 90
        2
176
     1
 62
     7
176
     1
 90
        5
176
     1
 90
        0
176
     1
 90
        0
176
     1
290
     0
176
     1
 90
        1
176
     1
 40
0.0
176
     1
 90
        0
176
     1
290
     0
176
     1
290
     1
176
     1
290
     1
176
     1
290
     0
176
     1
290
     0
176
     1
290
     0
176
     1
290
     0
176
     1
290
     0
176
     1
290
     0
176
     1
 90
       50
176
     1
 40
0.0
176
     1
 40
1.0
176
     1
 90
        0
176
     1
 62
    18
420
        0
176
     1
 90
       50
176
     1
 90
        3
176
     1
 62
     5
420
      255
176
     1
290
     0
176
     1
 90
       50
176
     1
 90
       50
176
     1
 90
       50
176
     1
290
     0
176
     1
 90
       50
176
     1
 62
   256
176
     0
 40
1.0
176
     0
 90
        2
176
     1
  1
strokes_ogs.tif
176
     1
290
     0
176
     1
 40
1.0
176
     1
 40
1.0
176
     1
  0
VISUALSTYLE
  5
30
102
{ACAD_REACTORS
330
2A
102
}
330
2A
100
AcDbVisualStyle
  2
Wireframe
 70
     5
177
     3
291
     0
 70
    58
 90
        0
176
     1
 90
        2
176
     1
 90
        0
176
     1
 90
        0
176
     1
 40
0.6
176
     1
 40
30.0
176
     1
 62
     7
420
 16777215
176
     1
 90
        1
176
     1
 90
        4
176
     1
 62
     7
176
     1
 62
   257
176
     1
 90
        1
176
     1
 90
        1
176
     1
 40
1.0
176
     1
 90
        0
176
     1
 62
   257
176
     1
 40
1.0
176
     1
 90
        1
176
     1
 90
        6
176
     1
 90
        2
176
     1
 62
     7
176
     1
 90
        3
176
     1
 90
        0
176
     1
 90
        0
176
     1
290
     0
176
     1
 90
        1
176
     1
 40
0.0
176
     1
 90
        0
176
     1
290
     0
176
     1
290
     1
176
     1
290
     1
176
     1
290
     0
176
     1
290
     0
176
     1
290
     0
176
     1
290
     0
176
     1
290
     0
176
     1
290
     0
176
     1
 90
       50
176
     1
 40
0.0
176
     1
 40
1.0
176
     1
 90
        0
176
     1
 62
    18
420
        0
176
     1
 90
       50
176
     1
 90
        3
176
     1
 62
     5
420
      255
176
     1
290
     0
176
     1
 90
       50
176
     1
 90
       50
176
     1
 90
       50
176
     1
290
     0
176
     1
 90
       50
176
     1
 62
   256
176
     0
 40
1.0
176
     0
 90
        2
176
     1
  1
strokes_ogs.tif
176
     1
290
     0
176
     1
 40
1.0
176
     1
 40
1.0
176
     1
  0
VISUALSTYLE
  5
40
102
{ACAD_REACTORS
330
2A
102
}
330
2A
100
AcDbVisualStyle
  2
X-Ray
 70
    25
177
     3
291
     0
 70
    58
 90
        2
176
     1
 90
        2
176
     1
 90
        1
176
     1
 90
        1
176
     1
 40
0.5
176
     1
 40
30.0
176
     1
 62
     7
420
 16777215
176
     1
 90
        1
176
     1
 90
        0
176
     1
 62
     7
176
     1
 62
   257
176
     1
 90
        1
176
     1
 90
        1
176
     1
 40
1.0
176
     1
 90
        8
176
     1
 62
     7
176
     1
 40
1.0
176
     1
 90
        1
176
     1
 90
        6
176
     1
 90
        2
176
     1
 62
     7
176
     1
 90
        3
176
     1
 90
        0
176
     1
 90
        0
176
     1
290
     0
176
     1
 90
       13
176
     1
 40
0.0
176
     1
 90
        0
176
     1
290
     0
176
     1
290
     1
176
     1
290
     1
176
     1
290
     0
176
     1
290
     0
176
     1
290
     0
176
     1
290
     0
176
     1
290
     0
176
     1
290
     0
176
     1
 90
       50
176
     1
 40
0.0
176
     1
 40
1.0
176
     1
 90
        0
176
     1
 62
    18
420
        0
176
     1
 90
       50
176
     1
 90
        3
176
     1
 62
     5
420
      255
176
     1
290
     0
176
     1
 90
       50
176
     1
 90
       50
176
     1
 90
       50
176
     1
290
     0
176
     1
 90
       50
176
     1
 62
   256
176
     0
 40
1.0
176
     0
 90
        2
176
     1
  1
strokes_ogs.tif
176
     1
290
     0
176
     1
 40
1.0
176
     1
 40
1.0
176
     1
  0
DICTIONARYVAR
  5
10F
102
{ACAD_REACTORS
330
10E
102
}
330
10E
100
DictionaryVariables
280
     0
  1
1:1
  0
DICTIONARYVAR
  5
114
102
{ACAD_REACTORS
330
10E
102
}
330
10E
100
DictionaryVariables
280
     0
  1
Standard
  0
DICTIONARYVAR
  5
113
102
{ACAD_REACTORS
330
10E
102
}
330
10E
100
DictionaryVariables
280
     0
  1
Standard
  0
DICTIONARY
  5
110
330
6A
100
AcDbDictionary
280
     1
281
     1
  3
ACAD_ROUNDTRIP_2008_TABLESTYLE_CELLSTYLEMAP
360
111
  0
CELLSTYLEMAP
  5
111
102
{ACAD_REACTORS
330
110
102
}
330
110
100
AcDbCellStyleMap
 90
        3
300
CELLSTYLE
  1
TABLEFORMAT_BEGIN
 90
        5
170
     1
 91
        0
 92
    32768
 62
   257
 93
        1
300
CONTENTFORMAT
  1
CONTENTFORMAT_BEGIN
 90
        0
 91
        0
 92
        4
 93
        0
300

 40
0.0
140
1.0
 94
        5
 62
     0
340
11
144
6.0
309
CONTENTFORMAT_END
171
     1
301
MARGIN
  1
CELLMARGIN_BEGIN
 40
1.5
 40
1.5
 40
1.5
 40
1.5
 40
1.5
 40
1.5
309
CELLMARGIN_END
 94
        6
 95
        1
302
GRIDFORMAT
  1
GRIDFORMAT_BEGIN
 90
        0
 91
        1
 62
     0
 92
       -2
340
14
 93
        0
 40
0.045
309
GRIDFORMAT_END
 95
        2
302
GRIDFORMAT
  1
GRIDFORMAT_BEGIN
 90
        0
 91
        1
 62
     0
 92
       -2
340
14
 93
        0
 40
0.045
309
GRIDFORMAT_END
 95
        4
302
GRIDFORMAT
  1
GRIDFORMAT_BEGIN
 90
        0
 91
        1
 62
     0
 92
       -2
340
14
 93
        0
 40
0.045
309
GRIDFORMAT_END
 95
        8
302
GRIDFORMAT
  1
GRIDFORMAT_BEGIN
 90
        0
 91
        1
 62
     0
 92
       -2
340
14
 93
        0
 40
0.045
309
GRIDFORMAT_END
 95
       16
302
GRIDFORMAT
  1
GRIDFORMAT_BEGIN
 90
        0
 91
        1
 62
     0
 92
       -2
340
14
 93
        0
 40
0.045
309
GRIDFORMAT_END
 95
       32
302
GRIDFORMAT
  1
GRIDFORMAT_BEGIN
 90
        0
 91
        1
 62
     0
 92
       -2
340
14
 93
        0
 40
0.045
309
GRIDFORMAT_END
309
TABLEFORMAT_END
  1
CELLSTYLE_BEGIN
 90
        1
 91
        1
300
_TITLE
309
CELLSTYLE_END
300
CELLSTYLE
  1
TABLEFORMAT_BEGIN
 90
        5
170
     1
 91
        0
 92
        0
 62
   257
 93
        1
300
CONTENTFORMAT
  1
CONTENTFORMAT_BEGIN
 90
        0
 91
        0
 92
        4
 93
        0
300

 40
0.0
140
1.0
 94
        5
 62
     0
340
11
144
4.5
309
CONTENTFORMAT_END
171
     1
301
MARGIN
  1
CELLMARGIN_BEGIN
 40
1.5
 40
1.5
 40
1.5
 40
1.5
 40
1.5
 40
1.5
309
CELLMARGIN_END
 94
        6
 95
        1
302
GRIDFORMAT
  1
GRIDFORMAT_BEGIN
 90
        0
 91
        1
 62
     0
 92
       -2
340
14
 93
        0
 40
0.045
309
GRIDFORMAT_END
 95
        2
302
GRIDFORMAT
  1
GRIDFORMAT_BEGIN
 90
        0
 91
        1
 62
     0
 92
       -2
340
14
 93
        0
 40
0.045
309
GRIDFORMAT_END
 95
        4
302
GRIDFORMAT
  1
GRIDFORMAT_BEGIN
 90
        0
 91
        1
 62
     0
 92
       -2
340
14
 93
        0
 40
0.045
309
GRIDFORMAT_END
 95
        8
302
GRIDFORMAT
  1
GRIDFORMAT_BEGIN
 90
        0
 91
        1
 62
     0
 92
       -2
340
14
 93
        0
 40
0.045
309
GRIDFORMAT_END
 95
       16
302
GRIDFORMAT
  1
GRIDFORMAT_BEGIN
 90
        0
 91
        1
 62
     0
 92
       -2
340
14
 93
        0
 40
0.045
309
GRIDFORMAT_END
 95
       32
302
GRIDFORMAT
  1
GRIDFORMAT_BEGIN
 90
        0
 91
        1
 62
     0
 92
       -2
340
14
 93
        0
 40
0.045
309
GRIDFORMAT_END
309
TABLEFORMAT_END
  1
CELLSTYLE_BEGIN
 90
        2
 91
        1
300
_HEADER
309
CELLSTYLE_END
300
CELLSTYLE
  1
TABLEFORMAT_BEGIN
 90
        5
170
     1
 91
        0
 92
        0
 62
   257
 93
        1
300
CONTENTFORMAT
  1
CONTENTFORMAT_BEGIN
 90
        0
 91
        0
 92
        4
 93
        0
300

 40
0.0
140
1.0
 94
        2
 62
     0
340
11
144
4.5
309
CONTENTFORMAT_END
171
     1
301
MARGIN
  1
CELLMARGIN_BEGIN
 40
1.5
 40
1.5
 40
1.5
 40
1.5
 40
1.5
 40
1.5
309
CELLMARGIN_END
 94
        6
 95
        1
302
GRIDFORMAT
  1
GRIDFORMAT_BEGIN
 90
        0
 91
        1
 62
     0
 92
       -2
340
14
 93
        0
 40
0.045
309
GRIDFORMAT_END
 95
        2
302
GRIDFORMAT
  1
GRIDFORMAT_BEGIN
 90
        0
 91
        1
 62
     0
 92
       -2
340
14
 93
        0
 40
0.045
309
GRIDFORMAT_END
 95
        4
302
GRIDFORMAT
  1
GRIDFORMAT_BEGIN
 90
        0
 91
        1
 62
     0
 92
       -2
340
14
 93
        0
 40
0.045
309
GRIDFORMAT_END
 95
        8
302
GRIDFORMAT
  1
GRIDFORMAT_BEGIN
 90
        0
 91
        1
 62
     0
 92
       -2
340
14
 93
        0
 40
0.045
309
GRIDFORMAT_END
 95
       16
302
GRIDFORMAT
  1
GRIDFORMAT_BEGIN
 90
        0
 91
        1
 62
     0
 92
       -2
340
14
 93
        0
 40
0.045
309
GRIDFORMAT_END
 95
       32
302
GRIDFORMAT
  1
GRIDFORMAT_BEGIN
 90
        0
 91
        1
 62
     0
 92
       -2
340
14
 93
        0
 40
0.045
309
GRIDFORMAT_END
309
TABLEFORMAT_END
  1
CELLSTYLE_BEGIN
 90
        3
 91
        2
300
_DATA
309
CELLSTYLE_END
  0
ENDSEC
  0
EOF
