  0
SECTION
  2
HEADER
  9
$ACADVER
  1
AC1027
  9
$ACADMAINTVER
 70
   105
  9
$DWGCODEPAGE
  3
ANSI_1252
  9
$REQUIREDVERSIONS
160
                 0
  9
$INSBASE
 10
0.0
 20
0.0
 30
0.0
  9
$EXTMIN
 10
-155.0
 20
-155.0
 30
0.0
  9
$EXTMAX
 10
155.0
 20
155.0
 30
0.0
  9
$LIMMIN
 10
0.0
 20
0.0
  9
$LIMMAX
 10
420.0
 20
297.0
  9
$ORTHOMODE
 70
     0
  9
$REGENMODE
 70
     1
  9
$FILLMODE
 70
     1
  9
$QTEXTMODE
 70
     0
  9
$MIRRTEXT
 70
     1
  9
$LTSCALE
 40
1.0
  9
$ATTMODE
 70
     1
  9
$TEXTSIZE
 40
3.5
  9
$TRACEWID
 40
1.0
  9
$TEXTSTYLE
  7
STANDARD
  9
$CLAYER
  8
0
  9
$CELTYPE
  6
ByLayer
  9
$CECOLOR
 62
   256
  9
$CELTSCALE
 40
1.0
  9
$DISPSILH
 70
     0
  9
$DIMSCALE
 40
1.0
  9
$DIMASZ
 40
6.0
  9
$DIMEXO
 40
1.0
  9
$DIMDLI
 40
3.75
  9
$DIMRND
 40
0.0
  9
$DIMDLE
 40
0.0
  9
$DIMEXE
 40
1.0
  9
$DIMTP
 40
0.0
  9
$DIMTM
 40
0.0
  9
$DIMTXT
 40
3.5
  9
$DIMCEN
 40
2.5
  9
$DIMTSZ
 40
0.0
  9
$DIMTOL
 70
     0
  9
$DIMLIM
 70
     0
  9
$DIMTIH
 70
     1
  9
$DIMTOH
 70
     1
  9
$DIMSE1
 70
     0
  9
$DIMSE2
 70
     0
  9
$DIMTAD
 70
     1
  9
$DIMZIN
 70
     0
  9
$DIMBLK
  1

  9
$DIMASO
 70
     1
  9
$DIMSHO
 70
     1
  9
$DIMPOST
  1

  9
$DIMAPOST
  1

  9
$DIMALT
 70
     0
  9
$DIMALTD
 70
     3
  9
$DIMALTF
 40
0.0393700787
  9
$DIMLFAC
 40
1.0
  9
$DIMTOFL
 70
     1
  9
$DIMTVP
 40
0.0
  9
$DIMTIX
 70
     0
  9
$DIMSOXD
 70
     0
  9
$DIMSAH
 70
     0
  9
$DIMBLK1
  1

  9
$DIMBLK2
  1

  9
$DIMSTYLE
  2
ISO-25
  9
$DIMCLRD
 70
     0
  9
$DIMCLRE
 70
     0
  9
$DIMCLRT
 70
     0
  9
$DIMTFAC
 40
1.0
  9
$DIMGAP
 40
1.524
  9
$DIMJUST
 70
     0
  9
$DIMSD1
 70
     0
  9
$DIMSD2
 70
     0
  9
$DIMTOLJ
 70
     0
  9
$DIMTZIN
 70
     0
  9
$DIMALTZ
 70
     0
  9
$DIMALTTZ
 70
     0
  9
$DIMUPT
 70
     0
  9
$DIMDEC
 70
     2
  9
$DIMTDEC
 70
     2
  9
$DIMALTU
 70
     2
  9
$DIMALTTD
 70
     3
  9
$DIMTXSTY
  7
STANDARD
  9
$DIMAUNIT
 70
     0
  9
$DIMADEC
 70
     2
  9
$DIMALTRND
 40
0.0
  9
$DIMAZIN
 70
     0
  9
$DIMDSEP
 70
    44
  9
$DIMATFIT
 70
     3
  9
$DIMFRAC
 70
     0
  9
$DIMLDRBLK
  1

  9
$DIMLUNIT
 70
     2
  9
$DIMLWD
 70
    -2
  9
$DIMLWE
 70
    -2
  9
$DIMTMOVE
 70
     0
  9
$DIMFXL
 40
1.0
  9
$DIMFXLON
 70
     0
  9
$DIMJOGANG
 40
0.7853981634
  9
$DIMTFILL
 70
     0
  9
$DIMTFILLCLR
 70
     0
  9
$DIMARCSYM
 70
     0
  9
$DIMLTYPE
  6

  9
$DIMLTEX1
  6

  9
$DIMLTEX2
  6

  9
$DIMTXTDIRECTION
 70
     0
  9
$LUNITS
 70
     2
  9
$LUPREC
 70
     2
  9
$SKETCHINC
 40
1.0
  9
$FILLETRAD
 40
10.0
  9
$AUNITS
 70
     0
  9
$AUPREC
 70
     2
  9
$MENU
  1
.
  9
$ELEVATION
 40
0.0
  9
$PELEVATION
 40
0.0
  9
$THICKNESS
 40
0.0
  9
$LIMCHECK
 70
     0
  9
$CHAMFERA
 40
0.0
  9
$CHAMFERB
 40
0.0
  9
$CHAMFERC
 40
0.0
  9
$CHAMFERD
 40
0.0
  9
$SKPOLY
 70
     0
  9
$TDCREATE
 40
2458225.643155208
  9
$TDUCREATE
 40
2458225.559821875
  9
$TDUPDATE
 40
2458225.643193055
  9
$TDUUPDATE
 40
2458225.559859722
  9
$TDINDWG
 40
0.0000000116
  9
$TDUSRTIMER
 40
0.0000000116
  9
$USRTIMER
 70
     1
  9
$ANGBASE
 50
0.0
  9
$ANGDIR
 70
     0
  9
$PDMODE
 70
     0
  9
$PDSIZE
 40
-1.0
  9
$PLINEWID
 40
0.0
  9
$SPLFRAME
 70
     0
  9
$SPLINETYPE
 70
     6
  9
$SPLINESEGS
 70
     8
  9
$HANDSEED
  5
167
  9
$SURFTAB1
 70
     6
  9
$SURFTAB2
 70
     6
  9
$SURFTYPE
 70
     6
  9
$SURFU
 70
     6
  9
$SURFV
 70
     6
  9
$UCSBASE
  2

  9
$UCSNAME
  2

  9
$UCSORG
 10
0.0
 20
0.0
 30
0.0
  9
$UCSXDIR
 10
1.0
 20
0.0
 30
0.0
  9
$UCSYDIR
 10
0.0
 20
1.0
 30
0.0
  9
$UCSORTHOREF
  2

  9
$UCSORTHOVIEW
 70
     0
  9
$UCSORGTOP
 10
0.0
 20
0.0
 30
0.0
  9
$UCSORGBOTTOM
 10
0.0
 20
0.0
 30
0.0
  9
$UCSORGLEFT
 10
0.0
 20
0.0
 30
0.0
  9
$UCSORGRIGHT
 10
0.0
 20
0.0
 30
0.0
  9
$UCSORGFRONT
 10
0.0
 20
0.0
 30
0.0
  9
$UCSORGBACK
 10
0.0
 20
0.0
 30
0.0
  9
$PUCSBASE
  2

  9
$PUCSNAME
  2

  9
$PUCSORG
 10
0.0
 20
0.0
 30
0.0
  9
$PUCSXDIR
 10
1.0
 20
0.0
 30
0.0
  9
$PUCSYDIR
 10
0.0
 20
1.0
 30
0.0
  9
$PUCSORTHOREF
  2

  9
$PUCSORTHOVIEW
 70
     0
  9
$PUCSORGTOP
 10
0.0
 20
0.0
 30
0.0
  9
$PUCSORGBOTTOM
 10
0.0
 20
0.0
 30
0.0
  9
$PUCSORGLEFT
 10
0.0
 20
0.0
 30
0.0
  9
$PUCSORGRIGHT
 10
0.0
 20
0.0
 30
0.0
  9
$PUCSORGFRONT
 10
0.0
 20
0.0
 30
0.0
  9
$PUCSORGBACK
 10
0.0
 20
0.0
 30
0.0
  9
$USERI1
 70
     0
  9
$USERI2
 70
     0
  9
$USERI3
 70
     0
  9
$USERI4
 70
     0
  9
$USERI5
 70
     0
  9
$USERR1
 40
0.0
  9
$USERR2
 40
0.0
  9
$USERR3
 40
0.0
  9
$USERR4
 40
0.0
  9
$USERR5
 40
0.0
  9
$WORLDVIEW
 70
     1
  9
$SHADEDGE
 70
     3
  9
$SHADEDIF
 70
    70
  9
$TILEMODE
 70
     1
  9
$MAXACTVP
 70
    64
  9
$PINSBASE
 10
0.0
 20
0.0
 30
0.0
  9
$PLIMCHECK
 70
     0
  9
$PEXTMIN
 10
-155.0
 20
0.0
 30
0.0
  9
$PEXTMAX
 10
155.0
 20
140.0
 30
0.0
  9
$PLIMMIN
 10
-179.1245136187
 20
-9.046692607
  9
$PLIMMAX
 10
179.1245136187
 20
244.2607003891
  9
$UNITMODE
 70
     0
  9
$VISRETAIN
 70
     1
  9
$PLINEGEN
 70
     0
  9
$PSLTSCALE
 70
     1
  9
$TREEDEPTH
 70
  3020
  9
$CMLSTYLE
  2
Standard
  9
$CMLJUST
 70
     0
  9
$CMLSCALE
 40
20.0
  9
$PROXYGRAPHICS
 70
     1
  9
$MEASUREMENT
 70
     1
  9
$CELWEIGHT
370
    -1
  9
$ENDCAPS
280
     0
  9
$JOINSTYLE
280
     0
  9
$LWDISPLAY
290
     1
  9
$INSUNITS
 70
     4
  9
$HYPERLINKBASE
  1

  9
$STYLESHEET
  1

  9
$XEDIT
290
     1
  9
$CEPSNTYPE
380
     0
  9
$PSTYLEMODE
290
     1
  9
$FINGERPRINTGUID
  2
{D3A8C5B4-8A97-4DFF-A7F6-087CA1D4CC48}
  9
$VERSIONGUID
  2
{FAEB1C32-E019-11D5-929B-00C0DF256EC4}
  9
$EXTNAMES
290
     1
  9
$PSVPSCALE
 40
0.0
  9
$OLESTARTUP
290
     0
  9
$SORTENTS
280
   127
  9
$INDEXCTL
280
     0
  9
$HIDETEXT
280
     1
  9
$XCLIPFRAME
280
     2
  9
$HALOGAP
280
     0
  9
$OBSCOLOR
 70
   257
  9
$OBSLTYPE
280
     0
  9
$INTERSECTIONDISPLAY
280
     0
  9
$INTERSECTIONCOLOR
 70
   257
  9
$DIMASSOC
280
     2
  9
$PROJECTNAME
  1

  9
$CAMERADISPLAY
290
     0
  9
$LENSLENGTH
 40
50.0
  9
$CAMERAHEIGHT
 40
0.0
  9
$STEPSPERSEC
 40
2.0
  9
$STEPSIZE
 40
6.0
  9
$3DDWFPREC
 40
2.0
  9
$PSOLWIDTH
 40
5.0
  9
$PSOLHEIGHT
 40
80.0
  9
$LOFTANG1
 40
1.5707963268
  9
$LOFTANG2
 40
1.5707963268
  9
$LOFTMAG1
 40
0.0
  9
$LOFTMAG2
 40
0.0
  9
$LOFTPARAM
 70
     7
  9
$LOFTNORMALS
280
     1
  9
$LATITUDE
 40
37.795
  9
$LONGITUDE
 40
-122.394
  9
$NORTHDIRECTION
 40
0.0
  9
$TIMEZONE
 70
 -8000
  9
$LIGHTGLYPHDISPLAY
280
     1
  9
$TILEMODELIGHTSYNCH
280
     1
  9
$CMATERIAL
347
44
  9
$SOLIDHIST
280
     0
  9
$SHOWHIST
280
     1
  9
$DWFFRAME
280
     2
  9
$DGNFRAME
280
     2
  9
$REALWORLDSCALE
290
     1
  9
$INTERFERECOLOR
 62
   256
  9
$CSHADOW
280
     0
  9
$SHADOWPLANELOCATION
 40
0.0
  0
ENDSEC
  0
SECTION
  2
CLASSES
  0
CLASS
  1
ACDBDICTIONARYWDFLT
  2
AcDbDictionaryWithDefault
  3
ObjectDBX Classes
 90
        0
 91
        4
280
     0
281
     0
  0
CLASS
  1
VISUALSTYLE
  2
AcDbVisualStyle
  3
ObjectDBX Classes
 90
     4095
 91
        4
280
     0
281
     0
  0
CLASS
  1
MATERIAL
  2
AcDbMaterial
  3
ObjectDBX Classes
 90
     1153
 91
        4
280
     0
281
     0
  0
CLASS
  1
SCALE
  2
AcDbScale
  3
ObjectDBX Classes
 90
     1153
 91
        4
280
     0
281
     0
  0
CLASS
  1
TABLESTYLE
  2
AcDbTableStyle
  3
ObjectDBX Classes
 90
     4095
 91
        4
280
     0
281
     0
  0
CLASS
  1
MLEADERSTYLE
  2
AcDbMLeaderStyle
  3
ACDB_MLEADERSTYLE_CLASS
 90
     4095
 91
        4
280
     0
281
     0
  0
CLASS
  1
SUN
  2
AcDbSun
  3
SCENEOE
 90
     1153
 91
        4
280
     0
281
     0
  0
CLASS
  1
DICTIONARYVAR
  2
AcDbDictionaryVar
  3
ObjectDBX Classes
 90
        0
 91
        4
280
     0
281
     0
  0
CLASS
  1
CELLSTYLEMAP
  2
AcDbCellStyleMap
  3
ObjectDBX Classes
 90
     1152
 91
        4
280
     0
281
     0
  0
ENDSEC
  0
SECTION
  2
TABLES
  0
TABLE
  2
VPORT
  5
8
330
0
100
AcDbSymbolTable
 70
     1
  0
VPORT
  5
29
330
8
100
AcDbSymbolTableRecord
100
AcDbViewportTableRecord
  2
*Active
 70
     0
 10
0.0
 20
0.0
 11
1.0
 21
1.0
 12
0.0
 22
0.0
 13
0.0
 23
0.0
 14
10.0
 24
10.0
 15
10.0
 25
10.0
 16
0.0
 26
0.0
 36
1.0
 17
0.0
 27
0.0
 37
0.0
 40
316.2
 41
1.0
 42
50.0
 43
0.0
 44
0.0
 50
0.0
 51
0.0
 71
     0
 72
   100
 73
     1
 74
     3
 75
     0
 76
     0
 77
     0
 78
     0
281
     0
 65
     1
110
0.0
120
0.0
130
0.0
111
1.0
121
0.0
131
0.0
112
0.0
122
1.0
132
0.0
 79
     0
146
0.0
348
2F
 60
     3
 61
     5
292
     1
282
     1
141
0.0
142
0.0
 63
   250
361
6D
  0
ENDTAB
  0
TABLE
  2
LTYPE
  5
5
330
0
100
AcDbSymbolTable
 70
     6
  0
LTYPE
  5
14
330
5
100
AcDbSymbolTableRecord
100
AcDbLinetypeTableRecord
  2
ByBlock
 70
     0
  3

 72
    65
 73
     0
 40
0.0
  0
LTYPE
  5
15
330
5
100
AcDbSymbolTableRecord
100
AcDbLinetypeTableRecord
  2
ByLayer
 70
     0
  3

 72
    65
 73
     0
 40
0.0
  0
LTYPE
  5
16
330
5
100
AcDbSymbolTableRecord
100
AcDbLinetypeTableRecord
  2
Continuous
 70
     0
  3
Solid line
 72
    65
 73
     0
 40
0.0
  0
LTYPE
  5
6E
330
5
100
AcDbSymbolTableRecord
100
AcDbLinetypeTableRecord
  2
HIDDEN
 70
     0
  3
Hidden __ __ __ __ __ __ __ __ __ __ __ __ __ __
 72
    65
 73
     2
 40
1.905
 49
1.27
 74
     0
 49
-0.635
 74
     0
  0
LTYPE
  5
6F
330
5
100
AcDbSymbolTableRecord
100
AcDbLinetypeTableRecord
  2
PHANTOM
 70
     0
  3
Phantom ______  __  __  ______  __  __  ______
 72
    65
 73
     6
 40
12.7
 49
6.35
 74
     0
 49
-1.27
 74
     0
 49
1.27
 74
     0
 49
-1.27
 74
     0
 49
1.27
 74
     0
 49
-1.27
 74
     0
  0
LTYPE
  5
70
330
5
100
AcDbSymbolTableRecord
100
AcDbLinetypeTableRecord
  2
CENTER
 70
     0
  3
Center ____ _ ____ _ ____ _ ____ _ ____ _ ____
 72
    65
 73
     4
 40
10.16
 49
6.35
 74
     0
 49
-1.27
 74
     0
 49
1.27
 74
     0
 49
-1.27
 74
     0
  0
LTYPE
  5
71
330
5
100
AcDbSymbolTableRecord
100
AcDbLinetypeTableRecord
  2
CENTERX2
 70
     0
  3
Center (2x) ________  __  ________  __  _____
 72
    65
 73
     4
 40
20.32
 49
12.7
 74
     0
 49
-2.54
 74
     0
 49
2.54
 74
     0
 49
-2.54
 74
     0
  0
LTYPE
  5
72
330
5
100
AcDbSymbolTableRecord
100
AcDbLinetypeTableRecord
  2
DOT2
 70
     0
  3
Dot (.5x) ........................................
 72
    65
 73
     2
 40
0.635
 49
0.0
 74
     0
 49
-0.635
 74
     0
  0
ENDTAB
  0
TABLE
  2
LAYER
  5
2
330
0
100
AcDbSymbolTable
 70
     1
  0
LAYER
  5
10
330
2
100
AcDbSymbolTableRecord
100
AcDbLayerTableRecord
  2
0
 70
     0
 62
     7
  6
Continuous
370
    -3
390
F
347
46
348
0
  0
ENDTAB
  0
TABLE
  2
STYLE
  5
3
330
0
100
AcDbSymbolTable
 70
     1
  0
STYLE
  5
11
330
3
100
AcDbSymbolTableRecord
100
AcDbTextStyleTableRecord
  2
STANDARD
 70
     0
 40
0.0
 41
1.0
 50
0.0
 71
     0
 42
3.5
  3
GOTHIC.TTF
  4

1001
ACAD
1000
CENTURY GOTHIC
1071
       34
  0
ENDTAB
  0
TABLE
  2
VIEW
  5
6
330
0
100
AcDbSymbolTable
 70
     0
  0
ENDTAB
  0
TABLE
  2
UCS
  5
7
330
0
100
AcDbSymbolTable
 70
     0
  0
ENDTAB
  0
TABLE
  2
APPID
  5
9
330
0
100
AcDbSymbolTable
 70
     1
  0
APPID
  5
12
330
9
100
AcDbSymbolTableRecord
100
AcDbRegAppTableRecord
  2
ACAD
 70
     0
  0
ENDTAB
  0
TABLE
  2
DIMSTYLE
  5
A
330
0
100
AcDbSymbolTable
 70
     1
100
AcDbDimStyleTable
  0
DIMSTYLE
105
27
330
A
100
AcDbSymbolTableRecord
100
AcDbDimStyleTableRecord
  2
ISO-25
 70
     0
 41
2.5
 42
0.625
 43
3.75
 44
1.25
 73
     0
 74
     0
 77
     1
 78
     8
140
2.5
141
2.5
143
0.0393700787
147
0.625
171
     3
172
     1
178
     0
271
     2
272
     2
274
     3
278
    44
283
     0
284
     8
340
11
  0
ENDTAB
  0
TABLE
  2
BLOCK_RECORD
  5
1
330
0
100
AcDbSymbolTable
 70
     8
  0
BLOCK_RECORD
  5
1F
330
1
100
AcDbSymbolTableRecord
100
AcDbBlockTableRecord
  2
*Model_Space
340
22
 70
     0
280
     1
281
     0
  0
BLOCK_RECORD
  5
1B
330
1
100
AcDbSymbolTableRecord
100
AcDbBlockTableRecord
  2
*Paper_Space
340
1E
 70
     0
280
     1
281
     0
  0
BLOCK_RECORD
  5
23
330
1
100
AcDbSymbolTableRecord
100
AcDbBlockTableRecord
  2
*Paper_Space0
340
26
 70
     0
280
     1
281
     0
  0
BLOCK_RECORD
  5
A7
330
1
100
AcDbSymbolTableRecord
100
AcDbBlockTableRecord
  2
*Paper_Space1
340
A8
 70
     0
280
     1
281
     0
  0
BLOCK_RECORD
  5
B3
330
1
100
AcDbSymbolTableRecord
100
AcDbBlockTableRecord
  2
*Paper_Space2
340
B4
 70
     0
280
     1
281
     0
  0
BLOCK_RECORD
  5
BF
330
1
100
AcDbSymbolTableRecord
100
AcDbBlockTableRecord
  2
*Paper_Space3
340
C0
 70
     0
280
     1
281
     0
  0
BLOCK_RECORD
  5
CB
330
1
100
AcDbSymbolTableRecord
100
AcDbBlockTableRecord
  2
*Paper_Space4
340
CC
 70
     0
280
     1
281
     0
  0
BLOCK_RECORD
  5
D8
330
1
100
AcDbSymbolTableRecord
100
AcDbBlockTableRecord
  2
*Paper_Space5
340
D9
 70
     0
280
     1
281
     0
  0
BLOCK_RECORD
  5
104
330
1
100
AcDbSymbolTableRecord
100
AcDbBlockTableRecord
  2
*Paper_Space6
340
105
 70
     0
280
     1
281
     0
  0
BLOCK_RECORD
  5
12C
330
1
100
AcDbSymbolTableRecord
100
AcDbBlockTableRecord
  2
*Paper_Space7
340
12D
 70
     0
280
     1
281
     0
  0
ENDTAB
  0
ENDSEC
  0
SECTION
  2
BLOCKS
  0
BLOCK
  5
20
330
1F
100
AcDbEntity
  8
0
100
AcDbBlockBegin
  2
*Model_Space
 70
     0
 10
0.0
 20
0.0
 30
0.0
  3
*Model_Space
  1

  0
ENDBLK
  5
21
330
1F
100
AcDbEntity
  8
0
100
AcDbBlockEnd
  0
BLOCK
  5
1C
330
1B
100
AcDbEntity
 67
     1
  8
0
100
AcDbBlockBegin
  2
*Paper_Space
 70
     0
 10
0.0
 20
0.0
 30
0.0
  3
*Paper_Space
  1

  0
ENDBLK
  5
1D
330
1B
100
AcDbEntity
 67
     1
  8
0
100
AcDbBlockEnd
  0
BLOCK
  5
24
330
23
100
AcDbEntity
  8
0
100
AcDbBlockBegin
  2
*Paper_Space0
 70
     0
 10
0.0
 20
0.0
 30
0.0
  3
*Paper_Space0
  1

  0
LINE
  5
A3
330
23
100
AcDbEntity
  8
0
  6
Continuous
 62
     7
370
    25
100
AcDbLine
 10
-155.0
 20
140.0
 30
0.0
 11
-155.0
 21
0.0
 31
0.0
  0
LINE
  5
A4
330
23
100
AcDbEntity
  8
0
  6
Continuous
 62
     7
370
    25
100
AcDbLine
 10
-155.0
 20
140.0
 30
0.0
 11
155.0
 21
140.0
 31
0.0
  0
LINE
  5
A5
330
23
100
AcDbEntity
  8
0
  6
Continuous
 62
     7
370
    25
100
AcDbLine
 10
155.0
 20
140.0
 30
0.0
 11
155.0
 21
0.0
 31
0.0
  0
LINE
  5
A6
330
23
100
AcDbEntity
  8
0
  6
Continuous
 62
     7
370
    25
100
AcDbLine
 10
-155.0
 20
0.0
 30
0.0
 11
155.0
 21
0.0
 31
0.0
  0
VIEWPORT
  5
14E
330
23
100
AcDbEntity
  8
0
100
AcDbViewport
 10
0.0
 20
0.0
 30
0.0
 40
205.6
 41
156.0
 68
     1
 69
     1
 12
0.0
 22
0.0
 13
0.0
 23
0.0
 14
10.0
 24
10.0
 15
10.0
 25
10.0
 16
0.0
 26
0.0
 36
1.0
 17
0.0
 27
0.0
 37
0.0
 42
50.0
 43
0.0
 44
0.0
 45
316.2
 50
0.0
 51
0.0
 72
   100
 90
   557152
  1

281
     0
 71
     1
 74
     0
110
0.0
120
0.0
130
0.0
111
1.0
121
0.0
131
0.0
112
0.0
122
1.0
132
0.0
 79
     0
146
0.0
170
     0
 61
     5
348
2F
292
     1
282
     1
141
0.0
142
0.0
 63
   256
361
14F
  0
ENDBLK
  5
25
330
23
100
AcDbEntity
  8
0
100
AcDbBlockEnd
  0
BLOCK
  5
A9
330
A7
100
AcDbEntity
  8
0
100
AcDbBlockBegin
  2
*Paper_Space1
 70
     0
 10
0.0
 20
0.0
 30
0.0
  3
*Paper_Space1
  1

  0
LINE
  5
AF
330
A7
100
AcDbEntity
  8
0
  6
Continuous
 62
     7
370
    25
100
AcDbLine
 10
-155.0
 20
140.0
 30
0.0
 11
155.0
 21
140.0
 31
0.0
  0
LINE
  5
B0
330
A7
100
AcDbEntity
  8
0
  6
Continuous
 62
     7
370
    25
100
AcDbLine
 10
-155.0
 20
140.0
 30
0.0
 11
-155.0
 21
0.0
 31
0.0
  0
LINE
  5
B1
330
A7
100
AcDbEntity
  8
0
  6
Continuous
 62
     7
370
    25
100
AcDbLine
 10
-155.0
 20
0.0
 30
0.0
 11
155.0
 21
0.0
 31
0.0
  0
LINE
  5
B2
330
A7
100
AcDbEntity
  8
0
  6
Continuous
 62
     7
370
    25
100
AcDbLine
 10
155.0
 20
140.0
 30
0.0
 11
155.0
 21
0.0
 31
0.0
  0
VIEWPORT
  5
150
330
A7
100
AcDbEntity
  8
0
100
AcDbViewport
 10
0.0
 20
0.0
 30
0.0
 40
205.6
 41
156.0
 68
     1
 69
     1
 12
0.0
 22
0.0
 13
0.0
 23
0.0
 14
10.0
 24
10.0
 15
10.0
 25
10.0
 16
0.0
 26
0.0
 36
1.0
 17
0.0
 27
0.0
 37
0.0
 42
50.0
 43
0.0
 44
0.0
 45
316.2
 50
0.0
 51
0.0
 72
   100
 90
   557152
  1

281
     0
 71
     1
 74
     0
110
0.0
120
0.0
130
0.0
111
1.0
121
0.0
131
0.0
112
0.0
122
1.0
132
0.0
 79
     0
146
0.0
170
     0
 61
     5
348
2F
292
     1
282
     1
141
0.0
142
0.0
 63
   256
361
151
  0
ENDBLK
  5
AA
330
A7
100
AcDbEntity
  8
0
100
AcDbBlockEnd
  0
BLOCK
  5
B5
330
B3
100
AcDbEntity
  8
0
100
AcDbBlockBegin
  2
*Paper_Space2
 70
     0
 10
0.0
 20
0.0
 30
0.0
  3
*Paper_Space2
  1

  0
LINE
  5
BB
330
B3
100
AcDbEntity
  8
0
  6
Continuous
 62
     7
370
    25
100
AcDbLine
 10
-155.0
 20
140.0
 30
0.0
 11
155.0
 21
140.0
 31
0.0
  0
LINE
  5
BC
330
B3
100
AcDbEntity
  8
0
  6
Continuous
 62
     7
370
    25
100
AcDbLine
 10
155.0
 20
140.0
 30
0.0
 11
155.0
 21
0.0
 31
0.0
  0
LINE
  5
BD
330
B3
100
AcDbEntity
  8
0
  6
Continuous
 62
     7
370
    25
100
AcDbLine
 10
-155.0
 20
0.0
 30
0.0
 11
155.0
 21
0.0
 31
0.0
  0
LINE
  5
BE
330
B3
100
AcDbEntity
  8
0
  6
Continuous
 62
     7
370
    25
100
AcDbLine
 10
-155.0
 20
140.0
 30
0.0
 11
-155.0
 21
0.0
 31
0.0
  0
VIEWPORT
  5
152
330
B3
100
AcDbEntity
  8
0
100
AcDbViewport
 10
0.0
 20
0.0
 30
0.0
 40
205.6
 41
156.0
 68
     1
 69
     1
 12
0.0
 22
0.0
 13
0.0
 23
0.0
 14
10.0
 24
10.0
 15
10.0
 25
10.0
 16
0.0
 26
0.0
 36
1.0
 17
0.0
 27
0.0
 37
0.0
 42
50.0
 43
0.0
 44
0.0
 45
316.2
 50
0.0
 51
0.0
 72
   100
 90
   557152
  1

281
     0
 71
     1
 74
     0
110
0.0
120
0.0
130
0.0
111
1.0
121
0.0
131
0.0
112
0.0
122
1.0
132
0.0
 79
     0
146
0.0
170
     0
 61
     5
348
2F
292
     1
282
     1
141
0.0
142
0.0
 63
   256
361
153
  0
ENDBLK
  5
B6
330
B3
100
AcDbEntity
  8
0
100
AcDbBlockEnd
  0
BLOCK
  5
C1
330
BF
100
AcDbEntity
  8
0
100
AcDbBlockBegin
  2
*Paper_Space3
 70
     0
 10
0.0
 20
0.0
 30
0.0
  3
*Paper_Space3
  1

  0
LINE
  5
C7
330
BF
100
AcDbEntity
  8
0
  6
Continuous
 62
     7
370
    25
100
AcDbLine
 10
155.0
 20
140.0
 30
0.0
 11
155.0
 21
0.0
 31
0.0
  0
LINE
  5
C8
330
BF
100
AcDbEntity
  8
0
  6
Continuous
 62
     7
370
    25
100
AcDbLine
 10
-155.0
 20
0.0
 30
0.0
 11
155.0
 21
0.0
 31
0.0
  0
LINE
  5
C9
330
BF
100
AcDbEntity
  8
0
  6
Continuous
 62
     7
370
    25
100
AcDbLine
 10
-155.0
 20
140.0
 30
0.0
 11
-155.0
 21
0.0
 31
0.0
  0
LINE
  5
CA
330
BF
100
AcDbEntity
  8
0
  6
Continuous
 62
     7
370
    25
100
AcDbLine
 10
-155.0
 20
140.0
 30
0.0
 11
155.0
 21
140.0
 31
0.0
  0
VIEWPORT
  5
154
330
BF
100
AcDbEntity
  8
0
100
AcDbViewport
 10
0.0
 20
0.0
 30
0.0
 40
205.6
 41
156.0
 68
     1
 69
     1
 12
0.0
 22
0.0
 13
0.0
 23
0.0
 14
10.0
 24
10.0
 15
10.0
 25
10.0
 16
0.0
 26
0.0
 36
1.0
 17
0.0
 27
0.0
 37
0.0
 42
50.0
 43
0.0
 44
0.0
 45
316.2
 50
0.0
 51
0.0
 72
   100
 90
   557152
  1

281
     0
 71
     1
 74
     0
110
0.0
120
0.0
130
0.0
111
1.0
121
0.0
131
0.0
112
0.0
122
1.0
132
0.0
 79
     0
146
0.0
170
     0
 61
     5
348
2F
292
     1
282
     1
141
0.0
142
0.0
 63
   256
361
155
  0
ENDBLK
  5
C2
330
BF
100
AcDbEntity
  8
0
100
AcDbBlockEnd
  0
BLOCK
  5
CD
330
CB
100
AcDbEntity
  8
0
100
AcDbBlockBegin
  2
*Paper_Space4
 70
     0
 10
0.0
 20
0.0
 30
0.0
  3
*Paper_Space4
  1

  0
CIRCLE
  5
CF
330
CB
100
AcDbEntity
  8
0
  6
Continuous
 62
     7
370
    25
100
AcDbCircle
 10
0.0
 20
0.0
 30
0.0
 40
23.00000000000002
  0
LINE
  5
D4
330
CB
100
AcDbEntity
  8
0
  6
Continuous
 62
     7
370
    25
100
AcDbLine
 10
-155.0
 20
155.0
 30
0.0
 11
155.0
 21
155.0
 31
0.0
  0
LINE
  5
D5
330
CB
100
AcDbEntity
  8
0
  6
Continuous
 62
     7
370
    25
100
AcDbLine
 10
-155.0
 20
-155.0
 30
0.0
 11
-155.0
 21
155.0
 31
0.0
  0
LINE
  5
D6
330
CB
100
AcDbEntity
  8
0
  6
Continuous
 62
     7
370
    25
100
AcDbLine
 10
155.0
 20
-155.0
 30
0.0
 11
-155.0
 21
-155.0
 31
0.0
  0
LINE
  5
D7
330
CB
100
AcDbEntity
  8
0
  6
Continuous
 62
     7
370
    25
100
AcDbLine
 10
155.0
 20
155.0
 30
0.0
 11
155.0
 21
-155.0
 31
0.0
  0
VIEWPORT
  5
156
330
CB
100
AcDbEntity
  8
0
100
AcDbViewport
 10
0.0
 20
0.0
 30
0.0
 40
205.6
 41
156.0
 68
     1
 69
     1
 12
0.0
 22
0.0
 13
0.0
 23
0.0
 14
10.0
 24
10.0
 15
10.0
 25
10.0
 16
0.0
 26
0.0
 36
1.0
 17
0.0
 27
0.0
 37
0.0
 42
50.0
 43
0.0
 44
0.0
 45
316.2
 50
0.0
 51
0.0
 72
   100
 90
   557152
  1

281
     0
 71
     1
 74
     0
110
0.0
120
0.0
130
0.0
111
1.0
121
0.0
131
0.0
112
0.0
122
1.0
132
0.0
 79
     0
146
0.0
170
     0
 61
     5
348
2F
292
     1
282
     1
141
0.0
142
0.0
 63
   256
361
157
  0
ENDBLK
  5
CE
330
CB
100
AcDbEntity
  8
0
100
AcDbBlockEnd
  0
BLOCK
  5
DA
330
D8
100
AcDbEntity
  8
0
100
AcDbBlockBegin
  2
*Paper_Space5
 70
     0
 10
0.0
 20
0.0
 30
0.0
  3
*Paper_Space5
  1

  0
SPLINE
  5
EB
330
D8
100
AcDbEntity
  8
0
  6
Continuous
 62
     7
370
    25
100
AcDbSpline
210
0.0
220
0.0
230
1.0
 70
     8
 71
     3
 72
    14
 73
    10
 74
     0
 42
0.000000001
 43
0.00000001
 40
0.0
 40
0.0
 40
0.0
 40
0.0
 40
0.0885261491016957
 40
0.2405709389884802
 40
0.3924500345401509
 40
0.5447257521377822
 40
0.6969668584566807
 40
0.8481763101148522
 40
1.0
 40
1.0
 40
1.0
 40
1.0
 10
-30.87797973273263
 20
21.92609684167215
 30
0.0
 10
-30.49644572021601
 20
22.61032024971966
 30
0.0
 10
-29.45962217622875
 20
24.46970608568092
 30
0.0
 10
-26.78370934752318
 20
27.26418153194007
 30
0.0
 10
-22.76897530411263
 20
30.1075403760728
 30
0.0
 10
-17.87924835234343
 20
32.42697001088307
 30
0.0
 10
-12.32798066423934
 20
34.12660635318869
 30
0.0
 10
-6.304100609880004
 20
35.21350116911055
 30
0.0
 10
-2.118217075933909
 20
35.34956663876451
 30
0.0
 10
-0.0210329847267418
 20
35.41773727371093
 30
0.0
  0
SPLINE
  5
ED
330
D8
100
AcDbEntity
  8
0
  6
Continuous
 62
     7
370
    25
100
AcDbSpline
210
0.0
220
0.0
230
1.0
 70
     8
 71
     3
 72
    15
 73
    11
 74
     0
 42
0.000000001
 43
0.00000001
 40
0.0
 40
0.0
 40
0.0
 40
0.0
 40
0.101183926118852
 40
0.2019575299757627
 40
0.3025173859911605
 40
0.4542203778004819
 40
0.6057629021362253
 40
0.7576955034059678
 40
0.9095939829308645
 40
1.0
 40
1.0
 40
1.0
 40
1.0
 10
-0.0210328400961669
 20
35.41795464281846
 30
0.0
 10
1.3799452111275
 20
35.38880010427314
 30
0.0
 10
4.176220050700794
 20
35.33060925501434
 30
0.0
 10
8.281691573742528
 20
34.8483725947784
 30
0.0
 10
12.90098434445273
 20
33.95714486308187
 30
0.0
 10
17.8367024667434
 20
32.43946804127029
 30
0.0
 10
22.73813586566074
 20
30.12973248528852
 30
0.0
 10
26.74256602158715
 20
27.28238372343995
 30
0.0
 10
29.51304848794727
 20
24.48413328588541
 30
0.0
 10
30.43800202801746
 20
22.58129601092631
 30
0.0
 10
30.78311062776352
 20
21.87133007311721
 30
0.0
  0
SPLINE
  5
EF
330
D8
100
AcDbEntity
  8
0
  6
Continuous
 62
     7
370
    25
100
AcDbSpline
210
0.0
220
0.0
230
1.0
 70
     8
 71
     3
 72
    19
 73
    15
 74
     0
 42
0.000000001
 43
0.00000001
 40
0.0
 40
0.0
 40
0.0
 40
0.0
 40
0.0380416725402942
 40
0.1035655974757896
 40
0.1640406423038935
 40
0.2194671309128479
 40
0.3145745166122202
 40
0.4124706028523581
 40
0.5007578700046564
 40
0.5740303356837446
 40
0.6605946619784303
 40
0.7604473194599825
 40
0.8735840666127431
 40
1.0
 40
1.0
 40
1.0
 40
1.0
 10
19.41190105443885
 20
15.30687051488744
 30
0.0
 10
19.25686822780864
 20
15.4535018159815
 30
0.0
 10
18.8348029965465
 20
15.85269452472408
 30
0.0
 10
18.07215477292287
 20
16.44526755350198
 30
0.0
 10
17.1740815897045
 20
17.07141598344305
 30
0.0
 10
16.05465963809525
 20
17.75608422397435
 30
0.0
 10
14.63494199467275
 20
18.49606766715597
 30
0.0
 10
12.89306091421146
 20
19.23148708117772
 30
0.0
 10
11.18223834273445
 20
19.8129423858493
 30
0.0
 10
9.471682969816424
 20
20.28385466328305
 30
0.0
 10
7.614331891722784
 20
20.6893291671984
 30
0.0
 10
5.399214038055739
 20
21.03319002588852
 30
0.0
 10
2.822235243746599
 20
21.27603618033551
 30
0.0
 10
0.974878288065837
 20
21.28163547857998
 30
0.0
 10
-0.0000026998044425
 20
21.28459032138238
 30
0.0
  0
SPLINE
  5
F0
330
D8
100
AcDbEntity
  8
0
  6
Continuous
 62
     7
370
    25
100
AcDbSpline
210
0.0
220
0.0
230
1.0
 70
     8
 71
     3
 72
    19
 73
    15
 74
     0
 42
0.000000001
 43
0.00000001
 40
0.0
 40
0.0
 40
0.0
 40
0.0
 40
0.1252291440192456
 40
0.242578585907688
 40
0.3520468517507205
 40
0.4536326777849258
 40
0.5292355197040705
 40
0.5997906273046494
 40
0.6652979940788961
 40
0.7257577582284445
 40
0.7811702435601484
 40
0.8762535885480511
 40
0.9741249306034285
 40
1.0
 40
1.0
 40
1.0
 40
1.0
 10
-0.0000232873684954
 20
21.28388112864352
 30
0.0
 10
-0.9659633409809503
 20
21.28138734623931
 30
0.0
 10
-2.837064306431094
 20
21.27655669588301
 30
0.0
 10
-5.510699067972762
 20
21.02204317658414
 30
0.0
 10
-7.934740332281181
 20
20.63171550764825
 30
0.0
 10
-9.969230697442052
 20
20.15687941617561
 30
0.0
 10
-11.65201725896097
 20
19.65538671142875
 30
0.0
 10
-13.02887061527163
 20
19.16396716340232
 30
0.0
 10
-14.24846155718622
 20
18.65514012151134
 30
0.0
 10
-15.31867539538455
 20
18.1417025433447
 30
0.0
 10
-16.50188736309761
 20
17.49930864536682
 30
0.0
 10
-17.78197372855643
 20
16.67133964140599
 30
0.0
 10
-18.82034432792798
 20
15.89021629625527
 30
0.0
 10
-19.30928555990647
 20
15.40757150650826
 30
0.0
 10
-19.41152196547045
 20
15.30665167148382
 30
0.0
  0
SPLINE
  5
F2
330
D8
100
AcDbEntity
  8
0
  6
Continuous
 62
     7
370
    25
100
AcDbSpline
210
0.0
220
0.0
230
1.0
 70
     8
 71
     3
 72
    11
 73
     7
 74
     0
 42
0.000000001
 43
0.00000001
 40
0.0
 40
0.0
 40
0.0
 40
0.0
 40
0.2822368767218076
 40
0.5429791271839174
 40
0.7822321345942724
 40
1.0
 40
1.0
 40
1.0
 40
1.0
 10
-0.0210329847267418
 20
35.41773727371093
 30
0.0
 10
-0.0223505477153912
 20
34.08808302447326
 30
0.0
 10
-0.0248853305896066
 20
31.53003847659835
 30
0.0
 10
-0.0208040683240263
 20
27.84483602832821
 30
0.0
 10
-0.0129765455888237
 20
24.46336584637036
 30
0.0
 10
-0.004229222308293
 20
22.3103060020576
 30
0.0
 10
-0.0000611721554019
 20
21.28438514313119
 30
0.0
  0
LINE
  5
F3
330
D8
100
AcDbEntity
  8
0
  6
Continuous
 62
     7
370
    25
100
AcDbLine
 10
0.0
 20
-12.2275436685
 30
0.0
 11
0.0
 21
-126.5432573325
 31
0.0
  0
LINE
  5
F4
330
D8
100
AcDbEntity
  8
0
  6
Continuous
 62
     7
370
    25
100
AcDbLine
 10
0.0
 20
-12.2275436685
 30
0.0
 11
219.2031021678
 21
114.315713664
 31
0.0
  0
LINE
  5
F5
330
D8
100
AcDbEntity
  8
0
  6
Continuous
 62
     7
370
    25
100
AcDbLine
 10
219.2031021678
 20
114.315713664
 30
0.0
 11
219.2031021678
 21
0.0
 31
0.0
  0
LINE
  5
F6
330
D8
100
AcDbEntity
  8
0
  6
Continuous
 62
     7
370
    25
100
AcDbLine
 10
0.0
 20
-126.5432573325
 30
0.0
 11
219.2031021678
 21
0.0
 31
0.0
  0
LINE
  5
F7
330
D8
100
AcDbEntity
  8
0
  6
Continuous
 62
     7
370
    25
100
AcDbLine
 10
-219.2031021678
 20
114.315713664
 30
0.0
 11
-219.2031021678
 21
0.0
 31
0.0
  0
LINE
  5
F8
330
D8
100
AcDbEntity
  8
0
  6
Continuous
 62
     7
370
    25
100
AcDbLine
 10
-219.2031021678
 20
114.315713664
 30
0.0
 11
0.0
 21
-12.2275436685
 31
0.0
  0
LINE
  5
F9
330
D8
100
AcDbEntity
  8
0
  6
Continuous
 62
     7
370
    25
100
AcDbLine
 10
-219.2031021678
 20
0.0
 30
0.0
 11
0.0
 21
-126.5432573325
 31
0.0
  0
LINE
  5
FA
330
D8
100
AcDbEntity
  8
0
  6
Continuous
 62
     7
370
    25
100
AcDbLine
 10
0.0
 20
240.8589709965
 30
0.0
 11
-219.2031021678
 21
114.315713664
 31
0.0
  0
LINE
  5
FB
330
D8
100
AcDbEntity
  8
0
  6
Continuous
 62
     7
370
    25
100
AcDbLine
 10
219.2031021678
 20
114.315713664
 30
0.0
 11
0.0
 21
240.8589709965
 31
0.0
  0
LINE
  5
FC
330
D8
100
AcDbEntity
  8
0
  6
Continuous
 62
     7
370
    25
100
AcDbLine
 10
190.9188309204
 20
114.315713664
 30
0.0
 11
0.0
 21
224.5308087601
 31
0.0
  0
LINE
  5
FD
330
D8
100
AcDbEntity
  8
0
  6
Continuous
 62
     7
370
    25
100
AcDbLine
 10
0.0
 20
224.5308087601
 30
0.0
 11
-190.9188309204
 21
114.315713664
 31
0.0
  0
LINE
  5
FE
330
D8
100
AcDbEntity
  8
0
  6
Continuous
 62
     7
370
    25
100
AcDbLine
 10
-190.9188309204
 20
114.315713664
 30
0.0
 11
0.0
 21
4.1006185679
 31
0.0
  0
LINE
  5
FF
330
D8
100
AcDbEntity
  8
0
  6
Continuous
 62
     7
370
    25
100
AcDbLine
 10
0.0
 20
4.1006185679
 30
0.0
 11
190.9188309204
 21
114.315713664
 31
0.0
  0
LINE
  5
100
330
D8
100
AcDbEntity
  8
0
  6
Continuous
 62
     7
370
    25
100
AcDbLine
 10
0.0
 20
134.7113194526
 30
0.0
 11
-113.1244422412
 21
69.4059690103
 31
0.0
  0
LINE
  5
101
330
D8
100
AcDbEntity
  8
0
  6
Continuous
 62
     7
370
    25
100
AcDbLine
 10
0.0
 20
35.4178272177
 30
0.0
 11
0.0
 21
224.5308087601
 31
0.0
  0
LINE
  5
102
330
D8
100
AcDbEntity
  8
0
  6
Continuous
 62
     7
370
    25
100
AcDbLine
 10
113.1244422412
 20
69.4059690103
 30
0.0
 11
0.0
 21
134.7113194526
 31
0.0
  0
ARC
  5
103
330
D8
100
AcDbEntity
  8
0
  6
Continuous
 62
     7
370
    25
100
AcDbCircle
 10
0.0
 20
-23.9312724321
 30
0.0
 40
37.24033039864164
100
AcDbArc
 50
70.6823514183
 51
109.3176485817
  0
VIEWPORT
  5
158
330
D8
100
AcDbEntity
  8
0
100
AcDbViewport
 10
0.0
 20
0.0
 30
0.0
 40
205.6
 41
156.0
 68
     1
 69
     1
 12
0.0
 22
0.0
 13
0.0
 23
0.0
 14
10.0
 24
10.0
 15
10.0
 25
10.0
 16
0.0
 26
0.0
 36
1.0
 17
0.0
 27
0.0
 37
0.0
 42
50.0
 43
0.0
 44
0.0
 45
316.2
 50
0.0
 51
0.0
 72
   100
 90
   557152
  1

281
     0
 71
     1
 74
     0
110
0.0
120
0.0
130
0.0
111
1.0
121
0.0
131
0.0
112
0.0
122
1.0
132
0.0
 79
     0
146
0.0
170
     0
 61
     5
348
2F
292
     1
282
     1
141
0.0
142
0.0
 63
   256
361
159
  0
ENDBLK
  5
DB
330
D8
100
AcDbEntity
  8
0
100
AcDbBlockEnd
  0
BLOCK
  5
106
330
104
100
AcDbEntity
  8
0
100
AcDbBlockBegin
  2
*Paper_Space6
 70
     0
 10
0.0
 20
0.0
 30
0.0
  3
*Paper_Space6
  1

  0
LINE
  5
11A
330
104
100
AcDbEntity
  8
0
  6
Continuous
 62
     7
370
    25
100
AcDbLine
 10
64.7470235758
 20
12.1428123676
 30
0.0
 11
64.7470235758
 21
-107.8606097307
 31
0.0
  0
LINE
  5
11B
330
104
100
AcDbEntity
  8
0
  6
Continuous
 62
     7
370
    25
100
AcDbLine
 10
64.7470235758
 20
12.1428123676
 30
0.0
 11
209.4225941442
 21
153.350604477
 31
0.0
  0
LINE
  5
11C
330
104
100
AcDbEntity
  8
0
  6
Continuous
 62
     7
370
    25
100
AcDbLine
 10
209.4225941442
 20
153.350604477
 30
0.0
 11
209.4225941442
 21
33.3471823787
 31
0.0
  0
LINE
  5
11D
330
104
100
AcDbEntity
  8
0
  6
Continuous
 62
     7
370
    25
100
AcDbLine
 10
64.7470235758
 20
-107.8606097307
 30
0.0
 11
209.4225941442
 21
33.3471823787
 31
0.0
  0
LINE
  5
11E
330
104
100
AcDbEntity
  8
0
  6
Continuous
 62
     7
370
    25
100
AcDbLine
 10
-209.4225941442
 20
86.6562397196
 30
0.0
 11
-209.4225941442
 21
-33.3471823787
 31
0.0
  0
LINE
  5
11F
330
104
100
AcDbEntity
  8
0
  6
Continuous
 62
     7
370
    25
100
AcDbLine
 10
-209.4225941442
 20
86.6562397196
 30
0.0
 11
64.7470235758
 21
12.1428123676
 31
0.0
  0
LINE
  5
120
330
104
100
AcDbEntity
  8
0
  6
Continuous
 62
     7
370
    25
100
AcDbLine
 10
-209.4225941442
 20
-33.3471823787
 30
0.0
 11
64.7470235758
 21
-107.8606097307
 31
0.0
  0
LINE
  5
121
330
104
100
AcDbEntity
  8
0
  6
Continuous
 62
     7
370
    25
100
AcDbLine
 10
-64.7470235758
 20
227.864031829
 30
0.0
 11
-209.4225941442
 21
86.6562397196
 31
0.0
  0
LINE
  5
122
330
104
100
AcDbEntity
  8
0
  6
Continuous
 62
     7
370
    25
100
AcDbLine
 10
209.4225941442
 20
153.350604477
 30
0.0
 11
-64.7470235758
 21
227.864031829
 31
0.0
  0
LINE
  5
123
330
104
100
AcDbEntity
  8
0
  6
Continuous
 62
     7
370
    25
100
AcDbLine
 10
182.400323932
 20
149.0477422345
 30
0.0
 11
-56.3925689209
 21
213.9465337992
 31
0.0
  0
LINE
  5
124
330
104
100
AcDbEntity
  8
0
  6
Continuous
 62
     7
370
    25
100
AcDbLine
 10
-56.3925689209
 20
213.9465337992
 30
0.0
 11
-182.400323932
 21
90.9591019621
 31
0.0
  0
LINE
  5
125
330
104
100
AcDbEntity
  8
0
  6
Continuous
 62
     7
370
    25
100
AcDbLine
 10
-182.400323932
 20
90.9591019621
 30
0.0
 11
56.3925689209
 21
26.0603103974
 31
0.0
  0
LINE
  5
126
330
104
100
AcDbEntity
  8
0
  6
Continuous
 62
     7
370
    25
100
AcDbLine
 10
56.3925689209
 20
26.0603103974
 30
0.0
 11
182.400323932
 21
149.0477422345
 31
0.0
  0
LINE
  5
127
330
104
100
AcDbEntity
  8
0
  6
Continuous
 62
     7
370
    25
100
AcDbLine
 10
58.8837189406
 20
28.4917491864
 30
0.0
 11
52.4671128858
 21
27.1271652354
 31
0.0
  0
LINE
  5
128
330
104
100
AcDbEntity
  8
0
  6
Continuous
 62
     7
370
    25
100
AcDbLine
 10
-56.3925689209
 20
119.658130722
 30
0.0
 11
-106.8371682146
 21
70.4226553606
 31
0.0
  0
LINE
  5
129
330
104
100
AcDbEntity
  8
0
  6
Continuous
 62
     7
370
    25
100
AcDbLine
 10
-56.3925689209
 20
119.658130722
 30
0.0
 11
-56.3925689209
 21
213.9465337992
 31
0.0
  0
LINE
  5
12A
330
104
100
AcDbEntity
  8
0
  6
Continuous
 62
     7
370
    25
100
AcDbLine
 10
-16.2212172419
 20
45.7951815512
 30
0.0
 11
-56.3925689209
 21
119.658130722
 31
0.0
  0
LINE
  5
12B
330
104
100
AcDbEntity
  8
0
  6
Continuous
 62
     7
370
    25
100
AcDbLine
 10
106.8371682146
 20
75.2957857587
 30
0.0
 11
-56.3925689209
 21
119.658130722
 31
0.0
  0
VIEWPORT
  5
15A
330
104
100
AcDbEntity
  8
0
100
AcDbViewport
 10
0.0
 20
0.0
 30
0.0
 40
205.6
 41
156.0
 68
     1
 69
     1
 12
0.0
 22
0.0
 13
0.0
 23
0.0
 14
10.0
 24
10.0
 15
10.0
 25
10.0
 16
0.0
 26
0.0
 36
1.0
 17
0.0
 27
0.0
 37
0.0
 42
50.0
 43
0.0
 44
0.0
 45
316.2
 50
0.0
 51
0.0
 72
   100
 90
   557152
  1

281
     0
 71
     1
 74
     0
110
0.0
120
0.0
130
0.0
111
1.0
121
0.0
131
0.0
112
0.0
122
1.0
132
0.0
 79
     0
146
0.0
170
     0
 61
     5
348
2F
292
     1
282
     1
141
0.0
142
0.0
 63
   256
361
15B
  0
ENDBLK
  5
107
330
104
100
AcDbEntity
  8
0
100
AcDbBlockEnd
  0
BLOCK
  5
12E
330
12C
100
AcDbEntity
  8
0
100
AcDbBlockBegin
  2
*Paper_Space7
 70
     0
 10
0.0
 20
0.0
 30
0.0
  3
*Paper_Space7
  1

  0
LINE
  5
13E
330
12C
100
AcDbEntity
  8
0
  6
Continuous
 62
     7
370
    25
100
AcDbLine
 10
90.1884482129
 20
65.3965994174
 30
0.0
 11
90.1884482129
 21
-66.596666408
 31
0.0
  0
LINE
  5
13F
330
12C
100
AcDbEntity
  8
0
  6
Continuous
 62
     7
370
    25
100
AcDbLine
 10
90.1884482129
 20
65.3965994174
 30
0.0
 11
199.7899992716
 21
162.0560818892
 31
0.0
  0
LINE
  5
140
330
12C
100
AcDbEntity
  8
0
  6
Continuous
 62
     7
370
    25
100
AcDbLine
 10
199.7899992716
 20
162.0560818892
 30
0.0
 11
199.7899992716
 21
30.0628160638
 31
0.0
  0
LINE
  5
141
330
12C
100
AcDbEntity
  8
0
  6
Continuous
 62
     7
370
    25
100
AcDbLine
 10
90.1884482129
 20
-66.596666408
 30
0.0
 11
199.7899992716
 21
30.0628160638
 31
0.0
  0
LINE
  5
142
330
12C
100
AcDbEntity
  8
0
  6
Continuous
 62
     7
370
    25
100
AcDbLine
 10
-199.7899992716
 20
101.9304497616
 30
0.0
 11
-199.7899992716
 21
-30.0628160638
 31
0.0
  0
LINE
  5
143
330
12C
100
AcDbEntity
  8
0
  6
Continuous
 62
     7
370
    25
100
AcDbLine
 10
-199.7899992716
 20
101.9304497616
 30
0.0
 11
90.1884482129
 21
65.3965994174
 31
0.0
  0
LINE
  5
144
330
12C
100
AcDbEntity
  8
0
  6
Continuous
 62
     7
370
    25
100
AcDbLine
 10
-199.7899992716
 20
-30.0628160638
 30
0.0
 11
90.1884482129
 21
-66.596666408
 31
0.0
  0
LINE
  5
145
330
12C
100
AcDbEntity
  8
0
  6
Continuous
 62
     7
370
    25
100
AcDbLine
 10
-90.1884482129
 20
198.5899322334
 30
0.0
 11
-199.7899992716
 21
101.9304497616
 31
0.0
  0
LINE
  5
146
330
12C
100
AcDbEntity
  8
0
  6
Continuous
 62
     7
370
    25
100
AcDbLine
 10
199.7899992716
 20
162.0560818892
 30
0.0
 11
-90.1884482129
 21
198.5899322334
 31
0.0
  0
LINE
  5
147
330
12C
100
AcDbEntity
  8
0
  6
Continuous
 62
     7
370
    25
100
AcDbLine
 10
174.0106445269
 20
158.1770088487
 30
0.0
 11
-78.5512290886
 21
189.9968139872
 31
0.0
  0
LINE
  5
148
330
12C
100
AcDbEntity
  8
0
  6
Continuous
 62
     7
370
    25
100
AcDbLine
 10
-78.5512290886
 20
189.9968139872
 30
0.0
 11
-174.0106445269
 21
105.8095228021
 31
0.0
  0
LINE
  5
149
330
12C
100
AcDbEntity
  8
0
  6
Continuous
 62
     7
370
    25
100
AcDbLine
 10
-174.0106445269
 20
105.8095228021
 30
0.0
 11
78.5512290886
 21
73.9897176636
 31
0.0
  0
LINE
  5
14A
330
12C
100
AcDbEntity
  8
0
  6
Continuous
 62
     7
370
    25
100
AcDbLine
 10
78.5512290886
 20
73.9897176636
 30
0.0
 11
174.0106445269
 21
158.1770088487
 31
0.0
  0
LINE
  5
14B
330
12C
100
AcDbEntity
  8
0
  6
Continuous
 62
     7
370
    25
100
AcDbLine
 10
-78.5512290886
 20
93.7827669248
 30
0.0
 11
-78.5512290886
 21
189.9968139872
 31
0.0
  0
VIEWPORT
  5
15C
330
12C
100
AcDbEntity
  8
0
100
AcDbViewport
 10
0.0
 20
0.0
 30
0.0
 40
205.6
 41
156.0
 68
     1
 69
     1
 12
0.0
 22
0.0
 13
0.0
 23
0.0
 14
10.0
 24
10.0
 15
10.0
 25
10.0
 16
0.0
 26
0.0
 36
1.0
 17
0.0
 27
0.0
 37
0.0
 42
50.0
 43
0.0
 44
0.0
 45
316.2
 50
0.0
 51
0.0
 72
   100
 90
   557152
  1

281
     0
 71
     1
 74
     0
110
0.0
120
0.0
130
0.0
111
1.0
121
0.0
131
0.0
112
0.0
122
1.0
132
0.0
 79
     0
146
0.0
170
     0
 61
     5
348
2F
292
     1
282
     1
141
0.0
142
0.0
 63
   256
361
15D
  0
ENDBLK
  5
12F
330
12C
100
AcDbEntity
  8
0
100
AcDbBlockEnd
  0
ENDSEC
  0
SECTION
  2
ENTITIES
  0
SPLINE
  5
7C
330
1F
100
AcDbEntity
  8
0
  6
Continuous
 62
     7
370
    25
100
AcDbSpline
210
0.0
220
0.0
230
1.0
 70
     8
 71
     3
 72
    33
 73
    29
 74
     0
 42
0.000000001
 43
0.00000001
 40
0.0
 40
0.0
 40
0.0
 40
0.0
 40
0.0108279661404401
 40
0.0223680411770269
 40
0.0346426278336715
 40
0.047675561670189
 40
0.0614921888789478
 40
0.0761194523501282
 40
0.0915859878932157
 40
0.1079222325242673
 40
0.1251595855112985
 40
0.1992236828199418
 40
0.2494791813039414
 40
0.3152381361014335
 40
0.3746662952504679
 40
0.4380971319757059
 40
0.4997211360914968
 40
0.5616631609771078
 40
0.6250985051745183
 40
0.68483724117861
 40
0.7504489180509416
 40
0.7995432324556744
 40
0.8749418501688523
 40
0.9049267806404394
 40
0.9322740484557099
 40
0.9571420090381408
 40
0.9796742081308432
 40
1.0
 40
1.0
 40
1.0
 40
1.0
 10
22.8264277092764
 20
-22.82642865009422
 30
0.0
 10
22.6949418023901
 20
-22.95192394580873
 30
0.0
 10
22.42332272441321
 20
-23.21116782463668
 30
0.0
 10
21.99406193718504
 20
-23.6035238231998
 30
0.0
 10
21.53025420201837
 20
-24.01278254235516
 30
0.0
 10
21.0290167178124
 20
-24.43720066754066
 30
0.0
 10
20.48819813104009
 20
-24.8757517258126
 30
0.0
 10
19.90531302565599
 20
-25.32700636442589
 30
0.0
 10
19.27788722083924
 20
-25.78947514718317
 30
0.0
 10
18.60325833168721
 20
-26.2613657539857
 30
0.0
 10
17.0969403296746
 20
-27.2593124178829
 30
0.0
 10
15.02046367701598
 20
-28.42720151662589
 30
0.0
 10
12.10585488238165
 20
-29.73167220075022
 30
0.0
 10
9.313320377388736
 20
-30.68449870872833
 30
0.0
 10
6.230892514843442
 20
-31.42600366513103
 30
0.0
 10
3.159758787178879
 20
-31.86202273755184
 30
0.0
 10
0.0196839328661776
 20
-32.01373431535144
 30
0.0
 10
-3.120750434552178
 20
-31.86640557985451
 30
0.0
 10
-6.20284819964271
 20
-31.43178763689876
 30
0.0
 10
-9.28853143863811
 20
-30.69171225752638
 30
0.0
 10
-12.06607319476054
 20
-29.74681835927442
 30
0.0
 10
-14.98214126462798
 20
-28.44473151552288
 30
0.0
 10
-17.24966591891254
 20
-27.17297138529155
 30
0.0
 10
-19.09615284905352
 20
-25.92511809702359
 30
0.0
 10
-20.20521029378654
 20
-25.10343626091467
 30
0.0
 10
-21.18144166386069
 20
-24.3148076369383
 30
0.0
 10
-22.04036376965422
 20
-23.56951546955587
 30
0.0
 10
-22.56356625411643
 20
-23.0756513845431
 30
0.0
 10
-22.81169978921536
 20
-22.84143185212137
 30
0.0
  0
SPLINE
  5
7F
330
1F
100
AcDbEntity
  8
0
  6
Continuous
 62
     7
370
    25
100
AcDbSpline
210
0.0
220
0.0
230
1.0
 70
     8
 71
     3
 72
    33
 73
    29
 74
     0
 42
0.000000001
 43
0.00000001
 40
0.0
 40
0.0
 40
0.0
 40
0.0
 40
0.0108279661267264
 40
0.0223680411526096
 40
0.0346426278016966
 40
0.0476755616339537
 40
0.0614921888419164
 40
0.0761194523159498
 40
0.0915859878657415
 40
0.1079222325075702
 40
0.1251595855096603
 40
0.199223682786632
 40
0.2494791813041507
 40
0.3152381360725115
 40
0.3746662952453015
 40
0.4380971319437035
 40
0.4997211360982698
 40
0.5616631609438527
 40
0.6250985051780762
 40
0.6848372411302033
 40
0.7504489180473127
 40
0.7995432319634376
 40
0.8749418501626659
 40
0.9049267805514797
 40
0.9322740483288372
 40
0.9571420089152197
 40
0.9796742080509788
 40
1.0
 40
1.0
 40
1.0
 40
1.0
 10
-22.82642770927627
 20
22.82642865009419
 30
0.0
 10
-22.69494180232285
 20
22.95192394587647
 30
0.0
 10
-22.42332272415979
 20
23.21116782488975
 30
0.0
 10
-21.99406193655936
 20
23.60352382379393
 30
0.0
 10
-21.53025420083674
 20
24.01278254342239
 30
0.0
 10
-21.02901671587193
 20
24.43720066920466
 30
0.0
 10
-20.48819812811875
 20
24.87575172818858
 30
0.0
 10
-19.90531302151063
 20
25.32700636761828
 30
0.0
 10
-19.2778872152048
 20
25.78947515128415
 30
0.0
 10
-18.60325832427548
 20
26.26136575907239
 30
0.0
 10
-17.09694031932366
 20
27.25931242421675
 30
0.0
 10
-15.02046366219278
 20
28.42720152432001
 30
0.0
 10
-12.10585486198
 20
29.73167220889706
 30
0.0
 10
-9.313320350800243
 20
30.68449871661294
 30
0.0
 10
-6.230892482572642
 20
31.42600367143865
 30
0.0
 10
-3.159758748333941
 20
31.86202274143606
 30
0.0
 10
-0.0196838886533952
 20
32.01373431555577
 30
0.0
 10
3.12075048478234
 20
31.86640557528999
 30
0.0
 10
6.202848253818236
 20
31.43178762682459
 30
0.0
 10
9.288531497516734
 20
30.69171224058249
 30
0.0
 10
12.06607324900398
 20
29.74681833812235
 30
0.0
 10
14.98214132223644
 20
28.44473148630447
 30
0.0
 10
17.24966597712411
 20
27.17297135031788
 30
0.0
 10
19.09615291265647
 20
25.92511805194817
 30
0.0
 10
20.20521035583866
 20
25.10343621288489
 30
0.0
 10
21.1814417258556
 20
24.3148075850168
 30
0.0
 10
22.04036383291458
 20
23.5695154127298
 30
0.0
 10
22.56356631845722
 20
23.07565132397694
 30
0.0
 10
22.81169985433186
 20
22.84143178953291
 30
0.0
  0
SPLINE
  5
81
330
1F
100
AcDbEntity
  8
0
  6
Continuous
 62
     7
370
    25
100
AcDbSpline
210
0.0
220
0.0
230
1.0
 70
     8
 71
     3
 72
    33
 73
    29
 74
     0
 42
0.000000001
 43
0.00000001
 40
0.0
 40
0.0
 40
0.0
 40
0.0
 40
0.0108279591765673
 40
0.0223680288789599
 40
0.0346426118881515
 40
0.0476755438279942
 40
0.0614921709621166
 40
0.0761194362594732
 40
0.0915859756161877
 40
0.1079222261432443
 40
0.1251595872121763
 40
0.1992237426609561
 40
0.2494791850187588
 40
0.315238136183919
 40
0.3746662971890274
 40
0.4380971277054165
 40
0.4997211380086481
 40
0.5616631564061607
 40
0.6250985070613414
 40
0.6848372344826309
 40
0.7504489190745668
 40
0.799543231829286
 40
0.8749418514759272
 40
0.9049267831529462
 40
0.9322740513834912
 40
0.9571420116521311
 40
0.9796742097542328
 40
0.9999999999999999
 40
0.9999999999999999
 40
0.9999999999999999
 40
0.9999999999999999
 10
22.82642865819529
 20
22.82642771709621
 30
0.0
 10
22.9519238733087
 20
22.69494189545894
 30
0.0
 10
23.21116760982951
 20
22.4233229682357
 30
0.0
 10
23.60352343503095
 20
21.99406238707059
 30
0.0
 10
24.01278204395653
 20
21.53025480006777
 30
0.0
 10
24.43720012115331
 20
21.02901740078857
 30
0.0
 10
24.87575119124221
 20
20.48819882875141
 30
0.0
 10
25.32700589875135
 20
19.90531366062053
 30
0.0
 10
25.78947480393913
 20
19.27788770759305
 30
0.0
 10
26.26136558291669
 20
18.60325857650488
 30
0.0
 10
27.2593128939731
 20
17.09693955583436
 30
0.0
 10
28.42720196484959
 20
15.02046268974462
 30
0.0
 10
29.73167255161141
 20
12.10585389698228
 30
0.0
 10
30.68449868809337
 20
9.313320299751606
 30
0.0
 10
31.42600364534984
 20
6.230892584922963
 30
0.0
 10
31.86202274458358
 20
3.159758836696857
 30
0.0
 10
32.01373431564272
 20
0.0196840970246823
 30
0.0
 10
31.86640557043394
 20
-3.120750364495217
 30
0.0
 10
31.43178767175255
 20
-6.20284798324953
 30
0.0
 10
30.69171229888774
 20
-9.288531312046874
 30
0.0
 10
29.74681842328157
 20
-12.06607302582256
 30
0.0
 10
28.44473154110454
 20
-14.98214121705647
 30
0.0
 10
27.17297140871106
 20
-17.24966589271
 30
0.0
 10
25.92511809314942
 20
-19.09615287035411
 30
0.0
 10
25.10343624502657
 20
-20.20521032964935
 30
0.0
 10
24.31480763061397
 20
-21.18144168460338
 30
0.0
 10
23.56951549575711
 20
-22.04036375007362
 30
0.0
 10
23.07565144244957
 20
-22.56356620185589
 30
0.0
 10
22.8414319294856
 20
-22.81169971677217
 30
0.0
  0
SPLINE
  5
82
330
1F
100
AcDbEntity
  8
0
  6
Continuous
 62
     7
370
    25
100
AcDbSpline
210
0.0
220
0.0
230
1.0
 70
     8
 71
     3
 72
    33
 73
    29
 74
     0
 42
0.000000001
 43
0.00000001
 40
0.0
 40
0.0
 40
0.0
 40
0.0
 40
0.0108279661501109
 40
0.0223680411941593
 40
0.0346426278559789
 40
0.0476755616952972
 40
0.0614921889043855
 40
0.0761194523733161
 40
0.0915859879114555
 40
0.1079222325347297
 40
0.1251595855110111
 40
0.1992236828268159
 40
0.2494791813033131
 40
0.3152381361027188
 40
0.3746662952495031
 40
0.4380971319804039
 40
0.4997211360902135
 40
0.5616631609909204
 40
0.6250985051764867
 40
0.6848372411960586
 40
0.7504489180522209
 40
0.7995432324148259
 40
0.8749418501686442
 40
0.9049267806587665
 40
0.9322740484825922
 40
0.9571420090643884
 40
0.9796742081479403
 40
1.0
 40
1.0
 40
1.0
 40
1.0
 10
-22.82642865009413
 20
-22.82642770927633
 30
0.0
 10
-22.95192394592392
 20
-22.69494180227511
 30
0.0
 10
-23.21116782495701
 20
-22.42332272409536
 30
0.0
 10
-23.60352382376794
 20
-21.99406193658456
 30
0.0
 10
-24.01278254308205
 20
-21.53025420121062
 30
0.0
 10
-24.43720066833798
 20
-21.02901671687975
 30
0.0
 10
-24.87575172659544
 20
-20.48819813007483
 30
0.0
 10
-25.32700636511298
 20
-19.90531302476049
 30
0.0
 10
-25.78947514769807
 20
-19.27788722012723
 30
0.0
 10
-26.26136575425753
 20
-18.60325833128415
 30
0.0
 10
-27.25931241803514
 20
-17.09694032941706
 30
0.0
 10
-28.42720151667757
 20
-15.02046367690889
 30
0.0
 10
-29.7316722008029
 20
-12.10585488224009
 30
0.0
 10
-30.6844987087334
 20
-9.31332037736283
 30
0.0
 10
-31.42600366515359
 20
-6.230892514724313
 30
0.0
 10
-31.86202273757543
 20
-3.15975878709509
 30
0.0
 10
-32.01373431535266
 20
-0.0196839325275316
 30
0.0
 10
-31.86640557983908
 20
3.120750434852978
 30
0.0
 10
-31.43178763678971
 20
6.202848200253363
 30
0.0
 10
-30.69171225740406
 20
9.288531439036806
 30
0.0
 10
-29.74681835936974
 20
12.06607319447861
 30
0.0
 10
-28.4447315157483
 20
14.9821412640808
 30
0.0
 10
-27.17297138546049
 20
17.24966591867419
 30
0.0
 10
-25.92511809654602
 20
19.0961528497578
 30
0.0
 10
-25.10343626013101
 20
20.20521029482102
 30
0.0
 10
-24.31480763611839
 20
21.18144166484283
 30
0.0
 10
-23.56951546898928
 20
22.04036377026111
 30
0.0
 10
-23.07565138427204
 20
22.56356625439819
 30
0.0
 10
-22.84143185204405
 20
22.81169978928619
 30
0.0
  0
SPLINE
  5
83
330
1F
100
AcDbEntity
  8
0
  6
Continuous
 62
     7
370
    25
100
AcDbSpline
210
0.0
220
0.0
230
1.0
 70
     8
 71
     3
 72
     8
 73
     4
 74
     0
 42
0.000000001
 43
0.00000001
 40
0.0
 40
0.0
 40
0.0
 40
0.0
 40
1.0
 40
1.0
 40
1.0
 40
1.0
 10
16.26345224973243
 20
-16.26339977316786
 30
0.0
 10
18.46658122395874
 20
-18.43678928383899
 30
0.0
 10
20.6592653188984
 20
-20.61959436309465
 30
0.0
 10
22.8414639678561
 20
-22.81171868561112
 30
0.0
  0
SPLINE
  5
84
330
1F
100
AcDbEntity
  8
0
  6
Continuous
 62
     7
370
    25
100
AcDbSpline
210
0.0
220
0.0
230
1.0
 70
     8
 71
     3
 72
    81
 73
    77
 74
     0
 42
0.000000001
 43
0.00000001
 40
0.0
 40
0.0
 40
0.0
 40
0.0
 40
0.0124325396414033
 40
0.0247499362623579
 40
0.0369521903973948
 40
0.0490393026001329
 40
0.0610112734439758
 40
0.0728681035228453
 40
0.0846097934519474
 40
0.0962363438685797
 40
0.1077477554329772
 40
0.1191440288292005
 40
0.130425164766071
 40
0.1415911639781532
 40
0.1526420272267871
 40
0.1635777553011779
 40
0.1743983490195403
 40
0.1851038092303072
 40
0.1956941368134015
 40
0.2061693326815799
 40
0.2165293977818501
 40
0.2267743330969683
 40
0.2369041396470208
 40
0.2469188184910976
 40
0.256818370729063
 40
0.2666027975034292
 40
0.276272100001343
 40
0.2858262794566917
 40
0.2952653371523362
 40
0.3045892744224835
 40
0.3137980926552063
 40
0.3228917932951225
 40
0.3318703778462471
 40
0.3407338478750266
 40
0.3494822050135767
 40
0.3581154509631326
 40
0.3666335874977338
 40
0.3750366164681607
 40
0.3833245398061444
 40
0.391497359528874
 40
0.3995550777438221
 40
0.4074976966539249
 40
0.4153252185631379
 40
0.4230376458824093
 40
0.4306349811361044
 40
0.4381172269689232
 40
0.4454843861533576
 40
0.452736461597743
 40
0.4598734563549531
 40
0.4668953736318128
 40
0.4738022167992889
 40
0.4805939894035471
 40
0.4872706951779595
 40
0.4938323380561641
 40
0.5002789221862891
 40
0.5406690315584595
 40
0.581852697674668
 40
0.6238303445224501
 40
0.666602371279854
 40
0.6795109591528139
 40
0.6932574210306893
 40
0.7078417641680144
 40
0.7232639933049342
 40
0.7395241111107669
 40
0.7566221185188905
 40
0.7745580149834074
 40
0.7933317986785426
 40
0.8129434666554389
 40
0.83339301496684
 40
0.8546804387672299
 40
0.8768057323940137
 40
0.899768889433891
 40
0.9235699027775388
 40
0.9482087646650086
 40
0.9736854667236501
 40
1.0
 40
1.0
 40
1.0
 40
1.0
 10
16.26346854324158
 20
-16.26344339132993
 30
0.0
 10
16.36872502449425
 20
-16.156994262824
 30
0.0
 10
16.57826316210276
 20
-15.94508187632081
 30
0.0
 10
16.88323069994939
 20
-15.62104964114634
 30
0.0
 10
17.17955348568682
 20
-15.29471616734252
 30
0.0
 10
17.46674592714377
 20
-14.96580791283552
 30
0.0
 10
17.7450291428484
 20
-14.63474550788818
 30
0.0
 10
18.01444561046711
 20
-14.30175822478837
 30
0.0
 10
18.27509265415877
 20
-13.9671178342942
 30
0.0
 10
18.5270603812938
 20
-13.63107677503944
 30
0.0
 10
18.77044768861704
 20
-13.29388443585861
 30
0.0
 10
19.00535765759253
 20
-12.95578282242262
 30
0.0
 10
19.23189839901032
 20
-12.61700768022467
 30
0.0
 10
19.45018246604987
 20
-12.27778818917531
 30
0.0
 10
19.66032665260811
 20
-11.93834704690537
 30
0.0
 10
19.86245169751112
 20
-11.59890046060021
 30
0.0
 10
20.05668202130797
 20
-11.25965817358482
 30
0.0
 10
20.24314546236645
 20
-10.92082349284575
 30
0.0
 10
20.42197302118369
 20
-10.58259332591285
 30
0.0
 10
20.59329861067203
 20
-10.24515822438836
 30
0.0
 10
20.75725881310303
 20
-9.908702434356918
 30
0.0
 10
20.91399264360195
 20
-9.573403953141742
 30
0.0
 10
21.06364132027651
 20
-9.23943459208483
 30
0.0
 10
21.20634804099514
 20
-8.906960044982362
 30
0.0
 10
21.3422577668317
 20
-8.576139961829075
 30
0.0
 10
21.47151701217819
 20
-8.247128027529987
 30
0.0
 10
21.59427364151519
 20
-7.920072045247032
 30
0.0
 10
21.71067667281972
 20
-7.59511402405702
 30
0.0
 10
21.82087608757905
 20
-7.272390270605714
 30
0.0
 10
21.92502264736958
 20
-6.952031484452126
 30
0.0
 10
22.0232677169504
 20
-6.634162856805845
 30
0.0
 10
22.115763093813
 20
-6.318904172369407
 30
0.0
 10
22.20266084411975
 20
-6.006369914006788
 30
0.0
 10
22.28411314495677
 20
-5.696669369968173
 30
0.0
 10
22.36027213281974
 20
-5.38990674341032
 30
0.0
 10
22.4312897582442
 20
-5.086181263960859
 30
0.0
 10
22.49731764648625
 20
-4.785587301084021
 30
0.0
 10
22.55850696415414
 20
-4.488214479014169
 30
0.0
 10
22.61500829168536
 20
-4.194147793032493
 30
0.0
 10
22.66697150156022
 20
-3.903467726871076
 30
0.0
 10
22.71454564213758
 20
-3.616250371037367
 30
0.0
 10
22.75787882699575
 20
-3.332567541859956
 30
0.0
 10
22.79711812965693
 20
-3.052486901068502
 30
0.0
 10
22.83240948357109
 20
-2.776072075715662
 30
0.0
 10
22.86389758723473
 20
-2.503382778306865
 30
0.0
 10
22.89172581430564
 20
-2.23447492682912
 30
0.0
 10
22.91603612861988
 20
-1.969400765046005
 30
0.0
 10
22.93696900384106
 20
-1.708208980995631
 30
0.0
 10
22.95466334810876
 20
-1.450944830526398
 30
0.0
 10
22.9692564317249
 20
-1.197650240311565
 30
0.0
 10
22.98088382439447
 20
-0.9483639828258663
 30
0.0
 10
22.98967931766136
 20
-0.703121585958098
 30
0.0
 10
22.99577492056502
 20
-0.4619562044409997
 30
0.0
 10
22.99930060764034
 20
-0.2248959880294454
 30
0.0
 10
23.00229464595992
 20
0.4182163865337566
 30
0.0
 10
22.96820844348924
 20
1.478584816783196
 30
0.0
 10
22.82514415744147
 20
2.960716479650785
 30
0.0
 10
22.58101918547262
 20
4.458691380785203
 30
0.0
 10
22.31480115280348
 20
5.605293683681616
 30
0.0
 10
22.09027268291891
 20
6.410706049910698
 30
0.0
 10
21.94691527071374
 20
6.886236285591538
 30
0.0
 10
21.78363430532982
 20
7.387235136175483
 30
0.0
 10
21.59853674926809
 20
7.912801220437533
 30
0.0
 10
21.38965712130955
 20
8.46189313318098
 30
0.0
 10
21.15496428787044
 20
9.033328272017307
 30
0.0
 10
20.89237209671386
 20
9.625767433804286
 30
0.0
 10
20.59975067357632
 20
10.23770348991018
 30
0.0
 10
20.27493907610223
 20
10.86744861611811
 30
0.0
 10
19.91576065036669
 20
11.51312328322307
 30
0.0
 10
19.52003514960829
 20
12.17264061828626
 30
0.0
 10
19.08561190211791
 20
12.84371067416732
 30
0.0
 10
18.6103282246719
 20
13.52376888282518
 30
0.0
 10
18.09227166891096
 20
14.21020747363555
 30
0.0
 10
17.52885469471049
 20
14.89941855461826
 30
0.0
 10
16.92056704753357
 20
15.59051470772735
 30
0.0
 10
16.48482517952028
 20
16.03675342578076
 30
0.0
 10
16.26342972888913
 20
16.26348220564978
 30
0.0
  0
SPLINE
  5
85
330
1F
100
AcDbEntity
  8
0
  6
Continuous
 62
     7
370
    25
100
AcDbSpline
210
0.0
220
0.0
230
1.0
 70
     8
 71
     3
 72
     8
 73
     4
 74
     0
 42
0.000000001
 43
0.00000001
 40
0.0
 40
0.0
 40
0.0
 40
0.0
 40
1.0
 40
1.0
 40
1.0
 40
1.0
 10
16.26339977691438
 20
16.26345225357839
 30
0.0
 10
18.43678930332523
 20
18.46658121260664
 30
0.0
 10
20.61959442711793
 20
20.65926525994669
 30
0.0
 10
22.81171882312818
 20
22.84146382783102
 30
0.0
  0
SPLINE
  5
86
330
1F
100
AcDbEntity
  8
0
  6
Continuous
 62
     7
370
    25
100
AcDbSpline
210
0.0
220
0.0
230
1.0
 70
     8
 71
     3
 72
    81
 73
    77
 74
     0
 42
0.000000001
 43
0.00000001
 40
0.0
 40
0.0
 40
0.0
 40
0.0
 40
0.012432541070977
 40
0.0247499390625172
 40
0.0369521945091509
 40
0.0490393079644934
 40
0.0610112800019454
 40
0.0728681112154259
 40
0.0846098022201383
 40
0.0962363536533772
 40
0.1077477661753744
 40
0.1191440404701879
 40
0.1304251772466355
 40
0.141591177239278
 40
0.1526420412094528
 40
0.1635777699463611
 40
0.174398364268214
 40
0.1851038250234406
 40
0.1956941530919608
 40
0.2061693493865266
 40
0.2165294148541419
 40
0.2267743504775588
 40
0.2369041572768585
 40
0.2469188363111281
 40
0.2568183886802261
 40
0.2666028155266604
 40
0.276272118037573
 40
0.2858262974468465
 40
0.2952653550373361
 40
0.3045892921432438
 40
0.3137981101526365
 40
0.3228918105101266
 40
0.3318703947197233
 40
0.3407338643478672
 40
0.3494822210266672
 40
0.3581154664573526
 40
0.3666336024139554
 40
0.3750366307472495
 40
0.3833245533889592
 40
0.3914973723562654
 40
0.3995550897566338
 40
0.4074977077929914
 40
0.4153252287692868
 40
0.4230376550964585
 40
0.4306349892988638
 40
0.4381172340211921
 40
0.4454843920359275
 40
0.452736466251394
 40
0.4598734597204556
 40
0.4668953756499259
 40
0.4738022174107611
 40
0.4805939885491148
 40
0.4872706927983474
 40
0.4938323340920843
 40
0.50027891657844
 40
0.5406690379739844
 40
0.5818527087777186
 40
0.6238303529772913
 40
0.6666023697511044
 40
0.6795109023472411
 40
0.6932573158694514
 40
0.7078416175723061
 40
0.7232638121959409
 40
0.7395239024096275
 40
0.7566218891466727
 40
0.7745577718610843
 40
0.7933315487269774
 40
0.8129432167953707
 40
0.8333927721188703
 40
0.8546802098518138
 40
0.8768055243314473
 40
0.8997687091443041
 40
0.9235697571808864
 40
0.9482086606810615
 40
0.9736854112719868
 40
1.0
 40
1.0
 40
1.0
 40
1.0
 10
16.26344339135529
 20
16.26346854321622
 30
0.0
 10
16.15699435249023
 20
16.36872493682607
 30
0.0
 10
15.94508214483029
 20
16.57826289957332
 30
0.0
 10
15.62105019000342
 20
16.88323018909452
 30
0.0
 10
15.29471700393924
 20
17.17955273765259
 30
0.0
 10
14.96580904498895
 20
17.46674495404489
 30
0.0
 10
14.63474694267017
 20
17.74502795657102
 30
0.0
 10
14.30175996884793
 20
18.01444422296317
 30
0.0
 10
13.96711989378462
 20
18.27509107734581
 30
0.0
 10
13.63107915565078
 20
18.52705862706035
 30
0.0
 10
13.29388714282264
 20
18.77044576880086
 30
0.0
 10
12.95578586052546
 20
19.00535558396702
 30
0.0
 10
12.6170110538177
 20
19.23189618326956
 30
0.0
 10
12.27779190218693
 20
19.45018011979502
 30
0.0
 10
11.93835110285269
 20
19.66032418733426
 30
0.0
 10
11.59890486260106
 20
19.86244912459483
 30
0.0
 10
11.25966292436987
 20
20.05667935199558
 30
0.0
 10
10.92082859477068
 20
20.24314270776297
 30
0.0
 10
10.58259878097069
 20
20.42197019224228
 30
0.0
 10
10.24516403422191
 20
20.59329571818429
 30
0.0
 10
9.908708600271117
 20
20.75725586768965
 30
0.0
 10
9.573410476116143
 20
20.91398965570417
 30
0.0
 10
9.239441472786007
 20
21.06363830014815
 30
0.0
 10
8.906967283776336
 20
21.206344998695
 30
0.0
 10
8.576147558793688
 20
21.34225471221682
 30
0.0
 10
8.247135982467185
 20
21.47151395489739
 30
0.0
 10
7.920080357695114
 20
21.59427059100328
 30
0.0
 10
7.595122693302724
 20
21.71067363829219
 30
0.0
 10
7.272399295696272
 20
21.82087307802723
 30
0.0
 10
6.952040864207119
 20
21.92501967155628
 30
0.0
 10
6.634172589828957
 20
22.02326478340605
 30
0.0
 10
6.318914257059985
 20
22.11576021083216
 30
0.0
 10
6.006380348571303
 20
22.20265801975812
 30
0.0
 10
5.696680152431426
 20
22.28411038702861
 30
0.0
 10
5.389917871626497
 20
22.36026944889564
 30
0.0
 10
5.086192735624419
 20
22.4312871556492
 30
0.0
 10
4.785599113740305
 20
22.49731513229846
 30
0.0
 10
4.488226630069846
 20
22.55850454520353
 30
0.0
 10
4.194160279765779
 20
22.61500597455305
 30
0.0
 10
3.903480546441702
 20
22.66696929257791
 30
0.0
 10
3.616263520496358
 20
22.7145435473875
 30
0.0
 10
3.332581018159099
 20
22.75787685231063
 30
0.0
 10
3.052500701069668
 20
22.7971162806205
 30
0.0
 10
2.776086196199752
 20
22.83240776551858
 30
0.0
 10
2.503397215982667
 20
22.86389600525388
 30
0.0
 10
2.234489678341743
 20
22.8917243732377
 30
0.0
 10
1.969415826985199
 20
22.91603483306102
 30
0.0
 10
1.708224349903736
 20
22.93696785814373
 30
0.0
 10
1.450960502906144
 20
22.95466235638355
 30
0.0
 10
1.197666212633526
 20
22.9692555978423
 30
0.0
 10
0.9483802515356051
 20
22.98088315198694
 30
0.0
 10
0.7031381474835583
 20
22.98967881012558
 30
0.0
 10
0.4619730551975069
 20
22.99577458106372
 30
0.0
 10
0.2249131244324534
 20
22.9993004391068
 30
0.0
 10
-0.418198741294026
 20
23.00229495818727
 30
0.0
 10
-1.478566368734212
 20
22.96820960745779
 30
0.0
 10
-2.96069690552877
 20
22.8251466658079
 30
0.0
 10
-4.458670500296849
 20
22.58102327017558
 30
0.0
 10
-5.605271167876432
 20
22.31480677727014
 30
0.0
 10
-6.410681685355109
 20
22.09027973669537
 30
0.0
 10
-6.886209960703412
 20
21.94692351420944
 30
0.0
 10
-7.387207114096442
 20
21.78364379246376
 30
0.0
 10
-7.912771767327284
 20
21.59854752491773
 30
0.0
 10
-8.461862517761956
 20
21.38966921938262
 30
0.0
 10
-9.033296764850343
 20
21.15497772943663
 30
0.0
 10
-9.62573530640032
 20
20.89238688817466
 30
0.0
 10
-10.23767101363253
 20
20.59976680490121
 30
0.0
 10
-10.86741606087194
 20
20.27495651914839
 30
0.0
 10
-11.51309091591691
 20
19.91577935730731
 30
0.0
 10
-12.17260870106681
 20
19.52005505148919
 30
0.0
 10
-12.84367946239604
 20
19.08563290760295
 30
0.0
 10
-13.52373862286564
 20
18.61035021885009
 30
0.0
 10
-14.21017840029405
 20
18.09229451294496
 30
0.0
 10
-14.89939088842697
 20
17.52887822298177
 30
0.0
 10
-15.59048865298655
 20
16.92059107723702
 30
0.0
 10
-16.0367285001973
 20
16.48484942252638
 30
0.0
 10
-16.26345787634048
 20
16.26345405824042
 30
0.0
  0
SPLINE
  5
87
330
1F
100
AcDbEntity
  8
0
  6
Continuous
 62
     7
370
    25
100
AcDbSpline
210
0.0
220
0.0
230
1.0
 70
     8
 71
     3
 72
    11
 73
     7
 74
     0
 42
0.000000001
 43
0.00000001
 40
0.0
 40
0.0
 40
0.0
 40
0.0
 40
0.2822368767218076
 40
0.5429791271839174
 40
0.7822321345942724
 40
1.0
 40
1.0
 40
1.0
 40
1.0
 10
-22.84146389033729
 20
22.81171875807953
 30
0.0
 10
-22.22500071968089
 20
22.19339227197529
 30
0.0
 10
-21.03902304648697
 20
21.00382987446299
 30
0.0
 10
-19.32503072535611
 20
19.29560932977972
 30
0.0
 10
-17.74940264909415
 20
17.73105104232967
 30
0.0
 10
-16.7434476089609
 20
16.73746658541422
 30
0.0
 10
-16.26411571229257
 20
16.26402920180076
 30
0.0
  0
SPLINE
  5
88
330
1F
100
AcDbEntity
  8
0
  6
Continuous
 62
     7
370
    25
100
AcDbSpline
210
0.0
220
0.0
230
1.0
 70
     8
 71
     3
 72
    81
 73
    77
 74
     0
 42
0.000000001
 43
0.00000001
 40
0.0
 40
0.0
 40
0.0
 40
0.0
 40
0.0124325402952268
 40
0.0247499375415539
 40
0.0369521922735096
 40
0.0490393050447111
 40
0.0610112764285603
 40
0.0728681070189755
 40
0.0846097974311612
 40
0.0962363483024128
 40
0.1077477602929618
 40
0.1191440340868673
 40
0.1304251703929485
 40
0.1415911699457651
 40
0.1526420335066568
 40
0.1635777618648247
 40
0.1743983558384803
 40
0.1851038162760538
 40
0.195694144057465
 40
0.2061693400954669
 40
0.2165294053370644
 40
0.2267743407650099
 40
0.2369041473993871
 40
0.2469188262992804
 40
0.2568183785645511
 40
0.2666028053377084
 40
0.2762721078058933
 40
0.2858262872029902
 40
0.2952653448118553
 40
0.3045892819666903
 40
0.3137981000555638
 40
0.322891800523089
 40
0.3318703848732754
 40
0.3407338546725641
 40
0.3494822115530656
 40
0.3581154572160102
 40
0.3666335934354298
 40
0.3750366220621002
 40
0.3833245450277455
 40
0.3914973643495485
 40
0.399555082134974
 40
0.4074977005869523
 40
0.4153252220094307
 40
0.4230376488133513
 40
0.4306349835230685
 40
0.4381172287832757
 40
0.4454843873664564
 40
0.4527364621809354
 40
0.4598734562795789
 40
0.4668953728691993
 40
0.4738022153207546
 40
0.4805939871804006
 40
0.4872706921814959
 40
0.493832334257668
 40
0.500278917557032
 40
0.5406690381670921
 40
0.5818527085815549
 40
0.6238303527878414
 40
0.6666023699641294
 40
0.6795109028494606
 40
0.693257316623166
 40
0.7078416185398094
 40
0.7232638133395188
 40
0.7395239036915633
 40
0.7566218905292463
 40
0.7745577733065738
 40
0.79333155019766
 40
0.8129432182535229
 40
0.8333927735267697
 40
0.8546802111717369
 40
0.8768055255256731
 40
0.8997687101751141
 40
0.923569758010563
 40
0.9482086612718909
 40
0.9736854115862558
 40
0.9999999999999999
 40
0.9999999999999999
 40
0.9999999999999999
 40
0.9999999999999999
 10
-16.26347243393841
 20
16.26343950062605
 30
0.0
 10
-16.36872877961639
 20
16.15699045955816
 30
0.0
 10
-16.57826664714153
 20
15.94507824731299
 30
0.0
 10
-16.88323379635095
 20
15.62104629045727
 30
0.0
 10
-17.17955620771377
 20
15.29471310534864
 30
0.0
 10
-17.46674829015225
 20
14.96580515051404
 30
0.0
 10
-17.74503116195397
 20
14.6347430551856
 30
0.0
 10
-18.01444730086625
 20
14.30175609106898
 30
0.0
 10
-18.27509403101352
 20
13.96711602823912
 30
0.0
 10
-18.52706145973346
 20
13.63107530469158
 30
0.0
 10
-18.77044848371001
 20
13.29388330862963
 30
0.0
 10
-19.00535818432752
 20
12.95578204511048
 30
0.0
 10
-19.23189867227619
 20
12.61700725902872
 30
0.0
 10
-19.45018250061718
 20
12.27778812971248
 30
0.0
 10
-19.66032646311143
 20
11.93834735422636
 30
0.0
 10
-19.86245129843231
 20
11.59890113920599
 30
0.0
 10
-20.05668142696045
 20
11.25965922744326
 30
0.0
 10
-20.24314468688039
 20
10.92082492540835
 30
0.0
 10
-20.42197207849199
 20
10.58259514013162
 30
0.0
 10
-20.59329751449741
 20
10.24516042273275
 30
0.0
 10
-20.75725757694569
 20
9.908705018830684
 30
0.0
 10
-20.91399128072836
 20
9.573406925299949
 30
0.0
 10
-21.06363984370881
 20
9.239437953050729
 30
0.0
 10
-21.20634646350141
 20
8.906963795464206
 30
0.0
 10
-21.34225610091709
 20
8.576144102136885
 30
0.0
 10
-21.47151527007663
 20
8.247132557592145
 30
0.0
 10
-21.59427183518197
 20
7.920076964626786
 30
0.0
 10
-21.71067481392474
 20
7.595119331968802
 30
0.0
 10
-21.82087418750074
 20
7.272395965931272
 30
0.0
 10
-21.92502071718941
 20
6.952037565756466
 30
0.0
 10
-22.02326576744826
 20
6.63416932235295
 30
0.0
 10
-22.11576113546287
 20
6.318911020137687
 30
0.0
 10
-22.20265888708619
 20
6.006377141704345
 30
0.0
 10
-22.28411119909196
 20
5.696676975047729
 30
0.0
 10
-22.36027020766094
 20
5.389914723083877
 30
0.0
 10
-22.43128786301179
 20
5.086189615214127
 30
0.0
 10
-22.49731579008236
 20
4.785596020690452
 30
0.0
 10
-22.5585051551616
 20
4.488223563548747
 30
0.0
 10
-22.61500653836727
 20
4.19415723888516
 30
0.0
 10
-22.66696981185965
 20
3.90347753025986
 30
0.0
 10
-22.71454402367821
 20
3.616260528021139
 30
0.0
 10
-22.75787728708228
 20
3.332578048350888
 30
0.0
 10
-22.79711667527632
 20
3.052497752844098
 30
0.0
 10
-22.83240812139389
 20
2.776083268430542
 30
0.0
 10
-22.8638963236169
 20
2.503394307504144
 30
0.0
 10
-22.89172465529056
 20
2.234486787951373
 30
0.0
 10
-22.91603507994073
 20
1.969412953445995
 30
0.0
 10
-22.93696807092338
 20
1.708221491946519
 30
0.0
 10
-22.95466253607337
 20
1.450957659231774
 30
0.0
 10
-22.96925574539098
 20
1.197663381914953
 30
0.0
 10
-22.98088326828288
 20
0.9483774324198782
 30
0.0
 10
-22.98967889599824
 20
0.7031353385937305
 30
0.0
 10
-22.99577463728511
 20
0.4619702551342886
 30
0.0
 10
-22.99930046639259
 20
0.2249103317764612
 30
0.0
 10
-23.00229490707469
 20
-0.4182014461228596
 30
0.0
 10
-22.96820943901828
 20
-1.478568903465968
 30
0.0
 10
-22.8251463649341
 20
-2.960699185129501
 30
0.0
 10
-22.5810228645898
 20
-4.458672528477169
 30
0.0
 10
-22.31480631304547
 20
-5.605273006692536
 30
0.0
 10
-22.09027924017093
 20
-6.410683394713465
 30
0.0
 10
-21.94692300075254
 20
-6.886211595408474
 30
0.0
 10
-21.7836432649181
 20
-7.387208667892059
 30
0.0
 10
-21.59854698682031
 20
-7.912773234141189
 30
0.0
 10
-21.38966867499868
 20
-8.461863891763418
 30
0.0
 10
-21.15497718379022
 20
-9.033298040510104
 30
0.0
 10
-20.89238634707439
 20
-9.625736478558897
 30
0.0
 10
-20.59976627495984
 20
-10.23767207757523
 30
0.0
 10
-20.27495600779592
 20
-10.86741701241115
 30
0.0
 10
-19.9157788727955
 20
-11.51309175148085
 30
0.0
 10
-19.52005460288873
 20
-12.17260941779633
 30
0.0
 10
-19.08563250478528
 20
-12.84368005824263
 30
0.0
 10
-18.61034987247761
 20
-13.52373909671459
 30
0.0
 10
-18.09229423437099
 20
-14.21017875201518
 30
0.0
 10
-17.52887802444391
 20
-14.89939111923632
 30
0.0
 10
-16.92059097082166
 20
-15.59048876459727
 30
0.0
 10
-16.48484938659552
 20
-16.03672853788042
 30
0.0
 10
-16.26345405824035
 20
-16.26345787634055
 30
0.0
  0
SPLINE
  5
89
330
1F
100
AcDbEntity
  8
0
  6
Continuous
 62
     7
370
    25
100
AcDbSpline
210
0.0
220
0.0
230
1.0
 70
     8
 71
     3
 72
    11
 73
     7
 74
     0
 42
0.000000001
 43
0.00000001
 40
0.0
 40
0.0
 40
0.0
 40
0.0
 40
0.2822369101574347
 40
0.5429791717667184
 40
0.7822321680328919
 40
1.0
 40
1.0
 40
1.0
 40
1.0
 10
-22.81171875800871
 20
-22.84146389041463
 30
0.0
 10
-22.19339219836564
 20
-22.22500064700372
 30
0.0
 10
-21.00382970262731
 20
-21.03902287696235
 30
0.0
 10
-19.29560908354448
 20
-19.32503048387463
 30
0.0
 10
-17.73105086849016
 20
-17.7494024814653
 30
0.0
 10
-16.73746651135821
 20
-16.74344753668578
 30
0.0
 10
-16.26402920180387
 20
-16.26411571229591
 30
0.0
  0
SPLINE
  5
8A
330
1F
100
AcDbEntity
  8
0
  6
Continuous
 62
     7
370
    25
100
AcDbSpline
210
0.0
220
0.0
230
1.0
 70
     8
 71
     3
 72
    81
 73
    77
 74
     0
 42
0.000000001
 43
0.00000001
 40
0.0
 40
0.0
 40
0.0
 40
0.0
 40
0.0124267784659522
 40
0.0247384464295602
 40
0.0369350044238057
 40
0.0490164530007096
 40
0.0609827927320335
 40
0.0728340242100095
 40
0.0845701480481038
 40
0.0961911648818224
 40
0.1076970753695553
 40
0.1190878801934643
 40
0.1303635800604145
 40
0.1415241757029532
 40
0.1525696678803428
 40
0.1635000573796463
 40
0.1743153450168725
 40
0.1850155316381759
 40
0.1956006181211301
 40
0.2060706053760709
 40
0.2164254943475043
 40
0.2266652860156053
 40
0.2367899813977969
 40
0.2467995815504168
 40
0.2566940875704859
 40
0.2664735005975803
 40
0.2761378218158106
 40
0.2856870524559243
 40
0.295121193797537
 40
0.3044402471714986
 40
0.3136442139624042
 40
0.3227330956112779
 40
0.3317068936184062
 40
0.3405656095463805
 40
0.3493092450233179
 40
0.3579378017463075
 40
0.3664512814850949
 40
0.3748496860859995
 40
0.3831330174761313
 40
0.3913012776678751
 40
0.3993544687637188
 40
0.4072925929614176
 40
0.4151156525595425
 40
0.4228236499634471
 40
0.4304165876916686
 40
0.4378944683828511
 40
0.4452572948031748
 40
0.4525050698544049
 40
0.4596377965825648
 40
0.4666554781873412
 40
0.4735581180322522
 40
0.4803457196556903
 40
0.4870182867829124
 40
0.493575823339079
 40
0.5000183334634549
 40
0.5404371296841963
 40
0.5816466431243784
 40
0.6236472987805386
 40
0.6664394968919406
 40
0.6793534314569897
 40
0.6931057692424899
 40
0.7076965175305315
 40
0.7231256810816116
 40
0.7393932625796061
 40
0.756499262967716
 40
0.7744436817059294
 40
0.793226516971029
 40
0.8128477658138632
 40
0.8333074242843946
 40
0.8546054875321483
 40
0.8767419498876131
 40
0.8997168049288214
 40
0.9235300455361857
 40
0.9481816639380176
 40
0.9736716517485665
 40
1.0
 40
1.0
 40
1.0
 40
1.0
 10
-16.263439500626
 20
-16.26347243393846
 30
0.0
 10
-16.15703997567752
 20
-16.36868036674536
 30
0.0
 10
-15.94522651531203
 20
-16.57812168066589
 30
0.0
 10
-15.62134929765308
 20
-16.88295176548165
 30
0.0
 10
-15.29517480964433
 20
-17.17914337092411
 30
0.0
 10
-14.96642973829842
 20
-17.46621143347491
 30
0.0
 10
-14.63553429605051
 20
-17.74437693829709
 30
0.0
 10
-14.30271751592101
 20
-18.01368239223653
 30
0.0
 10
-13.96825088956129
 20
-18.27422509326735
 30
0.0
 10
-13.63238659476632
 20
-18.52609512546162
 30
0.0
 10
-13.29537376263835
 20
-18.76939135024737
 30
0.0
 10
-12.95745414844239
 20
-19.00421680622009
 30
0.0
 10
-12.61886325365495
 20
-19.23067955307972
 30
0.0
 10
-12.27983002096473
 20
-19.44889208537868
 30
0.0
 10
-11.94057691760289
 20
-19.65897113116819
 30
0.0
 10
-11.60131992728359
 20
-19.86103735661776
 30
0.0
 10
-11.26226857685384
 20
-20.05521510318476
 30
0.0
 10
-10.92362596387126
 20
-20.24163212408545
 30
0.0
 10
-10.5855887935252
 20
-20.42041932897159
 30
0.0
 10
-10.24834742219144
 20
-20.59171053457525
 30
0.0
 10
-9.912085907854003
 20
-20.75564222200293
 30
0.0
 10
-9.576982066860632
 20
-20.91235330057258
 30
0.0
 10
-9.243207536689697
 20
-21.0619848782755
 30
0.0
 10
-8.910927844360863
 20
-21.20468003887934
 30
0.0
 10
-8.580302480143775
 20
-21.34058362568853
 30
0.0
 10
-8.251484976223477
 20
-21.46984203196324
 30
0.0
 10
-7.924622989991272
 20
-21.59260299798715
 30
0.0
 10
-7.599858391637362
 20
-21.70901541476294
 30
0.0
 10
-7.27732735573123
 20
-21.81922913430457
 30
0.0
 10
-6.957160456483957
 20
-21.92339478648471
 30
0.0
 10
-6.639482766396142
 20
-22.02166360238787
 30
0.0
 10
-6.324413958003825
 20
-22.11418724410949
 30
0.0
 10
-6.012068408443918
 20
-22.20111764093489
 30
0.0
 10
-5.702555306570085
 20
-22.28260683182263
 30
0.0
 10
-5.395978762358504
 20
-22.35880681411166
 30
0.0
 10
-5.092437918352617
 20
-22.42986939836343
 30
0.0
 10
-4.792027062904682
 20
-22.49594606924524
 30
0.0
 10
-4.494835744980777
 20
-22.55718785235499
 30
0.0
 10
-4.200948890305537
 20
-22.61374518688283
 30
0.0
 10
-3.910446918630522
 20
-22.66576780399973
 30
0.0
 10
-3.623405861920345
 20
-22.71340461085995
 30
0.0
 10
-3.339897483257233
 20
-22.75680358009947
 30
0.0
 10
-3.059989396277651
 20
-22.79611164470984
 30
0.0
 10
-2.783745184948966
 20
-22.83147459816274
 30
0.0
 10
-2.511224523552339
 20
-22.86303699966161
 30
0.0
 10
-2.24248329656347
 20
-22.89094208438084
 30
0.0
 10
-1.977573718798285
 20
-22.9153316785995
 30
0.0
 10
-1.716544453761441
 20
-22.93634611946021
 30
0.0
 10
-1.459440737030726
 20
-22.95412417971756
 30
0.0
 10
-1.206304479124944
 20
-22.96880299552471
 30
0.0
 10
-0.9571744403157962
 20
-22.98051800374037
 30
0.0
 10
-0.7120861401442419
 20
-22.98940286452205
 30
0.0
 10
-0.4710727284977099
 20
-22.99558945677584
 30
0.0
 10
-0.2341623544014234
 20
-22.99920762724719
 30
0.0
 10
0.40919556521916
 20
-23.00246409423407
 30
0.0
 10
1.470186009895191
 20
-22.96876869757957
 30
0.0
 10
2.953298092402656
 20
-22.82612458984719
 30
0.0
 10
4.452169688942237
 20
-22.58232360748714
 30
0.0
 10
5.599414873843273
 20
-22.31628468739802
 30
0.0
 10
6.40524788186176
 20
-22.09185741247452
 30
0.0
 10
6.88101617783065
 20
-21.94855421633094
 30
0.0
 10
7.382273112281792
 20
-21.78531838931341
 30
0.0
 10
7.908116716936227
 20
-21.60025467771607
 30
0.0
 10
8.457504815161668
 20
-21.39139527204411
 30
0.0
 10
9.029253841573794
 20
-21.1567066123289
 30
0.0
 10
9.62202341152926
 20
-20.89410003774312
 30
0.0
 10
10.23430497502574
 20
-20.6014431021951
 30
0.0
 10
10.86440902339536
 20
-20.27657224994574
 30
0.0
 10
11.51045405886905
 20
-19.91730819834174
 30
0.0
 10
12.17035093061861
 20
-19.52146808135773
 30
0.0
 10
12.84180710001661
 20
-19.08689866557559
 30
0.0
 10
13.52225501339673
 20
-18.61143473749859
 30
0.0
 10
14.20908375232194
 20
-18.0931616378922
 30
0.0
 10
14.89868112052215
 20
-17.52948899801749
 30
0.0
 10
15.59015810873502
 20
-16.92090704386356
 30
0.0
 10
16.03663302493301
 20
-16.48493998067686
 30
0.0
 10
16.26348220560005
 20
-16.26342972893885
 30
0.0
  0
LINE
  5
8B
330
1F
100
AcDbEntity
  8
0
  6
Continuous
 62
     7
370
    25
100
AcDbLine
 10
-155.0
 20
-155.0
 30
0.0
 11
155.0
 21
-155.0
 31
0.0
  0
LINE
  5
8C
330
1F
100
AcDbEntity
  8
0
  6
Continuous
 62
     7
370
    25
100
AcDbLine
 10
-155.0
 20
155.0
 30
0.0
 11
-155.0
 21
-155.0
 31
0.0
  0
LINE
  5
8D
330
1F
100
AcDbEntity
  8
0
  6
Continuous
 62
     7
370
    25
100
AcDbLine
 10
155.0
 20
-155.0
 30
0.0
 11
155.0
 21
155.0
 31
0.0
  0
LINE
  5
8E
330
1F
100
AcDbEntity
  8
0
  6
Continuous
 62
     7
370
    25
100
AcDbLine
 10
155.0
 20
155.0
 30
0.0
 11
-155.0
 21
155.0
 31
0.0
  0
LINE
  5
8F
330
1F
100
AcDbEntity
  8
0
  6
Continuous
 62
     7
370
    25
100
AcDbLine
 10
135.0
 20
135.0
 30
0.0
 11
-135.0
 21
135.0
 31
0.0
  0
LINE
  5
90
330
1F
100
AcDbEntity
  8
0
  6
Continuous
 62
     7
370
    25
100
AcDbLine
 10
-135.0
 20
-135.0
 30
0.0
 11
135.0
 21
-135.0
 31
0.0
  0
LINE
  5
91
330
1F
100
AcDbEntity
  8
0
  6
Continuous
 62
     7
370
    25
100
AcDbLine
 10
135.0
 20
-135.0
 30
0.0
 11
135.0
 21
135.0
 31
0.0
  0
LINE
  5
92
330
1F
100
AcDbEntity
  8
0
  6
Continuous
 62
     7
370
    25
100
AcDbLine
 10
-135.0
 20
135.0
 30
0.0
 11
-135.0
 21
-135.0
 31
0.0
  0
LINE
  5
93
330
1F
100
AcDbEntity
  8
0
  6
Continuous
 62
     7
370
    25
100
AcDbLine
 10
-135.0
 20
-135.0
 30
0.0
 11
-22.8264281801
 21
-22.8264281801
 31
0.0
  0
LINE
  5
94
330
1F
100
AcDbEntity
  8
0
  6
Continuous
 62
     7
370
    25
100
AcDbLine
 10
135.0
 20
-135.0
 30
0.0
 11
22.8264281801
 21
-22.8264281801
 31
0.0
  0
LINE
  5
95
330
1F
100
AcDbEntity
  8
0
  6
Continuous
 62
     7
370
    25
100
AcDbLine
 10
135.0
 20
135.0
 30
0.0
 11
22.8264281881
 21
22.8264281881
 31
0.0
  0
LINE
  5
96
330
1F
100
AcDbEntity
  8
0
  6
Continuous
 62
     7
370
    25
100
AcDbLine
 10
-22.8264281801
 20
22.8264281801
 30
0.0
 11
-135.0
 21
135.0
 31
0.0
  0
LINE
  5
9B
330
1B
100
AcDbEntity
 67
     1
  8
0
  6
Continuous
 62
     7
370
    25
100
AcDbLine
 10
-155.0
 20
140.0
 30
0.0
 11
155.0
 21
140.0
 31
0.0
  0
LINE
  5
9C
330
1B
100
AcDbEntity
 67
     1
  8
0
  6
Continuous
 62
     7
370
    25
100
AcDbLine
 10
-155.0
 20
140.0
 30
0.0
 11
-155.0
 21
0.0
 31
0.0
  0
LINE
  5
9D
330
1B
100
AcDbEntity
 67
     1
  8
0
  6
Continuous
 62
     7
370
    25
100
AcDbLine
 10
-155.0
 20
0.0
 30
0.0
 11
155.0
 21
0.0
 31
0.0
  0
LINE
  5
9E
330
1B
100
AcDbEntity
 67
     1
  8
0
  6
Continuous
 62
     7
370
    25
100
AcDbLine
 10
155.0
 20
140.0
 30
0.0
 11
155.0
 21
0.0
 31
0.0
  0
VIEWPORT
  5
14C
330
1B
100
AcDbEntity
 67
     1
  8
0
100
AcDbViewport
 10
0.0
 20
0.0
 30
0.0
 40
205.6
 41
156.0
 68
     1
 69
     1
 12
0.0
 22
0.0
 13
0.0
 23
0.0
 14
10.0
 24
10.0
 15
10.0
 25
10.0
 16
0.0
 26
0.0
 36
1.0
 17
0.0
 27
0.0
 37
0.0
 42
50.0
 43
0.0
 44
0.0
 45
316.2
 50
0.0
 51
0.0
 72
   100
 90
   557152
  1

281
     0
 71
     1
 74
     0
110
0.0
120
0.0
130
0.0
111
1.0
121
0.0
131
0.0
112
0.0
122
1.0
132
0.0
 79
     0
146
0.0
170
     0
 61
     5
348
2F
292
     1
282
     1
141
0.0
142
0.0
 63
   256
361
14D
  0
ENDSEC
  0
SECTION
  2
OBJECTS
  0
DICTIONARY
  5
C
330
0
100
AcDbDictionary
281
     1
  3
ACAD_DETAILVIEWSTYLE
350
165
  3
ACAD_GROUP
350
D
  3
ACAD_LAYOUT
350
1A
  3
ACAD_MATERIAL
350
43
  3
ACAD_MLEADERSTYLE
350
6B
  3
ACAD_MLINESTYLE
350
17
  3
ACAD_PLOTSETTINGS
350
19
  3
ACAD_PLOTSTYLENAME
350
E
  3
ACAD_SCALELIST
350
47
  3
ACAD_SECTIONVIEWSTYLE
350
166
  3
ACAD_TABLESTYLE
350
69
  3
ACAD_VISUALSTYLE
350
2A
  3
ACDB_RECOMPOSE_DATA
350
162
  3
AcDbVariableDictionary
350
15E
  0
SUN
  5
6D
330
29
100
AcDbSun
 90
        1
290
     0
 63
     7
421
 16777215
 40
1.0
291
     1
 91
  2455826
 92
 54000000
292
     0
 70
     2
 71
   256
280
     1
  0
SUN
  5
14F
330
14E
100
AcDbSun
 90
        1
290
     0
 63
     7
421
 16777215
 40
1.0
291
     1
 91
  2455826
 92
 54000000
292
     0
 70
     2
 71
   256
280
     1
  0
SUN
  5
151
330
150
100
AcDbSun
 90
        1
290
     0
 63
     7
421
 16777215
 40
1.0
291
     1
 91
  2455826
 92
 54000000
292
     0
 70
     2
 71
   256
280
     1
  0
SUN
  5
153
330
152
100
AcDbSun
 90
        1
290
     0
 63
     7
421
 16777215
 40
1.0
291
     1
 91
  2455826
 92
 54000000
292
     0
 70
     2
 71
   256
280
     1
  0
SUN
  5
155
330
154
100
AcDbSun
 90
        1
290
     0
 63
     7
421
 16777215
 40
1.0
291
     1
 91
  2455826
 92
 54000000
292
     0
 70
     2
 71
   256
280
     1
  0
SUN
  5
157
330
156
100
AcDbSun
 90
        1
290
     0
 63
     7
421
 16777215
 40
1.0
291
     1
 91
  2455826
 92
 54000000
292
     0
 70
     2
 71
   256
280
     1
  0
SUN
  5
159
330
158
100
AcDbSun
 90
        1
290
     0
 63
     7
421
 16777215
 40
1.0
291
     1
 91
  2455826
 92
 54000000
292
     0
 70
     2
 71
   256
280
     1
  0
SUN
  5
15B
330
15A
100
AcDbSun
 90
        1
290
     0
 63
     7
421
 16777215
 40
1.0
291
     1
 91
  2455826
 92
 54000000
292
     0
 70
     2
 71
   256
280
     1
  0
SUN
  5
15D
330
15C
100
AcDbSun
 90
        1
290
     0
 63
     7
421
 16777215
 40
1.0
291
     1
 91
  2455826
 92
 54000000
292
     0
 70
     2
 71
   256
280
     1
  0
SUN
  5
14D
330
14C
100
AcDbSun
 90
        1
290
     0
 63
     7
421
 16777215
 40
1.0
291
     1
 91
  2455826
 92
 54000000
292
     0
 70
     2
 71
   256
280
     1
  0
DICTIONARY
  5
165
102
{ACAD_REACTORS
330
C
102
}
330
C
100
AcDbDictionary
281
     1
  0
DICTIONARY
  5
D
102
{ACAD_REACTORS
330
C
102
}
330
C
100
AcDbDictionary
281
     1
  0
DICTIONARY
  5
1A
102
{ACAD_REACTORS
330
C
102
}
330
C
100
AcDbDictionary
281
     1
  3
_Dimetrisch
350
12D
  3
_Isometrisch
350
D9
  3
_Links
350
C0
  3
_Normal auf
350
A8
  3
_Rechts
350
26
  3
_Rückseite
350
B4
  3
_Trimetrisch
350
105
  3
_Unten
350
CC
  3
_Vorderseite
350
1E
  3
Model
350
22
  0
DICTIONARY
  5
43
102
{ACAD_REACTORS
330
C
102
}
330
C
100
AcDbDictionary
281
     1
  3
ByBlock
350
45
  3
ByLayer
350
44
  3
Global
350
46
  0
DICTIONARY
  5
6B
102
{ACAD_REACTORS
330
C
102
}
330
C
100
AcDbDictionary
281
     1
  3
Standard
350
6C
  0
DICTIONARY
  5
17
102
{ACAD_REACTORS
330
C
102
}
330
C
100
AcDbDictionary
281
     1
  3
Standard
350
18
  0
DICTIONARY
  5
19
102
{ACAD_REACTORS
330
C
102
}
330
C
100
AcDbDictionary
281
     1
  0
ACDBDICTIONARYWDFLT
  5
E
102
{ACAD_REACTORS
330
C
102
}
330
C
100
AcDbDictionary
281
     1
  3
Normal
350
F
100
AcDbDictionaryWithDefault
340
F
  0
DICTIONARY
  5
47
102
{ACAD_REACTORS
330
C
102
}
330
C
100
AcDbDictionary
281
     1
  3
A0
350
48
  3
A1
350
49
  3
A2
350
4A
  3
A3
350
4B
  3
A4
350
4C
  3
A5
350
4D
  3
A6
350
4E
  3
A7
350
4F
  3
A8
350
50
  3
A9
350
51
  3
B0
350
52
  3
B1
350
53
  3
B2
350
54
  3
B3
350
55
  3
B4
350
56
  3
B5
350
57
  3
B6
350
58
  3
B7
350
59
  3
B8
350
5A
  3
B9
350
5B
  3
C0
350
5C
  3
C1
350
5D
  3
C2
350
5E
  3
C3
350
5F
  3
C4
350
60
  3
C5
350
61
  3
C6
350
62
  3
C7
350
63
  3
C8
350
64
  3
C9
350
65
  3
D0
350
66
  3
D1
350
67
  3
D2
350
68
  0
DICTIONARY
  5
166
102
{ACAD_REACTORS
330
C
102
}
330
C
100
AcDbDictionary
281
     1
  0
DICTIONARY
  5
69
102
{ACAD_REACTORS
330
C
102
}
330
C
100
AcDbDictionary
281
     1
  3
Standard
350
6A
  0
DICTIONARY
  5
2A
102
{ACAD_REACTORS
330
C
102
}
330
C
100
AcDbDictionary
281
     1
  3
2dWireframe
350
2F
  3
Basic
350
32
  3
Brighten
350
36
  3
ColorChange
350
3A
  3
Conceptual
350
34
  3
Dim
350
35
  3
EdgeColorOff
350
3D
  3
Facepattern
350
39
  3
Flat
350
2B
  3
FlatWithEdges
350
2C
  3
Gouraud
350
2D
  3
GouraudWithEdges
350
2E
  3
Hidden
350
31
  3
JitterOff
350
3B
  3
Linepattern
350
38
  3
OverhangOff
350
3C
  3
Realistic
350
33
  3
Shaded
350
42
  3
Shaded with edges
350
41
  3
Shades of Gray
350
3E
  3
Sketchy
350
3F
  3
Thicken
350
37
  3
Wireframe
350
30
  3
X-Ray
350
40
  0
XRECORD
  5
162
102
{ACAD_REACTORS
330
C
102
}
330
C
100
AcDbXrecord
280
     1
 90
        1
330
6A
  0
DICTIONARY
  5
15E
102
{ACAD_REACTORS
330
C
102
}
330
C
100
AcDbDictionary
281
     1
  3
CANNOSCALE
350
15F
  3
CMLEADERSTYLE
350
164
  3
CTABLESTYLE
350
163
  0
LAYOUT
  5
12D
102
{ACAD_REACTORS
330
1A
102
}
330
1A
100
AcDbPlotSettings
  1

  2
none_device
  4
ISO_A4_(210.00_x_297.00_MM)
  6

 40
7.5
 41
20.0
 42
7.5
 43
20.0
 44
210.0
 45
297.0
 46
0.0
 47
0.0
 48
0.0
 49
0.0
140
0.0
141
0.0
142
1.0
143
1.2062256809
 70
   688
 72
     1
 73
     1
 74
     1
  7

 75
     0
 76
     0
 77
     2
 78
   300
147
0.8290322581
148
155.0
149
0.0
100
AcDbLayout
  1
_Dimetrisch
 70
     1
 71
     9
 10
0.0
 20
0.0
 11
0.0
 21
0.0
 12
0.0
 22
0.0
 32
0.0
 14
0.0
 24
0.0
 34
0.0
 15
0.0
 25
0.0
 35
0.0
146
0.0
 13
0.0
 23
0.0
 33
0.0
 16
1.0
 26
0.0
 36
0.0
 17
0.0
 27
1.0
 37
0.0
 76
     0
330
12C
331
15C
  0
LAYOUT
  5
D9
102
{ACAD_REACTORS
330
1A
102
}
330
1A
100
AcDbPlotSettings
  1

  2
none_device
  4
ISO_A4_(210.00_x_297.00_MM)
  6

 40
7.5
 41
20.0
 42
7.5
 43
20.0
 44
210.0
 45
297.0
 46
0.0
 47
0.0
 48
0.0
 49
0.0
140
0.0
141
0.0
142
1.0
143
1.2062256809
 70
   688
 72
     1
 73
     1
 74
     1
  7

 75
     0
 76
     0
 77
     2
 78
   300
147
0.8290322581
148
155.0
149
0.0
100
AcDbLayout
  1
_Isometrisch
 70
     1
 71
     7
 10
0.0
 20
0.0
 11
0.0
 21
0.0
 12
0.0
 22
0.0
 32
0.0
 14
0.0
 24
0.0
 34
0.0
 15
0.0
 25
0.0
 35
0.0
146
0.0
 13
0.0
 23
0.0
 33
0.0
 16
1.0
 26
0.0
 36
0.0
 17
0.0
 27
1.0
 37
0.0
 76
     0
330
D8
331
158
  0
LAYOUT
  5
C0
102
{ACAD_REACTORS
330
1A
102
}
330
1A
100
AcDbPlotSettings
  1

  2
none_device
  4
ISO_A4_(210.00_x_297.00_MM)
  6

 40
7.5
 41
20.0
 42
7.5
 43
20.0
 44
210.0
 45
297.0
 46
0.0
 47
0.0
 48
0.0
 49
0.0
140
0.0
141
0.0
142
1.0
143
1.2062256809
 70
   688
 72
     1
 73
     1
 74
     1
  7

 75
     0
 76
     0
 77
     2
 78
   300
147
0.8290322581
148
155.0
149
0.0
100
AcDbLayout
  1
_Links
 70
     1
 71
     5
 10
0.0
 20
0.0
 11
0.0
 21
0.0
 12
0.0
 22
0.0
 32
0.0
 14
0.0
 24
0.0
 34
0.0
 15
0.0
 25
0.0
 35
0.0
146
0.0
 13
0.0
 23
0.0
 33
0.0
 16
1.0
 26
0.0
 36
0.0
 17
0.0
 27
1.0
 37
0.0
 76
     0
330
BF
331
154
  0
LAYOUT
  5
A8
102
{ACAD_REACTORS
330
1A
102
}
330
1A
100
AcDbPlotSettings
  1

  2
none_device
  4
ISO_A4_(210.00_x_297.00_MM)
  6

 40
7.5
 41
20.0
 42
7.5
 43
20.0
 44
210.0
 45
297.0
 46
0.0
 47
0.0
 48
0.0
 49
0.0
140
0.0
141
0.0
142
1.0
143
1.2062256809
 70
   688
 72
     1
 73
     1
 74
     1
  7

 75
     0
 76
     0
 77
     2
 78
   300
147
0.8290322581
148
155.0
149
0.0
100
AcDbLayout
  1
_Normal auf
 70
     1
 71
     3
 10
0.0
 20
0.0
 11
0.0
 21
0.0
 12
0.0
 22
0.0
 32
0.0
 14
0.0
 24
0.0
 34
0.0
 15
0.0
 25
0.0
 35
0.0
146
0.0
 13
0.0
 23
0.0
 33
0.0
 16
1.0
 26
0.0
 36
0.0
 17
0.0
 27
1.0
 37
0.0
 76
     0
330
A7
331
150
  0
LAYOUT
  5
26
102
{ACAD_REACTORS
330
1A
102
}
330
1A
100
AcDbPlotSettings
  1

  2
none_device
  4
ISO_A4_(210.00_x_297.00_MM)
  6

 40
7.5
 41
20.0
 42
7.5
 43
20.0
 44
210.0
 45
297.0
 46
0.0
 47
0.0
 48
0.0
 49
0.0
140
0.0
141
0.0
142
1.0
143
1.2062256809
 70
   688
 72
     1
 73
     1
 74
     1
  7

 75
     0
 76
     0
 77
     2
 78
   300
147
0.8290322581
148
155.0
149
0.0
100
AcDbLayout
  1
_Rechts
 70
     1
 71
     2
 10
0.0
 20
0.0
 11
0.0
 21
0.0
 12
0.0
 22
0.0
 32
0.0
 14
0.0
 24
0.0
 34
0.0
 15
0.0
 25
0.0
 35
0.0
146
0.0
 13
0.0
 23
0.0
 33
0.0
 16
1.0
 26
0.0
 36
0.0
 17
0.0
 27
1.0
 37
0.0
 76
     0
330
23
331
14E
  0
LAYOUT
  5
B4
102
{ACAD_REACTORS
330
1A
102
}
330
1A
100
AcDbPlotSettings
  1

  2
none_device
  4
ISO_A4_(210.00_x_297.00_MM)
  6

 40
7.5
 41
20.0
 42
7.5
 43
20.0
 44
210.0
 45
297.0
 46
0.0
 47
0.0
 48
0.0
 49
0.0
140
0.0
141
0.0
142
1.0
143
1.2062256809
 70
   688
 72
     1
 73
     1
 74
     1
  7

 75
     0
 76
     0
 77
     2
 78
   300
147
0.8290322581
148
155.0
149
0.0
100
AcDbLayout
  1
_Rückseite
 70
     1
 71
     4
 10
0.0
 20
0.0
 11
0.0
 21
0.0
 12
0.0
 22
0.0
 32
0.0
 14
0.0
 24
0.0
 34
0.0
 15
0.0
 25
0.0
 35
0.0
146
0.0
 13
0.0
 23
0.0
 33
0.0
 16
1.0
 26
0.0
 36
0.0
 17
0.0
 27
1.0
 37
0.0
 76
     0
330
B3
331
152
  0
LAYOUT
  5
105
102
{ACAD_REACTORS
330
1A
102
}
330
1A
100
AcDbPlotSettings
  1

  2
none_device
  4
ISO_A4_(210.00_x_297.00_MM)
  6

 40
7.5
 41
20.0
 42
7.5
 43
20.0
 44
210.0
 45
297.0
 46
0.0
 47
0.0
 48
0.0
 49
0.0
140
0.0
141
0.0
142
1.0
143
1.2062256809
 70
   688
 72
     1
 73
     1
 74
     1
  7

 75
     0
 76
     0
 77
     2
 78
   300
147
0.8290322581
148
155.0
149
0.0
100
AcDbLayout
  1
_Trimetrisch
 70
     1
 71
     8
 10
0.0
 20
0.0
 11
0.0
 21
0.0
 12
0.0
 22
0.0
 32
0.0
 14
0.0
 24
0.0
 34
0.0
 15
0.0
 25
0.0
 35
0.0
146
0.0
 13
0.0
 23
0.0
 33
0.0
 16
1.0
 26
0.0
 36
0.0
 17
0.0
 27
1.0
 37
0.0
 76
     0
330
104
331
15A
  0
LAYOUT
  5
CC
102
{ACAD_REACTORS
330
1A
102
}
330
1A
100
AcDbPlotSettings
  1

  2
none_device
  4
ISO_A4_(210.00_x_297.00_MM)
  6

 40
7.5
 41
20.0
 42
7.5
 43
20.0
 44
210.0
 45
297.0
 46
0.0
 47
0.0
 48
0.0
 49
0.0
140
0.0
141
0.0
142
1.0
143
1.2062256809
 70
   688
 72
     1
 73
     1
 74
     1
  7

 75
     0
 76
     0
 77
     2
 78
   300
147
0.8290322581
148
155.0
149
0.0
100
AcDbLayout
  1
_Unten
 70
     1
 71
     6
 10
0.0
 20
0.0
 11
0.0
 21
0.0
 12
0.0
 22
0.0
 32
0.0
 14
0.0
 24
0.0
 34
0.0
 15
0.0
 25
0.0
 35
0.0
146
0.0
 13
0.0
 23
0.0
 33
0.0
 16
1.0
 26
0.0
 36
0.0
 17
0.0
 27
1.0
 37
0.0
 76
     0
330
CB
331
156
  0
LAYOUT
  5
1E
102
{ACAD_REACTORS
330
1A
102
}
330
1A
100
AcDbPlotSettings
  1

  2
none_device
  4
ISO_A4_(210.00_x_297.00_MM)
  6

 40
7.5
 41
20.0
 42
7.5
 43
20.0
 44
210.0
 45
297.0
 46
0.0
 47
0.0
 48
0.0
 49
0.0
140
0.0
141
0.0
142
1.0
143
1.2062256809
 70
   688
 72
     1
 73
     1
 74
     1
  7

 75
     0
 76
     0
 77
     2
 78
   300
147
0.8290322581
148
155.0
149
0.0
100
AcDbLayout
  1
_Vorderseite
 70
     1
 71
     1
 10
-179.1245136187
 20
-9.046692607
 11
179.1245136187
 21
244.2607003891
 12
0.0
 22
0.0
 32
0.0
 14
-155.0
 24
0.0
 34
0.0
 15
155.0
 25
140.0
 35
0.0
146
0.0
 13
0.0
 23
0.0
 33
0.0
 16
1.0
 26
0.0
 36
0.0
 17
0.0
 27
1.0
 37
0.0
 76
     0
330
1B
331
14C
  0
LAYOUT
  5
22
102
{ACAD_REACTORS
330
1A
102
}
330
1A
100
AcDbPlotSettings
  1

  2
none_device
  4
ANSI_A_(11.00_x_8.50_Inches)
  6

 40
6.35
 41
19.05
 42
6.35000508
 43
19.05000254
 44
279.4
 45
215.9
 46
133.34999746
 47
88.89999873
 48
0.0
 49
0.0
140
0.0
141
0.0
142
0.0271451613
143
1.0
 70
  1696
 72
     0
 73
     0
 74
     0
  7

 75
     0
 76
     0
 77
     2
 78
   300
147
0.0179189148
148
-1300.4909072572
149
0.0
100
AcDbLayout
  1
Model
 70
     1
 71
     0
 10
0.0
 20
0.0
 11
420.0
 21
297.0
 12
0.0
 22
0.0
 32
0.0
 14
-155.0
 24
-155.0
 34
0.0
 15
155.0
 25
155.0
 35
0.0
146
0.0
 13
0.0
 23
0.0
 33
0.0
 16
1.0
 26
0.0
 36
0.0
 17
0.0
 27
1.0
 37
0.0
 76
     0
330
1F
331
29
  0
MATERIAL
  5
45
102
{ACAD_REACTORS
330
43
102
}
330
43
100
AcDbMaterial
  1
ByBlock
 72
     1
 94
      127
  0
MATERIAL
  5
44
102
{ACAD_REACTORS
330
43
102
}
330
43
100
AcDbMaterial
  1
ByLayer
 72
     1
 94
      127
  0
MATERIAL
  5
46
102
{ACAD_REACTORS
330
43
102
}
330
43
100
AcDbMaterial
  1
Global
 72
     1
 94
      127
  0
MLEADERSTYLE
  5
6C
102
{ACAD_REACTORS
330
6B
102
}
330
6B
100
AcDbMLeaderStyle
179
     2
170
     2
171
     1
172
     0
 90
        2
 40
0.0
 41
0.0
173
     1
 91
-1056964608
340
14
 92
       -2
290
     1
 42
2.0
291
     1
 43
8.0
  3
Standard
341
0
 44
4.0
300

342
11
174
     1
178
     6
175
     1
176
     0
 93
-1056964608
 45
4.0
292
     0
297
     0
 46
4.0
343
0
 94
-1056964608
 47
1.0
 49
1.0
140
1.0
293
     1
141
0.0
294
     1
177
     0
142
1.0
295
     0
296
     0
143
3.75
271
     0
272
     9
273
     9
298
     0
  0
MLINESTYLE
  5
18
102
{ACAD_REACTORS
330
17
102
}
330
17
100
AcDbMlineStyle
  2
Standard
 70
     0
  3

 62
   256
 51
90.0
 52
90.0
 71
     2
 49
0.5
 62
   256
  6
BYLAYER
 49
-0.5
 62
   256
  6
BYLAYER
  0
ACDBPLACEHOLDER
  5
F
102
{ACAD_REACTORS
330
E
102
}
330
E
  0
SCALE
  5
48
102
{ACAD_REACTORS
330
47
102
}
330
47
100
AcDbScale
 70
     0
300
1:1
140
1.0
141
1.0
290
     1
  0
SCALE
  5
49
102
{ACAD_REACTORS
330
47
102
}
330
47
100
AcDbScale
 70
     0
300
1:2
140
1.0
141
2.0
290
     0
  0
SCALE
  5
4A
102
{ACAD_REACTORS
330
47
102
}
330
47
100
AcDbScale
 70
     0
300
1:4
140
1.0
141
4.0
290
     0
  0
SCALE
  5
4B
102
{ACAD_REACTORS
330
47
102
}
330
47
100
AcDbScale
 70
     0
300
1:5
140
1.0
141
5.0
290
     0
  0
SCALE
  5
4C
102
{ACAD_REACTORS
330
47
102
}
330
47
100
AcDbScale
 70
     0
300
1:8
140
1.0
141
8.0
290
     0
  0
SCALE
  5
4D
102
{ACAD_REACTORS
330
47
102
}
330
47
100
AcDbScale
 70
     0
300
1:10
140
1.0
141
10.0
290
     0
  0
SCALE
  5
4E
102
{ACAD_REACTORS
330
47
102
}
330
47
100
AcDbScale
 70
     0
300
1:16
140
1.0
141
16.0
290
     0
  0
SCALE
  5
4F
102
{ACAD_REACTORS
330
47
102
}
330
47
100
AcDbScale
 70
     0
300
1:20
140
1.0
141
20.0
290
     0
  0
SCALE
  5
50
102
{ACAD_REACTORS
330
47
102
}
330
47
100
AcDbScale
 70
     0
300
1:30
140
1.0
141
30.0
290
     0
  0
SCALE
  5
51
102
{ACAD_REACTORS
330
47
102
}
330
47
100
AcDbScale
 70
     0
300
1:40
140
1.0
141
40.0
290
     0
  0
SCALE
  5
52
102
{ACAD_REACTORS
330
47
102
}
330
47
100
AcDbScale
 70
     0
300
1:50
140
1.0
141
50.0
290
     0
  0
SCALE
  5
53
102
{ACAD_REACTORS
330
47
102
}
330
47
100
AcDbScale
 70
     0
300
1:100
140
1.0
141
100.0
290
     0
  0
SCALE
  5
54
102
{ACAD_REACTORS
330
47
102
}
330
47
100
AcDbScale
 70
     0
300
2:1
140
2.0
141
1.0
290
     0
  0
SCALE
  5
55
102
{ACAD_REACTORS
330
47
102
}
330
47
100
AcDbScale
 70
     0
300
4:1
140
4.0
141
1.0
290
     0
  0
SCALE
  5
56
102
{ACAD_REACTORS
330
47
102
}
330
47
100
AcDbScale
 70
     0
300
8:1
140
8.0
141
1.0
290
     0
  0
SCALE
  5
57
102
{ACAD_REACTORS
330
47
102
}
330
47
100
AcDbScale
 70
     0
300
10:1
140
10.0
141
1.0
290
     0
  0
SCALE
  5
58
102
{ACAD_REACTORS
330
47
102
}
330
47
100
AcDbScale
 70
     0
300
100:1
140
100.0
141
1.0
290
     0
  0
SCALE
  5
59
102
{ACAD_REACTORS
330
47
102
}
330
47
100
AcDbScale
 70
     0
300
1/128" = 1'-0"
140
0.0078125
141
12.0
290
     0
  0
SCALE
  5
5A
102
{ACAD_REACTORS
330
47
102
}
330
47
100
AcDbScale
 70
     0
300
1/64" = 1'-0"
140
0.015625
141
12.0
290
     0
  0
SCALE
  5
5B
102
{ACAD_REACTORS
330
47
102
}
330
47
100
AcDbScale
 70
     0
300
1/32" = 1'-0"
140
0.03125
141
12.0
290
     0
  0
SCALE
  5
5C
102
{ACAD_REACTORS
330
47
102
}
330
47
100
AcDbScale
 70
     0
300
1/16" = 1'-0"
140
0.0625
141
12.0
290
     0
  0
SCALE
  5
5D
102
{ACAD_REACTORS
330
47
102
}
330
47
100
AcDbScale
 70
     0
300
3/32" = 1'-0"
140
0.09375
141
12.0
290
     0
  0
SCALE
  5
5E
102
{ACAD_REACTORS
330
47
102
}
330
47
100
AcDbScale
 70
     0
300
1/8" = 1'-0"
140
0.125
141
12.0
290
     0
  0
SCALE
  5
5F
102
{ACAD_REACTORS
330
47
102
}
330
47
100
AcDbScale
 70
     0
300
3/16" = 1'-0"
140
0.1875
141
12.0
290
     0
  0
SCALE
  5
60
102
{ACAD_REACTORS
330
47
102
}
330
47
100
AcDbScale
 70
     0
300
1/4" = 1'-0"
140
0.25
141
12.0
290
     0
  0
SCALE
  5
61
102
{ACAD_REACTORS
330
47
102
}
330
47
100
AcDbScale
 70
     0
300
3/8" = 1'-0"
140
0.375
141
12.0
290
     0
  0
SCALE
  5
62
102
{ACAD_REACTORS
330
47
102
}
330
47
100
AcDbScale
 70
     0
300
1/2" = 1'-0"
140
0.5
141
12.0
290
     0
  0
SCALE
  5
63
102
{ACAD_REACTORS
330
47
102
}
330
47
100
AcDbScale
 70
     0
300
3/4" = 1'-0"
140
0.75
141
12.0
290
     0
  0
SCALE
  5
64
102
{ACAD_REACTORS
330
47
102
}
330
47
100
AcDbScale
 70
     0
300
1" = 1'-0"
140
1.0
141
12.0
290
     0
  0
SCALE
  5
65
102
{ACAD_REACTORS
330
47
102
}
330
47
100
AcDbScale
 70
     0
300
1-1/2" = 1'-0"
140
1.5
141
12.0
290
     0
  0
SCALE
  5
66
102
{ACAD_REACTORS
330
47
102
}
330
47
100
AcDbScale
 70
     0
300
3" = 1'-0"
140
3.0
141
12.0
290
     0
  0
SCALE
  5
67
102
{ACAD_REACTORS
330
47
102
}
330
47
100
AcDbScale
 70
     0
300
6" = 1'-0"
140
6.0
141
12.0
290
     0
  0
SCALE
  5
68
102
{ACAD_REACTORS
330
47
102
}
330
47
100
AcDbScale
 70
     0
300
1'-0" = 1'-0"
140
12.0
141
12.0
290
     0
  0
TABLESTYLE
  5
6A
102
{ACAD_REACTORS
330
69
102
}
102
{ACAD_XDICTIONARY
360
160
102
}
330
69
100
AcDbTableStyle
  3
Standard
 70
     0
 71
     0
 40
0.06
 41
0.06
280
     0
281
     0
  7
STANDARD
140
4.5
170
     2
 62
     0
 63
   257
283
     0
 90
        4
 91
        0
  1

274
    -2
284
     1
 64
     0
275
    -2
285
     1
 65
     0
276
    -2
286
     1
 66
     0
277
    -2
287
     1
 67
     0
278
    -2
288
     1
 68
     0
279
    -2
289
     1
 69
     0
  7
STANDARD
140
6.0
170
     5
 62
     0
 63
   257
283
     0
 90
        4
 91
        0
  1

274
    -2
284
     1
 64
     0
275
    -2
285
     1
 65
     0
276
    -2
286
     1
 66
     0
277
    -2
287
     1
 67
     0
278
    -2
288
     1
 68
     0
279
    -2
289
     1
 69
     0
  7
STANDARD
140
4.5
170
     5
 62
     0
 63
   257
283
     0
 90
        4
 91
        0
  1

274
    -2
284
     1
 64
     0
275
    -2
285
     1
 65
     0
276
    -2
286
     1
 66
     0
277
    -2
287
     1
 67
     0
278
    -2
288
     1
 68
     0
279
    -2
289
     1
 69
     0
  0
VISUALSTYLE
  5
2F
102
{ACAD_REACTORS
330
2A
102
}
330
2A
100
AcDbVisualStyle
  2
2dWireframe
 70
     4
177
     3
291
     0
 70
    58
 90
        0
176
     1
 90
        2
176
     1
 90
        0
176
     1
 90
        0
176
     1
 40
0.6
176
     1
 40
30.0
176
     1
 62
     7
420
 16777215
176
     1
 90
        1
176
     1
 90
        4
176
     1
 62
     7
176
     1
 62
   257
176
     1
 90
        1
176
     1
 90
        1
176
     1
 40
1.0
176
     1
 90
        0
176
     1
 62
   257
176
     1
 40
1.0
176
     1
 90
        1
176
     1
 90
        6
176
     1
 90
        2
176
     1
 62
     7
176
     1
 90
        5
176
     1
 90
        0
176
     1
 90
        0
176
     1
290
     0
176
     1
 90
        1
176
     1
 40
0.0
176
     1
 90
        0
176
     1
290
     1
176
     1
290
     1
176
     1
290
     0
176
     1
290
     0
176
     1
290
     0
176
     1
290
     0
176
     1
290
     0
176
     1
290
     0
176
     1
290
     0
176
     1
 90
       50
176
     1
 40
0.0
176
     1
 40
1.0
176
     1
 90
        0
176
     1
 62
    18
420
        0
176
     1
 90
       50
176
     1
 90
        3
176
     1
 62
     5
420
      255
176
     1
290
     0
176
     1
 90
       50
176
     1
 90
       50
176
     1
 90
       50
176
     1
290
     0
176
     1
 90
       50
176
     1
 62
   256
176
     0
 40
1.0
176
     0
 90
        2
176
     1
  1
strokes_ogs.tif
176
     1
290
     0
176
     1
 40
1.0
176
     1
 40
1.0
176
     1
  0
VISUALSTYLE
  5
32
102
{ACAD_REACTORS
330
2A
102
}
330
2A
100
AcDbVisualStyle
  2
Basic
 70
     7
177
     3
291
     1
 70
    58
 90
        1
176
     1
 90
        0
176
     1
 90
        1
176
     1
 90
        0
176
     1
 40
0.6
176
     1
 40
30.0
176
     1
 62
     7
420
 16777215
176
     1
 90
        0
176
     1
 90
        4
176
     1
 62
     7
176
     1
 62
   257
176
     1
 90
        1
176
     1
 90
        1
176
     1
 40
1.0
176
     1
 90
        8
176
     1
 62
     7
176
     1
 40
1.0
176
     1
 90
        1
176
     1
 90
        6
176
     1
 90
        2
176
     1
 62
     7
176
     1
 90
        5
176
     1
 90
        0
176
     1
 90
        0
176
     1
290
     0
176
     1
 90
        1
176
     1
 40
0.0
176
     1
 90
        0
176
     1
290
     0
176
     1
290
     1
176
     1
290
     1
176
     1
290
     0
176
     1
290
     0
176
     1
290
     0
176
     1
290
     0
176
     1
290
     0
176
     1
290
     0
176
     1
 90
       50
176
     1
 40
0.0
176
     1
 40
1.0
176
     1
 90
        0
176
     1
 62
    18
420
        0
176
     1
 90
       50
176
     1
 90
        3
176
     1
 62
     5
420
      255
176
     1
290
     0
176
     1
 90
       50
176
     1
 90
       50
176
     1
 90
       50
176
     1
290
     0
176
     1
 90
       50
176
     1
 62
   256
176
     0
 40
1.0
176
     0
 90
        2
176
     1
  1
strokes_ogs.tif
176
     1
290
     0
176
     1
 40
1.0
176
     1
 40
1.0
176
     1
  0
VISUALSTYLE
  5
36
102
{ACAD_REACTORS
330
2A
102
}
330
2A
100
AcDbVisualStyle
  2
Brighten
 70
    12
177
     3
291
     1
 70
    58
 90
        2
176
     1
 90
        2
176
     1
 90
        0
176
     1
 90
        0
176
     1
 40
0.6
176
     1
 40
30.0
176
     1
 62
     7
420
 16777215
176
     1
 90
        1
176
     1
 90
        4
176
     1
 62
     7
176
     1
 62
   257
176
     1
 90
        1
176
     1
 90
        1
176
     1
 40
1.0
176
     1
 90
        8
176
     1
 62
     7
176
     1
 40
1.0
176
     1
 90
        1
176
     1
 90
        6
176
     1
 90
        2
176
     1
 62
     7
176
     1
 90
        5
176
     1
 90
        0
176
     1
 90
        0
176
     1
290
     0
176
     1
 90
        1
176
     1
 40
50.0
176
     1
 90
        0
176
     1
290
     0
176
     1
290
     1
176
     1
290
     1
176
     1
290
     0
176
     1
290
     0
176
     1
290
     0
176
     1
290
     0
176
     1
290
     0
176
     1
290
     0
176
     1
 90
       50
176
     1
 40
0.0
176
     1
 40
1.0
176
     1
 90
        0
176
     1
 62
    18
420
        0
176
     1
 90
       50
176
     1
 90
        3
176
     1
 62
     5
420
      255
176
     1
290
     0
176
     1
 90
       50
176
     1
 90
       50
176
     1
 90
       50
176
     1
290
     0
176
     1
 90
       50
176
     1
 62
   256
176
     0
 40
1.0
176
     0
 90
        2
176
     1
  1
strokes_ogs.tif
176
     1
290
     0
176
     1
 40
1.0
176
     1
 40
1.0
176
     1
  0
VISUALSTYLE
  5
3A
102
{ACAD_REACTORS
330
2A
102
}
330
2A
100
AcDbVisualStyle
  2
ColorChange
 70
    16
177
     3
291
     1
 70
    58
 90
        2
176
     1
 90
        2
176
     1
 90
        3
176
     1
 90
        0
176
     1
 40
0.6
176
     1
 40
30.0
176
     1
 62
     8
420
  8421504
176
     1
 90
        1
176
     1
 90
        4
176
     1
 62
     7
176
     1
 62
   257
176
     1
 90
        1
176
     1
 90
        1
176
     1
 40
1.0
176
     1
 90
        8
176
     1
 62
     8
420
  8421504
176
     1
 40
1.0
176
     1
 90
        1
176
     1
 90
        6
176
     1
 90
        2
176
     1
 62
     7
176
     1
 90
        5
176
     1
 90
        0
176
     1
 90
        0
176
     1
290
     0
176
     1
 90
        1
176
     1
 40
0.0
176
     1
 90
        0
176
     1
290
     0
176
     1
290
     1
176
     1
290
     1
176
     1
290
     0
176
     1
290
     0
176
     1
290
     0
176
     1
290
     0
176
     1
290
     0
176
     1
290
     0
176
     1
 90
       50
176
     1
 40
0.0
176
     1
 40
1.0
176
     1
 90
        0
176
     1
 62
    18
420
        0
176
     1
 90
       50
176
     1
 90
        3
176
     1
 62
     5
420
      255
176
     1
290
     0
176
     1
 90
       50
176
     1
 90
       50
176
     1
 90
       50
176
     1
290
     0
176
     1
 90
       50
176
     1
 62
   256
176
     0
 40
1.0
176
     0
 90
        2
176
     1
  1
strokes_ogs.tif
176
     1
290
     0
176
     1
 40
1.0
176
     1
 40
1.0
176
     1
  0
VISUALSTYLE
  5
34
102
{ACAD_REACTORS
330
2A
102
}
330
2A
100
AcDbVisualStyle
  2
Conceptual
 70
     9
177
     3
291
     0
 70
    58
 90
        3
176
     1
 90
        2
176
     1
 90
        0
176
     1
 90
        0
176
     1
 40
0.6
176
     1
 40
30.0
176
     1
 62
     7
420
 16777215
176
     1
 90
        2
176
     1
 90
        2
176
     1
 62
     7
176
     1
 62
   257
176
     1
 90
        1
176
     1
 90
        1
176
     1
 40
179.0
176
     1
 90
        8
176
     1
 62
     7
176
     1
 40
1.0
176
     1
 90
        1
176
     1
 90
        6
176
     1
 90
        2
176
     1
 62
     7
176
     1
 90
        3
176
     1
 90
        0
176
     1
 90
        0
176
     1
290
     0
176
     1
 90
        1
176
     1
 40
0.0
176
     1
 90
        0
176
     1
290
     0
176
     1
290
     1
176
     1
290
     1
176
     1
290
     0
176
     1
290
     0
176
     1
290
     0
176
     1
290
     0
176
     1
290
     0
176
     1
290
     0
176
     1
 90
       50
176
     1
 40
0.0
176
     1
 40
1.0
176
     1
 90
        0
176
     1
 62
    18
420
        0
176
     1
 90
       50
176
     1
 90
        3
176
     1
 62
     5
420
      255
176
     1
290
     0
176
     1
 90
       50
176
     1
 90
       50
176
     1
 90
       50
176
     1
290
     0
176
     1
 90
       50
176
     1
 62
   256
176
     0
 40
1.0
176
     0
 90
        2
176
     1
  1
strokes_ogs.tif
176
     1
290
     0
176
     1
 40
1.0
176
     1
 40
1.0
176
     1
  0
VISUALSTYLE
  5
35
102
{ACAD_REACTORS
330
2A
102
}
330
2A
100
AcDbVisualStyle
  2
Dim
 70
    11
177
     3
291
     1
 70
    58
 90
        2
176
     1
 90
        2
176
     1
 90
        0
176
     1
 90
        0
176
     1
 40
0.6
176
     1
 40
30.0
176
     1
 62
     7
420
 16777215
176
     1
 90
        1
176
     1
 90
        4
176
     1
 62
     7
176
     1
 62
   257
176
     1
 90
        1
176
     1
 90
        1
176
     1
 40
1.0
176
     1
 90
        8
176
     1
 62
     7
176
     1
 40
1.0
176
     1
 90
        1
176
     1
 90
        6
176
     1
 90
        2
176
     1
 62
     7
176
     1
 90
        5
176
     1
 90
        0
176
     1
 90
        0
176
     1
290
     0
176
     1
 90
        1
176
     1
 40
-50.0
176
     1
 90
        0
176
     1
290
     0
176
     1
290
     1
176
     1
290
     1
176
     1
290
     0
176
     1
290
     0
176
     1
290
     0
176
     1
290
     0
176
     1
290
     0
176
     1
290
     0
176
     1
 90
       50
176
     1
 40
0.0
176
     1
 40
1.0
176
     1
 90
        0
176
     1
 62
    18
420
        0
176
     1
 90
       50
176
     1
 90
        3
176
     1
 62
     5
420
      255
176
     1
290
     0
176
     1
 90
       50
176
     1
 90
       50
176
     1
 90
       50
176
     1
290
     0
176
     1
 90
       50
176
     1
 62
   256
176
     0
 40
1.0
176
     0
 90
        2
176
     1
  1
strokes_ogs.tif
176
     1
290
     0
176
     1
 40
1.0
176
     1
 40
1.0
176
     1
  0
VISUALSTYLE
  5
3D
102
{ACAD_REACTORS
330
2A
102
}
330
2A
100
AcDbVisualStyle
  2
EdgeColorOff
 70
    22
177
     3
291
     1
 70
    58
 90
        2
176
     0
 90
        2
176
     0
 90
        0
176
     0
 90
        0
176
     0
 40
0.6
176
     0
 40
30.0
176
     0
 62
     7
420
 16777215
176
     0
 90
        1
176
     0
 90
        4
176
     0
 62
     7
176
     0
 62
   257
176
     0
 90
        1
176
     0
 90
        1
176
     0
 40
1.0
176
     0
 90
        8
176
     2
 62
     7
176
     0
 40
1.0
176
     0
 90
        1
176
     0
 90
        6
176
     0
 90
        2
176
     0
 62
     7
176
     0
 90
        5
176
     0
 90
        0
176
     0
 90
        0
176
     0
290
     0
176
     0
 90
        1
176
     0
 40
0.0
176
     0
 90
        0
176
     0
290
     0
176
     0
290
     1
176
     0
290
     1
176
     0
290
     0
176
     0
290
     0
176
     0
290
     0
176
     0
290
     0
176
     0
290
     0
176
     0
290
     0
176
     0
 90
       50
176
     0
 40
0.0
176
     0
 40
1.0
176
     0
 90
        0
176
     0
 62
    18
420
        0
176
     0
 90
       50
176
     0
 90
        3
176
     0
 62
     5
420
      255
176
     0
290
     0
176
     0
 90
       50
176
     0
 90
       50
176
     0
 90
       50
176
     0
290
     0
176
     0
 90
       50
176
     0
 62
   256
176
     0
 40
1.0
176
     0
 90
        2
176
     0
  1
strokes_ogs.tif
176
     0
290
     0
176
     0
 40
1.0
176
     0
 40
1.0
176
     0
  0
VISUALSTYLE
  5
39
102
{ACAD_REACTORS
330
2A
102
}
330
2A
100
AcDbVisualStyle
  2
Facepattern
 70
    15
177
     3
291
     1
 70
    58
 90
        2
176
     1
 90
        2
176
     1
 90
        0
176
     1
 90
        0
176
     1
 40
0.6
176
     1
 40
30.0
176
     1
 62
     7
420
 16777215
176
     1
 90
        1
176
     1
 90
        4
176
     1
 62
     7
176
     1
 62
   257
176
     1
 90
        1
176
     1
 90
        1
176
     1
 40
1.0
176
     1
 90
        8
176
     1
 62
     7
176
     1
 40
1.0
176
     1
 90
        1
176
     1
 90
        6
176
     1
 90
        2
176
     1
 62
     7
176
     1
 90
        5
176
     1
 90
        0
176
     1
 90
        0
176
     1
290
     0
176
     1
 90
        1
176
     1
 40
0.0
176
     1
 90
        0
176
     1
290
     0
176
     1
290
     1
176
     1
290
     1
176
     1
290
     0
176
     1
290
     0
176
     1
290
     0
176
     1
290
     0
176
     1
290
     0
176
     1
290
     0
176
     1
 90
       50
176
     1
 40
0.0
176
     1
 40
1.0
176
     1
 90
        0
176
     1
 62
    18
420
        0
176
     1
 90
       50
176
     1
 90
        3
176
     1
 62
     5
420
      255
176
     1
290
     0
176
     1
 90
       50
176
     1
 90
       50
176
     1
 90
       50
176
     1
290
     0
176
     1
 90
       50
176
     1
 62
   256
176
     0
 40
1.0
176
     0
 90
        2
176
     1
  1
strokes_ogs.tif
176
     1
290
     0
176
     1
 40
1.0
176
     1
 40
1.0
176
     1
  0
VISUALSTYLE
  5
2B
102
{ACAD_REACTORS
330
2A
102
}
330
2A
100
AcDbVisualStyle
  2
Flat
 70
     0
177
     3
291
     1
 70
    58
 90
        2
176
     1
 90
        1
176
     1
 90
        1
176
     1
 90
        2
176
     1
 40
0.6
176
     1
 40
30.0
176
     1
 62
     7
420
 16777215
176
     1
 90
        0
176
     1
 90
        0
176
     1
 62
     7
176
     1
 62
   257
176
     1
 90
        1
176
     1
 90
        1
176
     1
 40
1.0
176
     1
 90
        8
176
     1
 62
     7
176
     1
 40
1.0
176
     1
 90
        1
176
     1
 90
        6
176
     1
 90
        2
176
     1
 62
     7
176
     1
 90
        5
176
     1
 90
        0
176
     1
 90
        0
176
     1
290
     0
176
     1
 90
       13
176
     1
 40
0.0
176
     1
 90
        0
176
     1
290
     0
176
     1
290
     1
176
     1
290
     1
176
     1
290
     0
176
     1
290
     0
176
     1
290
     0
176
     1
290
     0
176
     1
290
     0
176
     1
290
     0
176
     1
 90
       50
176
     1
 40
0.0
176
     1
 40
1.0
176
     1
 90
        0
176
     1
 62
    18
420
        0
176
     1
 90
       50
176
     1
 90
        3
176
     1
 62
     5
420
      255
176
     1
290
     0
176
     1
 90
       50
176
     1
 90
       50
176
     1
 90
       50
176
     1
290
     0
176
     1
 90
       50
176
     1
 62
   256
176
     0
 40
1.0
176
     0
 90
        2
176
     1
  1
strokes_ogs.tif
176
     1
290
     0
176
     1
 40
1.0
176
     1
 40
1.0
176
     1
  0
VISUALSTYLE
  5
2C
102
{ACAD_REACTORS
330
2A
102
}
330
2A
100
AcDbVisualStyle
  2
FlatWithEdges
 70
     1
177
     3
291
     1
 70
    58
 90
        2
176
     1
 90
        1
176
     1
 90
        1
176
     1
 90
        2
176
     1
 40
0.6
176
     1
 40
30.0
176
     1
 62
     7
420
 16777215
176
     1
 90
        1
176
     1
 90
        0
176
     1
 62
     7
176
     1
 62
   257
176
     1
 90
        1
176
     1
 90
        1
176
     1
 40
1.0
176
     1
 90
        0
176
     1
 62
   257
176
     1
 40
1.0
176
     1
 90
        1
176
     1
 90
        6
176
     1
 90
        2
176
     1
 62
     7
176
     1
 90
        5
176
     1
 90
        0
176
     1
 90
        0
176
     1
290
     0
176
     1
 90
       13
176
     1
 40
0.0
176
     1
 90
        0
176
     1
290
     0
176
     1
290
     1
176
     1
290
     1
176
     1
290
     0
176
     1
290
     0
176
     1
290
     0
176
     1
290
     0
176
     1
290
     0
176
     1
290
     0
176
     1
 90
       50
176
     1
 40
0.0
176
     1
 40
1.0
176
     1
 90
        0
176
     1
 62
    18
420
        0
176
     1
 90
       50
176
     1
 90
        3
176
     1
 62
     5
420
      255
176
     1
290
     0
176
     1
 90
       50
176
     1
 90
       50
176
     1
 90
       50
176
     1
290
     0
176
     1
 90
       50
176
     1
 62
   256
176
     0
 40
1.0
176
     0
 90
        2
176
     1
  1
strokes_ogs.tif
176
     1
290
     0
176
     1
 40
1.0
176
     1
 40
1.0
176
     1
  0
VISUALSTYLE
  5
2D
102
{ACAD_REACTORS
330
2A
102
}
330
2A
100
AcDbVisualStyle
  2
Gouraud
 70
     2
177
     3
291
     1
 70
    58
 90
        2
176
     1
 90
        2
176
     1
 90
        1
176
     1
 90
        2
176
     1
 40
0.6
176
     1
 40
30.0
176
     1
 62
     7
420
 16777215
176
     1
 90
        0
176
     1
 90
        0
176
     1
 62
     7
176
     1
 62
   257
176
     1
 90
        1
176
     1
 90
        1
176
     1
 40
1.0
176
     1
 90
        0
176
     1
 62
     7
176
     1
 40
1.0
176
     1
 90
        1
176
     1
 90
        6
176
     1
 90
        2
176
     1
 62
     7
176
     1
 90
        5
176
     1
 90
        0
176
     1
 90
        0
176
     1
290
     0
176
     1
 90
       13
176
     1
 40
0.0
176
     1
 90
        0
176
     1
290
     0
176
     1
290
     1
176
     1
290
     1
176
     1
290
     0
176
     1
290
     0
176
     1
290
     0
176
     1
290
     0
176
     1
290
     0
176
     1
290
     0
176
     1
 90
       50
176
     1
 40
0.0
176
     1
 40
1.0
176
     1
 90
        0
176
     1
 62
    18
420
        0
176
     1
 90
       50
176
     1
 90
        3
176
     1
 62
     5
420
      255
176
     1
290
     0
176
     1
 90
       50
176
     1
 90
       50
176
     1
 90
       50
176
     1
290
     0
176
     1
 90
       50
176
     1
 62
   256
176
     0
 40
1.0
176
     0
 90
        2
176
     1
  1
strokes_ogs.tif
176
     1
290
     0
176
     1
 40
1.0
176
     1
 40
1.0
176
     1
  0
VISUALSTYLE
  5
2E
102
{ACAD_REACTORS
330
2A
102
}
330
2A
100
AcDbVisualStyle
  2
GouraudWithEdges
 70
     3
177
     3
291
     1
 70
    58
 90
        2
176
     1
 90
        2
176
     1
 90
        1
176
     1
 90
        2
176
     1
 40
0.6
176
     1
 40
30.0
176
     1
 62
     7
420
 16777215
176
     1
 90
        1
176
     1
 90
        0
176
     1
 62
     7
176
     1
 62
   257
176
     1
 90
        1
176
     1
 90
        1
176
     1
 40
1.0
176
     1
 90
        0
176
     1
 62
   257
176
     1
 40
1.0
176
     1
 90
        1
176
     1
 90
        6
176
     1
 90
        2
176
     1
 62
     7
176
     1
 90
        5
176
     1
 90
        0
176
     1
 90
        0
176
     1
290
     0
176
     1
 90
       13
176
     1
 40
0.0
176
     1
 90
        0
176
     1
290
     0
176
     1
290
     1
176
     1
290
     1
176
     1
290
     0
176
     1
290
     0
176
     1
290
     0
176
     1
290
     0
176
     1
290
     0
176
     1
290
     0
176
     1
 90
       50
176
     1
 40
0.0
176
     1
 40
1.0
176
     1
 90
        0
176
     1
 62
    18
420
        0
176
     1
 90
       50
176
     1
 90
        3
176
     1
 62
     5
420
      255
176
     1
290
     0
176
     1
 90
       50
176
     1
 90
       50
176
     1
 90
       50
176
     1
290
     0
176
     1
 90
       50
176
     1
 62
   256
176
     0
 40
1.0
176
     0
 90
        2
176
     1
  1
strokes_ogs.tif
176
     1
290
     0
176
     1
 40
1.0
176
     1
 40
1.0
176
     1
  0
VISUALSTYLE
  5
31
102
{ACAD_REACTORS
330
2A
102
}
330
2A
100
AcDbVisualStyle
  2
Hidden
 70
     6
177
     3
291
     0
 70
    58
 90
        1
176
     1
 90
        2
176
     1
 90
        2
176
     1
 90
        0
176
     1
 40
0.6
176
     1
 40
30.0
176
     1
 62
     7
420
 16777215
176
     1
 90
        2
176
     1
 90
        2
176
     1
 62
     7
176
     1
 62
   257
176
     1
 90
        2
176
     1
 90
        1
176
     1
 40
40.0
176
     1
 90
        0
176
     1
 62
   257
176
     1
 40
1.0
176
     1
 90
        1
176
     1
 90
        6
176
     1
 90
        2
176
     1
 62
     7
176
     1
 90
        3
176
     1
 90
        0
176
     1
 90
        0
176
     1
290
     0
176
     1
 90
        1
176
     1
 40
0.0
176
     1
 90
        0
176
     1
290
     0
176
     1
290
     1
176
     1
290
     1
176
     1
290
     0
176
     1
290
     0
176
     1
290
     0
176
     1
290
     0
176
     1
290
     0
176
     1
290
     0
176
     1
 90
       50
176
     1
 40
0.0
176
     1
 40
1.0
176
     1
 90
        0
176
     1
 62
    18
420
        0
176
     1
 90
       50
176
     1
 90
        3
176
     1
 62
     5
420
      255
176
     1
290
     0
176
     1
 90
       50
176
     1
 90
       50
176
     1
 90
       50
176
     1
290
     0
176
     1
 90
       50
176
     1
 62
   256
176
     0
 40
1.0
176
     0
 90
        2
176
     1
  1
strokes_ogs.tif
176
     1
290
     0
176
     1
 40
1.0
176
     1
 40
1.0
176
     1
  0
VISUALSTYLE
  5
3B
102
{ACAD_REACTORS
330
2A
102
}
330
2A
100
AcDbVisualStyle
  2
JitterOff
 70
    20
177
     3
291
     1
 70
    58
 90
        2
176
     0
 90
        2
176
     0
 90
        0
176
     0
 90
        0
176
     0
 40
0.6
176
     0
 40
30.0
176
     0
 62
     7
420
 16777215
176
     0
 90
        1
176
     0
 90
        4
176
     0
 62
     7
176
     0
 62
   257
176
     0
 90
        1
176
     0
 90
        1
176
     0
 40
1.0
176
     0
 90
       10
176
     2
 62
     7
176
     0
 40
1.0
176
     0
 90
        1
176
     0
 90
        6
176
     0
 90
        2
176
     0
 62
     7
176
     0
 90
        5
176
     0
 90
        0
176
     0
 90
        0
176
     0
290
     0
176
     0
 90
        1
176
     0
 40
0.0
176
     0
 90
        0
176
     0
290
     0
176
     0
290
     1
176
     0
290
     1
176
     0
290
     0
176
     0
290
     0
176
     0
290
     0
176
     0
290
     0
176
     0
290
     0
176
     0
290
     0
176
     0
 90
       50
176
     0
 40
0.0
176
     0
 40
1.0
176
     0
 90
        0
176
     0
 62
    18
420
        0
176
     0
 90
       50
176
     0
 90
        3
176
     0
 62
     5
420
      255
176
     0
290
     0
176
     0
 90
       50
176
     0
 90
       50
176
     0
 90
       50
176
     0
290
     0
176
     0
 90
       50
176
     0
 62
   256
176
     0
 40
1.0
176
     0
 90
        2
176
     0
  1
strokes_ogs.tif
176
     0
290
     0
176
     0
 40
1.0
176
     0
 40
1.0
176
     0
  0
VISUALSTYLE
  5
38
102
{ACAD_REACTORS
330
2A
102
}
330
2A
100
AcDbVisualStyle
  2
Linepattern
 70
    14
177
     3
291
     1
 70
    58
 90
        2
176
     1
 90
        2
176
     1
 90
        0
176
     1
 90
        0
176
     1
 40
0.6
176
     1
 40
30.0
176
     1
 62
     7
420
 16777215
176
     1
 90
        1
176
     1
 90
        4
176
     1
 62
     7
176
     1
 62
   257
176
     1
 90
        7
176
     1
 90
        7
176
     1
 40
1.0
176
     1
 90
        8
176
     1
 62
     7
176
     1
 40
1.0
176
     1
 90
        1
176
     1
 90
        6
176
     1
 90
        2
176
     1
 62
     7
176
     1
 90
        5
176
     1
 90
        0
176
     1
 90
        0
176
     1
290
     0
176
     1
 90
        1
176
     1
 40
0.0
176
     1
 90
        0
176
     1
290
     0
176
     1
290
     1
176
     1
290
     1
176
     1
290
     0
176
     1
290
     0
176
     1
290
     0
176
     1
290
     0
176
     1
290
     0
176
     1
290
     0
176
     1
 90
       50
176
     1
 40
0.0
176
     1
 40
1.0
176
     1
 90
        0
176
     1
 62
    18
420
        0
176
     1
 90
       50
176
     1
 90
        3
176
     1
 62
     5
420
      255
176
     1
290
     0
176
     1
 90
       50
176
     1
 90
       50
176
     1
 90
       50
176
     1
290
     0
176
     1
 90
       50
176
     1
 62
   256
176
     0
 40
1.0
176
     0
 90
        2
176
     1
  1
strokes_ogs.tif
176
     1
290
     0
176
     1
 40
1.0
176
     1
 40
1.0
176
     1
  0
VISUALSTYLE
  5
3C
102
{ACAD_REACTORS
330
2A
102
}
330
2A
100
AcDbVisualStyle
  2
OverhangOff
 70
    21
177
     3
291
     1
 70
    58
 90
        2
176
     0
 90
        2
176
     0
 90
        0
176
     0
 90
        0
176
     0
 40
0.6
176
     0
 40
30.0
176
     0
 62
     7
420
 16777215
176
     0
 90
        1
176
     0
 90
        4
176
     0
 62
     7
176
     0
 62
   257
176
     0
 90
        1
176
     0
 90
        1
176
     0
 40
1.0
176
     0
 90
        9
176
     2
 62
     7
176
     0
 40
1.0
176
     0
 90
        1
176
     0
 90
        6
176
     0
 90
        2
176
     0
 62
     7
176
     0
 90
        5
176
     0
 90
        0
176
     0
 90
        0
176
     0
290
     0
176
     0
 90
        1
176
     0
 40
0.0
176
     0
 90
        0
176
     0
290
     0
176
     0
290
     1
176
     0
290
     1
176
     0
290
     0
176
     0
290
     0
176
     0
290
     0
176
     0
290
     0
176
     0
290
     0
176
     0
290
     0
176
     0
 90
       50
176
     0
 40
0.0
176
     0
 40
1.0
176
     0
 90
        0
176
     0
 62
    18
420
        0
176
     0
 90
       50
176
     0
 90
        3
176
     0
 62
     5
420
      255
176
     0
290
     0
176
     0
 90
       50
176
     0
 90
       50
176
     0
 90
       50
176
     0
290
     0
176
     0
 90
       50
176
     0
 62
   256
176
     0
 40
1.0
176
     0
 90
        2
176
     0
  1
strokes_ogs.tif
176
     0
290
     0
176
     0
 40
1.0
176
     0
 40
1.0
176
     0
  0
VISUALSTYLE
  5
33
102
{ACAD_REACTORS
330
2A
102
}
330
2A
100
AcDbVisualStyle
  2
Realistic
 70
     8
177
     3
291
     0
 70
    58
 90
        2
176
     1
 90
        3
176
     1
 90
        0
176
     1
 90
        2
176
     1
 40
0.6
176
     1
 40
30.0
176
     1
 62
     7
420
 16777215
176
     1
 90
        0
176
     1
 90
        0
176
     1
 62
     7
176
     1
 62
   257
176
     1
 90
        1
176
     1
 90
        1
176
     1
 40
1.0
176
     1
 90
        8
176
     1
 62
   257
176
     1
 40
1.0
176
     1
 90
        1
176
     1
 90
        6
176
     1
 90
        2
176
     1
 62
     7
176
     1
 90
        3
176
     1
 90
        0
176
     1
 90
        0
176
     1
290
     0
176
     1
 90
       13
176
     1
 40
0.0
176
     1
 90
        0
176
     1
290
     0
176
     1
290
     1
176
     1
290
     1
176
     1
290
     0
176
     1
290
     0
176
     1
290
     0
176
     1
290
     0
176
     1
290
     0
176
     1
290
     0
176
     1
 90
       50
176
     1
 40
0.0
176
     1
 40
1.0
176
     1
 90
        0
176
     1
 62
    18
420
        0
176
     1
 90
       50
176
     1
 90
        3
176
     1
 62
     5
420
      255
176
     1
290
     0
176
     1
 90
       50
176
     1
 90
       50
176
     1
 90
       50
176
     1
290
     0
176
     1
 90
       50
176
     1
 62
   256
176
     0
 40
1.0
176
     0
 90
        2
176
     1
  1
strokes_ogs.tif
176
     1
290
     0
176
     1
 40
1.0
176
     1
 40
1.0
176
     1
  0
VISUALSTYLE
  5
42
102
{ACAD_REACTORS
330
2A
102
}
330
2A
100
AcDbVisualStyle
  2
Shaded
 70
    27
177
     3
291
     0
 70
    58
 90
        2
176
     1
 90
        2
176
     1
 90
        1
176
     1
 90
        2
176
     1
 40
0.6
176
     1
 40
30.0
176
     1
 62
     7
420
 16777215
176
     1
 90
        0
176
     1
 90
        4
176
     1
 62
     7
176
     1
 62
   257
176
     1
 90
        1
176
     1
 90
        1
176
     1
 40
1.0
176
     1
 90
        8
176
     1
 62
   257
176
     1
 40
1.0
176
     1
 90
        1
176
     1
 90
        6
176
     1
 90
        2
176
     1
 62
     8
420
  7895160
176
     1
 90
        3
176
     1
 90
        0
176
     1
 90
        0
176
     1
290
     0
176
     1
 90
        5
176
     1
 40
0.0
176
     1
 90
        0
176
     1
290
     0
176
     1
290
     1
176
     1
290
     1
176
     1
290
     0
176
     1
290
     0
176
     1
290
     0
176
     1
290
     0
176
     1
290
     0
176
     1
290
     0
176
     1
 90
       50
176
     1
 40
0.0
176
     1
 40
1.0
176
     1
 90
        0
176
     1
 62
    18
420
        0
176
     1
 90
       50
176
     1
 90
        3
176
     1
 62
     5
420
      255
176
     1
290
     0
176
     1
 90
       50
176
     1
 90
       50
176
     1
 90
       50
176
     1
290
     0
176
     1
 90
       50
176
     1
 62
   256
176
     0
 40
1.0
176
     0
 90
        2
176
     1
  1
strokes_ogs.tif
176
     1
290
     0
176
     1
 40
1.0
176
     1
 40
1.0
176
     1
  0
VISUALSTYLE
  5
41
102
{ACAD_REACTORS
330
2A
102
}
330
2A
100
AcDbVisualStyle
  2
Shaded with edges
 70
    26
177
     3
291
     0
 70
    58
 90
        2
176
     1
 90
        2
176
     1
 90
        1
176
     1
 90
        2
176
     1
 40
0.6
176
     1
 40
30.0
176
     1
 62
     7
420
 16777215
176
     1
 90
        1
176
     1
 90
       10
176
     1
 62
     7
176
     1
 62
   257
176
     1
 90
        2
176
     1
 90
        1
176
     1
 40
1.0
176
     1
 90
        8
176
     1
 62
   257
176
     1
 40
1.0
176
     1
 90
        1
176
     1
 90
        6
176
     1
 90
        2
176
     1
 62
     7
176
     1
 90
        3
176
     1
 90
        0
176
     1
 90
        0
176
     1
290
     0
176
     1
 90
        5
176
     1
 40
0.0
176
     1
 90
        0
176
     1
290
     0
176
     1
290
     1
176
     1
290
     1
176
     1
290
     0
176
     1
290
     0
176
     1
290
     0
176
     1
290
     0
176
     1
290
     0
176
     1
290
     0
176
     1
 90
       50
176
     1
 40
0.0
176
     1
 40
1.0
176
     1
 90
        0
176
     1
 62
    18
420
        0
176
     1
 90
       50
176
     1
 90
        3
176
     1
 62
     5
420
      255
176
     1
290
     0
176
     1
 90
       50
176
     1
 90
       50
176
     1
 90
       50
176
     1
290
     0
176
     1
 90
       50
176
     1
 62
   256
176
     0
 40
1.0
176
     0
 90
        2
176
     1
  1
strokes_ogs.tif
176
     1
290
     0
176
     1
 40
1.0
176
     1
 40
1.0
176
     1
  0
VISUALSTYLE
  5
3E
102
{ACAD_REACTORS
330
2A
102
}
330
2A
100
AcDbVisualStyle
  2
Shades of Gray
 70
    23
177
     3
291
     0
 70
    58
 90
        2
176
     1
 90
        2
176
     1
 90
        3
176
     1
 90
        0
176
     1
 40
0.6
176
     1
 40
30.0
176
     1
 62
     7
420
 16777215
176
     1
 90
        2
176
     1
 90
        2
176
     1
 62
     7
176
     1
 62
     7
176
     1
 90
        1
176
     1
 90
        1
176
     1
 40
40.0
176
     1
 90
        8
176
     1
 62
     7
176
     1
 40
1.0
176
     1
 90
        1
176
     1
 90
        6
176
     1
 90
        2
176
     1
 62
     7
176
     1
 90
        3
176
     1
 90
        0
176
     1
 90
        0
176
     1
290
     0
176
     1
 90
        1
176
     1
 40
0.0
176
     1
 90
        0
176
     1
290
     0
176
     1
290
     1
176
     1
290
     1
176
     1
290
     0
176
     1
290
     0
176
     1
290
     0
176
     1
290
     0
176
     1
290
     0
176
     1
290
     0
176
     1
 90
       50
176
     1
 40
0.0
176
     1
 40
1.0
176
     1
 90
        0
176
     1
 62
    18
420
        0
176
     1
 90
       50
176
     1
 90
        3
176
     1
 62
     5
420
      255
176
     1
290
     0
176
     1
 90
       50
176
     1
 90
       50
176
     1
 90
       50
176
     1
290
     0
176
     1
 90
       50
176
     1
 62
   256
176
     0
 40
1.0
176
     0
 90
        2
176
     1
  1
strokes_ogs.tif
176
     1
290
     0
176
     1
 40
1.0
176
     1
 40
1.0
176
     1
  0
VISUALSTYLE
  5
3F
102
{ACAD_REACTORS
330
2A
102
}
330
2A
100
AcDbVisualStyle
  2
Sketchy
 70
    24
177
     3
291
     0
 70
    58
 90
        1
176
     1
 90
        2
176
     1
 90
        2
176
     1
 90
        0
176
     1
 40
0.6
176
     1
 40
30.0
176
     1
 62
     7
420
 16777215
176
     1
 90
        2
176
     1
 90
        2
176
     1
 62
     7
176
     1
 62
     7
176
     1
 90
        1
176
     1
 90
        1
176
     1
 40
40.0
176
     1
 90
       11
176
     1
 62
     7
176
     1
 40
1.0
176
     1
 90
        1
176
     1
 90
        6
176
     1
 90
        2
176
     1
 62
     7
176
     1
 90
        6
176
     1
 90
        0
176
     1
 90
        0
176
     1
290
     0
176
     1
 90
        1
176
     1
 40
0.0
176
     1
 90
        0
176
     1
290
     0
176
     1
290
     1
176
     1
290
     1
176
     1
290
     0
176
     1
290
     0
176
     1
290
     0
176
     1
290
     0
176
     1
290
     0
176
     1
290
     0
176
     1
 90
       50
176
     1
 40
0.0
176
     1
 40
1.0
176
     1
 90
        0
176
     1
 62
    18
420
        0
176
     1
 90
       50
176
     1
 90
        3
176
     1
 62
     5
420
      255
176
     1
290
     0
176
     1
 90
       50
176
     1
 90
       50
176
     1
 90
       50
176
     1
290
     0
176
     1
 90
       50
176
     1
 62
   256
176
     0
 40
1.0
176
     0
 90
        2
176
     1
  1
strokes_ogs.tif
176
     1
290
     0
176
     1
 40
1.0
176
     1
 40
1.0
176
     1
  0
VISUALSTYLE
  5
37
102
{ACAD_REACTORS
330
2A
102
}
330
2A
100
AcDbVisualStyle
  2
Thicken
 70
    13
177
     3
291
     1
 70
    58
 90
        2
176
     1
 90
        2
176
     1
 90
        0
176
     1
 90
        0
176
     1
 40
0.6
176
     1
 40
30.0
176
     1
 62
     7
420
 16777215
176
     1
 90
        1
176
     1
 90
        4
176
     1
 62
     7
176
     1
 62
   257
176
     1
 90
        1
176
     1
 90
        1
176
     1
 40
1.0
176
     1
 90
       12
176
     1
 62
     7
176
     1
 40
1.0
176
     1
 90
        1
176
     1
 90
        6
176
     1
 90
        2
176
     1
 62
     7
176
     1
 90
        5
176
     1
 90
        0
176
     1
 90
        0
176
     1
290
     0
176
     1
 90
        1
176
     1
 40
0.0
176
     1
 90
        0
176
     1
290
     0
176
     1
290
     1
176
     1
290
     1
176
     1
290
     0
176
     1
290
     0
176
     1
290
     0
176
     1
290
     0
176
     1
290
     0
176
     1
290
     0
176
     1
 90
       50
176
     1
 40
0.0
176
     1
 40
1.0
176
     1
 90
        0
176
     1
 62
    18
420
        0
176
     1
 90
       50
176
     1
 90
        3
176
     1
 62
     5
420
      255
176
     1
290
     0
176
     1
 90
       50
176
     1
 90
       50
176
     1
 90
       50
176
     1
290
     0
176
     1
 90
       50
176
     1
 62
   256
176
     0
 40
1.0
176
     0
 90
        2
176
     1
  1
strokes_ogs.tif
176
     1
290
     0
176
     1
 40
1.0
176
     1
 40
1.0
176
     1
  0
VISUALSTYLE
  5
30
102
{ACAD_REACTORS
330
2A
102
}
330
2A
100
AcDbVisualStyle
  2
Wireframe
 70
     5
177
     3
291
     0
 70
    58
 90
        0
176
     1
 90
        2
176
     1
 90
        0
176
     1
 90
        0
176
     1
 40
0.6
176
     1
 40
30.0
176
     1
 62
     7
420
 16777215
176
     1
 90
        1
176
     1
 90
        4
176
     1
 62
     7
176
     1
 62
   257
176
     1
 90
        1
176
     1
 90
        1
176
     1
 40
1.0
176
     1
 90
        0
176
     1
 62
   257
176
     1
 40
1.0
176
     1
 90
        1
176
     1
 90
        6
176
     1
 90
        2
176
     1
 62
     7
176
     1
 90
        3
176
     1
 90
        0
176
     1
 90
        0
176
     1
290
     0
176
     1
 90
        1
176
     1
 40
0.0
176
     1
 90
        0
176
     1
290
     0
176
     1
290
     1
176
     1
290
     1
176
     1
290
     0
176
     1
290
     0
176
     1
290
     0
176
     1
290
     0
176
     1
290
     0
176
     1
290
     0
176
     1
 90
       50
176
     1
 40
0.0
176
     1
 40
1.0
176
     1
 90
        0
176
     1
 62
    18
420
        0
176
     1
 90
       50
176
     1
 90
        3
176
     1
 62
     5
420
      255
176
     1
290
     0
176
     1
 90
       50
176
     1
 90
       50
176
     1
 90
       50
176
     1
290
     0
176
     1
 90
       50
176
     1
 62
   256
176
     0
 40
1.0
176
     0
 90
        2
176
     1
  1
strokes_ogs.tif
176
     1
290
     0
176
     1
 40
1.0
176
     1
 40
1.0
176
     1
  0
VISUALSTYLE
  5
40
102
{ACAD_REACTORS
330
2A
102
}
330
2A
100
AcDbVisualStyle
  2
X-Ray
 70
    25
177
     3
291
     0
 70
    58
 90
        2
176
     1
 90
        2
176
     1
 90
        1
176
     1
 90
        1
176
     1
 40
0.5
176
     1
 40
30.0
176
     1
 62
     7
420
 16777215
176
     1
 90
        1
176
     1
 90
        0
176
     1
 62
     7
176
     1
 62
   257
176
     1
 90
        1
176
     1
 90
        1
176
     1
 40
1.0
176
     1
 90
        8
176
     1
 62
     7
176
     1
 40
1.0
176
     1
 90
        1
176
     1
 90
        6
176
     1
 90
        2
176
     1
 62
     7
176
     1
 90
        3
176
     1
 90
        0
176
     1
 90
        0
176
     1
290
     0
176
     1
 90
       13
176
     1
 40
0.0
176
     1
 90
        0
176
     1
290
     0
176
     1
290
     1
176
     1
290
     1
176
     1
290
     0
176
     1
290
     0
176
     1
290
     0
176
     1
290
     0
176
     1
290
     0
176
     1
290
     0
176
     1
 90
       50
176
     1
 40
0.0
176
     1
 40
1.0
176
     1
 90
        0
176
     1
 62
    18
420
        0
176
     1
 90
       50
176
     1
 90
        3
176
     1
 62
     5
420
      255
176
     1
290
     0
176
     1
 90
       50
176
     1
 90
       50
176
     1
 90
       50
176
     1
290
     0
176
     1
 90
       50
176
     1
 62
   256
176
     0
 40
1.0
176
     0
 90
        2
176
     1
  1
strokes_ogs.tif
176
     1
290
     0
176
     1
 40
1.0
176
     1
 40
1.0
176
     1
  0
DICTIONARYVAR
  5
15F
102
{ACAD_REACTORS
330
15E
102
}
330
15E
100
DictionaryVariables
280
     0
  1
1:1
  0
DICTIONARYVAR
  5
164
102
{ACAD_REACTORS
330
15E
102
}
330
15E
100
DictionaryVariables
280
     0
  1
Standard
  0
DICTIONARYVAR
  5
163
102
{ACAD_REACTORS
330
15E
102
}
330
15E
100
DictionaryVariables
280
     0
  1
Standard
  0
DICTIONARY
  5
160
330
6A
100
AcDbDictionary
280
     1
281
     1
  3
ACAD_ROUNDTRIP_2008_TABLESTYLE_CELLSTYLEMAP
360
161
  0
CELLSTYLEMAP
  5
161
102
{ACAD_REACTORS
330
160
102
}
330
160
100
AcDbCellStyleMap
 90
        3
300
CELLSTYLE
  1
TABLEFORMAT_BEGIN
 90
        5
170
     1
 91
        0
 92
    32768
 62
   257
 93
        1
300
CONTENTFORMAT
  1
CONTENTFORMAT_BEGIN
 90
        0
 91
        0
 92
        4
 93
        0
300

 40
0.0
140
1.0
 94
        5
 62
     0
340
11
144
6.0
309
CONTENTFORMAT_END
171
     1
301
MARGIN
  1
CELLMARGIN_BEGIN
 40
1.5
 40
1.5
 40
1.5
 40
1.5
 40
1.5
 40
1.5
309
CELLMARGIN_END
 94
        6
 95
        1
302
GRIDFORMAT
  1
GRIDFORMAT_BEGIN
 90
        0
 91
        1
 62
     0
 92
       -2
340
14
 93
        0
 40
0.045
309
GRIDFORMAT_END
 95
        2
302
GRIDFORMAT
  1
GRIDFORMAT_BEGIN
 90
        0
 91
        1
 62
     0
 92
       -2
340
14
 93
        0
 40
0.045
309
GRIDFORMAT_END
 95
        4
302
GRIDFORMAT
  1
GRIDFORMAT_BEGIN
 90
        0
 91
        1
 62
     0
 92
       -2
340
14
 93
        0
 40
0.045
309
GRIDFORMAT_END
 95
        8
302
GRIDFORMAT
  1
GRIDFORMAT_BEGIN
 90
        0
 91
        1
 62
     0
 92
       -2
340
14
 93
        0
 40
0.045
309
GRIDFORMAT_END
 95
       16
302
GRIDFORMAT
  1
GRIDFORMAT_BEGIN
 90
        0
 91
        1
 62
     0
 92
       -2
340
14
 93
        0
 40
0.045
309
GRIDFORMAT_END
 95
       32
302
GRIDFORMAT
  1
GRIDFORMAT_BEGIN
 90
        0
 91
        1
 62
     0
 92
       -2
340
14
 93
        0
 40
0.045
309
GRIDFORMAT_END
309
TABLEFORMAT_END
  1
CELLSTYLE_BEGIN
 90
        1
 91
        1
300
_TITLE
309
CELLSTYLE_END
300
CELLSTYLE
  1
TABLEFORMAT_BEGIN
 90
        5
170
     1
 91
        0
 92
        0
 62
   257
 93
        1
300
CONTENTFORMAT
  1
CONTENTFORMAT_BEGIN
 90
        0
 91
        0
 92
        4
 93
        0
300

 40
0.0
140
1.0
 94
        5
 62
     0
340
11
144
4.5
309
CONTENTFORMAT_END
171
     1
301
MARGIN
  1
CELLMARGIN_BEGIN
 40
1.5
 40
1.5
 40
1.5
 40
1.5
 40
1.5
 40
1.5
309
CELLMARGIN_END
 94
        6
 95
        1
302
GRIDFORMAT
  1
GRIDFORMAT_BEGIN
 90
        0
 91
        1
 62
     0
 92
       -2
340
14
 93
        0
 40
0.045
309
GRIDFORMAT_END
 95
        2
302
GRIDFORMAT
  1
GRIDFORMAT_BEGIN
 90
        0
 91
        1
 62
     0
 92
       -2
340
14
 93
        0
 40
0.045
309
GRIDFORMAT_END
 95
        4
302
GRIDFORMAT
  1
GRIDFORMAT_BEGIN
 90
        0
 91
        1
 62
     0
 92
       -2
340
14
 93
        0
 40
0.045
309
GRIDFORMAT_END
 95
        8
302
GRIDFORMAT
  1
GRIDFORMAT_BEGIN
 90
        0
 91
        1
 62
     0
 92
       -2
340
14
 93
        0
 40
0.045
309
GRIDFORMAT_END
 95
       16
302
GRIDFORMAT
  1
GRIDFORMAT_BEGIN
 90
        0
 91
        1
 62
     0
 92
       -2
340
14
 93
        0
 40
0.045
309
GRIDFORMAT_END
 95
       32
302
GRIDFORMAT
  1
GRIDFORMAT_BEGIN
 90
        0
 91
        1
 62
     0
 92
       -2
340
14
 93
        0
 40
0.045
309
GRIDFORMAT_END
309
TABLEFORMAT_END
  1
CELLSTYLE_BEGIN
 90
        2
 91
        1
300
_HEADER
309
CELLSTYLE_END
300
CELLSTYLE
  1
TABLEFORMAT_BEGIN
 90
        5
170
     1
 91
        0
 92
        0
 62
   257
 93
        1
300
CONTENTFORMAT
  1
CONTENTFORMAT_BEGIN
 90
        0
 91
        0
 92
        4
 93
        0
300

 40
0.0
140
1.0
 94
        2
 62
     0
340
11
144
4.5
309
CONTENTFORMAT_END
171
     1
301
MARGIN
  1
CELLMARGIN_BEGIN
 40
1.5
 40
1.5
 40
1.5
 40
1.5
 40
1.5
 40
1.5
309
CELLMARGIN_END
 94
        6
 95
        1
302
GRIDFORMAT
  1
GRIDFORMAT_BEGIN
 90
        0
 91
        1
 62
     0
 92
       -2
340
14
 93
        0
 40
0.045
309
GRIDFORMAT_END
 95
        2
302
GRIDFORMAT
  1
GRIDFORMAT_BEGIN
 90
        0
 91
        1
 62
     0
 92
       -2
340
14
 93
        0
 40
0.045
309
GRIDFORMAT_END
 95
        4
302
GRIDFORMAT
  1
GRIDFORMAT_BEGIN
 90
        0
 91
        1
 62
     0
 92
       -2
340
14
 93
        0
 40
0.045
309
GRIDFORMAT_END
 95
        8
302
GRIDFORMAT
  1
GRIDFORMAT_BEGIN
 90
        0
 91
        1
 62
     0
 92
       -2
340
14
 93
        0
 40
0.045
309
GRIDFORMAT_END
 95
       16
302
GRIDFORMAT
  1
GRIDFORMAT_BEGIN
 90
        0
 91
        1
 62
     0
 92
       -2
340
14
 93
        0
 40
0.045
309
GRIDFORMAT_END
 95
       32
302
GRIDFORMAT
  1
GRIDFORMAT_BEGIN
 90
        0
 91
        1
 62
     0
 92
       -2
340
14
 93
        0
 40
0.045
309
GRIDFORMAT_END
309
TABLEFORMAT_END
  1
CELLSTYLE_BEGIN
 90
        3
 91
        2
300
_DATA
309
CELLSTYLE_END
  0
ENDSEC
  0
EOF
