  0
SECTION
  2
HEADER
  9
$ACADVER
  1
AC1027
  9
$ACADMAINTVER
 70
   105
  9
$DWGCODEPAGE
  3
ANSI_1252
  9
$REQUIREDVERSIONS
160
                 0
  9
$INSBASE
 10
0.0
 20
0.0
 30
0.0
  9
$EXTMIN
 10
-457.5
 20
-187.5
 30
0.0
  9
$EXTMAX
 10
457.5
 20
187.5
 30
0.0
  9
$LIMMIN
 10
0.0
 20
0.0
  9
$LIMMAX
 10
420.0
 20
297.0
  9
$ORTHOMODE
 70
     0
  9
$REGENMODE
 70
     1
  9
$FILLMODE
 70
     1
  9
$QTEXTMODE
 70
     0
  9
$MIRRTEXT
 70
     1
  9
$LTSCALE
 40
1.0
  9
$ATTMODE
 70
     1
  9
$TEXTSIZE
 40
3.5
  9
$TRACEWID
 40
1.0
  9
$TEXTSTYLE
  7
STANDARD
  9
$CLAYER
  8
0
  9
$CELTYPE
  6
ByLayer
  9
$CECOLOR
 62
   256
  9
$CELTSCALE
 40
1.0
  9
$DISPSILH
 70
     0
  9
$DIMSCALE
 40
1.0
  9
$DIMASZ
 40
6.0
  9
$DIMEXO
 40
1.0
  9
$DIMDLI
 40
3.75
  9
$DIMRND
 40
0.0
  9
$DIMDLE
 40
0.0
  9
$DIMEXE
 40
1.0
  9
$DIMTP
 40
0.0
  9
$DIMTM
 40
0.0
  9
$DIMTXT
 40
3.5
  9
$DIMCEN
 40
2.5
  9
$DIMTSZ
 40
0.0
  9
$DIMTOL
 70
     0
  9
$DIMLIM
 70
     0
  9
$DIMTIH
 70
     1
  9
$DIMTOH
 70
     1
  9
$DIMSE1
 70
     0
  9
$DIMSE2
 70
     0
  9
$DIMTAD
 70
     1
  9
$DIMZIN
 70
     0
  9
$DIMBLK
  1

  9
$DIMASO
 70
     1
  9
$DIMSHO
 70
     1
  9
$DIMPOST
  1

  9
$DIMAPOST
  1

  9
$DIMALT
 70
     0
  9
$DIMALTD
 70
     3
  9
$DIMALTF
 40
0.0393700787
  9
$DIMLFAC
 40
1.0
  9
$DIMTOFL
 70
     1
  9
$DIMTVP
 40
0.0
  9
$DIMTIX
 70
     0
  9
$DIMSOXD
 70
     0
  9
$DIMSAH
 70
     0
  9
$DIMBLK1
  1

  9
$DIMBLK2
  1

  9
$DIMSTYLE
  2
ISO-25
  9
$DIMCLRD
 70
     0
  9
$DIMCLRE
 70
     0
  9
$DIMCLRT
 70
     0
  9
$DIMTFAC
 40
1.0
  9
$DIMGAP
 40
1.524
  9
$DIMJUST
 70
     0
  9
$DIMSD1
 70
     0
  9
$DIMSD2
 70
     0
  9
$DIMTOLJ
 70
     0
  9
$DIMTZIN
 70
     0
  9
$DIMALTZ
 70
     0
  9
$DIMALTTZ
 70
     0
  9
$DIMUPT
 70
     0
  9
$DIMDEC
 70
     2
  9
$DIMTDEC
 70
     2
  9
$DIMALTU
 70
     2
  9
$DIMALTTD
 70
     3
  9
$DIMTXSTY
  7
STANDARD
  9
$DIMAUNIT
 70
     0
  9
$DIMADEC
 70
     2
  9
$DIMALTRND
 40
0.0
  9
$DIMAZIN
 70
     0
  9
$DIMDSEP
 70
    44
  9
$DIMATFIT
 70
     3
  9
$DIMFRAC
 70
     0
  9
$DIMLDRBLK
  1

  9
$DIMLUNIT
 70
     2
  9
$DIMLWD
 70
    -2
  9
$DIMLWE
 70
    -2
  9
$DIMTMOVE
 70
     0
  9
$DIMFXL
 40
1.0
  9
$DIMFXLON
 70
     0
  9
$DIMJOGANG
 40
0.7853981634
  9
$DIMTFILL
 70
     0
  9
$DIMTFILLCLR
 70
     0
  9
$DIMARCSYM
 70
     0
  9
$DIMLTYPE
  6

  9
$DIMLTEX1
  6

  9
$DIMLTEX2
  6

  9
$DIMTXTDIRECTION
 70
     0
  9
$LUNITS
 70
     2
  9
$LUPREC
 70
     2
  9
$SKETCHINC
 40
1.0
  9
$FILLETRAD
 40
10.0
  9
$AUNITS
 70
     0
  9
$AUPREC
 70
     2
  9
$MENU
  1
.
  9
$ELEVATION
 40
0.0
  9
$PELEVATION
 40
0.0
  9
$THICKNESS
 40
0.0
  9
$LIMCHECK
 70
     0
  9
$CHAMFERA
 40
0.0
  9
$CHAMFERB
 40
0.0
  9
$CHAMFERC
 40
0.0
  9
$CHAMFERD
 40
0.0
  9
$SKPOLY
 70
     0
  9
$TDCREATE
 40
2458234.456282928
  9
$TDUCREATE
 40
2458234.372949595
  9
$TDUPDATE
 40
2458234.456310092
  9
$TDUUPDATE
 40
2458234.372976759
  9
$TDINDWG
 40
0.0000000116
  9
$TDUSRTIMER
 40
0.0000000116
  9
$USRTIMER
 70
     1
  9
$ANGBASE
 50
0.0
  9
$ANGDIR
 70
     0
  9
$PDMODE
 70
     0
  9
$PDSIZE
 40
-1.0
  9
$PLINEWID
 40
0.0
  9
$SPLFRAME
 70
     0
  9
$SPLINETYPE
 70
     6
  9
$SPLINESEGS
 70
     8
  9
$HANDSEED
  5
184
  9
$SURFTAB1
 70
     6
  9
$SURFTAB2
 70
     6
  9
$SURFTYPE
 70
     6
  9
$SURFU
 70
     6
  9
$SURFV
 70
     6
  9
$UCSBASE
  2

  9
$UCSNAME
  2

  9
$UCSORG
 10
0.0
 20
0.0
 30
0.0
  9
$UCSXDIR
 10
1.0
 20
0.0
 30
0.0
  9
$UCSYDIR
 10
0.0
 20
1.0
 30
0.0
  9
$UCSORTHOREF
  2

  9
$UCSORTHOVIEW
 70
     0
  9
$UCSORGTOP
 10
0.0
 20
0.0
 30
0.0
  9
$UCSORGBOTTOM
 10
0.0
 20
0.0
 30
0.0
  9
$UCSORGLEFT
 10
0.0
 20
0.0
 30
0.0
  9
$UCSORGRIGHT
 10
0.0
 20
0.0
 30
0.0
  9
$UCSORGFRONT
 10
0.0
 20
0.0
 30
0.0
  9
$UCSORGBACK
 10
0.0
 20
0.0
 30
0.0
  9
$PUCSBASE
  2

  9
$PUCSNAME
  2

  9
$PUCSORG
 10
0.0
 20
0.0
 30
0.0
  9
$PUCSXDIR
 10
1.0
 20
0.0
 30
0.0
  9
$PUCSYDIR
 10
0.0
 20
1.0
 30
0.0
  9
$PUCSORTHOREF
  2

  9
$PUCSORTHOVIEW
 70
     0
  9
$PUCSORGTOP
 10
0.0
 20
0.0
 30
0.0
  9
$PUCSORGBOTTOM
 10
0.0
 20
0.0
 30
0.0
  9
$PUCSORGLEFT
 10
0.0
 20
0.0
 30
0.0
  9
$PUCSORGRIGHT
 10
0.0
 20
0.0
 30
0.0
  9
$PUCSORGFRONT
 10
0.0
 20
0.0
 30
0.0
  9
$PUCSORGBACK
 10
0.0
 20
0.0
 30
0.0
  9
$USERI1
 70
     0
  9
$USERI2
 70
     0
  9
$USERI3
 70
     0
  9
$USERI4
 70
     0
  9
$USERI5
 70
     0
  9
$USERR1
 40
0.0
  9
$USERR2
 40
0.0
  9
$USERR3
 40
0.0
  9
$USERR4
 40
0.0
  9
$USERR5
 40
0.0
  9
$WORLDVIEW
 70
     1
  9
$SHADEDGE
 70
     3
  9
$SHADEDIF
 70
    70
  9
$TILEMODE
 70
     1
  9
$MAXACTVP
 70
    64
  9
$PINSBASE
 10
0.0
 20
0.0
 30
0.0
  9
$PLIMCHECK
 70
     0
  9
$PEXTMIN
 10
-457.5
 20
0.0
 30
0.0
  9
$PEXTMAX
 10
457.5
 20
140.0
 30
0.0
  9
$PLIMMIN
 10
-528.7062256809
 20
-26.7023346304
  9
$PLIMMAX
 10
528.7062256809
 20
720.9630350195
  9
$UNITMODE
 70
     0
  9
$VISRETAIN
 70
     1
  9
$PLINEGEN
 70
     0
  9
$PSLTSCALE
 70
     1
  9
$TREEDEPTH
 70
  3020
  9
$CMLSTYLE
  2
Standard
  9
$CMLJUST
 70
     0
  9
$CMLSCALE
 40
20.0
  9
$PROXYGRAPHICS
 70
     1
  9
$MEASUREMENT
 70
     1
  9
$CELWEIGHT
370
    -1
  9
$ENDCAPS
280
     0
  9
$JOINSTYLE
280
     0
  9
$LWDISPLAY
290
     1
  9
$INSUNITS
 70
     4
  9
$HYPERLINKBASE
  1

  9
$STYLESHEET
  1

  9
$XEDIT
290
     1
  9
$CEPSNTYPE
380
     0
  9
$PSTYLEMODE
290
     1
  9
$FINGERPRINTGUID
  2
{21DEF2A3-ABD4-4EED-BD19-FA8C1C97A947}
  9
$VERSIONGUID
  2
{FAEB1C32-E019-11D5-929B-00C0DF256EC4}
  9
$EXTNAMES
290
     1
  9
$PSVPSCALE
 40
0.0
  9
$OLESTARTUP
290
     0
  9
$SORTENTS
280
   127
  9
$INDEXCTL
280
     0
  9
$HIDETEXT
280
     1
  9
$XCLIPFRAME
280
     2
  9
$HALOGAP
280
     0
  9
$OBSCOLOR
 70
   257
  9
$OBSLTYPE
280
     0
  9
$INTERSECTIONDISPLAY
280
     0
  9
$INTERSECTIONCOLOR
 70
   257
  9
$DIMASSOC
280
     2
  9
$PROJECTNAME
  1

  9
$CAMERADISPLAY
290
     0
  9
$LENSLENGTH
 40
50.0
  9
$CAMERAHEIGHT
 40
0.0
  9
$STEPSPERSEC
 40
2.0
  9
$STEPSIZE
 40
6.0
  9
$3DDWFPREC
 40
2.0
  9
$PSOLWIDTH
 40
5.0
  9
$PSOLHEIGHT
 40
80.0
  9
$LOFTANG1
 40
1.5707963268
  9
$LOFTANG2
 40
1.5707963268
  9
$LOFTMAG1
 40
0.0
  9
$LOFTMAG2
 40
0.0
  9
$LOFTPARAM
 70
     7
  9
$LOFTNORMALS
280
     1
  9
$LATITUDE
 40
37.795
  9
$LONGITUDE
 40
-122.394
  9
$NORTHDIRECTION
 40
0.0
  9
$TIMEZONE
 70
 -8000
  9
$LIGHTGLYPHDISPLAY
280
     1
  9
$TILEMODELIGHTSYNCH
280
     1
  9
$CMATERIAL
347
44
  9
$SOLIDHIST
280
     0
  9
$SHOWHIST
280
     1
  9
$DWFFRAME
280
     2
  9
$DGNFRAME
280
     2
  9
$REALWORLDSCALE
290
     1
  9
$INTERFERECOLOR
 62
   256
  9
$CSHADOW
280
     0
  9
$SHADOWPLANELOCATION
 40
0.0
  0
ENDSEC
  0
SECTION
  2
CLASSES
  0
CLASS
  1
ACDBDICTIONARYWDFLT
  2
AcDbDictionaryWithDefault
  3
ObjectDBX Classes
 90
        0
 91
        4
280
     0
281
     0
  0
CLASS
  1
VISUALSTYLE
  2
AcDbVisualStyle
  3
ObjectDBX Classes
 90
     4095
 91
        4
280
     0
281
     0
  0
CLASS
  1
MATERIAL
  2
AcDbMaterial
  3
ObjectDBX Classes
 90
     1153
 91
        4
280
     0
281
     0
  0
CLASS
  1
SCALE
  2
AcDbScale
  3
ObjectDBX Classes
 90
     1153
 91
        4
280
     0
281
     0
  0
CLASS
  1
TABLESTYLE
  2
AcDbTableStyle
  3
ObjectDBX Classes
 90
     4095
 91
        4
280
     0
281
     0
  0
CLASS
  1
MLEADERSTYLE
  2
AcDbMLeaderStyle
  3
ACDB_MLEADERSTYLE_CLASS
 90
     4095
 91
        4
280
     0
281
     0
  0
CLASS
  1
SUN
  2
AcDbSun
  3
SCENEOE
 90
     1153
 91
        4
280
     0
281
     0
  0
CLASS
  1
DICTIONARYVAR
  2
AcDbDictionaryVar
  3
ObjectDBX Classes
 90
        0
 91
        4
280
     0
281
     0
  0
CLASS
  1
CELLSTYLEMAP
  2
AcDbCellStyleMap
  3
ObjectDBX Classes
 90
     1152
 91
        4
280
     0
281
     0
  0
ENDSEC
  0
SECTION
  2
TABLES
  0
TABLE
  2
VPORT
  5
8
330
0
100
AcDbSymbolTable
 70
     1
  0
VPORT
  5
29
330
8
100
AcDbSymbolTableRecord
100
AcDbViewportTableRecord
  2
*Active
 70
     0
 10
0.0
 20
0.0
 11
1.0
 21
1.0
 12
0.0
 22
0.0
 13
0.0
 23
0.0
 14
10.0
 24
10.0
 15
10.0
 25
10.0
 16
0.0
 26
0.0
 36
1.0
 17
0.0
 27
0.0
 37
0.0
 40
382.5
 41
2.44
 42
50.0
 43
0.0
 44
0.0
 50
0.0
 51
0.0
 71
     0
 72
   100
 73
     1
 74
     3
 75
     0
 76
     0
 77
     0
 78
     0
281
     0
 65
     1
110
0.0
120
0.0
130
0.0
111
1.0
121
0.0
131
0.0
112
0.0
122
1.0
132
0.0
 79
     0
146
0.0
348
2F
 60
     3
 61
     5
292
     1
282
     1
141
0.0
142
0.0
 63
   250
361
6D
  0
ENDTAB
  0
TABLE
  2
LTYPE
  5
5
330
0
100
AcDbSymbolTable
 70
     6
  0
LTYPE
  5
14
330
5
100
AcDbSymbolTableRecord
100
AcDbLinetypeTableRecord
  2
ByBlock
 70
     0
  3

 72
    65
 73
     0
 40
0.0
  0
LTYPE
  5
15
330
5
100
AcDbSymbolTableRecord
100
AcDbLinetypeTableRecord
  2
ByLayer
 70
     0
  3

 72
    65
 73
     0
 40
0.0
  0
LTYPE
  5
16
330
5
100
AcDbSymbolTableRecord
100
AcDbLinetypeTableRecord
  2
Continuous
 70
     0
  3
Solid line
 72
    65
 73
     0
 40
0.0
  0
LTYPE
  5
6E
330
5
100
AcDbSymbolTableRecord
100
AcDbLinetypeTableRecord
  2
HIDDEN
 70
     0
  3
Hidden __ __ __ __ __ __ __ __ __ __ __ __ __ __
 72
    65
 73
     2
 40
1.905
 49
1.27
 74
     0
 49
-0.635
 74
     0
  0
LTYPE
  5
6F
330
5
100
AcDbSymbolTableRecord
100
AcDbLinetypeTableRecord
  2
PHANTOM
 70
     0
  3
Phantom ______  __  __  ______  __  __  ______
 72
    65
 73
     6
 40
12.7
 49
6.35
 74
     0
 49
-1.27
 74
     0
 49
1.27
 74
     0
 49
-1.27
 74
     0
 49
1.27
 74
     0
 49
-1.27
 74
     0
  0
LTYPE
  5
70
330
5
100
AcDbSymbolTableRecord
100
AcDbLinetypeTableRecord
  2
CENTER
 70
     0
  3
Center ____ _ ____ _ ____ _ ____ _ ____ _ ____
 72
    65
 73
     4
 40
10.16
 49
6.35
 74
     0
 49
-1.27
 74
     0
 49
1.27
 74
     0
 49
-1.27
 74
     0
  0
LTYPE
  5
71
330
5
100
AcDbSymbolTableRecord
100
AcDbLinetypeTableRecord
  2
CENTERX2
 70
     0
  3
Center (2x) ________  __  ________  __  _____
 72
    65
 73
     4
 40
20.32
 49
12.7
 74
     0
 49
-2.54
 74
     0
 49
2.54
 74
     0
 49
-2.54
 74
     0
  0
LTYPE
  5
72
330
5
100
AcDbSymbolTableRecord
100
AcDbLinetypeTableRecord
  2
DOT2
 70
     0
  3
Dot (.5x) ........................................
 72
    65
 73
     2
 40
0.635
 49
0.0
 74
     0
 49
-0.635
 74
     0
  0
ENDTAB
  0
TABLE
  2
LAYER
  5
2
330
0
100
AcDbSymbolTable
 70
     1
  0
LAYER
  5
10
330
2
100
AcDbSymbolTableRecord
100
AcDbLayerTableRecord
  2
0
 70
     0
 62
     7
  6
Continuous
370
    -3
390
F
347
46
348
0
  0
ENDTAB
  0
TABLE
  2
STYLE
  5
3
330
0
100
AcDbSymbolTable
 70
     1
  0
STYLE
  5
11
330
3
100
AcDbSymbolTableRecord
100
AcDbTextStyleTableRecord
  2
STANDARD
 70
     0
 40
0.0
 41
1.0
 50
0.0
 71
     0
 42
3.5
  3
GOTHIC.TTF
  4

1001
ACAD
1000
CENTURY GOTHIC
1071
       34
  0
ENDTAB
  0
TABLE
  2
VIEW
  5
6
330
0
100
AcDbSymbolTable
 70
     0
  0
ENDTAB
  0
TABLE
  2
UCS
  5
7
330
0
100
AcDbSymbolTable
 70
     0
  0
ENDTAB
  0
TABLE
  2
APPID
  5
9
330
0
100
AcDbSymbolTable
 70
     1
  0
APPID
  5
12
330
9
100
AcDbSymbolTableRecord
100
AcDbRegAppTableRecord
  2
ACAD
 70
     0
  0
ENDTAB
  0
TABLE
  2
DIMSTYLE
  5
A
330
0
100
AcDbSymbolTable
 70
     1
100
AcDbDimStyleTable
  0
DIMSTYLE
105
27
330
A
100
AcDbSymbolTableRecord
100
AcDbDimStyleTableRecord
  2
ISO-25
 70
     0
 41
2.5
 42
0.625
 43
3.75
 44
1.25
 73
     0
 74
     0
 77
     1
 78
     8
140
2.5
141
2.5
143
0.0393700787
147
0.625
171
     3
172
     1
178
     0
271
     2
272
     2
274
     3
278
    44
283
     0
284
     8
340
11
  0
ENDTAB
  0
TABLE
  2
BLOCK_RECORD
  5
1
330
0
100
AcDbSymbolTable
 70
     8
  0
BLOCK_RECORD
  5
1F
330
1
100
AcDbSymbolTableRecord
100
AcDbBlockTableRecord
  2
*Model_Space
340
22
 70
     0
280
     1
281
     0
  0
BLOCK_RECORD
  5
1B
330
1
100
AcDbSymbolTableRecord
100
AcDbBlockTableRecord
  2
*Paper_Space
340
1E
 70
     0
280
     1
281
     0
  0
BLOCK_RECORD
  5
23
330
1
100
AcDbSymbolTableRecord
100
AcDbBlockTableRecord
  2
*Paper_Space0
340
26
 70
     0
280
     1
281
     0
  0
BLOCK_RECORD
  5
A7
330
1
100
AcDbSymbolTableRecord
100
AcDbBlockTableRecord
  2
*Paper_Space1
340
A8
 70
     0
280
     1
281
     0
  0
BLOCK_RECORD
  5
B3
330
1
100
AcDbSymbolTableRecord
100
AcDbBlockTableRecord
  2
*Paper_Space2
340
B4
 70
     0
280
     1
281
     0
  0
BLOCK_RECORD
  5
BF
330
1
100
AcDbSymbolTableRecord
100
AcDbBlockTableRecord
  2
*Paper_Space3
340
C0
 70
     0
280
     1
281
     0
  0
BLOCK_RECORD
  5
CB
330
1
100
AcDbSymbolTableRecord
100
AcDbBlockTableRecord
  2
*Paper_Space4
340
CC
 70
     0
280
     1
281
     0
  0
BLOCK_RECORD
  5
D8
330
1
100
AcDbSymbolTableRecord
100
AcDbBlockTableRecord
  2
*Paper_Space5
340
D9
 70
     0
280
     1
281
     0
  0
BLOCK_RECORD
  5
113
330
1
100
AcDbSymbolTableRecord
100
AcDbBlockTableRecord
  2
*Paper_Space6
340
114
 70
     0
280
     1
281
     0
  0
BLOCK_RECORD
  5
143
330
1
100
AcDbSymbolTableRecord
100
AcDbBlockTableRecord
  2
*Paper_Space7
340
144
 70
     0
280
     1
281
     0
  0
ENDTAB
  0
ENDSEC
  0
SECTION
  2
BLOCKS
  0
BLOCK
  5
20
330
1F
100
AcDbEntity
  8
0
100
AcDbBlockBegin
  2
*Model_Space
 70
     0
 10
0.0
 20
0.0
 30
0.0
  3
*Model_Space
  1

  0
ENDBLK
  5
21
330
1F
100
AcDbEntity
  8
0
100
AcDbBlockEnd
  0
BLOCK
  5
1C
330
1B
100
AcDbEntity
 67
     1
  8
0
100
AcDbBlockBegin
  2
*Paper_Space
 70
     0
 10
0.0
 20
0.0
 30
0.0
  3
*Paper_Space
  1

  0
ENDBLK
  5
1D
330
1B
100
AcDbEntity
 67
     1
  8
0
100
AcDbBlockEnd
  0
BLOCK
  5
24
330
23
100
AcDbEntity
  8
0
100
AcDbBlockBegin
  2
*Paper_Space0
 70
     0
 10
0.0
 20
0.0
 30
0.0
  3
*Paper_Space0
  1

  0
LINE
  5
A3
330
23
100
AcDbEntity
  8
0
  6
Continuous
 62
     7
370
    25
100
AcDbLine
 10
-187.5
 20
140.0
 30
0.0
 11
-187.5
 21
0.0
 31
0.0
  0
LINE
  5
A4
330
23
100
AcDbEntity
  8
0
  6
Continuous
 62
     7
370
    25
100
AcDbLine
 10
-187.5
 20
140.0
 30
0.0
 11
187.5
 21
140.0
 31
0.0
  0
LINE
  5
A5
330
23
100
AcDbEntity
  8
0
  6
Continuous
 62
     7
370
    25
100
AcDbLine
 10
187.5
 20
140.0
 30
0.0
 11
187.5
 21
0.0
 31
0.0
  0
LINE
  5
A6
330
23
100
AcDbEntity
  8
0
  6
Continuous
 62
     7
370
    25
100
AcDbLine
 10
-187.5
 20
0.0
 30
0.0
 11
187.5
 21
0.0
 31
0.0
  0
VIEWPORT
  5
16B
330
23
100
AcDbEntity
  8
0
100
AcDbViewport
 10
0.0
 20
0.0
 30
0.0
 40
205.6
 41
156.0
 68
     1
 69
     1
 12
0.0
 22
0.0
 13
0.0
 23
0.0
 14
10.0
 24
10.0
 15
10.0
 25
10.0
 16
0.0
 26
0.0
 36
1.0
 17
0.0
 27
0.0
 37
0.0
 42
50.0
 43
0.0
 44
0.0
 45
708.1459143969
 50
0.0
 51
0.0
 72
   100
 90
   557152
  1

281
     0
 71
     1
 74
     0
110
0.0
120
0.0
130
0.0
111
1.0
121
0.0
131
0.0
112
0.0
122
1.0
132
0.0
 79
     0
146
0.0
170
     0
 61
     5
348
2F
292
     1
282
     1
141
0.0
142
0.0
 63
   256
361
16C
  0
ENDBLK
  5
25
330
23
100
AcDbEntity
  8
0
100
AcDbBlockEnd
  0
BLOCK
  5
A9
330
A7
100
AcDbEntity
  8
0
100
AcDbBlockBegin
  2
*Paper_Space1
 70
     0
 10
0.0
 20
0.0
 30
0.0
  3
*Paper_Space1
  1

  0
LINE
  5
AF
330
A7
100
AcDbEntity
  8
0
  6
Continuous
 62
     7
370
    25
100
AcDbLine
 10
-457.5
 20
140.0
 30
0.0
 11
457.5
 21
140.0
 31
0.0
  0
LINE
  5
B0
330
A7
100
AcDbEntity
  8
0
  6
Continuous
 62
     7
370
    25
100
AcDbLine
 10
-457.5
 20
140.0
 30
0.0
 11
-457.5
 21
0.0
 31
0.0
  0
LINE
  5
B1
330
A7
100
AcDbEntity
  8
0
  6
Continuous
 62
     7
370
    25
100
AcDbLine
 10
-457.5
 20
0.0
 30
0.0
 11
457.5
 21
0.0
 31
0.0
  0
LINE
  5
B2
330
A7
100
AcDbEntity
  8
0
  6
Continuous
 62
     7
370
    25
100
AcDbLine
 10
457.5
 20
140.0
 30
0.0
 11
457.5
 21
0.0
 31
0.0
  0
VIEWPORT
  5
16D
330
A7
100
AcDbEntity
  8
0
100
AcDbViewport
 10
0.0
 20
0.0
 30
0.0
 40
205.6
 41
156.0
 68
     1
 69
     1
 12
0.0
 22
0.0
 13
0.0
 23
0.0
 14
10.0
 24
10.0
 15
10.0
 25
10.0
 16
0.0
 26
0.0
 36
1.0
 17
0.0
 27
0.0
 37
0.0
 42
50.0
 43
0.0
 44
0.0
 45
708.1459143969
 50
0.0
 51
0.0
 72
   100
 90
   557152
  1

281
     0
 71
     1
 74
     0
110
0.0
120
0.0
130
0.0
111
1.0
121
0.0
131
0.0
112
0.0
122
1.0
132
0.0
 79
     0
146
0.0
170
     0
 61
     5
348
2F
292
     1
282
     1
141
0.0
142
0.0
 63
   256
361
16E
  0
ENDBLK
  5
AA
330
A7
100
AcDbEntity
  8
0
100
AcDbBlockEnd
  0
BLOCK
  5
B5
330
B3
100
AcDbEntity
  8
0
100
AcDbBlockBegin
  2
*Paper_Space2
 70
     0
 10
0.0
 20
0.0
 30
0.0
  3
*Paper_Space2
  1

  0
LINE
  5
BB
330
B3
100
AcDbEntity
  8
0
  6
Continuous
 62
     7
370
    25
100
AcDbLine
 10
-457.5
 20
140.0
 30
0.0
 11
457.5
 21
140.0
 31
0.0
  0
LINE
  5
BC
330
B3
100
AcDbEntity
  8
0
  6
Continuous
 62
     7
370
    25
100
AcDbLine
 10
457.5
 20
140.0
 30
0.0
 11
457.5
 21
0.0
 31
0.0
  0
LINE
  5
BD
330
B3
100
AcDbEntity
  8
0
  6
Continuous
 62
     7
370
    25
100
AcDbLine
 10
-457.5
 20
0.0
 30
0.0
 11
457.5
 21
0.0
 31
0.0
  0
LINE
  5
BE
330
B3
100
AcDbEntity
  8
0
  6
Continuous
 62
     7
370
    25
100
AcDbLine
 10
-457.5
 20
140.0
 30
0.0
 11
-457.5
 21
0.0
 31
0.0
  0
VIEWPORT
  5
16F
330
B3
100
AcDbEntity
  8
0
100
AcDbViewport
 10
0.0
 20
0.0
 30
0.0
 40
205.6
 41
156.0
 68
     1
 69
     1
 12
0.0
 22
0.0
 13
0.0
 23
0.0
 14
10.0
 24
10.0
 15
10.0
 25
10.0
 16
0.0
 26
0.0
 36
1.0
 17
0.0
 27
0.0
 37
0.0
 42
50.0
 43
0.0
 44
0.0
 45
708.1459143969
 50
0.0
 51
0.0
 72
   100
 90
   557152
  1

281
     0
 71
     1
 74
     0
110
0.0
120
0.0
130
0.0
111
1.0
121
0.0
131
0.0
112
0.0
122
1.0
132
0.0
 79
     0
146
0.0
170
     0
 61
     5
348
2F
292
     1
282
     1
141
0.0
142
0.0
 63
   256
361
170
  0
ENDBLK
  5
B6
330
B3
100
AcDbEntity
  8
0
100
AcDbBlockEnd
  0
BLOCK
  5
C1
330
BF
100
AcDbEntity
  8
0
100
AcDbBlockBegin
  2
*Paper_Space3
 70
     0
 10
0.0
 20
0.0
 30
0.0
  3
*Paper_Space3
  1

  0
LINE
  5
C7
330
BF
100
AcDbEntity
  8
0
  6
Continuous
 62
     7
370
    25
100
AcDbLine
 10
187.5
 20
140.0
 30
0.0
 11
187.5
 21
0.0
 31
0.0
  0
LINE
  5
C8
330
BF
100
AcDbEntity
  8
0
  6
Continuous
 62
     7
370
    25
100
AcDbLine
 10
-187.5
 20
0.0
 30
0.0
 11
187.5
 21
0.0
 31
0.0
  0
LINE
  5
C9
330
BF
100
AcDbEntity
  8
0
  6
Continuous
 62
     7
370
    25
100
AcDbLine
 10
-187.5
 20
140.0
 30
0.0
 11
-187.5
 21
0.0
 31
0.0
  0
LINE
  5
CA
330
BF
100
AcDbEntity
  8
0
  6
Continuous
 62
     7
370
    25
100
AcDbLine
 10
-187.5
 20
140.0
 30
0.0
 11
187.5
 21
140.0
 31
0.0
  0
VIEWPORT
  5
171
330
BF
100
AcDbEntity
  8
0
100
AcDbViewport
 10
0.0
 20
0.0
 30
0.0
 40
205.6
 41
156.0
 68
     1
 69
     1
 12
0.0
 22
0.0
 13
0.0
 23
0.0
 14
10.0
 24
10.0
 15
10.0
 25
10.0
 16
0.0
 26
0.0
 36
1.0
 17
0.0
 27
0.0
 37
0.0
 42
50.0
 43
0.0
 44
0.0
 45
708.1459143969
 50
0.0
 51
0.0
 72
   100
 90
   557152
  1

281
     0
 71
     1
 74
     0
110
0.0
120
0.0
130
0.0
111
1.0
121
0.0
131
0.0
112
0.0
122
1.0
132
0.0
 79
     0
146
0.0
170
     0
 61
     5
348
2F
292
     1
282
     1
141
0.0
142
0.0
 63
   256
361
172
  0
ENDBLK
  5
C2
330
BF
100
AcDbEntity
  8
0
100
AcDbBlockEnd
  0
BLOCK
  5
CD
330
CB
100
AcDbEntity
  8
0
100
AcDbBlockBegin
  2
*Paper_Space4
 70
     0
 10
0.0
 20
0.0
 30
0.0
  3
*Paper_Space4
  1

  0
CIRCLE
  5
CF
330
CB
100
AcDbEntity
  8
0
  6
Continuous
 62
     7
370
    25
100
AcDbCircle
 10
0.0
 20
0.0
 30
0.0
 40
22.99999999999999
  0
LINE
  5
D4
330
CB
100
AcDbEntity
  8
0
  6
Continuous
 62
     7
370
    25
100
AcDbLine
 10
-457.5
 20
187.5
 30
0.0
 11
457.5
 21
187.5
 31
0.0
  0
LINE
  5
D5
330
CB
100
AcDbEntity
  8
0
  6
Continuous
 62
     7
370
    25
100
AcDbLine
 10
-457.5
 20
-187.5
 30
0.0
 11
-457.5
 21
187.5
 31
0.0
  0
LINE
  5
D6
330
CB
100
AcDbEntity
  8
0
  6
Continuous
 62
     7
370
    25
100
AcDbLine
 10
457.5
 20
-187.5
 30
0.0
 11
-457.5
 21
-187.5
 31
0.0
  0
LINE
  5
D7
330
CB
100
AcDbEntity
  8
0
  6
Continuous
 62
     7
370
    25
100
AcDbLine
 10
457.5
 20
187.5
 30
0.0
 11
457.5
 21
-187.5
 31
0.0
  0
VIEWPORT
  5
173
330
CB
100
AcDbEntity
  8
0
100
AcDbViewport
 10
0.0
 20
0.0
 30
0.0
 40
205.6
 41
156.0
 68
     1
 69
     1
 12
0.0
 22
0.0
 13
0.0
 23
0.0
 14
10.0
 24
10.0
 15
10.0
 25
10.0
 16
0.0
 26
0.0
 36
1.0
 17
0.0
 27
0.0
 37
0.0
 42
50.0
 43
0.0
 44
0.0
 45
708.1459143969
 50
0.0
 51
0.0
 72
   100
 90
   557152
  1

281
     0
 71
     1
 74
     0
110
0.0
120
0.0
130
0.0
111
1.0
121
0.0
131
0.0
112
0.0
122
1.0
132
0.0
 79
     0
146
0.0
170
     0
 61
     5
348
2F
292
     1
282
     1
141
0.0
142
0.0
 63
   256
361
174
  0
ENDBLK
  5
CE
330
CB
100
AcDbEntity
  8
0
100
AcDbBlockEnd
  0
BLOCK
  5
DA
330
D8
100
AcDbEntity
  8
0
100
AcDbBlockBegin
  2
*Paper_Space5
 70
     0
 10
0.0
 20
0.0
 30
0.0
  3
*Paper_Space5
  1

  0
SPLINE
  5
EA
330
D8
100
AcDbEntity
  8
0
  6
Continuous
 62
     7
370
    25
100
AcDbSpline
210
0.0
220
0.0
230
1.0
 70
     8
 71
     3
 72
    40
 73
    36
 74
     0
 42
0.000000001
 43
0.00000001
 40
0.0
 40
0.0
 40
0.0
 40
0.0
 40
0.0241791502490906
 40
0.0482751592584499
 40
0.0722788334139712
 40
0.0961811616783031
 40
0.1199733338567499
 40
0.1436467565497158
 40
0.1671930670324953
 40
0.1906041452790568
 40
0.2138721243247537
 40
0.2369893991434328
 40
0.2599484298385646
 40
0.282741188213712
 40
0.3053601476026513
 40
0.3277980454771281
 40
0.350047858075555
 40
0.37210281176494
 40
0.3939563930509932
 40
0.4156023573793305
 40
0.4370347368580455
 40
0.4582478470204845
 40
0.4792362927367319
 40
0.4999949731501836
 40
0.5419073991869247
 40
0.5846847826607503
 40
0.6282826422838501
 40
0.6726521290612274
 40
0.7177402699090567
 40
0.763490225605592
 40
0.8098411153749183
 40
0.8567324274682343
 40
0.9041010711317713
 40
0.9518802727071836
 40
1.0
 40
1.0
 40
1.0
 40
1.0
 10
29.4029076951236
 20
12.8916140899633
 30
0.0
 10
29.32436907051984
 20
12.79238997385705
 30
0.0
 10
29.16756188037352
 20
12.59428292882193
 30
0.0
 10
28.9210257243212
 20
12.30081300407867
 30
0.0
 10
28.66712236645725
 20
12.01083217444736
 30
0.0
 10
28.40535974661887
 20
11.724704885629
 30
0.0
 10
28.13632345159176
 20
11.44250996712552
 30
0.0
 10
27.86030375450352
 20
11.16439386095623
 30
0.0
 10
27.57766128080545
 20
10.89047675895677
 30
0.0
 10
27.28872993394911
 20
10.62087770469852
 30
0.0
 10
26.99384225350565
 20
10.35570831859612
 30
0.0
 10
26.69332570068023
 20
10.0950745885666
 30
0.0
 10
26.38749990788882
 20
9.839082607132497
 30
0.0
 10
26.07671159347809
 20
9.587823474395927
 30
0.0
 10
25.76132452164976
 20
9.341374745637717
 30
0.0
 10
25.44168629285613
 20
9.099810064768725
 30
0.0
 10
25.11813682849632
 20
8.863197555604017
 30
0.0
 10
24.79100681932869
 20
8.631600823192857
 30
0.0
 10
24.46061837862794
 20
8.405078851303905
 30
0.0
 10
24.12728501819544
 20
8.183686224177853
 30
0.0
 10
23.79131196564753
 20
7.967472999477199
 30
0.0
 10
23.45299578318484
 20
7.756485632280152
 30
0.0
 10
23.11262639553768
 20
7.550764090229458
 30
0.0
 10
22.65296332805311
 20
7.281517686827783
 30
0.0
 10
22.05966425396575
 20
6.950091344361025
 30
0.0
 10
21.31636874760116
 20
6.560030931224315
 30
0.0
 10
20.53761348112948
 20
6.176311012577928
 30
0.0
 10
19.7241635507727
 20
5.800338357577234
 30
0.0
 10
18.87689417643903
 20
5.433594562844743
 30
0.0
 10
17.99680465475205
 20
5.077643692037566
 30
0.0
 10
17.08504503196939
 20
4.734111107972589
 30
0.0
 10
16.14323109256249
 20
4.404315439398878
 30
0.0
 10
15.17256422420069
 20
4.090286070400712
 30
0.0
 10
14.17632782987616
 20
3.791649708932677
 30
0.0
 10
13.49468673640651
 20
3.609331160430877
 30
0.0
 10
13.15265597635072
 20
3.517848190413738
 30
0.0
  0
SPLINE
  5
ED
330
D8
100
AcDbEntity
  8
0
  6
Continuous
 62
     7
370
    25
100
AcDbSpline
210
0.0
220
0.0
230
1.0
 70
     8
 71
     3
 72
    57
 73
    53
 74
     0
 42
0.000000001
 43
0.00000001
 40
0.0
 40
0.0
 40
0.0
 40
0.0
 40
0.0077242832564841
 40
0.0154784621392153
 40
0.0232583561200195
 40
0.0310602357746849
 40
0.0388807715368256
 40
0.0467168998545343
 40
0.0545647515283778
 40
0.062420065827236
 40
0.070278964713327
 40
0.0781379168701161
 40
0.0859936875499607
 40
0.0938430843317596
 40
0.1016819916018407
 40
0.1095061931106526
 40
0.1173117570815134
 40
0.1250949932959258
 40
0.1535454866700451
 40
0.183669246876865
 40
0.2156955850224395
 40
0.2498747167781597
 40
0.2717796570402848
 40
0.3120875083479464
 40
0.3359260562797412
 40
0.3569535534876379
 40
0.374762617580444
 40
0.4072036466774477
 40
0.4372262795136835
 40
0.4686049017045042
 40
0.4998282473439578
 40
0.5599819606340474
 40
0.6255073577372496
 40
0.6527463534884183
 40
0.6877932147708112
 40
0.716040877604354
 40
0.7366242719198264
 40
0.7503829946697285
 40
0.7781760874112984
 40
0.804392810745551
 40
0.8291869860745983
 40
0.8527080482710755
 40
0.8750840990179927
 40
0.8889533777683598
 40
0.9028728037056754
 40
0.9168208898611643
 40
0.9307765647999202
 40
0.944722197888431
 40
0.9586377654323965
 40
0.9725014943300613
 40
0.9862955325795375
 40
1.0
 40
1.0
 40
1.0
 40
1.0
 10
13.13106982246825
 20
3.512299223360535
 30
0.0
 10
12.9484682014077
 20
3.467080132058757
 30
0.0
 10
12.58255822836618
 20
3.376466936058114
 30
0.0
 10
12.02730394822238
 20
3.247771914177564
 30
0.0
 10
11.46635806494697
 20
3.124315766753406
 30
0.0
 10
10.8997101839072
 20
3.006849892890413
 30
0.0
 10
10.32785697899673
 20
2.89542366047215
 30
0.0
 10
9.751186517754016
 20
2.790240053641521
 30
0.0
 10
9.170162067449667
 20
2.691441717760493
 30
0.0
 10
8.585281445896866
 20
2.599150379834929
 30
0.0
 10
7.997050160277306
 20
2.513458797783294
 30
0.0
 10
7.405959778343465
 20
2.434430011609666
 30
0.0
 10
6.812494587862242
 20
2.362096195119165
 30
0.0
 10
6.217157344651529
 20
2.296472545679704
 30
0.0
 10
5.620482523001954
 20
2.237540837834548
 30
0.0
 10
5.023028903048935
 20
2.185249867398077
 30
0.0
 10
4.425329208577021
 20
2.139530123671803
 30
0.0
 10
3.298427076617833
 20
2.065490326423995
 30
0.0
 10
1.591809646269775
 20
1.995444390534978
 30
0.0
 10
-0.7458321274825264
 20
1.998435958613161
 30
0.0
 10
-3.225552932495523
 20
2.113675531535096
 30
0.0
 10
-5.47349098461759
 20
2.324690165462759
 30
0.0
 10
-7.904170010558643
 20
2.640258654103125
 30
0.0
 10
-10.03204721255431
 20
3.024251363905744
 30
0.0
 10
-12.08169525636452
 20
3.492213161501958
 30
0.0
 10
-13.55697487145165
 20
3.881754479430406
 30
0.0
 10
-15.1998462485591
 20
4.366010289730882
 30
0.0
 10
-16.99113706135808
 20
4.974959358894713
 30
0.0
 10
-18.99058588199343
 20
5.770437918850152
 30
0.0
 10
-20.85644591985633
 20
6.6369871876608
 30
0.0
 10
-23.181032890312
 20
7.880943358648966
 30
0.0
 10
-25.82720041658632
 20
9.652121758121455
 30
0.0
 10
-27.96153419368364
 20
11.56385903811064
 30
0.0
 10
-29.40255398339108
 20
13.25954649410792
 30
0.0
 10
-30.27183015653702
 20
14.49889483447726
 30
0.0
 10
-30.92425235053506
 20
15.6772586003031
 30
0.0
 10
-31.31792000283585
 20
16.5712118454188
 30
0.0
 10
-31.63950230652331
 20
17.46728605699192
 30
0.0
 10
-31.91495729251103
 20
18.45337874510279
 30
0.0
 10
-32.10207514470967
 20
19.60995826105766
 30
0.0
 10
-32.15713557800399
 20
20.7084362636262
 30
0.0
 10
-32.09889535629203
 20
21.75059510576907
 30
0.0
 10
-31.96449753226591
 20
22.62919249443698
 30
0.0
 10
-31.79899340811025
 20
23.36350631551387
 30
0.0
 10
-31.62593744775226
 20
23.97172980082074
 30
0.0
 10
-31.41673847942197
 20
24.57771008563918
 30
0.0
 10
-31.17123623574802
 20
25.17978937556776
 30
0.0
 10
-30.88980830332875
 20
25.77635487853682
 30
0.0
 10
-30.57348944546402
 20
26.36590251694994
 30
0.0
 10
-30.22282386353672
 20
26.94677447505702
 30
0.0
 10
-29.84240162735737
 20
27.51833349398683
 30
0.0
 10
-29.56232474798039
 20
27.89203373402908
 30
0.0
 10
-29.42274245522902
 20
28.07827522751781
 30
0.0
  0
SPLINE
  5
EF
330
D8
100
AcDbEntity
  8
0
  6
Continuous
 62
     7
370
    25
100
AcDbSpline
210
0.0
220
0.0
230
1.0
 70
     8
 71
     3
 72
    57
 73
    53
 74
     0
 42
0.000000001
 43
0.00000001
 40
0.0
 40
0.0
 40
0.0
 40
0.0
 40
0.0077242827088297
 40
0.0154784610354374
 40
0.0232583544522426
 40
0.0310602335354956
 40
0.0388807687191582
 40
0.0467168964517457
 40
0.0545647475347934
 40
0.062420061237653
 40
0.0702789595228668
 40
0.0781379110741417
 40
0.0859936811440107
 40
0.0938430773121162
 40
0.101681983965983
 40
0.1095061848563631
 40
0.1173117482068216
 40
0.1250949837990716
 40
0.15354547595155
 40
0.1836692342660252
 40
0.2156955696961484
 40
0.2498746977509066
 40
0.2717796470951083
 40
0.3120874844997076
 40
0.3359260412587149
 40
0.3569535372937732
 40
0.3747625891508502
 40
0.4072036087136944
 40
0.4372262503588439
 40
0.4686048666814009
 40
0.4998282084629611
 40
0.5599819261505088
 40
0.6255073589012726
 40
0.6527464109397517
 40
0.6877931543413913
 40
0.7160408089248187
 40
0.736624231590201
 40
0.750383015754811
 40
0.7781761098206356
 40
0.8043928336802025
 40
0.8291870088827001
 40
0.8527080704290229
 40
0.8750841200905368
 40
0.8889533936557799
 40
0.9028728152567813
 40
0.9168208978587338
 40
0.9307765699681921
 40
0.9447222008926729
 40
0.9586377668834422
 40
0.972501494790785
 40
0.9862955325693168
 40
1.0
 40
1.0
 40
1.0
 40
1.0
 10
-13.13106982259704
 20
37.48375168584877
 30
0.0
 10
-12.94846821446092
 20
37.53023827419779
 30
0.0
 10
-12.58255826746842
 20
37.62339136990312
 30
0.0
 10
-12.02730402739686
 20
37.75605436446511
 30
0.0
 10
-11.46635818527285
 20
37.88360451382504
 30
0.0
 10
-10.89971034647048
 20
38.00530124194892
 30
0.0
 10
-10.32785718481793
 20
38.12109227744178
 30
0.0
 10
-9.751186767789813
 20
38.23077503794185
 30
0.0
 10
-9.170162362574505
 20
38.33420680604395
 30
0.0
 10
-8.585281786901561
 20
38.43126616563126
 30
0.0
 10
-7.997050547882449
 20
38.52186031480649
 30
0.0
 10
-7.405960213203453
 20
38.60592621003465
 30
0.0
 10
-6.812495070550409
 20
38.68343164026872
 30
0.0
 10
-6.217157875639979
 20
38.75436097089899
 30
0.0
 10
-5.620483102643625
 20
38.81873278704442
 30
0.0
 10
-5.023029531603402
 20
38.87659837700198
 30
0.0
 10
-4.42532988623181
 20
38.92802734789733
 30
0.0
 10
-3.298427820102695
 20
39.01308988340536
 30
0.0
 10
-1.591810488633308
 20
39.1007758191603
 30
0.0
 10
0.7458311346873782
 20
39.12363269633033
 30
0.0
 10
3.225551731790627
 20
39.03737253221705
 30
0.0
 10
5.473489867191107
 20
38.85376147554812
 30
0.0
 10
7.904168695452724
 20
38.56905863194955
 30
0.0
 10
10.03204602207662
 20
38.21131026116578
 30
0.0
 10
12.08169395367253
 20
37.76759101055616
 30
0.0
 10
13.55697348827158
 20
37.39454550973034
 30
0.0
 10
15.19984437214529
 20
36.92758752445823
 30
0.0
 10
16.99113491713335
 20
36.33511731066067
 30
0.0
 10
18.99058362891107
 20
35.55417386371877
 30
0.0
 10
20.85644376267869
 20
34.69622263711785
 30
0.0
 10
23.18103106025814
 20
33.45643266565487
 30
0.0
 10
25.82719964960718
 20
31.67462663197591
 30
0.0
 10
27.961534544337
 20
29.73594183969062
 30
0.0
 10
29.40255406746013
 20
28.00823655768607
 30
0.0
 10
30.27182956331314
 20
26.74345666360531
 30
0.0
 10
30.92425117966414
 20
25.53974860149897
 30
0.0
 10
31.31791955691612
 20
24.62621400734904
 30
0.0
 10
31.63950240758649
 20
23.71038313137093
 30
0.0
 10
31.91495752149566
 20
22.70322612944703
 30
0.0
 10
32.10207525213506
 20
21.52266647215462
 30
0.0
 10
32.1571355566284
 20
20.4023181947258
 30
0.0
 10
32.09889523036341
 20
19.34037489787386
 30
0.0
 10
31.96449735853611
 20
18.44606275646484
 30
0.0
 10
31.79899324700915
 20
17.69935933130733
 30
0.0
 10
31.62593733726467
 20
17.08128438088698
 30
0.0
 10
31.41673842881362
 20
16.46588060969253
 30
0.0
 10
31.17123624415486
 20
15.85480197299085
 30
0.0
 10
30.88980836003331
 20
15.24966505209696
 30
0.0
 10
30.57348953029656
 20
14.651970887633
 30
0.0
 10
30.22282394593913
 20
14.06338456274481
 30
0.0
 10
29.84240167131538
 20
13.48451109597933
 30
0.0
 10
29.562324731441
 20
13.10626896922875
 30
0.0
 10
29.42274240609673
 20
12.91776392622632
 30
0.0
  0
SPLINE
  5
F2
330
D8
100
AcDbEntity
  8
0
  6
Continuous
 62
     7
370
    25
100
AcDbSpline
210
0.0
220
0.0
230
1.0
 70
     8
 71
     3
 72
    40
 73
    36
 74
     0
 42
0.000000001
 43
0.00000001
 40
0.0
 40
0.0
 40
0.0
 40
0.0
 40
0.024179151135113
 40
0.0482751609825345
 40
0.0722788359210203
 40
0.0961811649062204
 40
0.1199733377366076
 40
0.1436467610059474
 40
0.1671930719831071
 40
0.1906041506358558
 40
0.2138721299935874
 40
0.2369894050244396
 40
0.259948435830879
 40
0.282741194212708
 40
0.3053601534975334
 40
0.3277980511526331
 40
0.3500478634121699
 40
0.3721028166391312
 40
0.3939563973354439
 40
0.4156023609431848
 40
0.4370347395671579
 40
0.4582478487376715
 40
0.4792362933220257
 40
0.4999949724611747
 40
0.5419073983426029
 40
0.5846847817574813
 40
0.6282826414049739
 40
0.6726521282744437
 40
0.717740269263999
 40
0.7634902251322037
 40
0.8098411150798521
 40
0.856732427332717
 40
0.9041010711147811
 40
0.9518802727437695
 40
1.0
 40
1.0
 40
1.0
 40
1.0
 10
-29.40290976946009
 20
28.10452967341222
 30
0.0
 10
-29.32437115198826
 20
28.20412428989861
 30
0.0
 10
-29.16756397622714
 20
28.40297106152461
 30
0.0
 10
-28.92102783449402
 20
28.69748820066058
 30
0.0
 10
-28.66712448632963
 20
28.98846830256664
 30
0.0
 10
-28.4053618714107
 20
29.27554260340472
 30
0.0
 10
-28.13632557704933
 20
29.55863342354358
 30
0.0
 10
-27.86030587670437
 20
29.83759401449546
 30
0.0
 10
-27.57766339619738
 20
30.11230426554326
 30
0.0
 10
-27.28873203932743
 20
30.38264511109258
 30
0.0
 10
-26.99384434600843
 20
30.64850493610003
 30
0.0
 10
-26.69332777775022
 20
30.90977774885245
 30
0.0
 10
-26.38750196728919
 20
31.1663574473286
 30
0.0
 10
-26.07671363292274
 20
31.41815294884308
 30
0.0
 10
-25.7613265392599
 20
31.66508669155201
 30
0.0
 10
-25.44168828707913
 20
31.90708503200754
 30
0.0
 10
-25.11813879810625
 20
32.14407984606041
 30
0.0
 10
-24.79100876340709
 20
32.37600752847909
 30
0.0
 10
-24.46062029655378
 20
32.6028090956238
 30
0.0
 10
-24.12728690963167
 20
32.8244299618685
 30
0.0
 10
-23.79131383052844
 20
33.04082007370824
 30
0.0
 10
-23.45299762170945
 20
33.25193295974302
 30
0.0
 10
-23.11262820813832
 20
33.4577287111743
 30
0.0
 10
-22.65296509263798
 20
33.7270055963619
 30
0.0
 10
-22.05966594150303
 20
34.05833913116359
 30
0.0
 10
-21.31637032079096
 20
34.4480856256036
 30
0.0
 10
-20.53761492530625
 20
34.83128789563506
 30
0.0
 10
-19.72416485177859
 20
35.20653930629016
 30
0.0
 10
-18.87689532071056
 20
35.57235820633962
 30
0.0
 10
-17.9968056294763
 20
35.92718064540025
 30
0.0
 10
-17.0850458248481
 20
36.26938086722555
 30
0.0
 10
-16.14323169236458
 20
36.59764148268525
 30
0.0
 10
-15.17256462063002
 20
36.90992862729405
 30
0.0
 10
-14.17632801449789
 20
37.20663264310602
 30
0.0
 10
-13.49468677306266
 20
37.38749774571623
 30
0.0
 10
-13.15265593908203
 20
37.47825141219558
 30
0.0
  0
SPLINE
  5
F4
330
D8
100
AcDbEntity
  8
0
  6
Continuous
 62
     7
370
    25
100
AcDbSpline
210
0.0
220
0.0
230
1.0
 70
     8
 71
     3
 72
    15
 73
    11
 74
     0
 42
0.000000001
 43
0.00000001
 40
0.0
 40
0.0
 40
0.0
 40
0.0
 40
0.1494290522482381
 40
0.3074900941036636
 40
0.3898166621248382
 40
0.4743052013670014
 40
0.5609556558301673
 40
0.6498258931614829
 40
0.8488767643523406
 40
1.0
 40
1.0
 40
1.0
 40
1.0
 10
-21.00706365952797
 20
18.02910814680419
 30
0.0
 10
-21.40038827756747
 20
17.46480960236484
 30
0.0
 10
-22.20975849035138
 20
16.30361497574054
 30
0.0
 10
-22.76017198393468
 20
14.74692475639062
 30
0.0
 10
-22.98527153890467
 20
13.43821765766584
 30
0.0
 10
-23.0188435316766
 20
12.41252984141664
 30
0.0
 10
-22.90895755530738
 20
11.36263584584869
 30
0.0
 10
-22.52900380053269
 20
9.866600808928858
 30
0.0
 10
-21.71904732275965
 20
8.138112040572915
 30
0.0
 10
-20.5700491999965
 20
6.878577378486711
 30
0.0
 10
-20.07418068580871
 20
6.335005053098794
 30
0.0
  0
SPLINE
  5
F5
330
D8
100
AcDbEntity
  8
0
  6
Continuous
 62
     7
370
    25
100
AcDbSpline
210
0.0
220
0.0
230
1.0
 70
     8
 71
     3
 72
     8
 73
     4
 74
     0
 42
0.000000001
 43
0.00000001
 40
0.0
 40
0.0
 40
0.0
 40
0.0
 40
1.0
 40
1.0
 40
1.0
 40
1.0
 10
-29.40291053097689
 20
28.10446615804588
 30
0.0
 10
-26.60518785794588
 20
24.74480005979786
 30
0.0
 10
-23.80655682961941
 20
21.38634355778615
 30
0.0
 10
-21.00702007644781
 20
18.0290969304222
 30
0.0
  0
SPLINE
  5
F7
330
D8
100
AcDbEntity
  8
0
  6
Continuous
 62
     7
370
    25
100
AcDbSpline
210
0.0
220
0.0
230
1.0
 70
     8
 71
     3
 72
     8
 73
     4
 74
     0
 42
0.000000001
 43
0.00000001
 40
0.0
 40
0.0
 40
0.0
 40
0.0
 40
1.0
 40
1.0
 40
1.0
 40
1.0
 10
21.0073454151917
 20
7.216392491826533
 30
0.0
 10
23.80886493002987
 20
9.111920857967402
 30
0.0
 10
26.60739373850859
 20
11.00363804672086
 30
0.0
 10
29.40290845633183
 20
12.89155005980133
 30
0.0
  0
SPLINE
  5
F8
330
D8
100
AcDbEntity
  8
0
  6
Continuous
 62
     7
370
    25
100
AcDbSpline
210
0.0
220
0.0
230
1.0
 70
     8
 71
     3
 72
    55
 73
    51
 74
     0
 42
0.000000001
 43
0.00000001
 40
0.0
 40
0.0
 40
0.0
 40
0.0
 40
0.0086237017403964
 40
0.0173263818478542
 40
0.0261080407292334
 40
0.0349686787776979
 40
0.0439082963731721
 40
0.0529268938827804
 40
0.0620244716612675
 40
0.0712010300513987
 40
0.0804565693843455
 40
0.0897910899800533
 40
0.0992045921475942
 40
0.1086970761855051
 40
0.1182685423821122
 40
0.1279189910158412
 40
0.1376484223555159
 40
0.1474568366606447
 40
0.1573442341816956
 40
0.1673106151603592
 40
0.1773559798298028
 40
0.1874803284149148
 40
0.1976836611325378
 40
0.2079659781916946
 40
0.2183272797938044
 40
0.2287675661328916
 40
0.2392868373957865
 40
0.2498850937623181
 40
0.3263975126510765
 40
0.3936323437327601
 40
0.4515814455770019
 40
0.5002380206124446
 40
0.5489806392225998
 40
0.6068395286780859
 40
0.6738081708860094
 40
0.74987877322728
 40
0.7691186478127403
 40
0.78814712316009
 40
0.8069641999000254
 40
0.8255698787404375
 40
0.8439641604693304
 40
0.8621470459579134
 40
0.8801185361638704
 40
0.8978786321348258
 40
0.9154273350120186
 40
0.9327646460342012
 40
0.949890566541777
 40
0.9668050979812006
 40
0.9835082419096487
 40
0.9999999999999999
 40
0.9999999999999999
 40
0.9999999999999999
 40
0.9999999999999999
 10
21.00706387305944
 20
7.216506409514968
 30
0.0
 10
21.07102359263204
 20
7.301423888031226
 30
0.0
 10
21.19952879347932
 20
7.472036544013696
 30
0.0
 10
21.38144557904113
 20
7.732125310792155
 30
0.0
 10
21.55615882193617
 20
7.996668829154244
 30
0.0
 10
21.72249111714042
 20
8.265832399931728
 30
0.0
 10
21.88033147435507
 20
8.539488312926515
 30
0.0
 10
22.02927698000512
 20
8.817579553613022
 30
0.0
 10
22.16900214610343
 20
9.100020812853812
 30
0.0
 10
22.29915909403168
 20
9.386725156077052
 30
0.0
 10
22.419405157552
 20
9.677596576575104
 30
0.0
 10
22.52939591411177
 20
9.972531817504695
 30
0.0
 10
22.62878762502969
 20
10.27141968434721
 30
0.0
 10
22.71723714533978
 20
10.57414104591227
 30
0.0
 10
22.7944025441138
 20
10.88056865648926
 30
0.0
 10
22.85994355571448
 20
11.19056703526149
 30
0.0
 10
22.91352210059163
 20
11.50399233964812
 30
0.0
 10
22.95480281099508
 20
11.82069225041935
 30
0.0
 10
22.983453578263
 20
12.14050586479471
 30
0.0
 10
22.99914611979733
 20
12.46326359820288
 30
0.0
 10
23.00155655535475
 20
12.78878709953722
 30
0.0
 10
22.99036603534081
 20
13.11688916341201
 30
0.0
 10
22.96526125742862
 20
13.44737370506388
 30
0.0
 10
22.92593548837536
 20
13.78003555301301
 30
0.0
 10
22.8720877601561
 20
14.11466098720268
 30
0.0
 10
22.80342903802003
 20
14.45102552341359
 30
0.0
 10
22.71966214816035
 20
14.7889021562542
 30
0.0
 10
22.41535873135515
 20
15.830238604611
 30
0.0
 10
21.63743162289405
 20
17.44785099777297
 30
0.0
 10
20.01731887996815
 20
19.41833710322367
 30
0.0
 10
18.20194929742095
 20
20.96917929976377
 30
0.0
 10
16.29055408987018
 20
22.21477830178387
 30
0.0
 10
14.14222735467959
 20
23.30992055561817
 30
0.0
 10
11.48430691850802
 20
24.33909501214891
 30
0.0
 10
8.126231306658735
 20
25.24428657876317
 30
0.0
 10
5.223659368800818
 20
25.69156512183315
 30
0.0
 10
3.139249884957304
 20
25.86711604141585
 30
0.0
 10
2.091696193979592
 20
25.92742402211697
 30
0.0
 10
1.051536224439705
 20
25.9599700260902
 30
0.0
 10
0.0209273385474336
 20
25.96564673586828
 30
0.0
 10
-0.9980019534980532
 20
25.94531914247872
 30
0.0
 10
-2.003291364718844
 20
25.89991406976926
 30
0.0
 10
-2.993112823974378
 20
25.83039020441997
 30
0.0
 10
-3.965775903407751
 20
25.73773478686713
 30
0.0
 10
-4.919736278006541
 20
25.62297223498954
 30
0.0
 10
-5.853549009370743
 20
25.48710150537827
 30
0.0
 10
-6.766032659568403
 20
25.33130329392985
 30
0.0
 10
-7.655655930553634
 20
25.15615772398209
 30
0.0
 10
-8.522771224796276
 20
24.96448856234058
 30
0.0
 10
-9.08545346275437
 20
24.82120164525737
 30
0.0
 10
-9.36500299553766
 20
24.75001441377495
 30
0.0
  0
SPLINE
  5
F9
330
D8
100
AcDbEntity
  8
0
  6
Continuous
 62
     7
370
    25
100
AcDbSpline
210
0.0
220
0.0
230
1.0
 70
     8
 71
     3
 72
    14
 73
    10
 74
     0
 42
0.000000001
 43
0.00000001
 40
0.0
 40
0.0
 40
0.0
 40
0.0
 40
0.25
 40
0.25
 40
0.5
 40
0.5
 40
0.75
 40
0.75
 40
1.0
 40
1.0
 40
1.0
 40
1.0
 10
-9.365003258850335
 20
24.74988608089702
 30
0.0
 10
-10.64657523282106
 20
24.42006532418793
 30
0.0
 10
-11.87569555098477
 20
24.02235994996392
 30
0.0
 10
-14.18806762240996
 20
23.10443505516316
 30
0.0
 10
-15.27127620296196
 20
22.58423267252882
 30
0.0
 10
-17.25563628114986
 20
21.43868581851613
 30
0.0
 10
-18.15675073016273
 20
20.81336273485333
 30
0.0
 10
-19.74681527625303
 20
19.47845859541926
 30
0.0
 10
-20.43573568632829
 20
18.76890246272325
 30
0.0
 10
-21.00706374666718
 20
18.02906663594509
 30
0.0
  0
LWPOLYLINE
  5
FA
330
D8
100
AcDbEntity
  8
0
  6
Continuous
 62
     7
370
    25
100
AcDbPolyline
 90
       16
 70
   128
 43
0.0
 10
16.2634559673
 20
9.388693286
 10
14.096862234
 20
10.4913759236
 10
11.7079525623
 20
11.4286032957
 10
9.1344014846
 20
12.1855947667
 10
6.4167954389
 20
12.7504121289
 10
3.5979926959
 20
13.1141478751
 10
0.7224474588
 20
13.2710656753
 10
-2.1644912063
 20
13.2186908421
 10
-5.0172945521
 20
12.9578493578
 10
-7.7909721656
 20
12.4926548485
 10
-10.441781494
 20
11.8304437094
 10
-12.9279176906
 20
10.981659406
 10
-15.2101729024
 20
9.9596877735
 10
-17.2525546015
 20
8.7806459153
 10
-19.0228532083
 20
7.4631280256
 10
-20.1990119046
 20
6.3501626833
  0
SPLINE
  5
FC
330
D8
100
AcDbEntity
  8
0
  6
Continuous
 62
     7
370
    25
100
AcDbSpline
210
0.0
220
0.0
230
1.0
 70
     8
 71
     3
 72
     8
 73
     4
 74
     0
 42
0.000000001
 43
0.00000001
 40
0.0
 40
0.0
 40
0.0
 40
0.0
 40
1.0
 40
1.0
 40
1.0
 40
1.0
 10
-13.15265640537736
 20
37.47818514816275
 30
0.0
 10
-11.88583417795341
 20
33.23664073494585
 30
0.0
 10
-10.62334788430435
 20
28.99395801115089
 30
0.0
 10
-9.365201641045557
 20
24.75014297398487
 30
0.0
  0
LINE
  5
FD
330
D8
100
AcDbEntity
  8
0
  6
Continuous
 62
     7
370
    25
100
AcDbLine
 10
190.9188309204
 20
-148.9759023988
 30
0.0
 11
190.9188309204
 21
-263.2916160628
 31
0.0
  0
LINE
  5
FE
330
D8
100
AcDbEntity
  8
0
  6
Continuous
 62
     7
370
    25
100
AcDbLine
 10
190.9188309204
 20
-148.9759023988
 30
0.0
 11
456.0838738653
 21
4.1006185679
 31
0.0
  0
LINE
  5
FF
330
D8
100
AcDbEntity
  8
0
  6
Continuous
 62
     7
370
    25
100
AcDbLine
 10
456.0838738653
 20
4.1006185679
 30
0.0
 11
456.0838738653
 21
-110.2150950961
 31
0.0
  0
LINE
  5
100
330
D8
100
AcDbEntity
  8
0
  6
Continuous
 62
     7
370
    25
100
AcDbLine
 10
190.9188309204
 20
-263.2916160628
 30
0.0
 11
456.0838738653
 21
-110.2150950961
 31
0.0
  0
LINE
  5
101
330
D8
100
AcDbEntity
  8
0
  6
Continuous
 62
     7
370
    25
100
AcDbLine
 10
-456.0838738653
 20
224.5308087601
 30
0.0
 11
-456.0838738653
 21
110.2150950961
 31
0.0
  0
LINE
  5
102
330
D8
100
AcDbEntity
  8
0
  6
Continuous
 62
     7
370
    25
100
AcDbLine
 10
-456.0838738653
 20
224.5308087601
 30
0.0
 11
190.9188309204
 21
-148.9759023988
 31
0.0
  0
LINE
  5
103
330
D8
100
AcDbEntity
  8
0
  6
Continuous
 62
     7
370
    25
100
AcDbLine
 10
-456.0838738653
 20
110.2150950961
 30
0.0
 11
190.9188309204
 21
-263.2916160628
 31
0.0
  0
LINE
  5
104
330
D8
100
AcDbEntity
  8
0
  6
Continuous
 62
     7
370
    25
100
AcDbLine
 10
-190.9188309204
 20
377.6073297268
 30
0.0
 11
-456.0838738653
 21
224.5308087601
 31
0.0
  0
LINE
  5
105
330
D8
100
AcDbEntity
  8
0
  6
Continuous
 62
     7
370
    25
100
AcDbLine
 10
456.0838738653
 20
4.1006185679
 30
0.0
 11
-190.9188309204
 21
377.6073297268
 31
0.0
  0
LINE
  5
106
330
D8
100
AcDbEntity
  8
0
  6
Continuous
 62
     7
370
    25
100
AcDbLine
 10
427.7996026179
 20
4.1006185679
 30
0.0
 11
-190.9188309204
 21
361.2791674904
 31
0.0
  0
LINE
  5
107
330
D8
100
AcDbEntity
  8
0
  6
Continuous
 62
     7
370
    25
100
AcDbLine
 10
-190.9188309204
 20
361.2791674904
 30
0.0
 11
-427.7996026179
 21
224.5308087601
 31
0.0
  0
LINE
  5
108
330
D8
100
AcDbEntity
  8
0
  6
Continuous
 62
     7
370
    25
100
AcDbLine
 10
-427.7996026179
 20
224.5308087601
 30
0.0
 11
190.9188309204
 21
-132.6477401624
 31
0.0
  0
LINE
  5
109
330
D8
100
AcDbEntity
  8
0
  6
Continuous
 62
     7
370
    25
100
AcDbLine
 10
190.9188309204
 20
-132.6477401624
 30
0.0
 11
427.7996026179
 21
4.1006185679
 31
0.0
  0
LINE
  5
10A
330
D8
100
AcDbEntity
  8
0
  6
Continuous
 62
     7
370
    25
100
AcDbLine
 10
61.4541072258
 20
-57.909346025
 30
0.0
 11
13.1310719788
 21
3.5122997713
 31
0.0
  0
LINE
  5
10B
330
D8
100
AcDbEntity
  8
0
  6
Continuous
 62
     7
370
    25
100
AcDbLine
 10
318.9121850918
 20
-58.7587495706
 30
0.0
 11
29.4227425201
 21
12.917763898
 31
0.0
  0
LINE
  5
10C
330
D8
100
AcDbEntity
  8
0
  6
Continuous
 62
     7
370
    25
100
AcDbLine
 10
-137.7027217468
 20
57.0614441188
 30
0.0
 11
-29.4227425691
 21
28.078275258
 31
0.0
  0
LINE
  5
10D
330
D8
100
AcDbEntity
  8
0
  6
Continuous
 62
     7
370
    25
100
AcDbLine
 10
350.0052139386
 20
-40.8091260858
 30
0.0
 11
-190.9188309204
 21
271.4596781829
 31
0.0
  0
LINE
  5
10E
330
D8
100
AcDbEntity
  8
0
  6
Continuous
 62
     7
370
    25
100
AcDbLine
 10
-13.131071979
 20
37.4837511228
 30
0.0
 11
-190.9188309204
 21
271.4596781829
 31
0.0
  0
LINE
  5
10F
330
D8
100
AcDbEntity
  8
0
  6
Continuous
 62
     7
370
    25
100
AcDbLine
 10
-190.9188309204
 20
271.4596781829
 30
0.0
 11
-190.9188309204
 21
361.2791674904
 31
0.0
  0
LINE
  5
110
330
D8
100
AcDbEntity
  8
0
  6
Continuous
 62
     7
370
    25
100
AcDbLine
 10
-190.9188309204
 20
271.4596781829
 30
0.0
 11
-350.0052139386
 21
179.6210641064
 31
0.0
  0
LINE
  5
111
330
D8
100
AcDbEntity
  8
0
  6
Continuous
 62
     7
370
    25
100
AcDbLine
 10
19.7127317376
 20
5.8833630373
 30
0.0
 11
21.0070638342
 21
7.2164649585
 31
0.0
  0
ARC
  5
112
330
D8
100
AcDbEntity
  8
0
  6
Continuous
 62
     7
370
    25
100
AcDbCircle
 10
8.0863394107
 20
-5.2687564602
 30
0.0
 40
16.78410165126978
100
AcDbArc
 50
43.6892412243
 51
60.8436709295
  0
VIEWPORT
  5
175
330
D8
100
AcDbEntity
  8
0
100
AcDbViewport
 10
0.0
 20
0.0
 30
0.0
 40
205.6
 41
156.0
 68
     1
 69
     1
 12
0.0
 22
0.0
 13
0.0
 23
0.0
 14
10.0
 24
10.0
 15
10.0
 25
10.0
 16
0.0
 26
0.0
 36
1.0
 17
0.0
 27
0.0
 37
0.0
 42
50.0
 43
0.0
 44
0.0
 45
708.1459143969
 50
0.0
 51
0.0
 72
   100
 90
   557152
  1

281
     0
 71
     1
 74
     0
110
0.0
120
0.0
130
0.0
111
1.0
121
0.0
131
0.0
112
0.0
122
1.0
132
0.0
 79
     0
146
0.0
170
     0
 61
     5
348
2F
292
     1
282
     1
141
0.0
142
0.0
 63
   256
361
176
  0
ENDBLK
  5
DB
330
D8
100
AcDbEntity
  8
0
100
AcDbBlockEnd
  0
BLOCK
  5
115
330
113
100
AcDbEntity
  8
0
100
AcDbBlockBegin
  2
*Paper_Space6
 70
     0
 10
0.0
 20
0.0
 30
0.0
  3
*Paper_Space6
  1

  0
SPLINE
  5
124
330
113
100
AcDbEntity
  8
0
  6
Continuous
 62
     7
370
    25
100
AcDbSpline
210
0.0
220
0.0
230
1.0
 70
     8
 71
     3
 72
     9
 73
     5
 74
     0
 42
0.000000001
 43
0.00000001
 40
0.0
 40
0.0
 40
0.0
 40
0.0
 40
0.5802715283313385
 40
1.0
 40
1.0
 40
1.0
 40
1.0
 10
31.98291056412551
 20
19.507461266984
 30
0.0
 10
31.66620031464895
 20
18.51047802224918
 30
0.0
 10
31.12040367632808
 20
16.79234574096735
 30
0.0
 10
29.7030068576473
 20
15.21248822113478
 30
0.0
 10
29.10808505719441
 20
14.54937703888122
 30
0.0
  0
SPLINE
  5
127
330
113
100
AcDbEntity
  8
0
  6
Continuous
 62
     7
370
    25
100
AcDbSpline
210
0.0
220
0.0
230
1.0
 70
     8
 71
     3
 72
    57
 73
    53
 74
     0
 42
0.000000001
 43
0.00000001
 40
0.0
 40
0.0
 40
0.0
 40
0.0
 40
0.0077242827088297
 40
0.0154784610354374
 40
0.0232583544522426
 40
0.0310602335354956
 40
0.0388807687191582
 40
0.0467168964517457
 40
0.0545647475347934
 40
0.062420061237653
 40
0.0702789595228668
 40
0.0781379110741417
 40
0.0859936811440107
 40
0.0938430773121162
 40
0.101681983965983
 40
0.1095061848563631
 40
0.1173117482068216
 40
0.1250949837990716
 40
0.15354547595155
 40
0.1836692342660252
 40
0.2156955696961484
 40
0.2498746977509066
 40
0.2717796470951083
 40
0.3120874844997076
 40
0.3359260412587149
 40
0.3569535372937732
 40
0.3747625891508502
 40
0.4072036087136944
 40
0.4372262503588439
 40
0.4686048666814009
 40
0.4998282084629611
 40
0.5599819261505088
 40
0.6255073589012726
 40
0.6527464109397517
 40
0.6877931543413913
 40
0.7160408089248187
 40
0.736624231590201
 40
0.750383015754811
 40
0.7781761098206356
 40
0.8043928336802025
 40
0.8291870088827001
 40
0.8527080704290229
 40
0.8750841200905368
 40
0.8889533936557799
 40
0.9028728152567813
 40
0.9168208978587338
 40
0.9307765699681921
 40
0.9447222008926729
 40
0.9586377668834422
 40
0.972501494790785
 40
0.9862955325693168
 40
1.0
 40
1.0
 40
1.0
 40
1.0
 10
-21.23608485028065
 20
33.99825395067214
 30
0.0
 10
-21.08509167451639
 20
34.06578145798013
 30
0.0
 10
-20.78252092771913
 20
34.20109782716119
 30
0.0
 10
-20.3189044012242
 20
34.39903664875881
 30
0.0
 10
-19.84720194707713
 20
34.59349577475434
 30
0.0
 10
-19.3670219430647
 20
34.78384661610622
 30
0.0
 10
-18.87881289985854
 20
34.96996877354753
 30
0.0
 10
-18.38284181405034
 20
35.15163057693
 30
0.0
 10
-17.87947827831939
 20
35.32863989586205
 30
0.0
 10
-17.36913569532743
 20
35.50081753800173
 30
0.0
 10
-16.85224954554204
 20
35.66800749586578
 30
0.0
 10
-16.32925720775235
 20
35.83008125144105
 30
0.0
 10
-15.80060488991769
 20
35.98693767131648
 30
0.0
 10
-15.26676502783516
 20
36.13848690219337
 30
0.0
 10
-14.72825766548296
 20
36.28466351170943
 30
0.0
 10
-14.18564287160317
 20
36.42542621760416
 30
0.0
 10
-13.63946519103983
 20
36.56075331702902
 30
0.0
 10
-12.60354686600714
 20
36.80577991452542
 30
0.0
 10
-11.01342868415445
 20
37.1418872892499
 30
0.0
 10
-8.785171207811397
 20
37.51954419935905
 30
0.0
 10
-6.364542377279847
 20
37.82611730347739
 30
0.0
 10
-4.115946889909072
 20
38.01429584991206
 30
0.0
 10
-1.64015408167993
 20
38.14444952068023
 30
0.0
 10
0.5825399243144825
 20
38.16582095181348
 30
0.0
 10
2.7739706737335
 20
38.10181556236221
 30
0.0
 10
4.378517756157533
 20
38.00990701140434
 30
0.0
 10
6.191434848877551
 20
37.86352573987803
 30
0.0
 10
8.210159334792635
 20
37.63266080350211
 30
0.0
 10
10.52369109637831
 20
37.27262361475876
 30
0.0
 10
12.74747765727821
 20
36.82603926798087
 30
0.0
 10
15.60376113580386
 20
36.12333859522023
 30
0.0
 10
19.04082038879704
 20
35.00610610425309
 30
0.0
 10
22.0649768095595
 20
33.67568075189675
 30
0.0
 10
24.31750537062557
 20
32.41911216388947
 30
0.0
 10
25.78862501580697
 20
31.47079443266607
 30
0.0
 10
27.02134071388414
 20
30.54155075488461
 30
0.0
 10
27.85985340238294
 20
29.82084491236968
 30
0.0
 10
28.63062701772044
 20
29.08719821141966
 30
0.0
 10
29.40372426798446
 20
28.26856215934648
 30
0.0
 10
30.18040249528658
 20
27.28839778548211
 30
0.0
 10
30.80064754786722
 20
26.33967372651502
 30
0.0
 10
31.28329743195965
 20
25.42370135975522
 30
0.0
 10
31.60845890975612
 20
24.63942722273917
 30
0.0
 10
31.82922735931541
 20
23.97656509233525
 30
0.0
 10
31.97761633846428
 20
23.42244258400861
 30
0.0
 10
32.09021772980587
 20
22.86514072594556
 30
0.0
 10
32.16603116267101
 20
22.3060445239246
 30
0.0
 10
32.20459119659692
 20
21.74658970377176
 30
0.0
 10
32.20611761701883
 20
21.18821281091013
 30
0.0
 10
32.17028023679844
 20
20.63241660232918
 30
0.0
 10
32.10114650634436
 20
20.08041187282929
 30
0.0
 10
32.02593528657719
 20
19.71495668117901
 30
0.0
 10
31.98845216871754
 20
19.53282428040885
 30
0.0
  0
SPLINE
  5
129
330
113
100
AcDbEntity
  8
0
  6
Continuous
 62
     7
370
    25
100
AcDbSpline
210
0.0
220
0.0
230
1.0
 70
     8
 71
     3
 72
     9
 73
     5
 74
     0
 42
0.000000001
 43
0.00000001
 40
0.0
 40
0.0
 40
0.0
 40
0.0
 40
0.4222908858903055
 40
1.0
 40
1.0
 40
1.0
 40
1.0
 10
-27.60826590083427
 20
29.96366594487693
 30
0.0
 10
-26.87288751431479
 20
30.59568074703374
 30
0.0
 10
-25.13148505669579
 20
32.09231452075192
 30
0.0
 10
-22.67374222275891
 20
33.295262767478
 30
0.0
 10
-21.25388178745578
 20
33.99021693341394
 30
0.0
  0
SPLINE
  5
12C
330
113
100
AcDbEntity
  8
0
  6
Continuous
 62
     7
370
    25
100
AcDbSpline
210
0.0
220
0.0
230
1.0
 70
     8
 71
     3
 72
    21
 73
    17
 74
     0
 42
0.000000001
 43
0.00000001
 40
0.0
 40
0.0
 40
0.0
 40
0.0
 40
0.0321191730423202
 40
0.0812526329828932
 40
0.1316156437898693
 40
0.2444634825227247
 40
0.3436278467570827
 40
0.4290967287321841
 40
0.5008601027391645
 40
0.5727503820457573
 40
0.6580862101552789
 40
0.7224787772727551
 40
0.7928509069902083
 40
0.8692010270161041
 40
0.9670599050382981
 40
1.0
 40
1.0
 40
1.0
 40
1.0
 10
22.16812228759276
 20
16.43551021424467
 30
0.0
 10
22.06189170511218
 20
16.63850325550246
 30
0.0
 10
21.79315768389438
 20
17.15201956109567
 30
0.0
 10
21.19805056872075
 20
17.95911283052125
 30
0.0
 10
20.06791720520368
 20
19.22313317274581
 30
0.0
 10
18.26894009843694
 20
20.6806304743398
 30
0.0
 10
15.72631827308056
 20
22.1188325163964
 30
0.0
 10
13.20615208232469
 20
23.16751940407599
 30
0.0
 10
10.74579774280769
 20
23.93965968870172
 30
0.0
 10
8.129997722679692
 20
24.54501138958551
 30
0.0
 10
5.468397067782739
 20
24.95205068994356
 30
0.0
 10
2.751289510811688
 20
25.18116125575539
 30
0.0
 10
0.1065011965649364
 20
25.25218100689299
 30
0.0
 10
-2.950516616109223
 20
25.12790695174601
 30
0.0
 10
-5.533161035533108
 20
24.88241595226383
 30
0.0
 10
-7.060520437693678
 20
24.56396547545055
 30
0.0
 10
-7.445166911592301
 20
24.48376768255105
 30
0.0
  0
LINE
  5
12F
330
113
100
AcDbEntity
  8
0
  6
Continuous
 62
     7
370
    25
100
AcDbLine
 10
317.115905243
 20
-75.3719134954
 30
0.0
 11
317.115905243
 21
-195.3753355937
 31
0.0
  0
LINE
  5
130
330
113
100
AcDbEntity
  8
0
  6
Continuous
 62
     7
370
    25
100
AcDbLine
 10
317.115905243
 20
-75.3719134954
 30
0.0
 11
492.1266760918
 21
95.4439640562
 31
0.0
  0
LINE
  5
131
330
113
100
AcDbEntity
  8
0
  6
Continuous
 62
     7
370
    25
100
AcDbLine
 10
492.1266760918
 20
95.4439640562
 30
0.0
 11
492.1266760918
 21
-24.5594580421
 31
0.0
  0
LINE
  5
132
330
113
100
AcDbEntity
  8
0
  6
Continuous
 62
     7
370
    25
100
AcDbLine
 10
317.115905243
 20
-195.3753355937
 30
0.0
 11
492.1266760918
 21
-24.5594580421
 31
0.0
  0
LINE
  5
133
330
113
100
AcDbEntity
  8
0
  6
Continuous
 62
     7
370
    25
100
AcDbLine
 10
-492.1266760918
 20
144.5628801404
 30
0.0
 11
-492.1266760918
 21
24.5594580421
 31
0.0
  0
LINE
  5
134
330
113
100
AcDbEntity
  8
0
  6
Continuous
 62
     7
370
    25
100
AcDbLine
 10
-492.1266760918
 20
144.5628801404
 30
0.0
 11
317.115905243
 21
-75.3719134954
 31
0.0
  0
LINE
  5
135
330
113
100
AcDbEntity
  8
0
  6
Continuous
 62
     7
370
    25
100
AcDbLine
 10
-492.1266760918
 20
24.5594580421
 30
0.0
 11
317.115905243
 21
-195.3753355937
 31
0.0
  0
LINE
  5
136
330
113
100
AcDbEntity
  8
0
  6
Continuous
 62
     7
370
    25
100
AcDbLine
 10
-317.115905243
 20
315.378757692
 30
0.0
 11
-492.1266760918
 21
144.5628801404
 31
0.0
  0
LINE
  5
137
330
113
100
AcDbEntity
  8
0
  6
Continuous
 62
     7
370
    25
100
AcDbLine
 10
492.1266760918
 20
95.4439640562
 30
0.0
 11
-317.115905243
 21
315.378757692
 31
0.0
  0
LINE
  5
138
330
113
100
AcDbEntity
  8
0
  6
Continuous
 62
     7
370
    25
100
AcDbLine
 10
465.1044058797
 20
91.1411018138
 30
0.0
 11
-308.7614505881
 21
301.4612596622
 31
0.0
  0
LINE
  5
139
330
113
100
AcDbEntity
  8
0
  6
Continuous
 62
     7
370
    25
100
AcDbLine
 10
-308.7614505881
 20
301.4612596622
 30
0.0
 11
-465.1044058797
 21
148.8657423828
 31
0.0
  0
LINE
  5
13A
330
113
100
AcDbEntity
  8
0
  6
Continuous
 62
     7
370
    25
100
AcDbLine
 10
-465.1044058797
 20
148.8657423828
 30
0.0
 11
308.7614505881
 21
-61.4544154656
 31
0.0
  0
LINE
  5
13B
330
113
100
AcDbEntity
  8
0
  6
Continuous
 62
     7
370
    25
100
AcDbLine
 10
308.7614505881
 20
-61.4544154656
 30
0.0
 11
465.1044058797
 21
91.1411018138
 31
0.0
  0
LINE
  5
13C
330
113
100
AcDbEntity
  8
0
  6
Continuous
 62
     7
370
    25
100
AcDbLine
 10
373.4194588824
 20
1.6537828125
 30
0.0
 11
31.9884522926
 21
19.5328242739
 31
0.0
  0
LINE
  5
13D
330
113
100
AcDbEntity
  8
0
  6
Continuous
 62
     7
370
    25
100
AcDbLine
 10
389.5412501622
 20
17.389145338
 30
0.0
 11
-308.7614505881
 21
207.172856585
 31
0.0
  0
LINE
  5
13E
330
113
100
AcDbEntity
  8
0
  6
Continuous
 62
     7
370
    25
100
AcDbLine
 10
-21.2360866262
 20
33.9982531412
 30
0.0
 11
-308.7614505881
 21
207.172856585
 31
0.0
  0
LINE
  5
13F
330
113
100
AcDbEntity
  8
0
  6
Continuous
 62
     7
370
    25
100
AcDbLine
 10
-308.7614505881
 20
207.172856585
 30
0.0
 11
-389.5412501622
 21
128.3292957814
 31
0.0
  0
LINE
  5
140
330
113
100
AcDbEntity
  8
0
  6
Continuous
 62
     7
370
    25
100
AcDbLine
 10
-308.7614505881
 20
207.172856585
 30
0.0
 11
-308.7614505881
 21
301.4612596622
 31
0.0
  0
LINE
  5
141
330
113
100
AcDbEntity
  8
0
  6
Continuous
 62
    60
370
    25
100
AcDbLine
 10
31.9829105641
 20
19.507461267
 30
0.0
 11
26.813341956
 21
15.1730390434
 31
0.0
  0
LINE
  5
142
330
113
100
AcDbEntity
  8
0
  6
Continuous
 62
    60
370
    25
100
AcDbLine
 10
-17.8017199336
 20
27.2984568798
 30
0.0
 11
-21.2538817875
 21
33.9902169334
 31
0.0
  0
VIEWPORT
  5
177
330
113
100
AcDbEntity
  8
0
100
AcDbViewport
 10
0.0
 20
0.0
 30
0.0
 40
205.6
 41
156.0
 68
     1
 69
     1
 12
0.0
 22
0.0
 13
0.0
 23
0.0
 14
10.0
 24
10.0
 15
10.0
 25
10.0
 16
0.0
 26
0.0
 36
1.0
 17
0.0
 27
0.0
 37
0.0
 42
50.0
 43
0.0
 44
0.0
 45
708.1459143969
 50
0.0
 51
0.0
 72
   100
 90
   557152
  1

281
     0
 71
     1
 74
     0
110
0.0
120
0.0
130
0.0
111
1.0
121
0.0
131
0.0
112
0.0
122
1.0
132
0.0
 79
     0
146
0.0
170
     0
 61
     5
348
2F
292
     1
282
     1
141
0.0
142
0.0
 63
   256
361
178
  0
ENDBLK
  5
116
330
113
100
AcDbEntity
  8
0
100
AcDbBlockEnd
  0
BLOCK
  5
145
330
143
100
AcDbEntity
  8
0
100
AcDbBlockBegin
  2
*Paper_Space7
 70
     0
 10
0.0
 20
0.0
 30
0.0
  3
*Paper_Space7
  1

  0
LINE
  5
158
330
143
100
AcDbEntity
  8
0
  6
Continuous
 62
     7
370
    25
100
AcDbLine
 10
361.6608029053
 20
19.6129771288
 30
0.0
 11
361.6608029053
 21
-112.3802886966
 31
0.0
  0
LINE
  5
159
330
143
100
AcDbEntity
  8
0
  6
Continuous
 62
     7
370
    25
100
AcDbLine
 10
361.6608029053
 20
19.6129771288
 30
0.0
 11
494.2433243473
 21
136.5397704415
 31
0.0
  0
LINE
  5
15A
330
143
100
AcDbEntity
  8
0
  6
Continuous
 62
     7
370
    25
100
AcDbLine
 10
494.2433243473
 20
136.5397704415
 30
0.0
 11
494.2433243473
 21
4.5465046161
 31
0.0
  0
LINE
  5
15B
330
143
100
AcDbEntity
  8
0
  6
Continuous
 62
     7
370
    25
100
AcDbLine
 10
361.6608029053
 20
-112.3802886966
 30
0.0
 11
494.2433243473
 21
4.5465046161
 31
0.0
  0
LINE
  5
15C
330
143
100
AcDbEntity
  8
0
  6
Continuous
 62
     7
370
    25
100
AcDbLine
 10
-494.2433243473
 20
127.4467612093
 30
0.0
 11
-494.2433243473
 21
-4.5465046161
 31
0.0
  0
LINE
  5
15D
330
143
100
AcDbEntity
  8
0
  6
Continuous
 62
     7
370
    25
100
AcDbLine
 10
-494.2433243473
 20
127.4467612093
 30
0.0
 11
361.6608029053
 21
19.6129771288
 31
0.0
  0
LINE
  5
15E
330
143
100
AcDbEntity
  8
0
  6
Continuous
 62
     7
370
    25
100
AcDbLine
 10
-494.2433243473
 20
-4.5465046161
 30
0.0
 11
361.6608029053
 21
-112.3802886966
 31
0.0
  0
LINE
  5
15F
330
143
100
AcDbEntity
  8
0
  6
Continuous
 62
     7
370
    25
100
AcDbLine
 10
-361.6608029053
 20
244.373554522
 30
0.0
 11
-494.2433243473
 21
127.4467612093
 31
0.0
  0
LINE
  5
160
330
143
100
AcDbEntity
  8
0
  6
Continuous
 62
     7
370
    25
100
AcDbLine
 10
494.2433243473
 20
136.5397704415
 30
0.0
 11
-361.6608029053
 21
244.373554522
 31
0.0
  0
LINE
  5
161
330
143
100
AcDbEntity
  8
0
  6
Continuous
 62
     7
370
    25
100
AcDbLine
 10
468.4639696026
 20
132.660697401
 30
0.0
 11
-350.023583781
 21
235.7804362758
 31
0.0
  0
LINE
  5
162
330
143
100
AcDbEntity
  8
0
  6
Continuous
 62
     7
370
    25
100
AcDbLine
 10
-350.023583781
 20
235.7804362758
 30
0.0
 11
-468.4639696026
 21
131.3258342498
 31
0.0
  0
LINE
  5
163
330
143
100
AcDbEntity
  8
0
  6
Continuous
 62
     7
370
    25
100
AcDbLine
 10
-468.4639696026
 20
131.3258342498
 30
0.0
 11
350.023583781
 21
28.206095375
 31
0.0
  0
LINE
  5
164
330
143
100
AcDbEntity
  8
0
  6
Continuous
 62
     7
370
    25
100
AcDbLine
 10
350.023583781
 20
28.206095375
 30
0.0
 11
468.4639696026
 21
132.660697401
 31
0.0
  0
LINE
  5
165
330
143
100
AcDbEntity
  8
0
  6
Continuous
 62
     7
370
    25
100
AcDbLine
 10
-265.1910985696
 20
105.715859737
 30
0.0
 11
-350.023583781
 21
132.0714416987
 31
0.0
  0
LINE
  5
166
330
143
100
AcDbEntity
  8
0
  6
Continuous
 62
     7
370
    25
100
AcDbLine
 10
-350.023583781
 20
132.0714416987
 30
0.0
 11
-365.568391459
 21
118.3622099336
 31
0.0
  0
LINE
  5
167
330
143
100
AcDbEntity
  8
0
  6
Continuous
 62
     7
370
    25
100
AcDbLine
 10
365.568391459
 20
41.9153271401
 30
0.0
 11
-350.023583781
 21
132.0714416987
 31
0.0
  0
LINE
  5
168
330
143
100
AcDbEntity
  8
0
  6
Continuous
 62
     7
370
    25
100
AcDbLine
 10
-350.023583781
 20
132.0714416987
 30
0.0
 11
-350.023583781
 21
235.7804362758
 31
0.0
  0
VIEWPORT
  5
179
330
143
100
AcDbEntity
  8
0
100
AcDbViewport
 10
0.0
 20
0.0
 30
0.0
 40
205.6
 41
156.0
 68
     1
 69
     1
 12
0.0
 22
0.0
 13
0.0
 23
0.0
 14
10.0
 24
10.0
 15
10.0
 25
10.0
 16
0.0
 26
0.0
 36
1.0
 17
0.0
 27
0.0
 37
0.0
 42
50.0
 43
0.0
 44
0.0
 45
708.1459143969
 50
0.0
 51
0.0
 72
   100
 90
   557152
  1

281
     0
 71
     1
 74
     0
110
0.0
120
0.0
130
0.0
111
1.0
121
0.0
131
0.0
112
0.0
122
1.0
132
0.0
 79
     0
146
0.0
170
     0
 61
     5
348
2F
292
     1
282
     1
141
0.0
142
0.0
 63
   256
361
17A
  0
ENDBLK
  5
146
330
143
100
AcDbEntity
  8
0
100
AcDbBlockEnd
  0
ENDSEC
  0
SECTION
  2
ENTITIES
  0
SPLINE
  5
7C
330
1F
100
AcDbEntity
  8
0
  6
Continuous
 62
     7
370
    25
100
AcDbSpline
210
0.0
220
0.0
230
1.0
 70
     8
 71
     3
 72
    57
 73
    53
 74
     0
 42
0.000000001
 43
0.00000001
 40
0.0
 40
0.0
 40
0.0
 40
0.0
 40
0.0077242832564841
 40
0.0154784621392153
 40
0.0232583561200195
 40
0.0310602357746849
 40
0.0388807715368256
 40
0.0467168998545343
 40
0.0545647515283778
 40
0.062420065827236
 40
0.070278964713327
 40
0.0781379168701161
 40
0.0859936875499607
 40
0.0938430843317596
 40
0.1016819916018407
 40
0.1095061931106526
 40
0.1173117570815134
 40
0.1250949932959258
 40
0.1535454866700451
 40
0.183669246876865
 40
0.2156955850224395
 40
0.2498747167781597
 40
0.2717796570402848
 40
0.3120875083479464
 40
0.3359260562797412
 40
0.3569535534876379
 40
0.374762617580444
 40
0.4072036466774477
 40
0.4372262795136835
 40
0.4686049017045042
 40
0.4998282473439578
 40
0.5599819606340474
 40
0.6255073577372496
 40
0.6527463534884183
 40
0.6877932147708112
 40
0.716040877604354
 40
0.7366242719198264
 40
0.7503829946697285
 40
0.7781760874112984
 40
0.804392810745551
 40
0.8291869860745983
 40
0.8527080482710755
 40
0.8750840990179927
 40
0.8889533777683598
 40
0.9028728037056754
 40
0.9168208898611643
 40
0.9307765647999202
 40
0.944722197888431
 40
0.9586377654323965
 40
0.9725014943300613
 40
0.9862955325795375
 40
1.0
 40
1.0
 40
1.0
 40
1.0
 10
30.09050391643022
 20
-11.52036688502752
 30
0.0
 10
30.01754918982037
 20
-11.70564984743283
 30
0.0
 10
29.87135737677944
 20
-12.07693288087478
 30
0.0
 10
29.63879910403022
 20
-12.62962274167064
 30
0.0
 10
29.39587646500409
 20
-13.17999737852995
 30
0.0
 10
29.14166836605048
 20
-13.72715039803274
 30
0.0
 10
28.87646376078929
 20
-14.27066835084247
 30
0.0
 10
28.6002886697106
 20
-14.81002844707317
 30
0.0
 10
28.31329590498836
 20
-15.34472834004171
 30
0.0
 10
28.01568856667058
 20
-15.87426710909311
 30
0.0
 10
27.70771045826666
 20
-16.39817366262453
 30
0.0
 10
27.38963195220428
 20
-16.91602319128128
 30
0.0
 10
27.06175605985964
 20
-17.42743382011153
 30
0.0
 10
26.72441940056664
 20
-17.93203116435292
 30
0.0
 10
26.37802244896038
 20
-18.42945983785004
 30
0.0
 10
26.02302309263215
 20
-18.91938749374827
 30
0.0
 10
25.65988322535329
 20
-19.40152264061784
 30
0.0
 10
24.96048352101242
 20
-20.29580321476081
 30
0.0
 10
23.85032386942738
 20
-21.59916507895632
 30
0.0
 10
22.20952778364761
 20
-23.26429369358695
 30
0.0
 10
20.33269409720531
 20
-24.89431480049276
 30
0.0
 10
18.50147774296648
 20
-26.24216292693951
 30
0.0
 10
16.41509862908619
 20
-27.59328305732089
 30
0.0
 10
14.45619119251501
 20
-28.64364841887651
 30
0.0
 10
12.44852226581608
 20
-29.53461955382545
 30
0.0
 10
10.93830425526145
 20
-30.11076198321961
 30
0.0
 10
9.194058416513638
 20
-30.68988712721171
 30
0.0
 10
7.191628688160251
 20
-31.22072516047298
 30
0.0
 10
4.812342825535811
 20
-31.66908693726193
 30
0.0
 10
2.436829473836524
 20
-31.93229815659835
 30
0.0
 10
-0.72804443843776
 20
-32.05488666485827
 30
0.0
 10
-4.775152817532519
 20
-31.75002428973191
 30
0.0
 10
-8.642501750968744
 20
-30.90107913049772
 30
0.0
 10
-11.75807535771388
 20
-29.82341525400488
 30
0.0
 10
-13.90637231363477
 20
-28.90446045159478
 30
0.0
 10
-15.82657854935357
 20
-27.9069185310212
 30
0.0
 10
-17.21191857997628
 20
-27.07830863334985
 30
0.0
 10
-18.54899175804688
 20
-26.19602151057325
 30
0.0
 10
-19.96451070032714
 20
-25.17005474530012
 30
0.0
 10
-21.52817768093795
 20
-23.87101236903077
 30
0.0
 10
-22.92600658013705
 20
-22.55105068134663
 30
0.0
 10
-24.17345832101021
 20
-21.22123482905281
 30
0.0
 10
-25.16422334989835
 20
-20.04040257467349
 30
0.0
 10
-25.95422677682245
 20
-19.01634097073978
 30
0.0
 10
-26.58289058877549
 20
-18.14293907259897
 30
0.0
 10
-27.18298765519573
 20
-17.24698998793159
 30
0.0
 10
-27.75237640808809
 20
-16.33040863244249
 30
0.0
 10
-28.2893460503126
 20
-15.39543979136004
 30
0.0
 10
-28.79278782157947
 20
-14.4446556012665
 30
0.0
 10
-29.26105146114544
 20
-13.48047593988149
 30
0.0
 10
-29.69662182188891
 20
-12.50690729330489
 30
0.0
 10
-29.95909625129208
 20
-11.84834434257966
 30
0.0
 10
-30.08990598726958
 20
-11.52013543512605
 30
0.0
  0
SPLINE
  5
7F
330
1F
100
AcDbEntity
  8
0
  6
Continuous
 62
     7
370
    25
100
AcDbSpline
210
0.0
220
0.0
230
1.0
 70
     8
 71
     3
 72
    57
 73
    53
 74
     0
 42
0.000000001
 43
0.00000001
 40
0.0
 40
0.0
 40
0.0
 40
0.0
 40
0.0077242827088297
 40
0.0154784610354374
 40
0.0232583544522426
 40
0.0310602335354956
 40
0.0388807687191582
 40
0.0467168964517457
 40
0.0545647475347934
 40
0.062420061237653
 40
0.0702789595228668
 40
0.0781379110741417
 40
0.0859936811440107
 40
0.0938430773121162
 40
0.101681983965983
 40
0.1095061848563631
 40
0.1173117482068216
 40
0.1250949837990716
 40
0.15354547595155
 40
0.1836692342660252
 40
0.2156955696961484
 40
0.2498746977509066
 40
0.2717796470951083
 40
0.3120874844997076
 40
0.3359260412587149
 40
0.3569535372937732
 40
0.3747625891508502
 40
0.4072036087136944
 40
0.4372262503588439
 40
0.4686048666814009
 40
0.4998282084629611
 40
0.5599819261505088
 40
0.6255073589012726
 40
0.6527464109397517
 40
0.6877931543413913
 40
0.7160408089248187
 40
0.736624231590201
 40
0.750383015754811
 40
0.7781761098206356
 40
0.8043928336802025
 40
0.8291870088827001
 40
0.8527080704290229
 40
0.8750841200905368
 40
0.8889533936557799
 40
0.9028728152567813
 40
0.9168208978587338
 40
0.9307765699681921
 40
0.9447222008926729
 40
0.9586377668834422
 40
0.972501494790785
 40
0.9862955325693168
 40
1.0
 40
1.0
 40
1.0
 40
1.0
 10
-30.09050391672771
 20
11.52036688514278
 30
0.0
 10
-30.01754919534419
 20
11.70564983449649
 30
0.0
 10
-29.8713573928361
 20
12.07693284163241
 30
0.0
 10
-29.63879913771663
 20
12.62962266338731
 30
0.0
 10
-29.39587651788847
 20
13.17999726124772
 30
0.0
 10
-29.1416684398661
 20
13.72715024194906
 30
0.0
 10
-28.87646385726494
 20
14.27066815624287
 30
0.0
 10
-28.6002887906032
 20
14.81002821436165
 30
0.0
 10
-28.31329605204769
 20
15.34472806973139
 30
0.0
 10
-28.01568874163222
 20
15.87426680180118
 30
0.0
 10
-27.70771066285014
 20
16.39817331905145
 30
0.0
 10
-27.38963218810791
 20
16.91602281219992
 30
0.0
 10
-27.06175632873745
 20
17.42743340636507
 30
0.0
 10
-26.72441970403105
 20
17.93203071688616
 30
0.0
 10
-26.37802278850958
 20
18.42945935766201
 30
0.0
 10
-26.02302346970612
 20
18.91938698191187
 30
0.0
 10
-25.65988364130521
 20
19.40152209822106
 30
0.0
 10
-24.96048399608528
 20
20.29580263838719
 30
0.0
 10
-23.85032443745887
 20
21.59916445570576
 30
0.0
 10
-22.20952850258221
 20
23.26429300849708
 30
0.0
 10
-20.33269503246139
 20
24.89431403769558
 30
0.0
 10
-18.50147868201733
 20
26.24216228571057
 30
0.0
 10
-16.41509979088201
 20
27.59328235927598
 30
0.0
 10
-14.45619231309488
 20
28.64364785586656
 30
0.0
 10
-12.44852357305187
 20
29.53461901877645
 30
0.0
 10
-10.93830569616635
 20
30.11076146801238
 30
0.0
 10
-9.194060442749034
 20
30.68988649979713
 30
0.0
 10
-7.191631046819291
 20
31.2207244867402
 30
0.0
 10
-4.812345361162442
 20
31.66908628654882
 30
0.0
 10
-2.436832060469132
 20
31.93229769252096
 30
0.0
 10
0.7280416848079535
 20
32.05488683040095
 30
0.0
 10
4.775151081856058
 20
31.75002494073596
 30
0.0
 10
8.642502396789448
 20
30.90107898057564
 30
0.0
 10
11.75807538533501
 20
29.82341534527524
 30
0.0
 10
13.90637067162809
 20
28.90446125465607
 30
0.0
 10
15.82657475686938
 20
27.90692066764375
 30
0.0
 10
17.21191670436914
 20
27.07830987833117
 30
0.0
 10
18.54899188746046
 20
26.19602152408448
 30
0.0
 10
19.96451207519153
 20
25.17005369426879
 30
0.0
 10
21.52817900945798
 20
23.87101119243306
 30
0.0
 10
22.92600781610913
 20
22.55104941514478
 30
0.0
 10
24.17345944672619
 20
21.22123352524675
 30
0.0
 10
25.16422431208809
 20
20.0404013667926
 30
0.0
 10
25.9542275542042
 20
19.01633996552656
 30
0.0
 10
26.58289116639463
 20
18.14293833872667
 30
0.0
 10
27.18298808449574
 20
17.24698948706046
 30
0.0
 10
27.7523767290948
 20
16.33040832332475
 30
0.0
 10
28.28934629136565
 20
15.39543963049924
 30
0.0
 10
28.79278799925005
 20
14.44465554356714
 30
0.0
 10
29.26105157872182
 20
13.48047593883961
 30
0.0
 10
29.69662187429427
 20
12.50690730306543
 30
0.0
 10
29.9590962336607
 20
11.8483443368207
 30
0.0
 10
30.0899059370231
 20
11.52013541588886
 30
0.0
  0
SPLINE
  5
81
330
1F
100
AcDbEntity
  8
0
  6
Continuous
 62
     7
370
    25
100
AcDbSpline
210
0.0
220
0.0
230
1.0
 70
     8
 71
     3
 72
    40
 73
    36
 74
     0
 42
0.000000001
 43
0.00000001
 40
0.0
 40
0.0
 40
0.0
 40
0.0
 40
0.0241791502490906
 40
0.0482751592584499
 40
0.0722788334139712
 40
0.0961811616783031
 40
0.1199733338567499
 40
0.1436467565497158
 40
0.1671930670324953
 40
0.1906041452790568
 40
0.2138721243247537
 40
0.2369893991434328
 40
0.2599484298385646
 40
0.282741188213712
 40
0.3053601476026513
 40
0.3277980454771281
 40
0.350047858075555
 40
0.37210281176494
 40
0.3939563930509932
 40
0.4156023573793305
 40
0.4370347368580455
 40
0.4582478470204845
 40
0.4792362927367319
 40
0.4999949731501836
 40
0.5419073991869247
 40
0.5846847826607503
 40
0.6282826422838501
 40
0.6726521290612274
 40
0.7177402699090567
 40
0.763490225605592
 40
0.8098411153749183
 40
0.8567324274682343
 40
0.9041010711317713
 40
0.9518802727071836
 40
1.0
 40
1.0
 40
1.0
 40
1.0
 10
30.10797673572524
 20
11.47401409992278
 30
0.0
 10
30.17420582676171
 20
11.29671462080154
 30
0.0
 10
30.30643627673166
 20
10.94272531584904
 30
0.0
 10
30.49221491908499
 20
10.40829189799119
 30
0.0
 10
30.66848108803147
 20
9.87295215682146
 30
0.0
 10
30.83443779863986
 20
9.336807199115304
 30
0.0
 10
30.99040327110107
 20
8.800366949456166
 30
0.0
 10
31.13640319834375
 20
8.264016223109165
 30
0.0
 10
31.27254541052833
 20
7.7281571913181
 30
0.0
 10
31.39892018581823
 20
7.193171786709243
 30
0.0
 10
31.51562594719726
 20
6.659431868270334
 30
0.0
 10
31.62276442019484
 20
6.127298810549436
 30
0.0
 10
31.72043166291244
 20
5.597128583942723
 30
0.0
 10
31.80876126655339
 20
5.069277931035043
 30
0.0
 10
31.88791545152207
 20
4.544099071689604
 30
0.0
 10
31.9580498039933
 20
4.021928001005514
 30
0.0
 10
32.01932124117252
 20
3.50308852323009
 30
0.0
 10
32.07188568824233
 20
2.987892380536186
 30
0.0
 10
32.11589866587766
 20
2.47663958921056
 30
0.0
 10
32.151515000546
 20
1.969618695427177
 30
0.0
 10
32.17888920880714
 20
1.467106839660904
 30
0.0
 10
32.19817408002407
 20
0.9693706348349309
 30
0.0
 10
32.20952570251168
 20
0.4766640081201025
 30
0.0
 10
32.21430734024351
 20
-0.1781793737704344
 30
0.0
 10
32.20068134492847
 20
-1.003604975573129
 30
0.0
 10
32.15267598506517
 20
-2.006778201661624
 30
0.0
 10
32.07170568820839
 20
-3.027134164418557
 30
0.0
 10
31.95658842170326
 20
-4.062408821735439
 30
0.0
 10
31.8061282520115
 20
-5.11016849220972
 30
0.0
 10
31.61911607187023
 20
-6.167790849740626
 30
0.0
 10
31.39437397602929
 20
-7.232471578063091
 30
0.0
 10
31.13143009749486
 20
-8.301453745869939
 30
0.0
 10
30.82864545521043
 20
-9.371399353368984
 30
0.0
 10
30.48880944481006
 20
-10.44045436315203
 30
0.0
 10
30.2292441386606
 20
-11.14487513605818
 30
0.0
 10
30.09900064278433
 20
-11.49833617980158
 30
0.0
  0
SPLINE
  5
82
330
1F
100
AcDbEntity
  8
0
  6
Continuous
 62
     7
370
    25
100
AcDbSpline
210
0.0
220
0.0
230
1.0
 70
     8
 71
     3
 72
    40
 73
    36
 74
     0
 42
0.000000001
 43
0.00000001
 40
0.0
 40
0.0
 40
0.0
 40
0.0
 40
0.024179151135113
 40
0.0482751609825345
 40
0.0722788359210203
 40
0.0961811649062204
 40
0.1199733377366076
 40
0.1436467610059474
 40
0.1671930719831071
 40
0.1906041506358558
 40
0.2138721299935874
 40
0.2369894050244396
 40
0.259948435830879
 40
0.282741194212708
 40
0.3053601534975334
 40
0.3277980511526331
 40
0.3500478634121699
 40
0.3721028166391312
 40
0.3939563973354439
 40
0.4156023609431848
 40
0.4370347395671579
 40
0.4582478487376715
 40
0.4792362933220257
 40
0.4999949724611747
 40
0.5419073983426029
 40
0.5846847817574813
 40
0.6282826414049739
 40
0.6726521282744437
 40
0.717740269263999
 40
0.7634902251322037
 40
0.8098411150798521
 40
0.856732427332717
 40
0.9041010711147811
 40
0.9518802727437695
 40
1.0
 40
1.0
 40
1.0
 40
1.0
 10
-30.10797494088689
 20
-11.47401882831603
 30
0.0
 10
-30.17420407658476
 20
-11.29671931461946
 30
0.0
 10
-30.30643461560091
 20
-10.94272994096451
 30
0.0
 10
-30.49221338489664
 20
-10.40829641641468
 30
0.0
 10
-30.66847967557923
 20
-9.872956567226069
 30
0.0
 10
-30.83443650237871
 20
-9.336811500286009
 30
0.0
 10
-30.99040208572076
 20
-8.8003711406875
 30
0.0
 10
-31.13640211862324
 20
-8.264020304075027
 30
0.0
 10
-31.2725444313802
 20
-7.728161162082299
 30
0.0
 10
-31.39891930228268
 20
-7.193175647699473
 30
0.0
 10
-31.51562515445107
 20
-6.659435620262446
 30
0.0
 10
-31.62276371355039
 20
-6.127302454614545
 30
0.0
 10
-31.72043103786219
 20
-5.597132121425017
 30
0.0
 10
-31.80876071832288
 20
-5.069281363475947
 30
0.0
 10
-31.88791497559379
 20
-4.54410240094962
 30
0.0
 10
-31.95804939601986
 20
-4.021931229236269
 30
0.0
 10
-32.01932089700125
 20
-3.503091652850555
 30
0.0
 10
-32.07188540390619
 20
-2.987895414214476
 30
0.0
 10
-32.11589843759682
 20
-2.476642529848243
 30
0.0
 10
-32.15151482472476
 20
-1.969621546143295
 30
0.0
 10
-32.17888908203127
 20
-1.467109603776754
 30
0.0
 10
-32.19817399906605
 20
-0.9693733158595033
 30
0.0
 10
-32.20952566430219
 20
-0.4766666097341015
 30
0.0
 10
-32.21430735582928
 20
0.1781768938562386
 30
0.0
 10
-32.20068142015728
 20
1.003602664263722
 30
0.0
 10
-32.15267611817099
 20
2.006776109940966
 30
0.0
 10
-32.07170586577584
 20
3.027132299611523
 30
0.0
 10
-31.95658862977902
 20
4.062407189910907
 30
0.0
 10
-31.80612847611772
 20
5.110167098071504
 30
0.0
 10
-31.61911629712597
 20
6.167789696528008
 30
0.0
 10
-31.39437418655165
 20
7.232470667285521
 30
0.0
 10
-31.13143027723038
 20
8.301453077357104
 30
0.0
 10
-30.82864558750376
 20
9.371398925026467
 30
0.0
 10
-30.48880951438577
 20
10.44045417163308
 30
0.0
 10
-30.22924415214236
 20
11.1448750977002
 30
0.0
 10
-30.09900062824162
 20
11.49833621796465
 30
0.0
  0
SPLINE
  5
83
330
1F
100
AcDbEntity
  8
0
  6
Continuous
 62
     7
370
    25
100
AcDbSpline
210
0.0
220
0.0
230
1.0
 70
     8
 71
     3
 72
    55
 73
    51
 74
     0
 42
0.000000001
 43
0.00000001
 40
0.0
 40
0.0
 40
0.0
 40
0.0
 40
0.0086237017403964
 40
0.0173263818478542
 40
0.0261080407292334
 40
0.0349686787776979
 40
0.0439082963731721
 40
0.0529268938827804
 40
0.0620244716612675
 40
0.0712010300513987
 40
0.0804565693843455
 40
0.0897910899800533
 40
0.0992045921475942
 40
0.1086970761855051
 40
0.1182685423821122
 40
0.1279189910158412
 40
0.1376484223555159
 40
0.1474568366606447
 40
0.1573442341816956
 40
0.1673106151603592
 40
0.1773559798298028
 40
0.1874803284149148
 40
0.1976836611325378
 40
0.2079659781916946
 40
0.2183272797938044
 40
0.2287675661328916
 40
0.2392868373957865
 40
0.2498850937623181
 40
0.3263975126510765
 40
0.3936323437327601
 40
0.4515814455770019
 40
0.5002380206124446
 40
0.5489806392225998
 40
0.6068395286780859
 40
0.6738081708860094
 40
0.74987877322728
 40
0.7691186478127403
 40
0.78814712316009
 40
0.8069641999000254
 40
0.8255698787404375
 40
0.8439641604693304
 40
0.8621470459579134
 40
0.8801185361638704
 40
0.8978786321348258
 40
0.9154273350120186
 40
0.9327646460342012
 40
0.949890566541777
 40
0.9668050979812006
 40
0.9835082419096487
 40
0.9999999999999999
 40
0.9999999999999999
 40
0.9999999999999999
 40
0.9999999999999999
 10
21.476293925236
 20
8.232180709682503
 30
0.0
 10
21.41841196362801
 20
8.380515374155657
 30
0.0
 10
21.30211794058392
 20
8.678543195073429
 30
0.0
 10
21.11506251662633
 20
9.122867804395852
 30
0.0
 10
20.91758839667695
 20
9.567423761973581
 30
0.0
 10
20.70867135965013
 20
10.0115701867389
 30
0.0
 10
20.48838641914488
 20
10.45507510110694
 30
0.0
 10
20.25651930503695
 20
10.89758296935967
 30
0.0
 10
20.01294413969584
 20
11.33875935960184
 30
0.0
 10
19.75752147894877
 20
11.77825174134613
 30
0.0
 10
19.49012660190172
 20
12.21570023224558
 30
0.0
 10
19.21064244655265
 20
12.65073480725716
 30
0.0
 10
18.91896215164095
 20
13.08297620773645
 30
0.0
 10
18.61498899866507
 20
13.51203587192026
 30
0.0
 10
18.29863706645812
 20
13.93751615761936
 30
0.0
 10
17.96983169850149
 20
14.35901051307331
 30
0.0
 10
17.62851002614234
 20
14.77610369024995
 30
0.0
 10
17.27462148124598
 20
15.18837197566325
 30
0.0
 10
16.90812831351668
 20
15.59538344703525
 30
0.0
 10
16.52900611401909
 20
15.99669825159879
 30
0.0
 10
16.13724431788935
 20
16.39186891838505
 30
0.0
 10
15.73284678851873
 20
16.78044066258195
 30
0.0
 10
15.31583209111654
 20
17.16195184258035
 30
0.0
 10
14.88623493167899
 20
17.53593396607204
 30
0.0
 10
14.44410318339649
 20
17.90191352680386
 30
0.0
 10
13.98951155331417
 20
18.25940706086616
 30
0.0
 10
13.52251241161073
 20
18.60794193085222
 30
0.0
 10
12.05110178709793
 20
19.64900253624263
 30
0.0
 10
9.548502551816245
 20
21.05144670420093
 30
0.0
 10
6.019866439327436
 20
22.28889740307044
 30
0.0
 10
2.855370044037304
 20
22.88607351400273
 30
0.0
 10
-0.0144963739727407
 20
23.05281890643954
 30
0.0
 10
-2.882527278186092
 20
22.88265700533765
 30
0.0
 10
-6.041313480890346
 20
22.28257607949945
 30
0.0
 10
-9.555003785907168
 20
21.04723031076468
 30
0.0
 10
-12.18579595785608
 20
19.57316588243137
 30
0.0
 10
-13.89727363234968
 20
18.33684339533437
 30
0.0
 10
-14.72266555099277
 20
17.68077067688278
 30
0.0
 10
-15.50841210138326
 20
16.99550889131238
 30
0.0
 10
-16.25403347585915
 20
16.28362920185719
 30
0.0
 10
-16.95909668214486
 20
15.54770878423296
 30
0.0
 10
-17.6233475171046
 20
14.79026569973419
 30
0.0
 10
-18.24666850251253
 20
14.01376775313501
 30
0.0
 10
-18.82907329106364
 20
13.22061922313188
 30
0.0
 10
-19.37072492994093
 20
12.41316716228503
 30
0.0
 10
-19.87182454191639
 20
11.59365614484858
 30
0.0
 10
-20.33298563884528
 20
10.76437048822424
 30
0.0
 10
-20.75382611707511
 20
9.92709367122403
 30
0.0
 10
-21.13809017044521
 20
9.085071515335047
 30
0.0
 10
-21.36403914697744
 20
8.515267639640502
 30
0.0
 10
-21.47629421131298
 20
8.23217996335885
 30
0.0
  0
SPLINE
  5
84
330
1F
100
AcDbEntity
  8
0
  6
Continuous
 62
     7
370
    25
100
AcDbSpline
210
0.0
220
0.0
230
1.0
 70
     8
 71
     3
 72
     8
 73
     4
 74
     0
 42
0.000000001
 43
0.00000001
 40
0.0
 40
0.0
 40
0.0
 40
0.0
 40
1.0
 40
1.0
 40
1.0
 40
1.0
 10
-30.09900152116004
 20
11.49833645144189
 30
0.0
 10
-27.22324209324011
 20
10.41413419866061
 30
0.0
 10
-24.34915458526835
 20
9.325471929477496
 30
0.0
 10
-21.47674925448079
 20
8.232354079355286
 30
0.0
  0
SPLINE
  5
85
330
1F
100
AcDbEntity
  8
0
  6
Continuous
 62
     7
370
    25
100
AcDbSpline
210
0.0
220
0.0
230
1.0
 70
     8
 71
     3
 72
     8
 73
     4
 74
     0
 42
0.000000001
 43
0.00000001
 40
0.0
 40
0.0
 40
0.0
 40
0.0
 40
1.0
 40
1.0
 40
1.0
 40
1.0
 10
21.47658183007006
 20
8.232290965550279
 30
0.0
 10
24.35116863892876
 20
9.319651049828607
 30
0.0
 10
27.22830852054224
 20
10.40022856385756
 30
0.0
 10
30.10797758952758
 20
11.47401432263144
 30
0.0
  0
SPLINE
  5
86
330
1F
100
AcDbEntity
  8
0
  6
Continuous
 62
     7
370
    25
100
AcDbSpline
210
0.0
220
0.0
230
1.0
 70
     8
 71
     3
 72
    55
 73
    51
 74
     0
 42
0.000000001
 43
0.00000001
 40
0.0
 40
0.0
 40
0.0
 40
0.0
 40
0.0086233116080785
 40
0.0173252787223763
 40
0.0261059017496879
 40
0.0349651810831914
 40
0.043903117102896
 40
0.0529197101760854
 40
0.0620149606577294
 40
0.07118886889088
 40
0.0804414352070572
 40
0.0897726599266124
 40
0.0991825433590752
 40
0.1086710858034938
 40
0.1182382875487526
 40
0.1278841488738829
 40
0.1376086700483566
 40
0.147411851332375
 40
0.1572936929771348
 40
0.1672541952250959
 40
0.1772933583102315
 40
0.1874111824582667
 40
0.1976076678869173
 40
0.2078828148061099
 40
0.218236623418195
 40
0.2286690939181605
 40
0.2391802264938243
 40
0.2497700213260312
 40
0.3262683679461656
 40
0.3934789952441077
 40
0.45139374503355
 40
0.5000058063843851
 40
0.5487924025265742
 40
0.6066855514148687
 40
0.6736787474694299
 40
0.7497642136771008
 40
0.7690195667250471
 40
0.7880623981833936
 40
0.8068927086677798
 40
0.8255104988715225
 40
0.8439157695685593
 40
0.8621085216165666
 40
0.8800887559602621
 40
0.8978564736349036
 40
0.9154116757699985
 40
0.9327543635932435
 40
0.9498845384347068
 40
0.9668022017312725
 40
0.9835073550313688
 40
1.0
 40
1.0
 40
1.0
 40
1.0
 10
-21.4762941129381
 20
-8.232180220001418
 30
0.0
 10
-21.41841481656295
 20
-8.380508190596673
 30
0.0
 10
-21.30212829144015
 20
-8.67851707044276
 30
0.0
 10
-21.11508903681396
 20
-9.122805621669785
 30
0.0
 10
-20.91763994857295
 20
-9.567309903328859
 30
0.0
 10
-20.70875798117624
 20
-10.01138963385256
 30
0.0
 10
-20.48851912605043
 20
-10.45481341571048
 30
0.0
 10
-20.25671015101696
 20
-10.89722637478005
 30
0.0
 10
-20.01320618292068
 20
-11.33829478849151
 30
0.0
 10
-19.75786877572718
 20
-11.77766689582769
 30
0.0
 10
-19.49057418777315
 20
-12.21498364117879
 30
0.0
 10
-19.21120631726012
 20
-12.64987588532367
 30
0.0
 10
-18.91965923998694
 20
-13.08196531472206
 30
0.0
 10
-18.61583714833294
 20
-13.51086437251266
 30
0.0
 10
-18.2996550023443
 20
-13.93617648144031
 30
0.0
 10
-17.97103899356927
 20
-14.35749621483244
 30
0.0
 10
-17.62992706467578
 20
-14.77440950984678
 30
0.0
 10
-17.27626941842742
 20
-15.18649389807051
 30
0.0
 10
-16.91002903124744
 20
-15.59331876178354
 30
0.0
 10
-16.53118217290304
 20
-15.99444561167691
 30
0.0
 10
-16.13971890534312
 20
-16.38942839835526
 30
0.0
 10
-15.73564366282994
 20
-16.77781381572578
 30
0.0
 10
-15.31897552186307
 20
-17.15914175678351
 30
0.0
 10
-14.88974963466702
 20
-17.53294531854615
 30
0.0
 10
-14.44801425705331
 20
-17.89875263614503
 30
0.0
 10
-13.99384438955679
 20
-18.25608194127943
 30
0.0
 10
-13.52729268532963
 20
-18.60446232819724
 30
0.0
 10
-12.05662230760438
 20
-19.64558840560283
 30
0.0
 10
-9.555198779359408
 20
-21.04834049971857
 30
0.0
 10
-6.02826608750456
 20
-22.28654254793458
 30
0.0
 10
-2.865903325754191
 20
-22.88466237676054
 30
0.0
 10
0.0032194847534877
 20
-23.05282269807463
 30
0.0
 10
2.871973450032753
 20
-22.88407782554682
 30
0.0
 10
6.032889428200096
 20
-22.28494307328464
 30
0.0
 10
9.548301807063568
 20
-21.0503409241331
 30
0.0
 10
12.18042282790212
 20
-19.57654786176521
 30
0.0
 10
13.89288838995866
 20
-18.34018200532465
 30
0.0
 10
14.71904880835263
 20
-17.68379681486652
 30
0.0
 10
15.50547731007062
 20
-16.99820070882958
 30
0.0
 10
16.25169661849881
 20
-16.28597491363938
 30
0.0
 10
16.95727685904505
 20
-15.54970613240326
 30
0.0
 10
17.62196766870597
 20
-14.79192134733761
 30
0.0
 10
18.24565600681182
 20
-14.01509665919129
 30
0.0
 10
18.82836049547149
 20
-13.22164399315889
 30
0.0
 10
19.37024962704271
 20
-12.41391739234017
 30
0.0
 10
19.87153031805687
 20
-11.59416773515518
 30
0.0
 10
20.33282233569215
 20
-10.76468502356263
 30
0.0
 10
20.75374969900538
 20
-9.927257601477061
 30
0.0
 10
21.13806398322036
 20
-9.085135899523205
 30
0.0
 10
21.3640330515876
 20
-8.515282454200959
 30
0.0
 10
21.47629434037265
 20
-8.232179626664815
 30
0.0
  0
LWPOLYLINE
  5
87
330
1F
100
AcDbEntity
  8
0
  6
Continuous
 62
     7
370
    25
100
AcDbPolyline
 90
        3
 70
   128
 43
0.0
 10
30.0990015357
 20
-11.4983364133
 10
25.7878864466
 20
-9.8651679524
 10
21.4766462286
 20
-8.2323145106
  0
SPLINE
  5
88
330
1F
100
AcDbEntity
  8
0
  6
Continuous
 62
     7
370
    25
100
AcDbSpline
210
0.0
220
0.0
230
1.0
 70
     8
 71
     3
 72
     8
 73
     4
 74
     0
 42
0.000000001
 43
0.00000001
 40
0.0
 40
0.0
 40
0.0
 40
0.0
 40
1.0
 40
1.0
 40
1.0
 40
1.0
 10
-30.10797579500325
 20
-11.47401905114706
 30
0.0
 10
-27.22989412149025
 20
-10.3955233767009
 30
0.0
 10
-24.35265130917445
 20
-9.314904232679236
 30
0.0
 10
-21.47624955635164
 20
-8.23216314080482
 30
0.0
  0
SPLINE
  5
89
330
1F
100
AcDbEntity
  8
0
  6
Continuous
 62
     7
370
    25
100
AcDbSpline
210
0.0
220
0.0
230
1.0
 70
     8
 71
     3
 72
    14
 73
    10
 74
     0
 42
0.000000001
 43
0.00000001
 40
0.0
 40
0.0
 40
0.0
 40
0.0
 40
0.25
 40
0.25
 40
0.5
 40
0.5
 40
0.75
 40
0.75
 40
1.0
 40
1.0
 40
1.0
 40
1.0
 10
21.47629403757487
 20
-8.23218041661038
 30
0.0
 10
21.97851236814063
 20
-6.921982146838823
 30
0.0
 10
22.36049141792953
 20
-5.565722442447698
 30
0.0
 10
22.87124000510819
 20
-2.806282841483483
 30
0.0
 10
23.00000000665992
 20
-1.403154464522514
 30
0.0
 10
22.99999999333996
 20
1.403154682858532
 30
0.0
 10
22.87123997846851
 20
2.806283058597211
 30
0.0
 10
22.36049136509484
 20
5.565722654712955
 30
0.0
 10
21.97851230243115
 20
6.921982355477999
 30
0.0
 10
21.47629395942785
 20
8.232180620482062
 30
0.0
  0
SPLINE
  5
8A
330
1F
100
AcDbEntity
  8
0
  6
Continuous
 62
     7
370
    25
100
AcDbSpline
210
0.0
220
0.0
230
1.0
 70
     8
 71
     3
 72
    14
 73
    10
 74
     0
 42
0.000000001
 43
0.00000001
 40
0.0
 40
0.0
 40
0.0
 40
0.0
 40
0.25
 40
0.25
 40
0.5
 40
0.5
 40
0.75
 40
0.75
 40
1.0
 40
1.0
 40
1.0
 40
1.0
 10
-21.47629431449909
 20
8.232179694164607
 30
0.0
 10
-21.9785125715045
 20
6.921981484423353
 30
0.0
 10
-22.36049156034326
 20
5.565721849526671
 30
0.0
 10
-22.87124005436097
 20
2.806282398882108
 30
0.0
 10
-23.00000002370584
 20
1.403154102731441
 30
0.0
 10
-22.99999997629425
 20
-1.403154879885215
 30
0.0
 10
-22.87123995953866
 20
-2.806283171685173
 30
0.0
 10
-22.36049137228144
 20
-5.565722605071906
 30
0.0
 10
-21.97851233761561
 20
-6.921982227061784
 30
0.0
 10
-21.47629403633954
 20
-8.232180419833437
 30
0.0
  0
LINE
  5
8B
330
1F
100
AcDbEntity
  8
0
  6
Continuous
 62
     7
370
    25
100
AcDbLine
 10
-457.5
 20
-187.5
 30
0.0
 11
457.5
 21
-187.5
 31
0.0
  0
LINE
  5
8C
330
1F
100
AcDbEntity
  8
0
  6
Continuous
 62
     7
370
    25
100
AcDbLine
 10
-457.5
 20
187.5
 30
0.0
 11
-457.5
 21
-187.5
 31
0.0
  0
LINE
  5
8D
330
1F
100
AcDbEntity
  8
0
  6
Continuous
 62
     7
370
    25
100
AcDbLine
 10
457.5
 20
-187.5
 30
0.0
 11
457.5
 21
187.5
 31
0.0
  0
LINE
  5
8E
330
1F
100
AcDbEntity
  8
0
  6
Continuous
 62
     7
370
    25
100
AcDbLine
 10
457.5
 20
187.5
 30
0.0
 11
-457.5
 21
187.5
 31
0.0
  0
LINE
  5
8F
330
1F
100
AcDbEntity
  8
0
  6
Continuous
 62
     7
370
    25
100
AcDbLine
 10
437.5
 20
167.5
 30
0.0
 11
-437.5
 21
167.5
 31
0.0
  0
LINE
  5
90
330
1F
100
AcDbEntity
  8
0
  6
Continuous
 62
     7
370
    25
100
AcDbLine
 10
-437.5
 20
-167.5
 30
0.0
 11
437.5
 21
-167.5
 31
0.0
  0
LINE
  5
91
330
1F
100
AcDbEntity
  8
0
  6
Continuous
 62
     7
370
    25
100
AcDbLine
 10
437.5
 20
-167.5
 30
0.0
 11
437.5
 21
167.5
 31
0.0
  0
LINE
  5
92
330
1F
100
AcDbEntity
  8
0
  6
Continuous
 62
     7
370
    25
100
AcDbLine
 10
-437.5
 20
167.5
 30
0.0
 11
-437.5
 21
-167.5
 31
0.0
  0
LINE
  5
93
330
1F
100
AcDbEntity
  8
0
  6
Continuous
 62
     7
370
    25
100
AcDbLine
 10
-437.5
 20
-167.5
 30
0.0
 11
-30.0899061037
 21
-11.5201354797
 31
0.0
  0
LINE
  5
94
330
1F
100
AcDbEntity
  8
0
  6
Continuous
 62
     7
370
    25
100
AcDbLine
 10
437.5
 20
-167.5
 30
0.0
 11
30.0905047608
 21
-11.5203646799
 31
0.0
  0
LINE
  5
95
330
1F
100
AcDbEntity
  8
0
  6
Continuous
 62
     7
370
    25
100
AcDbLine
 10
437.5
 20
167.5
 30
0.0
 11
30.0899060536
 21
11.5201354605
 31
0.0
  0
LINE
  5
96
330
1F
100
AcDbEntity
  8
0
  6
Continuous
 62
     7
370
    25
100
AcDbLine
 10
-30.0905047611
 20
11.52036468
 30
0.0
 11
-437.5
 21
167.5
 31
0.0
  0
LINE
  5
9B
330
1B
100
AcDbEntity
 67
     1
  8
0
  6
Continuous
 62
     7
370
    25
100
AcDbLine
 10
-457.5
 20
140.0
 30
0.0
 11
457.5
 21
140.0
 31
0.0
  0
LINE
  5
9C
330
1B
100
AcDbEntity
 67
     1
  8
0
  6
Continuous
 62
     7
370
    25
100
AcDbLine
 10
-457.5
 20
140.0
 30
0.0
 11
-457.5
 21
0.0
 31
0.0
  0
LINE
  5
9D
330
1B
100
AcDbEntity
 67
     1
  8
0
  6
Continuous
 62
     7
370
    25
100
AcDbLine
 10
-457.5
 20
0.0
 30
0.0
 11
457.5
 21
0.0
 31
0.0
  0
LINE
  5
9E
330
1B
100
AcDbEntity
 67
     1
  8
0
  6
Continuous
 62
     7
370
    25
100
AcDbLine
 10
457.5
 20
140.0
 30
0.0
 11
457.5
 21
0.0
 31
0.0
  0
VIEWPORT
  5
169
330
1B
100
AcDbEntity
 67
     1
  8
0
100
AcDbViewport
 10
0.0
 20
0.0
 30
0.0
 40
205.6
 41
156.0
 68
     1
 69
     1
 12
0.0
 22
0.0
 13
0.0
 23
0.0
 14
10.0
 24
10.0
 15
10.0
 25
10.0
 16
0.0
 26
0.0
 36
1.0
 17
0.0
 27
0.0
 37
0.0
 42
50.0
 43
0.0
 44
0.0
 45
708.1459143969
 50
0.0
 51
0.0
 72
   100
 90
   557152
  1

281
     0
 71
     1
 74
     0
110
0.0
120
0.0
130
0.0
111
1.0
121
0.0
131
0.0
112
0.0
122
1.0
132
0.0
 79
     0
146
0.0
170
     0
 61
     5
348
2F
292
     1
282
     1
141
0.0
142
0.0
 63
   256
361
16A
  0
ENDSEC
  0
SECTION
  2
OBJECTS
  0
DICTIONARY
  5
C
330
0
100
AcDbDictionary
281
     1
  3
ACAD_DETAILVIEWSTYLE
350
182
  3
ACAD_GROUP
350
D
  3
ACAD_LAYOUT
350
1A
  3
ACAD_MATERIAL
350
43
  3
ACAD_MLEADERSTYLE
350
6B
  3
ACAD_MLINESTYLE
350
17
  3
ACAD_PLOTSETTINGS
350
19
  3
ACAD_PLOTSTYLENAME
350
E
  3
ACAD_SCALELIST
350
47
  3
ACAD_SECTIONVIEWSTYLE
350
183
  3
ACAD_TABLESTYLE
350
69
  3
ACAD_VISUALSTYLE
350
2A
  3
ACDB_RECOMPOSE_DATA
350
17F
  3
AcDbVariableDictionary
350
17B
  0
SUN
  5
6D
330
29
100
AcDbSun
 90
        1
290
     0
 63
     7
421
 16777215
 40
1.0
291
     1
 91
  2455826
 92
 54000000
292
     0
 70
     2
 71
   256
280
     1
  0
SUN
  5
16C
330
16B
100
AcDbSun
 90
        1
290
     0
 63
     7
421
 16777215
 40
1.0
291
     1
 91
  2455826
 92
 54000000
292
     0
 70
     2
 71
   256
280
     1
  0
SUN
  5
16E
330
16D
100
AcDbSun
 90
        1
290
     0
 63
     7
421
 16777215
 40
1.0
291
     1
 91
  2455826
 92
 54000000
292
     0
 70
     2
 71
   256
280
     1
  0
SUN
  5
170
330
16F
100
AcDbSun
 90
        1
290
     0
 63
     7
421
 16777215
 40
1.0
291
     1
 91
  2455826
 92
 54000000
292
     0
 70
     2
 71
   256
280
     1
  0
SUN
  5
172
330
171
100
AcDbSun
 90
        1
290
     0
 63
     7
421
 16777215
 40
1.0
291
     1
 91
  2455826
 92
 54000000
292
     0
 70
     2
 71
   256
280
     1
  0
SUN
  5
174
330
173
100
AcDbSun
 90
        1
290
     0
 63
     7
421
 16777215
 40
1.0
291
     1
 91
  2455826
 92
 54000000
292
     0
 70
     2
 71
   256
280
     1
  0
SUN
  5
176
330
175
100
AcDbSun
 90
        1
290
     0
 63
     7
421
 16777215
 40
1.0
291
     1
 91
  2455826
 92
 54000000
292
     0
 70
     2
 71
   256
280
     1
  0
SUN
  5
178
330
177
100
AcDbSun
 90
        1
290
     0
 63
     7
421
 16777215
 40
1.0
291
     1
 91
  2455826
 92
 54000000
292
     0
 70
     2
 71
   256
280
     1
  0
SUN
  5
17A
330
179
100
AcDbSun
 90
        1
290
     0
 63
     7
421
 16777215
 40
1.0
291
     1
 91
  2455826
 92
 54000000
292
     0
 70
     2
 71
   256
280
     1
  0
SUN
  5
16A
330
169
100
AcDbSun
 90
        1
290
     0
 63
     7
421
 16777215
 40
1.0
291
     1
 91
  2455826
 92
 54000000
292
     0
 70
     2
 71
   256
280
     1
  0
DICTIONARY
  5
182
102
{ACAD_REACTORS
330
C
102
}
330
C
100
AcDbDictionary
281
     1
  0
DICTIONARY
  5
D
102
{ACAD_REACTORS
330
C
102
}
330
C
100
AcDbDictionary
281
     1
  0
DICTIONARY
  5
1A
102
{ACAD_REACTORS
330
C
102
}
330
C
100
AcDbDictionary
281
     1
  3
_Dimetrisch
350
144
  3
_Isometrisch
350
D9
  3
_Links
350
C0
  3
_Normal auf
350
A8
  3
_Rechts
350
26
  3
_Rückseite
350
B4
  3
_Trimetrisch
350
114
  3
_Unten
350
CC
  3
_Vorderseite
350
1E
  3
Model
350
22
  0
DICTIONARY
  5
43
102
{ACAD_REACTORS
330
C
102
}
330
C
100
AcDbDictionary
281
     1
  3
ByBlock
350
45
  3
ByLayer
350
44
  3
Global
350
46
  0
DICTIONARY
  5
6B
102
{ACAD_REACTORS
330
C
102
}
330
C
100
AcDbDictionary
281
     1
  3
Standard
350
6C
  0
DICTIONARY
  5
17
102
{ACAD_REACTORS
330
C
102
}
330
C
100
AcDbDictionary
281
     1
  3
Standard
350
18
  0
DICTIONARY
  5
19
102
{ACAD_REACTORS
330
C
102
}
330
C
100
AcDbDictionary
281
     1
  0
ACDBDICTIONARYWDFLT
  5
E
102
{ACAD_REACTORS
330
C
102
}
330
C
100
AcDbDictionary
281
     1
  3
Normal
350
F
100
AcDbDictionaryWithDefault
340
F
  0
DICTIONARY
  5
47
102
{ACAD_REACTORS
330
C
102
}
330
C
100
AcDbDictionary
281
     1
  3
A0
350
48
  3
A1
350
49
  3
A2
350
4A
  3
A3
350
4B
  3
A4
350
4C
  3
A5
350
4D
  3
A6
350
4E
  3
A7
350
4F
  3
A8
350
50
  3
A9
350
51
  3
B0
350
52
  3
B1
350
53
  3
B2
350
54
  3
B3
350
55
  3
B4
350
56
  3
B5
350
57
  3
B6
350
58
  3
B7
350
59
  3
B8
350
5A
  3
B9
350
5B
  3
C0
350
5C
  3
C1
350
5D
  3
C2
350
5E
  3
C3
350
5F
  3
C4
350
60
  3
C5
350
61
  3
C6
350
62
  3
C7
350
63
  3
C8
350
64
  3
C9
350
65
  3
D0
350
66
  3
D1
350
67
  3
D2
350
68
  0
DICTIONARY
  5
183
102
{ACAD_REACTORS
330
C
102
}
330
C
100
AcDbDictionary
281
     1
  0
DICTIONARY
  5
69
102
{ACAD_REACTORS
330
C
102
}
330
C
100
AcDbDictionary
281
     1
  3
Standard
350
6A
  0
DICTIONARY
  5
2A
102
{ACAD_REACTORS
330
C
102
}
330
C
100
AcDbDictionary
281
     1
  3
2dWireframe
350
2F
  3
Basic
350
32
  3
Brighten
350
36
  3
ColorChange
350
3A
  3
Conceptual
350
34
  3
Dim
350
35
  3
EdgeColorOff
350
3D
  3
Facepattern
350
39
  3
Flat
350
2B
  3
FlatWithEdges
350
2C
  3
Gouraud
350
2D
  3
GouraudWithEdges
350
2E
  3
Hidden
350
31
  3
JitterOff
350
3B
  3
Linepattern
350
38
  3
OverhangOff
350
3C
  3
Realistic
350
33
  3
Shaded
350
42
  3
Shaded with edges
350
41
  3
Shades of Gray
350
3E
  3
Sketchy
350
3F
  3
Thicken
350
37
  3
Wireframe
350
30
  3
X-Ray
350
40
  0
XRECORD
  5
17F
102
{ACAD_REACTORS
330
C
102
}
330
C
100
AcDbXrecord
280
     1
 90
        1
330
6A
  0
DICTIONARY
  5
17B
102
{ACAD_REACTORS
330
C
102
}
330
C
100
AcDbDictionary
281
     1
  3
CANNOSCALE
350
17C
  3
CMLEADERSTYLE
350
181
  3
CTABLESTYLE
350
180
  0
LAYOUT
  5
144
102
{ACAD_REACTORS
330
1A
102
}
330
1A
100
AcDbPlotSettings
  1

  2
none_device
  4
ISO_A4_(210.00_x_297.00_MM)
  6

 40
7.5
 41
20.0
 42
7.5
 43
20.0
 44
210.0
 45
297.0
 46
0.0
 47
0.0
 48
0.0
 49
0.0
140
0.0
141
0.0
142
1.0
143
3.560311284
 70
   688
 72
     1
 73
     1
 74
     1
  7

 75
     0
 76
     0
 77
     2
 78
   300
147
0.2808743169
148
457.5
149
0.0
100
AcDbLayout
  1
_Dimetrisch
 70
     1
 71
     9
 10
0.0
 20
0.0
 11
0.0
 21
0.0
 12
0.0
 22
0.0
 32
0.0
 14
0.0
 24
0.0
 34
0.0
 15
0.0
 25
0.0
 35
0.0
146
0.0
 13
0.0
 23
0.0
 33
0.0
 16
1.0
 26
0.0
 36
0.0
 17
0.0
 27
1.0
 37
0.0
 76
     0
330
143
331
179
  0
LAYOUT
  5
D9
102
{ACAD_REACTORS
330
1A
102
}
330
1A
100
AcDbPlotSettings
  1

  2
none_device
  4
ISO_A4_(210.00_x_297.00_MM)
  6

 40
7.5
 41
20.0
 42
7.5
 43
20.0
 44
210.0
 45
297.0
 46
0.0
 47
0.0
 48
0.0
 49
0.0
140
0.0
141
0.0
142
1.0
143
3.560311284
 70
   688
 72
     1
 73
     1
 74
     1
  7

 75
     0
 76
     0
 77
     2
 78
   300
147
0.2808743169
148
457.5
149
0.0
100
AcDbLayout
  1
_Isometrisch
 70
     1
 71
     7
 10
0.0
 20
0.0
 11
0.0
 21
0.0
 12
0.0
 22
0.0
 32
0.0
 14
0.0
 24
0.0
 34
0.0
 15
0.0
 25
0.0
 35
0.0
146
0.0
 13
0.0
 23
0.0
 33
0.0
 16
1.0
 26
0.0
 36
0.0
 17
0.0
 27
1.0
 37
0.0
 76
     0
330
D8
331
175
  0
LAYOUT
  5
C0
102
{ACAD_REACTORS
330
1A
102
}
330
1A
100
AcDbPlotSettings
  1

  2
none_device
  4
ISO_A4_(210.00_x_297.00_MM)
  6

 40
7.5
 41
20.0
 42
7.5
 43
20.0
 44
210.0
 45
297.0
 46
0.0
 47
0.0
 48
0.0
 49
0.0
140
0.0
141
0.0
142
1.0
143
3.560311284
 70
   688
 72
     1
 73
     1
 74
     1
  7

 75
     0
 76
     0
 77
     2
 78
   300
147
0.2808743169
148
457.5
149
0.0
100
AcDbLayout
  1
_Links
 70
     1
 71
     5
 10
0.0
 20
0.0
 11
0.0
 21
0.0
 12
0.0
 22
0.0
 32
0.0
 14
0.0
 24
0.0
 34
0.0
 15
0.0
 25
0.0
 35
0.0
146
0.0
 13
0.0
 23
0.0
 33
0.0
 16
1.0
 26
0.0
 36
0.0
 17
0.0
 27
1.0
 37
0.0
 76
     0
330
BF
331
171
  0
LAYOUT
  5
A8
102
{ACAD_REACTORS
330
1A
102
}
330
1A
100
AcDbPlotSettings
  1

  2
none_device
  4
ISO_A4_(210.00_x_297.00_MM)
  6

 40
7.5
 41
20.0
 42
7.5
 43
20.0
 44
210.0
 45
297.0
 46
0.0
 47
0.0
 48
0.0
 49
0.0
140
0.0
141
0.0
142
1.0
143
3.560311284
 70
   688
 72
     1
 73
     1
 74
     1
  7

 75
     0
 76
     0
 77
     2
 78
   300
147
0.2808743169
148
457.5
149
0.0
100
AcDbLayout
  1
_Normal auf
 70
     1
 71
     3
 10
0.0
 20
0.0
 11
0.0
 21
0.0
 12
0.0
 22
0.0
 32
0.0
 14
0.0
 24
0.0
 34
0.0
 15
0.0
 25
0.0
 35
0.0
146
0.0
 13
0.0
 23
0.0
 33
0.0
 16
1.0
 26
0.0
 36
0.0
 17
0.0
 27
1.0
 37
0.0
 76
     0
330
A7
331
16D
  0
LAYOUT
  5
26
102
{ACAD_REACTORS
330
1A
102
}
330
1A
100
AcDbPlotSettings
  1

  2
none_device
  4
ISO_A4_(210.00_x_297.00_MM)
  6

 40
7.5
 41
20.0
 42
7.5
 43
20.0
 44
210.0
 45
297.0
 46
0.0
 47
0.0
 48
0.0
 49
0.0
140
0.0
141
0.0
142
1.0
143
3.560311284
 70
   688
 72
     1
 73
     1
 74
     1
  7

 75
     0
 76
     0
 77
     2
 78
   300
147
0.2808743169
148
457.5
149
0.0
100
AcDbLayout
  1
_Rechts
 70
     1
 71
     2
 10
0.0
 20
0.0
 11
0.0
 21
0.0
 12
0.0
 22
0.0
 32
0.0
 14
0.0
 24
0.0
 34
0.0
 15
0.0
 25
0.0
 35
0.0
146
0.0
 13
0.0
 23
0.0
 33
0.0
 16
1.0
 26
0.0
 36
0.0
 17
0.0
 27
1.0
 37
0.0
 76
     0
330
23
331
16B
  0
LAYOUT
  5
B4
102
{ACAD_REACTORS
330
1A
102
}
330
1A
100
AcDbPlotSettings
  1

  2
none_device
  4
ISO_A4_(210.00_x_297.00_MM)
  6

 40
7.5
 41
20.0
 42
7.5
 43
20.0
 44
210.0
 45
297.0
 46
0.0
 47
0.0
 48
0.0
 49
0.0
140
0.0
141
0.0
142
1.0
143
3.560311284
 70
   688
 72
     1
 73
     1
 74
     1
  7

 75
     0
 76
     0
 77
     2
 78
   300
147
0.2808743169
148
457.5
149
0.0
100
AcDbLayout
  1
_Rückseite
 70
     1
 71
     4
 10
0.0
 20
0.0
 11
0.0
 21
0.0
 12
0.0
 22
0.0
 32
0.0
 14
0.0
 24
0.0
 34
0.0
 15
0.0
 25
0.0
 35
0.0
146
0.0
 13
0.0
 23
0.0
 33
0.0
 16
1.0
 26
0.0
 36
0.0
 17
0.0
 27
1.0
 37
0.0
 76
     0
330
B3
331
16F
  0
LAYOUT
  5
114
102
{ACAD_REACTORS
330
1A
102
}
330
1A
100
AcDbPlotSettings
  1

  2
none_device
  4
ISO_A4_(210.00_x_297.00_MM)
  6

 40
7.5
 41
20.0
 42
7.5
 43
20.0
 44
210.0
 45
297.0
 46
0.0
 47
0.0
 48
0.0
 49
0.0
140
0.0
141
0.0
142
1.0
143
3.560311284
 70
   688
 72
     1
 73
     1
 74
     1
  7

 75
     0
 76
     0
 77
     2
 78
   300
147
0.2808743169
148
457.5
149
0.0
100
AcDbLayout
  1
_Trimetrisch
 70
     1
 71
     8
 10
0.0
 20
0.0
 11
0.0
 21
0.0
 12
0.0
 22
0.0
 32
0.0
 14
0.0
 24
0.0
 34
0.0
 15
0.0
 25
0.0
 35
0.0
146
0.0
 13
0.0
 23
0.0
 33
0.0
 16
1.0
 26
0.0
 36
0.0
 17
0.0
 27
1.0
 37
0.0
 76
     0
330
113
331
177
  0
LAYOUT
  5
CC
102
{ACAD_REACTORS
330
1A
102
}
330
1A
100
AcDbPlotSettings
  1

  2
none_device
  4
ISO_A4_(210.00_x_297.00_MM)
  6

 40
7.5
 41
20.0
 42
7.5
 43
20.0
 44
210.0
 45
297.0
 46
0.0
 47
0.0
 48
0.0
 49
0.0
140
0.0
141
0.0
142
1.0
143
3.560311284
 70
   688
 72
     1
 73
     1
 74
     1
  7

 75
     0
 76
     0
 77
     2
 78
   300
147
0.2808743169
148
457.5
149
0.0
100
AcDbLayout
  1
_Unten
 70
     1
 71
     6
 10
0.0
 20
0.0
 11
0.0
 21
0.0
 12
0.0
 22
0.0
 32
0.0
 14
0.0
 24
0.0
 34
0.0
 15
0.0
 25
0.0
 35
0.0
146
0.0
 13
0.0
 23
0.0
 33
0.0
 16
1.0
 26
0.0
 36
0.0
 17
0.0
 27
1.0
 37
0.0
 76
     0
330
CB
331
173
  0
LAYOUT
  5
1E
102
{ACAD_REACTORS
330
1A
102
}
330
1A
100
AcDbPlotSettings
  1

  2
none_device
  4
ISO_A4_(210.00_x_297.00_MM)
  6

 40
7.5
 41
20.0
 42
7.5
 43
20.0
 44
210.0
 45
297.0
 46
0.0
 47
0.0
 48
0.0
 49
0.0
140
0.0
141
0.0
142
1.0
143
3.560311284
 70
   688
 72
     1
 73
     1
 74
     1
  7

 75
     0
 76
     0
 77
     2
 78
   300
147
0.2808743169
148
457.5
149
0.0
100
AcDbLayout
  1
_Vorderseite
 70
     1
 71
     1
 10
-528.7062256809
 20
-26.7023346304
 11
528.7062256809
 21
720.9630350195
 12
0.0
 22
0.0
 32
0.0
 14
-457.5
 24
0.0
 34
0.0
 15
457.5
 25
140.0
 35
0.0
146
0.0
 13
0.0
 23
0.0
 33
0.0
 16
1.0
 26
0.0
 36
0.0
 17
0.0
 27
1.0
 37
0.0
 76
     0
330
1B
331
169
  0
LAYOUT
  5
22
102
{ACAD_REACTORS
330
1A
102
}
330
1A
100
AcDbPlotSettings
  1

  2
none_device
  4
ANSI_A_(11.00_x_8.50_Inches)
  6

 40
6.35
 41
19.05
 42
6.35000508
 43
19.05000254
 44
279.4
 45
215.9
 46
133.34999746
 47
88.89999873
 48
0.0
 49
0.0
140
0.0
141
0.0
142
0.0119016393
143
1.0
 70
  1696
 72
     0
 73
     0
 74
     0
  7

 75
     0
 76
     0
 77
     2
 78
   300
147
0.0179189148
148
-1300.4909072572
149
0.0
100
AcDbLayout
  1
Model
 70
     1
 71
     0
 10
0.0
 20
0.0
 11
420.0
 21
297.0
 12
0.0
 22
0.0
 32
0.0
 14
-457.5
 24
-187.5
 34
0.0
 15
457.5
 25
187.5
 35
0.0
146
0.0
 13
0.0
 23
0.0
 33
0.0
 16
1.0
 26
0.0
 36
0.0
 17
0.0
 27
1.0
 37
0.0
 76
     0
330
1F
331
29
  0
MATERIAL
  5
45
102
{ACAD_REACTORS
330
43
102
}
330
43
100
AcDbMaterial
  1
ByBlock
 72
     1
 94
      127
  0
MATERIAL
  5
44
102
{ACAD_REACTORS
330
43
102
}
330
43
100
AcDbMaterial
  1
ByLayer
 72
     1
 94
      127
  0
MATERIAL
  5
46
102
{ACAD_REACTORS
330
43
102
}
330
43
100
AcDbMaterial
  1
Global
 72
     1
 94
      127
  0
MLEADERSTYLE
  5
6C
102
{ACAD_REACTORS
330
6B
102
}
330
6B
100
AcDbMLeaderStyle
179
     2
170
     2
171
     1
172
     0
 90
        2
 40
0.0
 41
0.0
173
     1
 91
-1056964608
340
14
 92
       -2
290
     1
 42
2.0
291
     1
 43
8.0
  3
Standard
341
0
 44
4.0
300

342
11
174
     1
178
     6
175
     1
176
     0
 93
-1056964608
 45
4.0
292
     0
297
     0
 46
4.0
343
0
 94
-1056964608
 47
1.0
 49
1.0
140
1.0
293
     1
141
0.0
294
     1
177
     0
142
1.0
295
     0
296
     0
143
3.75
271
     0
272
     9
273
     9
298
     0
  0
MLINESTYLE
  5
18
102
{ACAD_REACTORS
330
17
102
}
330
17
100
AcDbMlineStyle
  2
Standard
 70
     0
  3

 62
   256
 51
90.0
 52
90.0
 71
     2
 49
0.5
 62
   256
  6
BYLAYER
 49
-0.5
 62
   256
  6
BYLAYER
  0
ACDBPLACEHOLDER
  5
F
102
{ACAD_REACTORS
330
E
102
}
330
E
  0
SCALE
  5
48
102
{ACAD_REACTORS
330
47
102
}
330
47
100
AcDbScale
 70
     0
300
1:1
140
1.0
141
1.0
290
     1
  0
SCALE
  5
49
102
{ACAD_REACTORS
330
47
102
}
330
47
100
AcDbScale
 70
     0
300
1:2
140
1.0
141
2.0
290
     0
  0
SCALE
  5
4A
102
{ACAD_REACTORS
330
47
102
}
330
47
100
AcDbScale
 70
     0
300
1:4
140
1.0
141
4.0
290
     0
  0
SCALE
  5
4B
102
{ACAD_REACTORS
330
47
102
}
330
47
100
AcDbScale
 70
     0
300
1:5
140
1.0
141
5.0
290
     0
  0
SCALE
  5
4C
102
{ACAD_REACTORS
330
47
102
}
330
47
100
AcDbScale
 70
     0
300
1:8
140
1.0
141
8.0
290
     0
  0
SCALE
  5
4D
102
{ACAD_REACTORS
330
47
102
}
330
47
100
AcDbScale
 70
     0
300
1:10
140
1.0
141
10.0
290
     0
  0
SCALE
  5
4E
102
{ACAD_REACTORS
330
47
102
}
330
47
100
AcDbScale
 70
     0
300
1:16
140
1.0
141
16.0
290
     0
  0
SCALE
  5
4F
102
{ACAD_REACTORS
330
47
102
}
330
47
100
AcDbScale
 70
     0
300
1:20
140
1.0
141
20.0
290
     0
  0
SCALE
  5
50
102
{ACAD_REACTORS
330
47
102
}
330
47
100
AcDbScale
 70
     0
300
1:30
140
1.0
141
30.0
290
     0
  0
SCALE
  5
51
102
{ACAD_REACTORS
330
47
102
}
330
47
100
AcDbScale
 70
     0
300
1:40
140
1.0
141
40.0
290
     0
  0
SCALE
  5
52
102
{ACAD_REACTORS
330
47
102
}
330
47
100
AcDbScale
 70
     0
300
1:50
140
1.0
141
50.0
290
     0
  0
SCALE
  5
53
102
{ACAD_REACTORS
330
47
102
}
330
47
100
AcDbScale
 70
     0
300
1:100
140
1.0
141
100.0
290
     0
  0
SCALE
  5
54
102
{ACAD_REACTORS
330
47
102
}
330
47
100
AcDbScale
 70
     0
300
2:1
140
2.0
141
1.0
290
     0
  0
SCALE
  5
55
102
{ACAD_REACTORS
330
47
102
}
330
47
100
AcDbScale
 70
     0
300
4:1
140
4.0
141
1.0
290
     0
  0
SCALE
  5
56
102
{ACAD_REACTORS
330
47
102
}
330
47
100
AcDbScale
 70
     0
300
8:1
140
8.0
141
1.0
290
     0
  0
SCALE
  5
57
102
{ACAD_REACTORS
330
47
102
}
330
47
100
AcDbScale
 70
     0
300
10:1
140
10.0
141
1.0
290
     0
  0
SCALE
  5
58
102
{ACAD_REACTORS
330
47
102
}
330
47
100
AcDbScale
 70
     0
300
100:1
140
100.0
141
1.0
290
     0
  0
SCALE
  5
59
102
{ACAD_REACTORS
330
47
102
}
330
47
100
AcDbScale
 70
     0
300
1/128" = 1'-0"
140
0.0078125
141
12.0
290
     0
  0
SCALE
  5
5A
102
{ACAD_REACTORS
330
47
102
}
330
47
100
AcDbScale
 70
     0
300
1/64" = 1'-0"
140
0.015625
141
12.0
290
     0
  0
SCALE
  5
5B
102
{ACAD_REACTORS
330
47
102
}
330
47
100
AcDbScale
 70
     0
300
1/32" = 1'-0"
140
0.03125
141
12.0
290
     0
  0
SCALE
  5
5C
102
{ACAD_REACTORS
330
47
102
}
330
47
100
AcDbScale
 70
     0
300
1/16" = 1'-0"
140
0.0625
141
12.0
290
     0
  0
SCALE
  5
5D
102
{ACAD_REACTORS
330
47
102
}
330
47
100
AcDbScale
 70
     0
300
3/32" = 1'-0"
140
0.09375
141
12.0
290
     0
  0
SCALE
  5
5E
102
{ACAD_REACTORS
330
47
102
}
330
47
100
AcDbScale
 70
     0
300
1/8" = 1'-0"
140
0.125
141
12.0
290
     0
  0
SCALE
  5
5F
102
{ACAD_REACTORS
330
47
102
}
330
47
100
AcDbScale
 70
     0
300
3/16" = 1'-0"
140
0.1875
141
12.0
290
     0
  0
SCALE
  5
60
102
{ACAD_REACTORS
330
47
102
}
330
47
100
AcDbScale
 70
     0
300
1/4" = 1'-0"
140
0.25
141
12.0
290
     0
  0
SCALE
  5
61
102
{ACAD_REACTORS
330
47
102
}
330
47
100
AcDbScale
 70
     0
300
3/8" = 1'-0"
140
0.375
141
12.0
290
     0
  0
SCALE
  5
62
102
{ACAD_REACTORS
330
47
102
}
330
47
100
AcDbScale
 70
     0
300
1/2" = 1'-0"
140
0.5
141
12.0
290
     0
  0
SCALE
  5
63
102
{ACAD_REACTORS
330
47
102
}
330
47
100
AcDbScale
 70
     0
300
3/4" = 1'-0"
140
0.75
141
12.0
290
     0
  0
SCALE
  5
64
102
{ACAD_REACTORS
330
47
102
}
330
47
100
AcDbScale
 70
     0
300
1" = 1'-0"
140
1.0
141
12.0
290
     0
  0
SCALE
  5
65
102
{ACAD_REACTORS
330
47
102
}
330
47
100
AcDbScale
 70
     0
300
1-1/2" = 1'-0"
140
1.5
141
12.0
290
     0
  0
SCALE
  5
66
102
{ACAD_REACTORS
330
47
102
}
330
47
100
AcDbScale
 70
     0
300
3" = 1'-0"
140
3.0
141
12.0
290
     0
  0
SCALE
  5
67
102
{ACAD_REACTORS
330
47
102
}
330
47
100
AcDbScale
 70
     0
300
6" = 1'-0"
140
6.0
141
12.0
290
     0
  0
SCALE
  5
68
102
{ACAD_REACTORS
330
47
102
}
330
47
100
AcDbScale
 70
     0
300
1'-0" = 1'-0"
140
12.0
141
12.0
290
     0
  0
TABLESTYLE
  5
6A
102
{ACAD_REACTORS
330
69
102
}
102
{ACAD_XDICTIONARY
360
17D
102
}
330
69
100
AcDbTableStyle
  3
Standard
 70
     0
 71
     0
 40
0.06
 41
0.06
280
     0
281
     0
  7
STANDARD
140
4.5
170
     2
 62
     0
 63
   257
283
     0
 90
        4
 91
        0
  1

274
    -2
284
     1
 64
     0
275
    -2
285
     1
 65
     0
276
    -2
286
     1
 66
     0
277
    -2
287
     1
 67
     0
278
    -2
288
     1
 68
     0
279
    -2
289
     1
 69
     0
  7
STANDARD
140
6.0
170
     5
 62
     0
 63
   257
283
     0
 90
        4
 91
        0
  1

274
    -2
284
     1
 64
     0
275
    -2
285
     1
 65
     0
276
    -2
286
     1
 66
     0
277
    -2
287
     1
 67
     0
278
    -2
288
     1
 68
     0
279
    -2
289
     1
 69
     0
  7
STANDARD
140
4.5
170
     5
 62
     0
 63
   257
283
     0
 90
        4
 91
        0
  1

274
    -2
284
     1
 64
     0
275
    -2
285
     1
 65
     0
276
    -2
286
     1
 66
     0
277
    -2
287
     1
 67
     0
278
    -2
288
     1
 68
     0
279
    -2
289
     1
 69
     0
  0
VISUALSTYLE
  5
2F
102
{ACAD_REACTORS
330
2A
102
}
330
2A
100
AcDbVisualStyle
  2
2dWireframe
 70
     4
177
     3
291
     0
 70
    58
 90
        0
176
     1
 90
        2
176
     1
 90
        0
176
     1
 90
        0
176
     1
 40
0.6
176
     1
 40
30.0
176
     1
 62
     7
420
 16777215
176
     1
 90
        1
176
     1
 90
        4
176
     1
 62
     7
176
     1
 62
   257
176
     1
 90
        1
176
     1
 90
        1
176
     1
 40
1.0
176
     1
 90
        0
176
     1
 62
   257
176
     1
 40
1.0
176
     1
 90
        1
176
     1
 90
        6
176
     1
 90
        2
176
     1
 62
     7
176
     1
 90
        5
176
     1
 90
        0
176
     1
 90
        0
176
     1
290
     0
176
     1
 90
        1
176
     1
 40
0.0
176
     1
 90
        0
176
     1
290
     1
176
     1
290
     1
176
     1
290
     0
176
     1
290
     0
176
     1
290
     0
176
     1
290
     0
176
     1
290
     0
176
     1
290
     0
176
     1
290
     0
176
     1
 90
       50
176
     1
 40
0.0
176
     1
 40
1.0
176
     1
 90
        0
176
     1
 62
    18
420
        0
176
     1
 90
       50
176
     1
 90
        3
176
     1
 62
     5
420
      255
176
     1
290
     0
176
     1
 90
       50
176
     1
 90
       50
176
     1
 90
       50
176
     1
290
     0
176
     1
 90
       50
176
     1
 62
   256
176
     0
 40
1.0
176
     0
 90
        2
176
     1
  1
strokes_ogs.tif
176
     1
290
     0
176
     1
 40
1.0
176
     1
 40
1.0
176
     1
  0
VISUALSTYLE
  5
32
102
{ACAD_REACTORS
330
2A
102
}
330
2A
100
AcDbVisualStyle
  2
Basic
 70
     7
177
     3
291
     1
 70
    58
 90
        1
176
     1
 90
        0
176
     1
 90
        1
176
     1
 90
        0
176
     1
 40
0.6
176
     1
 40
30.0
176
     1
 62
     7
420
 16777215
176
     1
 90
        0
176
     1
 90
        4
176
     1
 62
     7
176
     1
 62
   257
176
     1
 90
        1
176
     1
 90
        1
176
     1
 40
1.0
176
     1
 90
        8
176
     1
 62
     7
176
     1
 40
1.0
176
     1
 90
        1
176
     1
 90
        6
176
     1
 90
        2
176
     1
 62
     7
176
     1
 90
        5
176
     1
 90
        0
176
     1
 90
        0
176
     1
290
     0
176
     1
 90
        1
176
     1
 40
0.0
176
     1
 90
        0
176
     1
290
     0
176
     1
290
     1
176
     1
290
     1
176
     1
290
     0
176
     1
290
     0
176
     1
290
     0
176
     1
290
     0
176
     1
290
     0
176
     1
290
     0
176
     1
 90
       50
176
     1
 40
0.0
176
     1
 40
1.0
176
     1
 90
        0
176
     1
 62
    18
420
        0
176
     1
 90
       50
176
     1
 90
        3
176
     1
 62
     5
420
      255
176
     1
290
     0
176
     1
 90
       50
176
     1
 90
       50
176
     1
 90
       50
176
     1
290
     0
176
     1
 90
       50
176
     1
 62
   256
176
     0
 40
1.0
176
     0
 90
        2
176
     1
  1
strokes_ogs.tif
176
     1
290
     0
176
     1
 40
1.0
176
     1
 40
1.0
176
     1
  0
VISUALSTYLE
  5
36
102
{ACAD_REACTORS
330
2A
102
}
330
2A
100
AcDbVisualStyle
  2
Brighten
 70
    12
177
     3
291
     1
 70
    58
 90
        2
176
     1
 90
        2
176
     1
 90
        0
176
     1
 90
        0
176
     1
 40
0.6
176
     1
 40
30.0
176
     1
 62
     7
420
 16777215
176
     1
 90
        1
176
     1
 90
        4
176
     1
 62
     7
176
     1
 62
   257
176
     1
 90
        1
176
     1
 90
        1
176
     1
 40
1.0
176
     1
 90
        8
176
     1
 62
     7
176
     1
 40
1.0
176
     1
 90
        1
176
     1
 90
        6
176
     1
 90
        2
176
     1
 62
     7
176
     1
 90
        5
176
     1
 90
        0
176
     1
 90
        0
176
     1
290
     0
176
     1
 90
        1
176
     1
 40
50.0
176
     1
 90
        0
176
     1
290
     0
176
     1
290
     1
176
     1
290
     1
176
     1
290
     0
176
     1
290
     0
176
     1
290
     0
176
     1
290
     0
176
     1
290
     0
176
     1
290
     0
176
     1
 90
       50
176
     1
 40
0.0
176
     1
 40
1.0
176
     1
 90
        0
176
     1
 62
    18
420
        0
176
     1
 90
       50
176
     1
 90
        3
176
     1
 62
     5
420
      255
176
     1
290
     0
176
     1
 90
       50
176
     1
 90
       50
176
     1
 90
       50
176
     1
290
     0
176
     1
 90
       50
176
     1
 62
   256
176
     0
 40
1.0
176
     0
 90
        2
176
     1
  1
strokes_ogs.tif
176
     1
290
     0
176
     1
 40
1.0
176
     1
 40
1.0
176
     1
  0
VISUALSTYLE
  5
3A
102
{ACAD_REACTORS
330
2A
102
}
330
2A
100
AcDbVisualStyle
  2
ColorChange
 70
    16
177
     3
291
     1
 70
    58
 90
        2
176
     1
 90
        2
176
     1
 90
        3
176
     1
 90
        0
176
     1
 40
0.6
176
     1
 40
30.0
176
     1
 62
     8
420
  8421504
176
     1
 90
        1
176
     1
 90
        4
176
     1
 62
     7
176
     1
 62
   257
176
     1
 90
        1
176
     1
 90
        1
176
     1
 40
1.0
176
     1
 90
        8
176
     1
 62
     8
420
  8421504
176
     1
 40
1.0
176
     1
 90
        1
176
     1
 90
        6
176
     1
 90
        2
176
     1
 62
     7
176
     1
 90
        5
176
     1
 90
        0
176
     1
 90
        0
176
     1
290
     0
176
     1
 90
        1
176
     1
 40
0.0
176
     1
 90
        0
176
     1
290
     0
176
     1
290
     1
176
     1
290
     1
176
     1
290
     0
176
     1
290
     0
176
     1
290
     0
176
     1
290
     0
176
     1
290
     0
176
     1
290
     0
176
     1
 90
       50
176
     1
 40
0.0
176
     1
 40
1.0
176
     1
 90
        0
176
     1
 62
    18
420
        0
176
     1
 90
       50
176
     1
 90
        3
176
     1
 62
     5
420
      255
176
     1
290
     0
176
     1
 90
       50
176
     1
 90
       50
176
     1
 90
       50
176
     1
290
     0
176
     1
 90
       50
176
     1
 62
   256
176
     0
 40
1.0
176
     0
 90
        2
176
     1
  1
strokes_ogs.tif
176
     1
290
     0
176
     1
 40
1.0
176
     1
 40
1.0
176
     1
  0
VISUALSTYLE
  5
34
102
{ACAD_REACTORS
330
2A
102
}
330
2A
100
AcDbVisualStyle
  2
Conceptual
 70
     9
177
     3
291
     0
 70
    58
 90
        3
176
     1
 90
        2
176
     1
 90
        0
176
     1
 90
        0
176
     1
 40
0.6
176
     1
 40
30.0
176
     1
 62
     7
420
 16777215
176
     1
 90
        2
176
     1
 90
        2
176
     1
 62
     7
176
     1
 62
   257
176
     1
 90
        1
176
     1
 90
        1
176
     1
 40
179.0
176
     1
 90
        8
176
     1
 62
     7
176
     1
 40
1.0
176
     1
 90
        1
176
     1
 90
        6
176
     1
 90
        2
176
     1
 62
     7
176
     1
 90
        3
176
     1
 90
        0
176
     1
 90
        0
176
     1
290
     0
176
     1
 90
        1
176
     1
 40
0.0
176
     1
 90
        0
176
     1
290
     0
176
     1
290
     1
176
     1
290
     1
176
     1
290
     0
176
     1
290
     0
176
     1
290
     0
176
     1
290
     0
176
     1
290
     0
176
     1
290
     0
176
     1
 90
       50
176
     1
 40
0.0
176
     1
 40
1.0
176
     1
 90
        0
176
     1
 62
    18
420
        0
176
     1
 90
       50
176
     1
 90
        3
176
     1
 62
     5
420
      255
176
     1
290
     0
176
     1
 90
       50
176
     1
 90
       50
176
     1
 90
       50
176
     1
290
     0
176
     1
 90
       50
176
     1
 62
   256
176
     0
 40
1.0
176
     0
 90
        2
176
     1
  1
strokes_ogs.tif
176
     1
290
     0
176
     1
 40
1.0
176
     1
 40
1.0
176
     1
  0
VISUALSTYLE
  5
35
102
{ACAD_REACTORS
330
2A
102
}
330
2A
100
AcDbVisualStyle
  2
Dim
 70
    11
177
     3
291
     1
 70
    58
 90
        2
176
     1
 90
        2
176
     1
 90
        0
176
     1
 90
        0
176
     1
 40
0.6
176
     1
 40
30.0
176
     1
 62
     7
420
 16777215
176
     1
 90
        1
176
     1
 90
        4
176
     1
 62
     7
176
     1
 62
   257
176
     1
 90
        1
176
     1
 90
        1
176
     1
 40
1.0
176
     1
 90
        8
176
     1
 62
     7
176
     1
 40
1.0
176
     1
 90
        1
176
     1
 90
        6
176
     1
 90
        2
176
     1
 62
     7
176
     1
 90
        5
176
     1
 90
        0
176
     1
 90
        0
176
     1
290
     0
176
     1
 90
        1
176
     1
 40
-50.0
176
     1
 90
        0
176
     1
290
     0
176
     1
290
     1
176
     1
290
     1
176
     1
290
     0
176
     1
290
     0
176
     1
290
     0
176
     1
290
     0
176
     1
290
     0
176
     1
290
     0
176
     1
 90
       50
176
     1
 40
0.0
176
     1
 40
1.0
176
     1
 90
        0
176
     1
 62
    18
420
        0
176
     1
 90
       50
176
     1
 90
        3
176
     1
 62
     5
420
      255
176
     1
290
     0
176
     1
 90
       50
176
     1
 90
       50
176
     1
 90
       50
176
     1
290
     0
176
     1
 90
       50
176
     1
 62
   256
176
     0
 40
1.0
176
     0
 90
        2
176
     1
  1
strokes_ogs.tif
176
     1
290
     0
176
     1
 40
1.0
176
     1
 40
1.0
176
     1
  0
VISUALSTYLE
  5
3D
102
{ACAD_REACTORS
330
2A
102
}
330
2A
100
AcDbVisualStyle
  2
EdgeColorOff
 70
    22
177
     3
291
     1
 70
    58
 90
        2
176
     0
 90
        2
176
     0
 90
        0
176
     0
 90
        0
176
     0
 40
0.6
176
     0
 40
30.0
176
     0
 62
     7
420
 16777215
176
     0
 90
        1
176
     0
 90
        4
176
     0
 62
     7
176
     0
 62
   257
176
     0
 90
        1
176
     0
 90
        1
176
     0
 40
1.0
176
     0
 90
        8
176
     2
 62
     7
176
     0
 40
1.0
176
     0
 90
        1
176
     0
 90
        6
176
     0
 90
        2
176
     0
 62
     7
176
     0
 90
        5
176
     0
 90
        0
176
     0
 90
        0
176
     0
290
     0
176
     0
 90
        1
176
     0
 40
0.0
176
     0
 90
        0
176
     0
290
     0
176
     0
290
     1
176
     0
290
     1
176
     0
290
     0
176
     0
290
     0
176
     0
290
     0
176
     0
290
     0
176
     0
290
     0
176
     0
290
     0
176
     0
 90
       50
176
     0
 40
0.0
176
     0
 40
1.0
176
     0
 90
        0
176
     0
 62
    18
420
        0
176
     0
 90
       50
176
     0
 90
        3
176
     0
 62
     5
420
      255
176
     0
290
     0
176
     0
 90
       50
176
     0
 90
       50
176
     0
 90
       50
176
     0
290
     0
176
     0
 90
       50
176
     0
 62
   256
176
     0
 40
1.0
176
     0
 90
        2
176
     0
  1
strokes_ogs.tif
176
     0
290
     0
176
     0
 40
1.0
176
     0
 40
1.0
176
     0
  0
VISUALSTYLE
  5
39
102
{ACAD_REACTORS
330
2A
102
}
330
2A
100
AcDbVisualStyle
  2
Facepattern
 70
    15
177
     3
291
     1
 70
    58
 90
        2
176
     1
 90
        2
176
     1
 90
        0
176
     1
 90
        0
176
     1
 40
0.6
176
     1
 40
30.0
176
     1
 62
     7
420
 16777215
176
     1
 90
        1
176
     1
 90
        4
176
     1
 62
     7
176
     1
 62
   257
176
     1
 90
        1
176
     1
 90
        1
176
     1
 40
1.0
176
     1
 90
        8
176
     1
 62
     7
176
     1
 40
1.0
176
     1
 90
        1
176
     1
 90
        6
176
     1
 90
        2
176
     1
 62
     7
176
     1
 90
        5
176
     1
 90
        0
176
     1
 90
        0
176
     1
290
     0
176
     1
 90
        1
176
     1
 40
0.0
176
     1
 90
        0
176
     1
290
     0
176
     1
290
     1
176
     1
290
     1
176
     1
290
     0
176
     1
290
     0
176
     1
290
     0
176
     1
290
     0
176
     1
290
     0
176
     1
290
     0
176
     1
 90
       50
176
     1
 40
0.0
176
     1
 40
1.0
176
     1
 90
        0
176
     1
 62
    18
420
        0
176
     1
 90
       50
176
     1
 90
        3
176
     1
 62
     5
420
      255
176
     1
290
     0
176
     1
 90
       50
176
     1
 90
       50
176
     1
 90
       50
176
     1
290
     0
176
     1
 90
       50
176
     1
 62
   256
176
     0
 40
1.0
176
     0
 90
        2
176
     1
  1
strokes_ogs.tif
176
     1
290
     0
176
     1
 40
1.0
176
     1
 40
1.0
176
     1
  0
VISUALSTYLE
  5
2B
102
{ACAD_REACTORS
330
2A
102
}
330
2A
100
AcDbVisualStyle
  2
Flat
 70
     0
177
     3
291
     1
 70
    58
 90
        2
176
     1
 90
        1
176
     1
 90
        1
176
     1
 90
        2
176
     1
 40
0.6
176
     1
 40
30.0
176
     1
 62
     7
420
 16777215
176
     1
 90
        0
176
     1
 90
        0
176
     1
 62
     7
176
     1
 62
   257
176
     1
 90
        1
176
     1
 90
        1
176
     1
 40
1.0
176
     1
 90
        8
176
     1
 62
     7
176
     1
 40
1.0
176
     1
 90
        1
176
     1
 90
        6
176
     1
 90
        2
176
     1
 62
     7
176
     1
 90
        5
176
     1
 90
        0
176
     1
 90
        0
176
     1
290
     0
176
     1
 90
       13
176
     1
 40
0.0
176
     1
 90
        0
176
     1
290
     0
176
     1
290
     1
176
     1
290
     1
176
     1
290
     0
176
     1
290
     0
176
     1
290
     0
176
     1
290
     0
176
     1
290
     0
176
     1
290
     0
176
     1
 90
       50
176
     1
 40
0.0
176
     1
 40
1.0
176
     1
 90
        0
176
     1
 62
    18
420
        0
176
     1
 90
       50
176
     1
 90
        3
176
     1
 62
     5
420
      255
176
     1
290
     0
176
     1
 90
       50
176
     1
 90
       50
176
     1
 90
       50
176
     1
290
     0
176
     1
 90
       50
176
     1
 62
   256
176
     0
 40
1.0
176
     0
 90
        2
176
     1
  1
strokes_ogs.tif
176
     1
290
     0
176
     1
 40
1.0
176
     1
 40
1.0
176
     1
  0
VISUALSTYLE
  5
2C
102
{ACAD_REACTORS
330
2A
102
}
330
2A
100
AcDbVisualStyle
  2
FlatWithEdges
 70
     1
177
     3
291
     1
 70
    58
 90
        2
176
     1
 90
        1
176
     1
 90
        1
176
     1
 90
        2
176
     1
 40
0.6
176
     1
 40
30.0
176
     1
 62
     7
420
 16777215
176
     1
 90
        1
176
     1
 90
        0
176
     1
 62
     7
176
     1
 62
   257
176
     1
 90
        1
176
     1
 90
        1
176
     1
 40
1.0
176
     1
 90
        0
176
     1
 62
   257
176
     1
 40
1.0
176
     1
 90
        1
176
     1
 90
        6
176
     1
 90
        2
176
     1
 62
     7
176
     1
 90
        5
176
     1
 90
        0
176
     1
 90
        0
176
     1
290
     0
176
     1
 90
       13
176
     1
 40
0.0
176
     1
 90
        0
176
     1
290
     0
176
     1
290
     1
176
     1
290
     1
176
     1
290
     0
176
     1
290
     0
176
     1
290
     0
176
     1
290
     0
176
     1
290
     0
176
     1
290
     0
176
     1
 90
       50
176
     1
 40
0.0
176
     1
 40
1.0
176
     1
 90
        0
176
     1
 62
    18
420
        0
176
     1
 90
       50
176
     1
 90
        3
176
     1
 62
     5
420
      255
176
     1
290
     0
176
     1
 90
       50
176
     1
 90
       50
176
     1
 90
       50
176
     1
290
     0
176
     1
 90
       50
176
     1
 62
   256
176
     0
 40
1.0
176
     0
 90
        2
176
     1
  1
strokes_ogs.tif
176
     1
290
     0
176
     1
 40
1.0
176
     1
 40
1.0
176
     1
  0
VISUALSTYLE
  5
2D
102
{ACAD_REACTORS
330
2A
102
}
330
2A
100
AcDbVisualStyle
  2
Gouraud
 70
     2
177
     3
291
     1
 70
    58
 90
        2
176
     1
 90
        2
176
     1
 90
        1
176
     1
 90
        2
176
     1
 40
0.6
176
     1
 40
30.0
176
     1
 62
     7
420
 16777215
176
     1
 90
        0
176
     1
 90
        0
176
     1
 62
     7
176
     1
 62
   257
176
     1
 90
        1
176
     1
 90
        1
176
     1
 40
1.0
176
     1
 90
        0
176
     1
 62
     7
176
     1
 40
1.0
176
     1
 90
        1
176
     1
 90
        6
176
     1
 90
        2
176
     1
 62
     7
176
     1
 90
        5
176
     1
 90
        0
176
     1
 90
        0
176
     1
290
     0
176
     1
 90
       13
176
     1
 40
0.0
176
     1
 90
        0
176
     1
290
     0
176
     1
290
     1
176
     1
290
     1
176
     1
290
     0
176
     1
290
     0
176
     1
290
     0
176
     1
290
     0
176
     1
290
     0
176
     1
290
     0
176
     1
 90
       50
176
     1
 40
0.0
176
     1
 40
1.0
176
     1
 90
        0
176
     1
 62
    18
420
        0
176
     1
 90
       50
176
     1
 90
        3
176
     1
 62
     5
420
      255
176
     1
290
     0
176
     1
 90
       50
176
     1
 90
       50
176
     1
 90
       50
176
     1
290
     0
176
     1
 90
       50
176
     1
 62
   256
176
     0
 40
1.0
176
     0
 90
        2
176
     1
  1
strokes_ogs.tif
176
     1
290
     0
176
     1
 40
1.0
176
     1
 40
1.0
176
     1
  0
VISUALSTYLE
  5
2E
102
{ACAD_REACTORS
330
2A
102
}
330
2A
100
AcDbVisualStyle
  2
GouraudWithEdges
 70
     3
177
     3
291
     1
 70
    58
 90
        2
176
     1
 90
        2
176
     1
 90
        1
176
     1
 90
        2
176
     1
 40
0.6
176
     1
 40
30.0
176
     1
 62
     7
420
 16777215
176
     1
 90
        1
176
     1
 90
        0
176
     1
 62
     7
176
     1
 62
   257
176
     1
 90
        1
176
     1
 90
        1
176
     1
 40
1.0
176
     1
 90
        0
176
     1
 62
   257
176
     1
 40
1.0
176
     1
 90
        1
176
     1
 90
        6
176
     1
 90
        2
176
     1
 62
     7
176
     1
 90
        5
176
     1
 90
        0
176
     1
 90
        0
176
     1
290
     0
176
     1
 90
       13
176
     1
 40
0.0
176
     1
 90
        0
176
     1
290
     0
176
     1
290
     1
176
     1
290
     1
176
     1
290
     0
176
     1
290
     0
176
     1
290
     0
176
     1
290
     0
176
     1
290
     0
176
     1
290
     0
176
     1
 90
       50
176
     1
 40
0.0
176
     1
 40
1.0
176
     1
 90
        0
176
     1
 62
    18
420
        0
176
     1
 90
       50
176
     1
 90
        3
176
     1
 62
     5
420
      255
176
     1
290
     0
176
     1
 90
       50
176
     1
 90
       50
176
     1
 90
       50
176
     1
290
     0
176
     1
 90
       50
176
     1
 62
   256
176
     0
 40
1.0
176
     0
 90
        2
176
     1
  1
strokes_ogs.tif
176
     1
290
     0
176
     1
 40
1.0
176
     1
 40
1.0
176
     1
  0
VISUALSTYLE
  5
31
102
{ACAD_REACTORS
330
2A
102
}
330
2A
100
AcDbVisualStyle
  2
Hidden
 70
     6
177
     3
291
     0
 70
    58
 90
        1
176
     1
 90
        2
176
     1
 90
        2
176
     1
 90
        0
176
     1
 40
0.6
176
     1
 40
30.0
176
     1
 62
     7
420
 16777215
176
     1
 90
        2
176
     1
 90
        2
176
     1
 62
     7
176
     1
 62
   257
176
     1
 90
        2
176
     1
 90
        1
176
     1
 40
40.0
176
     1
 90
        0
176
     1
 62
   257
176
     1
 40
1.0
176
     1
 90
        1
176
     1
 90
        6
176
     1
 90
        2
176
     1
 62
     7
176
     1
 90
        3
176
     1
 90
        0
176
     1
 90
        0
176
     1
290
     0
176
     1
 90
        1
176
     1
 40
0.0
176
     1
 90
        0
176
     1
290
     0
176
     1
290
     1
176
     1
290
     1
176
     1
290
     0
176
     1
290
     0
176
     1
290
     0
176
     1
290
     0
176
     1
290
     0
176
     1
290
     0
176
     1
 90
       50
176
     1
 40
0.0
176
     1
 40
1.0
176
     1
 90
        0
176
     1
 62
    18
420
        0
176
     1
 90
       50
176
     1
 90
        3
176
     1
 62
     5
420
      255
176
     1
290
     0
176
     1
 90
       50
176
     1
 90
       50
176
     1
 90
       50
176
     1
290
     0
176
     1
 90
       50
176
     1
 62
   256
176
     0
 40
1.0
176
     0
 90
        2
176
     1
  1
strokes_ogs.tif
176
     1
290
     0
176
     1
 40
1.0
176
     1
 40
1.0
176
     1
  0
VISUALSTYLE
  5
3B
102
{ACAD_REACTORS
330
2A
102
}
330
2A
100
AcDbVisualStyle
  2
JitterOff
 70
    20
177
     3
291
     1
 70
    58
 90
        2
176
     0
 90
        2
176
     0
 90
        0
176
     0
 90
        0
176
     0
 40
0.6
176
     0
 40
30.0
176
     0
 62
     7
420
 16777215
176
     0
 90
        1
176
     0
 90
        4
176
     0
 62
     7
176
     0
 62
   257
176
     0
 90
        1
176
     0
 90
        1
176
     0
 40
1.0
176
     0
 90
       10
176
     2
 62
     7
176
     0
 40
1.0
176
     0
 90
        1
176
     0
 90
        6
176
     0
 90
        2
176
     0
 62
     7
176
     0
 90
        5
176
     0
 90
        0
176
     0
 90
        0
176
     0
290
     0
176
     0
 90
        1
176
     0
 40
0.0
176
     0
 90
        0
176
     0
290
     0
176
     0
290
     1
176
     0
290
     1
176
     0
290
     0
176
     0
290
     0
176
     0
290
     0
176
     0
290
     0
176
     0
290
     0
176
     0
290
     0
176
     0
 90
       50
176
     0
 40
0.0
176
     0
 40
1.0
176
     0
 90
        0
176
     0
 62
    18
420
        0
176
     0
 90
       50
176
     0
 90
        3
176
     0
 62
     5
420
      255
176
     0
290
     0
176
     0
 90
       50
176
     0
 90
       50
176
     0
 90
       50
176
     0
290
     0
176
     0
 90
       50
176
     0
 62
   256
176
     0
 40
1.0
176
     0
 90
        2
176
     0
  1
strokes_ogs.tif
176
     0
290
     0
176
     0
 40
1.0
176
     0
 40
1.0
176
     0
  0
VISUALSTYLE
  5
38
102
{ACAD_REACTORS
330
2A
102
}
330
2A
100
AcDbVisualStyle
  2
Linepattern
 70
    14
177
     3
291
     1
 70
    58
 90
        2
176
     1
 90
        2
176
     1
 90
        0
176
     1
 90
        0
176
     1
 40
0.6
176
     1
 40
30.0
176
     1
 62
     7
420
 16777215
176
     1
 90
        1
176
     1
 90
        4
176
     1
 62
     7
176
     1
 62
   257
176
     1
 90
        7
176
     1
 90
        7
176
     1
 40
1.0
176
     1
 90
        8
176
     1
 62
     7
176
     1
 40
1.0
176
     1
 90
        1
176
     1
 90
        6
176
     1
 90
        2
176
     1
 62
     7
176
     1
 90
        5
176
     1
 90
        0
176
     1
 90
        0
176
     1
290
     0
176
     1
 90
        1
176
     1
 40
0.0
176
     1
 90
        0
176
     1
290
     0
176
     1
290
     1
176
     1
290
     1
176
     1
290
     0
176
     1
290
     0
176
     1
290
     0
176
     1
290
     0
176
     1
290
     0
176
     1
290
     0
176
     1
 90
       50
176
     1
 40
0.0
176
     1
 40
1.0
176
     1
 90
        0
176
     1
 62
    18
420
        0
176
     1
 90
       50
176
     1
 90
        3
176
     1
 62
     5
420
      255
176
     1
290
     0
176
     1
 90
       50
176
     1
 90
       50
176
     1
 90
       50
176
     1
290
     0
176
     1
 90
       50
176
     1
 62
   256
176
     0
 40
1.0
176
     0
 90
        2
176
     1
  1
strokes_ogs.tif
176
     1
290
     0
176
     1
 40
1.0
176
     1
 40
1.0
176
     1
  0
VISUALSTYLE
  5
3C
102
{ACAD_REACTORS
330
2A
102
}
330
2A
100
AcDbVisualStyle
  2
OverhangOff
 70
    21
177
     3
291
     1
 70
    58
 90
        2
176
     0
 90
        2
176
     0
 90
        0
176
     0
 90
        0
176
     0
 40
0.6
176
     0
 40
30.0
176
     0
 62
     7
420
 16777215
176
     0
 90
        1
176
     0
 90
        4
176
     0
 62
     7
176
     0
 62
   257
176
     0
 90
        1
176
     0
 90
        1
176
     0
 40
1.0
176
     0
 90
        9
176
     2
 62
     7
176
     0
 40
1.0
176
     0
 90
        1
176
     0
 90
        6
176
     0
 90
        2
176
     0
 62
     7
176
     0
 90
        5
176
     0
 90
        0
176
     0
 90
        0
176
     0
290
     0
176
     0
 90
        1
176
     0
 40
0.0
176
     0
 90
        0
176
     0
290
     0
176
     0
290
     1
176
     0
290
     1
176
     0
290
     0
176
     0
290
     0
176
     0
290
     0
176
     0
290
     0
176
     0
290
     0
176
     0
290
     0
176
     0
 90
       50
176
     0
 40
0.0
176
     0
 40
1.0
176
     0
 90
        0
176
     0
 62
    18
420
        0
176
     0
 90
       50
176
     0
 90
        3
176
     0
 62
     5
420
      255
176
     0
290
     0
176
     0
 90
       50
176
     0
 90
       50
176
     0
 90
       50
176
     0
290
     0
176
     0
 90
       50
176
     0
 62
   256
176
     0
 40
1.0
176
     0
 90
        2
176
     0
  1
strokes_ogs.tif
176
     0
290
     0
176
     0
 40
1.0
176
     0
 40
1.0
176
     0
  0
VISUALSTYLE
  5
33
102
{ACAD_REACTORS
330
2A
102
}
330
2A
100
AcDbVisualStyle
  2
Realistic
 70
     8
177
     3
291
     0
 70
    58
 90
        2
176
     1
 90
        3
176
     1
 90
        0
176
     1
 90
        2
176
     1
 40
0.6
176
     1
 40
30.0
176
     1
 62
     7
420
 16777215
176
     1
 90
        0
176
     1
 90
        0
176
     1
 62
     7
176
     1
 62
   257
176
     1
 90
        1
176
     1
 90
        1
176
     1
 40
1.0
176
     1
 90
        8
176
     1
 62
   257
176
     1
 40
1.0
176
     1
 90
        1
176
     1
 90
        6
176
     1
 90
        2
176
     1
 62
     7
176
     1
 90
        3
176
     1
 90
        0
176
     1
 90
        0
176
     1
290
     0
176
     1
 90
       13
176
     1
 40
0.0
176
     1
 90
        0
176
     1
290
     0
176
     1
290
     1
176
     1
290
     1
176
     1
290
     0
176
     1
290
     0
176
     1
290
     0
176
     1
290
     0
176
     1
290
     0
176
     1
290
     0
176
     1
 90
       50
176
     1
 40
0.0
176
     1
 40
1.0
176
     1
 90
        0
176
     1
 62
    18
420
        0
176
     1
 90
       50
176
     1
 90
        3
176
     1
 62
     5
420
      255
176
     1
290
     0
176
     1
 90
       50
176
     1
 90
       50
176
     1
 90
       50
176
     1
290
     0
176
     1
 90
       50
176
     1
 62
   256
176
     0
 40
1.0
176
     0
 90
        2
176
     1
  1
strokes_ogs.tif
176
     1
290
     0
176
     1
 40
1.0
176
     1
 40
1.0
176
     1
  0
VISUALSTYLE
  5
42
102
{ACAD_REACTORS
330
2A
102
}
330
2A
100
AcDbVisualStyle
  2
Shaded
 70
    27
177
     3
291
     0
 70
    58
 90
        2
176
     1
 90
        2
176
     1
 90
        1
176
     1
 90
        2
176
     1
 40
0.6
176
     1
 40
30.0
176
     1
 62
     7
420
 16777215
176
     1
 90
        0
176
     1
 90
        4
176
     1
 62
     7
176
     1
 62
   257
176
     1
 90
        1
176
     1
 90
        1
176
     1
 40
1.0
176
     1
 90
        8
176
     1
 62
   257
176
     1
 40
1.0
176
     1
 90
        1
176
     1
 90
        6
176
     1
 90
        2
176
     1
 62
     8
420
  7895160
176
     1
 90
        3
176
     1
 90
        0
176
     1
 90
        0
176
     1
290
     0
176
     1
 90
        5
176
     1
 40
0.0
176
     1
 90
        0
176
     1
290
     0
176
     1
290
     1
176
     1
290
     1
176
     1
290
     0
176
     1
290
     0
176
     1
290
     0
176
     1
290
     0
176
     1
290
     0
176
     1
290
     0
176
     1
 90
       50
176
     1
 40
0.0
176
     1
 40
1.0
176
     1
 90
        0
176
     1
 62
    18
420
        0
176
     1
 90
       50
176
     1
 90
        3
176
     1
 62
     5
420
      255
176
     1
290
     0
176
     1
 90
       50
176
     1
 90
       50
176
     1
 90
       50
176
     1
290
     0
176
     1
 90
       50
176
     1
 62
   256
176
     0
 40
1.0
176
     0
 90
        2
176
     1
  1
strokes_ogs.tif
176
     1
290
     0
176
     1
 40
1.0
176
     1
 40
1.0
176
     1
  0
VISUALSTYLE
  5
41
102
{ACAD_REACTORS
330
2A
102
}
330
2A
100
AcDbVisualStyle
  2
Shaded with edges
 70
    26
177
     3
291
     0
 70
    58
 90
        2
176
     1
 90
        2
176
     1
 90
        1
176
     1
 90
        2
176
     1
 40
0.6
176
     1
 40
30.0
176
     1
 62
     7
420
 16777215
176
     1
 90
        1
176
     1
 90
       10
176
     1
 62
     7
176
     1
 62
   257
176
     1
 90
        2
176
     1
 90
        1
176
     1
 40
1.0
176
     1
 90
        8
176
     1
 62
   257
176
     1
 40
1.0
176
     1
 90
        1
176
     1
 90
        6
176
     1
 90
        2
176
     1
 62
     7
176
     1
 90
        3
176
     1
 90
        0
176
     1
 90
        0
176
     1
290
     0
176
     1
 90
        5
176
     1
 40
0.0
176
     1
 90
        0
176
     1
290
     0
176
     1
290
     1
176
     1
290
     1
176
     1
290
     0
176
     1
290
     0
176
     1
290
     0
176
     1
290
     0
176
     1
290
     0
176
     1
290
     0
176
     1
 90
       50
176
     1
 40
0.0
176
     1
 40
1.0
176
     1
 90
        0
176
     1
 62
    18
420
        0
176
     1
 90
       50
176
     1
 90
        3
176
     1
 62
     5
420
      255
176
     1
290
     0
176
     1
 90
       50
176
     1
 90
       50
176
     1
 90
       50
176
     1
290
     0
176
     1
 90
       50
176
     1
 62
   256
176
     0
 40
1.0
176
     0
 90
        2
176
     1
  1
strokes_ogs.tif
176
     1
290
     0
176
     1
 40
1.0
176
     1
 40
1.0
176
     1
  0
VISUALSTYLE
  5
3E
102
{ACAD_REACTORS
330
2A
102
}
330
2A
100
AcDbVisualStyle
  2
Shades of Gray
 70
    23
177
     3
291
     0
 70
    58
 90
        2
176
     1
 90
        2
176
     1
 90
        3
176
     1
 90
        0
176
     1
 40
0.6
176
     1
 40
30.0
176
     1
 62
     7
420
 16777215
176
     1
 90
        2
176
     1
 90
        2
176
     1
 62
     7
176
     1
 62
     7
176
     1
 90
        1
176
     1
 90
        1
176
     1
 40
40.0
176
     1
 90
        8
176
     1
 62
     7
176
     1
 40
1.0
176
     1
 90
        1
176
     1
 90
        6
176
     1
 90
        2
176
     1
 62
     7
176
     1
 90
        3
176
     1
 90
        0
176
     1
 90
        0
176
     1
290
     0
176
     1
 90
        1
176
     1
 40
0.0
176
     1
 90
        0
176
     1
290
     0
176
     1
290
     1
176
     1
290
     1
176
     1
290
     0
176
     1
290
     0
176
     1
290
     0
176
     1
290
     0
176
     1
290
     0
176
     1
290
     0
176
     1
 90
       50
176
     1
 40
0.0
176
     1
 40
1.0
176
     1
 90
        0
176
     1
 62
    18
420
        0
176
     1
 90
       50
176
     1
 90
        3
176
     1
 62
     5
420
      255
176
     1
290
     0
176
     1
 90
       50
176
     1
 90
       50
176
     1
 90
       50
176
     1
290
     0
176
     1
 90
       50
176
     1
 62
   256
176
     0
 40
1.0
176
     0
 90
        2
176
     1
  1
strokes_ogs.tif
176
     1
290
     0
176
     1
 40
1.0
176
     1
 40
1.0
176
     1
  0
VISUALSTYLE
  5
3F
102
{ACAD_REACTORS
330
2A
102
}
330
2A
100
AcDbVisualStyle
  2
Sketchy
 70
    24
177
     3
291
     0
 70
    58
 90
        1
176
     1
 90
        2
176
     1
 90
        2
176
     1
 90
        0
176
     1
 40
0.6
176
     1
 40
30.0
176
     1
 62
     7
420
 16777215
176
     1
 90
        2
176
     1
 90
        2
176
     1
 62
     7
176
     1
 62
     7
176
     1
 90
        1
176
     1
 90
        1
176
     1
 40
40.0
176
     1
 90
       11
176
     1
 62
     7
176
     1
 40
1.0
176
     1
 90
        1
176
     1
 90
        6
176
     1
 90
        2
176
     1
 62
     7
176
     1
 90
        6
176
     1
 90
        0
176
     1
 90
        0
176
     1
290
     0
176
     1
 90
        1
176
     1
 40
0.0
176
     1
 90
        0
176
     1
290
     0
176
     1
290
     1
176
     1
290
     1
176
     1
290
     0
176
     1
290
     0
176
     1
290
     0
176
     1
290
     0
176
     1
290
     0
176
     1
290
     0
176
     1
 90
       50
176
     1
 40
0.0
176
     1
 40
1.0
176
     1
 90
        0
176
     1
 62
    18
420
        0
176
     1
 90
       50
176
     1
 90
        3
176
     1
 62
     5
420
      255
176
     1
290
     0
176
     1
 90
       50
176
     1
 90
       50
176
     1
 90
       50
176
     1
290
     0
176
     1
 90
       50
176
     1
 62
   256
176
     0
 40
1.0
176
     0
 90
        2
176
     1
  1
strokes_ogs.tif
176
     1
290
     0
176
     1
 40
1.0
176
     1
 40
1.0
176
     1
  0
VISUALSTYLE
  5
37
102
{ACAD_REACTORS
330
2A
102
}
330
2A
100
AcDbVisualStyle
  2
Thicken
 70
    13
177
     3
291
     1
 70
    58
 90
        2
176
     1
 90
        2
176
     1
 90
        0
176
     1
 90
        0
176
     1
 40
0.6
176
     1
 40
30.0
176
     1
 62
     7
420
 16777215
176
     1
 90
        1
176
     1
 90
        4
176
     1
 62
     7
176
     1
 62
   257
176
     1
 90
        1
176
     1
 90
        1
176
     1
 40
1.0
176
     1
 90
       12
176
     1
 62
     7
176
     1
 40
1.0
176
     1
 90
        1
176
     1
 90
        6
176
     1
 90
        2
176
     1
 62
     7
176
     1
 90
        5
176
     1
 90
        0
176
     1
 90
        0
176
     1
290
     0
176
     1
 90
        1
176
     1
 40
0.0
176
     1
 90
        0
176
     1
290
     0
176
     1
290
     1
176
     1
290
     1
176
     1
290
     0
176
     1
290
     0
176
     1
290
     0
176
     1
290
     0
176
     1
290
     0
176
     1
290
     0
176
     1
 90
       50
176
     1
 40
0.0
176
     1
 40
1.0
176
     1
 90
        0
176
     1
 62
    18
420
        0
176
     1
 90
       50
176
     1
 90
        3
176
     1
 62
     5
420
      255
176
     1
290
     0
176
     1
 90
       50
176
     1
 90
       50
176
     1
 90
       50
176
     1
290
     0
176
     1
 90
       50
176
     1
 62
   256
176
     0
 40
1.0
176
     0
 90
        2
176
     1
  1
strokes_ogs.tif
176
     1
290
     0
176
     1
 40
1.0
176
     1
 40
1.0
176
     1
  0
VISUALSTYLE
  5
30
102
{ACAD_REACTORS
330
2A
102
}
330
2A
100
AcDbVisualStyle
  2
Wireframe
 70
     5
177
     3
291
     0
 70
    58
 90
        0
176
     1
 90
        2
176
     1
 90
        0
176
     1
 90
        0
176
     1
 40
0.6
176
     1
 40
30.0
176
     1
 62
     7
420
 16777215
176
     1
 90
        1
176
     1
 90
        4
176
     1
 62
     7
176
     1
 62
   257
176
     1
 90
        1
176
     1
 90
        1
176
     1
 40
1.0
176
     1
 90
        0
176
     1
 62
   257
176
     1
 40
1.0
176
     1
 90
        1
176
     1
 90
        6
176
     1
 90
        2
176
     1
 62
     7
176
     1
 90
        3
176
     1
 90
        0
176
     1
 90
        0
176
     1
290
     0
176
     1
 90
        1
176
     1
 40
0.0
176
     1
 90
        0
176
     1
290
     0
176
     1
290
     1
176
     1
290
     1
176
     1
290
     0
176
     1
290
     0
176
     1
290
     0
176
     1
290
     0
176
     1
290
     0
176
     1
290
     0
176
     1
 90
       50
176
     1
 40
0.0
176
     1
 40
1.0
176
     1
 90
        0
176
     1
 62
    18
420
        0
176
     1
 90
       50
176
     1
 90
        3
176
     1
 62
     5
420
      255
176
     1
290
     0
176
     1
 90
       50
176
     1
 90
       50
176
     1
 90
       50
176
     1
290
     0
176
     1
 90
       50
176
     1
 62
   256
176
     0
 40
1.0
176
     0
 90
        2
176
     1
  1
strokes_ogs.tif
176
     1
290
     0
176
     1
 40
1.0
176
     1
 40
1.0
176
     1
  0
VISUALSTYLE
  5
40
102
{ACAD_REACTORS
330
2A
102
}
330
2A
100
AcDbVisualStyle
  2
X-Ray
 70
    25
177
     3
291
     0
 70
    58
 90
        2
176
     1
 90
        2
176
     1
 90
        1
176
     1
 90
        1
176
     1
 40
0.5
176
     1
 40
30.0
176
     1
 62
     7
420
 16777215
176
     1
 90
        1
176
     1
 90
        0
176
     1
 62
     7
176
     1
 62
   257
176
     1
 90
        1
176
     1
 90
        1
176
     1
 40
1.0
176
     1
 90
        8
176
     1
 62
     7
176
     1
 40
1.0
176
     1
 90
        1
176
     1
 90
        6
176
     1
 90
        2
176
     1
 62
     7
176
     1
 90
        3
176
     1
 90
        0
176
     1
 90
        0
176
     1
290
     0
176
     1
 90
       13
176
     1
 40
0.0
176
     1
 90
        0
176
     1
290
     0
176
     1
290
     1
176
     1
290
     1
176
     1
290
     0
176
     1
290
     0
176
     1
290
     0
176
     1
290
     0
176
     1
290
     0
176
     1
290
     0
176
     1
 90
       50
176
     1
 40
0.0
176
     1
 40
1.0
176
     1
 90
        0
176
     1
 62
    18
420
        0
176
     1
 90
       50
176
     1
 90
        3
176
     1
 62
     5
420
      255
176
     1
290
     0
176
     1
 90
       50
176
     1
 90
       50
176
     1
 90
       50
176
     1
290
     0
176
     1
 90
       50
176
     1
 62
   256
176
     0
 40
1.0
176
     0
 90
        2
176
     1
  1
strokes_ogs.tif
176
     1
290
     0
176
     1
 40
1.0
176
     1
 40
1.0
176
     1
  0
DICTIONARYVAR
  5
17C
102
{ACAD_REACTORS
330
17B
102
}
330
17B
100
DictionaryVariables
280
     0
  1
1:1
  0
DICTIONARYVAR
  5
181
102
{ACAD_REACTORS
330
17B
102
}
330
17B
100
DictionaryVariables
280
     0
  1
Standard
  0
DICTIONARYVAR
  5
180
102
{ACAD_REACTORS
330
17B
102
}
330
17B
100
DictionaryVariables
280
     0
  1
Standard
  0
DICTIONARY
  5
17D
330
6A
100
AcDbDictionary
280
     1
281
     1
  3
ACAD_ROUNDTRIP_2008_TABLESTYLE_CELLSTYLEMAP
360
17E
  0
CELLSTYLEMAP
  5
17E
102
{ACAD_REACTORS
330
17D
102
}
330
17D
100
AcDbCellStyleMap
 90
        3
300
CELLSTYLE
  1
TABLEFORMAT_BEGIN
 90
        5
170
     1
 91
        0
 92
    32768
 62
   257
 93
        1
300
CONTENTFORMAT
  1
CONTENTFORMAT_BEGIN
 90
        0
 91
        0
 92
        4
 93
        0
300

 40
0.0
140
1.0
 94
        5
 62
     0
340
11
144
6.0
309
CONTENTFORMAT_END
171
     1
301
MARGIN
  1
CELLMARGIN_BEGIN
 40
1.5
 40
1.5
 40
1.5
 40
1.5
 40
1.5
 40
1.5
309
CELLMARGIN_END
 94
        6
 95
        1
302
GRIDFORMAT
  1
GRIDFORMAT_BEGIN
 90
        0
 91
        1
 62
     0
 92
       -2
340
14
 93
        0
 40
0.045
309
GRIDFORMAT_END
 95
        2
302
GRIDFORMAT
  1
GRIDFORMAT_BEGIN
 90
        0
 91
        1
 62
     0
 92
       -2
340
14
 93
        0
 40
0.045
309
GRIDFORMAT_END
 95
        4
302
GRIDFORMAT
  1
GRIDFORMAT_BEGIN
 90
        0
 91
        1
 62
     0
 92
       -2
340
14
 93
        0
 40
0.045
309
GRIDFORMAT_END
 95
        8
302
GRIDFORMAT
  1
GRIDFORMAT_BEGIN
 90
        0
 91
        1
 62
     0
 92
       -2
340
14
 93
        0
 40
0.045
309
GRIDFORMAT_END
 95
       16
302
GRIDFORMAT
  1
GRIDFORMAT_BEGIN
 90
        0
 91
        1
 62
     0
 92
       -2
340
14
 93
        0
 40
0.045
309
GRIDFORMAT_END
 95
       32
302
GRIDFORMAT
  1
GRIDFORMAT_BEGIN
 90
        0
 91
        1
 62
     0
 92
       -2
340
14
 93
        0
 40
0.045
309
GRIDFORMAT_END
309
TABLEFORMAT_END
  1
CELLSTYLE_BEGIN
 90
        1
 91
        1
300
_TITLE
309
CELLSTYLE_END
300
CELLSTYLE
  1
TABLEFORMAT_BEGIN
 90
        5
170
     1
 91
        0
 92
        0
 62
   257
 93
        1
300
CONTENTFORMAT
  1
CONTENTFORMAT_BEGIN
 90
        0
 91
        0
 92
        4
 93
        0
300

 40
0.0
140
1.0
 94
        5
 62
     0
340
11
144
4.5
309
CONTENTFORMAT_END
171
     1
301
MARGIN
  1
CELLMARGIN_BEGIN
 40
1.5
 40
1.5
 40
1.5
 40
1.5
 40
1.5
 40
1.5
309
CELLMARGIN_END
 94
        6
 95
        1
302
GRIDFORMAT
  1
GRIDFORMAT_BEGIN
 90
        0
 91
        1
 62
     0
 92
       -2
340
14
 93
        0
 40
0.045
309
GRIDFORMAT_END
 95
        2
302
GRIDFORMAT
  1
GRIDFORMAT_BEGIN
 90
        0
 91
        1
 62
     0
 92
       -2
340
14
 93
        0
 40
0.045
309
GRIDFORMAT_END
 95
        4
302
GRIDFORMAT
  1
GRIDFORMAT_BEGIN
 90
        0
 91
        1
 62
     0
 92
       -2
340
14
 93
        0
 40
0.045
309
GRIDFORMAT_END
 95
        8
302
GRIDFORMAT
  1
GRIDFORMAT_BEGIN
 90
        0
 91
        1
 62
     0
 92
       -2
340
14
 93
        0
 40
0.045
309
GRIDFORMAT_END
 95
       16
302
GRIDFORMAT
  1
GRIDFORMAT_BEGIN
 90
        0
 91
        1
 62
     0
 92
       -2
340
14
 93
        0
 40
0.045
309
GRIDFORMAT_END
 95
       32
302
GRIDFORMAT
  1
GRIDFORMAT_BEGIN
 90
        0
 91
        1
 62
     0
 92
       -2
340
14
 93
        0
 40
0.045
309
GRIDFORMAT_END
309
TABLEFORMAT_END
  1
CELLSTYLE_BEGIN
 90
        2
 91
        1
300
_HEADER
309
CELLSTYLE_END
300
CELLSTYLE
  1
TABLEFORMAT_BEGIN
 90
        5
170
     1
 91
        0
 92
        0
 62
   257
 93
        1
300
CONTENTFORMAT
  1
CONTENTFORMAT_BEGIN
 90
        0
 91
        0
 92
        4
 93
        0
300

 40
0.0
140
1.0
 94
        2
 62
     0
340
11
144
4.5
309
CONTENTFORMAT_END
171
     1
301
MARGIN
  1
CELLMARGIN_BEGIN
 40
1.5
 40
1.5
 40
1.5
 40
1.5
 40
1.5
 40
1.5
309
CELLMARGIN_END
 94
        6
 95
        1
302
GRIDFORMAT
  1
GRIDFORMAT_BEGIN
 90
        0
 91
        1
 62
     0
 92
       -2
340
14
 93
        0
 40
0.045
309
GRIDFORMAT_END
 95
        2
302
GRIDFORMAT
  1
GRIDFORMAT_BEGIN
 90
        0
 91
        1
 62
     0
 92
       -2
340
14
 93
        0
 40
0.045
309
GRIDFORMAT_END
 95
        4
302
GRIDFORMAT
  1
GRIDFORMAT_BEGIN
 90
        0
 91
        1
 62
     0
 92
       -2
340
14
 93
        0
 40
0.045
309
GRIDFORMAT_END
 95
        8
302
GRIDFORMAT
  1
GRIDFORMAT_BEGIN
 90
        0
 91
        1
 62
     0
 92
       -2
340
14
 93
        0
 40
0.045
309
GRIDFORMAT_END
 95
       16
302
GRIDFORMAT
  1
GRIDFORMAT_BEGIN
 90
        0
 91
        1
 62
     0
 92
       -2
340
14
 93
        0
 40
0.045
309
GRIDFORMAT_END
 95
       32
302
GRIDFORMAT
  1
GRIDFORMAT_BEGIN
 90
        0
 91
        1
 62
     0
 92
       -2
340
14
 93
        0
 40
0.045
309
GRIDFORMAT_END
309
TABLEFORMAT_END
  1
CELLSTYLE_BEGIN
 90
        3
 91
        2
300
_DATA
309
CELLSTYLE_END
  0
ENDSEC
  0
EOF
