  0
SECTION
  2
HEADER
  9
$ACADVER
  1
AC1027
  9
$ACADMAINTVER
 70
   105
  9
$DWGCODEPAGE
  3
ANSI_1252
  9
$REQUIREDVERSIONS
160
                 0
  9
$INSBASE
 10
0.0
 20
0.0
 30
0.0
  9
$EXTMIN
 10
-292.5
 20
-202.5
 30
0.0
  9
$EXTMAX
 10
292.5
 20
202.5
 30
0.0
  9
$LIMMIN
 10
0.0
 20
0.0
  9
$LIMMAX
 10
420.0
 20
297.0
  9
$ORTHOMODE
 70
     0
  9
$REGENMODE
 70
     1
  9
$FILLMODE
 70
     1
  9
$QTEXTMODE
 70
     0
  9
$MIRRTEXT
 70
     1
  9
$LTSCALE
 40
1.0
  9
$ATTMODE
 70
     1
  9
$TEXTSIZE
 40
3.5
  9
$TRACEWID
 40
1.0
  9
$TEXTSTYLE
  7
STANDARD
  9
$CLAYER
  8
0
  9
$CELTYPE
  6
ByLayer
  9
$CECOLOR
 62
   256
  9
$CELTSCALE
 40
1.0
  9
$DISPSILH
 70
     0
  9
$DIMSCALE
 40
1.0
  9
$DIMASZ
 40
6.0
  9
$DIMEXO
 40
1.0
  9
$DIMDLI
 40
3.75
  9
$DIMRND
 40
0.0
  9
$DIMDLE
 40
0.0
  9
$DIMEXE
 40
1.0
  9
$DIMTP
 40
0.0
  9
$DIMTM
 40
0.0
  9
$DIMTXT
 40
3.5
  9
$DIMCEN
 40
2.5
  9
$DIMTSZ
 40
0.0
  9
$DIMTOL
 70
     0
  9
$DIMLIM
 70
     0
  9
$DIMTIH
 70
     1
  9
$DIMTOH
 70
     1
  9
$DIMSE1
 70
     0
  9
$DIMSE2
 70
     0
  9
$DIMTAD
 70
     1
  9
$DIMZIN
 70
     0
  9
$DIMBLK
  1

  9
$DIMASO
 70
     1
  9
$DIMSHO
 70
     1
  9
$DIMPOST
  1

  9
$DIMAPOST
  1

  9
$DIMALT
 70
     0
  9
$DIMALTD
 70
     3
  9
$DIMALTF
 40
0.0393700787
  9
$DIMLFAC
 40
1.0
  9
$DIMTOFL
 70
     1
  9
$DIMTVP
 40
0.0
  9
$DIMTIX
 70
     0
  9
$DIMSOXD
 70
     0
  9
$DIMSAH
 70
     0
  9
$DIMBLK1
  1

  9
$DIMBLK2
  1

  9
$DIMSTYLE
  2
ISO-25
  9
$DIMCLRD
 70
     0
  9
$DIMCLRE
 70
     0
  9
$DIMCLRT
 70
     0
  9
$DIMTFAC
 40
1.0
  9
$DIMGAP
 40
1.524
  9
$DIMJUST
 70
     0
  9
$DIMSD1
 70
     0
  9
$DIMSD2
 70
     0
  9
$DIMTOLJ
 70
     0
  9
$DIMTZIN
 70
     0
  9
$DIMALTZ
 70
     0
  9
$DIMALTTZ
 70
     0
  9
$DIMUPT
 70
     0
  9
$DIMDEC
 70
     2
  9
$DIMTDEC
 70
     2
  9
$DIMALTU
 70
     2
  9
$DIMALTTD
 70
     3
  9
$DIMTXSTY
  7
STANDARD
  9
$DIMAUNIT
 70
     0
  9
$DIMADEC
 70
     2
  9
$DIMALTRND
 40
0.0
  9
$DIMAZIN
 70
     0
  9
$DIMDSEP
 70
    44
  9
$DIMATFIT
 70
     3
  9
$DIMFRAC
 70
     0
  9
$DIMLDRBLK
  1

  9
$DIMLUNIT
 70
     2
  9
$DIMLWD
 70
    -2
  9
$DIMLWE
 70
    -2
  9
$DIMTMOVE
 70
     0
  9
$DIMFXL
 40
1.0
  9
$DIMFXLON
 70
     0
  9
$DIMJOGANG
 40
0.7853981634
  9
$DIMTFILL
 70
     0
  9
$DIMTFILLCLR
 70
     0
  9
$DIMARCSYM
 70
     0
  9
$DIMLTYPE
  6

  9
$DIMLTEX1
  6

  9
$DIMLTEX2
  6

  9
$DIMTXTDIRECTION
 70
     0
  9
$LUNITS
 70
     2
  9
$LUPREC
 70
     2
  9
$SKETCHINC
 40
1.0
  9
$FILLETRAD
 40
10.0
  9
$AUNITS
 70
     0
  9
$AUPREC
 70
     2
  9
$MENU
  1
.
  9
$ELEVATION
 40
0.0
  9
$PELEVATION
 40
0.0
  9
$THICKNESS
 40
0.0
  9
$LIMCHECK
 70
     0
  9
$CHAMFERA
 40
0.0
  9
$CHAMFERB
 40
0.0
  9
$CHAMFERC
 40
0.0
  9
$CHAMFERD
 40
0.0
  9
$SKPOLY
 70
     0
  9
$TDCREATE
 40
2458226.639197361
  9
$TDUCREATE
 40
2458226.555864028
  9
$TDUPDATE
 40
2458226.639225718
  9
$TDUUPDATE
 40
2458226.555892384
  9
$TDINDWG
 40
0.0000000116
  9
$TDUSRTIMER
 40
0.0000000116
  9
$USRTIMER
 70
     1
  9
$ANGBASE
 50
0.0
  9
$ANGDIR
 70
     0
  9
$PDMODE
 70
     0
  9
$PDSIZE
 40
-1.0
  9
$PLINEWID
 40
0.0
  9
$SPLFRAME
 70
     0
  9
$SPLINETYPE
 70
     6
  9
$SPLINESEGS
 70
     8
  9
$HANDSEED
  5
188
  9
$SURFTAB1
 70
     6
  9
$SURFTAB2
 70
     6
  9
$SURFTYPE
 70
     6
  9
$SURFU
 70
     6
  9
$SURFV
 70
     6
  9
$UCSBASE
  2

  9
$UCSNAME
  2

  9
$UCSORG
 10
0.0
 20
0.0
 30
0.0
  9
$UCSXDIR
 10
1.0
 20
0.0
 30
0.0
  9
$UCSYDIR
 10
0.0
 20
1.0
 30
0.0
  9
$UCSORTHOREF
  2

  9
$UCSORTHOVIEW
 70
     0
  9
$UCSORGTOP
 10
0.0
 20
0.0
 30
0.0
  9
$UCSORGBOTTOM
 10
0.0
 20
0.0
 30
0.0
  9
$UCSORGLEFT
 10
0.0
 20
0.0
 30
0.0
  9
$UCSORGRIGHT
 10
0.0
 20
0.0
 30
0.0
  9
$UCSORGFRONT
 10
0.0
 20
0.0
 30
0.0
  9
$UCSORGBACK
 10
0.0
 20
0.0
 30
0.0
  9
$PUCSBASE
  2

  9
$PUCSNAME
  2

  9
$PUCSORG
 10
0.0
 20
0.0
 30
0.0
  9
$PUCSXDIR
 10
1.0
 20
0.0
 30
0.0
  9
$PUCSYDIR
 10
0.0
 20
1.0
 30
0.0
  9
$PUCSORTHOREF
  2

  9
$PUCSORTHOVIEW
 70
     0
  9
$PUCSORGTOP
 10
0.0
 20
0.0
 30
0.0
  9
$PUCSORGBOTTOM
 10
0.0
 20
0.0
 30
0.0
  9
$PUCSORGLEFT
 10
0.0
 20
0.0
 30
0.0
  9
$PUCSORGRIGHT
 10
0.0
 20
0.0
 30
0.0
  9
$PUCSORGFRONT
 10
0.0
 20
0.0
 30
0.0
  9
$PUCSORGBACK
 10
0.0
 20
0.0
 30
0.0
  9
$USERI1
 70
     0
  9
$USERI2
 70
     0
  9
$USERI3
 70
     0
  9
$USERI4
 70
     0
  9
$USERI5
 70
     0
  9
$USERR1
 40
0.0
  9
$USERR2
 40
0.0
  9
$USERR3
 40
0.0
  9
$USERR4
 40
0.0
  9
$USERR5
 40
0.0
  9
$WORLDVIEW
 70
     1
  9
$SHADEDGE
 70
     3
  9
$SHADEDIF
 70
    70
  9
$TILEMODE
 70
     1
  9
$MAXACTVP
 70
    64
  9
$PINSBASE
 10
0.0
 20
0.0
 30
0.0
  9
$PLIMCHECK
 70
     0
  9
$PEXTMIN
 10
-292.5
 20
0.0
 30
0.0
  9
$PEXTMAX
 10
292.5
 20
140.0
 30
0.0
  9
$PLIMMIN
 10
-338.0252918288
 20
-17.0719844358
  9
$PLIMMAX
 10
338.0252918288
 20
460.9435797665
  9
$UNITMODE
 70
     0
  9
$VISRETAIN
 70
     1
  9
$PLINEGEN
 70
     0
  9
$PSLTSCALE
 70
     1
  9
$TREEDEPTH
 70
  3020
  9
$CMLSTYLE
  2
Standard
  9
$CMLJUST
 70
     0
  9
$CMLSCALE
 40
20.0
  9
$PROXYGRAPHICS
 70
     1
  9
$MEASUREMENT
 70
     1
  9
$CELWEIGHT
370
    -1
  9
$ENDCAPS
280
     0
  9
$JOINSTYLE
280
     0
  9
$LWDISPLAY
290
     1
  9
$INSUNITS
 70
     4
  9
$HYPERLINKBASE
  1

  9
$STYLESHEET
  1

  9
$XEDIT
290
     1
  9
$CEPSNTYPE
380
     0
  9
$PSTYLEMODE
290
     1
  9
$FINGERPRINTGUID
  2
{CB276522-862A-4AED-9900-9129D06E1E1B}
  9
$VERSIONGUID
  2
{FAEB1C32-E019-11D5-929B-00C0DF256EC4}
  9
$EXTNAMES
290
     1
  9
$PSVPSCALE
 40
0.0
  9
$OLESTARTUP
290
     0
  9
$SORTENTS
280
   127
  9
$INDEXCTL
280
     0
  9
$HIDETEXT
280
     1
  9
$XCLIPFRAME
280
     2
  9
$HALOGAP
280
     0
  9
$OBSCOLOR
 70
   257
  9
$OBSLTYPE
280
     0
  9
$INTERSECTIONDISPLAY
280
     0
  9
$INTERSECTIONCOLOR
 70
   257
  9
$DIMASSOC
280
     2
  9
$PROJECTNAME
  1

  9
$CAMERADISPLAY
290
     0
  9
$LENSLENGTH
 40
50.0
  9
$CAMERAHEIGHT
 40
0.0
  9
$STEPSPERSEC
 40
2.0
  9
$STEPSIZE
 40
6.0
  9
$3DDWFPREC
 40
2.0
  9
$PSOLWIDTH
 40
5.0
  9
$PSOLHEIGHT
 40
80.0
  9
$LOFTANG1
 40
1.5707963268
  9
$LOFTANG2
 40
1.5707963268
  9
$LOFTMAG1
 40
0.0
  9
$LOFTMAG2
 40
0.0
  9
$LOFTPARAM
 70
     7
  9
$LOFTNORMALS
280
     1
  9
$LATITUDE
 40
37.795
  9
$LONGITUDE
 40
-122.394
  9
$NORTHDIRECTION
 40
0.0
  9
$TIMEZONE
 70
 -8000
  9
$LIGHTGLYPHDISPLAY
280
     1
  9
$TILEMODELIGHTSYNCH
280
     1
  9
$CMATERIAL
347
44
  9
$SOLIDHIST
280
     0
  9
$SHOWHIST
280
     1
  9
$DWFFRAME
280
     2
  9
$DGNFRAME
280
     2
  9
$REALWORLDSCALE
290
     1
  9
$INTERFERECOLOR
 62
   256
  9
$CSHADOW
280
     0
  9
$SHADOWPLANELOCATION
 40
0.0
  0
ENDSEC
  0
SECTION
  2
CLASSES
  0
CLASS
  1
ACDBDICTIONARYWDFLT
  2
AcDbDictionaryWithDefault
  3
ObjectDBX Classes
 90
        0
 91
        4
280
     0
281
     0
  0
CLASS
  1
VISUALSTYLE
  2
AcDbVisualStyle
  3
ObjectDBX Classes
 90
     4095
 91
        4
280
     0
281
     0
  0
CLASS
  1
MATERIAL
  2
AcDbMaterial
  3
ObjectDBX Classes
 90
     1153
 91
        4
280
     0
281
     0
  0
CLASS
  1
SCALE
  2
AcDbScale
  3
ObjectDBX Classes
 90
     1153
 91
        4
280
     0
281
     0
  0
CLASS
  1
TABLESTYLE
  2
AcDbTableStyle
  3
ObjectDBX Classes
 90
     4095
 91
        4
280
     0
281
     0
  0
CLASS
  1
MLEADERSTYLE
  2
AcDbMLeaderStyle
  3
ACDB_MLEADERSTYLE_CLASS
 90
     4095
 91
        4
280
     0
281
     0
  0
CLASS
  1
SUN
  2
AcDbSun
  3
SCENEOE
 90
     1153
 91
        4
280
     0
281
     0
  0
CLASS
  1
DICTIONARYVAR
  2
AcDbDictionaryVar
  3
ObjectDBX Classes
 90
        0
 91
        4
280
     0
281
     0
  0
CLASS
  1
CELLSTYLEMAP
  2
AcDbCellStyleMap
  3
ObjectDBX Classes
 90
     1152
 91
        4
280
     0
281
     0
  0
ENDSEC
  0
SECTION
  2
TABLES
  0
TABLE
  2
VPORT
  5
8
330
0
100
AcDbSymbolTable
 70
     1
  0
VPORT
  5
29
330
8
100
AcDbSymbolTableRecord
100
AcDbViewportTableRecord
  2
*Active
 70
     0
 10
0.0
 20
0.0
 11
1.0
 21
1.0
 12
0.0
 22
0.0
 13
0.0
 23
0.0
 14
10.0
 24
10.0
 15
10.0
 25
10.0
 16
0.0
 26
0.0
 36
1.0
 17
0.0
 27
0.0
 37
0.0
 40
413.1
 41
1.4444444444
 42
50.0
 43
0.0
 44
0.0
 50
0.0
 51
0.0
 71
     0
 72
   100
 73
     1
 74
     3
 75
     0
 76
     0
 77
     0
 78
     0
281
     0
 65
     1
110
0.0
120
0.0
130
0.0
111
1.0
121
0.0
131
0.0
112
0.0
122
1.0
132
0.0
 79
     0
146
0.0
348
2F
 60
     3
 61
     5
292
     1
282
     1
141
0.0
142
0.0
 63
   250
361
6D
  0
ENDTAB
  0
TABLE
  2
LTYPE
  5
5
330
0
100
AcDbSymbolTable
 70
     6
  0
LTYPE
  5
14
330
5
100
AcDbSymbolTableRecord
100
AcDbLinetypeTableRecord
  2
ByBlock
 70
     0
  3

 72
    65
 73
     0
 40
0.0
  0
LTYPE
  5
15
330
5
100
AcDbSymbolTableRecord
100
AcDbLinetypeTableRecord
  2
ByLayer
 70
     0
  3

 72
    65
 73
     0
 40
0.0
  0
LTYPE
  5
16
330
5
100
AcDbSymbolTableRecord
100
AcDbLinetypeTableRecord
  2
Continuous
 70
     0
  3
Solid line
 72
    65
 73
     0
 40
0.0
  0
LTYPE
  5
6E
330
5
100
AcDbSymbolTableRecord
100
AcDbLinetypeTableRecord
  2
HIDDEN
 70
     0
  3
Hidden __ __ __ __ __ __ __ __ __ __ __ __ __ __
 72
    65
 73
     2
 40
1.905
 49
1.27
 74
     0
 49
-0.635
 74
     0
  0
LTYPE
  5
6F
330
5
100
AcDbSymbolTableRecord
100
AcDbLinetypeTableRecord
  2
PHANTOM
 70
     0
  3
Phantom ______  __  __  ______  __  __  ______
 72
    65
 73
     6
 40
12.7
 49
6.35
 74
     0
 49
-1.27
 74
     0
 49
1.27
 74
     0
 49
-1.27
 74
     0
 49
1.27
 74
     0
 49
-1.27
 74
     0
  0
LTYPE
  5
70
330
5
100
AcDbSymbolTableRecord
100
AcDbLinetypeTableRecord
  2
CENTER
 70
     0
  3
Center ____ _ ____ _ ____ _ ____ _ ____ _ ____
 72
    65
 73
     4
 40
10.16
 49
6.35
 74
     0
 49
-1.27
 74
     0
 49
1.27
 74
     0
 49
-1.27
 74
     0
  0
LTYPE
  5
71
330
5
100
AcDbSymbolTableRecord
100
AcDbLinetypeTableRecord
  2
CENTERX2
 70
     0
  3
Center (2x) ________  __  ________  __  _____
 72
    65
 73
     4
 40
20.32
 49
12.7
 74
     0
 49
-2.54
 74
     0
 49
2.54
 74
     0
 49
-2.54
 74
     0
  0
LTYPE
  5
72
330
5
100
AcDbSymbolTableRecord
100
AcDbLinetypeTableRecord
  2
DOT2
 70
     0
  3
Dot (.5x) ........................................
 72
    65
 73
     2
 40
0.635
 49
0.0
 74
     0
 49
-0.635
 74
     0
  0
ENDTAB
  0
TABLE
  2
LAYER
  5
2
330
0
100
AcDbSymbolTable
 70
     1
  0
LAYER
  5
10
330
2
100
AcDbSymbolTableRecord
100
AcDbLayerTableRecord
  2
0
 70
     0
 62
     7
  6
Continuous
370
    -3
390
F
347
46
348
0
  0
ENDTAB
  0
TABLE
  2
STYLE
  5
3
330
0
100
AcDbSymbolTable
 70
     1
  0
STYLE
  5
11
330
3
100
AcDbSymbolTableRecord
100
AcDbTextStyleTableRecord
  2
STANDARD
 70
     0
 40
0.0
 41
1.0
 50
0.0
 71
     0
 42
3.5
  3
GOTHIC.TTF
  4

1001
ACAD
1000
CENTURY GOTHIC
1071
       34
  0
ENDTAB
  0
TABLE
  2
VIEW
  5
6
330
0
100
AcDbSymbolTable
 70
     0
  0
ENDTAB
  0
TABLE
  2
UCS
  5
7
330
0
100
AcDbSymbolTable
 70
     0
  0
ENDTAB
  0
TABLE
  2
APPID
  5
9
330
0
100
AcDbSymbolTable
 70
     1
  0
APPID
  5
12
330
9
100
AcDbSymbolTableRecord
100
AcDbRegAppTableRecord
  2
ACAD
 70
     0
  0
ENDTAB
  0
TABLE
  2
DIMSTYLE
  5
A
330
0
100
AcDbSymbolTable
 70
     1
100
AcDbDimStyleTable
  0
DIMSTYLE
105
27
330
A
100
AcDbSymbolTableRecord
100
AcDbDimStyleTableRecord
  2
ISO-25
 70
     0
 41
2.5
 42
0.625
 43
3.75
 44
1.25
 73
     0
 74
     0
 77
     1
 78
     8
140
2.5
141
2.5
143
0.0393700787
147
0.625
171
     3
172
     1
178
     0
271
     2
272
     2
274
     3
278
    44
283
     0
284
     8
340
11
  0
ENDTAB
  0
TABLE
  2
BLOCK_RECORD
  5
1
330
0
100
AcDbSymbolTable
 70
     8
  0
BLOCK_RECORD
  5
1F
330
1
100
AcDbSymbolTableRecord
100
AcDbBlockTableRecord
  2
*Model_Space
340
22
 70
     0
280
     1
281
     0
  0
BLOCK_RECORD
  5
1B
330
1
100
AcDbSymbolTableRecord
100
AcDbBlockTableRecord
  2
*Paper_Space
340
1E
 70
     0
280
     1
281
     0
  0
BLOCK_RECORD
  5
23
330
1
100
AcDbSymbolTableRecord
100
AcDbBlockTableRecord
  2
*Paper_Space0
340
26
 70
     0
280
     1
281
     0
  0
BLOCK_RECORD
  5
A9
330
1
100
AcDbSymbolTableRecord
100
AcDbBlockTableRecord
  2
*Paper_Space1
340
AA
 70
     0
280
     1
281
     0
  0
BLOCK_RECORD
  5
B5
330
1
100
AcDbSymbolTableRecord
100
AcDbBlockTableRecord
  2
*Paper_Space2
340
B6
 70
     0
280
     1
281
     0
  0
BLOCK_RECORD
  5
C1
330
1
100
AcDbSymbolTableRecord
100
AcDbBlockTableRecord
  2
*Paper_Space3
340
C2
 70
     0
280
     1
281
     0
  0
BLOCK_RECORD
  5
CD
330
1
100
AcDbSymbolTableRecord
100
AcDbBlockTableRecord
  2
*Paper_Space4
340
CE
 70
     0
280
     1
281
     0
  0
BLOCK_RECORD
  5
DA
330
1
100
AcDbSymbolTableRecord
100
AcDbBlockTableRecord
  2
*Paper_Space5
340
DB
 70
     0
280
     1
281
     0
  0
BLOCK_RECORD
  5
116
330
1
100
AcDbSymbolTableRecord
100
AcDbBlockTableRecord
  2
*Paper_Space6
340
117
 70
     0
280
     1
281
     0
  0
BLOCK_RECORD
  5
147
330
1
100
AcDbSymbolTableRecord
100
AcDbBlockTableRecord
  2
*Paper_Space7
340
148
 70
     0
280
     1
281
     0
  0
ENDTAB
  0
ENDSEC
  0
SECTION
  2
BLOCKS
  0
BLOCK
  5
20
330
1F
100
AcDbEntity
  8
0
100
AcDbBlockBegin
  2
*Model_Space
 70
     0
 10
0.0
 20
0.0
 30
0.0
  3
*Model_Space
  1

  0
ENDBLK
  5
21
330
1F
100
AcDbEntity
  8
0
100
AcDbBlockEnd
  0
BLOCK
  5
1C
330
1B
100
AcDbEntity
 67
     1
  8
0
100
AcDbBlockBegin
  2
*Paper_Space
 70
     0
 10
0.0
 20
0.0
 30
0.0
  3
*Paper_Space
  1

  0
ENDBLK
  5
1D
330
1B
100
AcDbEntity
 67
     1
  8
0
100
AcDbBlockEnd
  0
BLOCK
  5
24
330
23
100
AcDbEntity
  8
0
100
AcDbBlockBegin
  2
*Paper_Space0
 70
     0
 10
0.0
 20
0.0
 30
0.0
  3
*Paper_Space0
  1

  0
LINE
  5
A5
330
23
100
AcDbEntity
  8
0
  6
Continuous
 62
     7
370
    25
100
AcDbLine
 10
-202.5
 20
140.0
 30
0.0
 11
-202.5
 21
0.0
 31
0.0
  0
LINE
  5
A6
330
23
100
AcDbEntity
  8
0
  6
Continuous
 62
     7
370
    25
100
AcDbLine
 10
-202.5
 20
140.0
 30
0.0
 11
202.5
 21
140.0
 31
0.0
  0
LINE
  5
A7
330
23
100
AcDbEntity
  8
0
  6
Continuous
 62
     7
370
    25
100
AcDbLine
 10
202.5
 20
140.0
 30
0.0
 11
202.5
 21
0.0
 31
0.0
  0
LINE
  5
A8
330
23
100
AcDbEntity
  8
0
  6
Continuous
 62
     7
370
    25
100
AcDbLine
 10
-202.5
 20
0.0
 30
0.0
 11
202.5
 21
0.0
 31
0.0
  0
VIEWPORT
  5
16F
330
23
100
AcDbEntity
  8
0
100
AcDbViewport
 10
0.0
 20
0.0
 30
0.0
 40
205.6
 41
156.0
 68
     1
 69
     1
 12
0.0
 22
0.0
 13
0.0
 23
0.0
 14
10.0
 24
10.0
 15
10.0
 25
10.0
 16
0.0
 26
0.0
 36
1.0
 17
0.0
 27
0.0
 37
0.0
 42
50.0
 43
0.0
 44
0.0
 45
452.7490272374
 50
0.0
 51
0.0
 72
   100
 90
   557152
  1

281
     0
 71
     1
 74
     0
110
0.0
120
0.0
130
0.0
111
1.0
121
0.0
131
0.0
112
0.0
122
1.0
132
0.0
 79
     0
146
0.0
170
     0
 61
     5
348
2F
292
     1
282
     1
141
0.0
142
0.0
 63
   256
361
170
  0
ENDBLK
  5
25
330
23
100
AcDbEntity
  8
0
100
AcDbBlockEnd
  0
BLOCK
  5
AB
330
A9
100
AcDbEntity
  8
0
100
AcDbBlockBegin
  2
*Paper_Space1
 70
     0
 10
0.0
 20
0.0
 30
0.0
  3
*Paper_Space1
  1

  0
LINE
  5
B1
330
A9
100
AcDbEntity
  8
0
  6
Continuous
 62
     7
370
    25
100
AcDbLine
 10
-292.5
 20
140.0
 30
0.0
 11
292.5
 21
140.0
 31
0.0
  0
LINE
  5
B2
330
A9
100
AcDbEntity
  8
0
  6
Continuous
 62
     7
370
    25
100
AcDbLine
 10
-292.5
 20
140.0
 30
0.0
 11
-292.5
 21
0.0
 31
0.0
  0
LINE
  5
B3
330
A9
100
AcDbEntity
  8
0
  6
Continuous
 62
     7
370
    25
100
AcDbLine
 10
-292.5
 20
0.0
 30
0.0
 11
292.5
 21
0.0
 31
0.0
  0
LINE
  5
B4
330
A9
100
AcDbEntity
  8
0
  6
Continuous
 62
     7
370
    25
100
AcDbLine
 10
292.5
 20
140.0
 30
0.0
 11
292.5
 21
0.0
 31
0.0
  0
VIEWPORT
  5
171
330
A9
100
AcDbEntity
  8
0
100
AcDbViewport
 10
0.0
 20
0.0
 30
0.0
 40
205.6
 41
156.0
 68
     1
 69
     1
 12
0.0
 22
0.0
 13
0.0
 23
0.0
 14
10.0
 24
10.0
 15
10.0
 25
10.0
 16
0.0
 26
0.0
 36
1.0
 17
0.0
 27
0.0
 37
0.0
 42
50.0
 43
0.0
 44
0.0
 45
452.7490272374
 50
0.0
 51
0.0
 72
   100
 90
   557152
  1

281
     0
 71
     1
 74
     0
110
0.0
120
0.0
130
0.0
111
1.0
121
0.0
131
0.0
112
0.0
122
1.0
132
0.0
 79
     0
146
0.0
170
     0
 61
     5
348
2F
292
     1
282
     1
141
0.0
142
0.0
 63
   256
361
172
  0
ENDBLK
  5
AC
330
A9
100
AcDbEntity
  8
0
100
AcDbBlockEnd
  0
BLOCK
  5
B7
330
B5
100
AcDbEntity
  8
0
100
AcDbBlockBegin
  2
*Paper_Space2
 70
     0
 10
0.0
 20
0.0
 30
0.0
  3
*Paper_Space2
  1

  0
LINE
  5
BD
330
B5
100
AcDbEntity
  8
0
  6
Continuous
 62
     7
370
    25
100
AcDbLine
 10
-292.5
 20
140.0
 30
0.0
 11
292.5
 21
140.0
 31
0.0
  0
LINE
  5
BE
330
B5
100
AcDbEntity
  8
0
  6
Continuous
 62
     7
370
    25
100
AcDbLine
 10
292.5
 20
140.0
 30
0.0
 11
292.5
 21
0.0
 31
0.0
  0
LINE
  5
BF
330
B5
100
AcDbEntity
  8
0
  6
Continuous
 62
     7
370
    25
100
AcDbLine
 10
-292.5
 20
0.0
 30
0.0
 11
292.5
 21
0.0
 31
0.0
  0
LINE
  5
C0
330
B5
100
AcDbEntity
  8
0
  6
Continuous
 62
     7
370
    25
100
AcDbLine
 10
-292.5
 20
140.0
 30
0.0
 11
-292.5
 21
0.0
 31
0.0
  0
VIEWPORT
  5
173
330
B5
100
AcDbEntity
  8
0
100
AcDbViewport
 10
0.0
 20
0.0
 30
0.0
 40
205.6
 41
156.0
 68
     1
 69
     1
 12
0.0
 22
0.0
 13
0.0
 23
0.0
 14
10.0
 24
10.0
 15
10.0
 25
10.0
 16
0.0
 26
0.0
 36
1.0
 17
0.0
 27
0.0
 37
0.0
 42
50.0
 43
0.0
 44
0.0
 45
452.7490272374
 50
0.0
 51
0.0
 72
   100
 90
   557152
  1

281
     0
 71
     1
 74
     0
110
0.0
120
0.0
130
0.0
111
1.0
121
0.0
131
0.0
112
0.0
122
1.0
132
0.0
 79
     0
146
0.0
170
     0
 61
     5
348
2F
292
     1
282
     1
141
0.0
142
0.0
 63
   256
361
174
  0
ENDBLK
  5
B8
330
B5
100
AcDbEntity
  8
0
100
AcDbBlockEnd
  0
BLOCK
  5
C3
330
C1
100
AcDbEntity
  8
0
100
AcDbBlockBegin
  2
*Paper_Space3
 70
     0
 10
0.0
 20
0.0
 30
0.0
  3
*Paper_Space3
  1

  0
LINE
  5
C9
330
C1
100
AcDbEntity
  8
0
  6
Continuous
 62
     7
370
    25
100
AcDbLine
 10
202.5
 20
140.0
 30
0.0
 11
202.5
 21
0.0
 31
0.0
  0
LINE
  5
CA
330
C1
100
AcDbEntity
  8
0
  6
Continuous
 62
     7
370
    25
100
AcDbLine
 10
-202.5
 20
0.0
 30
0.0
 11
202.5
 21
0.0
 31
0.0
  0
LINE
  5
CB
330
C1
100
AcDbEntity
  8
0
  6
Continuous
 62
     7
370
    25
100
AcDbLine
 10
-202.5
 20
140.0
 30
0.0
 11
-202.5
 21
0.0
 31
0.0
  0
LINE
  5
CC
330
C1
100
AcDbEntity
  8
0
  6
Continuous
 62
     7
370
    25
100
AcDbLine
 10
-202.5
 20
140.0
 30
0.0
 11
202.5
 21
140.0
 31
0.0
  0
VIEWPORT
  5
175
330
C1
100
AcDbEntity
  8
0
100
AcDbViewport
 10
0.0
 20
0.0
 30
0.0
 40
205.6
 41
156.0
 68
     1
 69
     1
 12
0.0
 22
0.0
 13
0.0
 23
0.0
 14
10.0
 24
10.0
 15
10.0
 25
10.0
 16
0.0
 26
0.0
 36
1.0
 17
0.0
 27
0.0
 37
0.0
 42
50.0
 43
0.0
 44
0.0
 45
452.7490272374
 50
0.0
 51
0.0
 72
   100
 90
   557152
  1

281
     0
 71
     1
 74
     0
110
0.0
120
0.0
130
0.0
111
1.0
121
0.0
131
0.0
112
0.0
122
1.0
132
0.0
 79
     0
146
0.0
170
     0
 61
     5
348
2F
292
     1
282
     1
141
0.0
142
0.0
 63
   256
361
176
  0
ENDBLK
  5
C4
330
C1
100
AcDbEntity
  8
0
100
AcDbBlockEnd
  0
BLOCK
  5
CF
330
CD
100
AcDbEntity
  8
0
100
AcDbBlockBegin
  2
*Paper_Space4
 70
     0
 10
0.0
 20
0.0
 30
0.0
  3
*Paper_Space4
  1

  0
CIRCLE
  5
D1
330
CD
100
AcDbEntity
  8
0
  6
Continuous
 62
     7
370
    25
100
AcDbCircle
 10
0.0
 20
0.0
 30
0.0
 40
23.0
  0
LINE
  5
D6
330
CD
100
AcDbEntity
  8
0
  6
Continuous
 62
     7
370
    25
100
AcDbLine
 10
-292.5
 20
202.5
 30
0.0
 11
292.5
 21
202.5
 31
0.0
  0
LINE
  5
D7
330
CD
100
AcDbEntity
  8
0
  6
Continuous
 62
     7
370
    25
100
AcDbLine
 10
-292.5
 20
-202.5
 30
0.0
 11
-292.5
 21
202.5
 31
0.0
  0
LINE
  5
D8
330
CD
100
AcDbEntity
  8
0
  6
Continuous
 62
     7
370
    25
100
AcDbLine
 10
292.5
 20
-202.5
 30
0.0
 11
-292.5
 21
-202.5
 31
0.0
  0
LINE
  5
D9
330
CD
100
AcDbEntity
  8
0
  6
Continuous
 62
     7
370
    25
100
AcDbLine
 10
292.5
 20
202.5
 30
0.0
 11
292.5
 21
-202.5
 31
0.0
  0
VIEWPORT
  5
177
330
CD
100
AcDbEntity
  8
0
100
AcDbViewport
 10
0.0
 20
0.0
 30
0.0
 40
205.6
 41
156.0
 68
     1
 69
     1
 12
0.0
 22
0.0
 13
0.0
 23
0.0
 14
10.0
 24
10.0
 15
10.0
 25
10.0
 16
0.0
 26
0.0
 36
1.0
 17
0.0
 27
0.0
 37
0.0
 42
50.0
 43
0.0
 44
0.0
 45
452.7490272374
 50
0.0
 51
0.0
 72
   100
 90
   557152
  1

281
     0
 71
     1
 74
     0
110
0.0
120
0.0
130
0.0
111
1.0
121
0.0
131
0.0
112
0.0
122
1.0
132
0.0
 79
     0
146
0.0
170
     0
 61
     5
348
2F
292
     1
282
     1
141
0.0
142
0.0
 63
   256
361
178
  0
ENDBLK
  5
D0
330
CD
100
AcDbEntity
  8
0
100
AcDbBlockEnd
  0
BLOCK
  5
DC
330
DA
100
AcDbEntity
  8
0
100
AcDbBlockBegin
  2
*Paper_Space5
 70
     0
 10
0.0
 20
0.0
 30
0.0
  3
*Paper_Space5
  1

  0
SPLINE
  5
EC
330
DA
100
AcDbEntity
  8
0
  6
Continuous
 62
     7
370
    25
100
AcDbSpline
210
0.0
220
0.0
230
1.0
 70
     8
 71
     3
 72
     8
 73
     4
 74
     0
 42
0.000000001
 43
0.00000001
 40
0.0
 40
0.0
 40
0.0
 40
0.0
 40
1.0
 40
1.0
 40
1.0
 40
1.0
 10
6.290256861501767
 20
2.341599728862505
 30
0.0
 10
6.272205976358824
 20
2.339619259000981
 30
0.0
 10
6.254160740587001
 20
2.337648855837156
 30
0.0
 10
6.236121190366697
 20
2.335688514780283
 30
0.0
  0
SPLINE
  5
ED
330
DA
100
AcDbEntity
  8
0
  6
Continuous
 62
     7
370
    25
100
AcDbSpline
210
0.0
220
0.0
230
1.0
 70
     8
 71
     3
 72
    47
 73
    43
 74
     0
 42
0.000000001
 43
0.00000001
 40
0.0
 40
0.0
 40
0.0
 40
0.0
 40
0.0146909180045586
 40
0.0291608427138067
 40
0.043399022260465
 40
0.05739509759366
 40
0.0711390976590769
 40
0.0846214331003558
 40
0.0978328888807626
 40
0.110764616160879
 40
0.1234080790303051
 40
0.1357547174443375
 40
0.1477962220322736
 40
0.159524694528547
 40
0.1709326341037985
 40
0.1820129281105348
 40
0.1927588424071699
 40
0.2031640114702402
 40
0.2132224284770106
 40
0.2229284355187379
 40
0.2322767140884103
 40
0.2412622734325451
 40
0.2498803536239125
 40
0.3140900822711165
 40
0.3773641304209647
 40
0.439289790399458
 40
0.4994818213042741
 40
0.5592999822350168
 40
0.6213280458206728
 40
0.6851676606595686
 40
0.7503795941482563
 40
0.7668767334780995
 40
0.784750140573515
 40
0.8039637427584768
 40
0.8244768922540849
 40
0.8462439801237847
 40
0.86921416833141
 40
0.8933311228157765
 40
0.9185340520630219
 40
0.944759562864192
 40
0.9719394181399441
 40
1.0
 40
1.0
 40
1.0
 40
1.0
 10
31.5275317602047
 20
16.93576872463726
 30
0.0
 10
31.49013645650954
 20
16.83142415077439
 30
0.0
 10
31.4159083811128
 20
16.62430464295939
 30
0.0
 10
31.29321463144526
 20
16.31755147968066
 30
0.0
 10
31.16406385097619
 20
16.01686461060455
 30
0.0
 10
31.02826899735525
 20
15.72257231572868
 30
0.0
 10
30.88674322499606
 20
15.43485677254347
 30
0.0
 10
30.74009543596904
 20
15.15391481963075
 30
0.0
 10
30.58899637672944
 20
14.87991730613892
 30
0.0
 10
30.43408395928875
 20
14.6130210310255
 30
0.0
 10
30.27598508114616
 20
14.35337026658038
 30
0.0
 10
30.11532414749018
 20
14.10109608636834
 30
0.0
 10
29.95272903336698
 20
13.8563145113245
 30
0.0
 10
29.7888028014608
 20
13.61912967695387
 30
0.0
 10
29.62412869984358
 20
13.38963254887753
 30
0.0
 10
29.45926886872693
 20
13.16790212897696
 30
0.0
 10
29.29476478074998
 20
12.95400626184633
 30
0.0
 10
29.13113738755174
 20
12.74800242525959
 30
0.0
 10
28.96888675794632
 20
12.54993873925985
 30
0.0
 10
28.80849389812301
 20
12.35985398243684
 30
0.0
 10
28.65041475012986
 20
12.17778101810945
 30
0.0
 10
28.49510236007849
 20
12.00373867433125
 30
0.0
 10
28.01348750378196
 20
11.47844167233029
 30
0.0
 10
27.14441841433021
 20
10.6247225107284
 30
0.0
 10
25.78513193527777
 20
9.491334276694358
 30
0.0
 10
24.31860615452015
 20
8.439698905539451
 30
0.0
 10
22.75697974483726
 20
7.467849031765332
 30
0.0
 10
21.07686971815329
 20
6.562133203292804
 30
0.0
 10
19.25386889502814
 20
5.70984147007484
 30
0.0
 10
17.27265150532525
 20
4.912931512583047
 30
0.0
 10
15.68916660445333
 20
4.371688403669284
 30
0.0
 10
14.57646973048409
 20
4.033128014268452
 30
0.0
 10
13.97108400981895
 20
3.85837066183288
 30
0.0
 10
13.31343973353071
 20
3.678687558974984
 30
0.0
 10
12.60396669800748
 20
3.496115878167179
 30
0.0
 10
11.84338133454021
 20
3.312802900210881
 30
0.0
 10
11.03264014197305
 20
3.131069139950149
 30
0.0
 10
10.17296619192183
 20
2.953444461018452
 30
0.0
 10
9.265950471419417
 20
2.782420730209623
 30
0.0
 10
8.31334950953782
 20
2.621099220507059
 30
0.0
 10
7.31806547226419
 20
2.470472343840215
 30
0.0
 10
6.636472174725762
 20
2.385041347312787
 30
0.0
 10
6.290242030423649
 20
2.341644813980685
 30
0.0
  0
SPLINE
  5
F0
330
DA
100
AcDbEntity
  8
0
  6
Continuous
 62
     7
370
    25
100
AcDbSpline
210
0.0
220
0.0
230
1.0
 70
     8
 71
     3
 72
    48
 73
    44
 74
     0
 42
0.000000001
 43
0.00000001
 40
0.0
 40
0.0
 40
0.0
 40
0.0
 40
0.0088092521823173
 40
0.017743617361151
 40
0.0268039968109502
 40
0.0359915931719175
 40
0.0453079116990308
 40
0.0547547606084442
 40
0.0643342504908357
 40
0.0740487927677685
 40
0.0839010971746986
 40
0.0938941682627309
 40
0.1040312433456165
 40
0.1143145374772277
 40
0.1247452163162894
 40
0.154164518340818
 40
0.1874888026706667
 40
0.2180195556855613
 40
0.2497420537706295
 40
0.2778430837868445
 40
0.3046154403578265
 40
0.3298520194070634
 40
0.3533672620848921
 40
0.3749943743231768
 40
0.4386076471419746
 40
0.4998681251017593
 40
0.56106205349673
 40
0.6252800927709493
 40
0.6804647293862522
 40
0.7503726149351172
 40
0.7716509163598496
 40
0.7923959907342377
 40
0.8126057843007406
 40
0.8325954240602662
 40
0.8534747994994303
 40
0.8751372187650914
 40
0.894396441014005
 40
0.9131558472535771
 40
0.931430287397297
 40
0.9492384027997279
 40
0.9665955042167033
 40
0.9835133251534464
 40
1.0
 40
1.0
 40
1.0
 40
1.0
 10
6.23613316694658
 20
2.335635772977483
 30
0.0
 10
6.054914837632521
 20
2.316693778030058
 30
0.0
 10
5.689904434067281
 20
2.278540765328428
 30
0.0
 10
5.136336365210332
 20
2.227959008228288
 30
0.0
 10
4.573518898598548
 20
2.18205672005814
 30
0.0
 10
4.001319594589412
 20
2.141623871062974
 30
0.0
 10
3.419819983246034
 20
2.106803667764334
 30
0.0
 10
2.829042505262785
 20
2.077914220710166
 30
0.0
 10
2.229025191786893
 20
2.055223670127802
 30
0.0
 10
1.619801167483127
 20
2.039011743284476
 30
0.0
 10
1.001404309224198
 20
2.029552622079024
 30
0.0
 10
0.3738685110188829
 20
2.027120572899617
 30
0.0
 10
-0.2627431310955365
 20
2.031984377747035
 30
0.0
 10
-0.908315960674002
 20
2.044447403867632
 30
0.0
 10
-1.956599206782169
 20
2.076910783662032
 30
0.0
 10
-3.483652562898298
 20
2.15820218690764
 30
0.0
 10
-5.417072427919754
 20
2.329444331490106
 30
0.0
 10
-7.37556400806796
 20
2.577278823279045
 30
0.0
 10
-9.200636902027002
 20
2.874366382755726
 30
0.0
 10
-10.91917798443334
 20
3.216312955303745
 30
0.0
 10
-12.4763575114579
 20
3.5830978343886
 30
0.0
 10
-13.9133480582285
 20
3.969852756745336
 30
0.0
 10
-15.22256543307359
 20
4.365125059222617
 30
0.0
 10
-17.1981389657301
 20
5.025150795752074
 30
0.0
 10
-19.72600811267203
 20
6.042201760549655
 30
0.0
 10
-22.65277587060508
 20
7.536260051194142
 30
0.0
 10
-25.25028492063426
 20
9.225339613078358
 30
0.0
 10
-27.41560760305464
 20
11.01376620630279
 30
0.0
 10
-29.27235478067834
 20
13.02614553535223
 30
0.0
 10
-30.38684728742696
 20
14.66797391172494
 30
0.0
 10
-31.03619336544247
 20
15.95751390337222
 30
0.0
 10
-31.34635121942865
 20
16.68231713541079
 30
0.0
 10
-31.5942569767667
 20
17.39901031920416
 30
0.0
 10
-31.79370916295972
 20
18.12220776702985
 30
0.0
 10
-31.95256815138877
 20
18.86641614811822
 30
0.0
 10
-32.05527181202854
 20
19.60517851228809
 30
0.0
 10
-32.10336321890554
 20
20.32031476313814
 30
0.0
 10
-32.10542153171431
 20
20.99545140483036
 30
0.0
 10
-32.06524786302281
 20
21.65286326595423
 30
0.0
 10
-31.98627862212889
 20
22.29235750297627
 30
0.0
 10
-31.87065758507543
 20
22.91370719952454
 30
0.0
 10
-31.7246021550775
 20
23.51710756090888
 30
0.0
 10
-31.59997981918623
 20
23.91157990374047
 30
0.0
 10
-31.53847289078395
 20
24.10627038176513
 30
0.0
  0
SPLINE
  5
F1
330
DA
100
AcDbEntity
  8
0
  6
Continuous
 62
     7
370
    25
100
AcDbSpline
210
0.0
220
0.0
230
1.0
 70
     8
 71
     3
 72
    48
 73
    44
 74
     0
 42
0.000000001
 43
0.00000001
 40
0.0
 40
0.0
 40
0.0
 40
0.0
 40
0.0088092521828359
 40
0.0177436173621081
 40
0.0268039968122642
 40
0.0359915931735043
 40
0.0453079117008036
 40
0.0547547606103126
 40
0.0643342504927052
 40
0.0740487927695403
 40
0.0839010971762681
 40
0.0938941682639884
 40
0.1040312433464479
 40
0.1143145374775273
 40
0.1247452163159498
 40
0.1541645183512869
 40
0.1874888026704081
 40
0.2180195556858498
 40
0.2497420537710684
 40
0.2778430838025565
 40
0.3046154403816215
 40
0.3298520194311828
 40
0.353367262101132
 40
0.3749943743230718
 40
0.4386076471522966
 40
0.4998681250977337
 40
0.5610620535063922
 40
0.6252800927709833
 40
0.6804647294289838
 40
0.750372614934408
 40
0.7716509163581972
 40
0.7923959907326694
 40
0.8126057842999914
 40
0.8325954240703748
 40
0.8534747995087867
 40
0.8751372187632926
 40
0.894396441026875
 40
0.9131558472757833
 40
0.9314302874236211
 40
0.9492384028254043
 40
0.9665955042374532
 40
0.983513325165475
 40
1.0
 40
1.0
 40
1.0
 40
1.0
 10
-6.236133166946571
 20
38.73607103818556
 30
0.0
 10
-6.054914837744953
 20
38.75644849538712
 30
0.0
 10
-5.689904434407983
 20
38.79749281968311
 30
0.0
 10
-5.136336365900924
 20
38.85253212188888
 30
0.0
 10
-4.573518899650891
 20
38.90301834605478
 30
0.0
 10
-4.001319596015579
 20
38.94816827649078
 30
0.0
 10
-3.419819985058019
 20
38.98783686131168
 30
0.0
 10
-2.82904250747259
 20
39.0217064972391
 30
0.0
 10
-2.229025194406532
 20
39.04950890613584
 30
0.0
 10
-1.619801170524614
 20
39.07096440158278
 30
0.0
 10
-1.001404312699544
 20
39.08579878150567
 30
0.0
 10
-0.3738685149400622
 20
39.093737807987
 30
0.0
 10
0.2627431267169626
 20
39.09451229199843
 30
0.0
 10
0.9083159558269712
 20
39.08781882113712
 30
0.0
 10
1.956599201433843
 20
39.06480966734203
 30
0.0
 10
3.483652556524377
 20
38.99752352495174
 30
0.0
 10
5.41707242030711
 20
38.84431009668904
 30
0.0
 10
7.375563999037927
 20
38.61460954581826
 30
0.0
 10
9.200636892234579
 20
38.33428592530792
 30
0.0
 10
10.91917797412961
 20
38.00766693689771
 30
0.0
 10
12.47635750077533
 20
37.6539118805433
 30
0.0
 10
13.91334804682971
 20
37.27847567555986
 30
0.0
 10
15.22256542062577
 20
36.89277469878073
 30
0.0
 10
17.19813895220339
 20
36.245918508378
 30
0.0
 10
19.7260080979775
 20
35.24139230771827
 30
0.0
 10
22.65277585566575
 20
33.75320003367385
 30
0.0
 10
25.2502849058361
 20
32.05840481537338
 30
0.0
 10
27.41560758968328
 20
30.25474686786009
 30
0.0
 10
29.2723547688756
 20
28.21671381929381
 30
0.0
 10
30.38684727735464
 20
26.55053966688461
 30
0.0
 10
31.03619335696967
 20
25.24060494144342
 30
0.0
 10
31.34635121207637
 20
24.50419945974525
 30
0.0
 10
31.59425697062981
 20
23.77571844243558
 30
0.0
 10
31.79370915806686
 20
23.04064401842572
 30
0.0
 10
31.95256814778578
 20
22.28450743411928
 30
0.0
 10
32.05527180984271
 20
21.53398731554205
 30
0.0
 10
32.10336321819259
 20
20.80759308371141
 30
0.0
 10
32.1054215323979
 20
20.12203029292696
 30
0.0
 10
32.06524786507955
 20
19.45464291728707
 30
0.0
 10
31.98627862557189
 20
18.8056306312475
 30
0.0
 10
31.87065758994797
 20
18.17522532611446
 30
0.0
 10
31.7246021614393
 20
17.56320770048709
 30
0.0
 10
31.59997982661973
 20
17.16327136102593
 30
0.0
 10
31.53847289875307
 20
16.96588414614095
 30
0.0
  0
SPLINE
  5
F5
330
DA
100
AcDbEntity
  8
0
  6
Continuous
 62
     7
370
    25
100
AcDbSpline
210
0.0
220
0.0
230
1.0
 70
     8
 71
     3
 72
     8
 73
     4
 74
     0
 42
0.000000001
 43
0.00000001
 40
0.0
 40
0.0
 40
0.0
 40
0.0
 40
1.0
 40
1.0
 40
1.0
 40
1.0
 10
-6.290256843186103
 20
38.73038898108164
 30
0.0
 10
-6.272205964152206
 20
38.73227465542092
 30
0.0
 10
-6.254160734485623
 20
38.73415026306932
 30
0.0
 10
-6.236121190366707
 20
38.73601580861759
 30
0.0
  0
SPLINE
  5
F6
330
DA
100
AcDbEntity
  8
0
  6
Continuous
 62
     7
370
    25
100
AcDbSpline
210
0.0
220
0.0
230
1.0
 70
     8
 71
     3
 72
    47
 73
    43
 74
     0
 42
0.000000001
 43
0.00000001
 40
0.0
 40
0.0
 40
0.0
 40
0.0
 40
0.014690917719398
 40
0.0291608421669325
 40
0.0433990214762972
 40
0.0573950965975357
 40
0.0711390964771944
 40
0.0846214317597214
 40
0.0978328874091393
 40
0.1107646145867369
 40
0.1234080773827976
 40
0.1357547157532836
 40
0.1477962203280566
 40
0.1595246928420641
 40
0.1709326324664121
 40
0.1820129265540256
 40
0.1927588409636922
 40
0.2031640101722791
 40
0.2132224273573411
 40
0.2229284346103846
 40
0.2322767134246106
 40
0.2412622730467119
 40
0.2498803535495951
 40
0.314090081205372
 40
0.3773641290156716
 40
0.4392897893381277
 40
0.4994818212832966
 40
0.5592999818116422
 40
0.6213280452822639
 40
0.6851676602857981
 40
0.7503795942030869
 40
0.7668767336696646
 40
0.7847501408718649
 40
0.803963743133927
 40
0.8244768926773269
 40
0.8462439805660151
 40
0.8692141687644735
 40
0.8933311232123222
 40
0.9185340523967641
 40
0.944759563110019
 40
0.9719394182740345
 40
1.0
 40
1.0
 40
1.0
 40
1.0
 10
-31.52753176097863
 20
24.13594938838354
 30
0.0
 10
-31.49013645808736
 20
24.24116736411425
 30
0.0
 10
-31.41590838423754
 20
24.45002053734772
 30
0.0
 10
-31.29321463717357
 20
24.7593027225543
 30
0.0
 10
-31.16406385932729
 20
25.06244201702548
 30
0.0
 10
-31.02826900830933
 20
25.35910649355764
 30
0.0
 10
-30.88674323846439
 20
25.64911492626347
 30
0.0
 10
-30.74009545180319
 20
25.93227022686666
 30
0.0
 10
-30.58899639472318
 20
26.20840160927168
 30
0.0
 10
-30.43408397917904
 20
26.47735225744854
 30
0.0
 10
-30.2759851026175
 20
26.73897786863343
 30
0.0
 10
-30.11532417017166
 20
26.99314739765008
 30
0.0
 10
-29.95272905683995
 20
27.23974483585188
 30
0.0
 10
-29.78880282526153
 20
27.47866604666417
 30
0.0
 10
-29.62412872346692
 20
27.70982006532531
 30
0.0
 10
-29.45926889162887
 20
27.93312789118026
 30
0.0
 10
-29.29476480235056
 20
28.14852168027614
 30
0.0
 10
-29.13113740723876
 20
28.35594396013034
 30
0.0
 10
-28.96888677507793
 20
28.55534660202864
 30
0.0
 10
-28.80849391202944
 20
28.74669087129902
 30
0.0
 10
-28.65041476012147
 20
28.92994376623591
 30
0.0
 10
-28.49510236543179
 20
29.10508696295513
 30
0.0
 10
-28.01348751203254
 20
29.63361223510802
 30
0.0
 10
-27.14441842974729
 20
30.49197468489822
 30
0.0
 10
-25.78513195839598
 20
31.63007927821451
 30
0.0
 10
-24.31860616961599
 20
32.68457524633352
 30
0.0
 10
-22.7569797521443
 20
33.65745741478835
 30
0.0
 10
-21.07686972103252
 20
34.56223580564968
 30
0.0
 10
-19.25386890050325
 20
35.41170708365399
 30
0.0
 10
-17.27265150460579
 20
36.20390401283554
 30
0.0
 10
-15.68916659440263
 20
36.74024365957822
 30
0.0
 10
-14.57646971190752
 20
37.07485330486018
 30
0.0
 10
-13.97108398707233
 20
37.24734422079043
 30
0.0
 10
-13.31343970753788
 20
37.42446623046017
 30
0.0
 10
-12.60396666970598
 20
37.60417915340295
 30
0.0
 10
-11.84338130487573
 20
37.78433650114811
 30
0.0
 10
-11.03264011189735
 20
37.96261752875067
 30
0.0
 10
-10.17296616238597
 20
38.13649213917638
 30
0.0
 10
-9.265950443370114
 20
38.3034690464679
 30
0.0
 10
-8.31334948390816
 20
38.46044398148818
 30
0.0
 10
-7.318065449958689
 20
38.60643731445197
 30
0.0
 10
-6.636472154979339
 20
38.68860357920938
 30
0.0
 10
-6.290242012090896
 20
38.73034172099733
 30
0.0
  0
SPLINE
  5
F8
330
DA
100
AcDbEntity
  8
0
  6
Continuous
 62
     7
370
    25
100
AcDbSpline
210
0.0
220
0.0
230
1.0
 70
     8
 71
     3
 72
    12
 73
     8
 74
     0
 42
0.000000001
 43
0.00000001
 40
0.0
 40
0.0
 40
0.0
 40
0.0
 40
0.3407442609357164
 40
0.5114365473183139
 40
0.6821409750382527
 40
0.8601517693542554
 40
1.0
 40
1.0
 40
1.0
 40
1.0
 10
-22.56408091423204
 20
15.28520088192158
 30
0.0
 10
-22.80251392945589
 20
14.218566465353
 30
0.0
 10
-23.16038747877971
 20
12.61761265394416
 30
0.0
 10
-22.7125799564804
 20
10.48222471814033
 30
0.0
 10
-22.05067297867641
 20
8.897808464111408
 30
0.0
 10
-21.13062661087266
 20
7.451205609886887
 30
0.0
 10
-20.28037566937425
 20
6.576473138231107
 30
0.0
 10
-19.90629130984493
 20
6.19161765563419
 30
0.0
  0
SPLINE
  5
F9
330
DA
100
AcDbEntity
  8
0
  6
Continuous
 62
     7
370
    25
100
AcDbSpline
210
0.0
220
0.0
230
1.0
 70
     8
 71
     3
 72
     8
 73
     4
 74
     0
 42
0.000000001
 43
0.00000001
 40
0.0
 40
0.0
 40
0.0
 40
0.0
 40
1.0
 40
1.0
 40
1.0
 40
1.0
 10
-31.53847152542366
 20
24.10633585006495
 30
0.0
 10
-28.54565318489996
 20
21.17089751434267
 30
0.0
 10
-25.55432476325193
 20
18.23053588795762
 30
0.0
 10
-22.56452455623299
 20
15.28525146689982
 30
0.0
  0
SPLINE
  5
FA
330
DA
100
AcDbEntity
  8
0
  6
Continuous
 62
     7
370
    25
100
AcDbSpline
210
0.0
220
0.0
230
1.0
 70
     8
 71
     3
 72
    10
 73
     6
 74
     0
 42
0.000000001
 43
0.00000001
 40
0.0
 40
0.0
 40
0.0
 40
0.0
 40
0.1304946527881949
 40
0.5651978893037991
 40
0.9999999999999999
 40
0.9999999999999999
 40
0.9999999999999999
 40
0.9999999999999999
 10
19.74455249621205
 20
5.981509160250815
 30
0.0
 10
19.93028257238674
 20
6.145300506839306
 30
0.0
 10
20.73471589429878
 20
6.85471289577682
 30
0.0
 10
21.74599655634663
 20
8.249275224955964
 30
0.0
 10
22.29136550090685
 20
9.509342588809027
 30
0.0
 10
22.5640809809937
 20
10.13944791384189
 30
0.0
  0
SPLINE
  5
FB
330
DA
100
AcDbEntity
  8
0
  6
Continuous
 62
     7
370
    25
100
AcDbSpline
210
0.0
220
0.0
230
1.0
 70
     8
 71
     3
 72
     8
 73
     4
 74
     0
 42
0.000000001
 43
0.00000001
 40
0.0
 40
0.0
 40
0.0
 40
0.0
 40
1.0
 40
1.0
 40
1.0
 40
1.0
 10
22.56387153487042
 20
10.13947179532015
 30
0.0
 10
25.55512846620617
 20
12.41418359210545
 30
0.0
 10
28.54666208968324
 20
14.68967608232771
 30
0.0
 10
31.53847154143526
 20
16.96594946137677
 30
0.0
  0
SPLINE
  5
FC
330
DA
100
AcDbEntity
  8
0
  6
Continuous
 62
     7
370
    25
100
AcDbSpline
210
0.0
220
0.0
230
1.0
 70
     8
 71
     3
 72
    50
 73
    46
 74
     0
 42
0.000000001
 43
0.00000001
 40
0.0
 40
0.0
 40
0.0
 40
0.0
 40
0.0108597148204743
 40
0.0217194338978645
 40
0.0325791572654945
 40
0.0434388849566886
 40
0.0542986170047706
 40
0.0651583534430641
 40
0.0760180943048928
 40
0.086877839623581
 40
0.0977375894324519
 40
0.1085973437648292
 40
0.1194571026540364
 40
0.1303168661333975
 40
0.1411766342362353
 40
0.1520364069958741
 40
0.1628961844456368
 40
0.173755966618847
 40
0.1846157535488283
 40
0.1954755452689036
 40
0.206335341812396
 40
0.2171951432126294
 40
0.2280549495029264
 40
0.2389147607166103
 40
0.2497745768870041
 40
0.3148524936217548
 40
0.3782767740864553
 40
0.4400475099680445
 40
0.500164818656316
 40
0.5552400583729353
 40
0.6152561092923908
 40
0.6802117989755961
 40
0.7501057881328572
 40
0.7709302872503162
 40
0.7917547897070495
 40
0.812579295512446
 40
0.8334038046758937
 40
0.8542283172067827
 40
0.8750528331145009
 40
0.8958773524084374
 40
0.9167018750979805
 40
0.9375264011925198
 40
0.9583509307014437
 40
0.9791754636341408
 40
1.0
 40
1.0
 40
1.0
 40
1.0
 10
22.56408117768653
 20
10.13959531434439
 30
0.0
 10
22.59472036406488
 20
10.23307297527073
 30
0.0
 10
22.65599874883187
 20
10.42002833376586
 30
0.0
 10
22.73491105376873
 20
10.70184171106416
 30
0.0
 10
22.80425594746466
 20
10.98450552512811
 30
0.0
 10
22.86307126025211
 20
11.2680011265466
 30
0.0
 10
22.91157973568826
 20
11.55217239382498
 30
0.0
 10
22.94969256916398
 20
11.83689964660718
 30
0.0
 10
22.97741039695888
 20
12.12205311892405
 30
0.0
 10
22.99471586197683
 20
12.40750549933541
 30
0.0
 10
23.00160240847558
 20
12.69312864424871
 30
0.0
 10
22.99806657161403
 20
12.97879453210298
 30
0.0
 10
22.9841100458338
 20
13.26437508126462
 30
0.0
 10
22.95973913027247
 20
13.54974227239104
 30
0.0
 10
22.92496487437272
 20
13.83476818923735
 30
0.0
 10
22.87980303284138
 20
14.11932508109041
 30
0.0
 10
22.82427407018455
 20
14.40328541996006
 30
0.0
 10
22.75840314477403
 20
14.68652195666695
 30
0.0
 10
22.68222011241742
 20
14.96890778598162
 30
0.0
 10
22.59575945961213
 20
15.25031637589975
 30
0.0
 10
22.49906048582147
 20
15.53062173040302
 30
0.0
 10
22.39216654727533
 20
15.8096980530656
 30
0.0
 10
22.2751277929937
 20
16.08742127256284
 30
0.0
 10
22.14799085777371
 20
16.36366361833488
 30
0.0
 10
21.7825887643022
 20
17.09538226796838
 30
0.0
 10
21.04569120069963
 20
18.24387101767418
 30
0.0
 10
19.71066659648612
 20
19.72082920757385
 30
0.0
 10
18.1177608361313
 20
21.05195587476386
 30
0.0
 10
16.34655179784394
 20
22.20462259259699
 30
0.0
 10
14.38269036195665
 20
23.21864790578441
 30
0.0
 10
12.17257805748544
 20
24.11832428327196
 30
0.0
 10
9.589968243552725
 20
24.91184988056062
 30
0.0
 10
7.395471532236691
 20
25.38030024721554
 30
0.0
 10
5.781720615303706
 20
25.63215783132904
 30
0.0
 10
4.868115502823185
 20
25.75188006821339
 30
0.0
 10
3.946435532758911
 20
25.84993284296929
 30
0.0
 10
3.018170551288609
 20
25.92617534250474
 30
0.0
 10
2.084879234328388
 20
25.98046285430985
 30
0.0
 10
1.148114228289908
 20
26.01269477966882
 30
0.0
 10
0.2094337257793656
 20
26.02281721020183
 30
0.0
 10
-0.7295855189072276
 20
26.01076560984466
 30
0.0
 10
-1.667427426303146
 20
25.97669214486185
 30
0.0
 10
-2.602348291793014
 20
25.92011394801431
 30
0.0
 10
-3.533466385734886
 20
25.84309263053083
 30
0.0
 10
-4.148960389923364
 20
25.77327588058698
 30
0.0
 10
-4.456707417385408
 20
25.73836750273754
 30
0.0
  0
SPLINE
  5
FD
330
DA
100
AcDbEntity
  8
0
  6
Continuous
 62
     7
370
    25
100
AcDbSpline
210
0.0
220
0.0
230
1.0
 70
     8
 71
     3
 72
    65
 73
    61
 74
     0
 42
0.000000001
 43
0.00000001
 40
0.0
 40
0.0
 40
0.0
 40
0.0
 40
0.0172262804760655
 40
0.0344530833119064
 40
0.0516804089057305
 40
0.0689082576557126
 40
0.0861366299599904
 40
0.1033655262166646
 40
0.1205949468237993
 40
0.1378248921794245
 40
0.1550553626815321
 40
0.1722863587280759
 40
0.189517880716978
 40
0.2067499290461207
 40
0.2239825041133481
 40
0.2412156063164716
 40
0.2584492360532663
 40
0.2756833937214667
 40
0.2929180797187741
 40
0.3101532944428537
 40
0.3273890382913296
 40
0.3446253116617949
 40
0.3618621149518033
 40
0.37909944855887
 40
0.3963373128804777
 40
0.413575708314071
 40
0.4308146352570542
 40
0.4480540941067997
 40
0.4652940852606406
 40
0.4825346091158736
 40
0.4997756660697587
 40
0.5170172565195196
 40
0.5342593808623419
 40
0.5515020394953751
 40
0.5687452328157315
 40
0.5859889612204865
 40
0.6032332251066789
 40
0.6204780248713108
 40
0.6377233609113461
 40
0.6549692336237113
 40
0.6722156434052994
 40
0.6894625906529606
 40
0.7067100757635135
 40
0.7239580991337372
 40
0.7412066611603723
 40
0.758455762240125
 40
0.7757054027696629
 40
0.7929555831456144
 40
0.8102063037645749
 40
0.8274575650230993
 40
0.8447093673177082
 40
0.8619617110448802
 40
0.8792145966010604
 40
0.8964680243826554
 40
0.9137219947860336
 40
0.9309765082075294
 40
0.9482315650434362
 40
0.9654871656900091
 40
0.9827433105434699
 40
0.9999999999999999
 40
0.9999999999999999
 40
0.9999999999999999
 40
0.9999999999999999
 10
-4.456708013091946
 20
25.73822171819252
 30
0.0
 10
-4.60951867413733
 20
25.72081446631911
 30
0.0
 10
-4.915144629970291
 20
25.68599943472483
 30
0.0
 10
-5.371063237168981
 20
25.62689127991327
 30
0.0
 10
-5.824905972508903
 20
25.56277204854959
 30
0.0
 10
-6.27631699824596
 20
25.49317249546894
 30
0.0
 10
-6.725154262096919
 20
25.41825442729256
 30
0.0
 10
-7.171219723581487
 20
25.33801333706336
 30
0.0
 10
-7.614331740950964
 20
25.25249205190539
 30
0.0
 10
-8.054305771737171
 20
25.16172346707016
 30
0.0
 10
-8.49095964112169
 20
25.06574587323215
 30
0.0
 10
-8.924112226445697
 20
24.96459883045727
 30
0.0
 10
-9.353583905268792
 20
24.85832425378374
 30
0.0
 10
-9.779196530153362
 20
24.74696610116992
 30
0.0
 10
-10.20077352951757
 20
24.6305704348411
 30
0.0
 10
-10.61813997391679
 20
24.50918538147529
 30
0.0
 10
-11.03112265075997
 20
24.38286111840156
 30
0.0
 10
-11.43955013589832
 20
24.25164985174265
 30
0.0
 10
-11.84325286514631
 20
24.11560579564139
 30
0.0
 10
-12.24206320487726
 20
23.97478515013226
 30
0.0
 10
-12.63581552188585
 20
23.82924607832303
 30
0.0
 10
-13.02434625242867
 20
23.67904868271938
 30
0.0
 10
-13.40749397043031
 20
23.52425498074971
 30
0.0
 10
-13.7850994548217
 20
23.36492887948696
 30
0.0
 10
-14.157005755984
 20
23.20113614958126
 30
0.0
 10
-14.52305826126968
 20
23.03294439841289
 30
0.0
 10
-14.88310475957353
 20
22.86042304247673
 30
0.0
 10
-15.23699550492642
 20
22.6836432790094
 30
0.0
 10
-15.58458327908519
 20
22.50267805687028
 30
0.0
 10
-15.92572345309234
 20
22.31760204668873
 30
0.0
 10
-16.26027404777962
 20
22.12849161028917
 30
0.0
 10
-16.58809579319022
 20
21.93542476940676
 30
0.0
 10
-16.90905218689429
 20
21.73848117370606
 30
0.0
 10
-17.22300955117368
 20
21.53774206811629
 30
0.0
 10
-17.52983708905124
 20
21.3332902594958
 30
0.0
 10
-17.82940693914155
 20
21.12521008263969
 30
0.0
 10
-18.12159422929966
 20
20.91358736564474
 30
0.0
 10
-18.40627712904528
 20
20.69850939464508
 30
0.0
 10
-18.68333690074017
 20
20.48006487793367
 30
0.0
 10
-18.95265794949727
 20
20.25834390948399
 30
0.0
 10
-19.21412787180026
 20
20.03343793188674
 30
0.0
 10
-19.46763750281282
 20
19.80543969871703
 30
0.0
 10
-19.71308096235873
 20
19.57444323634725
 30
0.0
 10
-19.95035569954794
 20
19.34054380522098
 30
0.0
 10
-20.17936253605076
 20
19.10383786060612
 30
0.0
 10
-20.40000570792144
 20
18.86442301283376
 30
0.0
 10
-20.61219290625455
 20
18.62239798707535
 30
0.0
 10
-20.81583531553114
 20
18.37786258253944
 30
0.0
 10
-21.01084765384083
 20
18.13091763160966
 30
0.0
 10
-21.19714819927673
 20
17.88166495705575
 30
0.0
 10
-21.37465886103581
 20
17.63020733437143
 30
0.0
 10
-21.54330507669457
 20
17.37664843299317
 30
0.0
 10
-21.70301635119494
 20
17.12109283443826
 30
0.0
 10
-21.85372439371043
 20
16.86364576154241
 30
0.0
 10
-21.99537021259512
 20
16.60441388420533
 30
0.0
 10
-22.12787776949758
 20
16.34350210571138
 30
0.0
 10
-22.25125243497
 20
16.08102534889146
 30
0.0
 10
-22.36521364920232
 20
15.81706435799015
 30
0.0
 10
-22.47056602767827
 20
15.5518304452488
 30
0.0
 10
-22.53290915010422
 20
15.37397989420702
 30
0.0
 10
-22.56408120319589
 20
15.28505321546965
 30
0.0
  0
LWPOLYLINE
  5
FE
330
DA
100
AcDbEntity
  8
0
  6
Continuous
 62
     7
370
    25
100
AcDbPolyline
 90
       16
 70
   128
 43
0.0
 10
16.2634559673
 20
9.388693286
 10
14.096862234
 20
10.4913759236
 10
11.7079525623
 20
11.4286032957
 10
9.1344014846
 20
12.1855947667
 10
6.4167954389
 20
12.7504121289
 10
3.5979926959
 20
13.1141478751
 10
0.7224474588
 20
13.2710656753
 10
-2.1644912063
 20
13.2186908421
 10
-5.0172945521
 20
12.9578493578
 10
-7.7909721656
 20
12.4926548485
 10
-10.441781494
 20
11.8304437094
 10
-12.9279176906
 20
10.981659406
 10
-15.2101729024
 20
9.9596877735
 10
-17.2525546015
 20
8.7806459153
 10
-19.0228532083
 20
7.4631280256
 10
-20.179470732
 20
6.3708338081
  0
SPLINE
  5
100
330
DA
100
AcDbEntity
  8
0
  6
Continuous
 62
     7
370
    25
100
AcDbSpline
210
0.0
220
0.0
230
1.0
 70
     8
 71
     3
 72
     8
 73
     4
 74
     0
 42
0.000000001
 43
0.00000001
 40
0.0
 40
0.0
 40
0.0
 40
0.0
 40
1.0
 40
1.0
 40
1.0
 40
1.0
 10
-6.290242515151737
 20
38.73027506506912
 30
0.0
 10
-5.670350463223837
 20
34.40065901519107
 30
0.0
 10
-5.059167538871009
 20
30.06996832451048
 30
0.0
 10
-4.456708723122769
 20
25.7382237934547
 30
0.0
  0
LINE
  5
101
330
DA
100
AcDbEntity
  8
0
  6
Continuous
 62
     7
370
    25
100
AcDbLine
 10
63.6396103068
 20
-87.7452940121
 30
0.0
 11
63.6396103068
 21
-202.0610076761
 31
0.0
  0
LINE
  5
102
330
DA
100
AcDbEntity
  8
0
  6
Continuous
 62
     7
370
    25
100
AcDbLine
 10
63.6396103068
 20
-87.7452940121
 30
0.0
 11
350.0178566873
 21
77.577348632
 31
0.0
  0
LINE
  5
103
330
DA
100
AcDbEntity
  8
0
  6
Continuous
 62
     7
370
    25
100
AcDbLine
 10
350.0178566873
 20
77.577348632
 30
0.0
 11
350.0178566873
 21
-36.738365032
 31
0.0
  0
LINE
  5
104
330
DA
100
AcDbEntity
  8
0
  6
Continuous
 62
     7
370
    25
100
AcDbLine
 10
63.6396103068
 20
-202.0610076761
 30
0.0
 11
350.0178566873
 21
-36.738365032
 31
0.0
  0
LINE
  5
105
330
DA
100
AcDbEntity
  8
0
  6
Continuous
 62
     7
370
    25
100
AcDbLine
 10
-350.0178566873
 20
151.054078696
 30
0.0
 11
-350.0178566873
 21
36.738365032
 31
0.0
  0
LINE
  5
106
330
DA
100
AcDbEntity
  8
0
  6
Continuous
 62
     7
370
    25
100
AcDbLine
 10
-350.0178566873
 20
151.054078696
 30
0.0
 11
63.6396103068
 21
-87.7452940121
 31
0.0
  0
LINE
  5
107
330
DA
100
AcDbEntity
  8
0
  6
Continuous
 62
     7
370
    25
100
AcDbLine
 10
-350.0178566873
 20
36.738365032
 30
0.0
 11
63.6396103068
 21
-202.0610076761
 31
0.0
  0
LINE
  5
108
330
DA
100
AcDbEntity
  8
0
  6
Continuous
 62
     7
370
    25
100
AcDbLine
 10
-63.6396103068
 20
316.3767213401
 30
0.0
 11
-350.0178566873
 21
151.054078696
 31
0.0
  0
LINE
  5
109
330
DA
100
AcDbEntity
  8
0
  6
Continuous
 62
     7
370
    25
100
AcDbLine
 10
350.0178566873
 20
77.577348632
 30
0.0
 11
-63.6396103068
 21
316.3767213401
 31
0.0
  0
LINE
  5
10A
330
DA
100
AcDbEntity
  8
0
  6
Continuous
 62
     7
370
    25
100
AcDbLine
 10
321.7335854399
 20
77.577348632
 30
0.0
 11
-63.6396103068
 21
300.0485591037
 31
0.0
  0
LINE
  5
10B
330
DA
100
AcDbEntity
  8
0
  6
Continuous
 62
     7
370
    25
100
AcDbLine
 10
-63.6396103068
 20
300.0485591037
 30
0.0
 11
-321.7335854399
 21
151.054078696
 31
0.0
  0
LINE
  5
10C
330
DA
100
AcDbEntity
  8
0
  6
Continuous
 62
     7
370
    25
100
AcDbLine
 10
-321.7335854399
 20
151.054078696
 30
0.0
 11
63.6396103068
 21
-71.4171317757
 31
0.0
  0
LINE
  5
10D
330
DA
100
AcDbEntity
  8
0
  6
Continuous
 62
     7
370
    25
100
AcDbLine
 10
63.6396103068
 20
-71.4171317757
 30
0.0
 11
321.7335854399
 21
77.577348632
 31
0.0
  0
LINE
  5
10E
330
DA
100
AcDbEntity
  8
0
  6
Continuous
 62
     7
370
    25
100
AcDbLine
 10
24.1103957184
 20
-48.5974019254
 30
0.0
 11
6.2361334147
 21
2.335635067
 31
0.0
  0
LINE
  5
10F
330
DA
100
AcDbEntity
  8
0
  6
Continuous
 62
     7
370
    25
100
AcDbLine
 10
189.2231892941
 20
1.0807252134
 30
0.0
 11
31.527531923
 21
16.9357687083
 31
0.0
  0
LINE
  5
110
330
DA
100
AcDbEntity
  8
0
  6
Continuous
 62
     7
370
    25
100
AcDbLine
 10
-121.8914450209
 20
35.6876666753
 30
0.0
 11
-31.5275319238
 21
24.1359494092
 31
0.0
  0
LINE
  5
111
330
DA
100
AcDbEntity
  8
0
  6
Continuous
 62
     7
370
    25
100
AcDbLine
 10
-6.2361334147
 20
38.7360717783
 30
0.0
 11
-63.6396103068
 21
210.2290697962
 31
0.0
  0
LINE
  5
112
330
DA
100
AcDbEntity
  8
0
  6
Continuous
 62
     7
370
    25
100
AcDbLine
 10
243.9391967607
 20
32.6676039783
 30
0.0
 11
-63.6396103068
 21
210.2290697962
 31
0.0
  0
LINE
  5
113
330
DA
100
AcDbEntity
  8
0
  6
Continuous
 62
     7
370
    25
100
AcDbLine
 10
-63.6396103068
 20
210.2290697962
 30
0.0
 11
-63.6396103068
 21
300.0485591037
 31
0.0
  0
LINE
  5
114
330
DA
100
AcDbEntity
  8
0
  6
Continuous
 62
     7
370
    25
100
AcDbLine
 10
-63.6396103068
 20
210.2290697962
 30
0.0
 11
-243.9391967607
 21
106.1443340423
 31
0.0
  0
ARC
  5
115
330
DA
100
AcDbEntity
  8
0
  6
Continuous
 62
     7
370
    25
100
AcDbCircle
 10
8.0807963712
 20
-5.2767062457
 30
0.0
 40
16.79374471305075
100
AcDbArc
 50
43.7511218303
 51
60.8403696949
  0
VIEWPORT
  5
179
330
DA
100
AcDbEntity
  8
0
100
AcDbViewport
 10
0.0
 20
0.0
 30
0.0
 40
205.6
 41
156.0
 68
     1
 69
     1
 12
0.0
 22
0.0
 13
0.0
 23
0.0
 14
10.0
 24
10.0
 15
10.0
 25
10.0
 16
0.0
 26
0.0
 36
1.0
 17
0.0
 27
0.0
 37
0.0
 42
50.0
 43
0.0
 44
0.0
 45
452.7490272374
 50
0.0
 51
0.0
 72
   100
 90
   557152
  1

281
     0
 71
     1
 74
     0
110
0.0
120
0.0
130
0.0
111
1.0
121
0.0
131
0.0
112
0.0
122
1.0
132
0.0
 79
     0
146
0.0
170
     0
 61
     5
348
2F
292
     1
282
     1
141
0.0
142
0.0
 63
   256
361
17A
  0
ENDBLK
  5
DD
330
DA
100
AcDbEntity
  8
0
100
AcDbBlockEnd
  0
BLOCK
  5
118
330
116
100
AcDbEntity
  8
0
100
AcDbBlockBegin
  2
*Paper_Space6
 70
     0
 10
0.0
 20
0.0
 30
0.0
  3
*Paper_Space6
  1

  0
SPLINE
  5
127
330
116
100
AcDbEntity
  8
0
  6
Continuous
 62
     7
370
    25
100
AcDbSpline
210
0.0
220
0.0
230
1.0
 70
     8
 71
     3
 72
    14
 73
    10
 74
     0
 42
0.000000001
 43
0.00000001
 40
0.0
 40
0.0
 40
0.0
 40
0.0
 40
0.1434894090548873
 40
0.2878548286576206
 40
0.4315062945266707
 40
0.5754374555929312
 40
0.7199284924014866
 40
0.8645029031170725
 40
1.0
 40
1.0
 40
1.0
 40
1.0
 10
31.96284240059563
 20
23.28520645601132
 30
0.0
 10
32.05656918173637
 20
22.48043058523409
 30
0.0
 10
32.24459495104995
 20
20.865965643771
 30
0.0
 10
31.64249336703865
 20
18.44968484222143
 30
0.0
 10
30.41656922351603
 20
16.09816894791763
 30
0.0
 10
28.51481871123132
 20
13.85973656998248
 30
0.0
 10
25.9939439962493
 20
11.78427320675361
 30
0.0
 10
23.00149494237155
 20
9.930894781085108
 30
0.0
 10
20.63412065432897
 20
8.918353227107163
 30
0.0
 10
19.48879764016186
 20
8.42849104079004
 30
0.0
  0
SPLINE
  5
12A
330
116
100
AcDbEntity
  8
0
  6
Continuous
 62
     7
370
    25
100
AcDbSpline
210
0.0
220
0.0
230
1.0
 70
     8
 71
     3
 72
     8
 73
     4
 74
     0
 42
0.000000001
 43
0.00000001
 40
0.0
 40
0.0
 40
0.0
 40
0.0
 40
1.0
 40
1.0
 40
1.0
 40
1.0
 10
-15.31892483162772
 20
36.10902155105718
 30
0.0
 10
-15.30266842925793
 20
36.11336553643773
 30
0.0
 10
-15.28641227347416
 20
36.11770008192437
 30
0.0
 10
-15.27015640119134
 20
36.12202518592593
 30
0.0
  0
SPLINE
  5
12B
330
116
100
AcDbEntity
  8
0
  6
Continuous
 62
     7
370
    25
100
AcDbSpline
210
0.0
220
0.0
230
1.0
 70
     8
 71
     3
 72
    14
 73
    10
 74
     0
 42
0.000000001
 43
0.00000001
 40
0.0
 40
0.0
 40
0.0
 40
0.0
 40
0.1343817423783372
 40
0.2782675911956368
 40
0.4224335923214394
 40
0.5671603825422922
 40
0.7119706824460315
 40
0.8560475269190896
 40
1.0
 40
1.0
 40
1.0
 40
1.0
 10
-32.05789306776298
 20
22.43777706322731
 30
0.0
 10
-31.92741680420173
 20
23.19506250737079
 30
0.0
 10
-31.65723638440055
 20
24.76319217037251
 30
0.0
 10
-30.40496594336502
 20
27.07036709329866
 30
0.0
 10
-28.51620718665793
 20
29.31150032533599
 30
0.0
 10
-26.0000849855484
 20
31.38904673496364
 30
0.0
 10
-22.91676880552737
 20
33.2436869124034
 30
0.0
 10
-19.36878028427776
 20
34.86456104959759
 30
0.0
 10
-16.66846335917759
 20
35.69424851327118
 30
0.0
 10
-15.31888789661179
 20
36.10891311510521
 30
0.0
  0
SPLINE
  5
12D
330
116
100
AcDbEntity
  8
0
  6
Continuous
 62
     7
370
    25
100
AcDbSpline
210
0.0
220
0.0
230
1.0
 70
     8
 71
     3
 72
    48
 73
    44
 74
     0
 42
0.000000001
 43
0.00000001
 40
0.0
 40
0.0
 40
0.0
 40
0.0
 40
0.0088092521828359
 40
0.0177436173621081
 40
0.0268039968122642
 40
0.0359915931735043
 40
0.0453079117008036
 40
0.0547547606103126
 40
0.0643342504927052
 40
0.0740487927695403
 40
0.0839010971762681
 40
0.0938941682639884
 40
0.1040312433464479
 40
0.1143145374775273
 40
0.1247452163159498
 40
0.1541645183512869
 40
0.1874888026704081
 40
0.2180195556858498
 40
0.2497420537710684
 40
0.2778430838025565
 40
0.3046154403816215
 40
0.3298520194311828
 40
0.353367262101132
 40
0.3749943743230718
 40
0.4386076471522966
 40
0.4998681250977337
 40
0.5610620535063922
 40
0.6252800927709833
 40
0.6804647294289838
 40
0.750372614934408
 40
0.7716509163581972
 40
0.7923959907326694
 40
0.8126057842999914
 40
0.8325954240703748
 40
0.8534747995087867
 40
0.8751372187632926
 40
0.894396441026875
 40
0.9131558472757833
 40
0.9314302874236211
 40
0.9492384028254043
 40
0.9665955042374532
 40
0.983513325165475
 40
1.0
 40
1.0
 40
1.0
 40
1.0
 10
-15.27019546566783
 20
36.12207068503383
 30
0.0
 10
-15.1071219018528
 20
36.16714991247609
 30
0.0
 10
-14.77865872947968
 20
36.25794860300211
 30
0.0
 10
-14.276811017803
 20
36.38951577450957
 30
0.0
 10
-13.76376464353947
 20
36.5186216546375
 30
0.0
 10
-13.23899060876247
 20
36.64461947501007
 30
0.0
 10
-12.70249306075317
 20
36.76737301374419
 30
0.0
 10
-12.1541308045182
 20
36.88660819419202
 30
0.0
 10
-11.59380294261385
 20
37.00209054712131
 30
0.0
 10
-11.02139800714944
 20
37.11357664338057
 30
0.0
 10
-10.43680807060723
 20
37.22082760800744
 30
0.0
 10
-9.839925191056086
 20
37.32360453768262
 30
0.0
 10
-9.2306720203673
 20
37.4216683471038
 30
0.0
 10
-8.609002866990622
 20
37.51474297215371
 30
0.0
 10
-7.5933009042051
 20
37.65553839458491
 30
0.0
 10
-6.096371805240362
 20
37.83187787568415
 30
0.0
 10
-4.166212844753623
 20
37.9971935338979
 30
0.0
 10
-2.172938570433292
 20
38.1011390321041
 30
0.0
 10
-0.2815787704607067
 20
38.14150328513882
 30
0.0
 10
1.531322494576343
 20
38.12605878828343
 30
0.0
 10
3.203358494599599
 20
38.06270997229466
 30
0.0
 10
4.771223771020348
 20
37.96242785053753
 30
0.0
 10
6.221821949715787
 20
37.83378594592445
 30
0.0
 10
8.443587493514553
 20
37.58427270254013
 30
0.0
 10
11.37584626557174
 20
37.113851913553
 30
0.0
 10
14.93497410005129
 20
36.29119966365162
 30
0.0
 10
18.28228161338158
 20
35.24121408541201
 30
0.0
 10
21.26995247811014
 20
34.03175078897046
 30
0.0
 10
24.08006983667011
 20
32.5745431825904
 30
0.0
 10
25.99112037593862
 20
31.32150432410153
 30
0.0
 10
27.27651621880885
 20
30.30173788474152
 30
0.0
 10
27.94665575432896
 20
29.72009310233459
 30
0.0
 10
28.5532186838589
 20
29.13571415365503
 30
0.0
 10
29.11684073865925
 20
28.53833523965858
 30
0.0
 10
29.65244434525354
 20
27.91682328486011
 30
0.0
 10
30.13156807867328
 20
27.29157254985014
 30
0.0
 10
30.54629989847035
 20
26.67862700352219
 30
0.0
 10
30.89637357481712
 20
26.09356373166455
 30
0.0
 10
31.19691526323465
 20
25.51761224562893
 30
0.0
 10
31.45110762799502
 20
24.9514661924801
 30
0.0
 10
31.66088141656993
 20
24.39564984930553
 30
0.0
 10
31.83228266423616
 20
23.85091976211298
 30
0.0
 10
31.91645404874038
 20
23.49053142797023
 30
0.0
 10
31.95799654818589
 20
23.31266299608599
 30
0.0
  0
SPLINE
  5
130
330
116
100
AcDbEntity
  8
0
  6
Continuous
 62
     7
370
    25
100
AcDbSpline
210
0.0
220
0.0
230
1.0
 70
     8
 71
     3
 72
    11
 73
     7
 74
     0
 42
0.000000001
 43
0.00000001
 40
0.0
 40
0.0
 40
0.0
 40
0.0
 40
0.0023457318671472
 40
0.3348217833545767
 40
0.6673730719264768
 40
0.9999999999999999
 40
0.9999999999999999
 40
0.9999999999999999
 40
0.9999999999999999
 10
21.6875404513329
 20
9.427130795529065
 30
0.0
 10
21.69073927559914
 20
9.430892050887673
 30
0.0
 10
22.14732856462292
 20
9.967760839881386
 30
0.0
 10
22.62433570844843
 20
11.11960674060291
 30
0.0
 10
23.09381682126978
 20
12.8466505530604
 30
0.0
 10
22.94708080790769
 20
14.00513114667119
 30
0.0
 10
22.87370445832046
 20
14.58443731070776
 30
0.0
  0
SPLINE
  5
131
330
116
100
AcDbEntity
  8
0
  6
Continuous
 62
     7
370
    25
100
AcDbSpline
210
0.0
220
0.0
230
1.0
 70
     8
 71
     3
 72
     8
 73
     4
 74
     0
 42
0.000000001
 43
0.00000001
 40
0.0
 40
0.0
 40
0.0
 40
0.0
 40
1.0
 40
1.0
 40
1.0
 40
1.0
 10
22.8734921381853
 20
14.58442580350067
 30
0.0
 10
25.90179517809644
 20
17.49315342037566
 30
0.0
 10
28.92996320356514
 20
20.40258859722175
 30
0.0
 10
31.95799528919473
 20
23.31273136912325
 30
0.0
  0
SPLINE
  5
132
330
116
100
AcDbEntity
  8
0
  6
Continuous
 62
     7
370
    25
100
AcDbSpline
210
0.0
220
0.0
230
1.0
 70
     8
 71
     3
 72
    50
 73
    46
 74
     0
 42
0.000000001
 43
0.00000001
 40
0.0
 40
0.0
 40
0.0
 40
0.0
 40
0.0108597148204743
 40
0.0217194338978645
 40
0.0325791572654945
 40
0.0434388849566886
 40
0.0542986170047706
 40
0.0651583534430641
 40
0.0760180943048928
 40
0.086877839623581
 40
0.0977375894324519
 40
0.1085973437648292
 40
0.1194571026540364
 40
0.1303168661333975
 40
0.1411766342362353
 40
0.1520364069958741
 40
0.1628961844456368
 40
0.173755966618847
 40
0.1846157535488283
 40
0.1954755452689036
 40
0.206335341812396
 40
0.2171951432126294
 40
0.2280549495029264
 40
0.2389147607166103
 40
0.2497745768870041
 40
0.3148524936217548
 40
0.3782767740864553
 40
0.4400475099680445
 40
0.500164818656316
 40
0.5552400583729353
 40
0.6152561092923908
 40
0.6802117989755961
 40
0.7501057881328572
 40
0.7709302872503162
 40
0.7917547897070495
 40
0.812579295512446
 40
0.8334038046758937
 40
0.8542283172067827
 40
0.8750528331145009
 40
0.8958773524084374
 40
0.9167018750979805
 40
0.9375264011925198
 40
0.9583509307014437
 40
0.9791754636341408
 40
1.0
 40
1.0
 40
1.0
 40
1.0
 10
22.87370435208968
 20
14.5845919614758
 30
0.0
 10
22.85562782395352
 20
14.66911504535314
 30
0.0
 10
22.81947476059534
 20
14.83816124624017
 30
0.0
 10
22.7521282723998
 20
15.09093415758949
 30
0.0
 10
22.67521664025186
 20
15.34298052404241
 30
0.0
 10
22.58783119866238
 20
15.59413847343962
 30
0.0
 10
22.49026435732425
 20
15.84430871297979
 30
0.0
 10
22.38249258356937
 20
16.0933757505273
 30
0.0
 10
22.26458286139756
 20
16.34122906769785
 30
0.0
 10
22.13658375354828
 20
16.5877575106431
 30
0.0
 10
21.99855456121184
 20
16.83285085682001
 30
0.0
 10
21.85055747793529
 20
17.07639945861323
 30
0.0
 10
21.69265965660546
 20
17.31829440189588
 30
0.0
 10
21.52493261759465
 20
17.55842752618871
 30
0.0
 10
21.3474523668952
 20
17.79669148155545
 30
0.0
 10
21.16029932094152
 20
18.03297977488945
 30
0.0
 10
20.96355828258577
 20
18.26718681970044
 30
0.0
 10
20.75731839375803
 20
18.49920798017845
 30
0.0
 10
20.54167311831984
 20
18.72893963218631
 30
0.0
 10
20.31672011564987
 20
18.95627915966904
 30
0.0
 10
20.08256150940728
 20
19.18112518974576
 30
0.0
 10
19.83930267326592
 20
19.40337693480516
 30
0.0
 10
19.58705654212644
 20
19.62293686493143
 30
0.0
 10
19.32592729309264
 20
19.83970094889662
 30
0.0
 10
18.6069813434694
 20
20.40955415725852
 30
0.0
 10
17.32184698771015
 20
21.2788931213256
 30
0.0
 10
15.29714332058218
 20
22.33718903380686
 30
0.0
 10
13.09810607016664
 20
23.23095921301071
 30
0.0
 10
10.81750638554163
 20
23.94451756859235
 30
0.0
 10
8.421012620733782
 20
24.50952482549255
 30
0.0
 10
5.845208873872385
 20
24.93861814763807
 30
0.0
 10
2.965336878636569
 20
25.21959886266633
 30
0.0
 10
0.6222760872132225
 20
25.28242065487864
 30
0.0
 10
-1.053662457945316
 20
25.24954130571034
 30
0.0
 10
-1.990722561272413
 20
25.21145938513498
 30
0.0
 10
-2.924426054349706
 20
25.15367257673546
 30
0.0
 10
-3.853267537290265
 20
25.07629135608362
 30
0.0
 10
-4.775686510318918
 20
24.97942846428639
 30
0.0
 10
-5.690147415984089
 20
24.86323463367884
 30
0.0
 10
-6.595134191225987
 20
24.72790088878915
 30
0.0
 10
-7.489107376788266
 20
24.57361210607267
 30
0.0
 10
-8.370696354978987
 20
24.40072864177389
 30
0.0
 10
-9.237988358608712
 20
24.20910410977219
 30
0.0
 10
-10.09119508466513
 20
24.00063017715241
 30
0.0
 10
-10.64553958724098
 20
23.84670128862276
 30
0.0
 10
-10.92271186137642
 20
23.7697368380137
 30
0.0
  0
SPLINE
  5
133
330
116
100
AcDbEntity
  8
0
  6
Continuous
 62
     7
370
    25
100
AcDbSpline
210
0.0
220
0.0
230
1.0
 70
     8
 71
     3
 72
    11
 73
     7
 74
     0
 42
0.000000001
 43
0.00000001
 40
0.0
 40
0.0
 40
0.0
 40
0.0
 40
0.2615928564966259
 40
0.5232433850789767
 40
0.7849519037894679
 40
1.0
 40
1.0
 40
1.0
 40
1.0
 10
-10.92271239574966
 20
23.7695837228311
 30
0.0
 10
-11.89551267750194
 20
23.47532376875693
 30
0.0
 10
-13.84132770948244
 20
22.88673898656914
 30
0.0
 10
-16.38464192124747
 20
21.72850749415099
 30
0.0
 10
-18.50189248926491
 20
20.49383961811153
 30
0.0
 10
-19.54634967079432
 20
19.57837926379996
 30
0.0
 10
-20.01746747269105
 20
19.16544738159937
 30
0.0
  0
SPLINE
  5
134
330
116
100
AcDbEntity
  8
0
  6
Continuous
 62
     7
370
    25
100
AcDbSpline
210
0.0
220
0.0
230
1.0
 70
     8
 71
     3
 72
     8
 73
     4
 74
     0
 42
0.000000001
 43
0.00000001
 40
0.0
 40
0.0
 40
0.0
 40
0.0
 40
1.0
 40
1.0
 40
1.0
 40
1.0
 10
-15.31888789663046
 20
36.10891311510001
 30
0.0
 10
-13.84571695594594
 20
31.99803987781425
 30
0.0
 10
-12.38031738508136
 20
27.88492548342365
 30
0.0
 10
-10.92271413592701
 20
23.76958538368845
 30
0.0
  0
LINE
  5
135
330
116
100
AcDbEntity
  8
0
  6
Continuous
 62
     7
370
    25
100
AcDbLine
 10
164.1864843323
 20
-42.5441759746
 30
0.0
 11
164.1864843323
 21
-162.5475980729
 31
0.0
  0
LINE
  5
136
330
116
100
AcDbEntity
  8
0
  6
Continuous
 62
     7
370
    25
100
AcDbLine
 10
164.1864843323
 20
-42.5441759746
 30
0.0
 11
353.198116849
 21
141.9369717811
 31
0.0
  0
LINE
  5
137
330
116
100
AcDbEntity
  8
0
  6
Continuous
 62
     7
370
    25
100
AcDbLine
 10
353.198116849
 20
141.9369717811
 30
0.0
 11
353.198116849
 21
21.9335496828
 31
0.0
  0
LINE
  5
138
330
116
100
AcDbEntity
  8
0
  6
Continuous
 62
     7
370
    25
100
AcDbLine
 10
164.1864843323
 20
-162.5475980729
 30
0.0
 11
353.198116849
 21
21.9335496828
 31
0.0
  0
LINE
  5
139
330
116
100
AcDbEntity
  8
0
  6
Continuous
 62
     7
370
    25
100
AcDbLine
 10
-353.198116849
 20
98.0698724155
 30
0.0
 11
-353.198116849
 21
-21.9335496828
 31
0.0
  0
LINE
  5
13A
330
116
100
AcDbEntity
  8
0
  6
Continuous
 62
     7
370
    25
100
AcDbLine
 10
-353.198116849
 20
98.0698724155
 30
0.0
 11
164.1864843323
 21
-42.5441759746
 31
0.0
  0
LINE
  5
13B
330
116
100
AcDbEntity
  8
0
  6
Continuous
 62
     7
370
    25
100
AcDbLine
 10
-353.198116849
 20
-21.9335496828
 30
0.0
 11
164.1864843323
 21
-162.5475980729
 31
0.0
  0
LINE
  5
13C
330
116
100
AcDbEntity
  8
0
  6
Continuous
 62
     7
370
    25
100
AcDbLine
 10
-164.1864843323
 20
282.5510201712
 30
0.0
 11
-353.198116849
 21
98.0698724155
 31
0.0
  0
LINE
  5
13D
330
116
100
AcDbEntity
  8
0
  6
Continuous
 62
     7
370
    25
100
AcDbLine
 10
353.198116849
 20
141.9369717811
 30
0.0
 11
-164.1864843323
 21
282.5510201712
 31
0.0
  0
LINE
  5
13E
330
116
100
AcDbEntity
  8
0
  6
Continuous
 62
     7
370
    25
100
AcDbLine
 10
326.1758466368
 20
137.6341095387
 30
0.0
 11
-155.8320296774
 21
268.6335221414
 31
0.0
  0
LINE
  5
13F
330
116
100
AcDbEntity
  8
0
  6
Continuous
 62
     7
370
    25
100
AcDbLine
 10
-155.8320296774
 20
268.6335221414
 30
0.0
 11
-326.1758466368
 21
102.3727346579
 31
0.0
  0
LINE
  5
140
330
116
100
AcDbEntity
  8
0
  6
Continuous
 62
     7
370
    25
100
AcDbLine
 10
-326.1758466368
 20
102.3727346579
 30
0.0
 11
155.8320296774
 21
-28.6266779448
 31
0.0
  0
LINE
  5
141
330
116
100
AcDbEntity
  8
0
  6
Continuous
 62
     7
370
    25
100
AcDbLine
 10
155.8320296774
 20
-28.6266779448
 30
0.0
 11
326.1758466368
 21
137.6341095387
 31
0.0
  0
LINE
  5
142
330
116
100
AcDbEntity
  8
0
  6
Continuous
 62
     7
370
    25
100
AcDbLine
 10
222.3165307109
 20
36.2642332405
 30
0.0
 11
31.9628409428
 21
23.285286243
 31
0.0
  0
LINE
  5
143
330
116
100
AcDbEntity
  8
0
  6
Continuous
 62
     7
370
    25
100
AcDbLine
 10
-15.2701960723
 20
36.1220712816
 30
0.0
 11
-155.8320296774
 21
174.3451190642
 31
0.0
  0
LINE
  5
144
330
116
100
AcDbEntity
  8
0
  6
Continuous
 62
     7
370
    25
100
AcDbLine
 10
-155.8320296774
 20
174.3451190642
 30
0.0
 11
-250.6126909194
 21
81.8362880565
 31
0.0
  0
LINE
  5
145
330
116
100
AcDbEntity
  8
0
  6
Continuous
 62
     7
370
    25
100
AcDbLine
 10
250.6126909194
 20
63.8821530629
 30
0.0
 11
-155.8320296774
 21
174.3451190642
 31
0.0
  0
LINE
  5
146
330
116
100
AcDbEntity
  8
0
  6
Continuous
 62
     7
370
    25
100
AcDbLine
 10
-155.8320296774
 20
174.3451190642
 30
0.0
 11
-155.8320296774
 21
268.6335221414
 31
0.0
  0
VIEWPORT
  5
17B
330
116
100
AcDbEntity
  8
0
100
AcDbViewport
 10
0.0
 20
0.0
 30
0.0
 40
205.6
 41
156.0
 68
     1
 69
     1
 12
0.0
 22
0.0
 13
0.0
 23
0.0
 14
10.0
 24
10.0
 15
10.0
 25
10.0
 16
0.0
 26
0.0
 36
1.0
 17
0.0
 27
0.0
 37
0.0
 42
50.0
 43
0.0
 44
0.0
 45
452.7490272374
 50
0.0
 51
0.0
 72
   100
 90
   557152
  1

281
     0
 71
     1
 74
     0
110
0.0
120
0.0
130
0.0
111
1.0
121
0.0
131
0.0
112
0.0
122
1.0
132
0.0
 79
     0
146
0.0
170
     0
 61
     5
348
2F
292
     1
282
     1
141
0.0
142
0.0
 63
   256
361
17C
  0
ENDBLK
  5
119
330
116
100
AcDbEntity
  8
0
100
AcDbBlockEnd
  0
BLOCK
  5
149
330
147
100
AcDbEntity
  8
0
100
AcDbBlockBegin
  2
*Paper_Space7
 70
     0
 10
0.0
 20
0.0
 30
0.0
  3
*Paper_Space7
  1

  0
LINE
  5
15C
330
147
100
AcDbEntity
  8
0
  6
Continuous
 62
     7
370
    25
100
AcDbLine
 10
202.0141348381
 20
34.3813418698
 30
0.0
 11
202.0141348381
 21
-97.6119239556
 31
0.0
  0
LINE
  5
15D
330
147
100
AcDbEntity
  8
0
  6
Continuous
 62
     7
370
    25
100
AcDbLine
 10
202.0141348381
 20
34.3813418698
 30
0.0
 11
345.2032579955
 21
160.6622786475
 31
0.0
  0
LINE
  5
15E
330
147
100
AcDbEntity
  8
0
  6
Continuous
 62
     7
370
    25
100
AcDbLine
 10
345.2032579955
 20
160.6622786475
 30
0.0
 11
345.2032579955
 21
28.6690128221
 31
0.0
  0
LINE
  5
15F
330
147
100
AcDbEntity
  8
0
  6
Continuous
 62
     7
370
    25
100
AcDbLine
 10
202.0141348381
 20
-97.6119239556
 30
0.0
 11
345.2032579955
 21
28.6690128221
 31
0.0
  0
LINE
  5
160
330
147
100
AcDbEntity
  8
0
  6
Continuous
 62
     7
370
    25
100
AcDbLine
 10
-345.2032579955
 20
103.3242530033
 30
0.0
 11
-345.2032579955
 21
-28.6690128221
 31
0.0
  0
LINE
  5
161
330
147
100
AcDbEntity
  8
0
  6
Continuous
 62
     7
370
    25
100
AcDbLine
 10
-345.2032579955
 20
103.3242530033
 30
0.0
 11
202.0141348381
 21
34.3813418698
 31
0.0
  0
LINE
  5
162
330
147
100
AcDbEntity
  8
0
  6
Continuous
 62
     7
370
    25
100
AcDbLine
 10
-345.2032579955
 20
-28.6690128221
 30
0.0
 11
202.0141348381
 21
-97.6119239556
 31
0.0
  0
LINE
  5
163
330
147
100
AcDbEntity
  8
0
  6
Continuous
 62
     7
370
    25
100
AcDbLine
 10
-202.0141348381
 20
229.605189781
 30
0.0
 11
-345.2032579955
 21
103.3242530033
 31
0.0
  0
LINE
  5
164
330
147
100
AcDbEntity
  8
0
  6
Continuous
 62
     7
370
    25
100
AcDbLine
 10
345.2032579955
 20
160.6622786475
 30
0.0
 11
-202.0141348381
 21
229.605189781
 31
0.0
  0
LINE
  5
165
330
147
100
AcDbEntity
  8
0
  6
Continuous
 62
     7
370
    25
100
AcDbLine
 10
319.4239032508
 20
156.783205607
 30
0.0
 11
-190.3769157139
 21
221.0120715348
 31
0.0
  0
LINE
  5
166
330
147
100
AcDbEntity
  8
0
  6
Continuous
 62
     7
370
    25
100
AcDbLine
 10
-190.3769157139
 20
221.0120715348
 30
0.0
 11
-319.4239032508
 21
107.2033260438
 31
0.0
  0
LINE
  5
167
330
147
100
AcDbEntity
  8
0
  6
Continuous
 62
     7
370
    25
100
AcDbLine
 10
-319.4239032508
 20
107.2033260438
 30
0.0
 11
190.3769157139
 21
42.974460116
 31
0.0
  0
LINE
  5
168
330
147
100
AcDbEntity
  8
0
  6
Continuous
 62
     7
370
    25
100
AcDbLine
 10
190.3769157139
 20
42.974460116
 30
0.0
 11
319.4239032508
 21
156.783205607
 31
0.0
  0
LINE
  5
169
330
147
100
AcDbEntity
  8
0
  6
Continuous
 62
     7
370
    25
100
AcDbLine
 10
-118.7969242908
 20
81.9267025984
 30
0.0
 11
-190.3769157139
 21
117.3030769577
 31
0.0
  0
LINE
  5
16A
330
147
100
AcDbEntity
  8
0
  6
Continuous
 62
     7
370
    25
100
AcDbLine
 10
-190.3769157139
 20
117.3030769577
 30
0.0
 11
-216.5283251072
 21
94.2397017276
 31
0.0
  0
LINE
  5
16B
330
147
100
AcDbEntity
  8
0
  6
Continuous
 62
     7
370
    25
100
AcDbLine
 10
-190.3769157139
 20
117.3030769577
 30
0.0
 11
-190.3769157139
 21
221.0120715348
 31
0.0
  0
LINE
  5
16C
330
147
100
AcDbEntity
  8
0
  6
Continuous
 62
     7
370
    25
100
AcDbLine
 10
216.5283251072
 20
66.0378353461
 30
0.0
 11
-190.3769157139
 21
117.3030769577
 31
0.0
  0
VIEWPORT
  5
17D
330
147
100
AcDbEntity
  8
0
100
AcDbViewport
 10
0.0
 20
0.0
 30
0.0
 40
205.6
 41
156.0
 68
     1
 69
     1
 12
0.0
 22
0.0
 13
0.0
 23
0.0
 14
10.0
 24
10.0
 15
10.0
 25
10.0
 16
0.0
 26
0.0
 36
1.0
 17
0.0
 27
0.0
 37
0.0
 42
50.0
 43
0.0
 44
0.0
 45
452.7490272374
 50
0.0
 51
0.0
 72
   100
 90
   557152
  1

281
     0
 71
     1
 74
     0
110
0.0
120
0.0
130
0.0
111
1.0
121
0.0
131
0.0
112
0.0
122
1.0
132
0.0
 79
     0
146
0.0
170
     0
 61
     5
348
2F
292
     1
282
     1
141
0.0
142
0.0
 63
   256
361
17E
  0
ENDBLK
  5
14A
330
147
100
AcDbEntity
  8
0
100
AcDbBlockEnd
  0
ENDSEC
  0
SECTION
  2
ENTITIES
  0
SPLINE
  5
7C
330
1F
100
AcDbEntity
  8
0
  6
Continuous
 62
     7
370
    25
100
AcDbSpline
210
0.0
220
0.0
230
1.0
 70
     8
 71
     3
 72
    48
 73
    44
 74
     0
 42
0.000000001
 43
0.00000001
 40
0.0
 40
0.0
 40
0.0
 40
0.0
 40
0.0088092521823173
 40
0.017743617361151
 40
0.0268039968109502
 40
0.0359915931719175
 40
0.0453079116990308
 40
0.0547547606084442
 40
0.0643342504908357
 40
0.0740487927677685
 40
0.0839010971746986
 40
0.0938941682627309
 40
0.1040312433456165
 40
0.1143145374772277
 40
0.1247452163162894
 40
0.154164518340818
 40
0.1874888026706667
 40
0.2180195556855613
 40
0.2497420537706295
 40
0.2778430837868445
 40
0.3046154403578265
 40
0.3298520194070634
 40
0.3533672620848921
 40
0.3749943743231768
 40
0.4386076471419746
 40
0.4998681251017593
 40
0.56106205349673
 40
0.6252800927709493
 40
0.6804647293862522
 40
0.7503726149351172
 40
0.7716509163598496
 40
0.7923959907342377
 40
0.8126057843007406
 40
0.8325954240602662
 40
0.8534747994994303
 40
0.8751372187650914
 40
0.894396441014005
 40
0.9131558472535771
 40
0.931430287397297
 40
0.9492384027997279
 40
0.9665955042167033
 40
0.9835133251534464
 40
1.0
 40
1.0
 40
1.0
 40
1.0
 10
26.7026507516446
 20
-17.8834266501841
 30
0.0
 10
26.59859080000136
 20
-18.03564811760739
 30
0.0
 10
26.3889929900665
 20
-18.34225297080178
 30
0.0
 10
26.06224768900408
 20
-18.79837114041354
 30
0.0
 10
25.72330770612564
 20
-19.25537525195794
 30
0.0
 10
25.3711159123631
 20
-19.71239547430557
 30
0.0
 10
25.00555341754567
 20
-20.16919761636463
 30
0.0
 10
24.62624675383055
 20
-20.625376474358
 30
0.0
 10
24.23289428988279
 20
-21.0805766327865
 30
0.0
 10
23.82517684173342
 20
-21.53443206233104
 30
0.0
 10
23.40278251232883
 20
-21.98658295680514
 30
0.0
 10
22.96539934303648
 20
-22.43666942420937
 30
0.0
 10
22.51274247516291
 20
-22.88431737457862
 30
0.0
 10
22.04452136766085
 20
-23.329074118166
 30
0.0
 10
21.26929964405918
 20
-24.03634877841899
 30
0.0
 10
20.09851520762933
 20
-25.02514390867593
 30
0.0
 10
18.53267173000661
 20
-26.1935690259281
 30
0.0
 10
16.85534806652165
 20
-27.28597071688225
 30
0.0
 10
15.21119763963386
 20
-28.22286312895086
 30
0.0
 10
13.5865500998972
 20
-29.02859969544857
 30
0.0
 10
12.04417128693316
 20
-29.6884052886524
 30
0.0
 10
10.56127011109251
 20
-30.23771563305666
 30
0.0
 10
9.157215293002885
 20
-30.68517378256747
 30
0.0
 10
6.959888658524497
 20
-31.28173003143724
 30
0.0
 10
3.934322959159916
 20
-31.83111116358246
 30
0.0
 10
0.0383396879593889
 20
-32.07420254956715
 30
0.0
 10
-3.870792768772831
 20
-31.83850261977305
 30
0.0
 10
-7.60183904867665
 20
-31.16968504426223
 30
0.0
 10
-11.39538724504376
 20
-30.00197388838854
 30
0.0
 10
-14.20940153685482
 20
-28.76409001478456
 30
0.0
 10
-16.26057771568216
 20
-27.63122786616055
 30
0.0
 10
-17.37479334136484
 20
-26.95564168406166
 30
0.0
 10
-18.43516992966088
 20
-26.24585677998346
 30
0.0
 10
-19.46930619089326
 20
-25.49378850551021
 30
0.0
 10
-20.50050592150829
 20
-24.68724931083642
 30
0.0
 10
-21.48522274545517
 20
-23.84777739667167
 30
0.0
 10
-22.40207769695697
 20
-22.99893396500893
 30
0.0
 10
-23.23687826437066
 20
-22.16704429148501
 30
0.0
 10
-24.01982963877887
 20
-21.32727876996301
 30
0.0
 10
-24.75312133524789
 20
-20.4823077020115
 30
0.0
 10
-25.43798824072245
 20
-19.63392795784031
 30
0.0
 10
-26.07908058315813
 20
-18.78628204544331
 30
0.0
 10
-26.47748598051426
 20
-18.21163405049512
 30
0.0
 10
-26.67411760417155
 20
-17.92801849451143
 30
0.0
  0
SPLINE
  5
7F
330
1F
100
AcDbEntity
  8
0
  6
Continuous
 62
     7
370
    25
100
AcDbSpline
210
0.0
220
0.0
230
1.0
 70
     8
 71
     3
 72
    48
 73
    44
 74
     0
 42
0.000000001
 43
0.00000001
 40
0.0
 40
0.0
 40
0.0
 40
0.0
 40
0.0088092521828359
 40
0.0177436173621081
 40
0.0268039968122642
 40
0.0359915931735043
 40
0.0453079117008036
 40
0.0547547606103126
 40
0.0643342504927052
 40
0.0740487927695403
 40
0.0839010971762681
 40
0.0938941682639884
 40
0.1040312433464479
 40
0.1143145374775273
 40
0.1247452163159498
 40
0.1541645183512869
 40
0.1874888026704081
 40
0.2180195556858498
 40
0.2497420537710684
 40
0.2778430838025565
 40
0.3046154403816215
 40
0.3298520194311828
 40
0.353367262101132
 40
0.3749943743230718
 40
0.4386076471522966
 40
0.4998681250977337
 40
0.5610620535063922
 40
0.6252800927709833
 40
0.6804647294289838
 40
0.750372614934408
 40
0.7716509163581972
 40
0.7923959907326694
 40
0.8126057842999914
 40
0.8325954240703748
 40
0.8534747995087867
 40
0.8751372187632926
 40
0.894396441026875
 40
0.9131558472757833
 40
0.9314302874236211
 40
0.9492384028254043
 40
0.9665955042374532
 40
0.983513325165475
 40
1.0
 40
1.0
 40
1.0
 40
1.0
 10
-26.70265075164464
 20
17.88342665018392
 30
0.0
 10
-26.59859080006731
 20
18.03564811751412
 30
0.0
 10
-26.38899299026628
 20
18.3422529705195
 30
0.0
 10
-26.06224768941924
 20
18.79837113985183
 30
0.0
 10
-25.72330770677132
 20
19.25537525111517
 30
0.0
 10
-25.37111591325624
 20
19.71239547318159
 30
0.0
 10
-25.00555341870342
 20
20.16919761495963
 30
0.0
 10
-24.62624675527081
 20
20.62537647267289
 30
0.0
 10
-24.23289429162432
 20
21.08057663082308
 30
0.0
 10
-23.82517684379536
 20
21.53443206009144
 30
0.0
 10
-23.40278251473143
 20
21.98658295429264
 30
0.0
 10
-22.96539934580019
 20
22.43666942142747
 30
0.0
 10
-22.51274247830912
 20
22.88431737153236
 30
0.0
 10
-22.04452137121071
 20
23.3290741148609
 30
0.0
 10
-21.26929964809284
 20
24.03634877488875
 30
0.0
 10
-20.09851521262587
 20
25.02514390465815
 30
0.0
 10
-18.5326717363133
 20
26.19356902146867
 30
0.0
 10
-16.85534807444747
 20
27.28597071203745
 30
0.0
 10
-15.21119764866913
 20
28.22286312413733
 30
0.0
 10
-13.58655010985186
 20
29.02859969083135
 30
0.0
 10
-12.04417129770631
 20
29.68840528431789
 30
0.0
 10
-10.56127012306698
 20
30.23771562891058
 30
0.0
 10
-9.157215306593326
 20
30.68517377855381
 30
0.0
 10
-6.95988867415276
 20
31.28173002793563
 30
0.0
 10
-3.934322977548491
 20
31.8311111611896
 30
0.0
 10
-0.0383397089534746
 20
32.0742025494336
 30
0.0
 10
3.870792745077924
 20
31.83850262253998
 30
0.0
 10
7.601839023902253
 20
31.16968505012645
 30
0.0
 10
11.39538721847237
 20
30.0019738982681
 30
0.0
 10
14.20940150940083
 20
28.76409002799392
 30
0.0
 10
16.26057768718162
 20
27.63122788267851
 30
0.0
 10
17.37479331281895
 20
26.95564170220963
 30
0.0
 10
18.43516990135854
 20
26.24585679960671
 30
0.0
 10
19.46930616287551
 20
25.49378852660821
 30
0.0
 10
20.50050589364322
 20
24.68724933360589
 30
0.0
 10
21.48522271793037
 20
23.84777742110503
 30
0.0
 10
22.40207767002507
 20
22.99893399093235
 30
0.0
 10
23.23687823827647
 20
22.16704431854572
 30
0.0
 10
24.01982961332902
 20
21.3272787983213
 30
0.0
 10
24.75312131028861
 20
20.4823077318397
 30
0.0
 10
25.43798821614361
 20
19.63392798930973
 30
0.0
 10
26.07908055888011
 20
18.78628207871805
 30
0.0
 10
26.47748595647863
 20
18.2116340850431
 30
0.0
 10
26.67411758023424
 20
17.92801852971856
 30
0.0
  0
SPLINE
  5
81
330
1F
100
AcDbEntity
  8
0
  6
Continuous
 62
     7
370
    25
100
AcDbSpline
210
0.0
220
0.0
230
1.0
 70
     8
 71
     3
 72
     8
 73
     4
 74
     0
 42
0.000000001
 43
0.00000001
 40
0.0
 40
0.0
 40
0.0
 40
0.0
 40
1.0
 40
1.0
 40
1.0
 40
1.0
 10
26.73378951175762
 20
-17.83802294741143
 30
0.0
 10
26.72339338555588
 20
-17.85315462779168
 30
0.0
 10
26.71298892359037
 20
-17.86826998299091
 30
0.0
 10
26.70257615706759
 20
-17.88336899304879
 30
0.0
  0
SPLINE
  5
82
330
1F
100
AcDbEntity
  8
0
  6
Continuous
 62
     7
370
    25
100
AcDbSpline
210
0.0
220
0.0
230
1.0
 70
     8
 71
     3
 72
    47
 73
    43
 74
     0
 42
0.000000001
 43
0.00000001
 40
0.0
 40
0.0
 40
0.0
 40
0.0
 40
0.0146909180045586
 40
0.0291608427138067
 40
0.043399022260465
 40
0.05739509759366
 40
0.0711390976590769
 40
0.0846214331003558
 40
0.0978328888807626
 40
0.110764616160879
 40
0.1234080790303051
 40
0.1357547174443375
 40
0.1477962220322736
 40
0.159524694528547
 40
0.1709326341037985
 40
0.1820129281105348
 40
0.1927588424071699
 40
0.2031640114702402
 40
0.2132224284770106
 40
0.2229284355187379
 40
0.2322767140884103
 40
0.2412622734325451
 40
0.2498803536239125
 40
0.3140900822711165
 40
0.3773641304209647
 40
0.439289790399458
 40
0.4994818213042741
 40
0.5592999822350168
 40
0.6213280458206728
 40
0.6851676606595686
 40
0.7503795941482563
 40
0.7668767334780995
 40
0.784750140573515
 40
0.8039637427584768
 40
0.8244768922540849
 40
0.8462439801237847
 40
0.86921416833141
 40
0.8933311228157765
 40
0.9185340520630219
 40
0.944759562864192
 40
0.9719394181399441
 40
1.0
 40
1.0
 40
1.0
 40
1.0
 10
26.70300146908714
 20
17.88366153434276
 30
0.0
 10
26.80490323276003
 20
17.72887482501511
 30
0.0
 10
27.00717386702552
 20
17.42162983981469
 30
0.0
 10
27.29770023424107
 20
16.9575883078009
 30
0.0
 10
27.57618341234234
 20
16.49645834436921
 30
0.0
 10
27.84208680590156
 20
16.03851202711878
 30
0.0
 10
28.09583355026319
 20
15.58461761606146
 30
0.0
 10
28.33761294811372
 20
15.13544692607688
 30
0.0
 10
28.56769005813791
 20
14.69168347721424
 30
0.0
 10
28.78632388225579
 20
14.25397041137175
 30
0.0
 10
28.99378096937835
 20
13.82292774658396
 30
0.0
 10
29.19034230896069
 20
13.39915753568181
 30
0.0
 10
29.37630977178653
 20
12.98324585728735
 30
0.0
 10
29.55198223366711
 20
12.57574669501632
 30
0.0
 10
29.71766069204465
 20
12.17718388876009
 30
0.0
 10
29.87364587319212
 20
11.78805169855694
 30
0.0
 10
30.020237555155
 20
11.40881610431122
 30
0.0
 10
30.15773370637451
 20
11.03991587445501
 30
0.0
 10
30.28642898242864
 20
10.68176355750933
 30
0.0
 10
30.40661603392905
 20
10.33474674833899
 30
0.0
 10
30.51857692229466
 20
9.999228184953077
 30
0.0
 10
30.62260924621985
 20
9.675550972612669
 30
0.0
 10
30.92745776010879
 20
8.689596197108804
 30
0.0
 10
31.36147831561013
 20
7.026526348665573
 30
0.0
 10
31.79146796102894
 20
4.674215329420435
 30
0.0
 10
32.0443541713637
 20
2.347348470368467
 30
0.0
 10
32.13114689136125
 20
0.0520825024373639
 30
0.0
 10
32.05194659350595
 20
-2.244751585722807
 30
0.0
 10
31.80511603751683
 20
-4.576033518014602
 30
0.0
 10
31.37741449124385
 20
-6.950196474268875
 30
0.0
 10
30.9176750625268
 20
-8.729842868177903
 30
0.0
 10
30.54315500103081
 20
-9.928913816659364
 30
0.0
 10
30.3277509631419
 20
-10.56965447540211
 30
0.0
 10
30.08124752854023
 20
-11.25320049554429
 30
0.0
 10
29.80145148003012
 20
-11.97675083600914
 30
0.0
 10
29.48623974014048
 20
-12.73716923247738
 30
0.0
 10
29.13344616811711
 20
-13.53093685055703
 30
0.0
 10
28.7408366899562
 20
-14.3540899317774
 30
0.0
 10
28.30648442728128
 20
-15.2024516023226
 30
0.0
 10
27.82783091894073
 20
-16.07097929380465
 30
0.0
 10
27.30572055130419
 20
-16.95641311009393
 30
0.0
 10
26.92640437370561
 20
-17.5410154178968
 30
0.0
 10
26.73372246885065
 20
-17.83797687881628
 30
0.0
  0
SPLINE
  5
83
330
1F
100
AcDbEntity
  8
0
  6
Continuous
 62
     7
370
    25
100
AcDbSpline
210
0.0
220
0.0
230
1.0
 70
     8
 71
     3
 72
     8
 73
     4
 74
     0
 42
0.000000001
 43
0.00000001
 40
0.0
 40
0.0
 40
0.0
 40
0.0
 40
1.0
 40
1.0
 40
1.0
 40
1.0
 10
-26.73378950120873
 20
17.83802296276458
 30
0.0
 10
-26.72339337851766
 20
17.853154638016
 30
0.0
 10
-26.71298892006847
 20
17.86826998809743
 30
0.0
 10
-26.70257615706761
 20
17.88336899304857
 30
0.0
  0
SPLINE
  5
84
330
1F
100
AcDbEntity
  8
0
  6
Continuous
 62
     7
370
    25
100
AcDbSpline
210
0.0
220
0.0
230
1.0
 70
     8
 71
     3
 72
    47
 73
    43
 74
     0
 42
0.000000001
 43
0.00000001
 40
0.0
 40
0.0
 40
0.0
 40
0.0
 40
0.014690917719398
 40
0.0291608421669325
 40
0.0433990214762972
 40
0.0573950965975357
 40
0.0711390964771944
 40
0.0846214317597214
 40
0.0978328874091393
 40
0.1107646145867369
 40
0.1234080773827976
 40
0.1357547157532836
 40
0.1477962203280566
 40
0.1595246928420641
 40
0.1709326324664121
 40
0.1820129265540256
 40
0.1927588409636922
 40
0.2031640101722791
 40
0.2132224273573411
 40
0.2229284346103846
 40
0.2322767134246106
 40
0.2412622730467119
 40
0.2498803535495951
 40
0.314090081205372
 40
0.3773641290156716
 40
0.4392897893381277
 40
0.4994818212832966
 40
0.5592999818116422
 40
0.6213280452822639
 40
0.6851676602857981
 40
0.7503795942030869
 40
0.7668767336696646
 40
0.7847501408718649
 40
0.803963743133927
 40
0.8244768926773269
 40
0.8462439805660151
 40
0.8692141687644735
 40
0.8933311232123222
 40
0.9185340523967641
 40
0.944759563110019
 40
0.9719394182740345
 40
1.0
 40
1.0
 40
1.0
 40
1.0
 10
-26.70300146974274
 20
-17.88366153478186
 30
0.0
 10
-26.80490323157312
 20
-17.7288748284336
 30
0.0
 10
-27.00717386231421
 20
-17.42162984894528
 30
0.0
 10
-27.29770022482072
 20
-16.95758832532253
 30
0.0
 10
-27.57618339890451
 20
-16.4964583696175
 30
0.0
 10
-27.84208678913193
 20
-16.03851205938004
 30
0.0
 10
-28.09583353081282
 20
-15.58461765455915
 30
0.0
 10
-28.33761292660414
 20
-15.13544696997955
 30
0.0
 10
-28.56769003516021
 20
-14.69168352563915
 30
0.0
 10
-28.78632385836917
 20
-14.2539704633877
 30
0.0
 10
-28.99378094511226
 20
-13.82292780121532
 30
0.0
 10
-29.19034228480963
 20
-13.39915759190954
 30
0.0
 10
-29.37630974821479
 20
-12.98324591405508
 30
0.0
 10
-29.55198221110874
 20
-12.57574675123424
 30
0.0
 10
-29.71766067090488
 20
-12.17718394330854
 30
0.0
 10
-29.87364585384804
 20
-11.78805175028947
 30
0.0
 10
-30.02023753795664
 20
-11.40881615205765
 30
0.0
 10
-30.15773369164687
 20
-11.03991591702454
 30
0.0
 10
-30.28642897047282
 20
-10.68176359369313
 30
0.0
 10
-30.40661602502253
 20
-10.3347467769124
 30
0.0
 10
-30.51857691669845
 20
-9.999228204679794
 30
0.0
 10
-30.62260924416208
 20
-9.67555098224137
 30
0.0
 10
-30.92745775755312
 20
-8.689596211332788
 30
0.0
 10
-31.36147831125266
 20
-7.026526374826305
 30
0.0
 10
-31.7914679562458
 20
-4.674215366897879
 30
0.0
 10
-32.04435416939418
 20
-2.34734849368694
 30
0.0
 10
-32.13114689189445
 20
-0.0520825122381147
 30
0.0
 10
-32.05194659562046
 20
2.244751583765276
 30
0.0
 10
-31.80511604013197
 20
4.576033512886548
 30
0.0
 10
-31.37741449221307
 20
6.950196476255342
 30
0.0
 10
-30.91767505989742
 20
8.729842879762126
 30
0.0
 10
-30.54315499477127
 20
9.928913836670826
 30
0.0
 10
-30.32775095498144
 20
10.56965449940999
 30
0.0
 10
-30.08124751868277
 20
11.25320052244603
 30
0.0
 10
-29.80145146872256
 20
11.97675086472572
 30
0.0
 10
-29.48623972767043
 20
12.73716926195901
 30
0.0
 10
-29.1334461548202
 20
13.53093687979336
 30
0.0
 10
-28.74083667621687
 20
14.35408995980785
 30
0.0
 10
-28.30648441354365
 20
15.20245162825245
 30
0.0
 10
-27.82783090570521
 20
16.07097931681473
 30
0.0
 10
-27.30572053910925
 20
16.95641312944351
 30
0.0
 10
-26.92640436250892
 20
17.54101543462555
 30
0.0
 10
-26.73372245822433
 20
17.83797689411617
 30
0.0
  0
SPLINE
  5
85
330
1F
100
AcDbEntity
  8
0
  6
Continuous
 62
     7
370
    25
100
AcDbSpline
210
0.0
220
0.0
230
1.0
 70
     8
 71
     3
 72
    50
 73
    46
 74
     0
 42
0.000000001
 43
0.00000001
 40
0.0
 40
0.0
 40
0.0
 40
0.0
 40
0.0108563964005646
 40
0.0217127970570088
 40
0.0325692020026534
 40
0.0434256112708143
 40
0.0542820248948089
 40
0.0651384429079568
 40
0.0759948653435756
 40
0.0868512922349814
 40
0.0977077236154925
 40
0.1085641595184261
 40
0.1194205999771008
 40
0.130277045024833
 40
0.1411334946949412
 40
0.1519899490207424
 40
0.1628464080355534
 40
0.1737028717726931
 40
0.1845593402654764
 40
0.1954158135472237
 40
0.2062722916512487
 40
0.2171287746108716
 40
0.2279852624594078
 40
0.2388417552301743
 40
0.2496982529564892
 40
0.3147622769558512
 40
0.3781684728549791
 40
0.439916931025953
 40
0.5000077675979092
 40
0.5551060249648015
 40
0.6151432472233178
 40
0.6801182629036466
 40
0.7500297337587316
 40
0.7708605705943286
 40
0.7916914107953242
 40
0.8125222543712536
 40
0.8333531013316526
 40
0.8541839516860555
 40
0.875014805444
 40
0.895845662615019
 40
0.9166765232086511
 40
0.9375073872344295
 40
0.9583382547018903
 40
0.9791691256205678
 40
1.0
 40
1.0
 40
1.0
 40
1.0
 10
-19.10658357394552
 20
-12.80384567744546
 30
0.0
 10
-19.01492757904427
 20
-12.93881922455986
 30
0.0
 10
-18.83161555331116
 20
-13.20876637170042
 30
0.0
 10
-18.54580163705638
 20
-13.60615199227738
 30
0.0
 10
-18.25221071159206
 20
-13.99779255571907
 30
0.0
 10
-17.95018808945658
 20
-14.3829828759891
 30
0.0
 10
-17.64008158375239
 20
-14.76168995888275
 30
0.0
 10
-17.32197507195167
 20
-15.13370441532323
 30
0.0
 10
-16.99602775646904
 20
-15.49886793844145
 30
0.0
 10
-16.6623831777402
 20
-15.8570124483332
 30
0.0
 10
-16.32119350979229
 20
-16.20797649350303
 30
0.0
 10
-15.9726129639319
 20
-16.55160094961415
 30
0.0
 10
-15.61679946793679
 20
-16.88773026364904
 30
0.0
 10
-15.25391412585042
 20
-17.21621221029937
 30
0.0
 10
-14.8841212707635
 20
-17.53689804499469
 30
0.0
 10
-14.50758835614813
 20
-17.84964254892686
 30
0.0
 10
-14.12448589129344
 20
-18.15430410004417
 30
0.0
 10
-13.73498735328487
 20
-18.45074473857954
 30
0.0
 10
-13.33926914041517
 20
-18.73883021870295
 30
0.0
 10
-12.93751037524277
 20
-19.01843011119888
 30
0.0
 10
-12.52989325976015
 20
-19.28941770580465
 30
0.0
 10
-12.11660136482155
 20
-19.55167065360255
 30
0.0
 10
-11.69782562299729
 20
-19.8050688390938
 30
0.0
 10
-11.27374156623611
 20
-20.04950258290328
 30
0.0
 10
-10.13033551839298
 20
-20.67653341523173
 30
0.0
 10
-8.218746456596525
 20
-21.5467113232138
 30
0.0
 10
-5.482047606434967
 20
-22.39663964246879
 30
0.0
 10
-2.735622697948576
 20
-22.89193118744138
 30
0.0
 10
-0.0749902164598237
 20
-23.04886116905185
 30
0.0
 10
2.559441589834003
 20
-22.90639885761154
 30
0.0
 10
5.234794660847922
 20
-22.45561206475515
 30
0.0
 10
8.049470621002097
 20
-21.61723350093288
 30
0.0
 10
10.19202594695726
 20
-20.65563233778686
 30
0.0
 10
11.65487643400278
 20
-19.83576883763649
 30
0.0
 10
12.45493574299514
 20
-19.34344201454074
 30
0.0
 10
13.23419251294485
 20
-18.81887954457518
 30
0.0
 10
13.99139564633436
 20
-18.26293917808914
 30
0.0
 10
14.72527087809995
 20
-17.67655292590672
 30
0.0
 10
15.434594180304
 20
-17.06069451739039
 30
0.0
 10
16.11819700954014
 20
-16.41640102820249
 30
0.0
 10
16.77488414781713
 20
-15.74470913490637
 30
0.0
 10
17.40376891762294
 20
-15.04687820124681
 30
0.0
 10
18.0030258774139
 20
-14.32355093642735
 30
0.0
 10
18.57455577457703
 20
-13.57787647833575
 30
0.0
 10
18.92924090649017
 20
-13.06185604501623
 30
0.0
 10
19.10658348717821
 20
-12.8038458069241
 30
0.0
  0
SPLINE
  5
86
330
1F
100
AcDbEntity
  8
0
  6
Continuous
 62
     7
370
    25
100
AcDbSpline
210
0.0
220
0.0
230
1.0
 70
     8
 71
     3
 72
     8
 73
     4
 74
     0
 42
0.000000001
 43
0.00000001
 40
0.0
 40
0.0
 40
0.0
 40
0.0
 40
1.0
 40
1.0
 40
1.0
 40
1.0
 10
19.10612748219579
 20
-12.80354022547431
 30
0.0
 10
21.64776403131735
 20
-14.48298341068668
 30
0.0
 10
24.19029642172249
 20
-16.16112942904526
 30
0.0
 10
26.73372373148379
 20
-17.83797742967474
 30
0.0
  0
SPLINE
  5
87
330
1F
100
AcDbEntity
  8
0
  6
Continuous
 62
     7
370
    25
100
AcDbSpline
210
0.0
220
0.0
230
1.0
 70
     8
 71
     3
 72
     8
 73
     4
 74
     0
 42
0.000000001
 43
0.00000001
 40
0.0
 40
0.0
 40
0.0
 40
0.0
 40
1.0
 40
1.0
 40
1.0
 40
1.0
 10
-26.67411672797413
 20
-17.92801743979781
 30
0.0
 10
-24.15669566572564
 20
-16.21295421515875
 30
0.0
 10
-21.63430061634812
 20
-14.50497204112952
 30
0.0
 10
-19.10695923661901
 20
-12.80409741930655
 30
0.0
  0
SPLINE
  5
88
330
1F
100
AcDbEntity
  8
0
  6
Continuous
 62
     7
370
    25
100
AcDbSpline
210
0.0
220
0.0
230
1.0
 70
     8
 71
     3
 72
     8
 73
     4
 74
     0
 42
0.000000001
 43
0.00000001
 40
0.0
 40
0.0
 40
0.0
 40
0.0
 40
1.0
 40
1.0
 40
1.0
 40
1.0
 10
-26.73372371978754
 20
17.83797744424391
 30
0.0
 10
-24.18648892583595
 20
16.16740239733605
 30
0.0
 10
-21.64409773972805
 20
14.48935439193878
 30
0.0
 10
-19.10658622439637
 20
12.8038483046095
 30
0.0
  0
SPLINE
  5
89
330
1F
100
AcDbEntity
  8
0
  6
Continuous
 62
     7
370
    25
100
AcDbSpline
210
0.0
220
0.0
230
1.0
 70
     8
 71
     3
 72
    65
 73
    61
 74
     0
 42
0.000000001
 43
0.00000001
 40
0.0
 40
0.0
 40
0.0
 40
0.0
 40
0.0172262804760655
 40
0.0344530833119064
 40
0.0516804089057305
 40
0.0689082576557126
 40
0.0861366299599904
 40
0.1033655262166646
 40
0.1205949468237993
 40
0.1378248921794245
 40
0.1550553626815321
 40
0.1722863587280759
 40
0.189517880716978
 40
0.2067499290461207
 40
0.2239825041133481
 40
0.2412156063164716
 40
0.2584492360532663
 40
0.2756833937214667
 40
0.2929180797187741
 40
0.3101532944428537
 40
0.3273890382913296
 40
0.3446253116617949
 40
0.3618621149518033
 40
0.37909944855887
 40
0.3963373128804777
 40
0.413575708314071
 40
0.4308146352570542
 40
0.4480540941067997
 40
0.4652940852606406
 40
0.4825346091158736
 40
0.4997756660697587
 40
0.5170172565195196
 40
0.5342593808623419
 40
0.5515020394953751
 40
0.5687452328157315
 40
0.5859889612204865
 40
0.6032332251066789
 40
0.6204780248713108
 40
0.6377233609113461
 40
0.6549692336237113
 40
0.6722156434052994
 40
0.6894625906529606
 40
0.7067100757635135
 40
0.7239580991337372
 40
0.7412066611603723
 40
0.758455762240125
 40
0.7757054027696629
 40
0.7929555831456144
 40
0.8102063037645749
 40
0.8274575650230993
 40
0.8447093673177082
 40
0.8619617110448802
 40
0.8792145966010604
 40
0.8964680243826554
 40
0.9137219947860336
 40
0.9309765082075294
 40
0.9482315650434362
 40
0.9654871656900091
 40
0.9827433105434699
 40
0.9999999999999999
 40
0.9999999999999999
 40
0.9999999999999999
 40
0.9999999999999999
 10
-19.10658318038662
 20
12.80384626473497
 30
0.0
 10
-19.19263462312788
 20
12.67379079815065
 30
0.0
 10
-19.36474011798464
 20
12.4136759212552
 30
0.0
 10
-19.61277237049264
 20
12.01694189612456
 30
0.0
 10
-19.85326477799067
 20
11.61560375212037
 30
0.0
 10
-20.08539743449564
 20
11.20934481382324
 30
0.0
 10
-20.30926635154344
 20
10.79846198503459
 30
0.0
 10
-20.52472643798008
 20
10.38309024613354
 30
0.0
 10
-20.73170158705342
 20
9.963410370592461
 30
0.0
 10
-20.93010163358371
 20
9.539593175692936
 30
0.0
 10
-21.119844652962
 20
9.111814370924952
 30
0.0
 10
-21.30085103076413
 20
8.6802504879849
 30
0.0
 10
-21.47304509489282
 20
8.245079879266832
 30
0.0
 10
-21.63635471937716
 20
7.8064823573222
 30
0.0
 10
-21.79071146979558
 20
7.364639197655198
 30
0.0
 10
-21.93605060165329
 20
6.919733043364099
 30
0.0
 10
-22.07231109623512
 20
6.471947835329148
 30
0.0
 10
-22.19943568447365
 20
6.021468734839105
 30
0.0
 10
-22.3173708720718
 20
5.568482047567723
 30
0.0
 10
-22.42606696231826
 20
5.113175146552037
 30
0.0
 10
-22.52547807753751
 20
4.655736394841917
 30
0.0
 10
-22.61556217890975
 20
4.196355067681765
 30
0.0
 10
-22.69628108472057
 20
3.735221274302369
 30
0.0
 10
-22.7676004870138
 20
3.272525879342834
 30
0.0
 10
-22.82948996664502
 20
2.808460423938327
 30
0.0
 10
-22.8819230067277
 20
2.343217046505345
 30
0.0
 10
-22.9248770044661
 20
1.876988403257502
 30
0.0
 10
-22.95833328136952
 20
1.409967588484539
 30
0.0
 10
-22.98227709184296
 20
0.942348054627566
 30
0.0
 10
-22.99669763015032
 20
0.4743235321836934
 30
0.0
 10
-23.00158803574634
 20
0.0060879494729879
 30
0.0
 10
-22.99694539697502
 20
-0.4621646476988227
 30
0.0
 10
-22.98277075313174
 20
-0.9302401764487688
 30
0.0
 10
-22.95906909488851
 20
-1.397944597262808
 30
0.0
 10
-22.92584936308086
 20
-1.865083994446446
 30
0.0
 10
-22.8831244458567
 20
-2.331464656546402
 30
0.0
 10
-22.83091117418778
 20
-2.796893156709963
 30
0.0
 10
-22.76923031574492
 20
-3.261176432948778
 30
0.0
 10
-22.698106567139
 20
-3.724121868273598
 30
0.0
 10
-22.61756854453053
 20
-4.185537370666903
 30
0.0
 10
-22.52764877261101
 20
-4.645231452859962
 30
0.0
 10
-22.42838367195983
 20
-5.103013311881296
 30
0.0
 10
-22.31981354478279
 20
-5.55869290834393
 30
0.0
 10
-22.20198255903264
 20
-6.012081045435575
 30
0.0
 10
-22.07493873093586
 20
-6.462989447590806
 30
0.0
 10
-21.9387339058643
 20
-6.911230838766891
 30
0.0
 10
-21.79342373781413
 20
-7.356619020461699
 30
0.0
 10
-21.63906766654688
 20
-7.798968948802227
 30
0.0
 10
-21.47572889596013
 20
-8.238096813056629
 30
0.0
 10
-21.30347436041406
 20
-8.673820106635652
 30
0.0
 10
-21.12237472859963
 20
-9.105957723775589
 30
0.0
 10
-20.93250425993178
 20
-9.53432995787096
 30
0.0
 10
-20.73394120404202
 20
-9.95875886422304
 30
0.0
 10
-20.52676616604374
 20
-10.37906725990542
 30
0.0
 10
-20.31106805679767
 20
-10.79508280727167
 30
0.0
 10
-20.08692172709497
 20
-11.20662312106274
 30
0.0
 10
-19.85447127681329
 20
-11.61355169650877
 30
0.0
 10
-19.6136189540622
 20
-12.01556951401171
 30
0.0
 10
-19.36518607517526
 20
-12.4129931553676
 30
0.0
 10
-19.19278476105376
 20
-12.67356095874456
 30
0.0
 10
-19.10658274377026
 20
-12.80384691627731
 30
0.0
  0
SPLINE
  5
8A
330
1F
100
AcDbEntity
  8
0
  6
Continuous
 62
     7
370
    25
100
AcDbSpline
210
0.0
220
0.0
230
1.0
 70
     8
 71
     3
 72
    65
 73
    61
 74
     0
 42
0.000000001
 43
0.00000001
 40
0.0
 40
0.0
 40
0.0
 40
0.0
 40
0.0172262798285521
 40
0.0344530820395984
 40
0.051680407031348
 40
0.068908255201975
 40
0.0861366269496169
 40
0.1033655226723753
 40
0.1205949427683141
 40
0.1378248876354629
 40
0.1550553576718132
 40
0.1722863532753207
 40
0.1895178748439053
 40
0.2067499227754496
 40
0.2239824974677996
 40
0.2412155993187661
 40
0.2584492287261221
 40
0.2756833860876046
 40
0.292918071800914
 40
0.3101532862637145
 40
0.3273890298736324
 40
0.3446253030282592
 40
0.3618621061251486
 40
0.3790994395618174
 40
0.3963373037357466
 40
0.4135756990443803
 40
0.4308146258851249
 40
0.4480540846553516
 40
0.4652940757523936
 40
0.4825345995735477
 40
0.499775656516074
 40
0.5170172469771954
 40
0.5342593713540984
 40
0.5515020300439323
 40
0.5687452234438092
 40
0.5859889519508049
 40
0.6032332159619581
 40
0.6204780158742698
 40
0.6377233520847049
 40
0.6549692249901906
 40
0.6722156349876175
 40
0.6894625824738393
 40
0.7067100678456719
 40
0.7239580914998939
 40
0.7412066538332485
 40
0.7584557552424397
 40
0.7757053961241347
 40
0.792955576874965
 40
0.8102062978915225
 40
0.8274575595703645
 40
0.8447093623080086
 40
0.8619617065009366
 40
0.8792145925455919
 40
0.8964680208383816
 40
0.9137219917756749
 40
0.9309765057538038
 40
0.9482315631690624
 40
0.9654871644177081
 40
0.9827433098959596
 40
1.0
 40
1.0
 40
1.0
 40
1.0
 10
19.10658269119137
 20
-12.80384699473815
 30
0.0
 10
19.19263413485375
 20
-12.67379153763806
 30
0.0
 10
19.36473963166634
 20
-12.41367667953967
 30
0.0
 10
19.6127718884769
 20
-12.01694268256293
 30
0.0
 10
19.85326430147076
 20
-11.61560456630012
 30
0.0
 10
20.08539696472403
 20
-11.20934565530312
 30
0.0
 10
20.30926588972316
 20
-10.79846285332443
 30
0.0
 10
20.52472598529161
 20
-10.38309114070078
 30
0.0
 10
20.73170114464579
 20
-9.963411290862005
 30
0.0
 10
20.93010120257515
 20
-9.539594121048705
 30
0.0
 10
21.11984423443814
 20
-9.11181534071107
 30
0.0
 10
21.30085062577691
 20
-8.680251481507035
 30
0.0
 10
21.47304470445917
 20
-8.245080895793512
 30
0.0
 10
21.63635434447797
 20
-7.806483396086222
 30
0.0
 10
21.79071111137442
 20
-7.364640257854984
 30
0.0
 10
21.93605026061551
 20
-6.919734124165197
 30
0.0
 10
22.0723107734467
 20
-6.471948935865678
 30
0.0
 10
22.19943538076037
 20
-6.021469854215282
 30
0.0
 10
22.31737058821816
 20
-5.568483184859357
 30
0.0
 10
22.42606669906675
 20
-5.113176300808117
 30
0.0
 10
22.52547783558769
 20
-4.655737565086173
 30
0.0
 10
22.61556195891756
 20
-4.196356252914287
 30
0.0
 10
22.6962808872976
 20
-3.735222473501224
 30
0.0
 10
22.76760031272659
 20
-3.272527091465719
 30
0.0
 10
22.82948981601451
 20
-2.808461647924227
 30
0.0
 10
22.88192288022865
 20
-2.343218281276235
 30
0.0
 10
22.92487690252658
 20
-1.876989647720007
 30
0.0
 10
22.9583332043705
 20
-1.409968841531659
 30
0.0
 10
22.98227704011793
 20
-0.9423493151404143
 30
0.0
 10
22.99669760398494
 20
-0.4743247990332001
 30
0.0
 10
23.00158803537817
 20
-0.006089221521669
 30
0.0
 10
22.99694542259327
 20
0.462163371595139
 30
0.0
 10
22.98277080487718
 20
0.9302388974391775
 30
0.0
 10
22.95906917285335
 20
1.397943316499592
 30
0.0
 10
22.92584946730864
 20
1.865082713083305
 30
0.0
 10
22.88312457634234
 20
2.331463375736695
 30
0.0
 10
22.83091133087768
 20
2.796891877604946
 30
0.0
 10
22.76923049853701
 20
3.261175156695866
 30
0.0
 10
22.69810677588298
 20
3.724120596014609
 30
0.0
 10
22.61756877902808
 20
4.185536103536307
 30
0.0
 10
22.52764903261606
 20
4.645230191983199
 30
0.0
 10
22.42838395717895
 20
5.103012058372975
 30
0.0
 10
22.31981385487558
 20
5.558691663306182
 30
0.0
 10
22.20198289361215
 20
6.012079809956322
 30
0.0
 10
22.07493908956913
 20
6.46298822274208
 30
0.0
 10
21.93873428807296
 20
6.911229625603196
 30
0.0
 10
21.79342414307494
 20
7.356617820018328
 30
0.0
 10
21.63906809429248
 20
7.798967762093647
 30
0.0
 10
21.47572934557968
 20
8.238095641074908
 30
0.0
 10
21.30347483125411
 20
8.673818950348776
 30
0.0
 10
21.12237521996496
 20
9.105956584126046
 30
0.0
 10
20.93250477108607
 20
9.534328835774046
 30
0.0
 10
20.73394173420914
 20
9.958757760565518
 30
0.0
 10
20.52676671440829
 20
10.37906617554394
 30
0.0
 10
20.31106862250661
 20
10.79508174303126
 30
0.0
 10
20.08692230925719
 20
11.20662207773574
 30
0.0
 10
19.85447187450614
 20
11.61355067485227
 30
0.0
 10
19.61361956631209
 20
12.01556851475024
 30
0.0
 10
19.36518670103728
 20
12.41299217917813
 30
0.0
 10
19.19278539529423
 20
12.67355999821444
 30
0.0
 10
19.10658338214332
 20
12.80384596366268
 30
0.0
  0
SPLINE
  5
8B
330
1F
100
AcDbEntity
  8
0
  6
Continuous
 62
     7
370
    25
100
AcDbSpline
210
0.0
220
0.0
230
1.0
 70
     8
 71
     3
 72
     8
 73
     4
 74
     0
 42
0.000000001
 43
0.00000001
 40
0.0
 40
0.0
 40
0.0
 40
0.0
 40
1.0
 40
1.0
 40
1.0
 40
1.0
 10
19.10640602948173
 20
12.80372711477615
 30
0.0
 10
21.62973693245367
 20
14.51067233264176
 30
0.0
 10
24.15230744305671
 20
16.21876924465512
 30
0.0
 10
26.67411671087294
 20
17.92801747954259
 30
0.0
  0
SPLINE
  5
8C
330
1F
100
AcDbEntity
  8
0
  6
Continuous
 62
     7
370
    25
100
AcDbSpline
210
0.0
220
0.0
230
1.0
 70
     8
 71
     3
 72
    50
 73
    46
 74
     0
 42
0.000000001
 43
0.00000001
 40
0.0
 40
0.0
 40
0.0
 40
0.0
 40
0.0108597148204743
 40
0.0217194338978645
 40
0.0325791572654945
 40
0.0434388849566886
 40
0.0542986170047706
 40
0.0651583534430641
 40
0.0760180943048928
 40
0.086877839623581
 40
0.0977375894324519
 40
0.1085973437648292
 40
0.1194571026540364
 40
0.1303168661333975
 40
0.1411766342362353
 40
0.1520364069958741
 40
0.1628961844456368
 40
0.173755966618847
 40
0.1846157535488283
 40
0.1954755452689036
 40
0.206335341812396
 40
0.2171951432126294
 40
0.2280549495029264
 40
0.2389147607166103
 40
0.2497745768870041
 40
0.3148524936217548
 40
0.3782767740864553
 40
0.4400475099680445
 40
0.500164818656316
 40
0.5552400583729353
 40
0.6152561092923908
 40
0.6802117989755961
 40
0.7501057881328572
 40
0.7709302872503162
 40
0.7917547897070495
 40
0.812579295512446
 40
0.8334038046758937
 40
0.8542283172067827
 40
0.8750528331145009
 40
0.8958773524084374
 40
0.9167018750979805
 40
0.9375264011925198
 40
0.9583509307014437
 40
0.9791754636341408
 40
1.0
 40
1.0
 40
1.0
 40
1.0
 10
19.10658281705696
 20
12.80384680691471
 30
0.0
 10
19.01489854650974
 20
12.93886143037827
 30
0.0
 10
18.83152996947585
 20
13.20889073022995
 30
0.0
 10
18.54562463463268
 20
13.60639491695296
 30
0.0
 10
18.25193761639236
 20
13.99815042433937
 30
0.0
 10
17.9498138706277
 20
14.38345158312326
 30
0.0
 10
17.63960146888475
 20
14.76226532871805
 30
0.0
 10
17.32138438789792
 20
15.1343820957067
 30
0.0
 10
16.99532197750772
 20
15.49964343408398
 30
0.0
 10
16.6615579180524
 20
15.85788111687085
 30
0.0
 10
16.32024453072674
 20
16.20893355165297
 30
0.0
 10
15.97153617717111
 20
16.55264147676464
 30
0.0
 10
15.61559093962146
 20
16.88884920627229
 30
0.0
 10
15.25257008030374
 20
17.21740438627572
 30
0.0
 10
14.88263809417599
 20
17.53815814808861
 30
0.0
 10
14.50596260012261
 20
17.85096515334663
 30
0.0
 10
14.12271427627603
 20
18.15568366509941
 30
0.0
 10
13.73306677186389
 20
18.45217561342992
 30
0.0
 10
13.33719666052049
 20
18.7403066471919
 30
0.0
 10
12.93528324311911
 20
19.0199462367844
 30
0.0
 10
12.52750890317474
 20
19.29096757652646
 30
0.0
 10
12.11405739477791
 20
19.55324822729585
 30
0.0
 10
11.69511984039516
 20
19.80666798805027
 30
0.0
 10
11.27087194943344
 20
20.05111710094534
 30
0.0
 10
10.12710362783588
 20
20.67812882623595
 30
0.0
 10
8.214885831645667
 20
21.54821609389971
 30
0.0
 10
5.477236998463716
 20
22.39785502570115
 30
0.0
 10
2.729700677678992
 20
22.89268241660985
 30
0.0
 10
0.0686307264228636
 20
23.04888452412219
 30
0.0
 10
-2.565488714363152
 20
22.90568448765489
 30
0.0
 10
-5.2397847995904
 20
22.45440977753129
 30
0.0
 10
-8.053449176889854
 20
21.61571232964925
 30
0.0
 10
-10.19524717663494
 20
20.65402331766804
 30
0.0
 10
-11.65758494020755
 20
19.834172648222
 30
0.0
 10
-12.45733643730141
 20
19.34189140459251
 30
0.0
 10
-13.23629406400599
 20
18.81739671746457
 30
0.0
 10
-13.9932079696034
 20
18.26154569679066
 30
0.0
 10
-14.72680514978154
 20
17.67526963887861
 30
0.0
 10
-15.43586278377622
 20
17.05954149657715
 30
0.0
 10
-16.11921348213423
 20
16.41539749754957
 30
0.0
 10
-16.77566317418201
 20
15.74387343843223
 30
0.0
 10
-17.40432611758287
 20
15.04622763703192
 30
0.0
 10
-18.00337835120805
 20
14.32310210293574
 30
0.0
 10
-18.57471980679668
 20
13.57764372190079
 30
0.0
 10
-18.92929515409404
 20
13.06177910091549
 30
0.0
 10
-19.10658284235667
 20
12.80384676916129
 30
0.0
  0
LINE
  5
8D
330
1F
100
AcDbEntity
  8
0
  6
Continuous
 62
     7
370
    25
100
AcDbLine
 10
-292.5
 20
-202.5
 30
0.0
 11
292.5
 21
-202.5
 31
0.0
  0
LINE
  5
8E
330
1F
100
AcDbEntity
  8
0
  6
Continuous
 62
     7
370
    25
100
AcDbLine
 10
-292.5
 20
202.5
 30
0.0
 11
-292.5
 21
-202.5
 31
0.0
  0
LINE
  5
8F
330
1F
100
AcDbEntity
  8
0
  6
Continuous
 62
     7
370
    25
100
AcDbLine
 10
292.5
 20
-202.5
 30
0.0
 11
292.5
 21
202.5
 31
0.0
  0
LINE
  5
90
330
1F
100
AcDbEntity
  8
0
  6
Continuous
 62
     7
370
    25
100
AcDbLine
 10
292.5
 20
202.5
 30
0.0
 11
-292.5
 21
202.5
 31
0.0
  0
LINE
  5
91
330
1F
100
AcDbEntity
  8
0
  6
Continuous
 62
     7
370
    25
100
AcDbLine
 10
272.5
 20
182.5
 30
0.0
 11
-272.5
 21
182.5
 31
0.0
  0
LINE
  5
92
330
1F
100
AcDbEntity
  8
0
  6
Continuous
 62
     7
370
    25
100
AcDbLine
 10
-272.5
 20
-182.5
 30
0.0
 11
272.5
 21
-182.5
 31
0.0
  0
LINE
  5
93
330
1F
100
AcDbEntity
  8
0
  6
Continuous
 62
     7
370
    25
100
AcDbLine
 10
272.5
 20
-182.5
 30
0.0
 11
272.5
 21
182.5
 31
0.0
  0
LINE
  5
94
330
1F
100
AcDbEntity
  8
0
  6
Continuous
 62
     7
370
    25
100
AcDbLine
 10
-272.5
 20
182.5
 30
0.0
 11
-272.5
 21
-182.5
 31
0.0
  0
LINE
  5
95
330
1F
100
AcDbEntity
  8
0
  6
Continuous
 62
     7
370
    25
100
AcDbLine
 10
-272.5
 20
-182.5
 30
0.0
 11
-26.7030016076
 21
-17.8836616271
 31
0.0
  0
LINE
  5
96
330
1F
100
AcDbEntity
  8
0
  6
Continuous
 62
     7
370
    25
100
AcDbLine
 10
272.5
 20
-182.5
 30
0.0
 11
26.7026518125
 21
-17.8834273606
 31
0.0
  0
LINE
  5
97
330
1F
100
AcDbEntity
  8
0
  6
Continuous
 62
     7
370
    25
100
AcDbLine
 10
272.5
 20
182.5
 30
0.0
 11
26.703001607
 21
17.8836616267
 31
0.0
  0
LINE
  5
98
330
1F
100
AcDbEntity
  8
0
  6
Continuous
 62
     7
370
    25
100
AcDbLine
 10
-26.7026518125
 20
17.8834273606
 30
0.0
 11
-272.5
 21
182.5
 31
0.0
  0
LINE
  5
9D
330
1B
100
AcDbEntity
 67
     1
  8
0
  6
Continuous
 62
     7
370
    25
100
AcDbLine
 10
-292.5
 20
140.0
 30
0.0
 11
292.5
 21
140.0
 31
0.0
  0
LINE
  5
9E
330
1B
100
AcDbEntity
 67
     1
  8
0
  6
Continuous
 62
     7
370
    25
100
AcDbLine
 10
-292.5
 20
140.0
 30
0.0
 11
-292.5
 21
0.0
 31
0.0
  0
LINE
  5
9F
330
1B
100
AcDbEntity
 67
     1
  8
0
  6
Continuous
 62
     7
370
    25
100
AcDbLine
 10
-292.5
 20
0.0
 30
0.0
 11
292.5
 21
0.0
 31
0.0
  0
LINE
  5
A0
330
1B
100
AcDbEntity
 67
     1
  8
0
  6
Continuous
 62
     7
370
    25
100
AcDbLine
 10
292.5
 20
140.0
 30
0.0
 11
292.5
 21
0.0
 31
0.0
  0
VIEWPORT
  5
16D
330
1B
100
AcDbEntity
 67
     1
  8
0
100
AcDbViewport
 10
0.0
 20
0.0
 30
0.0
 40
205.6
 41
156.0
 68
     1
 69
     1
 12
0.0
 22
0.0
 13
0.0
 23
0.0
 14
10.0
 24
10.0
 15
10.0
 25
10.0
 16
0.0
 26
0.0
 36
1.0
 17
0.0
 27
0.0
 37
0.0
 42
50.0
 43
0.0
 44
0.0
 45
452.7490272374
 50
0.0
 51
0.0
 72
   100
 90
   557152
  1

281
     0
 71
     1
 74
     0
110
0.0
120
0.0
130
0.0
111
1.0
121
0.0
131
0.0
112
0.0
122
1.0
132
0.0
 79
     0
146
0.0
170
     0
 61
     5
348
2F
292
     1
282
     1
141
0.0
142
0.0
 63
   256
361
16E
  0
ENDSEC
  0
SECTION
  2
OBJECTS
  0
DICTIONARY
  5
C
330
0
100
AcDbDictionary
281
     1
  3
ACAD_DETAILVIEWSTYLE
350
186
  3
ACAD_GROUP
350
D
  3
ACAD_LAYOUT
350
1A
  3
ACAD_MATERIAL
350
43
  3
ACAD_MLEADERSTYLE
350
6B
  3
ACAD_MLINESTYLE
350
17
  3
ACAD_PLOTSETTINGS
350
19
  3
ACAD_PLOTSTYLENAME
350
E
  3
ACAD_SCALELIST
350
47
  3
ACAD_SECTIONVIEWSTYLE
350
187
  3
ACAD_TABLESTYLE
350
69
  3
ACAD_VISUALSTYLE
350
2A
  3
ACDB_RECOMPOSE_DATA
350
183
  3
AcDbVariableDictionary
350
17F
  0
SUN
  5
6D
330
29
100
AcDbSun
 90
        1
290
     0
 63
     7
421
 16777215
 40
1.0
291
     1
 91
  2455826
 92
 54000000
292
     0
 70
     2
 71
   256
280
     1
  0
SUN
  5
170
330
16F
100
AcDbSun
 90
        1
290
     0
 63
     7
421
 16777215
 40
1.0
291
     1
 91
  2455826
 92
 54000000
292
     0
 70
     2
 71
   256
280
     1
  0
SUN
  5
172
330
171
100
AcDbSun
 90
        1
290
     0
 63
     7
421
 16777215
 40
1.0
291
     1
 91
  2455826
 92
 54000000
292
     0
 70
     2
 71
   256
280
     1
  0
SUN
  5
174
330
173
100
AcDbSun
 90
        1
290
     0
 63
     7
421
 16777215
 40
1.0
291
     1
 91
  2455826
 92
 54000000
292
     0
 70
     2
 71
   256
280
     1
  0
SUN
  5
176
330
175
100
AcDbSun
 90
        1
290
     0
 63
     7
421
 16777215
 40
1.0
291
     1
 91
  2455826
 92
 54000000
292
     0
 70
     2
 71
   256
280
     1
  0
SUN
  5
178
330
177
100
AcDbSun
 90
        1
290
     0
 63
     7
421
 16777215
 40
1.0
291
     1
 91
  2455826
 92
 54000000
292
     0
 70
     2
 71
   256
280
     1
  0
SUN
  5
17A
330
179
100
AcDbSun
 90
        1
290
     0
 63
     7
421
 16777215
 40
1.0
291
     1
 91
  2455826
 92
 54000000
292
     0
 70
     2
 71
   256
280
     1
  0
SUN
  5
17C
330
17B
100
AcDbSun
 90
        1
290
     0
 63
     7
421
 16777215
 40
1.0
291
     1
 91
  2455826
 92
 54000000
292
     0
 70
     2
 71
   256
280
     1
  0
SUN
  5
17E
330
17D
100
AcDbSun
 90
        1
290
     0
 63
     7
421
 16777215
 40
1.0
291
     1
 91
  2455826
 92
 54000000
292
     0
 70
     2
 71
   256
280
     1
  0
SUN
  5
16E
330
16D
100
AcDbSun
 90
        1
290
     0
 63
     7
421
 16777215
 40
1.0
291
     1
 91
  2455826
 92
 54000000
292
     0
 70
     2
 71
   256
280
     1
  0
DICTIONARY
  5
186
102
{ACAD_REACTORS
330
C
102
}
330
C
100
AcDbDictionary
281
     1
  0
DICTIONARY
  5
D
102
{ACAD_REACTORS
330
C
102
}
330
C
100
AcDbDictionary
281
     1
  0
DICTIONARY
  5
1A
102
{ACAD_REACTORS
330
C
102
}
330
C
100
AcDbDictionary
281
     1
  3
_Dimetrisch
350
148
  3
_Isometrisch
350
DB
  3
_Links
350
C2
  3
_Normal auf
350
AA
  3
_Rechts
350
26
  3
_Rückseite
350
B6
  3
_Trimetrisch
350
117
  3
_Unten
350
CE
  3
_Vorderseite
350
1E
  3
Model
350
22
  0
DICTIONARY
  5
43
102
{ACAD_REACTORS
330
C
102
}
330
C
100
AcDbDictionary
281
     1
  3
ByBlock
350
45
  3
ByLayer
350
44
  3
Global
350
46
  0
DICTIONARY
  5
6B
102
{ACAD_REACTORS
330
C
102
}
330
C
100
AcDbDictionary
281
     1
  3
Standard
350
6C
  0
DICTIONARY
  5
17
102
{ACAD_REACTORS
330
C
102
}
330
C
100
AcDbDictionary
281
     1
  3
Standard
350
18
  0
DICTIONARY
  5
19
102
{ACAD_REACTORS
330
C
102
}
330
C
100
AcDbDictionary
281
     1
  0
ACDBDICTIONARYWDFLT
  5
E
102
{ACAD_REACTORS
330
C
102
}
330
C
100
AcDbDictionary
281
     1
  3
Normal
350
F
100
AcDbDictionaryWithDefault
340
F
  0
DICTIONARY
  5
47
102
{ACAD_REACTORS
330
C
102
}
330
C
100
AcDbDictionary
281
     1
  3
A0
350
48
  3
A1
350
49
  3
A2
350
4A
  3
A3
350
4B
  3
A4
350
4C
  3
A5
350
4D
  3
A6
350
4E
  3
A7
350
4F
  3
A8
350
50
  3
A9
350
51
  3
B0
350
52
  3
B1
350
53
  3
B2
350
54
  3
B3
350
55
  3
B4
350
56
  3
B5
350
57
  3
B6
350
58
  3
B7
350
59
  3
B8
350
5A
  3
B9
350
5B
  3
C0
350
5C
  3
C1
350
5D
  3
C2
350
5E
  3
C3
350
5F
  3
C4
350
60
  3
C5
350
61
  3
C6
350
62
  3
C7
350
63
  3
C8
350
64
  3
C9
350
65
  3
D0
350
66
  3
D1
350
67
  3
D2
350
68
  0
DICTIONARY
  5
187
102
{ACAD_REACTORS
330
C
102
}
330
C
100
AcDbDictionary
281
     1
  0
DICTIONARY
  5
69
102
{ACAD_REACTORS
330
C
102
}
330
C
100
AcDbDictionary
281
     1
  3
Standard
350
6A
  0
DICTIONARY
  5
2A
102
{ACAD_REACTORS
330
C
102
}
330
C
100
AcDbDictionary
281
     1
  3
2dWireframe
350
2F
  3
Basic
350
32
  3
Brighten
350
36
  3
ColorChange
350
3A
  3
Conceptual
350
34
  3
Dim
350
35
  3
EdgeColorOff
350
3D
  3
Facepattern
350
39
  3
Flat
350
2B
  3
FlatWithEdges
350
2C
  3
Gouraud
350
2D
  3
GouraudWithEdges
350
2E
  3
Hidden
350
31
  3
JitterOff
350
3B
  3
Linepattern
350
38
  3
OverhangOff
350
3C
  3
Realistic
350
33
  3
Shaded
350
42
  3
Shaded with edges
350
41
  3
Shades of Gray
350
3E
  3
Sketchy
350
3F
  3
Thicken
350
37
  3
Wireframe
350
30
  3
X-Ray
350
40
  0
XRECORD
  5
183
102
{ACAD_REACTORS
330
C
102
}
330
C
100
AcDbXrecord
280
     1
 90
        1
330
6A
  0
DICTIONARY
  5
17F
102
{ACAD_REACTORS
330
C
102
}
330
C
100
AcDbDictionary
281
     1
  3
CANNOSCALE
350
180
  3
CMLEADERSTYLE
350
185
  3
CTABLESTYLE
350
184
  0
LAYOUT
  5
148
102
{ACAD_REACTORS
330
1A
102
}
330
1A
100
AcDbPlotSettings
  1

  2
none_device
  4
ISO_A4_(210.00_x_297.00_MM)
  6

 40
7.5
 41
20.0
 42
7.5
 43
20.0
 44
210.0
 45
297.0
 46
0.0
 47
0.0
 48
0.0
 49
0.0
140
0.0
141
0.0
142
1.0
143
2.2762645914
 70
   688
 72
     1
 73
     1
 74
     1
  7

 75
     0
 76
     0
 77
     2
 78
   300
147
0.4393162393
148
292.5
149
0.0
100
AcDbLayout
  1
_Dimetrisch
 70
     1
 71
     9
 10
0.0
 20
0.0
 11
0.0
 21
0.0
 12
0.0
 22
0.0
 32
0.0
 14
0.0
 24
0.0
 34
0.0
 15
0.0
 25
0.0
 35
0.0
146
0.0
 13
0.0
 23
0.0
 33
0.0
 16
1.0
 26
0.0
 36
0.0
 17
0.0
 27
1.0
 37
0.0
 76
     0
330
147
331
17D
  0
LAYOUT
  5
DB
102
{ACAD_REACTORS
330
1A
102
}
330
1A
100
AcDbPlotSettings
  1

  2
none_device
  4
ISO_A4_(210.00_x_297.00_MM)
  6

 40
7.5
 41
20.0
 42
7.5
 43
20.0
 44
210.0
 45
297.0
 46
0.0
 47
0.0
 48
0.0
 49
0.0
140
0.0
141
0.0
142
1.0
143
2.2762645914
 70
   688
 72
     1
 73
     1
 74
     1
  7

 75
     0
 76
     0
 77
     2
 78
   300
147
0.4393162393
148
292.5
149
0.0
100
AcDbLayout
  1
_Isometrisch
 70
     1
 71
     7
 10
0.0
 20
0.0
 11
0.0
 21
0.0
 12
0.0
 22
0.0
 32
0.0
 14
0.0
 24
0.0
 34
0.0
 15
0.0
 25
0.0
 35
0.0
146
0.0
 13
0.0
 23
0.0
 33
0.0
 16
1.0
 26
0.0
 36
0.0
 17
0.0
 27
1.0
 37
0.0
 76
     0
330
DA
331
179
  0
LAYOUT
  5
C2
102
{ACAD_REACTORS
330
1A
102
}
330
1A
100
AcDbPlotSettings
  1

  2
none_device
  4
ISO_A4_(210.00_x_297.00_MM)
  6

 40
7.5
 41
20.0
 42
7.5
 43
20.0
 44
210.0
 45
297.0
 46
0.0
 47
0.0
 48
0.0
 49
0.0
140
0.0
141
0.0
142
1.0
143
2.2762645914
 70
   688
 72
     1
 73
     1
 74
     1
  7

 75
     0
 76
     0
 77
     2
 78
   300
147
0.4393162393
148
292.5
149
0.0
100
AcDbLayout
  1
_Links
 70
     1
 71
     5
 10
0.0
 20
0.0
 11
0.0
 21
0.0
 12
0.0
 22
0.0
 32
0.0
 14
0.0
 24
0.0
 34
0.0
 15
0.0
 25
0.0
 35
0.0
146
0.0
 13
0.0
 23
0.0
 33
0.0
 16
1.0
 26
0.0
 36
0.0
 17
0.0
 27
1.0
 37
0.0
 76
     0
330
C1
331
175
  0
LAYOUT
  5
AA
102
{ACAD_REACTORS
330
1A
102
}
330
1A
100
AcDbPlotSettings
  1

  2
none_device
  4
ISO_A4_(210.00_x_297.00_MM)
  6

 40
7.5
 41
20.0
 42
7.5
 43
20.0
 44
210.0
 45
297.0
 46
0.0
 47
0.0
 48
0.0
 49
0.0
140
0.0
141
0.0
142
1.0
143
2.2762645914
 70
   688
 72
     1
 73
     1
 74
     1
  7

 75
     0
 76
     0
 77
     2
 78
   300
147
0.4393162393
148
292.5
149
0.0
100
AcDbLayout
  1
_Normal auf
 70
     1
 71
     3
 10
0.0
 20
0.0
 11
0.0
 21
0.0
 12
0.0
 22
0.0
 32
0.0
 14
0.0
 24
0.0
 34
0.0
 15
0.0
 25
0.0
 35
0.0
146
0.0
 13
0.0
 23
0.0
 33
0.0
 16
1.0
 26
0.0
 36
0.0
 17
0.0
 27
1.0
 37
0.0
 76
     0
330
A9
331
171
  0
LAYOUT
  5
26
102
{ACAD_REACTORS
330
1A
102
}
330
1A
100
AcDbPlotSettings
  1

  2
none_device
  4
ISO_A4_(210.00_x_297.00_MM)
  6

 40
7.5
 41
20.0
 42
7.5
 43
20.0
 44
210.0
 45
297.0
 46
0.0
 47
0.0
 48
0.0
 49
0.0
140
0.0
141
0.0
142
1.0
143
2.2762645914
 70
   688
 72
     1
 73
     1
 74
     1
  7

 75
     0
 76
     0
 77
     2
 78
   300
147
0.4393162393
148
292.5
149
0.0
100
AcDbLayout
  1
_Rechts
 70
     1
 71
     2
 10
0.0
 20
0.0
 11
0.0
 21
0.0
 12
0.0
 22
0.0
 32
0.0
 14
0.0
 24
0.0
 34
0.0
 15
0.0
 25
0.0
 35
0.0
146
0.0
 13
0.0
 23
0.0
 33
0.0
 16
1.0
 26
0.0
 36
0.0
 17
0.0
 27
1.0
 37
0.0
 76
     0
330
23
331
16F
  0
LAYOUT
  5
B6
102
{ACAD_REACTORS
330
1A
102
}
330
1A
100
AcDbPlotSettings
  1

  2
none_device
  4
ISO_A4_(210.00_x_297.00_MM)
  6

 40
7.5
 41
20.0
 42
7.5
 43
20.0
 44
210.0
 45
297.0
 46
0.0
 47
0.0
 48
0.0
 49
0.0
140
0.0
141
0.0
142
1.0
143
2.2762645914
 70
   688
 72
     1
 73
     1
 74
     1
  7

 75
     0
 76
     0
 77
     2
 78
   300
147
0.4393162393
148
292.5
149
0.0
100
AcDbLayout
  1
_Rückseite
 70
     1
 71
     4
 10
0.0
 20
0.0
 11
0.0
 21
0.0
 12
0.0
 22
0.0
 32
0.0
 14
0.0
 24
0.0
 34
0.0
 15
0.0
 25
0.0
 35
0.0
146
0.0
 13
0.0
 23
0.0
 33
0.0
 16
1.0
 26
0.0
 36
0.0
 17
0.0
 27
1.0
 37
0.0
 76
     0
330
B5
331
173
  0
LAYOUT
  5
117
102
{ACAD_REACTORS
330
1A
102
}
330
1A
100
AcDbPlotSettings
  1

  2
none_device
  4
ISO_A4_(210.00_x_297.00_MM)
  6

 40
7.5
 41
20.0
 42
7.5
 43
20.0
 44
210.0
 45
297.0
 46
0.0
 47
0.0
 48
0.0
 49
0.0
140
0.0
141
0.0
142
1.0
143
2.2762645914
 70
   688
 72
     1
 73
     1
 74
     1
  7

 75
     0
 76
     0
 77
     2
 78
   300
147
0.4393162393
148
292.5
149
0.0
100
AcDbLayout
  1
_Trimetrisch
 70
     1
 71
     8
 10
0.0
 20
0.0
 11
0.0
 21
0.0
 12
0.0
 22
0.0
 32
0.0
 14
0.0
 24
0.0
 34
0.0
 15
0.0
 25
0.0
 35
0.0
146
0.0
 13
0.0
 23
0.0
 33
0.0
 16
1.0
 26
0.0
 36
0.0
 17
0.0
 27
1.0
 37
0.0
 76
     0
330
116
331
17B
  0
LAYOUT
  5
CE
102
{ACAD_REACTORS
330
1A
102
}
330
1A
100
AcDbPlotSettings
  1

  2
none_device
  4
ISO_A4_(210.00_x_297.00_MM)
  6

 40
7.5
 41
20.0
 42
7.5
 43
20.0
 44
210.0
 45
297.0
 46
0.0
 47
0.0
 48
0.0
 49
0.0
140
0.0
141
0.0
142
1.0
143
2.2762645914
 70
   688
 72
     1
 73
     1
 74
     1
  7

 75
     0
 76
     0
 77
     2
 78
   300
147
0.4393162393
148
292.5
149
0.0
100
AcDbLayout
  1
_Unten
 70
     1
 71
     6
 10
0.0
 20
0.0
 11
0.0
 21
0.0
 12
0.0
 22
0.0
 32
0.0
 14
0.0
 24
0.0
 34
0.0
 15
0.0
 25
0.0
 35
0.0
146
0.0
 13
0.0
 23
0.0
 33
0.0
 16
1.0
 26
0.0
 36
0.0
 17
0.0
 27
1.0
 37
0.0
 76
     0
330
CD
331
177
  0
LAYOUT
  5
1E
102
{ACAD_REACTORS
330
1A
102
}
330
1A
100
AcDbPlotSettings
  1

  2
none_device
  4
ISO_A4_(210.00_x_297.00_MM)
  6

 40
7.5
 41
20.0
 42
7.5
 43
20.0
 44
210.0
 45
297.0
 46
0.0
 47
0.0
 48
0.0
 49
0.0
140
0.0
141
0.0
142
1.0
143
2.2762645914
 70
   688
 72
     1
 73
     1
 74
     1
  7

 75
     0
 76
     0
 77
     2
 78
   300
147
0.4393162393
148
292.5
149
0.0
100
AcDbLayout
  1
_Vorderseite
 70
     1
 71
     1
 10
-338.0252918288
 20
-17.0719844358
 11
338.0252918288
 21
460.9435797665
 12
0.0
 22
0.0
 32
0.0
 14
-292.5
 24
0.0
 34
0.0
 15
292.5
 25
140.0
 35
0.0
146
0.0
 13
0.0
 23
0.0
 33
0.0
 16
1.0
 26
0.0
 36
0.0
 17
0.0
 27
1.0
 37
0.0
 76
     0
330
1B
331
16D
  0
LAYOUT
  5
22
102
{ACAD_REACTORS
330
1A
102
}
330
1A
100
AcDbPlotSettings
  1

  2
none_device
  4
ANSI_A_(11.00_x_8.50_Inches)
  6

 40
6.35
 41
19.05
 42
6.35000508
 43
19.05000254
 44
279.4
 45
215.9
 46
133.34999746
 47
88.89999873
 48
0.0
 49
0.0
140
0.0
141
0.0
142
0.0186153846
143
1.0
 70
  1696
 72
     0
 73
     0
 74
     0
  7

 75
     0
 76
     0
 77
     2
 78
   300
147
0.0179189148
148
-1300.4909072572
149
0.0
100
AcDbLayout
  1
Model
 70
     1
 71
     0
 10
0.0
 20
0.0
 11
420.0
 21
297.0
 12
0.0
 22
0.0
 32
0.0
 14
-292.5
 24
-202.5
 34
0.0
 15
292.5
 25
202.5
 35
0.0
146
0.0
 13
0.0
 23
0.0
 33
0.0
 16
1.0
 26
0.0
 36
0.0
 17
0.0
 27
1.0
 37
0.0
 76
     0
330
1F
331
29
  0
MATERIAL
  5
45
102
{ACAD_REACTORS
330
43
102
}
330
43
100
AcDbMaterial
  1
ByBlock
 72
     1
 94
      127
  0
MATERIAL
  5
44
102
{ACAD_REACTORS
330
43
102
}
330
43
100
AcDbMaterial
  1
ByLayer
 72
     1
 94
      127
  0
MATERIAL
  5
46
102
{ACAD_REACTORS
330
43
102
}
330
43
100
AcDbMaterial
  1
Global
 72
     1
 94
      127
  0
MLEADERSTYLE
  5
6C
102
{ACAD_REACTORS
330
6B
102
}
330
6B
100
AcDbMLeaderStyle
179
     2
170
     2
171
     1
172
     0
 90
        2
 40
0.0
 41
0.0
173
     1
 91
-1056964608
340
14
 92
       -2
290
     1
 42
2.0
291
     1
 43
8.0
  3
Standard
341
0
 44
4.0
300

342
11
174
     1
178
     6
175
     1
176
     0
 93
-1056964608
 45
4.0
292
     0
297
     0
 46
4.0
343
0
 94
-1056964608
 47
1.0
 49
1.0
140
1.0
293
     1
141
0.0
294
     1
177
     0
142
1.0
295
     0
296
     0
143
3.75
271
     0
272
     9
273
     9
298
     0
  0
MLINESTYLE
  5
18
102
{ACAD_REACTORS
330
17
102
}
330
17
100
AcDbMlineStyle
  2
Standard
 70
     0
  3

 62
   256
 51
90.0
 52
90.0
 71
     2
 49
0.5
 62
   256
  6
BYLAYER
 49
-0.5
 62
   256
  6
BYLAYER
  0
ACDBPLACEHOLDER
  5
F
102
{ACAD_REACTORS
330
E
102
}
330
E
  0
SCALE
  5
48
102
{ACAD_REACTORS
330
47
102
}
330
47
100
AcDbScale
 70
     0
300
1:1
140
1.0
141
1.0
290
     1
  0
SCALE
  5
49
102
{ACAD_REACTORS
330
47
102
}
330
47
100
AcDbScale
 70
     0
300
1:2
140
1.0
141
2.0
290
     0
  0
SCALE
  5
4A
102
{ACAD_REACTORS
330
47
102
}
330
47
100
AcDbScale
 70
     0
300
1:4
140
1.0
141
4.0
290
     0
  0
SCALE
  5
4B
102
{ACAD_REACTORS
330
47
102
}
330
47
100
AcDbScale
 70
     0
300
1:5
140
1.0
141
5.0
290
     0
  0
SCALE
  5
4C
102
{ACAD_REACTORS
330
47
102
}
330
47
100
AcDbScale
 70
     0
300
1:8
140
1.0
141
8.0
290
     0
  0
SCALE
  5
4D
102
{ACAD_REACTORS
330
47
102
}
330
47
100
AcDbScale
 70
     0
300
1:10
140
1.0
141
10.0
290
     0
  0
SCALE
  5
4E
102
{ACAD_REACTORS
330
47
102
}
330
47
100
AcDbScale
 70
     0
300
1:16
140
1.0
141
16.0
290
     0
  0
SCALE
  5
4F
102
{ACAD_REACTORS
330
47
102
}
330
47
100
AcDbScale
 70
     0
300
1:20
140
1.0
141
20.0
290
     0
  0
SCALE
  5
50
102
{ACAD_REACTORS
330
47
102
}
330
47
100
AcDbScale
 70
     0
300
1:30
140
1.0
141
30.0
290
     0
  0
SCALE
  5
51
102
{ACAD_REACTORS
330
47
102
}
330
47
100
AcDbScale
 70
     0
300
1:40
140
1.0
141
40.0
290
     0
  0
SCALE
  5
52
102
{ACAD_REACTORS
330
47
102
}
330
47
100
AcDbScale
 70
     0
300
1:50
140
1.0
141
50.0
290
     0
  0
SCALE
  5
53
102
{ACAD_REACTORS
330
47
102
}
330
47
100
AcDbScale
 70
     0
300
1:100
140
1.0
141
100.0
290
     0
  0
SCALE
  5
54
102
{ACAD_REACTORS
330
47
102
}
330
47
100
AcDbScale
 70
     0
300
2:1
140
2.0
141
1.0
290
     0
  0
SCALE
  5
55
102
{ACAD_REACTORS
330
47
102
}
330
47
100
AcDbScale
 70
     0
300
4:1
140
4.0
141
1.0
290
     0
  0
SCALE
  5
56
102
{ACAD_REACTORS
330
47
102
}
330
47
100
AcDbScale
 70
     0
300
8:1
140
8.0
141
1.0
290
     0
  0
SCALE
  5
57
102
{ACAD_REACTORS
330
47
102
}
330
47
100
AcDbScale
 70
     0
300
10:1
140
10.0
141
1.0
290
     0
  0
SCALE
  5
58
102
{ACAD_REACTORS
330
47
102
}
330
47
100
AcDbScale
 70
     0
300
100:1
140
100.0
141
1.0
290
     0
  0
SCALE
  5
59
102
{ACAD_REACTORS
330
47
102
}
330
47
100
AcDbScale
 70
     0
300
1/128" = 1'-0"
140
0.0078125
141
12.0
290
     0
  0
SCALE
  5
5A
102
{ACAD_REACTORS
330
47
102
}
330
47
100
AcDbScale
 70
     0
300
1/64" = 1'-0"
140
0.015625
141
12.0
290
     0
  0
SCALE
  5
5B
102
{ACAD_REACTORS
330
47
102
}
330
47
100
AcDbScale
 70
     0
300
1/32" = 1'-0"
140
0.03125
141
12.0
290
     0
  0
SCALE
  5
5C
102
{ACAD_REACTORS
330
47
102
}
330
47
100
AcDbScale
 70
     0
300
1/16" = 1'-0"
140
0.0625
141
12.0
290
     0
  0
SCALE
  5
5D
102
{ACAD_REACTORS
330
47
102
}
330
47
100
AcDbScale
 70
     0
300
3/32" = 1'-0"
140
0.09375
141
12.0
290
     0
  0
SCALE
  5
5E
102
{ACAD_REACTORS
330
47
102
}
330
47
100
AcDbScale
 70
     0
300
1/8" = 1'-0"
140
0.125
141
12.0
290
     0
  0
SCALE
  5
5F
102
{ACAD_REACTORS
330
47
102
}
330
47
100
AcDbScale
 70
     0
300
3/16" = 1'-0"
140
0.1875
141
12.0
290
     0
  0
SCALE
  5
60
102
{ACAD_REACTORS
330
47
102
}
330
47
100
AcDbScale
 70
     0
300
1/4" = 1'-0"
140
0.25
141
12.0
290
     0
  0
SCALE
  5
61
102
{ACAD_REACTORS
330
47
102
}
330
47
100
AcDbScale
 70
     0
300
3/8" = 1'-0"
140
0.375
141
12.0
290
     0
  0
SCALE
  5
62
102
{ACAD_REACTORS
330
47
102
}
330
47
100
AcDbScale
 70
     0
300
1/2" = 1'-0"
140
0.5
141
12.0
290
     0
  0
SCALE
  5
63
102
{ACAD_REACTORS
330
47
102
}
330
47
100
AcDbScale
 70
     0
300
3/4" = 1'-0"
140
0.75
141
12.0
290
     0
  0
SCALE
  5
64
102
{ACAD_REACTORS
330
47
102
}
330
47
100
AcDbScale
 70
     0
300
1" = 1'-0"
140
1.0
141
12.0
290
     0
  0
SCALE
  5
65
102
{ACAD_REACTORS
330
47
102
}
330
47
100
AcDbScale
 70
     0
300
1-1/2" = 1'-0"
140
1.5
141
12.0
290
     0
  0
SCALE
  5
66
102
{ACAD_REACTORS
330
47
102
}
330
47
100
AcDbScale
 70
     0
300
3" = 1'-0"
140
3.0
141
12.0
290
     0
  0
SCALE
  5
67
102
{ACAD_REACTORS
330
47
102
}
330
47
100
AcDbScale
 70
     0
300
6" = 1'-0"
140
6.0
141
12.0
290
     0
  0
SCALE
  5
68
102
{ACAD_REACTORS
330
47
102
}
330
47
100
AcDbScale
 70
     0
300
1'-0" = 1'-0"
140
12.0
141
12.0
290
     0
  0
TABLESTYLE
  5
6A
102
{ACAD_REACTORS
330
69
102
}
102
{ACAD_XDICTIONARY
360
181
102
}
330
69
100
AcDbTableStyle
  3
Standard
 70
     0
 71
     0
 40
0.06
 41
0.06
280
     0
281
     0
  7
STANDARD
140
4.5
170
     2
 62
     0
 63
   257
283
     0
 90
        4
 91
        0
  1

274
    -2
284
     1
 64
     0
275
    -2
285
     1
 65
     0
276
    -2
286
     1
 66
     0
277
    -2
287
     1
 67
     0
278
    -2
288
     1
 68
     0
279
    -2
289
     1
 69
     0
  7
STANDARD
140
6.0
170
     5
 62
     0
 63
   257
283
     0
 90
        4
 91
        0
  1

274
    -2
284
     1
 64
     0
275
    -2
285
     1
 65
     0
276
    -2
286
     1
 66
     0
277
    -2
287
     1
 67
     0
278
    -2
288
     1
 68
     0
279
    -2
289
     1
 69
     0
  7
STANDARD
140
4.5
170
     5
 62
     0
 63
   257
283
     0
 90
        4
 91
        0
  1

274
    -2
284
     1
 64
     0
275
    -2
285
     1
 65
     0
276
    -2
286
     1
 66
     0
277
    -2
287
     1
 67
     0
278
    -2
288
     1
 68
     0
279
    -2
289
     1
 69
     0
  0
VISUALSTYLE
  5
2F
102
{ACAD_REACTORS
330
2A
102
}
330
2A
100
AcDbVisualStyle
  2
2dWireframe
 70
     4
177
     3
291
     0
 70
    58
 90
        0
176
     1
 90
        2
176
     1
 90
        0
176
     1
 90
        0
176
     1
 40
0.6
176
     1
 40
30.0
176
     1
 62
     7
420
 16777215
176
     1
 90
        1
176
     1
 90
        4
176
     1
 62
     7
176
     1
 62
   257
176
     1
 90
        1
176
     1
 90
        1
176
     1
 40
1.0
176
     1
 90
        0
176
     1
 62
   257
176
     1
 40
1.0
176
     1
 90
        1
176
     1
 90
        6
176
     1
 90
        2
176
     1
 62
     7
176
     1
 90
        5
176
     1
 90
        0
176
     1
 90
        0
176
     1
290
     0
176
     1
 90
        1
176
     1
 40
0.0
176
     1
 90
        0
176
     1
290
     1
176
     1
290
     1
176
     1
290
     0
176
     1
290
     0
176
     1
290
     0
176
     1
290
     0
176
     1
290
     0
176
     1
290
     0
176
     1
290
     0
176
     1
 90
       50
176
     1
 40
0.0
176
     1
 40
1.0
176
     1
 90
        0
176
     1
 62
    18
420
        0
176
     1
 90
       50
176
     1
 90
        3
176
     1
 62
     5
420
      255
176
     1
290
     0
176
     1
 90
       50
176
     1
 90
       50
176
     1
 90
       50
176
     1
290
     0
176
     1
 90
       50
176
     1
 62
   256
176
     0
 40
1.0
176
     0
 90
        2
176
     1
  1
strokes_ogs.tif
176
     1
290
     0
176
     1
 40
1.0
176
     1
 40
1.0
176
     1
  0
VISUALSTYLE
  5
32
102
{ACAD_REACTORS
330
2A
102
}
330
2A
100
AcDbVisualStyle
  2
Basic
 70
     7
177
     3
291
     1
 70
    58
 90
        1
176
     1
 90
        0
176
     1
 90
        1
176
     1
 90
        0
176
     1
 40
0.6
176
     1
 40
30.0
176
     1
 62
     7
420
 16777215
176
     1
 90
        0
176
     1
 90
        4
176
     1
 62
     7
176
     1
 62
   257
176
     1
 90
        1
176
     1
 90
        1
176
     1
 40
1.0
176
     1
 90
        8
176
     1
 62
     7
176
     1
 40
1.0
176
     1
 90
        1
176
     1
 90
        6
176
     1
 90
        2
176
     1
 62
     7
176
     1
 90
        5
176
     1
 90
        0
176
     1
 90
        0
176
     1
290
     0
176
     1
 90
        1
176
     1
 40
0.0
176
     1
 90
        0
176
     1
290
     0
176
     1
290
     1
176
     1
290
     1
176
     1
290
     0
176
     1
290
     0
176
     1
290
     0
176
     1
290
     0
176
     1
290
     0
176
     1
290
     0
176
     1
 90
       50
176
     1
 40
0.0
176
     1
 40
1.0
176
     1
 90
        0
176
     1
 62
    18
420
        0
176
     1
 90
       50
176
     1
 90
        3
176
     1
 62
     5
420
      255
176
     1
290
     0
176
     1
 90
       50
176
     1
 90
       50
176
     1
 90
       50
176
     1
290
     0
176
     1
 90
       50
176
     1
 62
   256
176
     0
 40
1.0
176
     0
 90
        2
176
     1
  1
strokes_ogs.tif
176
     1
290
     0
176
     1
 40
1.0
176
     1
 40
1.0
176
     1
  0
VISUALSTYLE
  5
36
102
{ACAD_REACTORS
330
2A
102
}
330
2A
100
AcDbVisualStyle
  2
Brighten
 70
    12
177
     3
291
     1
 70
    58
 90
        2
176
     1
 90
        2
176
     1
 90
        0
176
     1
 90
        0
176
     1
 40
0.6
176
     1
 40
30.0
176
     1
 62
     7
420
 16777215
176
     1
 90
        1
176
     1
 90
        4
176
     1
 62
     7
176
     1
 62
   257
176
     1
 90
        1
176
     1
 90
        1
176
     1
 40
1.0
176
     1
 90
        8
176
     1
 62
     7
176
     1
 40
1.0
176
     1
 90
        1
176
     1
 90
        6
176
     1
 90
        2
176
     1
 62
     7
176
     1
 90
        5
176
     1
 90
        0
176
     1
 90
        0
176
     1
290
     0
176
     1
 90
        1
176
     1
 40
50.0
176
     1
 90
        0
176
     1
290
     0
176
     1
290
     1
176
     1
290
     1
176
     1
290
     0
176
     1
290
     0
176
     1
290
     0
176
     1
290
     0
176
     1
290
     0
176
     1
290
     0
176
     1
 90
       50
176
     1
 40
0.0
176
     1
 40
1.0
176
     1
 90
        0
176
     1
 62
    18
420
        0
176
     1
 90
       50
176
     1
 90
        3
176
     1
 62
     5
420
      255
176
     1
290
     0
176
     1
 90
       50
176
     1
 90
       50
176
     1
 90
       50
176
     1
290
     0
176
     1
 90
       50
176
     1
 62
   256
176
     0
 40
1.0
176
     0
 90
        2
176
     1
  1
strokes_ogs.tif
176
     1
290
     0
176
     1
 40
1.0
176
     1
 40
1.0
176
     1
  0
VISUALSTYLE
  5
3A
102
{ACAD_REACTORS
330
2A
102
}
330
2A
100
AcDbVisualStyle
  2
ColorChange
 70
    16
177
     3
291
     1
 70
    58
 90
        2
176
     1
 90
        2
176
     1
 90
        3
176
     1
 90
        0
176
     1
 40
0.6
176
     1
 40
30.0
176
     1
 62
     8
420
  8421504
176
     1
 90
        1
176
     1
 90
        4
176
     1
 62
     7
176
     1
 62
   257
176
     1
 90
        1
176
     1
 90
        1
176
     1
 40
1.0
176
     1
 90
        8
176
     1
 62
     8
420
  8421504
176
     1
 40
1.0
176
     1
 90
        1
176
     1
 90
        6
176
     1
 90
        2
176
     1
 62
     7
176
     1
 90
        5
176
     1
 90
        0
176
     1
 90
        0
176
     1
290
     0
176
     1
 90
        1
176
     1
 40
0.0
176
     1
 90
        0
176
     1
290
     0
176
     1
290
     1
176
     1
290
     1
176
     1
290
     0
176
     1
290
     0
176
     1
290
     0
176
     1
290
     0
176
     1
290
     0
176
     1
290
     0
176
     1
 90
       50
176
     1
 40
0.0
176
     1
 40
1.0
176
     1
 90
        0
176
     1
 62
    18
420
        0
176
     1
 90
       50
176
     1
 90
        3
176
     1
 62
     5
420
      255
176
     1
290
     0
176
     1
 90
       50
176
     1
 90
       50
176
     1
 90
       50
176
     1
290
     0
176
     1
 90
       50
176
     1
 62
   256
176
     0
 40
1.0
176
     0
 90
        2
176
     1
  1
strokes_ogs.tif
176
     1
290
     0
176
     1
 40
1.0
176
     1
 40
1.0
176
     1
  0
VISUALSTYLE
  5
34
102
{ACAD_REACTORS
330
2A
102
}
330
2A
100
AcDbVisualStyle
  2
Conceptual
 70
     9
177
     3
291
     0
 70
    58
 90
        3
176
     1
 90
        2
176
     1
 90
        0
176
     1
 90
        0
176
     1
 40
0.6
176
     1
 40
30.0
176
     1
 62
     7
420
 16777215
176
     1
 90
        2
176
     1
 90
        2
176
     1
 62
     7
176
     1
 62
   257
176
     1
 90
        1
176
     1
 90
        1
176
     1
 40
179.0
176
     1
 90
        8
176
     1
 62
     7
176
     1
 40
1.0
176
     1
 90
        1
176
     1
 90
        6
176
     1
 90
        2
176
     1
 62
     7
176
     1
 90
        3
176
     1
 90
        0
176
     1
 90
        0
176
     1
290
     0
176
     1
 90
        1
176
     1
 40
0.0
176
     1
 90
        0
176
     1
290
     0
176
     1
290
     1
176
     1
290
     1
176
     1
290
     0
176
     1
290
     0
176
     1
290
     0
176
     1
290
     0
176
     1
290
     0
176
     1
290
     0
176
     1
 90
       50
176
     1
 40
0.0
176
     1
 40
1.0
176
     1
 90
        0
176
     1
 62
    18
420
        0
176
     1
 90
       50
176
     1
 90
        3
176
     1
 62
     5
420
      255
176
     1
290
     0
176
     1
 90
       50
176
     1
 90
       50
176
     1
 90
       50
176
     1
290
     0
176
     1
 90
       50
176
     1
 62
   256
176
     0
 40
1.0
176
     0
 90
        2
176
     1
  1
strokes_ogs.tif
176
     1
290
     0
176
     1
 40
1.0
176
     1
 40
1.0
176
     1
  0
VISUALSTYLE
  5
35
102
{ACAD_REACTORS
330
2A
102
}
330
2A
100
AcDbVisualStyle
  2
Dim
 70
    11
177
     3
291
     1
 70
    58
 90
        2
176
     1
 90
        2
176
     1
 90
        0
176
     1
 90
        0
176
     1
 40
0.6
176
     1
 40
30.0
176
     1
 62
     7
420
 16777215
176
     1
 90
        1
176
     1
 90
        4
176
     1
 62
     7
176
     1
 62
   257
176
     1
 90
        1
176
     1
 90
        1
176
     1
 40
1.0
176
     1
 90
        8
176
     1
 62
     7
176
     1
 40
1.0
176
     1
 90
        1
176
     1
 90
        6
176
     1
 90
        2
176
     1
 62
     7
176
     1
 90
        5
176
     1
 90
        0
176
     1
 90
        0
176
     1
290
     0
176
     1
 90
        1
176
     1
 40
-50.0
176
     1
 90
        0
176
     1
290
     0
176
     1
290
     1
176
     1
290
     1
176
     1
290
     0
176
     1
290
     0
176
     1
290
     0
176
     1
290
     0
176
     1
290
     0
176
     1
290
     0
176
     1
 90
       50
176
     1
 40
0.0
176
     1
 40
1.0
176
     1
 90
        0
176
     1
 62
    18
420
        0
176
     1
 90
       50
176
     1
 90
        3
176
     1
 62
     5
420
      255
176
     1
290
     0
176
     1
 90
       50
176
     1
 90
       50
176
     1
 90
       50
176
     1
290
     0
176
     1
 90
       50
176
     1
 62
   256
176
     0
 40
1.0
176
     0
 90
        2
176
     1
  1
strokes_ogs.tif
176
     1
290
     0
176
     1
 40
1.0
176
     1
 40
1.0
176
     1
  0
VISUALSTYLE
  5
3D
102
{ACAD_REACTORS
330
2A
102
}
330
2A
100
AcDbVisualStyle
  2
EdgeColorOff
 70
    22
177
     3
291
     1
 70
    58
 90
        2
176
     0
 90
        2
176
     0
 90
        0
176
     0
 90
        0
176
     0
 40
0.6
176
     0
 40
30.0
176
     0
 62
     7
420
 16777215
176
     0
 90
        1
176
     0
 90
        4
176
     0
 62
     7
176
     0
 62
   257
176
     0
 90
        1
176
     0
 90
        1
176
     0
 40
1.0
176
     0
 90
        8
176
     2
 62
     7
176
     0
 40
1.0
176
     0
 90
        1
176
     0
 90
        6
176
     0
 90
        2
176
     0
 62
     7
176
     0
 90
        5
176
     0
 90
        0
176
     0
 90
        0
176
     0
290
     0
176
     0
 90
        1
176
     0
 40
0.0
176
     0
 90
        0
176
     0
290
     0
176
     0
290
     1
176
     0
290
     1
176
     0
290
     0
176
     0
290
     0
176
     0
290
     0
176
     0
290
     0
176
     0
290
     0
176
     0
290
     0
176
     0
 90
       50
176
     0
 40
0.0
176
     0
 40
1.0
176
     0
 90
        0
176
     0
 62
    18
420
        0
176
     0
 90
       50
176
     0
 90
        3
176
     0
 62
     5
420
      255
176
     0
290
     0
176
     0
 90
       50
176
     0
 90
       50
176
     0
 90
       50
176
     0
290
     0
176
     0
 90
       50
176
     0
 62
   256
176
     0
 40
1.0
176
     0
 90
        2
176
     0
  1
strokes_ogs.tif
176
     0
290
     0
176
     0
 40
1.0
176
     0
 40
1.0
176
     0
  0
VISUALSTYLE
  5
39
102
{ACAD_REACTORS
330
2A
102
}
330
2A
100
AcDbVisualStyle
  2
Facepattern
 70
    15
177
     3
291
     1
 70
    58
 90
        2
176
     1
 90
        2
176
     1
 90
        0
176
     1
 90
        0
176
     1
 40
0.6
176
     1
 40
30.0
176
     1
 62
     7
420
 16777215
176
     1
 90
        1
176
     1
 90
        4
176
     1
 62
     7
176
     1
 62
   257
176
     1
 90
        1
176
     1
 90
        1
176
     1
 40
1.0
176
     1
 90
        8
176
     1
 62
     7
176
     1
 40
1.0
176
     1
 90
        1
176
     1
 90
        6
176
     1
 90
        2
176
     1
 62
     7
176
     1
 90
        5
176
     1
 90
        0
176
     1
 90
        0
176
     1
290
     0
176
     1
 90
        1
176
     1
 40
0.0
176
     1
 90
        0
176
     1
290
     0
176
     1
290
     1
176
     1
290
     1
176
     1
290
     0
176
     1
290
     0
176
     1
290
     0
176
     1
290
     0
176
     1
290
     0
176
     1
290
     0
176
     1
 90
       50
176
     1
 40
0.0
176
     1
 40
1.0
176
     1
 90
        0
176
     1
 62
    18
420
        0
176
     1
 90
       50
176
     1
 90
        3
176
     1
 62
     5
420
      255
176
     1
290
     0
176
     1
 90
       50
176
     1
 90
       50
176
     1
 90
       50
176
     1
290
     0
176
     1
 90
       50
176
     1
 62
   256
176
     0
 40
1.0
176
     0
 90
        2
176
     1
  1
strokes_ogs.tif
176
     1
290
     0
176
     1
 40
1.0
176
     1
 40
1.0
176
     1
  0
VISUALSTYLE
  5
2B
102
{ACAD_REACTORS
330
2A
102
}
330
2A
100
AcDbVisualStyle
  2
Flat
 70
     0
177
     3
291
     1
 70
    58
 90
        2
176
     1
 90
        1
176
     1
 90
        1
176
     1
 90
        2
176
     1
 40
0.6
176
     1
 40
30.0
176
     1
 62
     7
420
 16777215
176
     1
 90
        0
176
     1
 90
        0
176
     1
 62
     7
176
     1
 62
   257
176
     1
 90
        1
176
     1
 90
        1
176
     1
 40
1.0
176
     1
 90
        8
176
     1
 62
     7
176
     1
 40
1.0
176
     1
 90
        1
176
     1
 90
        6
176
     1
 90
        2
176
     1
 62
     7
176
     1
 90
        5
176
     1
 90
        0
176
     1
 90
        0
176
     1
290
     0
176
     1
 90
       13
176
     1
 40
0.0
176
     1
 90
        0
176
     1
290
     0
176
     1
290
     1
176
     1
290
     1
176
     1
290
     0
176
     1
290
     0
176
     1
290
     0
176
     1
290
     0
176
     1
290
     0
176
     1
290
     0
176
     1
 90
       50
176
     1
 40
0.0
176
     1
 40
1.0
176
     1
 90
        0
176
     1
 62
    18
420
        0
176
     1
 90
       50
176
     1
 90
        3
176
     1
 62
     5
420
      255
176
     1
290
     0
176
     1
 90
       50
176
     1
 90
       50
176
     1
 90
       50
176
     1
290
     0
176
     1
 90
       50
176
     1
 62
   256
176
     0
 40
1.0
176
     0
 90
        2
176
     1
  1
strokes_ogs.tif
176
     1
290
     0
176
     1
 40
1.0
176
     1
 40
1.0
176
     1
  0
VISUALSTYLE
  5
2C
102
{ACAD_REACTORS
330
2A
102
}
330
2A
100
AcDbVisualStyle
  2
FlatWithEdges
 70
     1
177
     3
291
     1
 70
    58
 90
        2
176
     1
 90
        1
176
     1
 90
        1
176
     1
 90
        2
176
     1
 40
0.6
176
     1
 40
30.0
176
     1
 62
     7
420
 16777215
176
     1
 90
        1
176
     1
 90
        0
176
     1
 62
     7
176
     1
 62
   257
176
     1
 90
        1
176
     1
 90
        1
176
     1
 40
1.0
176
     1
 90
        0
176
     1
 62
   257
176
     1
 40
1.0
176
     1
 90
        1
176
     1
 90
        6
176
     1
 90
        2
176
     1
 62
     7
176
     1
 90
        5
176
     1
 90
        0
176
     1
 90
        0
176
     1
290
     0
176
     1
 90
       13
176
     1
 40
0.0
176
     1
 90
        0
176
     1
290
     0
176
     1
290
     1
176
     1
290
     1
176
     1
290
     0
176
     1
290
     0
176
     1
290
     0
176
     1
290
     0
176
     1
290
     0
176
     1
290
     0
176
     1
 90
       50
176
     1
 40
0.0
176
     1
 40
1.0
176
     1
 90
        0
176
     1
 62
    18
420
        0
176
     1
 90
       50
176
     1
 90
        3
176
     1
 62
     5
420
      255
176
     1
290
     0
176
     1
 90
       50
176
     1
 90
       50
176
     1
 90
       50
176
     1
290
     0
176
     1
 90
       50
176
     1
 62
   256
176
     0
 40
1.0
176
     0
 90
        2
176
     1
  1
strokes_ogs.tif
176
     1
290
     0
176
     1
 40
1.0
176
     1
 40
1.0
176
     1
  0
VISUALSTYLE
  5
2D
102
{ACAD_REACTORS
330
2A
102
}
330
2A
100
AcDbVisualStyle
  2
Gouraud
 70
     2
177
     3
291
     1
 70
    58
 90
        2
176
     1
 90
        2
176
     1
 90
        1
176
     1
 90
        2
176
     1
 40
0.6
176
     1
 40
30.0
176
     1
 62
     7
420
 16777215
176
     1
 90
        0
176
     1
 90
        0
176
     1
 62
     7
176
     1
 62
   257
176
     1
 90
        1
176
     1
 90
        1
176
     1
 40
1.0
176
     1
 90
        0
176
     1
 62
     7
176
     1
 40
1.0
176
     1
 90
        1
176
     1
 90
        6
176
     1
 90
        2
176
     1
 62
     7
176
     1
 90
        5
176
     1
 90
        0
176
     1
 90
        0
176
     1
290
     0
176
     1
 90
       13
176
     1
 40
0.0
176
     1
 90
        0
176
     1
290
     0
176
     1
290
     1
176
     1
290
     1
176
     1
290
     0
176
     1
290
     0
176
     1
290
     0
176
     1
290
     0
176
     1
290
     0
176
     1
290
     0
176
     1
 90
       50
176
     1
 40
0.0
176
     1
 40
1.0
176
     1
 90
        0
176
     1
 62
    18
420
        0
176
     1
 90
       50
176
     1
 90
        3
176
     1
 62
     5
420
      255
176
     1
290
     0
176
     1
 90
       50
176
     1
 90
       50
176
     1
 90
       50
176
     1
290
     0
176
     1
 90
       50
176
     1
 62
   256
176
     0
 40
1.0
176
     0
 90
        2
176
     1
  1
strokes_ogs.tif
176
     1
290
     0
176
     1
 40
1.0
176
     1
 40
1.0
176
     1
  0
VISUALSTYLE
  5
2E
102
{ACAD_REACTORS
330
2A
102
}
330
2A
100
AcDbVisualStyle
  2
GouraudWithEdges
 70
     3
177
     3
291
     1
 70
    58
 90
        2
176
     1
 90
        2
176
     1
 90
        1
176
     1
 90
        2
176
     1
 40
0.6
176
     1
 40
30.0
176
     1
 62
     7
420
 16777215
176
     1
 90
        1
176
     1
 90
        0
176
     1
 62
     7
176
     1
 62
   257
176
     1
 90
        1
176
     1
 90
        1
176
     1
 40
1.0
176
     1
 90
        0
176
     1
 62
   257
176
     1
 40
1.0
176
     1
 90
        1
176
     1
 90
        6
176
     1
 90
        2
176
     1
 62
     7
176
     1
 90
        5
176
     1
 90
        0
176
     1
 90
        0
176
     1
290
     0
176
     1
 90
       13
176
     1
 40
0.0
176
     1
 90
        0
176
     1
290
     0
176
     1
290
     1
176
     1
290
     1
176
     1
290
     0
176
     1
290
     0
176
     1
290
     0
176
     1
290
     0
176
     1
290
     0
176
     1
290
     0
176
     1
 90
       50
176
     1
 40
0.0
176
     1
 40
1.0
176
     1
 90
        0
176
     1
 62
    18
420
        0
176
     1
 90
       50
176
     1
 90
        3
176
     1
 62
     5
420
      255
176
     1
290
     0
176
     1
 90
       50
176
     1
 90
       50
176
     1
 90
       50
176
     1
290
     0
176
     1
 90
       50
176
     1
 62
   256
176
     0
 40
1.0
176
     0
 90
        2
176
     1
  1
strokes_ogs.tif
176
     1
290
     0
176
     1
 40
1.0
176
     1
 40
1.0
176
     1
  0
VISUALSTYLE
  5
31
102
{ACAD_REACTORS
330
2A
102
}
330
2A
100
AcDbVisualStyle
  2
Hidden
 70
     6
177
     3
291
     0
 70
    58
 90
        1
176
     1
 90
        2
176
     1
 90
        2
176
     1
 90
        0
176
     1
 40
0.6
176
     1
 40
30.0
176
     1
 62
     7
420
 16777215
176
     1
 90
        2
176
     1
 90
        2
176
     1
 62
     7
176
     1
 62
   257
176
     1
 90
        2
176
     1
 90
        1
176
     1
 40
40.0
176
     1
 90
        0
176
     1
 62
   257
176
     1
 40
1.0
176
     1
 90
        1
176
     1
 90
        6
176
     1
 90
        2
176
     1
 62
     7
176
     1
 90
        3
176
     1
 90
        0
176
     1
 90
        0
176
     1
290
     0
176
     1
 90
        1
176
     1
 40
0.0
176
     1
 90
        0
176
     1
290
     0
176
     1
290
     1
176
     1
290
     1
176
     1
290
     0
176
     1
290
     0
176
     1
290
     0
176
     1
290
     0
176
     1
290
     0
176
     1
290
     0
176
     1
 90
       50
176
     1
 40
0.0
176
     1
 40
1.0
176
     1
 90
        0
176
     1
 62
    18
420
        0
176
     1
 90
       50
176
     1
 90
        3
176
     1
 62
     5
420
      255
176
     1
290
     0
176
     1
 90
       50
176
     1
 90
       50
176
     1
 90
       50
176
     1
290
     0
176
     1
 90
       50
176
     1
 62
   256
176
     0
 40
1.0
176
     0
 90
        2
176
     1
  1
strokes_ogs.tif
176
     1
290
     0
176
     1
 40
1.0
176
     1
 40
1.0
176
     1
  0
VISUALSTYLE
  5
3B
102
{ACAD_REACTORS
330
2A
102
}
330
2A
100
AcDbVisualStyle
  2
JitterOff
 70
    20
177
     3
291
     1
 70
    58
 90
        2
176
     0
 90
        2
176
     0
 90
        0
176
     0
 90
        0
176
     0
 40
0.6
176
     0
 40
30.0
176
     0
 62
     7
420
 16777215
176
     0
 90
        1
176
     0
 90
        4
176
     0
 62
     7
176
     0
 62
   257
176
     0
 90
        1
176
     0
 90
        1
176
     0
 40
1.0
176
     0
 90
       10
176
     2
 62
     7
176
     0
 40
1.0
176
     0
 90
        1
176
     0
 90
        6
176
     0
 90
        2
176
     0
 62
     7
176
     0
 90
        5
176
     0
 90
        0
176
     0
 90
        0
176
     0
290
     0
176
     0
 90
        1
176
     0
 40
0.0
176
     0
 90
        0
176
     0
290
     0
176
     0
290
     1
176
     0
290
     1
176
     0
290
     0
176
     0
290
     0
176
     0
290
     0
176
     0
290
     0
176
     0
290
     0
176
     0
290
     0
176
     0
 90
       50
176
     0
 40
0.0
176
     0
 40
1.0
176
     0
 90
        0
176
     0
 62
    18
420
        0
176
     0
 90
       50
176
     0
 90
        3
176
     0
 62
     5
420
      255
176
     0
290
     0
176
     0
 90
       50
176
     0
 90
       50
176
     0
 90
       50
176
     0
290
     0
176
     0
 90
       50
176
     0
 62
   256
176
     0
 40
1.0
176
     0
 90
        2
176
     0
  1
strokes_ogs.tif
176
     0
290
     0
176
     0
 40
1.0
176
     0
 40
1.0
176
     0
  0
VISUALSTYLE
  5
38
102
{ACAD_REACTORS
330
2A
102
}
330
2A
100
AcDbVisualStyle
  2
Linepattern
 70
    14
177
     3
291
     1
 70
    58
 90
        2
176
     1
 90
        2
176
     1
 90
        0
176
     1
 90
        0
176
     1
 40
0.6
176
     1
 40
30.0
176
     1
 62
     7
420
 16777215
176
     1
 90
        1
176
     1
 90
        4
176
     1
 62
     7
176
     1
 62
   257
176
     1
 90
        7
176
     1
 90
        7
176
     1
 40
1.0
176
     1
 90
        8
176
     1
 62
     7
176
     1
 40
1.0
176
     1
 90
        1
176
     1
 90
        6
176
     1
 90
        2
176
     1
 62
     7
176
     1
 90
        5
176
     1
 90
        0
176
     1
 90
        0
176
     1
290
     0
176
     1
 90
        1
176
     1
 40
0.0
176
     1
 90
        0
176
     1
290
     0
176
     1
290
     1
176
     1
290
     1
176
     1
290
     0
176
     1
290
     0
176
     1
290
     0
176
     1
290
     0
176
     1
290
     0
176
     1
290
     0
176
     1
 90
       50
176
     1
 40
0.0
176
     1
 40
1.0
176
     1
 90
        0
176
     1
 62
    18
420
        0
176
     1
 90
       50
176
     1
 90
        3
176
     1
 62
     5
420
      255
176
     1
290
     0
176
     1
 90
       50
176
     1
 90
       50
176
     1
 90
       50
176
     1
290
     0
176
     1
 90
       50
176
     1
 62
   256
176
     0
 40
1.0
176
     0
 90
        2
176
     1
  1
strokes_ogs.tif
176
     1
290
     0
176
     1
 40
1.0
176
     1
 40
1.0
176
     1
  0
VISUALSTYLE
  5
3C
102
{ACAD_REACTORS
330
2A
102
}
330
2A
100
AcDbVisualStyle
  2
OverhangOff
 70
    21
177
     3
291
     1
 70
    58
 90
        2
176
     0
 90
        2
176
     0
 90
        0
176
     0
 90
        0
176
     0
 40
0.6
176
     0
 40
30.0
176
     0
 62
     7
420
 16777215
176
     0
 90
        1
176
     0
 90
        4
176
     0
 62
     7
176
     0
 62
   257
176
     0
 90
        1
176
     0
 90
        1
176
     0
 40
1.0
176
     0
 90
        9
176
     2
 62
     7
176
     0
 40
1.0
176
     0
 90
        1
176
     0
 90
        6
176
     0
 90
        2
176
     0
 62
     7
176
     0
 90
        5
176
     0
 90
        0
176
     0
 90
        0
176
     0
290
     0
176
     0
 90
        1
176
     0
 40
0.0
176
     0
 90
        0
176
     0
290
     0
176
     0
290
     1
176
     0
290
     1
176
     0
290
     0
176
     0
290
     0
176
     0
290
     0
176
     0
290
     0
176
     0
290
     0
176
     0
290
     0
176
     0
 90
       50
176
     0
 40
0.0
176
     0
 40
1.0
176
     0
 90
        0
176
     0
 62
    18
420
        0
176
     0
 90
       50
176
     0
 90
        3
176
     0
 62
     5
420
      255
176
     0
290
     0
176
     0
 90
       50
176
     0
 90
       50
176
     0
 90
       50
176
     0
290
     0
176
     0
 90
       50
176
     0
 62
   256
176
     0
 40
1.0
176
     0
 90
        2
176
     0
  1
strokes_ogs.tif
176
     0
290
     0
176
     0
 40
1.0
176
     0
 40
1.0
176
     0
  0
VISUALSTYLE
  5
33
102
{ACAD_REACTORS
330
2A
102
}
330
2A
100
AcDbVisualStyle
  2
Realistic
 70
     8
177
     3
291
     0
 70
    58
 90
        2
176
     1
 90
        3
176
     1
 90
        0
176
     1
 90
        2
176
     1
 40
0.6
176
     1
 40
30.0
176
     1
 62
     7
420
 16777215
176
     1
 90
        0
176
     1
 90
        0
176
     1
 62
     7
176
     1
 62
   257
176
     1
 90
        1
176
     1
 90
        1
176
     1
 40
1.0
176
     1
 90
        8
176
     1
 62
   257
176
     1
 40
1.0
176
     1
 90
        1
176
     1
 90
        6
176
     1
 90
        2
176
     1
 62
     7
176
     1
 90
        3
176
     1
 90
        0
176
     1
 90
        0
176
     1
290
     0
176
     1
 90
       13
176
     1
 40
0.0
176
     1
 90
        0
176
     1
290
     0
176
     1
290
     1
176
     1
290
     1
176
     1
290
     0
176
     1
290
     0
176
     1
290
     0
176
     1
290
     0
176
     1
290
     0
176
     1
290
     0
176
     1
 90
       50
176
     1
 40
0.0
176
     1
 40
1.0
176
     1
 90
        0
176
     1
 62
    18
420
        0
176
     1
 90
       50
176
     1
 90
        3
176
     1
 62
     5
420
      255
176
     1
290
     0
176
     1
 90
       50
176
     1
 90
       50
176
     1
 90
       50
176
     1
290
     0
176
     1
 90
       50
176
     1
 62
   256
176
     0
 40
1.0
176
     0
 90
        2
176
     1
  1
strokes_ogs.tif
176
     1
290
     0
176
     1
 40
1.0
176
     1
 40
1.0
176
     1
  0
VISUALSTYLE
  5
42
102
{ACAD_REACTORS
330
2A
102
}
330
2A
100
AcDbVisualStyle
  2
Shaded
 70
    27
177
     3
291
     0
 70
    58
 90
        2
176
     1
 90
        2
176
     1
 90
        1
176
     1
 90
        2
176
     1
 40
0.6
176
     1
 40
30.0
176
     1
 62
     7
420
 16777215
176
     1
 90
        0
176
     1
 90
        4
176
     1
 62
     7
176
     1
 62
   257
176
     1
 90
        1
176
     1
 90
        1
176
     1
 40
1.0
176
     1
 90
        8
176
     1
 62
   257
176
     1
 40
1.0
176
     1
 90
        1
176
     1
 90
        6
176
     1
 90
        2
176
     1
 62
     8
420
  7895160
176
     1
 90
        3
176
     1
 90
        0
176
     1
 90
        0
176
     1
290
     0
176
     1
 90
        5
176
     1
 40
0.0
176
     1
 90
        0
176
     1
290
     0
176
     1
290
     1
176
     1
290
     1
176
     1
290
     0
176
     1
290
     0
176
     1
290
     0
176
     1
290
     0
176
     1
290
     0
176
     1
290
     0
176
     1
 90
       50
176
     1
 40
0.0
176
     1
 40
1.0
176
     1
 90
        0
176
     1
 62
    18
420
        0
176
     1
 90
       50
176
     1
 90
        3
176
     1
 62
     5
420
      255
176
     1
290
     0
176
     1
 90
       50
176
     1
 90
       50
176
     1
 90
       50
176
     1
290
     0
176
     1
 90
       50
176
     1
 62
   256
176
     0
 40
1.0
176
     0
 90
        2
176
     1
  1
strokes_ogs.tif
176
     1
290
     0
176
     1
 40
1.0
176
     1
 40
1.0
176
     1
  0
VISUALSTYLE
  5
41
102
{ACAD_REACTORS
330
2A
102
}
330
2A
100
AcDbVisualStyle
  2
Shaded with edges
 70
    26
177
     3
291
     0
 70
    58
 90
        2
176
     1
 90
        2
176
     1
 90
        1
176
     1
 90
        2
176
     1
 40
0.6
176
     1
 40
30.0
176
     1
 62
     7
420
 16777215
176
     1
 90
        1
176
     1
 90
       10
176
     1
 62
     7
176
     1
 62
   257
176
     1
 90
        2
176
     1
 90
        1
176
     1
 40
1.0
176
     1
 90
        8
176
     1
 62
   257
176
     1
 40
1.0
176
     1
 90
        1
176
     1
 90
        6
176
     1
 90
        2
176
     1
 62
     7
176
     1
 90
        3
176
     1
 90
        0
176
     1
 90
        0
176
     1
290
     0
176
     1
 90
        5
176
     1
 40
0.0
176
     1
 90
        0
176
     1
290
     0
176
     1
290
     1
176
     1
290
     1
176
     1
290
     0
176
     1
290
     0
176
     1
290
     0
176
     1
290
     0
176
     1
290
     0
176
     1
290
     0
176
     1
 90
       50
176
     1
 40
0.0
176
     1
 40
1.0
176
     1
 90
        0
176
     1
 62
    18
420
        0
176
     1
 90
       50
176
     1
 90
        3
176
     1
 62
     5
420
      255
176
     1
290
     0
176
     1
 90
       50
176
     1
 90
       50
176
     1
 90
       50
176
     1
290
     0
176
     1
 90
       50
176
     1
 62
   256
176
     0
 40
1.0
176
     0
 90
        2
176
     1
  1
strokes_ogs.tif
176
     1
290
     0
176
     1
 40
1.0
176
     1
 40
1.0
176
     1
  0
VISUALSTYLE
  5
3E
102
{ACAD_REACTORS
330
2A
102
}
330
2A
100
AcDbVisualStyle
  2
Shades of Gray
 70
    23
177
     3
291
     0
 70
    58
 90
        2
176
     1
 90
        2
176
     1
 90
        3
176
     1
 90
        0
176
     1
 40
0.6
176
     1
 40
30.0
176
     1
 62
     7
420
 16777215
176
     1
 90
        2
176
     1
 90
        2
176
     1
 62
     7
176
     1
 62
     7
176
     1
 90
        1
176
     1
 90
        1
176
     1
 40
40.0
176
     1
 90
        8
176
     1
 62
     7
176
     1
 40
1.0
176
     1
 90
        1
176
     1
 90
        6
176
     1
 90
        2
176
     1
 62
     7
176
     1
 90
        3
176
     1
 90
        0
176
     1
 90
        0
176
     1
290
     0
176
     1
 90
        1
176
     1
 40
0.0
176
     1
 90
        0
176
     1
290
     0
176
     1
290
     1
176
     1
290
     1
176
     1
290
     0
176
     1
290
     0
176
     1
290
     0
176
     1
290
     0
176
     1
290
     0
176
     1
290
     0
176
     1
 90
       50
176
     1
 40
0.0
176
     1
 40
1.0
176
     1
 90
        0
176
     1
 62
    18
420
        0
176
     1
 90
       50
176
     1
 90
        3
176
     1
 62
     5
420
      255
176
     1
290
     0
176
     1
 90
       50
176
     1
 90
       50
176
     1
 90
       50
176
     1
290
     0
176
     1
 90
       50
176
     1
 62
   256
176
     0
 40
1.0
176
     0
 90
        2
176
     1
  1
strokes_ogs.tif
176
     1
290
     0
176
     1
 40
1.0
176
     1
 40
1.0
176
     1
  0
VISUALSTYLE
  5
3F
102
{ACAD_REACTORS
330
2A
102
}
330
2A
100
AcDbVisualStyle
  2
Sketchy
 70
    24
177
     3
291
     0
 70
    58
 90
        1
176
     1
 90
        2
176
     1
 90
        2
176
     1
 90
        0
176
     1
 40
0.6
176
     1
 40
30.0
176
     1
 62
     7
420
 16777215
176
     1
 90
        2
176
     1
 90
        2
176
     1
 62
     7
176
     1
 62
     7
176
     1
 90
        1
176
     1
 90
        1
176
     1
 40
40.0
176
     1
 90
       11
176
     1
 62
     7
176
     1
 40
1.0
176
     1
 90
        1
176
     1
 90
        6
176
     1
 90
        2
176
     1
 62
     7
176
     1
 90
        6
176
     1
 90
        0
176
     1
 90
        0
176
     1
290
     0
176
     1
 90
        1
176
     1
 40
0.0
176
     1
 90
        0
176
     1
290
     0
176
     1
290
     1
176
     1
290
     1
176
     1
290
     0
176
     1
290
     0
176
     1
290
     0
176
     1
290
     0
176
     1
290
     0
176
     1
290
     0
176
     1
 90
       50
176
     1
 40
0.0
176
     1
 40
1.0
176
     1
 90
        0
176
     1
 62
    18
420
        0
176
     1
 90
       50
176
     1
 90
        3
176
     1
 62
     5
420
      255
176
     1
290
     0
176
     1
 90
       50
176
     1
 90
       50
176
     1
 90
       50
176
     1
290
     0
176
     1
 90
       50
176
     1
 62
   256
176
     0
 40
1.0
176
     0
 90
        2
176
     1
  1
strokes_ogs.tif
176
     1
290
     0
176
     1
 40
1.0
176
     1
 40
1.0
176
     1
  0
VISUALSTYLE
  5
37
102
{ACAD_REACTORS
330
2A
102
}
330
2A
100
AcDbVisualStyle
  2
Thicken
 70
    13
177
     3
291
     1
 70
    58
 90
        2
176
     1
 90
        2
176
     1
 90
        0
176
     1
 90
        0
176
     1
 40
0.6
176
     1
 40
30.0
176
     1
 62
     7
420
 16777215
176
     1
 90
        1
176
     1
 90
        4
176
     1
 62
     7
176
     1
 62
   257
176
     1
 90
        1
176
     1
 90
        1
176
     1
 40
1.0
176
     1
 90
       12
176
     1
 62
     7
176
     1
 40
1.0
176
     1
 90
        1
176
     1
 90
        6
176
     1
 90
        2
176
     1
 62
     7
176
     1
 90
        5
176
     1
 90
        0
176
     1
 90
        0
176
     1
290
     0
176
     1
 90
        1
176
     1
 40
0.0
176
     1
 90
        0
176
     1
290
     0
176
     1
290
     1
176
     1
290
     1
176
     1
290
     0
176
     1
290
     0
176
     1
290
     0
176
     1
290
     0
176
     1
290
     0
176
     1
290
     0
176
     1
 90
       50
176
     1
 40
0.0
176
     1
 40
1.0
176
     1
 90
        0
176
     1
 62
    18
420
        0
176
     1
 90
       50
176
     1
 90
        3
176
     1
 62
     5
420
      255
176
     1
290
     0
176
     1
 90
       50
176
     1
 90
       50
176
     1
 90
       50
176
     1
290
     0
176
     1
 90
       50
176
     1
 62
   256
176
     0
 40
1.0
176
     0
 90
        2
176
     1
  1
strokes_ogs.tif
176
     1
290
     0
176
     1
 40
1.0
176
     1
 40
1.0
176
     1
  0
VISUALSTYLE
  5
30
102
{ACAD_REACTORS
330
2A
102
}
330
2A
100
AcDbVisualStyle
  2
Wireframe
 70
     5
177
     3
291
     0
 70
    58
 90
        0
176
     1
 90
        2
176
     1
 90
        0
176
     1
 90
        0
176
     1
 40
0.6
176
     1
 40
30.0
176
     1
 62
     7
420
 16777215
176
     1
 90
        1
176
     1
 90
        4
176
     1
 62
     7
176
     1
 62
   257
176
     1
 90
        1
176
     1
 90
        1
176
     1
 40
1.0
176
     1
 90
        0
176
     1
 62
   257
176
     1
 40
1.0
176
     1
 90
        1
176
     1
 90
        6
176
     1
 90
        2
176
     1
 62
     7
176
     1
 90
        3
176
     1
 90
        0
176
     1
 90
        0
176
     1
290
     0
176
     1
 90
        1
176
     1
 40
0.0
176
     1
 90
        0
176
     1
290
     0
176
     1
290
     1
176
     1
290
     1
176
     1
290
     0
176
     1
290
     0
176
     1
290
     0
176
     1
290
     0
176
     1
290
     0
176
     1
290
     0
176
     1
 90
       50
176
     1
 40
0.0
176
     1
 40
1.0
176
     1
 90
        0
176
     1
 62
    18
420
        0
176
     1
 90
       50
176
     1
 90
        3
176
     1
 62
     5
420
      255
176
     1
290
     0
176
     1
 90
       50
176
     1
 90
       50
176
     1
 90
       50
176
     1
290
     0
176
     1
 90
       50
176
     1
 62
   256
176
     0
 40
1.0
176
     0
 90
        2
176
     1
  1
strokes_ogs.tif
176
     1
290
     0
176
     1
 40
1.0
176
     1
 40
1.0
176
     1
  0
VISUALSTYLE
  5
40
102
{ACAD_REACTORS
330
2A
102
}
330
2A
100
AcDbVisualStyle
  2
X-Ray
 70
    25
177
     3
291
     0
 70
    58
 90
        2
176
     1
 90
        2
176
     1
 90
        1
176
     1
 90
        1
176
     1
 40
0.5
176
     1
 40
30.0
176
     1
 62
     7
420
 16777215
176
     1
 90
        1
176
     1
 90
        0
176
     1
 62
     7
176
     1
 62
   257
176
     1
 90
        1
176
     1
 90
        1
176
     1
 40
1.0
176
     1
 90
        8
176
     1
 62
     7
176
     1
 40
1.0
176
     1
 90
        1
176
     1
 90
        6
176
     1
 90
        2
176
     1
 62
     7
176
     1
 90
        3
176
     1
 90
        0
176
     1
 90
        0
176
     1
290
     0
176
     1
 90
       13
176
     1
 40
0.0
176
     1
 90
        0
176
     1
290
     0
176
     1
290
     1
176
     1
290
     1
176
     1
290
     0
176
     1
290
     0
176
     1
290
     0
176
     1
290
     0
176
     1
290
     0
176
     1
290
     0
176
     1
 90
       50
176
     1
 40
0.0
176
     1
 40
1.0
176
     1
 90
        0
176
     1
 62
    18
420
        0
176
     1
 90
       50
176
     1
 90
        3
176
     1
 62
     5
420
      255
176
     1
290
     0
176
     1
 90
       50
176
     1
 90
       50
176
     1
 90
       50
176
     1
290
     0
176
     1
 90
       50
176
     1
 62
   256
176
     0
 40
1.0
176
     0
 90
        2
176
     1
  1
strokes_ogs.tif
176
     1
290
     0
176
     1
 40
1.0
176
     1
 40
1.0
176
     1
  0
DICTIONARYVAR
  5
180
102
{ACAD_REACTORS
330
17F
102
}
330
17F
100
DictionaryVariables
280
     0
  1
1:1
  0
DICTIONARYVAR
  5
185
102
{ACAD_REACTORS
330
17F
102
}
330
17F
100
DictionaryVariables
280
     0
  1
Standard
  0
DICTIONARYVAR
  5
184
102
{ACAD_REACTORS
330
17F
102
}
330
17F
100
DictionaryVariables
280
     0
  1
Standard
  0
DICTIONARY
  5
181
330
6A
100
AcDbDictionary
280
     1
281
     1
  3
ACAD_ROUNDTRIP_2008_TABLESTYLE_CELLSTYLEMAP
360
182
  0
CELLSTYLEMAP
  5
182
102
{ACAD_REACTORS
330
181
102
}
330
181
100
AcDbCellStyleMap
 90
        3
300
CELLSTYLE
  1
TABLEFORMAT_BEGIN
 90
        5
170
     1
 91
        0
 92
    32768
 62
   257
 93
        1
300
CONTENTFORMAT
  1
CONTENTFORMAT_BEGIN
 90
        0
 91
        0
 92
        4
 93
        0
300

 40
0.0
140
1.0
 94
        5
 62
     0
340
11
144
6.0
309
CONTENTFORMAT_END
171
     1
301
MARGIN
  1
CELLMARGIN_BEGIN
 40
1.5
 40
1.5
 40
1.5
 40
1.5
 40
1.5
 40
1.5
309
CELLMARGIN_END
 94
        6
 95
        1
302
GRIDFORMAT
  1
GRIDFORMAT_BEGIN
 90
        0
 91
        1
 62
     0
 92
       -2
340
14
 93
        0
 40
0.045
309
GRIDFORMAT_END
 95
        2
302
GRIDFORMAT
  1
GRIDFORMAT_BEGIN
 90
        0
 91
        1
 62
     0
 92
       -2
340
14
 93
        0
 40
0.045
309
GRIDFORMAT_END
 95
        4
302
GRIDFORMAT
  1
GRIDFORMAT_BEGIN
 90
        0
 91
        1
 62
     0
 92
       -2
340
14
 93
        0
 40
0.045
309
GRIDFORMAT_END
 95
        8
302
GRIDFORMAT
  1
GRIDFORMAT_BEGIN
 90
        0
 91
        1
 62
     0
 92
       -2
340
14
 93
        0
 40
0.045
309
GRIDFORMAT_END
 95
       16
302
GRIDFORMAT
  1
GRIDFORMAT_BEGIN
 90
        0
 91
        1
 62
     0
 92
       -2
340
14
 93
        0
 40
0.045
309
GRIDFORMAT_END
 95
       32
302
GRIDFORMAT
  1
GRIDFORMAT_BEGIN
 90
        0
 91
        1
 62
     0
 92
       -2
340
14
 93
        0
 40
0.045
309
GRIDFORMAT_END
309
TABLEFORMAT_END
  1
CELLSTYLE_BEGIN
 90
        1
 91
        1
300
_TITLE
309
CELLSTYLE_END
300
CELLSTYLE
  1
TABLEFORMAT_BEGIN
 90
        5
170
     1
 91
        0
 92
        0
 62
   257
 93
        1
300
CONTENTFORMAT
  1
CONTENTFORMAT_BEGIN
 90
        0
 91
        0
 92
        4
 93
        0
300

 40
0.0
140
1.0
 94
        5
 62
     0
340
11
144
4.5
309
CONTENTFORMAT_END
171
     1
301
MARGIN
  1
CELLMARGIN_BEGIN
 40
1.5
 40
1.5
 40
1.5
 40
1.5
 40
1.5
 40
1.5
309
CELLMARGIN_END
 94
        6
 95
        1
302
GRIDFORMAT
  1
GRIDFORMAT_BEGIN
 90
        0
 91
        1
 62
     0
 92
       -2
340
14
 93
        0
 40
0.045
309
GRIDFORMAT_END
 95
        2
302
GRIDFORMAT
  1
GRIDFORMAT_BEGIN
 90
        0
 91
        1
 62
     0
 92
       -2
340
14
 93
        0
 40
0.045
309
GRIDFORMAT_END
 95
        4
302
GRIDFORMAT
  1
GRIDFORMAT_BEGIN
 90
        0
 91
        1
 62
     0
 92
       -2
340
14
 93
        0
 40
0.045
309
GRIDFORMAT_END
 95
        8
302
GRIDFORMAT
  1
GRIDFORMAT_BEGIN
 90
        0
 91
        1
 62
     0
 92
       -2
340
14
 93
        0
 40
0.045
309
GRIDFORMAT_END
 95
       16
302
GRIDFORMAT
  1
GRIDFORMAT_BEGIN
 90
        0
 91
        1
 62
     0
 92
       -2
340
14
 93
        0
 40
0.045
309
GRIDFORMAT_END
 95
       32
302
GRIDFORMAT
  1
GRIDFORMAT_BEGIN
 90
        0
 91
        1
 62
     0
 92
       -2
340
14
 93
        0
 40
0.045
309
GRIDFORMAT_END
309
TABLEFORMAT_END
  1
CELLSTYLE_BEGIN
 90
        2
 91
        1
300
_HEADER
309
CELLSTYLE_END
300
CELLSTYLE
  1
TABLEFORMAT_BEGIN
 90
        5
170
     1
 91
        0
 92
        0
 62
   257
 93
        1
300
CONTENTFORMAT
  1
CONTENTFORMAT_BEGIN
 90
        0
 91
        0
 92
        4
 93
        0
300

 40
0.0
140
1.0
 94
        2
 62
     0
340
11
144
4.5
309
CONTENTFORMAT_END
171
     1
301
MARGIN
  1
CELLMARGIN_BEGIN
 40
1.5
 40
1.5
 40
1.5
 40
1.5
 40
1.5
 40
1.5
309
CELLMARGIN_END
 94
        6
 95
        1
302
GRIDFORMAT
  1
GRIDFORMAT_BEGIN
 90
        0
 91
        1
 62
     0
 92
       -2
340
14
 93
        0
 40
0.045
309
GRIDFORMAT_END
 95
        2
302
GRIDFORMAT
  1
GRIDFORMAT_BEGIN
 90
        0
 91
        1
 62
     0
 92
       -2
340
14
 93
        0
 40
0.045
309
GRIDFORMAT_END
 95
        4
302
GRIDFORMAT
  1
GRIDFORMAT_BEGIN
 90
        0
 91
        1
 62
     0
 92
       -2
340
14
 93
        0
 40
0.045
309
GRIDFORMAT_END
 95
        8
302
GRIDFORMAT
  1
GRIDFORMAT_BEGIN
 90
        0
 91
        1
 62
     0
 92
       -2
340
14
 93
        0
 40
0.045
309
GRIDFORMAT_END
 95
       16
302
GRIDFORMAT
  1
GRIDFORMAT_BEGIN
 90
        0
 91
        1
 62
     0
 92
       -2
340
14
 93
        0
 40
0.045
309
GRIDFORMAT_END
 95
       32
302
GRIDFORMAT
  1
GRIDFORMAT_BEGIN
 90
        0
 91
        1
 62
     0
 92
       -2
340
14
 93
        0
 40
0.045
309
GRIDFORMAT_END
309
TABLEFORMAT_END
  1
CELLSTYLE_BEGIN
 90
        3
 91
        2
300
_DATA
309
CELLSTYLE_END
  0
ENDSEC
  0
EOF
