  0
SECTION
  2
HEADER
  9
$ACADVER
  1
AC1015
  9
$ACADMAINTVER
 70
     6
  9
$DWGCODEPAGE
  3
ANSI_1252
  9
$INSBASE
 10
0.0
 20
0.0
 30
0.0
  9
$EXTMIN
 10
0.0
 20
0.0
 30
0.0
  9
$EXTMAX
 10
450.0
 20
250.0
 30
0.0
  9
$LIMMIN
 10
0.0
 20
0.0
  9
$LIMMAX
 10
420.0
 20
297.0
  9
$ORTHOMODE
 70
     0
  9
$REGENMODE
 70
     1
  9
$FILLMODE
 70
     1
  9
$QTEXTMODE
 70
     0
  9
$MIRRTEXT
 70
     1
  9
$LTSCALE
 40
1.0
  9
$ATTMODE
 70
     1
  9
$TEXTSIZE
 40
3.5
  9
$TRACEWID
 40
1.0
  9
$TEXTSTYLE
  7
STANDARD
  9
$CLAYER
  8
0
  9
$CELTYPE
  6
ByLayer
  9
$CECOLOR
 62
   256
  9
$CELTSCALE
 40
1.0
  9
$DISPSILH
 70
     0
  9
$DIMSCALE
 40
1.0
  9
$DIMASZ
 40
6.0
  9
$DIMEXO
 40
1.0
  9
$DIMDLI
 40
3.75
  9
$DIMRND
 40
0.0
  9
$DIMDLE
 40
0.0
  9
$DIMEXE
 40
1.0
  9
$DIMTP
 40
0.0
  9
$DIMTM
 40
0.0
  9
$DIMTXT
 40
3.5
  9
$DIMCEN
 40
2.5
  9
$DIMTSZ
 40
0.0
  9
$DIMTOL
 70
     0
  9
$DIMLIM
 70
     0
  9
$DIMTIH
 70
     1
  9
$DIMTOH
 70
     1
  9
$DIMSE1
 70
     0
  9
$DIMSE2
 70
     0
  9
$DIMTAD
 70
     1
  9
$DIMZIN
 70
     0
  9
$DIMBLK
  1

  9
$DIMASO
 70
     1
  9
$DIMSHO
 70
     1
  9
$DIMPOST
  1

  9
$DIMAPOST
  1

  9
$DIMALT
 70
     0
  9
$DIMALTD
 70
     3
  9
$DIMALTF
 40
0.0393700787
  9
$DIMLFAC
 40
1.0
  9
$DIMTOFL
 70
     1
  9
$DIMTVP
 40
0.0
  9
$DIMTIX
 70
     0
  9
$DIMSOXD
 70
     0
  9
$DIMSAH
 70
     0
  9
$DIMBLK1
  1

  9
$DIMBLK2
  1

  9
$DIMSTYLE
  2
ISO-25
  9
$DIMCLRD
 70
     0
  9
$DIMCLRE
 70
     0
  9
$DIMCLRT
 70
     0
  9
$DIMTFAC
 40
1.0
  9
$DIMGAP
 40
1.524
  9
$DIMJUST
 70
     0
  9
$DIMSD1
 70
     0
  9
$DIMSD2
 70
     0
  9
$DIMTOLJ
 70
     0
  9
$DIMTZIN
 70
     0
  9
$DIMALTZ
 70
     0
  9
$DIMALTTZ
 70
     0
  9
$DIMUPT
 70
     0
  9
$DIMDEC
 70
     2
  9
$DIMTDEC
 70
     2
  9
$DIMALTU
 70
     2
  9
$DIMALTTD
 70
     3
  9
$DIMTXSTY
  7
STANDARD
  9
$DIMAUNIT
 70
     0
  9
$DIMADEC
 70
     2
  9
$DIMALTRND
 40
0.0
  9
$DIMAZIN
 70
     0
  9
$DIMDSEP
 70
    44
  9
$DIMATFIT
 70
     3
  9
$DIMFRAC
 70
     0
  9
$DIMLDRBLK
  1

  9
$DIMLUNIT
 70
     2
  9
$DIMLWD
 70
    -2
  9
$DIMLWE
 70
    -2
  9
$DIMTMOVE
 70
     0
  9
$LUNITS
 70
     2
  9
$LUPREC
 70
     2
  9
$SKETCHINC
 40
1.0
  9
$FILLETRAD
 40
10.0
  9
$AUNITS
 70
     0
  9
$AUPREC
 70
     2
  9
$MENU
  1
.
  9
$ELEVATION
 40
0.0
  9
$PELEVATION
 40
0.0
  9
$THICKNESS
 40
0.0
  9
$LIMCHECK
 70
     0
  9
$CHAMFERA
 40
0.0
  9
$CHAMFERB
 40
0.0
  9
$CHAMFERC
 40
0.0
  9
$CHAMFERD
 40
0.0
  9
$SKPOLY
 70
     0
  9
$TDCREATE
 40
2458382.464241181
  9
$TDUCREATE
 40
2458382.380907847
  9
$TDUPDATE
 40
2458382.464268762
  9
$TDUUPDATE
 40
2458382.380935428
  9
$TDINDWG
 40
0.0000000116
  9
$TDUSRTIMER
 40
0.0000000116
  9
$USRTIMER
 70
     1
  9
$ANGBASE
 50
0.0
  9
$ANGDIR
 70
     0
  9
$PDMODE
 70
     0
  9
$PDSIZE
 40
-1.0
  9
$PLINEWID
 40
0.0
  9
$SPLFRAME
 70
     0
  9
$SPLINETYPE
 70
     6
  9
$SPLINESEGS
 70
     8
  9
$HANDSEED
  5
181
  9
$SURFTAB1
 70
     6
  9
$SURFTAB2
 70
     6
  9
$SURFTYPE
 70
     6
  9
$SURFU
 70
     6
  9
$SURFV
 70
     6
  9
$UCSBASE
  2

  9
$UCSNAME
  2

  9
$UCSORG
 10
0.0
 20
0.0
 30
0.0
  9
$UCSXDIR
 10
1.0
 20
0.0
 30
0.0
  9
$UCSYDIR
 10
0.0
 20
1.0
 30
0.0
  9
$UCSORTHOREF
  2

  9
$UCSORTHOVIEW
 70
     0
  9
$UCSORGTOP
 10
0.0
 20
0.0
 30
0.0
  9
$UCSORGBOTTOM
 10
0.0
 20
0.0
 30
0.0
  9
$UCSORGLEFT
 10
0.0
 20
0.0
 30
0.0
  9
$UCSORGRIGHT
 10
0.0
 20
0.0
 30
0.0
  9
$UCSORGFRONT
 10
0.0
 20
0.0
 30
0.0
  9
$UCSORGBACK
 10
0.0
 20
0.0
 30
0.0
  9
$PUCSBASE
  2

  9
$PUCSNAME
  2

  9
$PUCSORG
 10
0.0
 20
0.0
 30
0.0
  9
$PUCSXDIR
 10
1.0
 20
0.0
 30
0.0
  9
$PUCSYDIR
 10
0.0
 20
1.0
 30
0.0
  9
$PUCSORTHOREF
  2

  9
$PUCSORTHOVIEW
 70
     0
  9
$PUCSORGTOP
 10
0.0
 20
0.0
 30
0.0
  9
$PUCSORGBOTTOM
 10
0.0
 20
0.0
 30
0.0
  9
$PUCSORGLEFT
 10
0.0
 20
0.0
 30
0.0
  9
$PUCSORGRIGHT
 10
0.0
 20
0.0
 30
0.0
  9
$PUCSORGFRONT
 10
0.0
 20
0.0
 30
0.0
  9
$PUCSORGBACK
 10
0.0
 20
0.0
 30
0.0
  9
$USERI1
 70
     0
  9
$USERI2
 70
     0
  9
$USERI3
 70
     0
  9
$USERI4
 70
     0
  9
$USERI5
 70
     0
  9
$USERR1
 40
0.0
  9
$USERR2
 40
0.0
  9
$USERR3
 40
0.0
  9
$USERR4
 40
0.0
  9
$USERR5
 40
0.0
  9
$WORLDVIEW
 70
     1
  9
$SHADEDGE
 70
     3
  9
$SHADEDIF
 70
    70
  9
$TILEMODE
 70
     1
  9
$MAXACTVP
 70
    64
  9
$PINSBASE
 10
0.0
 20
0.0
 30
0.0
  9
$PLIMCHECK
 70
     0
  9
$PEXTMIN
 10
0.0
 20
0.0
 30
0.0
  9
$PEXTMAX
 10
450.0
 20
170.0
 30
0.0
  9
$PLIMMIN
 10
-35.0194552529
 20
-13.1322957198
  9
$PLIMMAX
 10
485.0194552529
 20
354.5719844358
  9
$UNITMODE
 70
     0
  9
$VISRETAIN
 70
     1
  9
$PLINEGEN
 70
     0
  9
$PSLTSCALE
 70
     1
  9
$TREEDEPTH
 70
  3020
  9
$CMLSTYLE
  2
Standard
  9
$CMLJUST
 70
     0
  9
$CMLSCALE
 40
20.0
  9
$PROXYGRAPHICS
 70
     1
  9
$MEASUREMENT
 70
     1
  9
$CELWEIGHT
370
    -1
  9
$ENDCAPS
280
     0
  9
$JOINSTYLE
280
     0
  9
$LWDISPLAY
290
     1
  9
$INSUNITS
 70
     4
  9
$HYPERLINKBASE
  1

  9
$STYLESHEET
  1

  9
$XEDIT
290
     1
  9
$CEPSNTYPE
380
     0
  9
$PSTYLEMODE
290
     1
  9
$FINGERPRINTGUID
  2
{765665D9-55B1-45B4-8699-4AFD1845A46B}
  9
$VERSIONGUID
  2
{FAEB1C32-E019-11D5-929B-00C0DF256EC4}
  9
$EXTNAMES
290
     1
  9
$PSVPSCALE
 40
0.0
  9
$OLESTARTUP
290
     0
  0
ENDSEC
  0
SECTION
  2
CLASSES
  0
CLASS
  1
ACDBDICTIONARYWDFLT
  2
AcDbDictionaryWithDefault
  3
ObjectDBX Classes
 90
        0
280
     0
281
     0
  0
CLASS
  1
VISUALSTYLE
  2
AcDbVisualStyle
  3
ObjectDBX Classes
 90
     4095
280
     0
281
     0
  0
CLASS
  1
MATERIAL
  2
AcDbMaterial
  3
ObjectDBX Classes
 90
     1153
280
     0
281
     0
  0
CLASS
  1
SCALE
  2
AcDbScale
  3
ObjectDBX Classes
 90
     1153
280
     0
281
     0
  0
CLASS
  1
TABLESTYLE
  2
AcDbTableStyle
  3
ObjectDBX Classes
 90
     4095
280
     0
281
     0
  0
CLASS
  1
MLEADERSTYLE
  2
AcDbMLeaderStyle
  3
ACDB_MLEADERSTYLE_CLASS
 90
     4095
280
     0
281
     0
  0
CLASS
  1
SUN
  2
AcDbSun
  3
SCENEOE
 90
     1153
280
     0
281
     0
  0
CLASS
  1
ACDBPLACEHOLDER
  2
AcDbPlaceHolder
  3
ObjectDBX Classes
 90
        0
280
     0
281
     0
  0
CLASS
  1
LAYOUT
  2
AcDbLayout
  3
ObjectDBX Classes
 90
        0
280
     0
281
     0
  0
ENDSEC
  0
SECTION
  2
TABLES
  0
TABLE
  2
VPORT
  5
8
330
0
100
AcDbSymbolTable
 70
     1
  0
VPORT
  5
29
330
8
100
AcDbSymbolTableRecord
100
AcDbViewportTableRecord
  2
*Active
 70
     0
 10
0.0
 20
0.0
 11
1.0
 21
1.0
 12
225.0
 22
125.0
 13
0.0
 23
0.0
 14
10.0
 24
10.0
 15
10.0
 25
10.0
 16
0.0
 26
0.0
 36
1.0
 17
0.0
 27
0.0
 37
0.0
 40
255.0
 41
1.8
 42
50.0
 43
0.0
 44
0.0
 50
0.0
 51
0.0
 71
     0
 72
   100
 73
     1
 74
     3
 75
     0
 76
     0
 77
     0
 78
     0
281
     0
 65
     1
110
0.0
120
0.0
130
0.0
111
1.0
121
0.0
131
0.0
112
0.0
122
1.0
132
0.0
 79
     0
146
0.0
  0
ENDTAB
  0
TABLE
  2
LTYPE
  5
5
330
0
100
AcDbSymbolTable
 70
     6
  0
LTYPE
  5
14
330
5
100
AcDbSymbolTableRecord
100
AcDbLinetypeTableRecord
  2
ByBlock
 70
     0
  3

 72
    65
 73
     0
 40
0.0
  0
LTYPE
  5
15
330
5
100
AcDbSymbolTableRecord
100
AcDbLinetypeTableRecord
  2
ByLayer
 70
     0
  3

 72
    65
 73
     0
 40
0.0
  0
LTYPE
  5
16
330
5
100
AcDbSymbolTableRecord
100
AcDbLinetypeTableRecord
  2
Continuous
 70
     0
  3
Solid line
 72
    65
 73
     0
 40
0.0
  0
LTYPE
  5
6E
330
5
100
AcDbSymbolTableRecord
100
AcDbLinetypeTableRecord
  2
HIDDEN
 70
     0
  3
Hidden __ __ __ __ __ __ __ __ __ __ __ __ __ __
 72
    65
 73
     2
 40
1.905
 49
1.27
 74
     0
 49
-0.635
 74
     0
  0
LTYPE
  5
6F
330
5
100
AcDbSymbolTableRecord
100
AcDbLinetypeTableRecord
  2
PHANTOM
 70
     0
  3
Phantom ______  __  __  ______  __  __  ______
 72
    65
 73
     6
 40
12.7
 49
6.35
 74
     0
 49
-1.27
 74
     0
 49
1.27
 74
     0
 49
-1.27
 74
     0
 49
1.27
 74
     0
 49
-1.27
 74
     0
  0
LTYPE
  5
70
330
5
100
AcDbSymbolTableRecord
100
AcDbLinetypeTableRecord
  2
CENTER
 70
     0
  3
Center ____ _ ____ _ ____ _ ____ _ ____ _ ____
 72
    65
 73
     4
 40
10.16
 49
6.35
 74
     0
 49
-1.27
 74
     0
 49
1.27
 74
     0
 49
-1.27
 74
     0
  0
LTYPE
  5
71
330
5
100
AcDbSymbolTableRecord
100
AcDbLinetypeTableRecord
  2
CENTERX2
 70
     0
  3
Center (2x) ________  __  ________  __  _____
 72
    65
 73
     4
 40
20.32
 49
12.7
 74
     0
 49
-2.54
 74
     0
 49
2.54
 74
     0
 49
-2.54
 74
     0
  0
LTYPE
  5
72
330
5
100
AcDbSymbolTableRecord
100
AcDbLinetypeTableRecord
  2
DOT2
 70
     0
  3
Dot (.5x) ........................................
 72
    65
 73
     2
 40
0.635
 49
0.0
 74
     0
 49
-0.635
 74
     0
  0
ENDTAB
  0
TABLE
  2
LAYER
  5
2
330
0
100
AcDbSymbolTable
 70
     1
  0
LAYER
  5
10
330
2
100
AcDbSymbolTableRecord
100
AcDbLayerTableRecord
  2
0
 70
     0
 62
     7
  6
Continuous
370
    -3
390
F
  0
ENDTAB
  0
TABLE
  2
STYLE
  5
3
330
0
100
AcDbSymbolTable
 70
     1
  0
STYLE
  5
11
330
3
100
AcDbSymbolTableRecord
100
AcDbTextStyleTableRecord
  2
STANDARD
 70
     0
 40
0.0
 41
1.0
 50
0.0
 71
     0
 42
3.5
  3
GOTHIC.TTF
  4

1001
ACAD
1000
CENTURY GOTHIC
1071
       34
  0
ENDTAB
  0
TABLE
  2
VIEW
  5
6
330
0
100
AcDbSymbolTable
 70
     0
  0
ENDTAB
  0
TABLE
  2
UCS
  5
7
330
0
100
AcDbSymbolTable
 70
     0
  0
ENDTAB
  0
TABLE
  2
APPID
  5
9
330
0
100
AcDbSymbolTable
 70
     1
  0
APPID
  5
12
330
9
100
AcDbSymbolTableRecord
100
AcDbRegAppTableRecord
  2
ACAD
 70
     0
  0
ENDTAB
  0
TABLE
  2
DIMSTYLE
  5
A
330
0
100
AcDbSymbolTable
 70
     1
100
AcDbDimStyleTable
  0
DIMSTYLE
105
27
330
A
100
AcDbSymbolTableRecord
100
AcDbDimStyleTableRecord
  2
ISO-25
 70
     0
 41
2.5
 42
0.625
 43
3.75
 44
1.25
 73
     0
 74
     0
 77
     1
 78
     8
140
2.5
141
2.5
143
0.0393700787
147
0.625
171
     3
172
     1
178
     0
271
     2
272
     2
274
     3
278
    44
283
     0
284
     8
340
11
  0
ENDTAB
  0
TABLE
  2
BLOCK_RECORD
  5
1
330
0
100
AcDbSymbolTable
 70
     8
  0
BLOCK_RECORD
  5
1F
330
1
100
AcDbSymbolTableRecord
100
AcDbBlockTableRecord
  2
*Model_Space
340
22
  0
BLOCK_RECORD
  5
1B
330
1
100
AcDbSymbolTableRecord
100
AcDbBlockTableRecord
  2
*Paper_Space
340
1E
  0
BLOCK_RECORD
  5
23
330
1
100
AcDbSymbolTableRecord
100
AcDbBlockTableRecord
  2
*Paper_Space0
340
26
  0
BLOCK_RECORD
  5
A9
330
1
100
AcDbSymbolTableRecord
100
AcDbBlockTableRecord
  2
*Paper_Space1
340
AA
  0
BLOCK_RECORD
  5
B5
330
1
100
AcDbSymbolTableRecord
100
AcDbBlockTableRecord
  2
*Paper_Space2
340
B6
  0
BLOCK_RECORD
  5
CF
330
1
100
AcDbSymbolTableRecord
100
AcDbBlockTableRecord
  2
*Paper_Space3
340
D0
  0
BLOCK_RECORD
  5
DB
330
1
100
AcDbSymbolTableRecord
100
AcDbBlockTableRecord
  2
*Paper_Space4
340
DC
  0
BLOCK_RECORD
  5
FC
330
1
100
AcDbSymbolTableRecord
100
AcDbBlockTableRecord
  2
*Paper_Space5
340
FD
  0
BLOCK_RECORD
  5
125
330
1
100
AcDbSymbolTableRecord
100
AcDbBlockTableRecord
  2
*Paper_Space6
340
126
  0
BLOCK_RECORD
  5
14E
330
1
100
AcDbSymbolTableRecord
100
AcDbBlockTableRecord
  2
*Paper_Space7
340
14F
  0
ENDTAB
  0
ENDSEC
  0
SECTION
  2
BLOCKS
  0
BLOCK
  5
20
330
1F
100
AcDbEntity
  8
0
100
AcDbBlockBegin
  2
*Model_Space
 70
     0
 10
0.0
 20
0.0
 30
0.0
  3
*Model_Space
  1

  0
ENDBLK
  5
21
330
1F
100
AcDbEntity
  8
0
100
AcDbBlockEnd
  0
BLOCK
  5
1C
330
1B
100
AcDbEntity
 67
     1
  8
0
100
AcDbBlockBegin
  2
*Paper_Space
 70
     0
 10
0.0
 20
0.0
 30
0.0
  3
*Paper_Space
  1

  0
ENDBLK
  5
1D
330
1B
100
AcDbEntity
 67
     1
  8
0
100
AcDbBlockEnd
  0
BLOCK
  5
24
330
23
100
AcDbEntity
  8
0
100
AcDbBlockBegin
  2
*Paper_Space0
 70
     0
 10
0.0
 20
0.0
 30
0.0
  3
*Paper_Space0
  1

  0
LINE
  5
A5
330
23
100
AcDbEntity
  8
0
  6
Continuous
 62
     7
370
    25
100
AcDbLine
 10
0.0
 20
170.0
 30
0.0
 11
0.0
 21
0.0
 31
0.0
  0
LINE
  5
A6
330
23
100
AcDbEntity
  8
0
  6
Continuous
 62
     7
370
    25
100
AcDbLine
 10
0.0
 20
170.0
 30
0.0
 11
250.0
 21
170.0
 31
0.0
  0
LINE
  5
A7
330
23
100
AcDbEntity
  8
0
  6
Continuous
 62
     7
370
    25
100
AcDbLine
 10
250.0
 20
170.0
 30
0.0
 11
250.0
 21
0.0
 31
0.0
  0
LINE
  5
A8
330
23
100
AcDbEntity
  8
0
  6
Continuous
 62
     7
370
    25
100
AcDbLine
 10
0.0
 20
0.0
 30
0.0
 11
250.0
 21
0.0
 31
0.0
  0
VIEWPORT
  5
171
330
23
100
AcDbEntity
  8
0
100
AcDbViewport
 10
0.0
 20
0.0
 30
0.0
 40
205.6
 41
156.0
 68
     1
 69
     1
 12
225.0
 22
125.0
 13
0.0
 23
0.0
 14
10.0
 24
10.0
 15
10.0
 25
10.0
 16
0.0
 26
0.0
 36
1.0
 17
0.0
 27
0.0
 37
0.0
 42
50.0
 43
0.0
 44
0.0
 45
348.2684824903
 50
0.0
 51
0.0
 72
   100
 90
   557152
  1

281
     0
 71
     1
 74
     0
110
0.0
120
0.0
130
0.0
111
1.0
121
0.0
131
0.0
112
0.0
122
1.0
132
0.0
 79
     0
146
0.0
  0
ENDBLK
  5
25
330
23
100
AcDbEntity
  8
0
100
AcDbBlockEnd
  0
BLOCK
  5
AB
330
A9
100
AcDbEntity
  8
0
100
AcDbBlockBegin
  2
*Paper_Space1
 70
     0
 10
0.0
 20
0.0
 30
0.0
  3
*Paper_Space1
  1

  0
LINE
  5
B1
330
A9
100
AcDbEntity
  8
0
  6
Continuous
 62
     7
370
    25
100
AcDbLine
 10
0.0
 20
170.0
 30
0.0
 11
450.0
 21
170.0
 31
0.0
  0
LINE
  5
B2
330
A9
100
AcDbEntity
  8
0
  6
Continuous
 62
     7
370
    25
100
AcDbLine
 10
450.0
 20
170.0
 30
0.0
 11
450.0
 21
0.0
 31
0.0
  0
LINE
  5
B3
330
A9
100
AcDbEntity
  8
0
  6
Continuous
 62
     7
370
    25
100
AcDbLine
 10
0.0
 20
170.0
 30
0.0
 11
0.0
 21
0.0
 31
0.0
  0
LINE
  5
B4
330
A9
100
AcDbEntity
  8
0
  6
Continuous
 62
     7
370
    25
100
AcDbLine
 10
0.0
 20
0.0
 30
0.0
 11
450.0
 21
0.0
 31
0.0
  0
VIEWPORT
  5
173
330
A9
100
AcDbEntity
  8
0
100
AcDbViewport
 10
0.0
 20
0.0
 30
0.0
 40
205.6
 41
156.0
 68
     1
 69
     1
 12
225.0
 22
125.0
 13
0.0
 23
0.0
 14
10.0
 24
10.0
 15
10.0
 25
10.0
 16
0.0
 26
0.0
 36
1.0
 17
0.0
 27
0.0
 37
0.0
 42
50.0
 43
0.0
 44
0.0
 45
348.2684824903
 50
0.0
 51
0.0
 72
   100
 90
   557152
  1

281
     0
 71
     1
 74
     0
110
0.0
120
0.0
130
0.0
111
1.0
121
0.0
131
0.0
112
0.0
122
1.0
132
0.0
 79
     0
146
0.0
  0
ENDBLK
  5
AC
330
A9
100
AcDbEntity
  8
0
100
AcDbBlockEnd
  0
BLOCK
  5
B7
330
B5
100
AcDbEntity
  8
0
100
AcDbBlockBegin
  2
*Paper_Space2
 70
     0
 10
0.0
 20
0.0
 30
0.0
  3
*Paper_Space2
  1

  0
CIRCLE
  5
C4
330
B5
100
AcDbEntity
  8
0
  6
Continuous
 62
     7
370
    25
100
AcDbCircle
 10
-60.0
 20
110.0
 30
0.0
 40
2.75
  0
CIRCLE
  5
C5
330
B5
100
AcDbEntity
  8
0
  6
Continuous
 62
     7
370
    25
100
AcDbCircle
 10
-225.0
 20
40.0
 30
0.0
 40
2.750000000000028
  0
CIRCLE
  5
C6
330
B5
100
AcDbEntity
  8
0
  6
Continuous
 62
     7
370
    25
100
AcDbCircle
 10
-390.0
 20
110.0
 30
0.0
 40
2.75
  0
LINE
  5
C8
330
B5
100
AcDbEntity
  8
0
  6
Continuous
 62
     7
370
    25
100
AcDbLine
 10
-450.0
 20
170.0
 30
0.0
 11
0.0
 21
170.0
 31
0.0
  0
LINE
  5
C9
330
B5
100
AcDbEntity
  8
0
  6
Continuous
 62
     7
370
    25
100
AcDbLine
 10
0.0
 20
170.0
 30
0.0
 11
0.0
 21
0.0
 31
0.0
  0
LINE
  5
CA
330
B5
100
AcDbEntity
  8
0
  6
Continuous
 62
     7
370
    25
100
AcDbLine
 10
-430.0
 20
140.0
 30
0.0
 11
-20.0
 21
140.0
 31
0.0
  0
LINE
  5
CB
330
B5
100
AcDbEntity
  8
0
  6
Continuous
 62
     7
370
    25
100
AcDbLine
 10
-450.0
 20
170.0
 30
0.0
 11
-450.0
 21
0.0
 31
0.0
  0
LINE
  5
CC
330
B5
100
AcDbEntity
  8
0
  6
Continuous
 62
     7
370
    25
100
AcDbLine
 10
-20.0
 20
140.0
 30
0.0
 11
-20.0
 21
0.0
 31
0.0
  0
LINE
  5
CD
330
B5
100
AcDbEntity
  8
0
  6
Continuous
 62
     7
370
    25
100
AcDbLine
 10
-430.0
 20
140.0
 30
0.0
 11
-430.0
 21
0.0
 31
0.0
  0
LINE
  5
CE
330
B5
100
AcDbEntity
  8
0
  6
Continuous
 62
     7
370
    25
100
AcDbLine
 10
-450.0
 20
0.0
 30
0.0
 11
0.0
 21
0.0
 31
0.0
  0
VIEWPORT
  5
175
330
B5
100
AcDbEntity
  8
0
100
AcDbViewport
 10
0.0
 20
0.0
 30
0.0
 40
205.6
 41
156.0
 68
     1
 69
     1
 12
225.0
 22
125.0
 13
0.0
 23
0.0
 14
10.0
 24
10.0
 15
10.0
 25
10.0
 16
0.0
 26
0.0
 36
1.0
 17
0.0
 27
0.0
 37
0.0
 42
50.0
 43
0.0
 44
0.0
 45
348.2684824903
 50
0.0
 51
0.0
 72
   100
 90
   557152
  1

281
     0
 71
     1
 74
     0
110
0.0
120
0.0
130
0.0
111
1.0
121
0.0
131
0.0
112
0.0
122
1.0
132
0.0
 79
     0
146
0.0
  0
ENDBLK
  5
B8
330
B5
100
AcDbEntity
  8
0
100
AcDbBlockEnd
  0
BLOCK
  5
D1
330
CF
100
AcDbEntity
  8
0
100
AcDbBlockBegin
  2
*Paper_Space3
 70
     0
 10
0.0
 20
0.0
 30
0.0
  3
*Paper_Space3
  1

  0
LINE
  5
D7
330
CF
100
AcDbEntity
  8
0
  6
Continuous
 62
     7
370
    25
100
AcDbLine
 10
-250.0
 20
170.0
 30
0.0
 11
-250.0
 21
0.0
 31
0.0
  0
LINE
  5
D8
330
CF
100
AcDbEntity
  8
0
  6
Continuous
 62
     7
370
    25
100
AcDbLine
 10
-250.0
 20
170.0
 30
0.0
 11
0.0
 21
170.0
 31
0.0
  0
LINE
  5
D9
330
CF
100
AcDbEntity
  8
0
  6
Continuous
 62
     7
370
    25
100
AcDbLine
 10
0.0
 20
170.0
 30
0.0
 11
0.0
 21
0.0
 31
0.0
  0
LINE
  5
DA
330
CF
100
AcDbEntity
  8
0
  6
Continuous
 62
     7
370
    25
100
AcDbLine
 10
-250.0
 20
0.0
 30
0.0
 11
0.0
 21
0.0
 31
0.0
  0
VIEWPORT
  5
177
330
CF
100
AcDbEntity
  8
0
100
AcDbViewport
 10
0.0
 20
0.0
 30
0.0
 40
205.6
 41
156.0
 68
     1
 69
     1
 12
225.0
 22
125.0
 13
0.0
 23
0.0
 14
10.0
 24
10.0
 15
10.0
 25
10.0
 16
0.0
 26
0.0
 36
1.0
 17
0.0
 27
0.0
 37
0.0
 42
50.0
 43
0.0
 44
0.0
 45
348.2684824903
 50
0.0
 51
0.0
 72
   100
 90
   557152
  1

281
     0
 71
     1
 74
     0
110
0.0
120
0.0
130
0.0
111
1.0
121
0.0
131
0.0
112
0.0
122
1.0
132
0.0
 79
     0
146
0.0
  0
ENDBLK
  5
D2
330
CF
100
AcDbEntity
  8
0
100
AcDbBlockEnd
  0
BLOCK
  5
DD
330
DB
100
AcDbEntity
  8
0
100
AcDbBlockBegin
  2
*Paper_Space4
 70
     0
 10
0.0
 20
0.0
 30
0.0
  3
*Paper_Space4
  1

  0
CIRCLE
  5
DF
330
DB
100
AcDbEntity
  8
0
  6
Continuous
 62
     7
370
    25
100
AcDbCircle
 10
185.0
 20
-125.0
 30
0.0
 40
22.49999999999989
  0
CIRCLE
  5
EA
330
DB
100
AcDbEntity
  8
0
  6
Continuous
 62
     7
370
    25
100
AcDbCircle
 10
400.0
 20
-125.0
 30
0.0
 40
17.49999999999989
  0
CIRCLE
  5
EB
330
DB
100
AcDbEntity
  8
0
  6
Continuous
 62
     7
370
    25
100
AcDbCircle
 10
350.0
 20
-232.0
 30
0.0
 40
4.699999999999932
  0
CIRCLE
  5
EC
330
DB
100
AcDbEntity
  8
0
  6
Continuous
 62
     7
370
    25
100
AcDbCircle
 10
350.0
 20
-232.0
 30
0.0
 40
2.249999999999943
  0
CIRCLE
  5
F1
330
DB
100
AcDbEntity
  8
0
  6
Continuous
 62
     7
370
    25
100
AcDbCircle
 10
100.0
 20
-232.0
 30
0.0
 40
4.700000000000031
  0
CIRCLE
  5
F2
330
DB
100
AcDbEntity
  8
0
  6
Continuous
 62
     7
370
    25
100
AcDbCircle
 10
100.0
 20
-232.0
 30
0.0
 40
2.249999999999986
  0
LINE
  5
F3
330
DB
100
AcDbEntity
  8
0
  6
Continuous
 62
     7
370
    25
100
AcDbLine
 10
0.0
 20
-250.0
 30
0.0
 11
0.0
 21
0.0
 31
0.0
  0
LINE
  5
F4
330
DB
100
AcDbEntity
  8
0
  6
Continuous
 62
     7
370
    25
100
AcDbLine
 10
0.0
 20
0.0
 30
0.0
 11
450.0
 21
0.0
 31
0.0
  0
LINE
  5
F5
330
DB
100
AcDbEntity
  8
0
  6
Continuous
 62
     7
370
    25
100
AcDbLine
 10
450.0
 20
0.0
 30
0.0
 11
450.0
 21
-250.0
 31
0.0
  0
LINE
  5
F6
330
DB
100
AcDbEntity
  8
0
  6
Continuous
 62
     7
370
    25
100
AcDbLine
 10
450.0
 20
-250.0
 30
0.0
 11
0.0
 21
-250.0
 31
0.0
  0
LINE
  5
F7
330
DB
100
AcDbEntity
  8
0
  6
Continuous
 62
     7
370
    25
100
AcDbLine
 10
430.0
 20
-250.0
 30
0.0
 11
430.0
 21
-20.0
 31
0.0
  0
LINE
  5
F8
330
DB
100
AcDbEntity
  8
0
  6
Continuous
 62
     7
370
    25
100
AcDbLine
 10
430.0
 20
-20.0
 30
0.0
 11
370.0
 21
-20.0
 31
0.0
  0
LINE
  5
F9
330
DB
100
AcDbEntity
  8
0
  6
Continuous
 62
     7
370
    25
100
AcDbLine
 10
20.0
 20
-250.0
 30
0.0
 11
20.0
 21
-220.0
 31
0.0
  0
LINE
  5
FA
330
DB
100
AcDbEntity
  8
0
  6
Continuous
 62
     7
370
    25
100
AcDbLine
 10
370.0
 20
-20.0
 30
0.0
 11
370.0
 21
-220.0
 31
0.0
  0
LINE
  5
FB
330
DB
100
AcDbEntity
  8
0
  6
Continuous
 62
     7
370
    25
100
AcDbLine
 10
430.0
 20
-220.0
 30
0.0
 11
20.0
 21
-220.0
 31
0.0
  0
VIEWPORT
  5
179
330
DB
100
AcDbEntity
  8
0
100
AcDbViewport
 10
0.0
 20
0.0
 30
0.0
 40
205.6
 41
156.0
 68
     1
 69
     1
 12
225.0
 22
125.0
 13
0.0
 23
0.0
 14
10.0
 24
10.0
 15
10.0
 25
10.0
 16
0.0
 26
0.0
 36
1.0
 17
0.0
 27
0.0
 37
0.0
 42
50.0
 43
0.0
 44
0.0
 45
348.2684824903
 50
0.0
 51
0.0
 72
   100
 90
   557152
  1

281
     0
 71
     1
 74
     0
110
0.0
120
0.0
130
0.0
111
1.0
121
0.0
131
0.0
112
0.0
122
1.0
132
0.0
 79
     0
146
0.0
  0
ENDBLK
  5
DE
330
DB
100
AcDbEntity
  8
0
100
AcDbBlockEnd
  0
BLOCK
  5
FE
330
FC
100
AcDbEntity
  8
0
100
AcDbBlockBegin
  2
*Paper_Space5
 70
     0
 10
0.0
 20
0.0
 30
0.0
  3
*Paper_Space5
  1

  0
LWPOLYLINE
  5
108
330
FC
100
AcDbEntity
  8
0
  6
Continuous
 62
     7
370
    25
100
AcDbPolyline
 90
       45
 70
   128
 43
0.0
 10
358.8566914522
 20
19.4122516665
 10
360.743700959
 20
18.4683267704
 10
362.8442028553
 20
17.6890399679
 10
365.11543698
 20
17.090255291
 10
367.5111675558
 20
16.684162269
 10
369.982624417
 20
16.4790277847
 10
372.4794958289
 20
16.4790277847
 10
374.9509526901
 20
16.684162269
 10
377.3466832659
 20
17.090255291
 10
379.6179173905
 20
17.6890399679
 10
381.7184192869
 20
18.4683267704
 10
383.6054287937
 20
19.4122516665
 10
385.2405318391
 20
20.5015990674
 10
386.5904424404
 20
21.7141930014
 10
387.6276803104
 20
23.0253485528
 10
388.3311302774
 20
24.4083743756
 10
388.6864721286
 20
25.8351160526
 10
388.6864721286
 20
27.2765292373
 10
388.3311302774
 20
28.7032709143
 10
387.6276803104
 20
30.0862967371
 10
386.5904424404
 20
31.3974522886
 10
385.2405318391
 20
32.6100462225
 10
383.6054287937
 20
33.6993936234
 10
381.7184192869
 20
34.6433185195
 10
379.6179173905
 20
35.422605322
 10
377.3466832659
 20
36.0213899989
 10
374.9509526901
 20
36.4274830209
 10
372.4794958289
 20
36.6326175052
 10
369.982624417
 20
36.6326175052
 10
367.5111675558
 20
36.4274830209
 10
365.11543698
 20
36.0213899989
 10
362.8442028553
 20
35.422605322
 10
360.743700959
 20
34.6433185195
 10
358.8566914522
 20
33.6993936234
 10
357.2215884068
 20
32.6100462225
 10
355.8716778055
 20
31.3974522886
 10
354.8344399354
 20
30.0862967371
 10
354.1309899684
 20
28.7032709143
 10
353.7756481173
 20
27.2765292373
 10
353.7756481173
 20
25.8351160526
 10
354.1309899684
 20
24.4083743756
 10
354.8344399354
 20
23.0253485528
 10
355.8716778055
 20
21.7141930014
 10
357.2215884068
 20
20.5015990674
 10
358.8566914522
 20
19.4122516665
  0
LINE
  5
113
330
FC
100
AcDbEntity
  8
0
  6
Continuous
 62
     7
370
    25
100
AcDbLine
 10
494.9747468306
 20
57.1711268383
 30
0.0
 11
176.7766952966
 21
240.8629519984
 31
0.0
  0
LINE
  5
114
330
FC
100
AcDbEntity
  8
0
  6
Continuous
 62
     7
370
    25
100
AcDbLine
 10
318.1980515339
 20
-44.8798871395
 30
0.0
 11
494.9747468306
 21
57.1711268383
 31
0.0
  0
LINE
  5
115
330
FC
100
AcDbEntity
  8
0
  6
Continuous
 62
     7
370
    25
100
AcDbLine
 10
0.0
 20
138.8119380206
 30
0.0
 11
318.1980515339
 21
-44.8798871395
 31
0.0
  0
LINE
  5
116
330
FC
100
AcDbEntity
  8
0
  6
Continuous
 62
     7
370
    25
100
AcDbLine
 10
176.7766952966
 20
240.8629519984
 30
0.0
 11
0.0
 21
138.8119380206
 31
0.0
  0
LINE
  5
117
330
FC
100
AcDbEntity
  8
0
  6
Continuous
 62
     7
370
    25
100
AcDbLine
 10
261.629509039
 20
4.1045995698
 30
0.0
 11
410.1219330882
 21
89.8274513112
 31
0.0
  0
LINE
  5
118
330
FC
100
AcDbEntity
  8
0
  6
Continuous
 62
     7
370
    25
100
AcDbLine
 10
410.1219330882
 20
89.8274513112
 30
0.0
 11
176.7766952966
 21
224.534789762
 31
0.0
  0
LINE
  5
119
330
FC
100
AcDbEntity
  8
0
  6
Continuous
 62
     7
370
    25
100
AcDbLine
 10
176.7766952966
 20
224.534789762
 30
0.0
 11
28.2842712475
 21
138.8119380206
 31
0.0
  0
LINE
  5
11A
330
FC
100
AcDbEntity
  8
0
  6
Continuous
 62
     7
370
    25
100
AcDbLine
 10
28.2842712475
 20
138.8119380206
 30
0.0
 11
261.629509039
 21
4.1045995698
 31
0.0
  0
LINE
  5
11B
330
FC
100
AcDbEntity
  8
0
  6
Continuous
 62
     7
370
    25
100
AcDbLine
 10
318.1980515339
 20
-44.8798871395
 30
0.0
 11
318.1980515339
 21
-183.6918251601
 31
0.0
  0
LINE
  5
11C
330
FC
100
AcDbEntity
  8
0
  6
Continuous
 62
     7
370
    25
100
AcDbLine
 10
494.9747468306
 20
57.1711268383
 30
0.0
 11
494.9747468306
 21
-81.6408111823
 31
0.0
  0
LINE
  5
11D
330
FC
100
AcDbEntity
  8
0
  6
Continuous
 62
     7
370
    25
100
AcDbLine
 10
318.1980515339
 20
-183.6918251601
 30
0.0
 11
494.9747468306
 21
-81.6408111823
 31
0.0
  0
LINE
  5
11E
330
FC
100
AcDbEntity
  8
0
  6
Continuous
 62
     7
370
    25
100
AcDbLine
 10
0.0
 20
138.8119380206
 30
0.0
 11
0.0
 21
0.0
 31
0.0
  0
LINE
  5
11F
330
FC
100
AcDbEntity
  8
0
  6
Continuous
 62
     7
370
    25
100
AcDbLine
 10
0.0
 20
0.0
 30
0.0
 11
318.1980515339
 21
-183.6918251601
 31
0.0
  0
LINE
  5
120
330
FC
100
AcDbEntity
  8
0
  6
Continuous
 62
     7
370
    25
100
AcDbLine
 10
176.7766952966
 20
110.219076098
 30
0.0
 11
176.7766952966
 21
224.534789762
 31
0.0
  0
LINE
  5
121
330
FC
100
AcDbEntity
  8
0
  6
Continuous
 62
     7
370
    25
100
AcDbLine
 10
176.7766952966
 20
110.219076098
 30
0.0
 11
311.110892951
 21
32.6695944792
 31
0.0
  0
LINE
  5
122
330
FC
100
AcDbEntity
  8
0
  6
Continuous
 62
     7
370
    25
100
AcDbLine
 10
203.5328167807
 20
37.6431061234
 30
0.0
 11
176.7766952966
 21
110.219076098
 31
0.0
  0
LINE
  5
123
330
FC
100
AcDbEntity
  8
0
  6
Continuous
 62
     7
370
    25
100
AcDbLine
 10
127.2953113846
 20
81.6540811886
 30
0.0
 11
176.7766952966
 21
110.219076098
 31
0.0
  0
ARC
  5
124
330
FC
100
AcDbEntity
  8
0
  6
Continuous
 62
     7
370
    25
100
AcDbCircle
 10
371.2310601229
 20
-7.6155097966
 30
0.0
 40
27.97307773660841
100
AcDbArc
 50
68.3845062247
 51
111.6154937753
  0
VIEWPORT
  5
17B
330
FC
100
AcDbEntity
  8
0
100
AcDbViewport
 10
0.0
 20
0.0
 30
0.0
 40
205.6
 41
156.0
 68
     1
 69
     1
 12
225.0
 22
125.0
 13
0.0
 23
0.0
 14
10.0
 24
10.0
 15
10.0
 25
10.0
 16
0.0
 26
0.0
 36
1.0
 17
0.0
 27
0.0
 37
0.0
 42
50.0
 43
0.0
 44
0.0
 45
348.2684824903
 50
0.0
 51
0.0
 72
   100
 90
   557152
  1

281
     0
 71
     1
 74
     0
110
0.0
120
0.0
130
0.0
111
1.0
121
0.0
131
0.0
112
0.0
122
1.0
132
0.0
 79
     0
146
0.0
  0
ENDBLK
  5
FF
330
FC
100
AcDbEntity
  8
0
100
AcDbBlockEnd
  0
BLOCK
  5
127
330
125
100
AcDbEntity
  8
0
100
AcDbBlockBegin
  2
*Paper_Space6
 70
     0
 10
0.0
 20
0.0
 30
0.0
  3
*Paper_Space6
  1

  0
LWPOLYLINE
  5
131
330
125
100
AcDbEntity
  8
0
  6
Continuous
 62
     7
370
    25
100
AcDbPolyline
 90
       45
 70
   128
 43
0.0
 10
403.937002981
 20
98.5393014773
 10
406.2227848726
 20
98.021805328
 10
408.6282948514
 20
97.6771187795
 10
411.1045636713
 20
97.5122586559
 10
413.6011816399
 20
97.5305810338
 10
416.0673248152
 20
97.7317129226
 10
418.4527896337
 20
98.1115598569
 10
420.709014911
 20
98.6623892486
 10
422.7900704068
 20
99.3729877997
 10
424.6535918324
 20
100.2288897729
 10
426.2616432657
 20
101.2126714722
 10
427.5814894166
 20
102.3043059394
 10
428.5862620236
 20
103.4815706445
 10
429.2555068141
 20
104.7204998732
 10
429.5755998939
 20
105.9958725991
 10
429.5400250911
 20
107.2817259115
 10
429.149506606
 20
108.5518835449
 10
428.411994269
 20
109.7804887528
 10
427.3425017042
 20
110.9425306762
 10
425.9628006962
 20
112.0143534925
 10
424.3009779788
 20
112.9741379801
 10
422.3908634702
 20
113.8023456947
 10
420.2713415935
 20
114.4821167154
 10
417.9855597019
 20
114.9996128647
 10
415.580049723
 20
115.3442994132
 10
413.1037809032
 20
115.5091595368
 10
410.6071629345
 20
115.4908371588
 10
408.1410197593
 20
115.2897052701
 10
405.7555549407
 20
114.9098583358
 10
403.4993296635
 20
114.3590289441
 10
401.4182741677
 20
113.648430393
 10
399.554752742
 20
112.7925284198
 10
397.9467013088
 20
111.8087467204
 10
396.6268551579
 20
110.7171122533
 10
395.6220825508
 20
109.5398475482
 10
394.9528377604
 20
108.3009183195
 10
394.6327446806
 20
107.0255455935
 10
394.6683194834
 20
105.7396922812
 10
395.0588379684
 20
104.4695346478
 10
395.7963503055
 20
103.2409294399
 10
396.8658428703
 20
102.0788875165
 10
398.2455438782
 20
101.0070647001
 10
399.9073665956
 20
100.0472802125
 10
401.8174811042
 20
99.219072498
 10
403.937002981
 20
98.5393014773
  0
LINE
  5
13C
330
125
100
AcDbEntity
  8
0
  6
Continuous
 62
     7
370
    25
100
AcDbLine
 10
514.6620019874
 20
151.4310402127
 30
0.0
 11
116.6738472325
 21
259.5956928204
 31
0.0
  0
LINE
  5
13D
330
125
100
AcDbEntity
  8
0
  6
Continuous
 62
     7
370
    25
100
AcDbLine
 10
397.9881547548
 20
37.5537885116
 30
0.0
 11
514.6620019874
 21
151.4310402127
 31
0.0
  0
LINE
  5
13E
330
125
100
AcDbEntity
  8
0
  6
Continuous
 62
     7
370
    25
100
AcDbLine
 10
0.0
 20
145.7184411194
 30
0.0
 11
397.9881547548
 21
37.5537885116
 31
0.0
  0
LINE
  5
13F
330
125
100
AcDbEntity
  8
0
  6
Continuous
 62
     7
370
    25
100
AcDbLine
 10
116.6738472325
 20
259.5956928204
 30
0.0
 11
0.0
 21
145.7184411194
 31
0.0
  0
LINE
  5
140
330
125
100
AcDbEntity
  8
0
  6
Continuous
 62
     7
370
    25
100
AcDbLine
 10
318.8802503657
 20
70.7005581161
 30
0.0
 11
416.886282041
 21
166.357449545
 31
0.0
  0
LINE
  5
141
330
125
100
AcDbEntity
  8
0
  6
Continuous
 62
     7
370
    25
100
AcDbLine
 10
416.886282041
 20
166.357449545
 30
0.0
 11
125.0283018875
 21
245.6781947907
 31
0.0
  0
LINE
  5
142
330
125
100
AcDbEntity
  8
0
  6
Continuous
 62
     7
370
    25
100
AcDbLine
 10
125.0283018875
 20
245.6781947907
 30
0.0
 11
27.0222702121
 21
150.0213033618
 31
0.0
  0
LINE
  5
143
330
125
100
AcDbEntity
  8
0
  6
Continuous
 62
     7
370
    25
100
AcDbLine
 10
27.0222702121
 20
150.0213033618
 30
0.0
 11
318.8802503657
 21
70.7005581161
 31
0.0
  0
LINE
  5
144
330
125
100
AcDbEntity
  8
0
  6
Continuous
 62
     7
370
    25
100
AcDbLine
 10
397.9881547548
 20
37.5537885116
 30
0.0
 11
397.9881547548
 21
-108.1646526078
 31
0.0
  0
LINE
  5
145
330
125
100
AcDbEntity
  8
0
  6
Continuous
 62
     7
370
    25
100
AcDbLine
 10
514.6620019874
 20
151.4310402127
 30
0.0
 11
514.6620019874
 21
5.7125990933
 31
0.0
  0
LINE
  5
146
330
125
100
AcDbEntity
  8
0
  6
Continuous
 62
     7
370
    25
100
AcDbLine
 10
397.9881547548
 20
-108.1646526078
 30
0.0
 11
514.6620019874
 21
5.7125990933
 31
0.0
  0
LINE
  5
147
330
125
100
AcDbEntity
  8
0
  6
Continuous
 62
     7
370
    25
100
AcDbLine
 10
0.0
 20
145.7184411194
 30
0.0
 11
0.0
 21
0.0
 31
0.0
  0
LINE
  5
148
330
125
100
AcDbEntity
  8
0
  6
Continuous
 62
     7
370
    25
100
AcDbLine
 10
0.0
 20
0.0
 30
0.0
 11
397.9881547548
 21
-108.1646526078
 31
0.0
  0
LINE
  5
149
330
125
100
AcDbEntity
  8
0
  6
Continuous
 62
     7
370
    25
100
AcDbLine
 10
125.0283018875
 20
125.6747726924
 30
0.0
 11
125.0283018875
 21
245.6781947907
 31
0.0
  0
LINE
  5
14A
330
125
100
AcDbEntity
  8
0
  6
Continuous
 62
     7
370
    25
100
AcDbLine
 10
123.193559307
 20
123.8840076872
 30
0.0
 11
125.0283018875
 21
125.6747726924
 31
0.0
  0
LINE
  5
14B
330
125
100
AcDbEntity
  8
0
  6
Continuous
 62
     7
370
    25
100
AcDbLine
 10
128.3775276847
 20
122.4751161612
 30
0.0
 11
125.0283018875
 21
125.6747726924
 31
0.0
  0
LINE
  5
14C
330
125
100
AcDbEntity
  8
0
  6
Continuous
 62
     7
370
    25
100
AcDbLine
 10
125.0283018875
 20
125.6747726924
 30
0.0
 11
320.7149929461
 21
72.4913231212
 31
0.0
  0
ARC
  5
14D
330
125
100
AcDbEntity
  8
0
  6
Continuous
 62
     7
370
    25
100
AcDbCircle
 10
412.1041722872
 20
65.2201413032
 30
0.0
 40
33.1631339967353
100
AcDbArc
 50
80.6113253658
 51
99.3886746342
  0
VIEWPORT
  5
17D
330
125
100
AcDbEntity
  8
0
100
AcDbViewport
 10
0.0
 20
0.0
 30
0.0
 40
205.6
 41
156.0
 68
     1
 69
     1
 12
225.0
 22
125.0
 13
0.0
 23
0.0
 14
10.0
 24
10.0
 15
10.0
 25
10.0
 16
0.0
 26
0.0
 36
1.0
 17
0.0
 27
0.0
 37
0.0
 42
50.0
 43
0.0
 44
0.0
 45
348.2684824903
 50
0.0
 51
0.0
 72
   100
 90
   557152
  1

281
     0
 71
     1
 74
     0
110
0.0
120
0.0
130
0.0
111
1.0
121
0.0
131
0.0
112
0.0
122
1.0
132
0.0
 79
     0
146
0.0
  0
ENDBLK
  5
128
330
125
100
AcDbEntity
  8
0
100
AcDbBlockEnd
  0
BLOCK
  5
150
330
14E
100
AcDbEntity
  8
0
100
AcDbBlockBegin
  2
*Paper_Space7
 70
     0
 10
0.0
 20
0.0
 30
0.0
  3
*Paper_Space7
  1

  0
LWPOLYLINE
  5
15A
330
14E
100
AcDbEntity
  8
0
  6
Continuous
 62
     7
370
    25
100
AcDbPolyline
 90
       45
 70
   128
 43
0.0
 10
412.1727281697
 20
146.6560990996
 10
414.5653632608
 20
146.4181298746
 10
417.0352444319
 20
146.2960853252
 10
419.532092025
 20
146.2924499264
 10
422.0050774232
 20
146.4072976845
 10
424.4038577755
 20
146.6382906303
 10
426.6796008314
 20
146.9807264136
 10
428.7859790249
 20
147.4276340293
 10
430.6801125703
 20
147.9699157272
 10
432.3234423709
 20
148.5965322157
 10
433.6825149709
 20
149.2947273901
 10
434.7296635713
 20
150.05028801
 10
435.4435712466
 20
150.8478330402
 10
435.809704895
 20
151.6711267637
 10
435.8206110914
 20
152.5034092945
 10
435.476067817
 20
153.3277377604
 10
434.7830889793
 20
154.127331211
 10
433.7557816292
 20
154.8859122294
 10
432.4150587817
 20
155.5880382938
 10
430.7882136876
 20
156.2194161421
 10
428.9083642217
 20
156.7671927422
 10
426.8137786981
 20
157.2202169421
 10
424.5470968376
 20
157.5692664755
 10
422.1544617465
 20
157.8072357005
 10
419.6845805754
 20
157.9292802499
 10
417.1877329824
 20
157.9329156487
 10
414.7147475841
 20
157.8180678906
 10
412.3159672318
 20
157.5870749448
 10
410.040224176
 20
157.2446391615
 10
407.9338459825
 20
156.7977315458
 10
406.0397124371
 20
156.2554498479
 10
404.3963826365
 20
155.6288333594
 10
403.0373100365
 20
154.930638185
 10
401.990161436
 20
154.175077565
 10
401.2762537608
 20
153.3775325349
 10
400.9101201124
 20
152.5542388114
 10
400.899213916
 20
151.7219562805
 10
401.2437571904
 20
150.8976278147
 10
401.936736028
 20
150.0980343641
 10
402.9640433782
 20
149.3394533456
 10
404.3047662257
 20
148.6373272813
 10
405.9316113197
 20
148.005949433
 10
407.8114607856
 20
147.4581728329
 10
409.9060463093
 20
147.005148633
 10
412.1727281697
 20
146.6560990996
  0
LINE
  5
161
330
14E
100
AcDbEntity
  8
0
  6
Continuous
 62
     7
370
    25
100
AcDbLine
 10
509.3248036539
 20
185.1957240513
 30
0.0
 11
88.388347628
 21
238.2287326155
 31
0.0
  0
LINE
  5
162
330
14E
100
AcDbEntity
  8
0
  6
Continuous
 62
     7
370
    25
100
AcDbLine
 10
420.9364560259
 20
107.2445285095
 30
0.0
 11
509.3248036539
 21
185.1957240513
 31
0.0
  0
LINE
  5
163
330
14E
100
AcDbEntity
  8
0
  6
Continuous
 62
     7
370
    25
100
AcDbLine
 10
0.0
 20
160.2775370737
 30
0.0
 11
420.9364560259
 21
107.2445285095
 31
0.0
  0
LINE
  5
164
330
14E
100
AcDbEntity
  8
0
  6
Continuous
 62
     7
370
    25
100
AcDbLine
 10
88.388347628
 20
238.2287326155
 30
0.0
 11
0.0
 21
160.2775370737
 31
0.0
  0
LINE
  5
165
330
14E
100
AcDbEntity
  8
0
  6
Continuous
 62
     7
370
    25
100
AcDbLine
 10
334.4660891637
 20
125.2657371671
 30
0.0
 11
408.7123011712
 21
190.7447414222
 31
0.0
  0
LINE
  5
166
330
14E
100
AcDbEntity
  8
0
  6
Continuous
 62
     7
370
    25
100
AcDbLine
 10
408.7123011712
 20
190.7447414222
 30
0.0
 11
100.0255667523
 21
229.6356143693
 31
0.0
  0
LINE
  5
167
330
14E
100
AcDbEntity
  8
0
  6
Continuous
 62
     7
370
    25
100
AcDbLine
 10
100.0255667523
 20
229.6356143693
 30
0.0
 11
25.7793547447
 21
164.1566101142
 31
0.0
  0
LINE
  5
168
330
14E
100
AcDbEntity
  8
0
  6
Continuous
 62
     7
370
    25
100
AcDbLine
 10
25.7793547447
 20
164.1566101142
 30
0.0
 11
334.4660891637
 21
125.2657371671
 31
0.0
  0
LINE
  5
169
330
14E
100
AcDbEntity
  8
0
  6
Continuous
 62
     7
370
    25
100
AcDbLine
 10
420.9364560259
 20
107.2445285095
 30
0.0
 11
420.9364560259
 21
-53.0330085642
 31
0.0
  0
LINE
  5
16A
330
14E
100
AcDbEntity
  8
0
  6
Continuous
 62
     7
370
    25
100
AcDbLine
 10
509.3248036539
 20
185.1957240513
 30
0.0
 11
509.3248036539
 21
24.9181869776
 31
0.0
  0
LINE
  5
16B
330
14E
100
AcDbEntity
  8
0
  6
Continuous
 62
     7
370
    25
100
AcDbLine
 10
420.9364560259
 20
-53.0330085642
 30
0.0
 11
509.3248036539
 21
24.9181869776
 31
0.0
  0
LINE
  5
16C
330
14E
100
AcDbEntity
  8
0
  6
Continuous
 62
     7
370
    25
100
AcDbLine
 10
0.0
 20
160.2775370737
 30
0.0
 11
0.0
 21
0.0
 31
0.0
  0
LINE
  5
16D
330
14E
100
AcDbEntity
  8
0
  6
Continuous
 62
     7
370
    25
100
AcDbLine
 10
0.0
 20
0.0
 30
0.0
 11
420.9364560259
 21
-53.0330085642
 31
0.0
  0
LINE
  5
16E
330
14E
100
AcDbEntity
  8
0
  6
Continuous
 62
     7
370
    25
100
AcDbLine
 10
100.0255667523
 20
154.8024666541
 30
0.0
 11
100.0255667523
 21
229.6356143693
 31
0.0
  0
VIEWPORT
  5
17F
330
14E
100
AcDbEntity
  8
0
100
AcDbViewport
 10
0.0
 20
0.0
 30
0.0
 40
205.6
 41
156.0
 68
     1
 69
     1
 12
225.0
 22
125.0
 13
0.0
 23
0.0
 14
10.0
 24
10.0
 15
10.0
 25
10.0
 16
0.0
 26
0.0
 36
1.0
 17
0.0
 27
0.0
 37
0.0
 42
50.0
 43
0.0
 44
0.0
 45
348.2684824903
 50
0.0
 51
0.0
 72
   100
 90
   557152
  1

281
     0
 71
     1
 74
     0
110
0.0
120
0.0
130
0.0
111
1.0
121
0.0
131
0.0
112
0.0
122
1.0
132
0.0
 79
     0
146
0.0
  0
ENDBLK
  5
151
330
14E
100
AcDbEntity
  8
0
100
AcDbBlockEnd
  0
ENDSEC
  0
SECTION
  2
ENTITIES
  0
CIRCLE
  5
76
330
1F
100
AcDbEntity
  8
0
  6
Continuous
 62
     7
370
    25
100
AcDbCircle
 10
400.0
 20
125.0
 30
0.0
 40
17.49999999999989
  0
SPLINE
  5
7E
330
1F
100
AcDbEntity
  8
0
  6
Continuous
 62
     7
370
    25
100
AcDbSpline
210
0.0
220
0.0
230
1.0
 70
     8
 71
     3
 72
    16
 73
    12
 74
     0
 42
0.000000001
 43
0.00000001
 40
0.0
 40
0.0
 40
0.0
 40
0.0
 40
0.0037842664435225
 40
0.0037842664435225
 40
0.0662842664435225
 40
0.0662842664435225
 40
0.1287842664435225
 40
0.1287842664435225
 40
0.1912842664435225
 40
0.1912842664435225
 40
0.3162842664435225
 40
0.3162842664435225
 40
0.3162842664435225
 40
0.3162842664435225
 10
197.2103442438952
 20
154.0371703223195
 30
0.0
 10
197.2876295859939
 20
154.0046737679676
 30
0.0
 10
197.3647221600784
 20
153.9718941723924
 30
0.0
 10
198.7116219688604
 20
153.3928240665462
 30
0.0
 10
199.9281017082579
 20
152.770442253603
 30
0.0
 10
202.2326466961048
 20
151.402302388618
 30
0.0
 10
203.3207152085392
 20
150.6566462793389
 30
0.0
 10
205.3560691712956
 20
149.0736900359906
 30
0.0
 10
206.3033906154856
 20
148.2364733805387
 30
0.0
 10
208.9282945063954
 20
145.6339358712047
 30
0.0
 10
210.3863662753261
 20
143.7799603570257
 30
0.0
 10
211.5753368635614
 20
141.9115780040845
 30
0.0
  0
SPLINE
  5
7F
330
1F
100
AcDbEntity
  8
0
  6
Continuous
 62
     7
370
    25
100
AcDbSpline
210
0.0
220
0.0
230
1.0
 70
     8
 71
     3
 72
    16
 73
    12
 74
     0
 42
0.000000001
 43
0.00000001
 40
0.3162842664435225
 40
0.3162842664435225
 40
0.3162842664435225
 40
0.3162842664435225
 40
0.3787842665566966
 40
0.3787842665566966
 40
0.4412842665566966
 40
0.4412842665566966
 40
0.5037842665566966
 40
0.5037842665566966
 40
0.5662842665566966
 40
0.5662842665566966
 40
0.6250000001131741
 40
0.6250000001131741
 40
0.6250000001131741
 40
0.6250000001131741
 10
176.5139276135536
 20
155.335401356369
 30
0.0
 10
177.8759827023475
 20
155.7164247666759
 30
0.0
 10
179.2765229474013
 20
156.0088507683397
 30
0.0
 10
182.1180973624007
 20
156.4006632530618
 30
0.0
 10
183.5590170338805
 20
156.4999999999999
 30
0.0
 10
186.4409829661194
 20
156.5
 30
0.0
 10
187.8819026375992
 20
156.4006632530618
 30
0.0
 10
190.7234770525987
 20
156.0088507683397
 30
0.0
 10
192.1240172976525
 20
155.7164247666759
 30
0.0
 10
194.7656574053723
 20
154.9774482517552
 30
0.0
 10
196.0112041668931
 20
154.5413787482604
 30
0.0
 10
197.2103442438952
 20
154.0371703223195
 30
0.0
  0
SPLINE
  5
80
330
1F
100
AcDbEntity
  8
0
  6
Continuous
 62
     7
370
    25
100
AcDbSpline
210
0.0
220
0.0
230
1.0
 70
     8
 71
     3
 72
     8
 73
     4
 74
     0
 42
0.000000001
 43
0.00000001
 40
0.6250000001131715
 40
0.6250000001131715
 40
0.6250000001131715
 40
0.6250000001131715
 40
0.6875000007801287
 40
0.6875000007801287
 40
0.6875000007801287
 40
0.6875000007801287
 10
172.5583813451327
 20
153.9388342067689
 30
0.0
 10
173.8283846591258
 20
154.4848443469916
 30
0.0
 10
175.1518725247597
 20
154.954377946062
 30
0.0
 10
176.5139276135536
 20
155.335401356369
 30
0.0
  0
SPLINE
  5
81
330
1F
100
AcDbEntity
  8
0
  6
Continuous
 62
     7
370
    25
100
AcDbSpline
210
0.0
220
0.0
230
1.0
 70
     8
 71
     3
 72
    14
 73
    10
 74
     0
 42
0.000000001
 43
0.00000001
 40
0.6875000007801287
 40
0.6875000007801287
 40
0.6875000007801287
 40
0.6875000007801287
 40
0.8125000007801287
 40
0.8125000007801287
 40
0.8750000007801287
 40
0.8750000007801287
 40
0.9375000007801287
 40
0.9375000007801287
 40
1.0
 40
1.0
 40
1.0
 40
1.0
 10
158.4246631364386
 20
141.9115780040845
 30
0.0
 10
159.6136337246739
 20
143.7799603570256
 30
0.0
 10
161.0717054936047
 20
145.6339358712047
 30
0.0
 10
163.6966093845143
 20
148.2364733805387
 30
0.0
 10
164.6439308287044
 20
149.0736900359904
 30
0.0
 10
166.6792847914608
 20
150.6566462793388
 30
0.0
 10
167.7673533038952
 20
151.4023023886179
 30
0.0
 10
170.0718982917421
 20
152.770442253603
 30
0.0
 10
171.2883780311395
 20
153.3928240665462
 30
0.0
 10
172.5583813451327
 20
153.9388342067689
 30
0.0
  0
SPLINE
  5
83
330
1F
100
AcDbEntity
  8
0
  6
Continuous
 62
     7
370
    25
100
AcDbSpline
210
0.0
220
0.0
230
1.0
 70
     8
 71
     3
 72
    12
 73
     8
 74
     0
 42
0.000000001
 43
0.00000001
 40
0.0
 40
0.0
 40
0.0
 40
0.0
 40
0.1249999999434624
 40
0.1249999999434624
 40
0.249999999943463
 40
0.249999999943463
 40
0.3749999999434636
 40
0.3749999999434636
 40
0.3749999999434636
 40
0.3749999999434636
 10
153.8321312451245
 20
129.5622316117066
 30
0.0
 10
154.0523847613029
 20
131.0669409884581
 30
0.0
 10
154.3809436303515
 20
132.5474893474243
 30
0.0
 10
155.2347373130924
 20
135.417309902109
 30
0.0
 10
155.759850627112
 20
136.8064784581366
 30
0.0
 10
156.9765757306808
 20
139.4591480092355
 30
0.0
 10
157.6680454893799
 20
140.7226074158492
 30
0.0
 10
158.4246631364386
 20
141.9115780040845
 30
0.0
  0
SPLINE
  5
84
330
1F
100
AcDbEntity
  8
0
  6
Continuous
 62
     7
370
    25
100
AcDbSpline
210
0.0
220
0.0
230
1.0
 70
     8
 71
     3
 72
    16
 73
    12
 74
     0
 42
0.000000001
 43
0.00000001
 40
0.3749999999434636
 40
0.3749999999434636
 40
0.3749999999434636
 40
0.3749999999434636
 40
0.499999999943463
 40
0.499999999943463
 40
0.6249999999434624
 40
0.6249999999434624
 40
0.7499999999434619
 40
0.7499999999434619
 40
0.8749999999434613
 40
0.8749999999434613
 40
1.0
 40
1.0
 40
1.0
 40
1.0
 10
158.4246631364386
 20
108.0884219959155
 30
0.0
 10
157.6680454893798
 20
109.2773925841508
 30
0.0
 10
156.9765757306808
 20
110.5408519907645
 30
0.0
 10
155.759850627112
 20
113.1935215418634
 30
0.0
 10
155.2347373130924
 20
114.582690097891
 30
0.0
 10
154.3809436303515
 20
117.4525106525757
 30
0.0
 10
154.0523847613028
 20
118.9330590115418
 30
0.0
 10
153.6118777289462
 20
121.9424777650449
 30
0.0
 10
153.5
 20
123.471196392196
 30
0.0
 10
153.5000000000001
 20
126.528803607804
 30
0.0
 10
153.6118777289462
 20
128.0575222349551
 30
0.0
 10
153.8321312451245
 20
129.5622316117066
 30
0.0
  0
SPLINE
  5
86
330
1F
100
AcDbEntity
  8
0
  6
Continuous
 62
     7
370
    25
100
AcDbSpline
210
0.0
220
0.0
230
1.0
 70
     8
 71
     3
 72
    12
 73
     8
 74
     0
 42
0.000000001
 43
0.00000001
 40
0.0
 40
0.0
 40
0.0
 40
0.0
 40
0.124999999950112
 40
0.124999999950112
 40
0.249999999950112
 40
0.249999999950112
 40
0.374999999950112
 40
0.374999999950112
 40
0.374999999950112
 40
0.374999999950112
 10
216.1678687548755
 20
120.4377683882933
 30
0.0
 10
215.9476152386971
 20
118.9330590115419
 30
0.0
 10
215.6190563696484
 20
117.4525106525757
 30
0.0
 10
214.7652626869076
 20
114.5826900978911
 30
0.0
 10
214.2401493728879
 20
113.1935215418634
 30
0.0
 10
213.0234242693192
 20
110.5408519907645
 30
0.0
 10
212.3319545106202
 20
109.2773925841508
 30
0.0
 10
211.5753368635614
 20
108.0884219959155
 30
0.0
  0
SPLINE
  5
87
330
1F
100
AcDbEntity
  8
0
  6
Continuous
 62
     7
370
    25
100
AcDbSpline
210
0.0
220
0.0
230
1.0
 70
     8
 71
     3
 72
    16
 73
    12
 74
     0
 42
0.000000001
 43
0.00000001
 40
0.374999999950112
 40
0.374999999950112
 40
0.374999999950112
 40
0.374999999950112
 40
0.499999999950112
 40
0.499999999950112
 40
0.624999999950112
 40
0.624999999950112
 40
0.749999999950112
 40
0.749999999950112
 40
0.874999999950112
 40
0.874999999950112
 40
1.0
 40
1.0
 40
1.0
 40
1.0
 10
211.5753368635614
 20
141.9115780040845
 30
0.0
 10
212.3319545106202
 20
140.7226074158492
 30
0.0
 10
213.0234242693192
 20
139.4591480092355
 30
0.0
 10
214.240149372888
 20
136.8064784581366
 30
0.0
 10
214.7652626869076
 20
135.417309902109
 30
0.0
 10
215.6190563696485
 20
132.5474893474243
 30
0.0
 10
215.9476152386971
 20
131.0669409884581
 30
0.0
 10
216.3881222710539
 20
128.0575222349551
 30
0.0
 10
216.4999999999999
 20
126.528803607804
 30
0.0
 10
216.4999999999999
 20
123.471196392196
 30
0.0
 10
216.3881222710539
 20
121.9424777650449
 30
0.0
 10
216.1678687548755
 20
120.4377683882933
 30
0.0
  0
SPLINE
  5
88
330
1F
100
AcDbEntity
  8
0
  6
Continuous
 62
     7
370
    25
100
AcDbSpline
210
0.0
220
0.0
230
1.0
 70
     8
 71
     3
 72
    16
 73
    12
 74
     0
 42
0.000000001
 43
0.00000001
 40
0.0
 40
0.0
 40
0.0
 40
0.0
 40
0.0037842664437417
 40
0.0037842664437417
 40
0.0662842664437417
 40
0.0662842664437417
 40
0.1287842664437417
 40
0.1287842664437417
 40
0.1912842664437417
 40
0.1912842664437417
 40
0.3162842664437427
 40
0.3162842664437427
 40
0.3162842664437427
 40
0.3162842664437427
 10
172.7896557561182
 20
95.96282967767493
 30
0.0
 10
172.7123704140151
 20
95.99532623202866
 30
0.0
 10
172.6352778399261
 20
96.02810582760578
 30
0.0
 10
171.2883780311396
 20
96.60717593345387
 30
0.0
 10
170.0718982917421
 20
97.229557746397
 30
0.0
 10
167.7673533038952
 20
98.59769761138207
 30
0.0
 10
166.6792847914607
 20
99.34335372066117
 30
0.0
 10
164.6439308287045
 20
100.9263099640096
 30
0.0
 10
163.6966093845143
 20
101.7635266194613
 30
0.0
 10
161.0717054936047
 20
104.3660641287953
 30
0.0
 10
159.613633724674
 20
106.2200396429744
 30
0.0
 10
158.4246631364386
 20
108.0884219959155
 30
0.0
  0
SPLINE
  5
89
330
1F
100
AcDbEntity
  8
0
  6
Continuous
 62
     7
370
    25
100
AcDbSpline
210
0.0
220
0.0
230
1.0
 70
     8
 71
     3
 72
    16
 73
    12
 74
     0
 42
0.000000001
 43
0.00000001
 40
0.3162842664437427
 40
0.3162842664437427
 40
0.3162842664437427
 40
0.3162842664437427
 40
0.3787842665582604
 40
0.3787842665582604
 40
0.4412842665582604
 40
0.4412842665582604
 40
0.5037842665582604
 40
0.5037842665582604
 40
0.5662842665582604
 40
0.5662842665582604
 40
0.6250000001145186
 40
0.6250000001145186
 40
0.6250000001145186
 40
0.6250000001145186
 10
193.4860723864464
 20
94.66459864363104
 30
0.0
 10
192.1240172976524
 20
94.28357523332411
 30
0.0
 10
190.7234770525987
 20
93.99114923166026
 30
0.0
 10
187.8819026375993
 20
93.59933674693818
 30
0.0
 10
186.4409829661195
 20
93.50000000000001
 30
0.0
 10
183.5590170338806
 20
93.50000000000001
 30
0.0
 10
182.1180973624007
 20
93.59933674693819
 30
0.0
 10
179.2765229474013
 20
93.99114923166027
 30
0.0
 10
177.8759827023475
 20
94.28357523332416
 30
0.0
 10
175.2343425946325
 20
95.02255174824352
 30
0.0
 10
173.9887958331162
 20
95.45862125173647
 30
0.0
 10
172.7896557561182
 20
95.96282967767493
 30
0.0
  0
SPLINE
  5
8A
330
1F
100
AcDbEntity
  8
0
  6
Continuous
 62
     7
370
    25
100
AcDbSpline
210
0.0
220
0.0
230
1.0
 70
     8
 71
     3
 72
     8
 73
     4
 74
     0
 42
0.000000001
 43
0.00000001
 40
0.6250000001145194
 40
0.6250000001145194
 40
0.6250000001145194
 40
0.6250000001145194
 40
0.6875000007814
 40
0.6875000007814
 40
0.6875000007814
 40
0.6875000007814
 10
197.4416186548673
 20
96.06116579323113
 30
0.0
 10
196.1716153408742
 20
95.51515565300842
 30
0.0
 10
194.8481274752403
 20
95.04562205393796
 30
0.0
 10
193.4860723864464
 20
94.66459864363104
 30
0.0
  0
SPLINE
  5
8B
330
1F
100
AcDbEntity
  8
0
  6
Continuous
 62
     7
370
    25
100
AcDbSpline
210
0.0
220
0.0
230
1.0
 70
     8
 71
     3
 72
    14
 73
    10
 74
     0
 42
0.000000001
 43
0.00000001
 40
0.6875000007814
 40
0.6875000007814
 40
0.6875000007814
 40
0.6875000007814
 40
0.8125000007813988
 40
0.8125000007813988
 40
0.8750000007813988
 40
0.8750000007813988
 40
0.937500000781399
 40
0.937500000781399
 40
1.0
 40
1.0
 40
1.0
 40
1.0
 10
211.5753368635614
 20
108.0884219959155
 30
0.0
 10
210.3863662753261
 20
106.2200396429744
 30
0.0
 10
208.9282945063954
 20
104.3660641287954
 30
0.0
 10
206.3033906154856
 20
101.7635266194613
 30
0.0
 10
205.3560691712954
 20
100.9263099640095
 30
0.0
 10
203.3207152085392
 20
99.34335372066113
 30
0.0
 10
202.2326466961048
 20
98.5976976113821
 30
0.0
 10
199.9281017082579
 20
97.22955774639699
 30
0.0
 10
198.7116219688604
 20
96.60717593345383
 30
0.0
 10
197.4416186548673
 20
96.06116579323113
 30
0.0
  0
CIRCLE
  5
8C
330
1F
100
AcDbEntity
  8
0
  6
Continuous
 62
     7
370
    25
100
AcDbCircle
 10
185.0
 20
125.0
 30
0.0
 40
22.49999999999989
  0
LINE
  5
8D
330
1F
100
AcDbEntity
  8
0
  6
Continuous
 62
     7
370
    25
100
AcDbLine
 10
450.0
 20
250.0
 30
0.0
 11
0.0
 21
250.0
 31
0.0
  0
LINE
  5
8E
330
1F
100
AcDbEntity
  8
0
  6
Continuous
 62
     7
370
    25
100
AcDbLine
 10
450.0
 20
0.0
 30
0.0
 11
450.0
 21
250.0
 31
0.0
  0
LINE
  5
8F
330
1F
100
AcDbEntity
  8
0
  6
Continuous
 62
     7
370
    25
100
AcDbLine
 10
0.0
 20
0.0
 30
0.0
 11
450.0
 21
0.0
 31
0.0
  0
LINE
  5
90
330
1F
100
AcDbEntity
  8
0
  6
Continuous
 62
     7
370
    25
100
AcDbLine
 10
350.0
 20
20.0
 30
0.0
 11
350.0
 21
230.0
 31
0.0
  0
LINE
  5
91
330
1F
100
AcDbEntity
  8
0
  6
Continuous
 62
     7
370
    25
100
AcDbLine
 10
20.0
 20
20.0
 30
0.0
 11
350.0
 21
20.0
 31
0.0
  0
LINE
  5
92
330
1F
100
AcDbEntity
  8
0
  6
Continuous
 62
     7
370
    25
100
AcDbLine
 10
20.0
 20
230.0
 30
0.0
 11
20.0
 21
20.0
 31
0.0
  0
LINE
  5
93
330
1F
100
AcDbEntity
  8
0
  6
Continuous
 62
     7
370
    25
100
AcDbLine
 10
0.0
 20
250.0
 30
0.0
 11
0.0
 21
0.0
 31
0.0
  0
LINE
  5
94
330
1F
100
AcDbEntity
  8
0
  6
Continuous
 62
     7
370
    25
100
AcDbLine
 10
350.0
 20
230.0
 30
0.0
 11
20.0
 21
230.0
 31
0.0
  0
LINE
  5
95
330
1F
100
AcDbEntity
  8
0
  6
Continuous
 62
     7
370
    25
100
AcDbLine
 10
158.4246631364
 20
141.9115780041
 30
0.0
 11
20.0
 21
230.0
 31
0.0
  0
LINE
  5
96
330
1F
100
AcDbEntity
  8
0
  6
Continuous
 62
     7
370
    25
100
AcDbLine
 10
211.5753368636
 20
141.9115780041
 30
0.0
 11
350.0
 21
230.0
 31
0.0
  0
LINE
  5
97
330
1F
100
AcDbEntity
  8
0
  6
Continuous
 62
     7
370
    25
100
AcDbLine
 10
20.0
 20
20.0
 30
0.0
 11
158.4246631364
 21
108.0884219959
 31
0.0
  0
LINE
  5
98
330
1F
100
AcDbEntity
  8
0
  6
Continuous
 62
     7
370
    25
100
AcDbLine
 10
211.5753368636
 20
108.0884219959
 30
0.0
 11
350.0
 21
20.0
 31
0.0
  0
LINE
  5
9D
330
1B
100
AcDbEntity
 67
     1
  8
0
  6
Continuous
 62
     7
370
    25
100
AcDbLine
 10
0.0
 20
170.0
 30
0.0
 11
450.0
 21
170.0
 31
0.0
  0
LINE
  5
9E
330
1B
100
AcDbEntity
 67
     1
  8
0
  6
Continuous
 62
     7
370
    25
100
AcDbLine
 10
450.0
 20
170.0
 30
0.0
 11
450.0
 21
0.0
 31
0.0
  0
LINE
  5
9F
330
1B
100
AcDbEntity
 67
     1
  8
0
  6
Continuous
 62
     7
370
    25
100
AcDbLine
 10
0.0
 20
170.0
 30
0.0
 11
0.0
 21
0.0
 31
0.0
  0
LINE
  5
A0
330
1B
100
AcDbEntity
 67
     1
  8
0
  6
Continuous
 62
     7
370
    25
100
AcDbLine
 10
0.0
 20
0.0
 30
0.0
 11
450.0
 21
0.0
 31
0.0
  0
VIEWPORT
  5
16F
330
1B
100
AcDbEntity
 67
     1
  8
0
100
AcDbViewport
 10
0.0
 20
0.0
 30
0.0
 40
205.6
 41
156.0
 68
     1
 69
     1
 12
225.0
 22
125.0
 13
0.0
 23
0.0
 14
10.0
 24
10.0
 15
10.0
 25
10.0
 16
0.0
 26
0.0
 36
1.0
 17
0.0
 27
0.0
 37
0.0
 42
50.0
 43
0.0
 44
0.0
 45
348.2684824903
 50
0.0
 51
0.0
 72
   100
 90
   557152
  1

281
     0
 71
     1
 74
     0
110
0.0
120
0.0
130
0.0
111
1.0
121
0.0
131
0.0
112
0.0
122
1.0
132
0.0
 79
     0
146
0.0
  0
ENDSEC
  0
SECTION
  2
OBJECTS
  0
DICTIONARY
  5
C
330
0
100
AcDbDictionary
281
     1
  3
ACAD_GROUP
350
D
  3
ACAD_LAYOUT
350
1A
  3
ACAD_MLINESTYLE
350
17
  3
ACAD_PLOTSETTINGS
350
19
  3
ACAD_PLOTSTYLENAME
350
E
  3
ACAD_SCALELIST
350
47
  0
DICTIONARY
  5
D
102
{ACAD_REACTORS
330
C
102
}
330
C
100
AcDbDictionary
281
     1
  0
DICTIONARY
  5
1A
102
{ACAD_REACTORS
330
C
102
}
330
C
100
AcDbDictionary
281
     1
  3
_Dimetrisch
350
14F
  3
_Isometrisch
350
FD
  3
_Links
350
D0
  3
_Normal auf
350
AA
  3
_Rechts
350
26
  3
_Rückseite
350
B6
  3
_Trimetrisch
350
126
  3
_Unten
350
DC
  3
_Vorderseite
350
1E
  3
Model
350
22
  0
DICTIONARY
  5
17
102
{ACAD_REACTORS
330
C
102
}
330
C
100
AcDbDictionary
281
     1
  3
Standard
350
18
  0
DICTIONARY
  5
19
102
{ACAD_REACTORS
330
C
102
}
330
C
100
AcDbDictionary
281
     1
  0
ACDBDICTIONARYWDFLT
  5
E
102
{ACAD_REACTORS
330
C
102
}
330
C
100
AcDbDictionary
281
     1
  3
Normal
350
F
100
AcDbDictionaryWithDefault
340
F
  0
DICTIONARY
  5
47
102
{ACAD_REACTORS
330
C
102
}
330
C
100
AcDbDictionary
281
     1
  3
A0
350
48
  3
A1
350
49
  3
A2
350
4A
  3
A3
350
4B
  3
A4
350
4C
  3
A5
350
4D
  3
A6
350
4E
  3
A7
350
4F
  3
A8
350
50
  3
A9
350
51
  3
B0
350
52
  3
B1
350
53
  3
B2
350
54
  3
B3
350
55
  3
B4
350
56
  3
B5
350
57
  3
B6
350
58
  3
B7
350
59
  3
B8
350
5A
  3
B9
350
5B
  3
C0
350
5C
  3
C1
350
5D
  3
C2
350
5E
  3
C3
350
5F
  3
C4
350
60
  3
C5
350
61
  3
C6
350
62
  3
C7
350
63
  3
C8
350
64
  3
C9
350
65
  3
D0
350
66
  3
D1
350
67
  3
D2
350
68
  0
LAYOUT
  5
14F
102
{ACAD_REACTORS
330
1A
102
}
330
1A
100
AcDbPlotSettings
  1

  2
none_device
  4
ISO_A4_(210.00_x_297.00_MM)
  6

 40
7.5
 41
20.0
 42
7.5
 43
20.0
 44
210.0
 45
297.0
 46
0.0
 47
0.0
 48
0.0
 49
0.0
140
0.0
141
0.0
142
1.0
143
1.7509727626
 70
   688
 72
     1
 73
     1
 74
     1
  7

 75
     0
147
0.5711111111
148
0.0
149
0.0
100
AcDbLayout
  1
_Dimetrisch
 70
     1
 71
     9
 10
0.0
 20
0.0
 11
0.0
 21
0.0
 12
0.0
 22
0.0
 32
0.0
 14
0.0
 24
0.0
 34
0.0
 15
0.0
 25
0.0
 35
0.0
146
0.0
 13
0.0
 23
0.0
 33
0.0
 16
1.0
 26
0.0
 36
0.0
 17
0.0
 27
1.0
 37
0.0
 76
     0
330
14E
331
17F
  0
LAYOUT
  5
FD
102
{ACAD_REACTORS
330
1A
102
}
330
1A
100
AcDbPlotSettings
  1

  2
none_device
  4
ISO_A4_(210.00_x_297.00_MM)
  6

 40
7.5
 41
20.0
 42
7.5
 43
20.0
 44
210.0
 45
297.0
 46
0.0
 47
0.0
 48
0.0
 49
0.0
140
0.0
141
0.0
142
1.0
143
1.7509727626
 70
   688
 72
     1
 73
     1
 74
     1
  7

 75
     0
147
0.5711111111
148
0.0
149
0.0
100
AcDbLayout
  1
_Isometrisch
 70
     1
 71
     7
 10
0.0
 20
0.0
 11
0.0
 21
0.0
 12
0.0
 22
0.0
 32
0.0
 14
0.0
 24
0.0
 34
0.0
 15
0.0
 25
0.0
 35
0.0
146
0.0
 13
0.0
 23
0.0
 33
0.0
 16
1.0
 26
0.0
 36
0.0
 17
0.0
 27
1.0
 37
0.0
 76
     0
330
FC
331
17B
  0
LAYOUT
  5
D0
102
{ACAD_REACTORS
330
1A
102
}
330
1A
100
AcDbPlotSettings
  1

  2
none_device
  4
ISO_A4_(210.00_x_297.00_MM)
  6

 40
7.5
 41
20.0
 42
7.5
 43
20.0
 44
210.0
 45
297.0
 46
0.0
 47
0.0
 48
0.0
 49
0.0
140
0.0
141
0.0
142
1.0
143
1.7509727626
 70
   688
 72
     1
 73
     1
 74
     1
  7

 75
     0
147
0.5711111111
148
0.0
149
0.0
100
AcDbLayout
  1
_Links
 70
     1
 71
     5
 10
0.0
 20
0.0
 11
0.0
 21
0.0
 12
0.0
 22
0.0
 32
0.0
 14
0.0
 24
0.0
 34
0.0
 15
0.0
 25
0.0
 35
0.0
146
0.0
 13
0.0
 23
0.0
 33
0.0
 16
1.0
 26
0.0
 36
0.0
 17
0.0
 27
1.0
 37
0.0
 76
     0
330
CF
331
177
  0
LAYOUT
  5
AA
102
{ACAD_REACTORS
330
1A
102
}
330
1A
100
AcDbPlotSettings
  1

  2
none_device
  4
ISO_A4_(210.00_x_297.00_MM)
  6

 40
7.5
 41
20.0
 42
7.5
 43
20.0
 44
210.0
 45
297.0
 46
0.0
 47
0.0
 48
0.0
 49
0.0
140
0.0
141
0.0
142
1.0
143
1.7509727626
 70
   688
 72
     1
 73
     1
 74
     1
  7

 75
     0
147
0.5711111111
148
0.0
149
0.0
100
AcDbLayout
  1
_Normal auf
 70
     1
 71
     3
 10
0.0
 20
0.0
 11
0.0
 21
0.0
 12
0.0
 22
0.0
 32
0.0
 14
0.0
 24
0.0
 34
0.0
 15
0.0
 25
0.0
 35
0.0
146
0.0
 13
0.0
 23
0.0
 33
0.0
 16
1.0
 26
0.0
 36
0.0
 17
0.0
 27
1.0
 37
0.0
 76
     0
330
A9
331
173
  0
LAYOUT
  5
26
102
{ACAD_REACTORS
330
1A
102
}
330
1A
100
AcDbPlotSettings
  1

  2
none_device
  4
ISO_A4_(210.00_x_297.00_MM)
  6

 40
7.5
 41
20.0
 42
7.5
 43
20.0
 44
210.0
 45
297.0
 46
0.0
 47
0.0
 48
0.0
 49
0.0
140
0.0
141
0.0
142
1.0
143
1.7509727626
 70
   688
 72
     1
 73
     1
 74
     1
  7

 75
     0
147
0.5711111111
148
0.0
149
0.0
100
AcDbLayout
  1
_Rechts
 70
     1
 71
     2
 10
0.0
 20
0.0
 11
0.0
 21
0.0
 12
0.0
 22
0.0
 32
0.0
 14
0.0
 24
0.0
 34
0.0
 15
0.0
 25
0.0
 35
0.0
146
0.0
 13
0.0
 23
0.0
 33
0.0
 16
1.0
 26
0.0
 36
0.0
 17
0.0
 27
1.0
 37
0.0
 76
     0
330
23
331
171
  0
LAYOUT
  5
B6
102
{ACAD_REACTORS
330
1A
102
}
330
1A
100
AcDbPlotSettings
  1

  2
none_device
  4
ISO_A4_(210.00_x_297.00_MM)
  6

 40
7.5
 41
20.0
 42
7.5
 43
20.0
 44
210.0
 45
297.0
 46
0.0
 47
0.0
 48
0.0
 49
0.0
140
0.0
141
0.0
142
1.0
143
1.7509727626
 70
   688
 72
     1
 73
     1
 74
     1
  7

 75
     0
147
0.5711111111
148
0.0
149
0.0
100
AcDbLayout
  1
_Rückseite
 70
     1
 71
     4
 10
0.0
 20
0.0
 11
0.0
 21
0.0
 12
0.0
 22
0.0
 32
0.0
 14
0.0
 24
0.0
 34
0.0
 15
0.0
 25
0.0
 35
0.0
146
0.0
 13
0.0
 23
0.0
 33
0.0
 16
1.0
 26
0.0
 36
0.0
 17
0.0
 27
1.0
 37
0.0
 76
     0
330
B5
331
175
  0
LAYOUT
  5
126
102
{ACAD_REACTORS
330
1A
102
}
330
1A
100
AcDbPlotSettings
  1

  2
none_device
  4
ISO_A4_(210.00_x_297.00_MM)
  6

 40
7.5
 41
20.0
 42
7.5
 43
20.0
 44
210.0
 45
297.0
 46
0.0
 47
0.0
 48
0.0
 49
0.0
140
0.0
141
0.0
142
1.0
143
1.7509727626
 70
   688
 72
     1
 73
     1
 74
     1
  7

 75
     0
147
0.5711111111
148
0.0
149
0.0
100
AcDbLayout
  1
_Trimetrisch
 70
     1
 71
     8
 10
0.0
 20
0.0
 11
0.0
 21
0.0
 12
0.0
 22
0.0
 32
0.0
 14
0.0
 24
0.0
 34
0.0
 15
0.0
 25
0.0
 35
0.0
146
0.0
 13
0.0
 23
0.0
 33
0.0
 16
1.0
 26
0.0
 36
0.0
 17
0.0
 27
1.0
 37
0.0
 76
     0
330
125
331
17D
  0
LAYOUT
  5
DC
102
{ACAD_REACTORS
330
1A
102
}
330
1A
100
AcDbPlotSettings
  1

  2
none_device
  4
ISO_A4_(210.00_x_297.00_MM)
  6

 40
7.5
 41
20.0
 42
7.5
 43
20.0
 44
210.0
 45
297.0
 46
0.0
 47
0.0
 48
0.0
 49
0.0
140
0.0
141
0.0
142
1.0
143
1.7509727626
 70
   688
 72
     1
 73
     1
 74
     1
  7

 75
     0
147
0.5711111111
148
0.0
149
0.0
100
AcDbLayout
  1
_Unten
 70
     1
 71
     6
 10
0.0
 20
0.0
 11
0.0
 21
0.0
 12
0.0
 22
0.0
 32
0.0
 14
0.0
 24
0.0
 34
0.0
 15
0.0
 25
0.0
 35
0.0
146
0.0
 13
0.0
 23
0.0
 33
0.0
 16
1.0
 26
0.0
 36
0.0
 17
0.0
 27
1.0
 37
0.0
 76
     0
330
DB
331
179
  0
LAYOUT
  5
1E
102
{ACAD_REACTORS
330
1A
102
}
330
1A
100
AcDbPlotSettings
  1

  2
none_device
  4
ISO_A4_(210.00_x_297.00_MM)
  6

 40
7.5
 41
20.0
 42
7.5
 43
20.0
 44
210.0
 45
297.0
 46
0.0
 47
0.0
 48
0.0
 49
0.0
140
0.0
141
0.0
142
1.0
143
1.7509727626
 70
   688
 72
     1
 73
     1
 74
     1
  7

 75
     0
147
0.5711111111
148
0.0
149
0.0
100
AcDbLayout
  1
_Vorderseite
 70
     1
 71
     1
 10
-35.0194552529
 20
-13.1322957198
 11
485.0194552529
 21
354.5719844358
 12
0.0
 22
0.0
 32
0.0
 14
0.0
 24
0.0
 34
0.0
 15
450.0
 25
170.0
 35
0.0
146
0.0
 13
0.0
 23
0.0
 33
0.0
 16
1.0
 26
0.0
 36
0.0
 17
0.0
 27
1.0
 37
0.0
 76
     0
330
1B
331
16F
  0
LAYOUT
  5
22
102
{ACAD_REACTORS
330
1A
102
}
330
1A
100
AcDbPlotSettings
  1

  2
none_device
  4
ANSI_A_(11.00_x_8.50_Inches)
  6

 40
6.35
 41
19.05
 42
6.35000508
 43
19.05000254
 44
279.4
 45
215.9
 46
-4.95300254
 47
12.06499873
 48
0.0
 49
0.0
140
0.0
141
0.0
142
0.0242
143
1.0
 70
  1696
 72
     0
 73
     0
 74
     0
  7

 75
     0
147
0.0179189148
148
-1300.4909072572
149
0.0
100
AcDbLayout
  1
Model
 70
     1
 71
     0
 10
0.0
 20
0.0
 11
420.0
 21
297.0
 12
0.0
 22
0.0
 32
0.0
 14
0.0
 24
0.0
 34
0.0
 15
450.0
 25
250.0
 35
0.0
146
0.0
 13
0.0
 23
0.0
 33
0.0
 16
1.0
 26
0.0
 36
0.0
 17
0.0
 27
1.0
 37
0.0
 76
     0
330
1F
331
29
  0
MLINESTYLE
  5
18
102
{ACAD_REACTORS
330
17
102
}
330
17
100
AcDbMlineStyle
  2
Standard
 70
     0
  3

 62
   256
 51
90.0
 52
90.0
 71
     2
 49
0.5
 62
   256
  6
BYLAYER
 49
-0.5
 62
   256
  6
BYLAYER
  0
ACDBPLACEHOLDER
  5
F
102
{ACAD_REACTORS
330
E
102
}
330
E
  0
SCALE
  5
48
102
{ACAD_REACTORS
330
47
102
}
330
47
100
AcDbScale
 70
     0
300
1:1
140
1.0
141
1.0
290
     1
  0
SCALE
  5
49
102
{ACAD_REACTORS
330
47
102
}
330
47
100
AcDbScale
 70
     0
300
1:2
140
1.0
141
2.0
290
     0
  0
SCALE
  5
4A
102
{ACAD_REACTORS
330
47
102
}
330
47
100
AcDbScale
 70
     0
300
1:4
140
1.0
141
4.0
290
     0
  0
SCALE
  5
4B
102
{ACAD_REACTORS
330
47
102
}
330
47
100
AcDbScale
 70
     0
300
1:5
140
1.0
141
5.0
290
     0
  0
SCALE
  5
4C
102
{ACAD_REACTORS
330
47
102
}
330
47
100
AcDbScale
 70
     0
300
1:8
140
1.0
141
8.0
290
     0
  0
SCALE
  5
4D
102
{ACAD_REACTORS
330
47
102
}
330
47
100
AcDbScale
 70
     0
300
1:10
140
1.0
141
10.0
290
     0
  0
SCALE
  5
4E
102
{ACAD_REACTORS
330
47
102
}
330
47
100
AcDbScale
 70
     0
300
1:16
140
1.0
141
16.0
290
     0
  0
SCALE
  5
4F
102
{ACAD_REACTORS
330
47
102
}
330
47
100
AcDbScale
 70
     0
300
1:20
140
1.0
141
20.0
290
     0
  0
SCALE
  5
50
102
{ACAD_REACTORS
330
47
102
}
330
47
100
AcDbScale
 70
     0
300
1:30
140
1.0
141
30.0
290
     0
  0
SCALE
  5
51
102
{ACAD_REACTORS
330
47
102
}
330
47
100
AcDbScale
 70
     0
300
1:40
140
1.0
141
40.0
290
     0
  0
SCALE
  5
52
102
{ACAD_REACTORS
330
47
102
}
330
47
100
AcDbScale
 70
     0
300
1:50
140
1.0
141
50.0
290
     0
  0
SCALE
  5
53
102
{ACAD_REACTORS
330
47
102
}
330
47
100
AcDbScale
 70
     0
300
1:100
140
1.0
141
100.0
290
     0
  0
SCALE
  5
54
102
{ACAD_REACTORS
330
47
102
}
330
47
100
AcDbScale
 70
     0
300
2:1
140
2.0
141
1.0
290
     0
  0
SCALE
  5
55
102
{ACAD_REACTORS
330
47
102
}
330
47
100
AcDbScale
 70
     0
300
4:1
140
4.0
141
1.0
290
     0
  0
SCALE
  5
56
102
{ACAD_REACTORS
330
47
102
}
330
47
100
AcDbScale
 70
     0
300
8:1
140
8.0
141
1.0
290
     0
  0
SCALE
  5
57
102
{ACAD_REACTORS
330
47
102
}
330
47
100
AcDbScale
 70
     0
300
10:1
140
10.0
141
1.0
290
     0
  0
SCALE
  5
58
102
{ACAD_REACTORS
330
47
102
}
330
47
100
AcDbScale
 70
     0
300
100:1
140
100.0
141
1.0
290
     0
  0
SCALE
  5
59
102
{ACAD_REACTORS
330
47
102
}
330
47
100
AcDbScale
 70
     0
300
1/128" = 1'-0"
140
0.0078125
141
12.0
290
     0
  0
SCALE
  5
5A
102
{ACAD_REACTORS
330
47
102
}
330
47
100
AcDbScale
 70
     0
300
1/64" = 1'-0"
140
0.015625
141
12.0
290
     0
  0
SCALE
  5
5B
102
{ACAD_REACTORS
330
47
102
}
330
47
100
AcDbScale
 70
     0
300
1/32" = 1'-0"
140
0.03125
141
12.0
290
     0
  0
SCALE
  5
5C
102
{ACAD_REACTORS
330
47
102
}
330
47
100
AcDbScale
 70
     0
300
1/16" = 1'-0"
140
0.0625
141
12.0
290
     0
  0
SCALE
  5
5D
102
{ACAD_REACTORS
330
47
102
}
330
47
100
AcDbScale
 70
     0
300
3/32" = 1'-0"
140
0.09375
141
12.0
290
     0
  0
SCALE
  5
5E
102
{ACAD_REACTORS
330
47
102
}
330
47
100
AcDbScale
 70
     0
300
1/8" = 1'-0"
140
0.125
141
12.0
290
     0
  0
SCALE
  5
5F
102
{ACAD_REACTORS
330
47
102
}
330
47
100
AcDbScale
 70
     0
300
3/16" = 1'-0"
140
0.1875
141
12.0
290
     0
  0
SCALE
  5
60
102
{ACAD_REACTORS
330
47
102
}
330
47
100
AcDbScale
 70
     0
300
1/4" = 1'-0"
140
0.25
141
12.0
290
     0
  0
SCALE
  5
61
102
{ACAD_REACTORS
330
47
102
}
330
47
100
AcDbScale
 70
     0
300
3/8" = 1'-0"
140
0.375
141
12.0
290
     0
  0
SCALE
  5
62
102
{ACAD_REACTORS
330
47
102
}
330
47
100
AcDbScale
 70
     0
300
1/2" = 1'-0"
140
0.5
141
12.0
290
     0
  0
SCALE
  5
63
102
{ACAD_REACTORS
330
47
102
}
330
47
100
AcDbScale
 70
     0
300
3/4" = 1'-0"
140
0.75
141
12.0
290
     0
  0
SCALE
  5
64
102
{ACAD_REACTORS
330
47
102
}
330
47
100
AcDbScale
 70
     0
300
1" = 1'-0"
140
1.0
141
12.0
290
     0
  0
SCALE
  5
65
102
{ACAD_REACTORS
330
47
102
}
330
47
100
AcDbScale
 70
     0
300
1-1/2" = 1'-0"
140
1.5
141
12.0
290
     0
  0
SCALE
  5
66
102
{ACAD_REACTORS
330
47
102
}
330
47
100
AcDbScale
 70
     0
300
3" = 1'-0"
140
3.0
141
12.0
290
     0
  0
SCALE
  5
67
102
{ACAD_REACTORS
330
47
102
}
330
47
100
AcDbScale
 70
     0
300
6" = 1'-0"
140
6.0
141
12.0
290
     0
  0
SCALE
  5
68
102
{ACAD_REACTORS
330
47
102
}
330
47
100
AcDbScale
 70
     0
300
1'-0" = 1'-0"
140
12.0
141
12.0
290
     0
  0
ENDSEC
  0
EOF
