  0
SECTION
  2
HEADER
  9
$ACADVER
  1
AC1015
  9
$ACADMAINTVER
 70
     6
  9
$DWGCODEPAGE
  3
ANSI_1252
  9
$INSBASE
 10
0.0
 20
0.0
 30
0.0
  9
$EXTMIN
 10
0.0
 20
0.0
 30
0.0
  9
$EXTMAX
 10
450.0
 20
250.0
 30
0.0
  9
$LIMMIN
 10
0.0
 20
0.0
  9
$LIMMAX
 10
420.0
 20
297.0
  9
$ORTHOMODE
 70
     0
  9
$REGENMODE
 70
     1
  9
$FILLMODE
 70
     1
  9
$QTEXTMODE
 70
     0
  9
$MIRRTEXT
 70
     1
  9
$LTSCALE
 40
1.0
  9
$ATTMODE
 70
     1
  9
$TEXTSIZE
 40
3.5
  9
$TRACEWID
 40
1.0
  9
$TEXTSTYLE
  7
STANDARD
  9
$CLAYER
  8
0
  9
$CELTYPE
  6
ByLayer
  9
$CECOLOR
 62
   256
  9
$CELTSCALE
 40
1.0
  9
$DISPSILH
 70
     0
  9
$DIMSCALE
 40
1.0
  9
$DIMASZ
 40
6.0
  9
$DIMEXO
 40
1.0
  9
$DIMDLI
 40
3.75
  9
$DIMRND
 40
0.0
  9
$DIMDLE
 40
0.0
  9
$DIMEXE
 40
1.0
  9
$DIMTP
 40
0.0
  9
$DIMTM
 40
0.0
  9
$DIMTXT
 40
3.5
  9
$DIMCEN
 40
2.5
  9
$DIMTSZ
 40
0.0
  9
$DIMTOL
 70
     0
  9
$DIMLIM
 70
     0
  9
$DIMTIH
 70
     1
  9
$DIMTOH
 70
     1
  9
$DIMSE1
 70
     0
  9
$DIMSE2
 70
     0
  9
$DIMTAD
 70
     1
  9
$DIMZIN
 70
     0
  9
$DIMBLK
  1

  9
$DIMASO
 70
     1
  9
$DIMSHO
 70
     1
  9
$DIMPOST
  1

  9
$DIMAPOST
  1

  9
$DIMALT
 70
     0
  9
$DIMALTD
 70
     3
  9
$DIMALTF
 40
0.0393700787
  9
$DIMLFAC
 40
1.0
  9
$DIMTOFL
 70
     1
  9
$DIMTVP
 40
0.0
  9
$DIMTIX
 70
     0
  9
$DIMSOXD
 70
     0
  9
$DIMSAH
 70
     0
  9
$DIMBLK1
  1

  9
$DIMBLK2
  1

  9
$DIMSTYLE
  2
ISO-25
  9
$DIMCLRD
 70
     0
  9
$DIMCLRE
 70
     0
  9
$DIMCLRT
 70
     0
  9
$DIMTFAC
 40
1.0
  9
$DIMGAP
 40
1.524
  9
$DIMJUST
 70
     0
  9
$DIMSD1
 70
     0
  9
$DIMSD2
 70
     0
  9
$DIMTOLJ
 70
     0
  9
$DIMTZIN
 70
     0
  9
$DIMALTZ
 70
     0
  9
$DIMALTTZ
 70
     0
  9
$DIMUPT
 70
     0
  9
$DIMDEC
 70
     2
  9
$DIMTDEC
 70
     2
  9
$DIMALTU
 70
     2
  9
$DIMALTTD
 70
     3
  9
$DIMTXSTY
  7
STANDARD
  9
$DIMAUNIT
 70
     0
  9
$DIMADEC
 70
     2
  9
$DIMALTRND
 40
0.0
  9
$DIMAZIN
 70
     0
  9
$DIMDSEP
 70
    44
  9
$DIMATFIT
 70
     3
  9
$DIMFRAC
 70
     0
  9
$DIMLDRBLK
  1

  9
$DIMLUNIT
 70
     2
  9
$DIMLWD
 70
    -2
  9
$DIMLWE
 70
    -2
  9
$DIMTMOVE
 70
     0
  9
$LUNITS
 70
     2
  9
$LUPREC
 70
     2
  9
$SKETCHINC
 40
1.0
  9
$FILLETRAD
 40
10.0
  9
$AUNITS
 70
     0
  9
$AUPREC
 70
     2
  9
$MENU
  1
.
  9
$ELEVATION
 40
0.0
  9
$PELEVATION
 40
0.0
  9
$THICKNESS
 40
0.0
  9
$LIMCHECK
 70
     0
  9
$CHAMFERA
 40
0.0
  9
$CHAMFERB
 40
0.0
  9
$CHAMFERC
 40
0.0
  9
$CHAMFERD
 40
0.0
  9
$SKPOLY
 70
     0
  9
$TDCREATE
 40
2458222.574400428
  9
$TDUCREATE
 40
2458222.491067095
  9
$TDUPDATE
 40
2458222.574428727
  9
$TDUUPDATE
 40
2458222.491095393
  9
$TDINDWG
 40
0.0000000116
  9
$TDUSRTIMER
 40
0.0000000116
  9
$USRTIMER
 70
     1
  9
$ANGBASE
 50
0.0
  9
$ANGDIR
 70
     0
  9
$PDMODE
 70
     0
  9
$PDSIZE
 40
-1.0
  9
$PLINEWID
 40
0.0
  9
$SPLFRAME
 70
     0
  9
$SPLINETYPE
 70
     6
  9
$SPLINESEGS
 70
     8
  9
$HANDSEED
  5
181
  9
$SURFTAB1
 70
     6
  9
$SURFTAB2
 70
     6
  9
$SURFTYPE
 70
     6
  9
$SURFU
 70
     6
  9
$SURFV
 70
     6
  9
$UCSBASE
  2

  9
$UCSNAME
  2

  9
$UCSORG
 10
0.0
 20
0.0
 30
0.0
  9
$UCSXDIR
 10
1.0
 20
0.0
 30
0.0
  9
$UCSYDIR
 10
0.0
 20
1.0
 30
0.0
  9
$UCSORTHOREF
  2

  9
$UCSORTHOVIEW
 70
     0
  9
$UCSORGTOP
 10
0.0
 20
0.0
 30
0.0
  9
$UCSORGBOTTOM
 10
0.0
 20
0.0
 30
0.0
  9
$UCSORGLEFT
 10
0.0
 20
0.0
 30
0.0
  9
$UCSORGRIGHT
 10
0.0
 20
0.0
 30
0.0
  9
$UCSORGFRONT
 10
0.0
 20
0.0
 30
0.0
  9
$UCSORGBACK
 10
0.0
 20
0.0
 30
0.0
  9
$PUCSBASE
  2

  9
$PUCSNAME
  2

  9
$PUCSORG
 10
0.0
 20
0.0
 30
0.0
  9
$PUCSXDIR
 10
1.0
 20
0.0
 30
0.0
  9
$PUCSYDIR
 10
0.0
 20
1.0
 30
0.0
  9
$PUCSORTHOREF
  2

  9
$PUCSORTHOVIEW
 70
     0
  9
$PUCSORGTOP
 10
0.0
 20
0.0
 30
0.0
  9
$PUCSORGBOTTOM
 10
0.0
 20
0.0
 30
0.0
  9
$PUCSORGLEFT
 10
0.0
 20
0.0
 30
0.0
  9
$PUCSORGRIGHT
 10
0.0
 20
0.0
 30
0.0
  9
$PUCSORGFRONT
 10
0.0
 20
0.0
 30
0.0
  9
$PUCSORGBACK
 10
0.0
 20
0.0
 30
0.0
  9
$USERI1
 70
     0
  9
$USERI2
 70
     0
  9
$USERI3
 70
     0
  9
$USERI4
 70
     0
  9
$USERI5
 70
     0
  9
$USERR1
 40
0.0
  9
$USERR2
 40
0.0
  9
$USERR3
 40
0.0
  9
$USERR4
 40
0.0
  9
$USERR5
 40
0.0
  9
$WORLDVIEW
 70
     1
  9
$SHADEDGE
 70
     3
  9
$SHADEDIF
 70
    70
  9
$TILEMODE
 70
     1
  9
$MAXACTVP
 70
    64
  9
$PINSBASE
 10
0.0
 20
0.0
 30
0.0
  9
$PLIMCHECK
 70
     0
  9
$PEXTMIN
 10
0.0
 20
0.0
 30
0.0
  9
$PEXTMAX
 10
450.0
 20
170.0
 30
0.0
  9
$PLIMMIN
 10
-35.0194552529
 20
-13.1322957198
  9
$PLIMMAX
 10
485.0194552529
 20
354.5719844358
  9
$UNITMODE
 70
     0
  9
$VISRETAIN
 70
     1
  9
$PLINEGEN
 70
     0
  9
$PSLTSCALE
 70
     1
  9
$TREEDEPTH
 70
  3020
  9
$CMLSTYLE
  2
Standard
  9
$CMLJUST
 70
     0
  9
$CMLSCALE
 40
20.0
  9
$PROXYGRAPHICS
 70
     1
  9
$MEASUREMENT
 70
     1
  9
$CELWEIGHT
370
    -1
  9
$ENDCAPS
280
     0
  9
$JOINSTYLE
280
     0
  9
$LWDISPLAY
290
     1
  9
$INSUNITS
 70
     4
  9
$HYPERLINKBASE
  1

  9
$STYLESHEET
  1

  9
$XEDIT
290
     1
  9
$CEPSNTYPE
380
     0
  9
$PSTYLEMODE
290
     1
  9
$FINGERPRINTGUID
  2
{CA8E9658-189E-4FA8-A106-66B4A3396048}
  9
$VERSIONGUID
  2
{FAEB1C32-E019-11D5-929B-00C0DF256EC4}
  9
$EXTNAMES
290
     1
  9
$PSVPSCALE
 40
0.0
  9
$OLESTARTUP
290
     0
  0
ENDSEC
  0
SECTION
  2
CLASSES
  0
CLASS
  1
ACDBDICTIONARYWDFLT
  2
AcDbDictionaryWithDefault
  3
ObjectDBX Classes
 90
        0
280
     0
281
     0
  0
CLASS
  1
VISUALSTYLE
  2
AcDbVisualStyle
  3
ObjectDBX Classes
 90
     4095
280
     0
281
     0
  0
CLASS
  1
MATERIAL
  2
AcDbMaterial
  3
ObjectDBX Classes
 90
     1153
280
     0
281
     0
  0
CLASS
  1
SCALE
  2
AcDbScale
  3
ObjectDBX Classes
 90
     1153
280
     0
281
     0
  0
CLASS
  1
TABLESTYLE
  2
AcDbTableStyle
  3
ObjectDBX Classes
 90
     4095
280
     0
281
     0
  0
CLASS
  1
MLEADERSTYLE
  2
AcDbMLeaderStyle
  3
ACDB_MLEADERSTYLE_CLASS
 90
     4095
280
     0
281
     0
  0
CLASS
  1
SUN
  2
AcDbSun
  3
SCENEOE
 90
     1153
280
     0
281
     0
  0
CLASS
  1
ACDBPLACEHOLDER
  2
AcDbPlaceHolder
  3
ObjectDBX Classes
 90
        0
280
     0
281
     0
  0
CLASS
  1
LAYOUT
  2
AcDbLayout
  3
ObjectDBX Classes
 90
        0
280
     0
281
     0
  0
ENDSEC
  0
SECTION
  2
TABLES
  0
TABLE
  2
VPORT
  5
8
330
0
100
AcDbSymbolTable
 70
     1
  0
VPORT
  5
29
330
8
100
AcDbSymbolTableRecord
100
AcDbViewportTableRecord
  2
*Active
 70
     0
 10
0.0
 20
0.0
 11
1.0
 21
1.0
 12
225.0
 22
125.0
 13
0.0
 23
0.0
 14
10.0
 24
10.0
 15
10.0
 25
10.0
 16
0.0
 26
0.0
 36
1.0
 17
0.0
 27
0.0
 37
0.0
 40
255.0
 41
1.8
 42
50.0
 43
0.0
 44
0.0
 50
0.0
 51
0.0
 71
     0
 72
   100
 73
     1
 74
     3
 75
     0
 76
     0
 77
     0
 78
     0
281
     0
 65
     1
110
0.0
120
0.0
130
0.0
111
1.0
121
0.0
131
0.0
112
0.0
122
1.0
132
0.0
 79
     0
146
0.0
  0
ENDTAB
  0
TABLE
  2
LTYPE
  5
5
330
0
100
AcDbSymbolTable
 70
     6
  0
LTYPE
  5
14
330
5
100
AcDbSymbolTableRecord
100
AcDbLinetypeTableRecord
  2
ByBlock
 70
     0
  3

 72
    65
 73
     0
 40
0.0
  0
LTYPE
  5
15
330
5
100
AcDbSymbolTableRecord
100
AcDbLinetypeTableRecord
  2
ByLayer
 70
     0
  3

 72
    65
 73
     0
 40
0.0
  0
LTYPE
  5
16
330
5
100
AcDbSymbolTableRecord
100
AcDbLinetypeTableRecord
  2
Continuous
 70
     0
  3
Solid line
 72
    65
 73
     0
 40
0.0
  0
LTYPE
  5
6E
330
5
100
AcDbSymbolTableRecord
100
AcDbLinetypeTableRecord
  2
HIDDEN
 70
     0
  3
Hidden __ __ __ __ __ __ __ __ __ __ __ __ __ __
 72
    65
 73
     2
 40
1.905
 49
1.27
 74
     0
 49
-0.635
 74
     0
  0
LTYPE
  5
6F
330
5
100
AcDbSymbolTableRecord
100
AcDbLinetypeTableRecord
  2
PHANTOM
 70
     0
  3
Phantom ______  __  __  ______  __  __  ______
 72
    65
 73
     6
 40
12.7
 49
6.35
 74
     0
 49
-1.27
 74
     0
 49
1.27
 74
     0
 49
-1.27
 74
     0
 49
1.27
 74
     0
 49
-1.27
 74
     0
  0
LTYPE
  5
70
330
5
100
AcDbSymbolTableRecord
100
AcDbLinetypeTableRecord
  2
CENTER
 70
     0
  3
Center ____ _ ____ _ ____ _ ____ _ ____ _ ____
 72
    65
 73
     4
 40
10.16
 49
6.35
 74
     0
 49
-1.27
 74
     0
 49
1.27
 74
     0
 49
-1.27
 74
     0
  0
LTYPE
  5
71
330
5
100
AcDbSymbolTableRecord
100
AcDbLinetypeTableRecord
  2
CENTERX2
 70
     0
  3
Center (2x) ________  __  ________  __  _____
 72
    65
 73
     4
 40
20.32
 49
12.7
 74
     0
 49
-2.54
 74
     0
 49
2.54
 74
     0
 49
-2.54
 74
     0
  0
LTYPE
  5
72
330
5
100
AcDbSymbolTableRecord
100
AcDbLinetypeTableRecord
  2
DOT2
 70
     0
  3
Dot (.5x) ........................................
 72
    65
 73
     2
 40
0.635
 49
0.0
 74
     0
 49
-0.635
 74
     0
  0
ENDTAB
  0
TABLE
  2
LAYER
  5
2
330
0
100
AcDbSymbolTable
 70
     1
  0
LAYER
  5
10
330
2
100
AcDbSymbolTableRecord
100
AcDbLayerTableRecord
  2
0
 70
     0
 62
     7
  6
Continuous
370
    -3
390
F
  0
ENDTAB
  0
TABLE
  2
STYLE
  5
3
330
0
100
AcDbSymbolTable
 70
     1
  0
STYLE
  5
11
330
3
100
AcDbSymbolTableRecord
100
AcDbTextStyleTableRecord
  2
STANDARD
 70
     0
 40
0.0
 41
1.0
 50
0.0
 71
     0
 42
3.5
  3
GOTHIC.TTF
  4

1001
ACAD
1000
CENTURY GOTHIC
1071
       34
  0
ENDTAB
  0
TABLE
  2
VIEW
  5
6
330
0
100
AcDbSymbolTable
 70
     0
  0
ENDTAB
  0
TABLE
  2
UCS
  5
7
330
0
100
AcDbSymbolTable
 70
     0
  0
ENDTAB
  0
TABLE
  2
APPID
  5
9
330
0
100
AcDbSymbolTable
 70
     1
  0
APPID
  5
12
330
9
100
AcDbSymbolTableRecord
100
AcDbRegAppTableRecord
  2
ACAD
 70
     0
  0
ENDTAB
  0
TABLE
  2
DIMSTYLE
  5
A
330
0
100
AcDbSymbolTable
 70
     1
100
AcDbDimStyleTable
  0
DIMSTYLE
105
27
330
A
100
AcDbSymbolTableRecord
100
AcDbDimStyleTableRecord
  2
ISO-25
 70
     0
 41
2.5
 42
0.625
 43
3.75
 44
1.25
 73
     0
 74
     0
 77
     1
 78
     8
140
2.5
141
2.5
143
0.0393700787
147
0.625
171
     3
172
     1
178
     0
271
     2
272
     2
274
     3
278
    44
283
     0
284
     8
340
11
  0
ENDTAB
  0
TABLE
  2
BLOCK_RECORD
  5
1
330
0
100
AcDbSymbolTable
 70
     8
  0
BLOCK_RECORD
  5
1F
330
1
100
AcDbSymbolTableRecord
100
AcDbBlockTableRecord
  2
*Model_Space
340
22
  0
BLOCK_RECORD
  5
1B
330
1
100
AcDbSymbolTableRecord
100
AcDbBlockTableRecord
  2
*Paper_Space
340
1E
  0
BLOCK_RECORD
  5
23
330
1
100
AcDbSymbolTableRecord
100
AcDbBlockTableRecord
  2
*Paper_Space0
340
26
  0
BLOCK_RECORD
  5
A9
330
1
100
AcDbSymbolTableRecord
100
AcDbBlockTableRecord
  2
*Paper_Space1
340
AA
  0
BLOCK_RECORD
  5
B5
330
1
100
AcDbSymbolTableRecord
100
AcDbBlockTableRecord
  2
*Paper_Space2
340
B6
  0
BLOCK_RECORD
  5
CF
330
1
100
AcDbSymbolTableRecord
100
AcDbBlockTableRecord
  2
*Paper_Space3
340
D0
  0
BLOCK_RECORD
  5
DB
330
1
100
AcDbSymbolTableRecord
100
AcDbBlockTableRecord
  2
*Paper_Space4
340
DC
  0
BLOCK_RECORD
  5
FC
330
1
100
AcDbSymbolTableRecord
100
AcDbBlockTableRecord
  2
*Paper_Space5
340
FD
  0
BLOCK_RECORD
  5
125
330
1
100
AcDbSymbolTableRecord
100
AcDbBlockTableRecord
  2
*Paper_Space6
340
126
  0
BLOCK_RECORD
  5
14E
330
1
100
AcDbSymbolTableRecord
100
AcDbBlockTableRecord
  2
*Paper_Space7
340
14F
  0
ENDTAB
  0
ENDSEC
  0
SECTION
  2
BLOCKS
  0
BLOCK
  5
20
330
1F
100
AcDbEntity
  8
0
100
AcDbBlockBegin
  2
*Model_Space
 70
     0
 10
0.0
 20
0.0
 30
0.0
  3
*Model_Space
  1

  0
ENDBLK
  5
21
330
1F
100
AcDbEntity
  8
0
100
AcDbBlockEnd
  0
BLOCK
  5
1C
330
1B
100
AcDbEntity
 67
     1
  8
0
100
AcDbBlockBegin
  2
*Paper_Space
 70
     0
 10
0.0
 20
0.0
 30
0.0
  3
*Paper_Space
  1

  0
ENDBLK
  5
1D
330
1B
100
AcDbEntity
 67
     1
  8
0
100
AcDbBlockEnd
  0
BLOCK
  5
24
330
23
100
AcDbEntity
  8
0
100
AcDbBlockBegin
  2
*Paper_Space0
 70
     0
 10
0.0
 20
0.0
 30
0.0
  3
*Paper_Space0
  1

  0
LINE
  5
A5
330
23
100
AcDbEntity
  8
0
  6
Continuous
 62
     7
370
    25
100
AcDbLine
 10
0.0
 20
170.0
 30
0.0
 11
0.0
 21
0.0
 31
0.0
  0
LINE
  5
A6
330
23
100
AcDbEntity
  8
0
  6
Continuous
 62
     7
370
    25
100
AcDbLine
 10
0.0
 20
170.0
 30
0.0
 11
250.0
 21
170.0
 31
0.0
  0
LINE
  5
A7
330
23
100
AcDbEntity
  8
0
  6
Continuous
 62
     7
370
    25
100
AcDbLine
 10
250.0
 20
170.0
 30
0.0
 11
250.0
 21
0.0
 31
0.0
  0
LINE
  5
A8
330
23
100
AcDbEntity
  8
0
  6
Continuous
 62
     7
370
    25
100
AcDbLine
 10
0.0
 20
0.0
 30
0.0
 11
250.0
 21
0.0
 31
0.0
  0
VIEWPORT
  5
171
330
23
100
AcDbEntity
  8
0
100
AcDbViewport
 10
0.0
 20
0.0
 30
0.0
 40
205.6
 41
156.0
 68
     1
 69
     1
 12
225.0
 22
125.0
 13
0.0
 23
0.0
 14
10.0
 24
10.0
 15
10.0
 25
10.0
 16
0.0
 26
0.0
 36
1.0
 17
0.0
 27
0.0
 37
0.0
 42
50.0
 43
0.0
 44
0.0
 45
348.2684824903
 50
0.0
 51
0.0
 72
   100
 90
   557152
  1

281
     0
 71
     1
 74
     0
110
0.0
120
0.0
130
0.0
111
1.0
121
0.0
131
0.0
112
0.0
122
1.0
132
0.0
 79
     0
146
0.0
  0
ENDBLK
  5
25
330
23
100
AcDbEntity
  8
0
100
AcDbBlockEnd
  0
BLOCK
  5
AB
330
A9
100
AcDbEntity
  8
0
100
AcDbBlockBegin
  2
*Paper_Space1
 70
     0
 10
0.0
 20
0.0
 30
0.0
  3
*Paper_Space1
  1

  0
LINE
  5
B1
330
A9
100
AcDbEntity
  8
0
  6
Continuous
 62
     7
370
    25
100
AcDbLine
 10
0.0
 20
170.0
 30
0.0
 11
450.0
 21
170.0
 31
0.0
  0
LINE
  5
B2
330
A9
100
AcDbEntity
  8
0
  6
Continuous
 62
     7
370
    25
100
AcDbLine
 10
450.0
 20
170.0
 30
0.0
 11
450.0
 21
0.0
 31
0.0
  0
LINE
  5
B3
330
A9
100
AcDbEntity
  8
0
  6
Continuous
 62
     7
370
    25
100
AcDbLine
 10
0.0
 20
170.0
 30
0.0
 11
0.0
 21
0.0
 31
0.0
  0
LINE
  5
B4
330
A9
100
AcDbEntity
  8
0
  6
Continuous
 62
     7
370
    25
100
AcDbLine
 10
0.0
 20
0.0
 30
0.0
 11
450.0
 21
0.0
 31
0.0
  0
VIEWPORT
  5
173
330
A9
100
AcDbEntity
  8
0
100
AcDbViewport
 10
0.0
 20
0.0
 30
0.0
 40
205.6
 41
156.0
 68
     1
 69
     1
 12
225.0
 22
125.0
 13
0.0
 23
0.0
 14
10.0
 24
10.0
 15
10.0
 25
10.0
 16
0.0
 26
0.0
 36
1.0
 17
0.0
 27
0.0
 37
0.0
 42
50.0
 43
0.0
 44
0.0
 45
348.2684824903
 50
0.0
 51
0.0
 72
   100
 90
   557152
  1

281
     0
 71
     1
 74
     0
110
0.0
120
0.0
130
0.0
111
1.0
121
0.0
131
0.0
112
0.0
122
1.0
132
0.0
 79
     0
146
0.0
  0
ENDBLK
  5
AC
330
A9
100
AcDbEntity
  8
0
100
AcDbBlockEnd
  0
BLOCK
  5
B7
330
B5
100
AcDbEntity
  8
0
100
AcDbBlockBegin
  2
*Paper_Space2
 70
     0
 10
0.0
 20
0.0
 30
0.0
  3
*Paper_Space2
  1

  0
CIRCLE
  5
C2
330
B5
100
AcDbEntity
  8
0
  6
Continuous
 62
     7
370
    25
100
AcDbCircle
 10
-225.0
 20
40.0
 30
0.0
 40
2.750000000000057
  0
CIRCLE
  5
C3
330
B5
100
AcDbEntity
  8
0
  6
Continuous
 62
     7
370
    25
100
AcDbCircle
 10
-390.0
 20
110.0
 30
0.0
 40
2.75
  0
CIRCLE
  5
C4
330
B5
100
AcDbEntity
  8
0
  6
Continuous
 62
     7
370
    25
100
AcDbCircle
 10
-60.0
 20
110.0
 30
0.0
 40
2.75
  0
LINE
  5
C8
330
B5
100
AcDbEntity
  8
0
  6
Continuous
 62
     7
370
    25
100
AcDbLine
 10
-450.0
 20
170.0
 30
0.0
 11
0.0
 21
170.0
 31
0.0
  0
LINE
  5
C9
330
B5
100
AcDbEntity
  8
0
  6
Continuous
 62
     7
370
    25
100
AcDbLine
 10
-450.0
 20
170.0
 30
0.0
 11
-450.0
 21
0.0
 31
0.0
  0
LINE
  5
CA
330
B5
100
AcDbEntity
  8
0
  6
Continuous
 62
     7
370
    25
100
AcDbLine
 10
0.0
 20
170.0
 30
0.0
 11
0.0
 21
0.0
 31
0.0
  0
LINE
  5
CB
330
B5
100
AcDbEntity
  8
0
  6
Continuous
 62
     7
370
    25
100
AcDbLine
 10
-430.0
 20
140.0
 30
0.0
 11
-430.0
 21
0.0
 31
0.0
  0
LINE
  5
CC
330
B5
100
AcDbEntity
  8
0
  6
Continuous
 62
     7
370
    25
100
AcDbLine
 10
-430.0
 20
140.0
 30
0.0
 11
-20.0
 21
140.0
 31
0.0
  0
LINE
  5
CD
330
B5
100
AcDbEntity
  8
0
  6
Continuous
 62
     7
370
    25
100
AcDbLine
 10
-20.0
 20
140.0
 30
0.0
 11
-20.0
 21
0.0
 31
0.0
  0
LINE
  5
CE
330
B5
100
AcDbEntity
  8
0
  6
Continuous
 62
     7
370
    25
100
AcDbLine
 10
-450.0
 20
0.0
 30
0.0
 11
0.0
 21
0.0
 31
0.0
  0
VIEWPORT
  5
175
330
B5
100
AcDbEntity
  8
0
100
AcDbViewport
 10
0.0
 20
0.0
 30
0.0
 40
205.6
 41
156.0
 68
     1
 69
     1
 12
225.0
 22
125.0
 13
0.0
 23
0.0
 14
10.0
 24
10.0
 15
10.0
 25
10.0
 16
0.0
 26
0.0
 36
1.0
 17
0.0
 27
0.0
 37
0.0
 42
50.0
 43
0.0
 44
0.0
 45
348.2684824903
 50
0.0
 51
0.0
 72
   100
 90
   557152
  1

281
     0
 71
     1
 74
     0
110
0.0
120
0.0
130
0.0
111
1.0
121
0.0
131
0.0
112
0.0
122
1.0
132
0.0
 79
     0
146
0.0
  0
ENDBLK
  5
B8
330
B5
100
AcDbEntity
  8
0
100
AcDbBlockEnd
  0
BLOCK
  5
D1
330
CF
100
AcDbEntity
  8
0
100
AcDbBlockBegin
  2
*Paper_Space3
 70
     0
 10
0.0
 20
0.0
 30
0.0
  3
*Paper_Space3
  1

  0
LINE
  5
D7
330
CF
100
AcDbEntity
  8
0
  6
Continuous
 62
     7
370
    25
100
AcDbLine
 10
-250.0
 20
170.0
 30
0.0
 11
-250.0
 21
0.0
 31
0.0
  0
LINE
  5
D8
330
CF
100
AcDbEntity
  8
0
  6
Continuous
 62
     7
370
    25
100
AcDbLine
 10
-250.0
 20
170.0
 30
0.0
 11
0.0
 21
170.0
 31
0.0
  0
LINE
  5
D9
330
CF
100
AcDbEntity
  8
0
  6
Continuous
 62
     7
370
    25
100
AcDbLine
 10
0.0
 20
170.0
 30
0.0
 11
0.0
 21
0.0
 31
0.0
  0
LINE
  5
DA
330
CF
100
AcDbEntity
  8
0
  6
Continuous
 62
     7
370
    25
100
AcDbLine
 10
-250.0
 20
0.0
 30
0.0
 11
0.0
 21
0.0
 31
0.0
  0
VIEWPORT
  5
177
330
CF
100
AcDbEntity
  8
0
100
AcDbViewport
 10
0.0
 20
0.0
 30
0.0
 40
205.6
 41
156.0
 68
     1
 69
     1
 12
225.0
 22
125.0
 13
0.0
 23
0.0
 14
10.0
 24
10.0
 15
10.0
 25
10.0
 16
0.0
 26
0.0
 36
1.0
 17
0.0
 27
0.0
 37
0.0
 42
50.0
 43
0.0
 44
0.0
 45
348.2684824903
 50
0.0
 51
0.0
 72
   100
 90
   557152
  1

281
     0
 71
     1
 74
     0
110
0.0
120
0.0
130
0.0
111
1.0
121
0.0
131
0.0
112
0.0
122
1.0
132
0.0
 79
     0
146
0.0
  0
ENDBLK
  5
D2
330
CF
100
AcDbEntity
  8
0
100
AcDbBlockEnd
  0
BLOCK
  5
DD
330
DB
100
AcDbEntity
  8
0
100
AcDbBlockBegin
  2
*Paper_Space4
 70
     0
 10
0.0
 20
0.0
 30
0.0
  3
*Paper_Space4
  1

  0
CIRCLE
  5
DF
330
DB
100
AcDbEntity
  8
0
  6
Continuous
 62
     7
370
    25
100
AcDbCircle
 10
265.0
 20
-125.0
 30
0.0
 40
22.49999999999999
  0
CIRCLE
  5
EA
330
DB
100
AcDbEntity
  8
0
  6
Continuous
 62
     7
370
    25
100
AcDbCircle
 10
50.0
 20
-125.0
 30
0.0
 40
17.50000000000006
  0
CIRCLE
  5
EB
330
DB
100
AcDbEntity
  8
0
  6
Continuous
 62
     7
370
    25
100
AcDbCircle
 10
350.0
 20
-232.0
 30
0.0
 40
4.699999999999875
  0
CIRCLE
  5
EC
330
DB
100
AcDbEntity
  8
0
  6
Continuous
 62
     7
370
    25
100
AcDbCircle
 10
350.0
 20
-232.0
 30
0.0
 40
2.249999999999886
  0
CIRCLE
  5
F1
330
DB
100
AcDbEntity
  8
0
  6
Continuous
 62
     7
370
    25
100
AcDbCircle
 10
100.0
 20
-232.0
 30
0.0
 40
4.700000000000031
  0
CIRCLE
  5
F2
330
DB
100
AcDbEntity
  8
0
  6
Continuous
 62
     7
370
    25
100
AcDbCircle
 10
100.0
 20
-232.0
 30
0.0
 40
2.249999999999972
  0
LINE
  5
F3
330
DB
100
AcDbEntity
  8
0
  6
Continuous
 62
     7
370
    25
100
AcDbLine
 10
430.0
 20
-220.0
 30
0.0
 11
20.0
 21
-220.0
 31
0.0
  0
LINE
  5
F4
330
DB
100
AcDbEntity
  8
0
  6
Continuous
 62
     7
370
    25
100
AcDbLine
 10
450.0
 20
-250.0
 30
0.0
 11
0.0
 21
-250.0
 31
0.0
  0
LINE
  5
F5
330
DB
100
AcDbEntity
  8
0
  6
Continuous
 62
     7
370
    25
100
AcDbLine
 10
450.0
 20
0.0
 30
0.0
 11
450.0
 21
-250.0
 31
0.0
  0
LINE
  5
F6
330
DB
100
AcDbEntity
  8
0
  6
Continuous
 62
     7
370
    25
100
AcDbLine
 10
0.0
 20
0.0
 30
0.0
 11
450.0
 21
0.0
 31
0.0
  0
LINE
  5
F7
330
DB
100
AcDbEntity
  8
0
  6
Continuous
 62
     7
370
    25
100
AcDbLine
 10
0.0
 20
-250.0
 30
0.0
 11
0.0
 21
0.0
 31
0.0
  0
LINE
  5
F8
330
DB
100
AcDbEntity
  8
0
  6
Continuous
 62
     7
370
    25
100
AcDbLine
 10
430.0
 20
-250.0
 30
0.0
 11
430.0
 21
-220.0
 31
0.0
  0
LINE
  5
F9
330
DB
100
AcDbEntity
  8
0
  6
Continuous
 62
     7
370
    25
100
AcDbLine
 10
80.0
 20
-20.0
 30
0.0
 11
20.0
 21
-20.0
 31
0.0
  0
LINE
  5
FA
330
DB
100
AcDbEntity
  8
0
  6
Continuous
 62
     7
370
    25
100
AcDbLine
 10
20.0
 20
-20.0
 30
0.0
 11
20.0
 21
-250.0
 31
0.0
  0
LINE
  5
FB
330
DB
100
AcDbEntity
  8
0
  6
Continuous
 62
     7
370
    25
100
AcDbLine
 10
80.0
 20
-220.0
 30
0.0
 11
80.0
 21
-20.0
 31
0.0
  0
VIEWPORT
  5
179
330
DB
100
AcDbEntity
  8
0
100
AcDbViewport
 10
0.0
 20
0.0
 30
0.0
 40
205.6
 41
156.0
 68
     1
 69
     1
 12
225.0
 22
125.0
 13
0.0
 23
0.0
 14
10.0
 24
10.0
 15
10.0
 25
10.0
 16
0.0
 26
0.0
 36
1.0
 17
0.0
 27
0.0
 37
0.0
 42
50.0
 43
0.0
 44
0.0
 45
348.2684824903
 50
0.0
 51
0.0
 72
   100
 90
   557152
  1

281
     0
 71
     1
 74
     0
110
0.0
120
0.0
130
0.0
111
1.0
121
0.0
131
0.0
112
0.0
122
1.0
132
0.0
 79
     0
146
0.0
  0
ENDBLK
  5
DE
330
DB
100
AcDbEntity
  8
0
100
AcDbBlockEnd
  0
BLOCK
  5
FE
330
FC
100
AcDbEntity
  8
0
100
AcDbBlockBegin
  2
*Paper_Space5
 70
     0
 10
0.0
 20
0.0
 30
0.0
  3
*Paper_Space5
  1

  0
LWPOLYLINE
  5
108
330
FC
100
AcDbEntity
  8
0
  6
Continuous
 62
     7
370
    25
100
AcDbPolyline
 90
       45
 70
   128
 43
0.0
 10
111.3693180369
 20
162.2836712355
 10
113.2563275437
 20
161.3397463394
 10
115.35682944
 20
160.5604595369
 10
117.6280635647
 20
159.96167486
 10
120.0237941405
 20
159.5555818379
 10
122.4952510017
 20
159.3504473537
 10
124.9921224136
 20
159.3504473537
 10
127.4635792748
 20
159.5555818379
 10
129.8593098506
 20
159.96167486
 10
132.1305439752
 20
160.5604595369
 10
134.2310458716
 20
161.3397463394
 10
136.1180553784
 20
162.2836712355
 10
137.7531584238
 20
163.3730186364
 10
139.1030690251
 20
164.5856125703
 10
140.1403068951
 20
165.8967681217
 10
140.8437568621
 20
167.2797939446
 10
141.1990987133
 20
168.7065356215
 10
141.1990987133
 20
170.1479488063
 10
140.8437568621
 20
171.5746904832
 10
140.1403068951
 20
172.9577163061
 10
139.1030690251
 20
174.2688718575
 10
137.7531584238
 20
175.4814657915
 10
136.1180553784
 20
176.5708131924
 10
134.2310458716
 20
177.5147380885
 10
132.1305439752
 20
178.294024891
 10
129.8593098506
 20
178.8928095679
 10
127.4635792748
 20
179.2989025899
 10
124.9921224136
 20
179.5040370742
 10
122.4952510017
 20
179.5040370742
 10
120.0237941405
 20
179.2989025899
 10
117.6280635647
 20
178.8928095679
 10
115.35682944
 20
178.294024891
 10
113.2563275437
 20
177.5147380885
 10
111.3693180369
 20
176.5708131924
 10
109.7342149915
 20
175.4814657915
 10
108.3843043902
 20
174.2688718575
 10
107.3470665201
 20
172.9577163061
 10
106.6436165532
 20
171.5746904832
 10
106.288274702
 20
170.1479488063
 10
106.288274702
 20
168.7065356215
 10
106.6436165532
 20
167.2797939446
 10
107.3470665202
 20
165.8967681217
 10
108.3843043902
 20
164.5856125703
 10
109.7342149915
 20
163.3730186364
 10
111.3693180369
 20
162.2836712355
  0
LINE
  5
113
330
FC
100
AcDbEntity
  8
0
  6
Continuous
 62
     7
370
    25
100
AcDbLine
 10
494.9747468306
 20
57.1711268383
 30
0.0
 11
176.7766952966
 21
240.8629519984
 31
0.0
  0
LINE
  5
114
330
FC
100
AcDbEntity
  8
0
  6
Continuous
 62
     7
370
    25
100
AcDbLine
 10
318.1980515339
 20
-44.8798871395
 30
0.0
 11
494.9747468306
 21
57.1711268383
 31
0.0
  0
LINE
  5
115
330
FC
100
AcDbEntity
  8
0
  6
Continuous
 62
     7
370
    25
100
AcDbLine
 10
0.0
 20
138.8119380206
 30
0.0
 11
318.1980515339
 21
-44.8798871395
 31
0.0
  0
LINE
  5
116
330
FC
100
AcDbEntity
  8
0
  6
Continuous
 62
     7
370
    25
100
AcDbLine
 10
176.7766952966
 20
240.8629519984
 30
0.0
 11
0.0
 21
138.8119380206
 31
0.0
  0
LINE
  5
117
330
FC
100
AcDbEntity
  8
0
  6
Continuous
 62
     7
370
    25
100
AcDbLine
 10
318.1980515339
 20
-28.5517249031
 30
0.0
 11
466.6904755831
 21
57.1711268383
 31
0.0
  0
LINE
  5
118
330
FC
100
AcDbEntity
  8
0
  6
Continuous
 62
     7
370
    25
100
AcDbLine
 10
466.6904755831
 20
57.1711268383
 30
0.0
 11
233.3452377916
 21
191.8784652891
 31
0.0
  0
LINE
  5
119
330
FC
100
AcDbEntity
  8
0
  6
Continuous
 62
     7
370
    25
100
AcDbLine
 10
233.3452377916
 20
191.8784652891
 30
0.0
 11
84.8528137424
 21
106.1556135477
 31
0.0
  0
LINE
  5
11A
330
FC
100
AcDbEntity
  8
0
  6
Continuous
 62
     7
370
    25
100
AcDbLine
 10
84.8528137424
 20
106.1556135477
 30
0.0
 11
318.1980515339
 21
-28.5517249031
 31
0.0
  0
LINE
  5
11B
330
FC
100
AcDbEntity
  8
0
  6
Continuous
 62
     7
370
    25
100
AcDbLine
 10
318.1980515339
 20
-44.8798871395
 30
0.0
 11
318.1980515339
 21
-183.6918251601
 31
0.0
  0
LINE
  5
11C
330
FC
100
AcDbEntity
  8
0
  6
Continuous
 62
     7
370
    25
100
AcDbLine
 10
494.9747468306
 20
57.1711268383
 30
0.0
 11
494.9747468306
 21
-81.6408111823
 31
0.0
  0
LINE
  5
11D
330
FC
100
AcDbEntity
  8
0
  6
Continuous
 62
     7
370
    25
100
AcDbLine
 10
318.1980515339
 20
-183.6918251601
 30
0.0
 11
494.9747468306
 21
-81.6408111823
 31
0.0
  0
LINE
  5
11E
330
FC
100
AcDbEntity
  8
0
  6
Continuous
 62
     7
370
    25
100
AcDbLine
 10
0.0
 20
138.8119380206
 30
0.0
 11
0.0
 21
0.0
 31
0.0
  0
LINE
  5
11F
330
FC
100
AcDbEntity
  8
0
  6
Continuous
 62
     7
370
    25
100
AcDbLine
 10
0.0
 20
0.0
 30
0.0
 11
318.1980515339
 21
-183.6918251601
 31
0.0
  0
LINE
  5
120
330
FC
100
AcDbEntity
  8
0
  6
Continuous
 62
     7
370
    25
100
AcDbLine
 10
233.3452377916
 20
77.562751625
 30
0.0
 11
233.3452377916
 21
191.8784652891
 31
0.0
  0
LINE
  5
121
330
FC
100
AcDbEntity
  8
0
  6
Continuous
 62
     7
370
    25
100
AcDbLine
 10
233.3452377916
 20
77.562751625
 30
0.0
 11
367.6794354459
 21
0.0132700063
 31
0.0
  0
LINE
  5
122
330
FC
100
AcDbEntity
  8
0
  6
Continuous
 62
     7
370
    25
100
AcDbLine
 10
260.1013592756
 20
4.9867816505
 30
0.0
 11
233.3452377916
 21
77.562751625
 31
0.0
  0
LINE
  5
123
330
FC
100
AcDbEntity
  8
0
  6
Continuous
 62
     7
370
    25
100
AcDbLine
 10
183.8638538796
 20
48.9977567157
 30
0.0
 11
233.3452377916
 21
77.562751625
 31
0.0
  0
ARC
  5
124
330
FC
100
AcDbEntity
  8
0
  6
Continuous
 62
     7
370
    25
100
AcDbCircle
 10
123.7436867076
 20
135.2559097724
 30
0.0
 40
27.97307773660841
100
AcDbArc
 50
68.3845062247
 51
111.6154937753
  0
VIEWPORT
  5
17B
330
FC
100
AcDbEntity
  8
0
100
AcDbViewport
 10
0.0
 20
0.0
 30
0.0
 40
205.6
 41
156.0
 68
     1
 69
     1
 12
225.0
 22
125.0
 13
0.0
 23
0.0
 14
10.0
 24
10.0
 15
10.0
 25
10.0
 16
0.0
 26
0.0
 36
1.0
 17
0.0
 27
0.0
 37
0.0
 42
50.0
 43
0.0
 44
0.0
 45
348.2684824903
 50
0.0
 51
0.0
 72
   100
 90
   557152
  1

281
     0
 71
     1
 74
     0
110
0.0
120
0.0
130
0.0
111
1.0
121
0.0
131
0.0
112
0.0
122
1.0
132
0.0
 79
     0
146
0.0
  0
ENDBLK
  5
FF
330
FC
100
AcDbEntity
  8
0
100
AcDbBlockEnd
  0
BLOCK
  5
127
330
125
100
AcDbEntity
  8
0
100
AcDbBlockBegin
  2
*Paper_Space6
 70
     0
 10
0.0
 20
0.0
 30
0.0
  3
*Paper_Space6
  1

  0
LWPOLYLINE
  5
131
330
125
100
AcDbEntity
  8
0
  6
Continuous
 62
     7
370
    25
100
AcDbPolyline
 90
       45
 70
   128
 43
0.0
 10
94.3906603939
 20
182.6673646166
 10
96.6764422855
 20
182.1498684674
 10
99.0819522643
 20
181.8051819189
 10
101.5582210842
 20
181.6403217952
 10
104.0548390528
 20
181.6586441732
 10
106.5209822281
 20
181.8597760619
 10
108.9064470466
 20
182.2396229963
 10
111.1626723239
 20
182.7904523879
 10
113.2437278197
 20
183.501050939
 10
115.1072492453
 20
184.3569529123
 10
116.7153006786
 20
185.3407346116
 10
118.0351468295
 20
186.4323690787
 10
119.0399194365
 20
187.6096337839
 10
119.709164227
 20
188.8485630125
 10
120.0292573068
 20
190.1239357385
 10
119.993682504
 20
191.4097890508
 10
119.6031640189
 20
192.6799466843
 10
118.8656516819
 20
193.9085518922
 10
117.7961591171
 20
195.0705938156
 10
116.4164581091
 20
196.1424166319
 10
114.7546353917
 20
197.1022011195
 10
112.8445208831
 20
197.930408834
 10
110.7249990064
 20
198.6101798548
 10
108.4392171148
 20
199.127676004
 10
106.0337071359
 20
199.4723625525
 10
103.5574383161
 20
199.6372226762
 10
101.0608203474
 20
199.6189002982
 10
98.5946771722
 20
199.4177684095
 10
96.2092123536
 20
199.0379214751
 10
93.9529870764
 20
198.4870920835
 10
91.8719315806
 20
197.7764935324
 10
90.0084101549
 20
196.9205915591
 10
88.4003587217
 20
195.9368098598
 10
87.0805125708
 20
194.8451753927
 10
86.0757399637
 20
193.6679106875
 10
85.4064951733
 20
192.4289814589
 10
85.0864020935
 20
191.1536087329
 10
85.1219768963
 20
189.8677554206
 10
85.5124953813
 20
188.5975977871
 10
86.2500077184
 20
187.3689925792
 10
87.3195002832
 20
186.2069506558
 10
88.6992012911
 20
185.1351278395
 10
90.3610240085
 20
184.1753433519
 10
92.2711385171
 20
183.3471356374
 10
94.3906603939
 20
182.6673646166
  0
LINE
  5
13C
330
125
100
AcDbEntity
  8
0
  6
Continuous
 62
     7
370
    25
100
AcDbLine
 10
514.6620019874
 20
151.4310402127
 30
0.0
 11
116.6738472325
 21
259.5956928204
 31
0.0
  0
LINE
  5
13D
330
125
100
AcDbEntity
  8
0
  6
Continuous
 62
     7
370
    25
100
AcDbLine
 10
397.9881547548
 20
37.5537885116
 30
0.0
 11
514.6620019874
 21
151.4310402127
 31
0.0
  0
LINE
  5
13E
330
125
100
AcDbEntity
  8
0
  6
Continuous
 62
     7
370
    25
100
AcDbLine
 10
0.0
 20
145.7184411194
 30
0.0
 11
397.9881547548
 21
37.5537885116
 31
0.0
  0
LINE
  5
13F
330
125
100
AcDbEntity
  8
0
  6
Continuous
 62
     7
370
    25
100
AcDbLine
 10
116.6738472325
 20
259.5956928204
 30
0.0
 11
0.0
 21
145.7184411194
 31
0.0
  0
LINE
  5
140
330
125
100
AcDbEntity
  8
0
  6
Continuous
 62
     7
370
    25
100
AcDbLine
 10
389.6337000999
 20
51.4712865414
 30
0.0
 11
487.6397317752
 21
147.1281779703
 31
0.0
  0
LINE
  5
141
330
125
100
AcDbEntity
  8
0
  6
Continuous
 62
     7
370
    25
100
AcDbLine
 10
487.6397317752
 20
147.1281779703
 30
0.0
 11
195.7817516217
 21
226.448923216
 31
0.0
  0
LINE
  5
142
330
125
100
AcDbEntity
  8
0
  6
Continuous
 62
     7
370
    25
100
AcDbLine
 10
195.7817516217
 20
226.448923216
 30
0.0
 11
97.7757199463
 21
130.7920317871
 31
0.0
  0
LINE
  5
143
330
125
100
AcDbEntity
  8
0
  6
Continuous
 62
     7
370
    25
100
AcDbLine
 10
97.7757199463
 20
130.7920317871
 30
0.0
 11
389.6337000999
 21
51.4712865414
 31
0.0
  0
LINE
  5
144
330
125
100
AcDbEntity
  8
0
  6
Continuous
 62
     7
370
    25
100
AcDbLine
 10
397.9881547548
 20
37.5537885116
 30
0.0
 11
397.9881547548
 21
-108.1646526078
 31
0.0
  0
LINE
  5
145
330
125
100
AcDbEntity
  8
0
  6
Continuous
 62
     7
370
    25
100
AcDbLine
 10
514.6620019874
 20
151.4310402127
 30
0.0
 11
514.6620019874
 21
5.7125990933
 31
0.0
  0
LINE
  5
146
330
125
100
AcDbEntity
  8
0
  6
Continuous
 62
     7
370
    25
100
AcDbLine
 10
397.9881547548
 20
-108.1646526078
 30
0.0
 11
514.6620019874
 21
5.7125990933
 31
0.0
  0
LINE
  5
147
330
125
100
AcDbEntity
  8
0
  6
Continuous
 62
     7
370
    25
100
AcDbLine
 10
0.0
 20
145.7184411194
 30
0.0
 11
0.0
 21
0.0
 31
0.0
  0
LINE
  5
148
330
125
100
AcDbEntity
  8
0
  6
Continuous
 62
     7
370
    25
100
AcDbLine
 10
0.0
 20
0.0
 30
0.0
 11
397.9881547548
 21
-108.1646526078
 31
0.0
  0
LINE
  5
149
330
125
100
AcDbEntity
  8
0
  6
Continuous
 62
     7
370
    25
100
AcDbLine
 10
195.7817516217
 20
106.4455011177
 30
0.0
 11
195.7817516217
 21
226.448923216
 31
0.0
  0
LINE
  5
14A
330
125
100
AcDbEntity
  8
0
  6
Continuous
 62
     7
370
    25
100
AcDbLine
 10
193.9470090412
 20
104.6547361125
 30
0.0
 11
195.7817516217
 21
106.4455011177
 31
0.0
  0
LINE
  5
14B
330
125
100
AcDbEntity
  8
0
  6
Continuous
 62
     7
370
    25
100
AcDbLine
 10
199.1309774189
 20
103.2458445865
 30
0.0
 11
195.7817516217
 21
106.4455011177
 31
0.0
  0
LINE
  5
14C
330
125
100
AcDbEntity
  8
0
  6
Continuous
 62
     7
370
    25
100
AcDbLine
 10
195.7817516217
 20
106.4455011177
 30
0.0
 11
391.4684426803
 21
53.2620515465
 31
0.0
  0
ARC
  5
14D
330
125
100
AcDbEntity
  8
0
  6
Continuous
 62
     7
370
    25
100
AcDbCircle
 10
102.5578297001
 20
149.3482044426
 30
0.0
 40
33.16313399673751
100
AcDbArc
 50
80.6113253658
 51
99.3886746342
  0
VIEWPORT
  5
17D
330
125
100
AcDbEntity
  8
0
100
AcDbViewport
 10
0.0
 20
0.0
 30
0.0
 40
205.6
 41
156.0
 68
     1
 69
     1
 12
225.0
 22
125.0
 13
0.0
 23
0.0
 14
10.0
 24
10.0
 15
10.0
 25
10.0
 16
0.0
 26
0.0
 36
1.0
 17
0.0
 27
0.0
 37
0.0
 42
50.0
 43
0.0
 44
0.0
 45
348.2684824903
 50
0.0
 51
0.0
 72
   100
 90
   557152
  1

281
     0
 71
     1
 74
     0
110
0.0
120
0.0
130
0.0
111
1.0
121
0.0
131
0.0
112
0.0
122
1.0
132
0.0
 79
     0
146
0.0
  0
ENDBLK
  5
128
330
125
100
AcDbEntity
  8
0
100
AcDbBlockEnd
  0
BLOCK
  5
150
330
14E
100
AcDbEntity
  8
0
100
AcDbBlockBegin
  2
*Paper_Space7
 70
     0
 10
0.0
 20
0.0
 30
0.0
  3
*Paper_Space7
  1

  0
LWPOLYLINE
  5
15A
330
14E
100
AcDbEntity
  8
0
  6
Continuous
 62
     7
370
    25
100
AcDbPolyline
 90
       45
 70
   128
 43
0.0
 10
84.7777068163
 20
187.9039946496
 10
87.1703419074
 20
187.6660254245
 10
89.6402230785
 20
187.5439808751
 10
92.1370706715
 20
187.5403454763
 10
94.6100560698
 20
187.6551932344
 10
97.0088364221
 20
187.8861861802
 10
99.2845794779
 20
188.2286219635
 10
101.3909576714
 20
188.6755295793
 10
103.2850912168
 20
189.2178112772
 10
104.9284210174
 20
189.8444277656
 10
106.2874936174
 20
190.54262294
 10
107.3346422179
 20
191.29818356
 10
108.0485498931
 20
192.0957285902
 10
108.4146835415
 20
192.9190223137
 10
108.4255897379
 20
193.7513048445
 10
108.0810464635
 20
194.5756333104
 10
107.3880676259
 20
195.3752267609
 10
106.3607602757
 20
196.1338077794
 10
105.0200374282
 20
196.8359338437
 10
103.3931923342
 20
197.467311692
 10
101.5133428683
 20
198.0150882921
 10
99.4187573446
 20
198.468112492
 10
97.1520754842
 20
198.8171620254
 10
94.7594403931
 20
199.0551312504
 10
92.289559222
 20
199.1771757999
 10
89.7927116289
 20
199.1808111987
 10
87.3197262307
 20
199.0659634406
 10
84.9209458784
 20
198.8349704947
 10
82.6452028225
 20
198.4925347114
 10
80.538824629
 20
198.0456270957
 10
78.6446910836
 20
197.5033453978
 10
77.001361283
 20
196.8767289093
 10
75.642288683
 20
196.1785337349
 10
74.5951400826
 20
195.422973115
 10
73.8812324073
 20
194.6254280848
 10
73.5150987589
 20
193.8021343613
 10
73.5041925625
 20
192.9698518305
 10
73.8487358369
 20
192.1455233646
 10
74.5417146746
 20
191.345929914
 10
75.5690220247
 20
190.5873488956
 10
76.9097448722
 20
189.8852228312
 10
78.5365899663
 20
189.2538449829
 10
80.4164394322
 20
188.7060683829
 10
82.5110249558
 20
188.253044183
 10
84.7777068163
 20
187.9039946496
  0
LINE
  5
161
330
14E
100
AcDbEntity
  8
0
  6
Continuous
 62
     7
370
    25
100
AcDbLine
 10
509.3248036539
 20
185.1957240513
 30
0.0
 11
88.388347628
 21
238.2287326155
 31
0.0
  0
LINE
  5
162
330
14E
100
AcDbEntity
  8
0
  6
Continuous
 62
     7
370
    25
100
AcDbLine
 10
420.9364560259
 20
107.2445285095
 30
0.0
 11
509.3248036539
 21
185.1957240513
 31
0.0
  0
LINE
  5
163
330
14E
100
AcDbEntity
  8
0
  6
Continuous
 62
     7
370
    25
100
AcDbLine
 10
0.0
 20
160.2775370737
 30
0.0
 11
420.9364560259
 21
107.2445285095
 31
0.0
  0
LINE
  5
164
330
14E
100
AcDbEntity
  8
0
  6
Continuous
 62
     7
370
    25
100
AcDbLine
 10
88.388347628
 20
238.2287326155
 30
0.0
 11
0.0
 21
160.2775370737
 31
0.0
  0
LINE
  5
165
330
14E
100
AcDbEntity
  8
0
  6
Continuous
 62
     7
370
    25
100
AcDbLine
 10
409.2992369016
 20
115.8376467557
 30
0.0
 11
483.5454489092
 21
181.3166510108
 31
0.0
  0
LINE
  5
166
330
14E
100
AcDbEntity
  8
0
  6
Continuous
 62
     7
370
    25
100
AcDbLine
 10
483.5454489092
 20
181.3166510108
 30
0.0
 11
174.8587144902
 21
220.2075239579
 31
0.0
  0
LINE
  5
167
330
14E
100
AcDbEntity
  8
0
  6
Continuous
 62
     7
370
    25
100
AcDbLine
 10
174.8587144902
 20
220.2075239579
 30
0.0
 11
100.6125024827
 21
154.7285197028
 31
0.0
  0
LINE
  5
168
330
14E
100
AcDbEntity
  8
0
  6
Continuous
 62
     7
370
    25
100
AcDbLine
 10
100.6125024827
 20
154.7285197028
 30
0.0
 11
409.2992369016
 21
115.8376467557
 31
0.0
  0
LINE
  5
169
330
14E
100
AcDbEntity
  8
0
  6
Continuous
 62
     7
370
    25
100
AcDbLine
 10
420.9364560259
 20
107.2445285095
 30
0.0
 11
420.9364560259
 21
-53.0330085642
 31
0.0
  0
LINE
  5
16A
330
14E
100
AcDbEntity
  8
0
  6
Continuous
 62
     7
370
    25
100
AcDbLine
 10
509.3248036539
 20
185.1957240513
 30
0.0
 11
509.3248036539
 21
24.9181869776
 31
0.0
  0
LINE
  5
16B
330
14E
100
AcDbEntity
  8
0
  6
Continuous
 62
     7
370
    25
100
AcDbLine
 10
420.9364560259
 20
-53.0330085642
 30
0.0
 11
509.3248036539
 21
24.9181869776
 31
0.0
  0
LINE
  5
16C
330
14E
100
AcDbEntity
  8
0
  6
Continuous
 62
     7
370
    25
100
AcDbLine
 10
0.0
 20
160.2775370737
 30
0.0
 11
0.0
 21
0.0
 31
0.0
  0
LINE
  5
16D
330
14E
100
AcDbEntity
  8
0
  6
Continuous
 62
     7
370
    25
100
AcDbLine
 10
0.0
 20
0.0
 30
0.0
 11
420.9364560259
 21
-53.0330085642
 31
0.0
  0
LINE
  5
16E
330
14E
100
AcDbEntity
  8
0
  6
Continuous
 62
     7
370
    25
100
AcDbLine
 10
174.8587144902
 20
145.3743762427
 30
0.0
 11
174.8587144902
 21
220.2075239579
 31
0.0
  0
VIEWPORT
  5
17F
330
14E
100
AcDbEntity
  8
0
100
AcDbViewport
 10
0.0
 20
0.0
 30
0.0
 40
205.6
 41
156.0
 68
     1
 69
     1
 12
225.0
 22
125.0
 13
0.0
 23
0.0
 14
10.0
 24
10.0
 15
10.0
 25
10.0
 16
0.0
 26
0.0
 36
1.0
 17
0.0
 27
0.0
 37
0.0
 42
50.0
 43
0.0
 44
0.0
 45
348.2684824903
 50
0.0
 51
0.0
 72
   100
 90
   557152
  1

281
     0
 71
     1
 74
     0
110
0.0
120
0.0
130
0.0
111
1.0
121
0.0
131
0.0
112
0.0
122
1.0
132
0.0
 79
     0
146
0.0
  0
ENDBLK
  5
151
330
14E
100
AcDbEntity
  8
0
100
AcDbBlockEnd
  0
ENDSEC
  0
SECTION
  2
ENTITIES
  0
CIRCLE
  5
76
330
1F
100
AcDbEntity
  8
0
  6
Continuous
 62
     7
370
    25
100
AcDbCircle
 10
50.0
 20
125.0
 30
0.0
 40
17.50000000000006
  0
SPLINE
  5
7E
330
1F
100
AcDbEntity
  8
0
  6
Continuous
 62
     7
370
    25
100
AcDbSpline
210
0.0
220
0.0
230
1.0
 70
     8
 71
     3
 72
    16
 73
    12
 74
     0
 42
0.000000001
 43
0.00000001
 40
0.0
 40
0.0
 40
0.0
 40
0.0
 40
0.0037842664435762
 40
0.0037842664435762
 40
0.0662842664435763
 40
0.0662842664435763
 40
0.1287842664435765
 40
0.1287842664435765
 40
0.1912842664435767
 40
0.1912842664435767
 40
0.316284266443574
 40
0.316284266443574
 40
0.316284266443574
 40
0.316284266443574
 10
277.2103442438919
 20
154.0371703223208
 30
0.0
 10
277.2876295859917
 20
154.0046737679685
 30
0.0
 10
277.3647221600773
 20
153.9718941723928
 30
0.0
 10
278.7116219688604
 20
153.3928240665461
 30
0.0
 10
279.9281017082578
 20
152.7704422536029
 30
0.0
 10
282.2326466961047
 20
151.4023023886178
 30
0.0
 10
283.3207152085393
 20
150.6566462793387
 30
0.0
 10
285.3560691712955
 20
149.0736900359904
 30
0.0
 10
286.3033906154855
 20
148.2364733805386
 30
0.0
 10
288.9282945063951
 20
145.6339358712046
 30
0.0
 10
290.3863662753259
 20
143.7799603570256
 30
0.0
 10
291.5753368635614
 20
141.9115780040845
 30
0.0
  0
SPLINE
  5
7F
330
1F
100
AcDbEntity
  8
0
  6
Continuous
 62
     7
370
    25
100
AcDbSpline
210
0.0
220
0.0
230
1.0
 70
     8
 71
     3
 72
    16
 73
    12
 74
     0
 42
0.000000001
 43
0.00000001
 40
0.316284266443574
 40
0.316284266443574
 40
0.316284266443574
 40
0.316284266443574
 40
0.3787842665621473
 40
0.3787842665621473
 40
0.4412842665621474
 40
0.4412842665621474
 40
0.5037842665621475
 40
0.5037842665621475
 40
0.5662842665621477
 40
0.5662842665621477
 40
0.6250000001185717
 40
0.6250000001185717
 40
0.6250000001185717
 40
0.6250000001185717
 10
256.5139276135535
 20
155.3354013563689
 30
0.0
 10
257.8759827023474
 20
155.7164247666758
 30
0.0
 10
259.2765229474012
 20
156.0088507683396
 30
0.0
 10
262.1180973624009
 20
156.4006632530617
 30
0.0
 10
263.5590170338804
 20
156.5
 30
0.0
 10
266.4409829661194
 20
156.4999999999999
 30
0.0
 10
267.8819026375994
 20
156.4006632530617
 30
0.0
 10
270.723477052599
 20
156.0088507683397
 30
0.0
 10
272.1240172976525
 20
155.7164247666758
 30
0.0
 10
274.7656574053714
 20
154.9774482517554
 30
0.0
 10
276.011204166891
 20
154.541378748261
 30
0.0
 10
277.2103442438919
 20
154.0371703223208
 30
0.0
  0
SPLINE
  5
80
330
1F
100
AcDbEntity
  8
0
  6
Continuous
 62
     7
370
    25
100
AcDbSpline
210
0.0
220
0.0
230
1.0
 70
     8
 71
     3
 72
     8
 73
     4
 74
     0
 42
0.000000001
 43
0.00000001
 40
0.6250000001185712
 40
0.6250000001185712
 40
0.6250000001185712
 40
0.6250000001185712
 40
0.6875000007782437
 40
0.6875000007782437
 40
0.6875000007782437
 40
0.6875000007782437
 10
252.5583813451326
 20
153.9388342067688
 30
0.0
 10
253.8283846591258
 20
154.4848443469915
 30
0.0
 10
255.1518725247597
 20
154.9543779460619
 30
0.0
 10
256.5139276135535
 20
155.3354013563689
 30
0.0
  0
SPLINE
  5
81
330
1F
100
AcDbEntity
  8
0
  6
Continuous
 62
     7
370
    25
100
AcDbSpline
210
0.0
220
0.0
230
1.0
 70
     8
 71
     3
 72
    14
 73
    10
 74
     0
 42
0.000000001
 43
0.00000001
 40
0.6875000007782437
 40
0.6875000007782437
 40
0.6875000007782437
 40
0.6875000007782437
 40
0.8125000007782441
 40
0.8125000007782441
 40
0.8750000007782444
 40
0.8750000007782444
 40
0.9375000007782446
 40
0.9375000007782446
 40
1.0
 40
1.0
 40
1.0
 40
1.0
 10
238.4246631364389
 20
141.9115780040845
 30
0.0
 10
239.6136337246739
 20
143.7799603570256
 30
0.0
 10
241.0717054936047
 20
145.6339358712046
 30
0.0
 10
243.6966093845143
 20
148.2364733805386
 30
0.0
 10
244.6439308287047
 20
149.0736900359904
 30
0.0
 10
246.679284791461
 20
150.6566462793387
 30
0.0
 10
247.7673533038951
 20
151.4023023886178
 30
0.0
 10
250.071898291742
 20
152.7704422536029
 30
0.0
 10
251.2883780311395
 20
153.3928240665461
 30
0.0
 10
252.5583813451326
 20
153.9388342067688
 30
0.0
  0
SPLINE
  5
83
330
1F
100
AcDbEntity
  8
0
  6
Continuous
 62
     7
370
    25
100
AcDbSpline
210
0.0
220
0.0
230
1.0
 70
     8
 71
     3
 72
    12
 73
     8
 74
     0
 42
0.000000001
 43
0.00000001
 40
0.0
 40
0.0
 40
0.0
 40
0.0
 40
0.1249999999430008
 40
0.1249999999430008
 40
0.2499999999430008
 40
0.2499999999430008
 40
0.3749999999430008
 40
0.3749999999430008
 40
0.3749999999430008
 40
0.3749999999430008
 10
233.8321312451246
 20
129.5622316117066
 30
0.0
 10
234.052384761303
 20
131.0669409884581
 30
0.0
 10
234.3809436303515
 20
132.5474893474242
 30
0.0
 10
235.2347373130925
 20
135.417309902109
 30
0.0
 10
235.7598506271121
 20
136.8064784581365
 30
0.0
 10
236.9765757306808
 20
139.4591480092354
 30
0.0
 10
237.66804548938
 20
140.7226074158492
 30
0.0
 10
238.4246631364389
 20
141.9115780040845
 30
0.0
  0
SPLINE
  5
84
330
1F
100
AcDbEntity
  8
0
  6
Continuous
 62
     7
370
    25
100
AcDbSpline
210
0.0
220
0.0
230
1.0
 70
     8
 71
     3
 72
    16
 73
    12
 74
     0
 42
0.000000001
 43
0.00000001
 40
0.3749999999430008
 40
0.3749999999430008
 40
0.3749999999430008
 40
0.3749999999430008
 40
0.4999999999430008
 40
0.4999999999430008
 40
0.6249999999430008
 40
0.6249999999430008
 40
0.7499999999430008
 40
0.7499999999430008
 40
0.8749999999430008
 40
0.8749999999430008
 40
1.0
 40
1.0
 40
1.0
 40
1.0
 10
238.4246631364389
 20
108.0884219959155
 30
0.0
 10
237.66804548938
 20
109.2773925841508
 30
0.0
 10
236.9765757306812
 20
110.5408519907645
 30
0.0
 10
235.7598506271121
 20
113.1935215418633
 30
0.0
 10
235.2347373130925
 20
114.582690097891
 30
0.0
 10
234.3809436303515
 20
117.4525106525757
 30
0.0
 10
234.052384761303
 20
118.9330590115418
 30
0.0
 10
233.6118777289462
 20
121.9424777650449
 30
0.0
 10
233.5000000000003
 20
123.4711963921959
 30
0.0
 10
233.5000000000003
 20
126.5288036078039
 30
0.0
 10
233.6118777289462
 20
128.0575222349551
 30
0.0
 10
233.8321312451246
 20
129.5622316117066
 30
0.0
  0
SPLINE
  5
86
330
1F
100
AcDbEntity
  8
0
  6
Continuous
 62
     7
370
    25
100
AcDbSpline
210
0.0
220
0.0
230
1.0
 70
     8
 71
     3
 72
    12
 73
     8
 74
     0
 42
0.000000001
 43
0.00000001
 40
0.0
 40
0.0
 40
0.0
 40
0.0
 40
0.1249999999428292
 40
0.1249999999428292
 40
0.2499999999428286
 40
0.2499999999428286
 40
0.3749999999428281
 40
0.3749999999428281
 40
0.3749999999428281
 40
0.3749999999428281
 10
296.1678687548752
 20
120.4377683882933
 30
0.0
 10
295.9476152386968
 20
118.9330590115418
 30
0.0
 10
295.6190563696484
 20
117.4525106525757
 30
0.0
 10
294.7652626869077
 20
114.582690097891
 30
0.0
 10
294.2401493728877
 20
113.1935215418633
 30
0.0
 10
293.023424269319
 20
110.5408519907645
 30
0.0
 10
292.3319545106202
 20
109.2773925841508
 30
0.0
 10
291.5753368635614
 20
108.0884219959155
 30
0.0
  0
SPLINE
  5
87
330
1F
100
AcDbEntity
  8
0
  6
Continuous
 62
     7
370
    25
100
AcDbSpline
210
0.0
220
0.0
230
1.0
 70
     8
 71
     3
 72
    16
 73
    12
 74
     0
 42
0.000000001
 43
0.00000001
 40
0.3749999999428281
 40
0.3749999999428281
 40
0.3749999999428281
 40
0.3749999999428281
 40
0.4999999999428286
 40
0.4999999999428286
 40
0.6249999999428292
 40
0.6249999999428292
 40
0.7499999999428297
 40
0.7499999999428297
 40
0.8749999999428303
 40
0.8749999999428303
 40
1.0
 40
1.0
 40
1.0
 40
1.0
 10
291.5753368635614
 20
141.9115780040845
 30
0.0
 10
292.3319545106202
 20
140.7226074158492
 30
0.0
 10
293.023424269319
 20
139.4591480092355
 30
0.0
 10
294.2401493728881
 20
136.8064784581366
 30
0.0
 10
294.7652626869077
 20
135.417309902109
 30
0.0
 10
295.6190563696484
 20
132.5474893474242
 30
0.0
 10
295.9476152386968
 20
131.0669409884582
 30
0.0
 10
296.3881222710536
 20
128.0575222349551
 30
0.0
 10
296.5
 20
126.5288036078039
 30
0.0
 10
296.5
 20
123.4711963921959
 30
0.0
 10
296.3881222710536
 20
121.9424777650449
 30
0.0
 10
296.1678687548752
 20
120.4377683882933
 30
0.0
  0
SPLINE
  5
88
330
1F
100
AcDbEntity
  8
0
  6
Continuous
 62
     7
370
    25
100
AcDbSpline
210
0.0
220
0.0
230
1.0
 70
     8
 71
     3
 72
    16
 73
    12
 74
     0
 42
0.000000001
 43
0.00000001
 40
0.0
 40
0.0
 40
0.0
 40
0.0
 40
0.0037842664440363
 40
0.0037842664440363
 40
0.0662842664440367
 40
0.0662842664440367
 40
0.128784266444036
 40
0.128784266444036
 40
0.1912842664440353
 40
0.1912842664440353
 40
0.3162842664440323
 40
0.3162842664440323
 40
0.3162842664440323
 40
0.3162842664440323
 10
252.7896557561362
 20
95.96282967766737
 30
0.0
 10
252.712370414027
 20
95.9953262320236
 30
0.0
 10
252.635277839932
 20
96.02810582760324
 30
0.0
 10
251.2883780311395
 20
96.60717593345392
 30
0.0
 10
250.071898291742
 20
97.22955774639696
 30
0.0
 10
247.7673533038955
 20
98.59769761138205
 30
0.0
 10
246.679284791461
 20
99.34335372066117
 30
0.0
 10
244.6439308287047
 20
100.9263099640096
 30
0.0
 10
243.6966093845143
 20
101.7635266194613
 30
0.0
 10
241.0717054936047
 20
104.3660641287953
 30
0.0
 10
239.6136337246739
 20
106.2200396429743
 30
0.0
 10
238.4246631364389
 20
108.0884219959155
 30
0.0
  0
SPLINE
  5
89
330
1F
100
AcDbEntity
  8
0
  6
Continuous
 62
     7
370
    25
100
AcDbSpline
210
0.0
220
0.0
230
1.0
 70
     8
 71
     3
 72
    16
 73
    12
 74
     0
 42
0.000000001
 43
0.00000001
 40
0.3162842664440323
 40
0.3162842664440323
 40
0.3162842664440323
 40
0.3162842664440323
 40
0.378784266560081
 40
0.378784266560081
 40
0.4412842665600814
 40
0.4412842665600814
 40
0.5037842665600818
 40
0.5037842665600818
 40
0.5662842665600822
 40
0.5662842665600822
 40
0.6250000001160463
 40
0.6250000001160463
 40
0.6250000001160463
 40
0.6250000001160463
 10
273.4860723864465
 20
94.66459864363114
 30
0.0
 10
272.1240172976525
 20
94.2835752333242
 30
0.0
 10
270.7234770525986
 20
93.9911492316603
 30
0.0
 10
267.8819026375994
 20
93.5993367469382
 30
0.0
 10
266.4409829661194
 20
93.50000000000014
 30
0.0
 10
263.5590170338804
 20
93.50000000000003
 30
0.0
 10
262.1180973624009
 20
93.5993367469382
 30
0.0
 10
259.2765229474012
 20
93.9911492316603
 30
0.0
 10
257.8759827023478
 20
94.2835752333242
 30
0.0
 10
255.2343425946389
 20
95.02255174824181
 30
0.0
 10
253.9887958331287
 20
95.45862125173214
 30
0.0
 10
252.7896557561362
 20
95.96282967766737
 30
0.0
  0
SPLINE
  5
8A
330
1F
100
AcDbEntity
  8
0
  6
Continuous
 62
     7
370
    25
100
AcDbSpline
210
0.0
220
0.0
230
1.0
 70
     8
 71
     3
 72
     8
 73
     4
 74
     0
 42
0.000000001
 43
0.00000001
 40
0.6250000001160473
 40
0.6250000001160473
 40
0.6250000001160473
 40
0.6250000001160473
 40
0.6875000007814817
 40
0.6875000007814817
 40
0.6875000007814817
 40
0.6875000007814817
 10
277.4416186548672
 20
96.06116579323121
 30
0.0
 10
276.171615340874
 20
95.51515565300849
 30
0.0
 10
274.8481274752406
 20
95.04562205393808
 30
0.0
 10
273.4860723864465
 20
94.66459864363114
 30
0.0
  0
SPLINE
  5
8B
330
1F
100
AcDbEntity
  8
0
  6
Continuous
 62
     7
370
    25
100
AcDbSpline
210
0.0
220
0.0
230
1.0
 70
     8
 71
     3
 72
    14
 73
    10
 74
     0
 42
0.000000001
 43
0.00000001
 40
0.6875000007814817
 40
0.6875000007814817
 40
0.6875000007814817
 40
0.6875000007814817
 40
0.812500000781482
 40
0.812500000781482
 40
0.8750000007814823
 40
0.8750000007814823
 40
0.9375000007814828
 40
0.9375000007814828
 40
1.0
 40
1.0
 40
1.0
 40
1.0
 10
291.5753368635614
 20
108.0884219959155
 30
0.0
 10
290.3863662753259
 20
106.2200396429743
 30
0.0
 10
288.9282945063951
 20
104.3660641287953
 30
0.0
 10
286.3033906154855
 20
101.7635266194613
 30
0.0
 10
285.3560691712955
 20
100.9263099640096
 30
0.0
 10
283.3207152085393
 20
99.34335372066117
 30
0.0
 10
282.2326466961047
 20
98.59769761138215
 30
0.0
 10
279.9281017082578
 20
97.22955774639708
 30
0.0
 10
278.7116219688604
 20
96.60717593345392
 30
0.0
 10
277.4416186548672
 20
96.06116579323121
 30
0.0
  0
CIRCLE
  5
8C
330
1F
100
AcDbEntity
  8
0
  6
Continuous
 62
     7
370
    25
100
AcDbCircle
 10
265.0
 20
125.0
 30
0.0
 40
22.49999999999999
  0
LINE
  5
8D
330
1F
100
AcDbEntity
  8
0
  6
Continuous
 62
     7
370
    25
100
AcDbLine
 10
450.0
 20
250.0
 30
0.0
 11
0.0
 21
250.0
 31
0.0
  0
LINE
  5
8E
330
1F
100
AcDbEntity
  8
0
  6
Continuous
 62
     7
370
    25
100
AcDbLine
 10
450.0
 20
0.0
 30
0.0
 11
450.0
 21
250.0
 31
0.0
  0
LINE
  5
8F
330
1F
100
AcDbEntity
  8
0
  6
Continuous
 62
     7
370
    25
100
AcDbLine
 10
0.0
 20
0.0
 30
0.0
 11
450.0
 21
0.0
 31
0.0
  0
LINE
  5
90
330
1F
100
AcDbEntity
  8
0
  6
Continuous
 62
     7
370
    25
100
AcDbLine
 10
430.0
 20
20.0
 30
0.0
 11
430.0
 21
230.0
 31
0.0
  0
LINE
  5
91
330
1F
100
AcDbEntity
  8
0
  6
Continuous
 62
     7
370
    25
100
AcDbLine
 10
100.0
 20
20.0
 30
0.0
 11
430.0
 21
20.0
 31
0.0
  0
LINE
  5
92
330
1F
100
AcDbEntity
  8
0
  6
Continuous
 62
     7
370
    25
100
AcDbLine
 10
100.0
 20
230.0
 30
0.0
 11
100.0
 21
20.0
 31
0.0
  0
LINE
  5
93
330
1F
100
AcDbEntity
  8
0
  6
Continuous
 62
     7
370
    25
100
AcDbLine
 10
0.0
 20
250.0
 30
0.0
 11
0.0
 21
0.0
 31
0.0
  0
LINE
  5
94
330
1F
100
AcDbEntity
  8
0
  6
Continuous
 62
     7
370
    25
100
AcDbLine
 10
430.0
 20
230.0
 30
0.0
 11
100.0
 21
230.0
 31
0.0
  0
LINE
  5
95
330
1F
100
AcDbEntity
  8
0
  6
Continuous
 62
     7
370
    25
100
AcDbLine
 10
238.4246631364
 20
141.9115780041
 30
0.0
 11
100.0
 21
230.0
 31
0.0
  0
LINE
  5
96
330
1F
100
AcDbEntity
  8
0
  6
Continuous
 62
     7
370
    25
100
AcDbLine
 10
291.5753368636
 20
141.9115780041
 30
0.0
 11
430.0
 21
230.0
 31
0.0
  0
LINE
  5
97
330
1F
100
AcDbEntity
  8
0
  6
Continuous
 62
     7
370
    25
100
AcDbLine
 10
100.0
 20
20.0
 30
0.0
 11
238.4246631364
 21
108.0884219959
 31
0.0
  0
LINE
  5
98
330
1F
100
AcDbEntity
  8
0
  6
Continuous
 62
     7
370
    25
100
AcDbLine
 10
291.5753368636
 20
108.0884219959
 30
0.0
 11
430.0
 21
20.0
 31
0.0
  0
LINE
  5
9D
330
1B
100
AcDbEntity
 67
     1
  8
0
  6
Continuous
 62
     7
370
    25
100
AcDbLine
 10
0.0
 20
170.0
 30
0.0
 11
450.0
 21
170.0
 31
0.0
  0
LINE
  5
9E
330
1B
100
AcDbEntity
 67
     1
  8
0
  6
Continuous
 62
     7
370
    25
100
AcDbLine
 10
450.0
 20
170.0
 30
0.0
 11
450.0
 21
0.0
 31
0.0
  0
LINE
  5
9F
330
1B
100
AcDbEntity
 67
     1
  8
0
  6
Continuous
 62
     7
370
    25
100
AcDbLine
 10
0.0
 20
170.0
 30
0.0
 11
0.0
 21
0.0
 31
0.0
  0
LINE
  5
A0
330
1B
100
AcDbEntity
 67
     1
  8
0
  6
Continuous
 62
     7
370
    25
100
AcDbLine
 10
0.0
 20
0.0
 30
0.0
 11
450.0
 21
0.0
 31
0.0
  0
VIEWPORT
  5
16F
330
1B
100
AcDbEntity
 67
     1
  8
0
100
AcDbViewport
 10
0.0
 20
0.0
 30
0.0
 40
205.6
 41
156.0
 68
     1
 69
     1
 12
225.0
 22
125.0
 13
0.0
 23
0.0
 14
10.0
 24
10.0
 15
10.0
 25
10.0
 16
0.0
 26
0.0
 36
1.0
 17
0.0
 27
0.0
 37
0.0
 42
50.0
 43
0.0
 44
0.0
 45
348.2684824903
 50
0.0
 51
0.0
 72
   100
 90
   557152
  1

281
     0
 71
     1
 74
     0
110
0.0
120
0.0
130
0.0
111
1.0
121
0.0
131
0.0
112
0.0
122
1.0
132
0.0
 79
     0
146
0.0
  0
ENDSEC
  0
SECTION
  2
OBJECTS
  0
DICTIONARY
  5
C
330
0
100
AcDbDictionary
281
     1
  3
ACAD_GROUP
350
D
  3
ACAD_LAYOUT
350
1A
  3
ACAD_MLINESTYLE
350
17
  3
ACAD_PLOTSETTINGS
350
19
  3
ACAD_PLOTSTYLENAME
350
E
  3
ACAD_SCALELIST
350
47
  0
DICTIONARY
  5
D
102
{ACAD_REACTORS
330
C
102
}
330
C
100
AcDbDictionary
281
     1
  0
DICTIONARY
  5
1A
102
{ACAD_REACTORS
330
C
102
}
330
C
100
AcDbDictionary
281
     1
  3
_Dimetrisch
350
14F
  3
_Isometrisch
350
FD
  3
_Links
350
D0
  3
_Normal auf
350
AA
  3
_Rechts
350
26
  3
_Rückseite
350
B6
  3
_Trimetrisch
350
126
  3
_Unten
350
DC
  3
_Vorderseite
350
1E
  3
Model
350
22
  0
DICTIONARY
  5
17
102
{ACAD_REACTORS
330
C
102
}
330
C
100
AcDbDictionary
281
     1
  3
Standard
350
18
  0
DICTIONARY
  5
19
102
{ACAD_REACTORS
330
C
102
}
330
C
100
AcDbDictionary
281
     1
  0
ACDBDICTIONARYWDFLT
  5
E
102
{ACAD_REACTORS
330
C
102
}
330
C
100
AcDbDictionary
281
     1
  3
Normal
350
F
100
AcDbDictionaryWithDefault
340
F
  0
DICTIONARY
  5
47
102
{ACAD_REACTORS
330
C
102
}
330
C
100
AcDbDictionary
281
     1
  3
A0
350
48
  3
A1
350
49
  3
A2
350
4A
  3
A3
350
4B
  3
A4
350
4C
  3
A5
350
4D
  3
A6
350
4E
  3
A7
350
4F
  3
A8
350
50
  3
A9
350
51
  3
B0
350
52
  3
B1
350
53
  3
B2
350
54
  3
B3
350
55
  3
B4
350
56
  3
B5
350
57
  3
B6
350
58
  3
B7
350
59
  3
B8
350
5A
  3
B9
350
5B
  3
C0
350
5C
  3
C1
350
5D
  3
C2
350
5E
  3
C3
350
5F
  3
C4
350
60
  3
C5
350
61
  3
C6
350
62
  3
C7
350
63
  3
C8
350
64
  3
C9
350
65
  3
D0
350
66
  3
D1
350
67
  3
D2
350
68
  0
LAYOUT
  5
14F
102
{ACAD_REACTORS
330
1A
102
}
330
1A
100
AcDbPlotSettings
  1

  2
none_device
  4
ISO_A4_(210.00_x_297.00_MM)
  6

 40
7.5
 41
20.0
 42
7.5
 43
20.0
 44
210.0
 45
297.0
 46
0.0
 47
0.0
 48
0.0
 49
0.0
140
0.0
141
0.0
142
1.0
143
1.7509727626
 70
   688
 72
     1
 73
     1
 74
     1
  7

 75
     0
147
0.5711111111
148
0.0
149
0.0
100
AcDbLayout
  1
_Dimetrisch
 70
     1
 71
     9
 10
0.0
 20
0.0
 11
0.0
 21
0.0
 12
0.0
 22
0.0
 32
0.0
 14
0.0
 24
0.0
 34
0.0
 15
0.0
 25
0.0
 35
0.0
146
0.0
 13
0.0
 23
0.0
 33
0.0
 16
1.0
 26
0.0
 36
0.0
 17
0.0
 27
1.0
 37
0.0
 76
     0
330
14E
331
17F
  0
LAYOUT
  5
FD
102
{ACAD_REACTORS
330
1A
102
}
330
1A
100
AcDbPlotSettings
  1

  2
none_device
  4
ISO_A4_(210.00_x_297.00_MM)
  6

 40
7.5
 41
20.0
 42
7.5
 43
20.0
 44
210.0
 45
297.0
 46
0.0
 47
0.0
 48
0.0
 49
0.0
140
0.0
141
0.0
142
1.0
143
1.7509727626
 70
   688
 72
     1
 73
     1
 74
     1
  7

 75
     0
147
0.5711111111
148
0.0
149
0.0
100
AcDbLayout
  1
_Isometrisch
 70
     1
 71
     7
 10
0.0
 20
0.0
 11
0.0
 21
0.0
 12
0.0
 22
0.0
 32
0.0
 14
0.0
 24
0.0
 34
0.0
 15
0.0
 25
0.0
 35
0.0
146
0.0
 13
0.0
 23
0.0
 33
0.0
 16
1.0
 26
0.0
 36
0.0
 17
0.0
 27
1.0
 37
0.0
 76
     0
330
FC
331
17B
  0
LAYOUT
  5
D0
102
{ACAD_REACTORS
330
1A
102
}
330
1A
100
AcDbPlotSettings
  1

  2
none_device
  4
ISO_A4_(210.00_x_297.00_MM)
  6

 40
7.5
 41
20.0
 42
7.5
 43
20.0
 44
210.0
 45
297.0
 46
0.0
 47
0.0
 48
0.0
 49
0.0
140
0.0
141
0.0
142
1.0
143
1.7509727626
 70
   688
 72
     1
 73
     1
 74
     1
  7

 75
     0
147
0.5711111111
148
0.0
149
0.0
100
AcDbLayout
  1
_Links
 70
     1
 71
     5
 10
0.0
 20
0.0
 11
0.0
 21
0.0
 12
0.0
 22
0.0
 32
0.0
 14
0.0
 24
0.0
 34
0.0
 15
0.0
 25
0.0
 35
0.0
146
0.0
 13
0.0
 23
0.0
 33
0.0
 16
1.0
 26
0.0
 36
0.0
 17
0.0
 27
1.0
 37
0.0
 76
     0
330
CF
331
177
  0
LAYOUT
  5
AA
102
{ACAD_REACTORS
330
1A
102
}
330
1A
100
AcDbPlotSettings
  1

  2
none_device
  4
ISO_A4_(210.00_x_297.00_MM)
  6

 40
7.5
 41
20.0
 42
7.5
 43
20.0
 44
210.0
 45
297.0
 46
0.0
 47
0.0
 48
0.0
 49
0.0
140
0.0
141
0.0
142
1.0
143
1.7509727626
 70
   688
 72
     1
 73
     1
 74
     1
  7

 75
     0
147
0.5711111111
148
0.0
149
0.0
100
AcDbLayout
  1
_Normal auf
 70
     1
 71
     3
 10
0.0
 20
0.0
 11
0.0
 21
0.0
 12
0.0
 22
0.0
 32
0.0
 14
0.0
 24
0.0
 34
0.0
 15
0.0
 25
0.0
 35
0.0
146
0.0
 13
0.0
 23
0.0
 33
0.0
 16
1.0
 26
0.0
 36
0.0
 17
0.0
 27
1.0
 37
0.0
 76
     0
330
A9
331
173
  0
LAYOUT
  5
26
102
{ACAD_REACTORS
330
1A
102
}
330
1A
100
AcDbPlotSettings
  1

  2
none_device
  4
ISO_A4_(210.00_x_297.00_MM)
  6

 40
7.5
 41
20.0
 42
7.5
 43
20.0
 44
210.0
 45
297.0
 46
0.0
 47
0.0
 48
0.0
 49
0.0
140
0.0
141
0.0
142
1.0
143
1.7509727626
 70
   688
 72
     1
 73
     1
 74
     1
  7

 75
     0
147
0.5711111111
148
0.0
149
0.0
100
AcDbLayout
  1
_Rechts
 70
     1
 71
     2
 10
0.0
 20
0.0
 11
0.0
 21
0.0
 12
0.0
 22
0.0
 32
0.0
 14
0.0
 24
0.0
 34
0.0
 15
0.0
 25
0.0
 35
0.0
146
0.0
 13
0.0
 23
0.0
 33
0.0
 16
1.0
 26
0.0
 36
0.0
 17
0.0
 27
1.0
 37
0.0
 76
     0
330
23
331
171
  0
LAYOUT
  5
B6
102
{ACAD_REACTORS
330
1A
102
}
330
1A
100
AcDbPlotSettings
  1

  2
none_device
  4
ISO_A4_(210.00_x_297.00_MM)
  6

 40
7.5
 41
20.0
 42
7.5
 43
20.0
 44
210.0
 45
297.0
 46
0.0
 47
0.0
 48
0.0
 49
0.0
140
0.0
141
0.0
142
1.0
143
1.7509727626
 70
   688
 72
     1
 73
     1
 74
     1
  7

 75
     0
147
0.5711111111
148
0.0
149
0.0
100
AcDbLayout
  1
_Rückseite
 70
     1
 71
     4
 10
0.0
 20
0.0
 11
0.0
 21
0.0
 12
0.0
 22
0.0
 32
0.0
 14
0.0
 24
0.0
 34
0.0
 15
0.0
 25
0.0
 35
0.0
146
0.0
 13
0.0
 23
0.0
 33
0.0
 16
1.0
 26
0.0
 36
0.0
 17
0.0
 27
1.0
 37
0.0
 76
     0
330
B5
331
175
  0
LAYOUT
  5
126
102
{ACAD_REACTORS
330
1A
102
}
330
1A
100
AcDbPlotSettings
  1

  2
none_device
  4
ISO_A4_(210.00_x_297.00_MM)
  6

 40
7.5
 41
20.0
 42
7.5
 43
20.0
 44
210.0
 45
297.0
 46
0.0
 47
0.0
 48
0.0
 49
0.0
140
0.0
141
0.0
142
1.0
143
1.7509727626
 70
   688
 72
     1
 73
     1
 74
     1
  7

 75
     0
147
0.5711111111
148
0.0
149
0.0
100
AcDbLayout
  1
_Trimetrisch
 70
     1
 71
     8
 10
0.0
 20
0.0
 11
0.0
 21
0.0
 12
0.0
 22
0.0
 32
0.0
 14
0.0
 24
0.0
 34
0.0
 15
0.0
 25
0.0
 35
0.0
146
0.0
 13
0.0
 23
0.0
 33
0.0
 16
1.0
 26
0.0
 36
0.0
 17
0.0
 27
1.0
 37
0.0
 76
     0
330
125
331
17D
  0
LAYOUT
  5
DC
102
{ACAD_REACTORS
330
1A
102
}
330
1A
100
AcDbPlotSettings
  1

  2
none_device
  4
ISO_A4_(210.00_x_297.00_MM)
  6

 40
7.5
 41
20.0
 42
7.5
 43
20.0
 44
210.0
 45
297.0
 46
0.0
 47
0.0
 48
0.0
 49
0.0
140
0.0
141
0.0
142
1.0
143
1.7509727626
 70
   688
 72
     1
 73
     1
 74
     1
  7

 75
     0
147
0.5711111111
148
0.0
149
0.0
100
AcDbLayout
  1
_Unten
 70
     1
 71
     6
 10
0.0
 20
0.0
 11
0.0
 21
0.0
 12
0.0
 22
0.0
 32
0.0
 14
0.0
 24
0.0
 34
0.0
 15
0.0
 25
0.0
 35
0.0
146
0.0
 13
0.0
 23
0.0
 33
0.0
 16
1.0
 26
0.0
 36
0.0
 17
0.0
 27
1.0
 37
0.0
 76
     0
330
DB
331
179
  0
LAYOUT
  5
1E
102
{ACAD_REACTORS
330
1A
102
}
330
1A
100
AcDbPlotSettings
  1

  2
none_device
  4
ISO_A4_(210.00_x_297.00_MM)
  6

 40
7.5
 41
20.0
 42
7.5
 43
20.0
 44
210.0
 45
297.0
 46
0.0
 47
0.0
 48
0.0
 49
0.0
140
0.0
141
0.0
142
1.0
143
1.7509727626
 70
   688
 72
     1
 73
     1
 74
     1
  7

 75
     0
147
0.5711111111
148
0.0
149
0.0
100
AcDbLayout
  1
_Vorderseite
 70
     1
 71
     1
 10
-35.0194552529
 20
-13.1322957198
 11
485.0194552529
 21
354.5719844358
 12
0.0
 22
0.0
 32
0.0
 14
0.0
 24
0.0
 34
0.0
 15
450.0
 25
170.0
 35
0.0
146
0.0
 13
0.0
 23
0.0
 33
0.0
 16
1.0
 26
0.0
 36
0.0
 17
0.0
 27
1.0
 37
0.0
 76
     0
330
1B
331
16F
  0
LAYOUT
  5
22
102
{ACAD_REACTORS
330
1A
102
}
330
1A
100
AcDbPlotSettings
  1

  2
none_device
  4
ANSI_A_(11.00_x_8.50_Inches)
  6

 40
6.35
 41
19.05
 42
6.35000508
 43
19.05000254
 44
279.4
 45
215.9
 46
-4.95300254
 47
12.06499873
 48
0.0
 49
0.0
140
0.0
141
0.0
142
0.0242
143
1.0
 70
  1696
 72
     0
 73
     0
 74
     0
  7

 75
     0
147
0.0179189148
148
-1300.4909072572
149
0.0
100
AcDbLayout
  1
Model
 70
     1
 71
     0
 10
0.0
 20
0.0
 11
420.0
 21
297.0
 12
0.0
 22
0.0
 32
0.0
 14
0.0
 24
0.0
 34
0.0
 15
450.0
 25
250.0
 35
0.0
146
0.0
 13
0.0
 23
0.0
 33
0.0
 16
1.0
 26
0.0
 36
0.0
 17
0.0
 27
1.0
 37
0.0
 76
     0
330
1F
331
29
  0
MLINESTYLE
  5
18
102
{ACAD_REACTORS
330
17
102
}
330
17
100
AcDbMlineStyle
  2
Standard
 70
     0
  3

 62
   256
 51
90.0
 52
90.0
 71
     2
 49
0.5
 62
   256
  6
BYLAYER
 49
-0.5
 62
   256
  6
BYLAYER
  0
ACDBPLACEHOLDER
  5
F
102
{ACAD_REACTORS
330
E
102
}
330
E
  0
SCALE
  5
48
102
{ACAD_REACTORS
330
47
102
}
330
47
100
AcDbScale
 70
     0
300
1:1
140
1.0
141
1.0
290
     1
  0
SCALE
  5
49
102
{ACAD_REACTORS
330
47
102
}
330
47
100
AcDbScale
 70
     0
300
1:2
140
1.0
141
2.0
290
     0
  0
SCALE
  5
4A
102
{ACAD_REACTORS
330
47
102
}
330
47
100
AcDbScale
 70
     0
300
1:4
140
1.0
141
4.0
290
     0
  0
SCALE
  5
4B
102
{ACAD_REACTORS
330
47
102
}
330
47
100
AcDbScale
 70
     0
300
1:5
140
1.0
141
5.0
290
     0
  0
SCALE
  5
4C
102
{ACAD_REACTORS
330
47
102
}
330
47
100
AcDbScale
 70
     0
300
1:8
140
1.0
141
8.0
290
     0
  0
SCALE
  5
4D
102
{ACAD_REACTORS
330
47
102
}
330
47
100
AcDbScale
 70
     0
300
1:10
140
1.0
141
10.0
290
     0
  0
SCALE
  5
4E
102
{ACAD_REACTORS
330
47
102
}
330
47
100
AcDbScale
 70
     0
300
1:16
140
1.0
141
16.0
290
     0
  0
SCALE
  5
4F
102
{ACAD_REACTORS
330
47
102
}
330
47
100
AcDbScale
 70
     0
300
1:20
140
1.0
141
20.0
290
     0
  0
SCALE
  5
50
102
{ACAD_REACTORS
330
47
102
}
330
47
100
AcDbScale
 70
     0
300
1:30
140
1.0
141
30.0
290
     0
  0
SCALE
  5
51
102
{ACAD_REACTORS
330
47
102
}
330
47
100
AcDbScale
 70
     0
300
1:40
140
1.0
141
40.0
290
     0
  0
SCALE
  5
52
102
{ACAD_REACTORS
330
47
102
}
330
47
100
AcDbScale
 70
     0
300
1:50
140
1.0
141
50.0
290
     0
  0
SCALE
  5
53
102
{ACAD_REACTORS
330
47
102
}
330
47
100
AcDbScale
 70
     0
300
1:100
140
1.0
141
100.0
290
     0
  0
SCALE
  5
54
102
{ACAD_REACTORS
330
47
102
}
330
47
100
AcDbScale
 70
     0
300
2:1
140
2.0
141
1.0
290
     0
  0
SCALE
  5
55
102
{ACAD_REACTORS
330
47
102
}
330
47
100
AcDbScale
 70
     0
300
4:1
140
4.0
141
1.0
290
     0
  0
SCALE
  5
56
102
{ACAD_REACTORS
330
47
102
}
330
47
100
AcDbScale
 70
     0
300
8:1
140
8.0
141
1.0
290
     0
  0
SCALE
  5
57
102
{ACAD_REACTORS
330
47
102
}
330
47
100
AcDbScale
 70
     0
300
10:1
140
10.0
141
1.0
290
     0
  0
SCALE
  5
58
102
{ACAD_REACTORS
330
47
102
}
330
47
100
AcDbScale
 70
     0
300
100:1
140
100.0
141
1.0
290
     0
  0
SCALE
  5
59
102
{ACAD_REACTORS
330
47
102
}
330
47
100
AcDbScale
 70
     0
300
1/128" = 1'-0"
140
0.0078125
141
12.0
290
     0
  0
SCALE
  5
5A
102
{ACAD_REACTORS
330
47
102
}
330
47
100
AcDbScale
 70
     0
300
1/64" = 1'-0"
140
0.015625
141
12.0
290
     0
  0
SCALE
  5
5B
102
{ACAD_REACTORS
330
47
102
}
330
47
100
AcDbScale
 70
     0
300
1/32" = 1'-0"
140
0.03125
141
12.0
290
     0
  0
SCALE
  5
5C
102
{ACAD_REACTORS
330
47
102
}
330
47
100
AcDbScale
 70
     0
300
1/16" = 1'-0"
140
0.0625
141
12.0
290
     0
  0
SCALE
  5
5D
102
{ACAD_REACTORS
330
47
102
}
330
47
100
AcDbScale
 70
     0
300
3/32" = 1'-0"
140
0.09375
141
12.0
290
     0
  0
SCALE
  5
5E
102
{ACAD_REACTORS
330
47
102
}
330
47
100
AcDbScale
 70
     0
300
1/8" = 1'-0"
140
0.125
141
12.0
290
     0
  0
SCALE
  5
5F
102
{ACAD_REACTORS
330
47
102
}
330
47
100
AcDbScale
 70
     0
300
3/16" = 1'-0"
140
0.1875
141
12.0
290
     0
  0
SCALE
  5
60
102
{ACAD_REACTORS
330
47
102
}
330
47
100
AcDbScale
 70
     0
300
1/4" = 1'-0"
140
0.25
141
12.0
290
     0
  0
SCALE
  5
61
102
{ACAD_REACTORS
330
47
102
}
330
47
100
AcDbScale
 70
     0
300
3/8" = 1'-0"
140
0.375
141
12.0
290
     0
  0
SCALE
  5
62
102
{ACAD_REACTORS
330
47
102
}
330
47
100
AcDbScale
 70
     0
300
1/2" = 1'-0"
140
0.5
141
12.0
290
     0
  0
SCALE
  5
63
102
{ACAD_REACTORS
330
47
102
}
330
47
100
AcDbScale
 70
     0
300
3/4" = 1'-0"
140
0.75
141
12.0
290
     0
  0
SCALE
  5
64
102
{ACAD_REACTORS
330
47
102
}
330
47
100
AcDbScale
 70
     0
300
1" = 1'-0"
140
1.0
141
12.0
290
     0
  0
SCALE
  5
65
102
{ACAD_REACTORS
330
47
102
}
330
47
100
AcDbScale
 70
     0
300
1-1/2" = 1'-0"
140
1.5
141
12.0
290
     0
  0
SCALE
  5
66
102
{ACAD_REACTORS
330
47
102
}
330
47
100
AcDbScale
 70
     0
300
3" = 1'-0"
140
3.0
141
12.0
290
     0
  0
SCALE
  5
67
102
{ACAD_REACTORS
330
47
102
}
330
47
100
AcDbScale
 70
     0
300
6" = 1'-0"
140
6.0
141
12.0
290
     0
  0
SCALE
  5
68
102
{ACAD_REACTORS
330
47
102
}
330
47
100
AcDbScale
 70
     0
300
1'-0" = 1'-0"
140
12.0
141
12.0
290
     0
  0
ENDSEC
  0
EOF
