  0
SECTION
  2
HEADER
  9
$ACADVER
  1
AC1015
  9
$ACADMAINTVER
 70
     6
  9
$DWGCODEPAGE
  3
ANSI_1252
  9
$INSBASE
 10
0.0
 20
0.0
 30
0.0
  9
$EXTMIN
 10
0.0
 20
0.0
 30
0.0
  9
$EXTMAX
 10
600.0
 20
450.0
 30
0.0
  9
$LIMMIN
 10
0.0
 20
0.0
  9
$LIMMAX
 10
420.0
 20
297.0
  9
$ORTHOMODE
 70
     0
  9
$REGENMODE
 70
     1
  9
$FILLMODE
 70
     1
  9
$QTEXTMODE
 70
     0
  9
$MIRRTEXT
 70
     1
  9
$LTSCALE
 40
1.0
  9
$ATTMODE
 70
     1
  9
$TEXTSIZE
 40
3.5
  9
$TRACEWID
 40
1.0
  9
$TEXTSTYLE
  7
STANDARD
  9
$CLAYER
  8
0
  9
$CELTYPE
  6
ByLayer
  9
$CECOLOR
 62
   256
  9
$CELTSCALE
 40
1.0
  9
$DISPSILH
 70
     0
  9
$DIMSCALE
 40
1.0
  9
$DIMASZ
 40
6.0
  9
$DIMEXO
 40
1.0
  9
$DIMDLI
 40
3.75
  9
$DIMRND
 40
0.0
  9
$DIMDLE
 40
0.0
  9
$DIMEXE
 40
1.0
  9
$DIMTP
 40
0.0
  9
$DIMTM
 40
0.0
  9
$DIMTXT
 40
3.5
  9
$DIMCEN
 40
2.5
  9
$DIMTSZ
 40
0.0
  9
$DIMTOL
 70
     0
  9
$DIMLIM
 70
     0
  9
$DIMTIH
 70
     1
  9
$DIMTOH
 70
     1
  9
$DIMSE1
 70
     0
  9
$DIMSE2
 70
     0
  9
$DIMTAD
 70
     1
  9
$DIMZIN
 70
     0
  9
$DIMBLK
  1

  9
$DIMASO
 70
     1
  9
$DIMSHO
 70
     1
  9
$DIMPOST
  1

  9
$DIMAPOST
  1

  9
$DIMALT
 70
     0
  9
$DIMALTD
 70
     3
  9
$DIMALTF
 40
0.0393700787
  9
$DIMLFAC
 40
1.0
  9
$DIMTOFL
 70
     1
  9
$DIMTVP
 40
0.0
  9
$DIMTIX
 70
     0
  9
$DIMSOXD
 70
     0
  9
$DIMSAH
 70
     0
  9
$DIMBLK1
  1

  9
$DIMBLK2
  1

  9
$DIMSTYLE
  2
ISO-25
  9
$DIMCLRD
 70
     0
  9
$DIMCLRE
 70
     0
  9
$DIMCLRT
 70
     0
  9
$DIMTFAC
 40
1.0
  9
$DIMGAP
 40
1.524
  9
$DIMJUST
 70
     0
  9
$DIMSD1
 70
     0
  9
$DIMSD2
 70
     0
  9
$DIMTOLJ
 70
     0
  9
$DIMTZIN
 70
     0
  9
$DIMALTZ
 70
     0
  9
$DIMALTTZ
 70
     0
  9
$DIMUPT
 70
     0
  9
$DIMDEC
 70
     2
  9
$DIMTDEC
 70
     2
  9
$DIMALTU
 70
     2
  9
$DIMALTTD
 70
     3
  9
$DIMTXSTY
  7
STANDARD
  9
$DIMAUNIT
 70
     0
  9
$DIMADEC
 70
     2
  9
$DIMALTRND
 40
0.0
  9
$DIMAZIN
 70
     0
  9
$DIMDSEP
 70
    44
  9
$DIMATFIT
 70
     3
  9
$DIMFRAC
 70
     0
  9
$DIMLDRBLK
  1

  9
$DIMLUNIT
 70
     2
  9
$DIMLWD
 70
    -2
  9
$DIMLWE
 70
    -2
  9
$DIMTMOVE
 70
     0
  9
$LUNITS
 70
     2
  9
$LUPREC
 70
     2
  9
$SKETCHINC
 40
1.0
  9
$FILLETRAD
 40
10.0
  9
$AUNITS
 70
     0
  9
$AUPREC
 70
     2
  9
$MENU
  1
.
  9
$ELEVATION
 40
0.0
  9
$PELEVATION
 40
0.0
  9
$THICKNESS
 40
0.0
  9
$LIMCHECK
 70
     0
  9
$CHAMFERA
 40
0.0
  9
$CHAMFERB
 40
0.0
  9
$CHAMFERC
 40
0.0
  9
$CHAMFERD
 40
0.0
  9
$SKPOLY
 70
     0
  9
$TDCREATE
 40
2458222.584682708
  9
$TDUCREATE
 40
2458222.501349375
  9
$TDUPDATE
 40
2458222.584705509
  9
$TDUUPDATE
 40
2458222.501372176
  9
$TDINDWG
 40
0.0000000116
  9
$TDUSRTIMER
 40
0.0000000116
  9
$USRTIMER
 70
     1
  9
$ANGBASE
 50
0.0
  9
$ANGDIR
 70
     0
  9
$PDMODE
 70
     0
  9
$PDSIZE
 40
-1.0
  9
$PLINEWID
 40
0.0
  9
$SPLFRAME
 70
     0
  9
$SPLINETYPE
 70
     6
  9
$SPLINESEGS
 70
     8
  9
$HANDSEED
  5
17A
  9
$SURFTAB1
 70
     6
  9
$SURFTAB2
 70
     6
  9
$SURFTYPE
 70
     6
  9
$SURFU
 70
     6
  9
$SURFV
 70
     6
  9
$UCSBASE
  2

  9
$UCSNAME
  2

  9
$UCSORG
 10
0.0
 20
0.0
 30
0.0
  9
$UCSXDIR
 10
1.0
 20
0.0
 30
0.0
  9
$UCSYDIR
 10
0.0
 20
1.0
 30
0.0
  9
$UCSORTHOREF
  2

  9
$UCSORTHOVIEW
 70
     0
  9
$UCSORGTOP
 10
0.0
 20
0.0
 30
0.0
  9
$UCSORGBOTTOM
 10
0.0
 20
0.0
 30
0.0
  9
$UCSORGLEFT
 10
0.0
 20
0.0
 30
0.0
  9
$UCSORGRIGHT
 10
0.0
 20
0.0
 30
0.0
  9
$UCSORGFRONT
 10
0.0
 20
0.0
 30
0.0
  9
$UCSORGBACK
 10
0.0
 20
0.0
 30
0.0
  9
$PUCSBASE
  2

  9
$PUCSNAME
  2

  9
$PUCSORG
 10
0.0
 20
0.0
 30
0.0
  9
$PUCSXDIR
 10
1.0
 20
0.0
 30
0.0
  9
$PUCSYDIR
 10
0.0
 20
1.0
 30
0.0
  9
$PUCSORTHOREF
  2

  9
$PUCSORTHOVIEW
 70
     0
  9
$PUCSORGTOP
 10
0.0
 20
0.0
 30
0.0
  9
$PUCSORGBOTTOM
 10
0.0
 20
0.0
 30
0.0
  9
$PUCSORGLEFT
 10
0.0
 20
0.0
 30
0.0
  9
$PUCSORGRIGHT
 10
0.0
 20
0.0
 30
0.0
  9
$PUCSORGFRONT
 10
0.0
 20
0.0
 30
0.0
  9
$PUCSORGBACK
 10
0.0
 20
0.0
 30
0.0
  9
$USERI1
 70
     0
  9
$USERI2
 70
     0
  9
$USERI3
 70
     0
  9
$USERI4
 70
     0
  9
$USERI5
 70
     0
  9
$USERR1
 40
0.0
  9
$USERR2
 40
0.0
  9
$USERR3
 40
0.0
  9
$USERR4
 40
0.0
  9
$USERR5
 40
0.0
  9
$WORLDVIEW
 70
     1
  9
$SHADEDGE
 70
     3
  9
$SHADEDIF
 70
    70
  9
$TILEMODE
 70
     1
  9
$MAXACTVP
 70
    64
  9
$PINSBASE
 10
0.0
 20
0.0
 30
0.0
  9
$PLIMCHECK
 70
     0
  9
$PEXTMIN
 10
0.0
 20
0.0
 30
0.0
  9
$PEXTMAX
 10
600.0
 20
170.0
 30
0.0
  9
$PLIMMIN
 10
-46.6926070039
 20
-17.5097276265
  9
$PLIMMAX
 10
646.6926070039
 20
472.7626459144
  9
$UNITMODE
 70
     0
  9
$VISRETAIN
 70
     1
  9
$PLINEGEN
 70
     0
  9
$PSLTSCALE
 70
     1
  9
$TREEDEPTH
 70
  3020
  9
$CMLSTYLE
  2
Standard
  9
$CMLJUST
 70
     0
  9
$CMLSCALE
 40
20.0
  9
$PROXYGRAPHICS
 70
     1
  9
$MEASUREMENT
 70
     1
  9
$CELWEIGHT
370
    -1
  9
$ENDCAPS
280
     0
  9
$JOINSTYLE
280
     0
  9
$LWDISPLAY
290
     1
  9
$INSUNITS
 70
     4
  9
$HYPERLINKBASE
  1

  9
$STYLESHEET
  1

  9
$XEDIT
290
     1
  9
$CEPSNTYPE
380
     0
  9
$PSTYLEMODE
290
     1
  9
$FINGERPRINTGUID
  2
{8175FD19-1331-48F9-9526-FB7320D84230}
  9
$VERSIONGUID
  2
{FAEB1C32-E019-11D5-929B-00C0DF256EC4}
  9
$EXTNAMES
290
     1
  9
$PSVPSCALE
 40
0.0
  9
$OLESTARTUP
290
     0
  0
ENDSEC
  0
SECTION
  2
CLASSES
  0
CLASS
  1
ACDBDICTIONARYWDFLT
  2
AcDbDictionaryWithDefault
  3
ObjectDBX Classes
 90
        0
280
     0
281
     0
  0
CLASS
  1
VISUALSTYLE
  2
AcDbVisualStyle
  3
ObjectDBX Classes
 90
     4095
280
     0
281
     0
  0
CLASS
  1
MATERIAL
  2
AcDbMaterial
  3
ObjectDBX Classes
 90
     1153
280
     0
281
     0
  0
CLASS
  1
SCALE
  2
AcDbScale
  3
ObjectDBX Classes
 90
     1153
280
     0
281
     0
  0
CLASS
  1
TABLESTYLE
  2
AcDbTableStyle
  3
ObjectDBX Classes
 90
     4095
280
     0
281
     0
  0
CLASS
  1
MLEADERSTYLE
  2
AcDbMLeaderStyle
  3
ACDB_MLEADERSTYLE_CLASS
 90
     4095
280
     0
281
     0
  0
CLASS
  1
SUN
  2
AcDbSun
  3
SCENEOE
 90
     1153
280
     0
281
     0
  0
CLASS
  1
ACDBPLACEHOLDER
  2
AcDbPlaceHolder
  3
ObjectDBX Classes
 90
        0
280
     0
281
     0
  0
CLASS
  1
LAYOUT
  2
AcDbLayout
  3
ObjectDBX Classes
 90
        0
280
     0
281
     0
  0
ENDSEC
  0
SECTION
  2
TABLES
  0
TABLE
  2
VPORT
  5
8
330
0
100
AcDbSymbolTable
 70
     1
  0
VPORT
  5
29
330
8
100
AcDbSymbolTableRecord
100
AcDbViewportTableRecord
  2
*Active
 70
     0
 10
0.0
 20
0.0
 11
1.0
 21
1.0
 12
300.0
 22
225.0
 13
0.0
 23
0.0
 14
10.0
 24
10.0
 15
10.0
 25
10.0
 16
0.0
 26
0.0
 36
1.0
 17
0.0
 27
0.0
 37
0.0
 40
459.0
 41
1.3333333333
 42
50.0
 43
0.0
 44
0.0
 50
0.0
 51
0.0
 71
     0
 72
   100
 73
     1
 74
     3
 75
     0
 76
     0
 77
     0
 78
     0
281
     0
 65
     1
110
0.0
120
0.0
130
0.0
111
1.0
121
0.0
131
0.0
112
0.0
122
1.0
132
0.0
 79
     0
146
0.0
  0
ENDTAB
  0
TABLE
  2
LTYPE
  5
5
330
0
100
AcDbSymbolTable
 70
     6
  0
LTYPE
  5
14
330
5
100
AcDbSymbolTableRecord
100
AcDbLinetypeTableRecord
  2
ByBlock
 70
     0
  3

 72
    65
 73
     0
 40
0.0
  0
LTYPE
  5
15
330
5
100
AcDbSymbolTableRecord
100
AcDbLinetypeTableRecord
  2
ByLayer
 70
     0
  3

 72
    65
 73
     0
 40
0.0
  0
LTYPE
  5
16
330
5
100
AcDbSymbolTableRecord
100
AcDbLinetypeTableRecord
  2
Continuous
 70
     0
  3
Solid line
 72
    65
 73
     0
 40
0.0
  0
LTYPE
  5
6E
330
5
100
AcDbSymbolTableRecord
100
AcDbLinetypeTableRecord
  2
HIDDEN
 70
     0
  3
Hidden __ __ __ __ __ __ __ __ __ __ __ __ __ __
 72
    65
 73
     2
 40
1.905
 49
1.27
 74
     0
 49
-0.635
 74
     0
  0
LTYPE
  5
6F
330
5
100
AcDbSymbolTableRecord
100
AcDbLinetypeTableRecord
  2
PHANTOM
 70
     0
  3
Phantom ______  __  __  ______  __  __  ______
 72
    65
 73
     6
 40
12.7
 49
6.35
 74
     0
 49
-1.27
 74
     0
 49
1.27
 74
     0
 49
-1.27
 74
     0
 49
1.27
 74
     0
 49
-1.27
 74
     0
  0
LTYPE
  5
70
330
5
100
AcDbSymbolTableRecord
100
AcDbLinetypeTableRecord
  2
CENTER
 70
     0
  3
Center ____ _ ____ _ ____ _ ____ _ ____ _ ____
 72
    65
 73
     4
 40
10.16
 49
6.35
 74
     0
 49
-1.27
 74
     0
 49
1.27
 74
     0
 49
-1.27
 74
     0
  0
LTYPE
  5
71
330
5
100
AcDbSymbolTableRecord
100
AcDbLinetypeTableRecord
  2
CENTERX2
 70
     0
  3
Center (2x) ________  __  ________  __  _____
 72
    65
 73
     4
 40
20.32
 49
12.7
 74
     0
 49
-2.54
 74
     0
 49
2.54
 74
     0
 49
-2.54
 74
     0
  0
LTYPE
  5
72
330
5
100
AcDbSymbolTableRecord
100
AcDbLinetypeTableRecord
  2
DOT2
 70
     0
  3
Dot (.5x) ........................................
 72
    65
 73
     2
 40
0.635
 49
0.0
 74
     0
 49
-0.635
 74
     0
  0
ENDTAB
  0
TABLE
  2
LAYER
  5
2
330
0
100
AcDbSymbolTable
 70
     1
  0
LAYER
  5
10
330
2
100
AcDbSymbolTableRecord
100
AcDbLayerTableRecord
  2
0
 70
     0
 62
     7
  6
Continuous
370
    -3
390
F
  0
ENDTAB
  0
TABLE
  2
STYLE
  5
3
330
0
100
AcDbSymbolTable
 70
     1
  0
STYLE
  5
11
330
3
100
AcDbSymbolTableRecord
100
AcDbTextStyleTableRecord
  2
STANDARD
 70
     0
 40
0.0
 41
1.0
 50
0.0
 71
     0
 42
3.5
  3
GOTHIC.TTF
  4

1001
ACAD
1000
CENTURY GOTHIC
1071
       34
  0
ENDTAB
  0
TABLE
  2
VIEW
  5
6
330
0
100
AcDbSymbolTable
 70
     0
  0
ENDTAB
  0
TABLE
  2
UCS
  5
7
330
0
100
AcDbSymbolTable
 70
     0
  0
ENDTAB
  0
TABLE
  2
APPID
  5
9
330
0
100
AcDbSymbolTable
 70
     1
  0
APPID
  5
12
330
9
100
AcDbSymbolTableRecord
100
AcDbRegAppTableRecord
  2
ACAD
 70
     0
  0
ENDTAB
  0
TABLE
  2
DIMSTYLE
  5
A
330
0
100
AcDbSymbolTable
 70
     1
100
AcDbDimStyleTable
  0
DIMSTYLE
105
27
330
A
100
AcDbSymbolTableRecord
100
AcDbDimStyleTableRecord
  2
ISO-25
 70
     0
 41
2.5
 42
0.625
 43
3.75
 44
1.25
 73
     0
 74
     0
 77
     1
 78
     8
140
2.5
141
2.5
143
0.0393700787
147
0.625
171
     3
172
     1
178
     0
271
     2
272
     2
274
     3
278
    44
283
     0
284
     8
340
11
  0
ENDTAB
  0
TABLE
  2
BLOCK_RECORD
  5
1
330
0
100
AcDbSymbolTable
 70
     8
  0
BLOCK_RECORD
  5
1F
330
1
100
AcDbSymbolTableRecord
100
AcDbBlockTableRecord
  2
*Model_Space
340
22
  0
BLOCK_RECORD
  5
1B
330
1
100
AcDbSymbolTableRecord
100
AcDbBlockTableRecord
  2
*Paper_Space
340
1E
  0
BLOCK_RECORD
  5
23
330
1
100
AcDbSymbolTableRecord
100
AcDbBlockTableRecord
  2
*Paper_Space0
340
26
  0
BLOCK_RECORD
  5
A8
330
1
100
AcDbSymbolTableRecord
100
AcDbBlockTableRecord
  2
*Paper_Space1
340
A9
  0
BLOCK_RECORD
  5
B4
330
1
100
AcDbSymbolTableRecord
100
AcDbBlockTableRecord
  2
*Paper_Space2
340
B5
  0
BLOCK_RECORD
  5
C2
330
1
100
AcDbSymbolTableRecord
100
AcDbBlockTableRecord
  2
*Paper_Space3
340
C3
  0
BLOCK_RECORD
  5
CE
330
1
100
AcDbSymbolTableRecord
100
AcDbBlockTableRecord
  2
*Paper_Space4
340
CF
  0
BLOCK_RECORD
  5
E3
330
1
100
AcDbSymbolTableRecord
100
AcDbBlockTableRecord
  2
*Paper_Space5
340
E4
  0
BLOCK_RECORD
  5
120
330
1
100
AcDbSymbolTableRecord
100
AcDbBlockTableRecord
  2
*Paper_Space6
340
121
  0
BLOCK_RECORD
  5
148
330
1
100
AcDbSymbolTableRecord
100
AcDbBlockTableRecord
  2
*Paper_Space7
340
149
  0
ENDTAB
  0
ENDSEC
  0
SECTION
  2
BLOCKS
  0
BLOCK
  5
20
330
1F
100
AcDbEntity
  8
0
100
AcDbBlockBegin
  2
*Model_Space
 70
     0
 10
0.0
 20
0.0
 30
0.0
  3
*Model_Space
  1

  0
ENDBLK
  5
21
330
1F
100
AcDbEntity
  8
0
100
AcDbBlockEnd
  0
BLOCK
  5
1C
330
1B
100
AcDbEntity
 67
     1
  8
0
100
AcDbBlockBegin
  2
*Paper_Space
 70
     0
 10
0.0
 20
0.0
 30
0.0
  3
*Paper_Space
  1

  0
ENDBLK
  5
1D
330
1B
100
AcDbEntity
 67
     1
  8
0
100
AcDbBlockEnd
  0
BLOCK
  5
24
330
23
100
AcDbEntity
  8
0
100
AcDbBlockBegin
  2
*Paper_Space0
 70
     0
 10
0.0
 20
0.0
 30
0.0
  3
*Paper_Space0
  1

  0
LINE
  5
A4
330
23
100
AcDbEntity
  8
0
  6
Continuous
 62
     7
370
    25
100
AcDbLine
 10
0.0
 20
170.0
 30
0.0
 11
450.0
 21
170.0
 31
0.0
  0
LINE
  5
A5
330
23
100
AcDbEntity
  8
0
  6
Continuous
 62
     7
370
    25
100
AcDbLine
 10
450.0
 20
170.0
 30
0.0
 11
450.0
 21
0.0
 31
0.0
  0
LINE
  5
A6
330
23
100
AcDbEntity
  8
0
  6
Continuous
 62
     7
370
    25
100
AcDbLine
 10
0.0
 20
0.0
 30
0.0
 11
450.0
 21
0.0
 31
0.0
  0
LINE
  5
A7
330
23
100
AcDbEntity
  8
0
  6
Continuous
 62
     7
370
    25
100
AcDbLine
 10
0.0
 20
170.0
 30
0.0
 11
0.0
 21
0.0
 31
0.0
  0
VIEWPORT
  5
16A
330
23
100
AcDbEntity
  8
0
100
AcDbViewport
 10
0.0
 20
0.0
 30
0.0
 40
205.6
 41
156.0
 68
     1
 69
     1
 12
300.0
 22
225.0
 13
0.0
 23
0.0
 14
10.0
 24
10.0
 15
10.0
 25
10.0
 16
0.0
 26
0.0
 36
1.0
 17
0.0
 27
0.0
 37
0.0
 42
50.0
 43
0.0
 44
0.0
 45
464.3579766537
 50
0.0
 51
0.0
 72
   100
 90
   557152
  1

281
     0
 71
     1
 74
     0
110
0.0
120
0.0
130
0.0
111
1.0
121
0.0
131
0.0
112
0.0
122
1.0
132
0.0
 79
     0
146
0.0
  0
ENDBLK
  5
25
330
23
100
AcDbEntity
  8
0
100
AcDbBlockEnd
  0
BLOCK
  5
AA
330
A8
100
AcDbEntity
  8
0
100
AcDbBlockBegin
  2
*Paper_Space1
 70
     0
 10
0.0
 20
0.0
 30
0.0
  3
*Paper_Space1
  1

  0
LINE
  5
B0
330
A8
100
AcDbEntity
  8
0
  6
Continuous
 62
     7
370
    25
100
AcDbLine
 10
0.0
 20
170.0
 30
0.0
 11
0.0
 21
0.0
 31
0.0
  0
LINE
  5
B1
330
A8
100
AcDbEntity
  8
0
  6
Continuous
 62
     7
370
    25
100
AcDbLine
 10
0.0
 20
170.0
 30
0.0
 11
600.0
 21
170.0
 31
0.0
  0
LINE
  5
B2
330
A8
100
AcDbEntity
  8
0
  6
Continuous
 62
     7
370
    25
100
AcDbLine
 10
600.0
 20
170.0
 30
0.0
 11
600.0
 21
0.0
 31
0.0
  0
LINE
  5
B3
330
A8
100
AcDbEntity
  8
0
  6
Continuous
 62
     7
370
    25
100
AcDbLine
 10
0.0
 20
0.0
 30
0.0
 11
600.0
 21
0.0
 31
0.0
  0
VIEWPORT
  5
16C
330
A8
100
AcDbEntity
  8
0
100
AcDbViewport
 10
0.0
 20
0.0
 30
0.0
 40
205.6
 41
156.0
 68
     1
 69
     1
 12
300.0
 22
225.0
 13
0.0
 23
0.0
 14
10.0
 24
10.0
 15
10.0
 25
10.0
 16
0.0
 26
0.0
 36
1.0
 17
0.0
 27
0.0
 37
0.0
 42
50.0
 43
0.0
 44
0.0
 45
464.3579766537
 50
0.0
 51
0.0
 72
   100
 90
   557152
  1

281
     0
 71
     1
 74
     0
110
0.0
120
0.0
130
0.0
111
1.0
121
0.0
131
0.0
112
0.0
122
1.0
132
0.0
 79
     0
146
0.0
  0
ENDBLK
  5
AB
330
A8
100
AcDbEntity
  8
0
100
AcDbBlockEnd
  0
BLOCK
  5
B6
330
B4
100
AcDbEntity
  8
0
100
AcDbBlockBegin
  2
*Paper_Space2
 70
     0
 10
0.0
 20
0.0
 30
0.0
  3
*Paper_Space2
  1

  0
CIRCLE
  5
BB
330
B4
100
AcDbEntity
  8
0
  6
Continuous
 62
     7
370
    25
100
AcDbCircle
 10
-520.0
 20
110.0
 30
0.0
 40
7.000000000000114
  0
CIRCLE
  5
BD
330
B4
100
AcDbEntity
  8
0
  6
Continuous
 62
     7
370
    25
100
AcDbCircle
 10
-80.0
 20
110.0
 30
0.0
 40
6.999999999999972
  0
LINE
  5
BE
330
B4
100
AcDbEntity
  8
0
  6
Continuous
 62
     7
370
    25
100
AcDbLine
 10
-600.0
 20
170.0
 30
0.0
 11
0.0
 21
170.0
 31
0.0
  0
LINE
  5
BF
330
B4
100
AcDbEntity
  8
0
  6
Continuous
 62
     7
370
    25
100
AcDbLine
 10
0.0
 20
170.0
 30
0.0
 11
0.0
 21
0.0
 31
0.0
  0
LINE
  5
C0
330
B4
100
AcDbEntity
  8
0
  6
Continuous
 62
     7
370
    25
100
AcDbLine
 10
-600.0
 20
0.0
 30
0.0
 11
0.0
 21
0.0
 31
0.0
  0
LINE
  5
C1
330
B4
100
AcDbEntity
  8
0
  6
Continuous
 62
     7
370
    25
100
AcDbLine
 10
-600.0
 20
170.0
 30
0.0
 11
-600.0
 21
0.0
 31
0.0
  0
VIEWPORT
  5
16E
330
B4
100
AcDbEntity
  8
0
100
AcDbViewport
 10
0.0
 20
0.0
 30
0.0
 40
205.6
 41
156.0
 68
     1
 69
     1
 12
300.0
 22
225.0
 13
0.0
 23
0.0
 14
10.0
 24
10.0
 15
10.0
 25
10.0
 16
0.0
 26
0.0
 36
1.0
 17
0.0
 27
0.0
 37
0.0
 42
50.0
 43
0.0
 44
0.0
 45
464.3579766537
 50
0.0
 51
0.0
 72
   100
 90
   557152
  1

281
     0
 71
     1
 74
     0
110
0.0
120
0.0
130
0.0
111
1.0
121
0.0
131
0.0
112
0.0
122
1.0
132
0.0
 79
     0
146
0.0
  0
ENDBLK
  5
B7
330
B4
100
AcDbEntity
  8
0
100
AcDbBlockEnd
  0
BLOCK
  5
C4
330
C2
100
AcDbEntity
  8
0
100
AcDbBlockBegin
  2
*Paper_Space3
 70
     0
 10
0.0
 20
0.0
 30
0.0
  3
*Paper_Space3
  1

  0
LINE
  5
CA
330
C2
100
AcDbEntity
  8
0
  6
Continuous
 62
     7
370
    25
100
AcDbLine
 10
-450.0
 20
0.0
 30
0.0
 11
0.0
 21
0.0
 31
0.0
  0
LINE
  5
CB
330
C2
100
AcDbEntity
  8
0
  6
Continuous
 62
     7
370
    25
100
AcDbLine
 10
-450.0
 20
170.0
 30
0.0
 11
-450.0
 21
0.0
 31
0.0
  0
LINE
  5
CC
330
C2
100
AcDbEntity
  8
0
  6
Continuous
 62
     7
370
    25
100
AcDbLine
 10
-450.0
 20
170.0
 30
0.0
 11
0.0
 21
170.0
 31
0.0
  0
LINE
  5
CD
330
C2
100
AcDbEntity
  8
0
  6
Continuous
 62
     7
370
    25
100
AcDbLine
 10
0.0
 20
170.0
 30
0.0
 11
0.0
 21
0.0
 31
0.0
  0
VIEWPORT
  5
170
330
C2
100
AcDbEntity
  8
0
100
AcDbViewport
 10
0.0
 20
0.0
 30
0.0
 40
205.6
 41
156.0
 68
     1
 69
     1
 12
300.0
 22
225.0
 13
0.0
 23
0.0
 14
10.0
 24
10.0
 15
10.0
 25
10.0
 16
0.0
 26
0.0
 36
1.0
 17
0.0
 27
0.0
 37
0.0
 42
50.0
 43
0.0
 44
0.0
 45
464.3579766537
 50
0.0
 51
0.0
 72
   100
 90
   557152
  1

281
     0
 71
     1
 74
     0
110
0.0
120
0.0
130
0.0
111
1.0
121
0.0
131
0.0
112
0.0
122
1.0
132
0.0
 79
     0
146
0.0
  0
ENDBLK
  5
C5
330
C2
100
AcDbEntity
  8
0
100
AcDbBlockEnd
  0
BLOCK
  5
D0
330
CE
100
AcDbEntity
  8
0
100
AcDbBlockBegin
  2
*Paper_Space4
 70
     0
 10
0.0
 20
0.0
 30
0.0
  3
*Paper_Space4
  1

  0
CIRCLE
  5
D3
330
CE
100
AcDbEntity
  8
0
  6
Continuous
 62
     7
370
    25
100
AcDbCircle
 10
300.0
 20
-185.0
 30
0.0
 40
22.49999999999986
  0
LINE
  5
DB
330
CE
100
AcDbEntity
  8
0
  6
Continuous
 62
     7
370
    25
100
AcDbLine
 10
20.0
 20
-370.0
 30
0.0
 11
20.0
 21
-430.0
 31
0.0
  0
LINE
  5
DC
330
CE
100
AcDbEntity
  8
0
  6
Continuous
 62
     7
370
    25
100
AcDbLine
 10
600.0
 20
0.0
 30
0.0
 11
600.0
 21
-450.0
 31
0.0
  0
LINE
  5
DD
330
CE
100
AcDbEntity
  8
0
  6
Continuous
 62
     7
370
    25
100
AcDbLine
 10
600.0
 20
-450.0
 30
0.0
 11
0.0
 21
-450.0
 31
0.0
  0
LINE
  5
DE
330
CE
100
AcDbEntity
  8
0
  6
Continuous
 62
     7
370
    25
100
AcDbLine
 10
0.0
 20
-450.0
 30
0.0
 11
0.0
 21
0.0
 31
0.0
  0
LINE
  5
DF
330
CE
100
AcDbEntity
  8
0
  6
Continuous
 62
     7
370
    25
100
AcDbLine
 10
0.0
 20
0.0
 30
0.0
 11
600.0
 21
0.0
 31
0.0
  0
LINE
  5
E0
330
CE
100
AcDbEntity
  8
0
  6
Continuous
 62
     7
370
    25
100
AcDbLine
 10
20.0
 20
-430.0
 30
0.0
 11
580.0
 21
-430.0
 31
0.0
  0
LINE
  5
E1
330
CE
100
AcDbEntity
  8
0
  6
Continuous
 62
     7
370
    25
100
AcDbLine
 10
580.0
 20
-430.0
 30
0.0
 11
580.0
 21
-370.0
 31
0.0
  0
LINE
  5
E2
330
CE
100
AcDbEntity
  8
0
  6
Continuous
 62
     7
370
    25
100
AcDbLine
 10
580.0
 20
-370.0
 30
0.0
 11
20.0
 21
-370.0
 31
0.0
  0
VIEWPORT
  5
172
330
CE
100
AcDbEntity
  8
0
100
AcDbViewport
 10
0.0
 20
0.0
 30
0.0
 40
205.6
 41
156.0
 68
     1
 69
     1
 12
300.0
 22
225.0
 13
0.0
 23
0.0
 14
10.0
 24
10.0
 15
10.0
 25
10.0
 16
0.0
 26
0.0
 36
1.0
 17
0.0
 27
0.0
 37
0.0
 42
50.0
 43
0.0
 44
0.0
 45
464.3579766537
 50
0.0
 51
0.0
 72
   100
 90
   557152
  1

281
     0
 71
     1
 74
     0
110
0.0
120
0.0
130
0.0
111
1.0
121
0.0
131
0.0
112
0.0
122
1.0
132
0.0
 79
     0
146
0.0
  0
ENDBLK
  5
D1
330
CE
100
AcDbEntity
  8
0
100
AcDbBlockEnd
  0
BLOCK
  5
E5
330
E3
100
AcDbEntity
  8
0
100
AcDbBlockBegin
  2
*Paper_Space5
 70
     0
 10
0.0
 20
0.0
 30
0.0
  3
*Paper_Space5
  1

  0
SPLINE
  5
F6
330
E3
100
AcDbEntity
  8
0
  6
Continuous
 62
     7
370
    25
100
AcDbSpline
210
0.0
220
0.0
230
1.0
 70
     8
 71
     3
 72
     8
 73
     4
 74
     0
 42
0.000000001
 43
0.00000001
 40
0.0
 40
0.0
 40
0.0
 40
0.0
 40
0.1249999980463097
 40
0.1249999980463097
 40
0.1249999980463097
 40
0.1249999980463097
 10
354.6855677622583
 20
-43.40464037357308
 30
0.0
 10
353.4102442311012
 20
-43.70029999030496
 30
0.0
 10
352.1186123573529
 20
-43.94360507767782
 30
0.0
 10
350.8283098442392
 20
-44.13610106723907
 30
0.0
  0
SPLINE
  5
F7
330
E3
100
AcDbEntity
  8
0
  6
Continuous
 62
     7
370
    25
100
AcDbSpline
210
0.0
220
0.0
230
1.0
 70
     8
 71
     3
 72
    20
 73
    16
 74
     0
 42
0.000000001
 43
0.00000001
 40
0.1249999980463097
 40
0.1249999980463097
 40
0.1249999980463097
 40
0.1249999980463097
 40
0.2499999980463097
 40
0.2499999980463097
 40
0.3749999980463097
 40
0.3749999980463097
 40
0.4999999980463097
 40
0.4999999980463097
 40
0.6249999980463097
 40
0.6249999980463097
 40
0.7499999980463097
 40
0.7499999980463097
 40
0.8749999980463097
 40
0.8749999980463097
 40
1.0
 40
1.0
 40
1.0
 40
1.0
 10
373.4448482763445
 20
-31.07985134047433
 30
0.0
 10
373.1113993122814
 20
-31.82472712616796
 30
0.0
 10
372.6899368728785
 20
-32.57037033542076
 30
0.0
 10
371.6656309313448
 20
-34.04282754236191
 30
0.0
 10
371.0627429964644
 20
-34.76958436062999
 30
0.0
 10
369.6796591345166
 20
-36.18256235538131
 30
0.0
 10
368.8994602665642
 20
-36.86871653434223
 30
0.0
 10
367.1761587838842
 20
-38.17941775348982
 30
0.0
 10
366.2331008286415
 20
-38.8038999047243
 30
0.0
 10
364.2082041370619
 20
-39.97284788301586
 30
0.0
 10
363.1264521126191
 20
-40.517263652362
 30
0.0
 10
360.8560049998399
 20
-41.512104422532
 30
0.0
 10
359.6674223146445
 20
-41.96250364198392
 30
0.0
 10
357.2198074335885
 20
-42.76094096027015
 30
0.0
 10
355.9608912934154
 20
-43.10898075684121
 30
0.0
 10
354.6855677622583
 20
-43.40464037357308
 30
0.0
  0
SPLINE
  5
FA
330
E3
100
AcDbEntity
  8
0
  6
Continuous
 62
     7
370
    25
100
AcDbSpline
210
0.0
220
0.0
230
1.0
 70
     8
 71
     3
 72
     9
 73
     5
 74
     0
 42
0.000000001
 43
0.00000001
 40
0.0
 40
0.0
 40
0.0
 40
0.0
 40
0.7734699688573863
 40
1.0
 40
1.0
 40
1.0
 40
1.0
 10
350.8283098442393
 20
-44.13610106723907
 30
0.0
 10
349.5957840612941
 20
-44.30945259106854
 30
0.0
 10
348.0022822673383
 20
-44.5335744455803
 30
0.0
 10
346.3698237819213
 20
-44.58892319623786
 30
0.0
 10
346.0000229103807
 20
-44.60146135044803
 30
0.0
  0
SPLINE
  5
FD
330
E3
100
AcDbEntity
  8
0
  6
Continuous
 62
     7
370
    25
100
AcDbSpline
210
0.0
220
0.0
230
1.0
 70
     8
 71
     3
 72
    10
 73
     6
 74
     0
 42
0.000000001
 43
0.00000001
 40
0.0
 40
0.0
 40
0.0
 40
0.0
 40
0.0624999980853691
 40
0.0624999980853691
 40
0.1874999980853709
 40
0.1874999980853709
 40
0.1874999980853709
 40
0.1874999980853709
 10
374.2914566668512
 20
-24.72627527023057
 30
0.0
 10
374.4234066925209
 20
-25.49046375220675
 30
0.0
 10
374.4683227677216
 20
-26.24199481735992
 30
0.0
 10
374.3756253567515
 20
-28.43603094546134
 30
0.0
 10
374.0107010638456
 20
-29.81581970414576
 30
0.0
 10
373.4448482763445
 20
-31.07985134047433
 30
0.0
  0
SPLINE
  5
FE
330
E3
100
AcDbEntity
  8
0
  6
Continuous
 62
     7
370
    25
100
AcDbSpline
210
0.0
220
0.0
230
1.0
 70
     8
 71
     3
 72
    14
 73
    10
 74
     0
 42
0.000000001
 43
0.00000001
 40
0.1874999980853709
 40
0.1874999980853709
 40
0.1874999980853709
 40
0.1874999980853709
 40
0.2499999976460855
 40
0.2499999976460855
 40
0.3124999976460855
 40
0.3124999976460855
 40
0.3749999976460855
 40
0.3749999976460855
 40
0.4374999995607164
 40
0.4374999995607164
 40
0.4374999995607164
 40
0.4374999995607164
 10
368.1603502178355
 20
-15.62965457874518
 30
0.0
 10
369.0549243821453
 20
-16.31925426731386
 30
0.0
 10
369.8595558101479
 20
-17.04214090192596
 30
0.0
 10
371.2732036870961
 20
-18.53028960815638
 30
0.0
 10
371.8822293313921
 20
-19.29546779527792
 30
0.0
 10
372.9012707375975
 20
-20.84327267097957
 30
0.0
 10
373.3113486383257
 20
-21.62582997928379
 30
0.0
 10
373.9404194272845
 20
-23.18525957130402
 30
0.0
 10
374.1595066411815
 20
-23.96208678825439
 30
0.0
 10
374.2914566668512
 20
-24.72627527023057
 30
0.0
  0
SPLINE
  5
FF
330
E3
100
AcDbEntity
  8
0
  6
Continuous
 62
     7
370
    25
100
AcDbSpline
210
0.0
220
0.0
230
1.0
 70
     8
 71
     3
 72
    16
 73
    12
 74
     0
 42
0.000000001
 43
0.00000001
 40
0.4374999995607164
 40
0.4374999995607164
 40
0.4374999995607164
 40
0.4374999995607164
 40
0.4999999979297148
 40
0.4999999979297148
 40
0.5624999979297148
 40
0.5624999979297148
 40
0.624999997929715
 40
0.624999997929715
 40
0.6874999979297148
 40
0.6874999979297148
 40
0.7499999983690002
 40
0.7499999983690002
 40
0.7499999983690002
 40
0.7499999983690002
 10
350.0912356929359
 20
-8.8192814804329
 30
0.0
 10
351.4418876809943
 20
-9.00085889868181
 30
0.0
 10
352.797463578283
 20
-9.237591831769976
 30
0.0
 10
355.4786307732508
 20
-9.825871913678757
 30
0.0
 10
356.8041018877444
 20
-10.17745493447585
 30
0.0
 10
359.3819303692383
 20
-10.99353648305389
 30
0.0
 10
360.6341424282834
 20
-11.45804031919769
 30
0.0
 10
363.0232446874579
 20
-12.49089366440809
 30
0.0
 10
364.159992311072
 20
-13.05921228758763
 30
0.0
 10
366.2813126546317
 20
-14.28382445532172
 30
0.0
 10
367.2657760535257
 20
-14.94005489017651
 30
0.0
 10
368.1603502178355
 20
-15.62965457874518
 30
0.0
  0
SPLINE
  5
100
330
E3
100
AcDbEntity
  8
0
  6
Continuous
 62
     7
370
    25
100
AcDbSpline
210
0.0
220
0.0
230
1.0
 70
     8
 71
     3
 72
    12
 73
     8
 74
     0
 42
0.000000001
 43
0.00000001
 40
0.7499999983690002
 40
0.7499999983690002
 40
0.7499999983690002
 40
0.7499999983690002
 40
0.8749999983689983
 40
0.8749999983689983
 40
0.9374999983689983
 40
0.9374999983689983
 40
1.0
 40
1.0
 40
1.0
 40
1.0
 10
335.0652679067115
 20
-8.923791198085645
 30
0.0
 10
337.2548721713892
 20
-8.59713133701194
 30
0.0
 10
339.6449953799706
 20
-8.386465026875802
 30
0.0
 10
343.4455892297431
 20
-8.332951950580716
 30
0.0
 10
344.7474202741595
 20
-8.358881448869177
 30
0.0
 10
347.3949336924356
 20
-8.511227705726196
 30
0.0
 10
348.7405837048774
 20
-8.63770406218399
 30
0.0
 10
350.0912356929359
 20
-8.8192814804329
 30
0.0
  0
SPLINE
  5
103
330
E3
100
AcDbEntity
  8
0
  6
Continuous
 62
     7
370
    25
100
AcDbSpline
210
0.0
220
0.0
230
1.0
 70
     8
 71
     3
 72
     8
 73
     4
 74
     0
 42
0.000000001
 43
0.00000001
 40
0.0
 40
0.0
 40
0.0
 40
0.0
 40
0.1249999980603751
 40
0.1249999980603751
 40
0.1249999980603751
 40
0.1249999980603751
 10
331.2080099886927
 20
-9.655251891751718
 30
0.0
 10
332.4833335198498
 20
-9.359592275019882
 30
0.0
 10
333.7749653935978
 20
-9.116287187646927
 30
0.0
 10
335.0652679067115
 20
-8.923791198085645
 30
0.0
  0
SPLINE
  5
104
330
E3
100
AcDbEntity
  8
0
  6
Continuous
 62
     7
370
    25
100
AcDbSpline
210
0.0
220
0.0
230
1.0
 70
     8
 71
     3
 72
    20
 73
    16
 74
     0
 42
0.000000001
 43
0.00000001
 40
0.1249999980603751
 40
0.1249999980603751
 40
0.1249999980603751
 40
0.1249999980603751
 40
0.2499999980603751
 40
0.2499999980603751
 40
0.3749999980603751
 40
0.3749999980603751
 40
0.4999999980603751
 40
0.4999999980603751
 40
0.6249999980603751
 40
0.6249999980603751
 40
0.7499999980603751
 40
0.7499999980603751
 40
0.8749999980603751
 40
0.8749999980603751
 40
1.0
 40
1.0
 40
1.0
 40
1.0
 10
312.4487294746063
 20
-21.98004092485038
 30
0.0
 10
312.7821784386693
 20
-21.23516513915671
 30
0.0
 10
313.2036408780724
 20
-20.48952192990395
 30
0.0
 10
314.2279468196062
 20
-19.01706472296283
 30
0.0
 10
314.8308347544866
 20
-18.29030790469474
 30
0.0
 10
316.2139186164343
 20
-16.87732990994331
 30
0.0
 10
316.9941174843865
 20
-16.19117573098243
 30
0.0
 10
318.7174189670666
 20
-14.88047451183483
 30
0.0
 10
319.6604769223093
 20
-14.25599236060042
 30
0.0
 10
321.6853736138889
 20
-13.08704438230882
 30
0.0
 10
322.7671256383315
 20
-12.54262861296269
 30
0.0
 10
325.037572751111
 20
-11.5477878427927
 30
0.0
 10
326.2261554363063
 20
-11.09738862334075
 30
0.0
 10
328.6737703173624
 20
-10.29895130505455
 30
0.0
 10
329.9326864575355
 20
-9.950911508483554
 30
0.0
 10
331.2080099886927
 20
-9.655251891751718
 30
0.0
  0
LWPOLYLINE
  5
105
330
E3
100
AcDbEntity
  8
0
  6
Continuous
 62
     7
370
    25
100
AcDbPolyline
 90
       18
 70
   128
 43
0.0
 10
358.8566914522
 20
-24.6942221816
 10
356.7371975827
 20
-23.6155109057
 10
354.4002207299
 20
-22.6986580417
 10
351.8826164148
 20
-21.958122907
 10
349.2240887614
 20
-21.4055841831
 10
346.4665643389
 20
-21.0497557357
 10
343.6535309547
 20
-20.8962491921
 10
340.8293518258
 20
-20.947485442
 10
338.0385659441
 20
-21.2026564592
 10
335.32518567
 20
-21.6577380444
 10
332.7320026313
 20
-22.3055532891
 10
330.2999128738
 20
-23.1358857599
 10
328.0672719057
 20
-24.1356406177
 10
326.0692898088
 20
-25.2890511312
 10
324.3374759543
 20
-26.5779273276
 10
322.8991420812
 20
-27.9819428593
 10
321.776971574
 20
-29.4789555627
 10
321.2974685438
 20
-30.3409802575
  0
LWPOLYLINE
  5
106
330
E3
100
AcDbEntity
  8
0
  6
Continuous
 62
     7
370
    25
100
AcDbPolyline
 90
       13
 70
   128
 43
0.0
 10
361.2235509363
 20
-41.4544905706
 10
361.5561017967
 20
-41.1796995517
 10
362.9944356697
 20
-39.77568402
 10
364.1166061769
 20
-38.2786713166
 10
364.9049160191
 20
-36.7122702261
 10
365.346933079
 20
-35.1011838295
 10
365.4356864837
 20
-33.4708199217
 10
365.1697765389
 20
-31.8468903153
 10
364.5533968032
 20
-30.2550053504
 10
363.5962679534
 20
-28.7202700039
 10
362.3134844831
 20
-27.2668879689
 10
360.7252766539
 20
-25.9177799483
 10
358.8566914522
 20
-24.6942221816
  0
LINE
  5
109
330
E3
100
AcDbEntity
  8
0
  6
Continuous
 62
     7
370
    25
100
AcDbLine
 10
0.0
 20
138.8119380206
 30
0.0
 11
0.0
 21
0.0
 31
0.0
  0
LINE
  5
10A
330
E3
100
AcDbEntity
  8
0
  6
Continuous
 62
     7
370
    25
100
AcDbLine
 10
0.0
 20
138.8119380206
 30
0.0
 11
424.2640687119
 21
-106.1104955262
 31
0.0
  0
LINE
  5
10B
330
E3
100
AcDbEntity
  8
0
  6
Continuous
 62
     7
370
    25
100
AcDbLine
 10
424.2640687119
 20
-106.1104955262
 30
0.0
 11
424.2640687119
 21
-244.9224335468
 31
0.0
  0
LINE
  5
10C
330
E3
100
AcDbEntity
  8
0
  6
Continuous
 62
     7
370
    25
100
AcDbLine
 10
0.0
 20
0.0
 30
0.0
 11
424.2640687119
 21
-244.9224335468
 31
0.0
  0
LINE
  5
10D
330
E3
100
AcDbEntity
  8
0
  6
Continuous
 62
     7
370
    25
100
AcDbLine
 10
424.2640687119
 20
-106.1104955262
 30
0.0
 11
742.4621202459
 21
77.5813296339
 31
0.0
  0
LINE
  5
10E
330
E3
100
AcDbEntity
  8
0
  6
Continuous
 62
     7
370
    25
100
AcDbLine
 10
742.4621202459
 20
77.5813296339
 30
0.0
 11
742.4621202459
 21
-61.2306083867
 31
0.0
  0
LINE
  5
10F
330
E3
100
AcDbEntity
  8
0
  6
Continuous
 62
     7
370
    25
100
AcDbLine
 10
424.2640687119
 20
-244.9224335468
 30
0.0
 11
742.4621202459
 21
-61.2306083867
 31
0.0
  0
LINE
  5
110
330
E3
100
AcDbEntity
  8
0
  6
Continuous
 62
     7
370
    25
100
AcDbLine
 10
742.4621202459
 20
77.5813296339
 30
0.0
 11
318.1980515339
 21
322.5037631807
 31
0.0
  0
LINE
  5
111
330
E3
100
AcDbEntity
  8
0
  6
Continuous
 62
     7
370
    25
100
AcDbLine
 10
318.1980515339
 20
322.5037631807
 30
0.0
 11
0.0
 21
138.8119380206
 31
0.0
  0
LINE
  5
112
330
E3
100
AcDbEntity
  8
0
  6
Continuous
 62
     7
370
    25
100
AcDbLine
 10
424.2640687119
 20
-89.7823332898
 30
0.0
 11
657.6093065035
 21
44.925005161
 31
0.0
  0
LINE
  5
113
330
E3
100
AcDbEntity
  8
0
  6
Continuous
 62
     7
370
    25
100
AcDbLine
 10
657.6093065035
 20
44.925005161
 30
0.0
 11
261.629509039
 21
273.5192764713
 31
0.0
  0
LINE
  5
114
330
E3
100
AcDbEntity
  8
0
  6
Continuous
 62
     7
370
    25
100
AcDbLine
 10
261.629509039
 20
273.5192764713
 30
0.0
 11
28.2842712475
 21
138.8119380206
 31
0.0
  0
LINE
  5
115
330
E3
100
AcDbEntity
  8
0
  6
Continuous
 62
     7
370
    25
100
AcDbLine
 10
28.2842712475
 20
138.8119380206
 30
0.0
 11
424.2640687119
 21
-89.7823332898
 31
0.0
  0
LINE
  5
116
330
E3
100
AcDbEntity
  8
0
  6
Continuous
 62
     7
370
    25
100
AcDbLine
 10
373.4448482763
 20
-31.0798513405
 30
0.0
 11
497.0776594811
 21
-47.7479420659
 31
0.0
  0
LINE
  5
117
330
E3
100
AcDbEntity
  8
0
  6
Continuous
 62
     7
370
    25
100
AcDbLine
 10
350.8283098442
 20
-44.1361010672
 30
0.0
 11
352.859998584
 21
-48.561641012
 31
0.0
  0
LINE
  5
118
330
E3
100
AcDbEntity
  8
0
  6
Continuous
 62
     7
370
    25
100
AcDbLine
 10
304.5869773947
 20
-20.6942190542
 30
0.0
 11
312.4487294746
 21
-21.9800409249
 31
0.0
  0
LINE
  5
119
330
E3
100
AcDbEntity
  8
0
  6
Continuous
 62
     7
370
    25
100
AcDbLine
 10
311.6451583693
 20
-24.7688202005
 30
0.0
 11
312.4487294746
 21
-21.9800409249
 31
0.0
  0
LINE
  5
11A
330
E3
100
AcDbEntity
  8
0
  6
Continuous
 62
     7
370
    25
100
AcDbLine
 10
335.0652679067
 20
-8.9237911981
 30
0.0
 11
261.629509039
 21
159.2035628073
 31
0.0
  0
LINE
  5
11B
330
E3
100
AcDbEntity
  8
0
  6
Continuous
 62
     7
370
    25
100
AcDbLine
 10
261.629509039
 20
159.2035628073
 30
0.0
 11
558.5982663663
 21
-12.232851671
 31
0.0
  0
LINE
  5
11C
330
E3
100
AcDbEntity
  8
0
  6
Continuous
 62
     7
370
    25
100
AcDbLine
 10
261.629509039
 20
159.2035628073
 30
0.0
 11
261.629509039
 21
273.5192764713
 31
0.0
  0
LINE
  5
11D
330
E3
100
AcDbEntity
  8
0
  6
Continuous
 62
     7
370
    25
100
AcDbLine
 10
127.2953113846
 20
81.6540811886
 30
0.0
 11
261.629509039
 21
159.2035628073
 31
0.0
  0
ARC
  5
11E
330
E3
100
AcDbEntity
  8
0
  6
Continuous
 62
     7
370
    25
100
AcDbCircle
 10
342.8108553642
 20
-69.2202143465
 30
0.0
 40
35.31691830313408
100
AcDbArc
 50
62.9776190386
 51
109.5474907522
  0
ARC
  5
11F
330
E3
100
AcDbEntity
  8
0
  6
Continuous
 62
     7
370
    25
100
AcDbCircle
 10
350.6932634628
 20
-52.3329915521
 30
0.0
 40
16.70468272079886
100
AcDbArc
 50
45.5353872805
 51
60.745419388
  0
VIEWPORT
  5
174
330
E3
100
AcDbEntity
  8
0
100
AcDbViewport
 10
0.0
 20
0.0
 30
0.0
 40
205.6
 41
156.0
 68
     1
 69
     1
 12
300.0
 22
225.0
 13
0.0
 23
0.0
 14
10.0
 24
10.0
 15
10.0
 25
10.0
 16
0.0
 26
0.0
 36
1.0
 17
0.0
 27
0.0
 37
0.0
 42
50.0
 43
0.0
 44
0.0
 45
464.3579766537
 50
0.0
 51
0.0
 72
   100
 90
   557152
  1

281
     0
 71
     1
 74
     0
110
0.0
120
0.0
130
0.0
111
1.0
121
0.0
131
0.0
112
0.0
122
1.0
132
0.0
 79
     0
146
0.0
  0
ENDBLK
  5
E6
330
E3
100
AcDbEntity
  8
0
100
AcDbBlockEnd
  0
BLOCK
  5
122
330
120
100
AcDbEntity
  8
0
100
AcDbBlockBegin
  2
*Paper_Space6
 70
     0
 10
0.0
 20
0.0
 30
0.0
  3
*Paper_Space6
  1

  0
LINE
  5
136
330
120
100
AcDbEntity
  8
0
  6
Continuous
 62
     7
370
    25
100
AcDbLine
 10
0.0
 20
145.7184411194
 30
0.0
 11
0.0
 21
0.0
 31
0.0
  0
LINE
  5
137
330
120
100
AcDbEntity
  8
0
  6
Continuous
 62
     7
370
    25
100
AcDbLine
 10
0.0
 20
145.7184411194
 30
0.0
 11
530.6508730065
 21
1.498904309
 31
0.0
  0
LINE
  5
138
330
120
100
AcDbEntity
  8
0
  6
Continuous
 62
     7
370
    25
100
AcDbLine
 10
530.6508730065
 20
1.498904309
 30
0.0
 11
530.6508730065
 21
-144.2195368104
 31
0.0
  0
LINE
  5
139
330
120
100
AcDbEntity
  8
0
  6
Continuous
 62
     7
370
    25
100
AcDbLine
 10
0.0
 20
0.0
 30
0.0
 11
530.6508730065
 21
-144.2195368104
 31
0.0
  0
LINE
  5
13A
330
120
100
AcDbEntity
  8
0
  6
Continuous
 62
     7
370
    25
100
AcDbLine
 10
530.6508730065
 20
1.498904309
 30
0.0
 11
740.663798025
 21
206.4779573709
 31
0.0
  0
LINE
  5
13B
330
120
100
AcDbEntity
  8
0
  6
Continuous
 62
     7
370
    25
100
AcDbLine
 10
740.663798025
 20
206.4779573709
 30
0.0
 11
740.663798025
 21
60.7595162516
 31
0.0
  0
LINE
  5
13C
330
120
100
AcDbEntity
  8
0
  6
Continuous
 62
     7
370
    25
100
AcDbLine
 10
530.6508730065
 20
-144.2195368104
 30
0.0
 11
740.663798025
 21
60.7595162516
 31
0.0
  0
LINE
  5
13D
330
120
100
AcDbEntity
  8
0
  6
Continuous
 62
     7
370
    25
100
AcDbLine
 10
740.663798025
 20
206.4779573709
 30
0.0
 11
210.0129250185
 21
350.6974941813
 31
0.0
  0
LINE
  5
13E
330
120
100
AcDbEntity
  8
0
  6
Continuous
 62
     7
370
    25
100
AcDbLine
 10
210.0129250185
 20
350.6974941813
 30
0.0
 11
0.0
 21
145.7184411194
 31
0.0
  0
LINE
  5
13F
330
120
100
AcDbEntity
  8
0
  6
Continuous
 62
     7
370
    25
100
AcDbLine
 10
522.2964183515
 20
15.4164023388
 30
0.0
 11
676.3058966984
 21
165.7343745842
 31
0.0
  0
LINE
  5
140
330
120
100
AcDbEntity
  8
0
  6
Continuous
 62
     7
370
    25
100
AcDbLine
 10
676.3058966984
 20
165.7343745842
 30
0.0
 11
181.0317485591
 21
300.3392756072
 31
0.0
  0
LINE
  5
141
330
120
100
AcDbEntity
  8
0
  6
Continuous
 62
     7
370
    25
100
AcDbLine
 10
181.0317485591
 20
300.3392756072
 30
0.0
 11
27.0222702121
 21
150.0213033618
 31
0.0
  0
LINE
  5
142
330
120
100
AcDbEntity
  8
0
  6
Continuous
 62
     7
370
    25
100
AcDbLine
 10
27.0222702121
 20
150.0213033618
 30
0.0
 11
522.2964183515
 21
15.4164023388
 31
0.0
  0
LINE
  5
143
330
120
100
AcDbEntity
  8
0
  6
Continuous
 62
     7
370
    25
100
AcDbLine
 10
443.9442332193
 20
36.7108473735
 30
0.0
 11
548.26283079
 21
40.760416916
 31
0.0
  0
LINE
  5
144
330
120
100
AcDbEntity
  8
0
  6
Continuous
 62
     7
370
    25
100
AcDbLine
 10
123.193559307
 20
123.8840076872
 30
0.0
 11
181.0317485591
 21
180.3358535089
 31
0.0
  0
LINE
  5
145
330
120
100
AcDbEntity
  8
0
  6
Continuous
 62
     7
370
    25
100
AcDbLine
 10
303.1614667975
 20
74.9725866771
 30
0.0
 11
181.0317485591
 21
180.3358535089
 31
0.0
  0
LINE
  5
146
330
120
100
AcDbEntity
  8
0
  6
Continuous
 62
     7
370
    25
100
AcDbLine
 10
181.0317485591
 20
180.3358535089
 30
0.0
 11
580.1346076035
 21
71.8682481604
 31
0.0
  0
LINE
  5
147
330
120
100
AcDbEntity
  8
0
  6
Continuous
 62
     7
370
    25
100
AcDbLine
 10
181.0317485591
 20
180.3358535089
 30
0.0
 11
181.0317485591
 21
300.3392756072
 31
0.0
  0
VIEWPORT
  5
176
330
120
100
AcDbEntity
  8
0
100
AcDbViewport
 10
0.0
 20
0.0
 30
0.0
 40
205.6
 41
156.0
 68
     1
 69
     1
 12
300.0
 22
225.0
 13
0.0
 23
0.0
 14
10.0
 24
10.0
 15
10.0
 25
10.0
 16
0.0
 26
0.0
 36
1.0
 17
0.0
 27
0.0
 37
0.0
 42
50.0
 43
0.0
 44
0.0
 45
464.3579766537
 50
0.0
 51
0.0
 72
   100
 90
   557152
  1

281
     0
 71
     1
 74
     0
110
0.0
120
0.0
130
0.0
111
1.0
121
0.0
131
0.0
112
0.0
122
1.0
132
0.0
 79
     0
146
0.0
  0
ENDBLK
  5
123
330
120
100
AcDbEntity
  8
0
100
AcDbBlockEnd
  0
BLOCK
  5
14A
330
148
100
AcDbEntity
  8
0
100
AcDbBlockBegin
  2
*Paper_Space7
 70
     0
 10
0.0
 20
0.0
 30
0.0
  3
*Paper_Space7
  1

  0
LINE
  5
15A
330
148
100
AcDbEntity
  8
0
  6
Continuous
 62
     7
370
    25
100
AcDbLine
 10
0.0
 20
160.2775370737
 30
0.0
 11
0.0
 21
0.0
 31
0.0
  0
LINE
  5
15B
330
148
100
AcDbEntity
  8
0
  6
Continuous
 62
     7
370
    25
100
AcDbLine
 10
0.0
 20
160.2775370737
 30
0.0
 11
561.2486080345
 21
89.5668589881
 31
0.0
  0
LINE
  5
15C
330
148
100
AcDbEntity
  8
0
  6
Continuous
 62
     7
370
    25
100
AcDbLine
 10
561.2486080345
 20
89.5668589881
 30
0.0
 11
561.2486080345
 21
-70.7106780856
 31
0.0
  0
LINE
  5
15D
330
148
100
AcDbEntity
  8
0
  6
Continuous
 62
     7
370
    25
100
AcDbLine
 10
0.0
 20
0.0
 30
0.0
 11
561.2486080345
 21
-70.7106780856
 31
0.0
  0
LINE
  5
15E
330
148
100
AcDbEntity
  8
0
  6
Continuous
 62
     7
370
    25
100
AcDbLine
 10
561.2486080345
 20
89.5668589881
 30
0.0
 11
720.347633765
 21
229.8790109633
 31
0.0
  0
LINE
  5
15F
330
148
100
AcDbEntity
  8
0
  6
Continuous
 62
     7
370
    25
100
AcDbLine
 10
720.347633765
 20
229.8790109633
 30
0.0
 11
720.347633765
 21
69.6014738896
 31
0.0
  0
LINE
  5
160
330
148
100
AcDbEntity
  8
0
  6
Continuous
 62
     7
370
    25
100
AcDbLine
 10
561.2486080345
 20
-70.7106780856
 30
0.0
 11
720.347633765
 21
69.6014738896
 31
0.0
  0
LINE
  5
161
330
148
100
AcDbEntity
  8
0
  6
Continuous
 62
     7
370
    25
100
AcDbLine
 10
720.347633765
 20
229.8790109633
 30
0.0
 11
159.0990257305
 21
300.589689049
 31
0.0
  0
LINE
  5
162
330
148
100
AcDbEntity
  8
0
  6
Continuous
 62
     7
370
    25
100
AcDbLine
 10
159.0990257305
 20
300.589689049
 30
0.0
 11
0.0
 21
160.2775370737
 31
0.0
  0
LINE
  5
163
330
148
100
AcDbEntity
  8
0
  6
Continuous
 62
     7
370
    25
100
AcDbLine
 10
549.6113889102
 20
98.1599772343
 30
0.0
 11
666.2840077793
 21
201.0555553495
 31
0.0
  0
LINE
  5
164
330
148
100
AcDbEntity
  8
0
  6
Continuous
 62
     7
370
    25
100
AcDbLine
 10
666.2840077793
 20
201.0555553495
 30
0.0
 11
142.4519736137
 21
267.0521882294
 31
0.0
  0
LINE
  5
165
330
148
100
AcDbEntity
  8
0
  6
Continuous
 62
     7
370
    25
100
AcDbLine
 10
142.4519736137
 20
267.0521882294
 30
0.0
 11
25.7793547447
 21
164.1566101142
 31
0.0
  0
LINE
  5
166
330
148
100
AcDbEntity
  8
0
  6
Continuous
 62
     7
370
    25
100
AcDbLine
 10
25.7793547447
 20
164.1566101142
 30
0.0
 11
549.6113889102
 21
98.1599772343
 31
0.0
  0
LINE
  5
167
330
148
100
AcDbEntity
  8
0
  6
Continuous
 62
     7
370
    25
100
AcDbLine
 10
142.4519736137
 20
149.4572418197
 30
0.0
 11
142.4519736137
 21
267.0521882294
 31
0.0
  0
VIEWPORT
  5
178
330
148
100
AcDbEntity
  8
0
100
AcDbViewport
 10
0.0
 20
0.0
 30
0.0
 40
205.6
 41
156.0
 68
     1
 69
     1
 12
300.0
 22
225.0
 13
0.0
 23
0.0
 14
10.0
 24
10.0
 15
10.0
 25
10.0
 16
0.0
 26
0.0
 36
1.0
 17
0.0
 27
0.0
 37
0.0
 42
50.0
 43
0.0
 44
0.0
 45
464.3579766537
 50
0.0
 51
0.0
 72
   100
 90
   557152
  1

281
     0
 71
     1
 74
     0
110
0.0
120
0.0
130
0.0
111
1.0
121
0.0
131
0.0
112
0.0
122
1.0
132
0.0
 79
     0
146
0.0
  0
ENDBLK
  5
14B
330
148
100
AcDbEntity
  8
0
100
AcDbBlockEnd
  0
ENDSEC
  0
SECTION
  2
ENTITIES
  0
SPLINE
  5
7D
330
1F
100
AcDbEntity
  8
0
  6
Continuous
 62
     7
370
    25
100
AcDbSpline
210
0.0
220
0.0
230
1.0
 70
     8
 71
     3
 72
    10
 73
     6
 74
     0
 42
0.000000001
 43
0.00000001
 40
0.0
 40
0.0
 40
0.0
 40
0.0
 40
0.0624999980853691
 40
0.0624999980853691
 40
0.1874999980853709
 40
0.1874999980853709
 40
0.1874999980853709
 40
0.1874999980853709
 10
319.9547511312218
 20
209.3733031674209
 30
0.0
 10
320.9840912348234
 20
208.530568579677
 30
0.0
 10
321.9363852556481
 20
207.6417954815696
 30
0.0
 10
324.5582639714626
 20
204.8888228299644
 30
0.0
 10
325.9902958579883
 20
202.9407100591717
 30
0.0
 10
327.1384615384616
 20
200.9923076923077
 30
0.0
  0
SPLINE
  5
7E
330
1F
100
AcDbEntity
  8
0
  6
Continuous
 62
     7
370
    25
100
AcDbSpline
210
0.0
220
0.0
230
1.0
 70
     8
 71
     3
 72
    14
 73
    10
 74
     0
 42
0.000000001
 43
0.00000001
 40
0.1874999980853709
 40
0.1874999980853709
 40
0.1874999980853709
 40
0.1874999980853709
 40
0.2499999976460855
 40
0.2499999976460855
 40
0.3124999976460855
 40
0.3124999976460855
 40
0.3749999976460855
 40
0.3749999976460855
 40
0.4374999995607164
 40
0.4374999995607164
 40
0.4374999995607164
 40
0.4374999995607164
 10
304.4771573604061
 20
216.1802030456854
 30
0.0
 10
305.9543920224691
 20
215.9680872993379
 30
0.0
 10
307.4088
 20
215.6516
 30
0.0
 10
310.2312000000001
 20
214.8284
 30
0.0
 10
311.5990957763237
 20
214.3217965496729
 30
0.0
 10
314.2155383700178
 20
213.1464961332541
 30
0.0
 10
315.4640441438235
 20
212.4779280882877
 30
0.0
 10
317.8189747241013
 20
211.0126379494483
 30
0.0
 10
318.9254110276203
 20
210.2160377551648
 30
0.0
 10
319.9547511312218
 20
209.3733031674209
 30
0.0
  0
SPLINE
  5
7F
330
1F
100
AcDbEntity
  8
0
  6
Continuous
 62
     7
370
    25
100
AcDbSpline
210
0.0
220
0.0
230
1.0
 70
     8
 71
     3
 72
    16
 73
    12
 74
     0
 42
0.000000001
 43
0.00000001
 40
0.4374999995607164
 40
0.4374999995607164
 40
0.4374999995607164
 40
0.4374999995607164
 40
0.4999999979297148
 40
0.4999999979297148
 40
0.5624999979297148
 40
0.5624999979297148
 40
0.624999997929715
 40
0.624999997929715
 40
0.6874999979297148
 40
0.6874999979297148
 40
0.7499999983690002
 40
0.7499999983690002
 40
0.7499999983690002
 40
0.7499999983690002
 10
283.3584905660377
 20
211.745283018868
 30
0.0
 10
284.5359558561765
 20
212.4779280882877
 30
0.0
 10
285.784461629982
 20
213.1464961332541
 30
0.0
 10
288.4009042236763
 20
214.3217965496729
 30
0.0
 10
289.7687999999999
 20
214.8284
 30
0.0
 10
292.5912000000001
 20
215.6516000000001
 30
0.0
 10
294.0456079775311
 20
215.9680872993379
 30
0.0
 10
297.0000773016568
 20
216.3923187920329
 30
0.0
 10
298.5
 20
216.5000000000001
 30
0.0
 10
301.5000000000001
 20
216.5000000000002
 30
0.0
 10
302.9999226983431
 20
216.3923187920329
 30
0.0
 10
304.4771573604061
 20
216.1802030456854
 30
0.0
  0
SPLINE
  5
80
330
1F
100
AcDbEntity
  8
0
  6
Continuous
 62
     7
370
    25
100
AcDbSpline
210
0.0
220
0.0
230
1.0
 70
     8
 71
     3
 72
    12
 73
     8
 74
     0
 42
0.000000001
 43
0.00000001
 40
0.7499999983690002
 40
0.7499999983690002
 40
0.7499999983690002
 40
0.7499999983690002
 40
0.8749999983689983
 40
0.8749999983689983
 40
0.9374999983689983
 40
0.9374999983689983
 40
1.0
 40
1.0
 40
1.0
 40
1.0
 10
272.8615384615384
 20
200.9923076923077
 30
0.0
 10
274.0097041420116
 20
202.9407100591716
 30
0.0
 10
275.4417360285373
 20
204.8888228299644
 30
0.0
 10
278.063614744352
 20
207.6417954815697
 30
0.0
 10
279.0159087651768
 20
208.5305685796771
 30
0.0
 10
281.0745889723797
 20
210.2160377551648
 30
0.0
 10
282.1810252758989
 20
211.0126379494483
 30
0.0
 10
283.3584905660377
 20
211.745283018868
 30
0.0
  0
SPLINE
  5
82
330
1F
100
AcDbEntity
  8
0
  6
Continuous
 62
     7
370
    25
100
AcDbSpline
210
0.0
220
0.0
230
1.0
 70
     8
 71
     3
 72
     8
 73
     4
 74
     0
 42
0.000000001
 43
0.00000001
 40
0.0
 40
0.0
 40
0.0
 40
0.0
 40
0.1249999980603751
 40
0.1249999980603751
 40
0.1249999980603751
 40
0.1249999980603751
 10
271.0299950421418
 20
197.368864650471
 30
0.0
 10
271.5696381205957
 20
198.6328014061932
 30
0.0
 10
272.1849408284023
 20
199.8441420118344
 30
0.0
 10
272.8615384615384
 20
200.9923076923077
 30
0.0
  0
SPLINE
  5
83
330
1F
100
AcDbEntity
  8
0
  6
Continuous
 62
     7
370
    25
100
AcDbSpline
210
0.0
220
0.0
230
1.0
 70
     8
 71
     3
 72
    20
 73
    16
 74
     0
 42
0.000000001
 43
0.00000001
 40
0.1249999980603751
 40
0.1249999980603751
 40
0.1249999980603751
 40
0.1249999980603751
 40
0.2499999980603751
 40
0.2499999980603751
 40
0.3749999980603751
 40
0.3749999980603751
 40
0.4999999980603751
 40
0.4999999980603751
 40
0.6249999980603751
 40
0.6249999980603751
 40
0.7499999980603751
 40
0.7499999980603751
 40
0.8749999980603751
 40
0.8749999980603751
 40
1.0
 40
1.0
 40
1.0
 40
1.0
 10
272.8615384615384
 20
169.0076923076923
 30
0.0
 10
272.1849408284022
 20
170.1558579881656
 30
0.0
 10
271.5696381205956
 20
171.3671985938069
 30
0.0
 10
270.4903519636879
 20
173.8950721052511
 30
0.0
 10
270.0264699710758
 20
175.2115663919621
 30
0.0
 10
269.2737328686807
 20
177.9202794498229
 30
0.0
 10
268.9849619021813
 20
179.3124182367286
 30
0.0
 10
268.5980715168416
 20
182.1364249509321
 30
0.0
 10
268.4999999999998
 20
183.5681818181818
 30
0.0
 10
268.4999999999998
 20
186.4318181818182
 30
0.0
 10
268.5980715168415
 20
187.8635750490679
 30
0.0
 10
268.9849619021813
 20
190.6875817632715
 30
0.0
 10
269.2737328686807
 20
192.0797205501772
 30
0.0
 10
270.0264699710757
 20
194.788433608038
 30
0.0
 10
270.4903519636878
 20
196.1049278947489
 30
0.0
 10
271.0299950421418
 20
197.368864650471
 30
0.0
  0
SPLINE
  5
85
330
1F
100
AcDbEntity
  8
0
  6
Continuous
 62
     7
370
    25
100
AcDbSpline
210
0.0
220
0.0
230
1.0
 70
     8
 71
     3
 72
     8
 73
     4
 74
     0
 42
0.000000001
 43
0.00000001
 40
0.0
 40
0.0
 40
0.0
 40
0.0
 40
0.1249999980463097
 40
0.1249999980463097
 40
0.1249999980463097
 40
0.1249999980463097
 10
328.9700049578585
 20
172.631135349529
 30
0.0
 10
328.4303618794046
 20
171.3671985938068
 30
0.0
 10
327.8150591715977
 20
170.1558579881656
 30
0.0
 10
327.1384615384616
 20
169.0076923076923
 30
0.0
  0
SPLINE
  5
86
330
1F
100
AcDbEntity
  8
0
  6
Continuous
 62
     7
370
    25
100
AcDbSpline
210
0.0
220
0.0
230
1.0
 70
     8
 71
     3
 72
    20
 73
    16
 74
     0
 42
0.000000001
 43
0.00000001
 40
0.1249999980463097
 40
0.1249999980463097
 40
0.1249999980463097
 40
0.1249999980463097
 40
0.2499999980463097
 40
0.2499999980463097
 40
0.3749999980463097
 40
0.3749999980463097
 40
0.4999999980463097
 40
0.4999999980463097
 40
0.6249999980463097
 40
0.6249999980463097
 40
0.7499999980463097
 40
0.7499999980463097
 40
0.8749999980463097
 40
0.8749999980463097
 40
1.0
 40
1.0
 40
1.0
 40
1.0
 10
327.1384615384616
 20
200.9923076923077
 30
0.0
 10
327.8150591715977
 20
199.8441420118344
 30
0.0
 10
328.4303618794045
 20
198.6328014061932
 30
0.0
 10
329.5096480363123
 20
196.104927894749
 30
0.0
 10
329.9735300289243
 20
194.788433608038
 30
0.0
 10
330.7262671313192
 20
192.0797205501772
 30
0.0
 10
331.0150380978185
 20
190.6875817632715
 30
0.0
 10
331.4019284831584
 20
187.8635750490679
 30
0.0
 10
331.5000000000001
 20
186.4318181818182
 30
0.0
 10
331.5000000000001
 20
183.5681818181819
 30
0.0
 10
331.4019284831584
 20
182.1364249509321
 30
0.0
 10
331.0150380978186
 20
179.3124182367285
 30
0.0
 10
330.7262671313193
 20
177.9202794498228
 30
0.0
 10
329.9735300289243
 20
175.2115663919622
 30
0.0
 10
329.5096480363122
 20
173.8950721052511
 30
0.0
 10
328.9700049578585
 20
172.631135349529
 30
0.0
  0
SPLINE
  5
87
330
1F
100
AcDbEntity
  8
0
  6
Continuous
 62
     7
370
    25
100
AcDbSpline
210
0.0
220
0.0
230
1.0
 70
     8
 71
     3
 72
    10
 73
     6
 74
     0
 42
0.000000001
 43
0.00000001
 40
0.0
 40
0.0
 40
0.0
 40
0.0
 40
0.0624999980824516
 40
0.0624999980824516
 40
0.1874999980824497
 40
0.1874999980824497
 40
0.1874999980824497
 40
0.1874999980824497
 10
280.0452488687783
 20
160.6266968325792
 30
0.0
 10
279.0159087651768
 20
161.4694314203231
 30
0.0
 10
278.0636147443519
 20
162.3582045184305
 30
0.0
 10
275.4417360285374
 20
165.1111771700356
 30
0.0
 10
274.0097041420119
 20
167.0592899408284
 30
0.0
 10
272.8615384615384
 20
169.0076923076923
 30
0.0
  0
SPLINE
  5
88
330
1F
100
AcDbEntity
  8
0
  6
Continuous
 62
     7
370
    25
100
AcDbSpline
210
0.0
220
0.0
230
1.0
 70
     8
 71
     3
 72
    14
 73
    10
 74
     0
 42
0.000000001
 43
0.00000001
 40
0.1874999980824497
 40
0.1874999980824497
 40
0.1874999980824497
 40
0.1874999980824497
 40
0.2499999976455941
 40
0.2499999976455941
 40
0.3124999976455941
 40
0.3124999976455941
 40
0.3749999976455941
 40
0.3749999976455941
 40
0.4374999995631425
 40
0.4374999995631425
 40
0.4374999995631425
 40
0.4374999995631425
 10
295.5228426395938
 20
153.8197969543147
 30
0.0
 10
294.045607977531
 20
154.0319127006622
 30
0.0
 10
292.5912
 20
154.3483999999999
 30
0.0
 10
289.7688
 20
155.1716
 30
0.0
 10
288.4009042236763
 20
155.6782034503271
 30
0.0
 10
285.784461629982
 20
156.8535038667459
 30
0.0
 10
284.5359558561767
 20
157.5220719117123
 30
0.0
 10
282.181025275899
 20
158.9873620505518
 30
0.0
 10
281.0745889723798
 20
159.7839622448353
 30
0.0
 10
280.0452488687783
 20
160.6266968325792
 30
0.0
  0
SPLINE
  5
89
330
1F
100
AcDbEntity
  8
0
  6
Continuous
 62
     7
370
    25
100
AcDbSpline
210
0.0
220
0.0
230
1.0
 70
     8
 71
     3
 72
    16
 73
    12
 74
     0
 42
0.000000001
 43
0.00000001
 40
0.4374999995631425
 40
0.4374999995631425
 40
0.4374999995631425
 40
0.4374999995631425
 40
0.4999999979554976
 40
0.4999999979554976
 40
0.5624999979554977
 40
0.5624999979554977
 40
0.6249999979554974
 40
0.6249999979554974
 40
0.6874999979554977
 40
0.6874999979554977
 40
0.7499999983923533
 40
0.7499999983923533
 40
0.7499999983923533
 40
0.7499999983923533
 10
316.6415094339624
 20
158.254716981132
 30
0.0
 10
315.4640441438235
 20
157.5220719117123
 30
0.0
 10
314.2155383700178
 20
156.8535038667459
 30
0.0
 10
311.5990957763237
 20
155.6782034503271
 30
0.0
 10
310.2312000000002
 20
155.1715999999999
 30
0.0
 10
307.4088000000001
 20
154.3483999999999
 30
0.0
 10
305.9543920224691
 20
154.0319127006622
 30
0.0
 10
302.9999226983433
 20
153.6076812079672
 30
0.0
 10
301.5000000000001
 20
153.4999999999999
 30
0.0
 10
298.5000000000001
 20
153.4999999999999
 30
0.0
 10
297.0000773016567
 20
153.6076812079672
 30
0.0
 10
295.5228426395938
 20
153.8197969543147
 30
0.0
  0
SPLINE
  5
8A
330
1F
100
AcDbEntity
  8
0
  6
Continuous
 62
     7
370
    25
100
AcDbSpline
210
0.0
220
0.0
230
1.0
 70
     8
 71
     3
 72
    12
 73
     8
 74
     0
 42
0.000000001
 43
0.00000001
 40
0.7499999983923533
 40
0.7499999983923533
 40
0.7499999983923533
 40
0.7499999983923533
 40
0.8749999983923552
 40
0.8749999983923552
 40
0.9374999983923552
 40
0.9374999983923552
 40
1.0
 40
1.0
 40
1.0
 40
1.0
 10
327.1384615384616
 20
169.0076923076923
 30
0.0
 10
325.9902958579883
 20
167.0592899408284
 30
0.0
 10
324.5582639714627
 20
165.1111771700357
 30
0.0
 10
321.9363852556481
 20
162.3582045184304
 30
0.0
 10
320.9840912348232
 20
161.469431420323
 30
0.0
 10
318.9254110276202
 20
159.7839622448353
 30
0.0
 10
317.8189747241013
 20
158.9873620505518
 30
0.0
 10
316.6415094339624
 20
158.254716981132
 30
0.0
  0
CIRCLE
  5
8B
330
1F
100
AcDbEntity
  8
0
  6
Continuous
 62
     7
370
    25
100
AcDbCircle
 10
300.0
 20
185.0
 30
0.0
 40
22.49999999999986
  0
LINE
  5
8C
330
1F
100
AcDbEntity
  8
0
  6
Continuous
 62
     7
370
    25
100
AcDbLine
 10
600.0
 20
450.0
 30
0.0
 11
0.0
 21
450.0
 31
0.0
  0
LINE
  5
8D
330
1F
100
AcDbEntity
  8
0
  6
Continuous
 62
     7
370
    25
100
AcDbLine
 10
600.0
 20
0.0
 30
0.0
 11
600.0
 21
450.0
 31
0.0
  0
LINE
  5
8E
330
1F
100
AcDbEntity
  8
0
  6
Continuous
 62
     7
370
    25
100
AcDbLine
 10
0.0
 20
0.0
 30
0.0
 11
600.0
 21
0.0
 31
0.0
  0
LINE
  5
8F
330
1F
100
AcDbEntity
  8
0
  6
Continuous
 62
     7
370
    25
100
AcDbLine
 10
0.0
 20
450.0
 30
0.0
 11
0.0
 21
0.0
 31
0.0
  0
LINE
  5
90
330
1F
100
AcDbEntity
  8
0
  6
Continuous
 62
     7
370
    25
100
AcDbLine
 10
580.0
 20
350.0
 30
0.0
 11
20.0
 21
350.0
 31
0.0
  0
LINE
  5
91
330
1F
100
AcDbEntity
  8
0
  6
Continuous
 62
     7
370
    25
100
AcDbLine
 10
580.0
 20
20.0
 30
0.0
 11
580.0
 21
350.0
 31
0.0
  0
LINE
  5
92
330
1F
100
AcDbEntity
  8
0
  6
Continuous
 62
     7
370
    25
100
AcDbLine
 10
20.0
 20
20.0
 30
0.0
 11
580.0
 21
20.0
 31
0.0
  0
LINE
  5
93
330
1F
100
AcDbEntity
  8
0
  6
Continuous
 62
     7
370
    25
100
AcDbLine
 10
20.0
 20
350.0
 30
0.0
 11
20.0
 21
20.0
 31
0.0
  0
LINE
  5
94
330
1F
100
AcDbEntity
  8
0
  6
Continuous
 62
     7
370
    25
100
AcDbLine
 10
272.8615384615
 20
200.9923076923
 30
0.0
 11
20.0
 21
350.0
 31
0.0
  0
LINE
  5
95
330
1F
100
AcDbEntity
  8
0
  6
Continuous
 62
     7
370
    25
100
AcDbLine
 10
327.1384615385
 20
200.9923076923
 30
0.0
 11
580.0
 21
350.0
 31
0.0
  0
LINE
  5
96
330
1F
100
AcDbEntity
  8
0
  6
Continuous
 62
     7
370
    25
100
AcDbLine
 10
20.0
 20
20.0
 30
0.0
 11
272.8615384615
 21
169.0076923077
 31
0.0
  0
LINE
  5
97
330
1F
100
AcDbEntity
  8
0
  6
Continuous
 62
     7
370
    25
100
AcDbLine
 10
327.1384615385
 20
169.0076923077
 30
0.0
 11
580.0
 21
20.0
 31
0.0
  0
LINE
  5
9C
330
1B
100
AcDbEntity
 67
     1
  8
0
  6
Continuous
 62
     7
370
    25
100
AcDbLine
 10
0.0
 20
170.0
 30
0.0
 11
0.0
 21
0.0
 31
0.0
  0
LINE
  5
9D
330
1B
100
AcDbEntity
 67
     1
  8
0
  6
Continuous
 62
     7
370
    25
100
AcDbLine
 10
0.0
 20
170.0
 30
0.0
 11
600.0
 21
170.0
 31
0.0
  0
LINE
  5
9E
330
1B
100
AcDbEntity
 67
     1
  8
0
  6
Continuous
 62
     7
370
    25
100
AcDbLine
 10
600.0
 20
170.0
 30
0.0
 11
600.0
 21
0.0
 31
0.0
  0
LINE
  5
9F
330
1B
100
AcDbEntity
 67
     1
  8
0
  6
Continuous
 62
     7
370
    25
100
AcDbLine
 10
0.0
 20
0.0
 30
0.0
 11
600.0
 21
0.0
 31
0.0
  0
VIEWPORT
  5
168
330
1B
100
AcDbEntity
 67
     1
  8
0
100
AcDbViewport
 10
0.0
 20
0.0
 30
0.0
 40
205.6
 41
156.0
 68
     1
 69
     1
 12
300.0
 22
225.0
 13
0.0
 23
0.0
 14
10.0
 24
10.0
 15
10.0
 25
10.0
 16
0.0
 26
0.0
 36
1.0
 17
0.0
 27
0.0
 37
0.0
 42
50.0
 43
0.0
 44
0.0
 45
464.3579766537
 50
0.0
 51
0.0
 72
   100
 90
   557152
  1

281
     0
 71
     1
 74
     0
110
0.0
120
0.0
130
0.0
111
1.0
121
0.0
131
0.0
112
0.0
122
1.0
132
0.0
 79
     0
146
0.0
  0
ENDSEC
  0
SECTION
  2
OBJECTS
  0
DICTIONARY
  5
C
330
0
100
AcDbDictionary
281
     1
  3
ACAD_GROUP
350
D
  3
ACAD_LAYOUT
350
1A
  3
ACAD_MLINESTYLE
350
17
  3
ACAD_PLOTSETTINGS
350
19
  3
ACAD_PLOTSTYLENAME
350
E
  3
ACAD_SCALELIST
350
47
  0
DICTIONARY
  5
D
102
{ACAD_REACTORS
330
C
102
}
330
C
100
AcDbDictionary
281
     1
  0
DICTIONARY
  5
1A
102
{ACAD_REACTORS
330
C
102
}
330
C
100
AcDbDictionary
281
     1
  3
_Dimetrisch
350
149
  3
_Isometrisch
350
E4
  3
_Links
350
C3
  3
_Normal auf
350
A9
  3
_Rechts
350
26
  3
_Rückseite
350
B5
  3
_Trimetrisch
350
121
  3
_Unten
350
CF
  3
_Vorderseite
350
1E
  3
Model
350
22
  0
DICTIONARY
  5
17
102
{ACAD_REACTORS
330
C
102
}
330
C
100
AcDbDictionary
281
     1
  3
Standard
350
18
  0
DICTIONARY
  5
19
102
{ACAD_REACTORS
330
C
102
}
330
C
100
AcDbDictionary
281
     1
  0
ACDBDICTIONARYWDFLT
  5
E
102
{ACAD_REACTORS
330
C
102
}
330
C
100
AcDbDictionary
281
     1
  3
Normal
350
F
100
AcDbDictionaryWithDefault
340
F
  0
DICTIONARY
  5
47
102
{ACAD_REACTORS
330
C
102
}
330
C
100
AcDbDictionary
281
     1
  3
A0
350
48
  3
A1
350
49
  3
A2
350
4A
  3
A3
350
4B
  3
A4
350
4C
  3
A5
350
4D
  3
A6
350
4E
  3
A7
350
4F
  3
A8
350
50
  3
A9
350
51
  3
B0
350
52
  3
B1
350
53
  3
B2
350
54
  3
B3
350
55
  3
B4
350
56
  3
B5
350
57
  3
B6
350
58
  3
B7
350
59
  3
B8
350
5A
  3
B9
350
5B
  3
C0
350
5C
  3
C1
350
5D
  3
C2
350
5E
  3
C3
350
5F
  3
C4
350
60
  3
C5
350
61
  3
C6
350
62
  3
C7
350
63
  3
C8
350
64
  3
C9
350
65
  3
D0
350
66
  3
D1
350
67
  3
D2
350
68
  0
LAYOUT
  5
149
102
{ACAD_REACTORS
330
1A
102
}
330
1A
100
AcDbPlotSettings
  1

  2
none_device
  4
ISO_A4_(210.00_x_297.00_MM)
  6

 40
7.5
 41
20.0
 42
7.5
 43
20.0
 44
210.0
 45
297.0
 46
0.0
 47
0.0
 48
0.0
 49
0.0
140
0.0
141
0.0
142
1.0
143
2.3346303502
 70
   688
 72
     1
 73
     1
 74
     1
  7

 75
     0
147
0.4283333333
148
0.0
149
0.0
100
AcDbLayout
  1
_Dimetrisch
 70
     1
 71
     9
 10
0.0
 20
0.0
 11
0.0
 21
0.0
 12
0.0
 22
0.0
 32
0.0
 14
0.0
 24
0.0
 34
0.0
 15
0.0
 25
0.0
 35
0.0
146
0.0
 13
0.0
 23
0.0
 33
0.0
 16
1.0
 26
0.0
 36
0.0
 17
0.0
 27
1.0
 37
0.0
 76
     0
330
148
331
178
  0
LAYOUT
  5
E4
102
{ACAD_REACTORS
330
1A
102
}
330
1A
100
AcDbPlotSettings
  1

  2
none_device
  4
ISO_A4_(210.00_x_297.00_MM)
  6

 40
7.5
 41
20.0
 42
7.5
 43
20.0
 44
210.0
 45
297.0
 46
0.0
 47
0.0
 48
0.0
 49
0.0
140
0.0
141
0.0
142
1.0
143
2.3346303502
 70
   688
 72
     1
 73
     1
 74
     1
  7

 75
     0
147
0.4283333333
148
0.0
149
0.0
100
AcDbLayout
  1
_Isometrisch
 70
     1
 71
     7
 10
0.0
 20
0.0
 11
0.0
 21
0.0
 12
0.0
 22
0.0
 32
0.0
 14
0.0
 24
0.0
 34
0.0
 15
0.0
 25
0.0
 35
0.0
146
0.0
 13
0.0
 23
0.0
 33
0.0
 16
1.0
 26
0.0
 36
0.0
 17
0.0
 27
1.0
 37
0.0
 76
     0
330
E3
331
174
  0
LAYOUT
  5
C3
102
{ACAD_REACTORS
330
1A
102
}
330
1A
100
AcDbPlotSettings
  1

  2
none_device
  4
ISO_A4_(210.00_x_297.00_MM)
  6

 40
7.5
 41
20.0
 42
7.5
 43
20.0
 44
210.0
 45
297.0
 46
0.0
 47
0.0
 48
0.0
 49
0.0
140
0.0
141
0.0
142
1.0
143
2.3346303502
 70
   688
 72
     1
 73
     1
 74
     1
  7

 75
     0
147
0.4283333333
148
0.0
149
0.0
100
AcDbLayout
  1
_Links
 70
     1
 71
     5
 10
0.0
 20
0.0
 11
0.0
 21
0.0
 12
0.0
 22
0.0
 32
0.0
 14
0.0
 24
0.0
 34
0.0
 15
0.0
 25
0.0
 35
0.0
146
0.0
 13
0.0
 23
0.0
 33
0.0
 16
1.0
 26
0.0
 36
0.0
 17
0.0
 27
1.0
 37
0.0
 76
     0
330
C2
331
170
  0
LAYOUT
  5
A9
102
{ACAD_REACTORS
330
1A
102
}
330
1A
100
AcDbPlotSettings
  1

  2
none_device
  4
ISO_A4_(210.00_x_297.00_MM)
  6

 40
7.5
 41
20.0
 42
7.5
 43
20.0
 44
210.0
 45
297.0
 46
0.0
 47
0.0
 48
0.0
 49
0.0
140
0.0
141
0.0
142
1.0
143
2.3346303502
 70
   688
 72
     1
 73
     1
 74
     1
  7

 75
     0
147
0.4283333333
148
0.0
149
0.0
100
AcDbLayout
  1
_Normal auf
 70
     1
 71
     3
 10
0.0
 20
0.0
 11
0.0
 21
0.0
 12
0.0
 22
0.0
 32
0.0
 14
0.0
 24
0.0
 34
0.0
 15
0.0
 25
0.0
 35
0.0
146
0.0
 13
0.0
 23
0.0
 33
0.0
 16
1.0
 26
0.0
 36
0.0
 17
0.0
 27
1.0
 37
0.0
 76
     0
330
A8
331
16C
  0
LAYOUT
  5
26
102
{ACAD_REACTORS
330
1A
102
}
330
1A
100
AcDbPlotSettings
  1

  2
none_device
  4
ISO_A4_(210.00_x_297.00_MM)
  6

 40
7.5
 41
20.0
 42
7.5
 43
20.0
 44
210.0
 45
297.0
 46
0.0
 47
0.0
 48
0.0
 49
0.0
140
0.0
141
0.0
142
1.0
143
2.3346303502
 70
   688
 72
     1
 73
     1
 74
     1
  7

 75
     0
147
0.4283333333
148
0.0
149
0.0
100
AcDbLayout
  1
_Rechts
 70
     1
 71
     2
 10
0.0
 20
0.0
 11
0.0
 21
0.0
 12
0.0
 22
0.0
 32
0.0
 14
0.0
 24
0.0
 34
0.0
 15
0.0
 25
0.0
 35
0.0
146
0.0
 13
0.0
 23
0.0
 33
0.0
 16
1.0
 26
0.0
 36
0.0
 17
0.0
 27
1.0
 37
0.0
 76
     0
330
23
331
16A
  0
LAYOUT
  5
B5
102
{ACAD_REACTORS
330
1A
102
}
330
1A
100
AcDbPlotSettings
  1

  2
none_device
  4
ISO_A4_(210.00_x_297.00_MM)
  6

 40
7.5
 41
20.0
 42
7.5
 43
20.0
 44
210.0
 45
297.0
 46
0.0
 47
0.0
 48
0.0
 49
0.0
140
0.0
141
0.0
142
1.0
143
2.3346303502
 70
   688
 72
     1
 73
     1
 74
     1
  7

 75
     0
147
0.4283333333
148
0.0
149
0.0
100
AcDbLayout
  1
_Rückseite
 70
     1
 71
     4
 10
0.0
 20
0.0
 11
0.0
 21
0.0
 12
0.0
 22
0.0
 32
0.0
 14
0.0
 24
0.0
 34
0.0
 15
0.0
 25
0.0
 35
0.0
146
0.0
 13
0.0
 23
0.0
 33
0.0
 16
1.0
 26
0.0
 36
0.0
 17
0.0
 27
1.0
 37
0.0
 76
     0
330
B4
331
16E
  0
LAYOUT
  5
121
102
{ACAD_REACTORS
330
1A
102
}
330
1A
100
AcDbPlotSettings
  1

  2
none_device
  4
ISO_A4_(210.00_x_297.00_MM)
  6

 40
7.5
 41
20.0
 42
7.5
 43
20.0
 44
210.0
 45
297.0
 46
0.0
 47
0.0
 48
0.0
 49
0.0
140
0.0
141
0.0
142
1.0
143
2.3346303502
 70
   688
 72
     1
 73
     1
 74
     1
  7

 75
     0
147
0.4283333333
148
0.0
149
0.0
100
AcDbLayout
  1
_Trimetrisch
 70
     1
 71
     8
 10
0.0
 20
0.0
 11
0.0
 21
0.0
 12
0.0
 22
0.0
 32
0.0
 14
0.0
 24
0.0
 34
0.0
 15
0.0
 25
0.0
 35
0.0
146
0.0
 13
0.0
 23
0.0
 33
0.0
 16
1.0
 26
0.0
 36
0.0
 17
0.0
 27
1.0
 37
0.0
 76
     0
330
120
331
176
  0
LAYOUT
  5
CF
102
{ACAD_REACTORS
330
1A
102
}
330
1A
100
AcDbPlotSettings
  1

  2
none_device
  4
ISO_A4_(210.00_x_297.00_MM)
  6

 40
7.5
 41
20.0
 42
7.5
 43
20.0
 44
210.0
 45
297.0
 46
0.0
 47
0.0
 48
0.0
 49
0.0
140
0.0
141
0.0
142
1.0
143
2.3346303502
 70
   688
 72
     1
 73
     1
 74
     1
  7

 75
     0
147
0.4283333333
148
0.0
149
0.0
100
AcDbLayout
  1
_Unten
 70
     1
 71
     6
 10
0.0
 20
0.0
 11
0.0
 21
0.0
 12
0.0
 22
0.0
 32
0.0
 14
0.0
 24
0.0
 34
0.0
 15
0.0
 25
0.0
 35
0.0
146
0.0
 13
0.0
 23
0.0
 33
0.0
 16
1.0
 26
0.0
 36
0.0
 17
0.0
 27
1.0
 37
0.0
 76
     0
330
CE
331
172
  0
LAYOUT
  5
1E
102
{ACAD_REACTORS
330
1A
102
}
330
1A
100
AcDbPlotSettings
  1

  2
none_device
  4
ISO_A4_(210.00_x_297.00_MM)
  6

 40
7.5
 41
20.0
 42
7.5
 43
20.0
 44
210.0
 45
297.0
 46
0.0
 47
0.0
 48
0.0
 49
0.0
140
0.0
141
0.0
142
1.0
143
2.3346303502
 70
   688
 72
     1
 73
     1
 74
     1
  7

 75
     0
147
0.4283333333
148
0.0
149
0.0
100
AcDbLayout
  1
_Vorderseite
 70
     1
 71
     1
 10
-46.6926070039
 20
-17.5097276265
 11
646.6926070039
 21
472.7626459144
 12
0.0
 22
0.0
 32
0.0
 14
0.0
 24
0.0
 34
0.0
 15
600.0
 25
170.0
 35
0.0
146
0.0
 13
0.0
 23
0.0
 33
0.0
 16
1.0
 26
0.0
 36
0.0
 17
0.0
 27
1.0
 37
0.0
 76
     0
330
1B
331
168
  0
LAYOUT
  5
22
102
{ACAD_REACTORS
330
1A
102
}
330
1A
100
AcDbPlotSettings
  1

  2
none_device
  4
ANSI_A_(11.00_x_8.50_Inches)
  6

 40
6.35
 41
19.05
 42
6.35000508
 43
19.05000254
 44
279.4
 45
215.9
 46
-4.95300254
 47
-14.82725127
 48
0.0
 49
0.0
140
0.0
141
0.0
142
0.01815
143
1.0
 70
  1696
 72
     0
 73
     0
 74
     0
  7

 75
     0
147
0.0179189148
148
-1300.4909072572
149
0.0
100
AcDbLayout
  1
Model
 70
     1
 71
     0
 10
0.0
 20
0.0
 11
420.0
 21
297.0
 12
0.0
 22
0.0
 32
0.0
 14
0.0
 24
0.0
 34
0.0
 15
600.0
 25
450.0
 35
0.0
146
0.0
 13
0.0
 23
0.0
 33
0.0
 16
1.0
 26
0.0
 36
0.0
 17
0.0
 27
1.0
 37
0.0
 76
     0
330
1F
331
29
  0
MLINESTYLE
  5
18
102
{ACAD_REACTORS
330
17
102
}
330
17
100
AcDbMlineStyle
  2
Standard
 70
     0
  3

 62
   256
 51
90.0
 52
90.0
 71
     2
 49
0.5
 62
   256
  6
BYLAYER
 49
-0.5
 62
   256
  6
BYLAYER
  0
ACDBPLACEHOLDER
  5
F
102
{ACAD_REACTORS
330
E
102
}
330
E
  0
SCALE
  5
48
102
{ACAD_REACTORS
330
47
102
}
330
47
100
AcDbScale
 70
     0
300
1:1
140
1.0
141
1.0
290
     1
  0
SCALE
  5
49
102
{ACAD_REACTORS
330
47
102
}
330
47
100
AcDbScale
 70
     0
300
1:2
140
1.0
141
2.0
290
     0
  0
SCALE
  5
4A
102
{ACAD_REACTORS
330
47
102
}
330
47
100
AcDbScale
 70
     0
300
1:4
140
1.0
141
4.0
290
     0
  0
SCALE
  5
4B
102
{ACAD_REACTORS
330
47
102
}
330
47
100
AcDbScale
 70
     0
300
1:5
140
1.0
141
5.0
290
     0
  0
SCALE
  5
4C
102
{ACAD_REACTORS
330
47
102
}
330
47
100
AcDbScale
 70
     0
300
1:8
140
1.0
141
8.0
290
     0
  0
SCALE
  5
4D
102
{ACAD_REACTORS
330
47
102
}
330
47
100
AcDbScale
 70
     0
300
1:10
140
1.0
141
10.0
290
     0
  0
SCALE
  5
4E
102
{ACAD_REACTORS
330
47
102
}
330
47
100
AcDbScale
 70
     0
300
1:16
140
1.0
141
16.0
290
     0
  0
SCALE
  5
4F
102
{ACAD_REACTORS
330
47
102
}
330
47
100
AcDbScale
 70
     0
300
1:20
140
1.0
141
20.0
290
     0
  0
SCALE
  5
50
102
{ACAD_REACTORS
330
47
102
}
330
47
100
AcDbScale
 70
     0
300
1:30
140
1.0
141
30.0
290
     0
  0
SCALE
  5
51
102
{ACAD_REACTORS
330
47
102
}
330
47
100
AcDbScale
 70
     0
300
1:40
140
1.0
141
40.0
290
     0
  0
SCALE
  5
52
102
{ACAD_REACTORS
330
47
102
}
330
47
100
AcDbScale
 70
     0
300
1:50
140
1.0
141
50.0
290
     0
  0
SCALE
  5
53
102
{ACAD_REACTORS
330
47
102
}
330
47
100
AcDbScale
 70
     0
300
1:100
140
1.0
141
100.0
290
     0
  0
SCALE
  5
54
102
{ACAD_REACTORS
330
47
102
}
330
47
100
AcDbScale
 70
     0
300
2:1
140
2.0
141
1.0
290
     0
  0
SCALE
  5
55
102
{ACAD_REACTORS
330
47
102
}
330
47
100
AcDbScale
 70
     0
300
4:1
140
4.0
141
1.0
290
     0
  0
SCALE
  5
56
102
{ACAD_REACTORS
330
47
102
}
330
47
100
AcDbScale
 70
     0
300
8:1
140
8.0
141
1.0
290
     0
  0
SCALE
  5
57
102
{ACAD_REACTORS
330
47
102
}
330
47
100
AcDbScale
 70
     0
300
10:1
140
10.0
141
1.0
290
     0
  0
SCALE
  5
58
102
{ACAD_REACTORS
330
47
102
}
330
47
100
AcDbScale
 70
     0
300
100:1
140
100.0
141
1.0
290
     0
  0
SCALE
  5
59
102
{ACAD_REACTORS
330
47
102
}
330
47
100
AcDbScale
 70
     0
300
1/128" = 1'-0"
140
0.0078125
141
12.0
290
     0
  0
SCALE
  5
5A
102
{ACAD_REACTORS
330
47
102
}
330
47
100
AcDbScale
 70
     0
300
1/64" = 1'-0"
140
0.015625
141
12.0
290
     0
  0
SCALE
  5
5B
102
{ACAD_REACTORS
330
47
102
}
330
47
100
AcDbScale
 70
     0
300
1/32" = 1'-0"
140
0.03125
141
12.0
290
     0
  0
SCALE
  5
5C
102
{ACAD_REACTORS
330
47
102
}
330
47
100
AcDbScale
 70
     0
300
1/16" = 1'-0"
140
0.0625
141
12.0
290
     0
  0
SCALE
  5
5D
102
{ACAD_REACTORS
330
47
102
}
330
47
100
AcDbScale
 70
     0
300
3/32" = 1'-0"
140
0.09375
141
12.0
290
     0
  0
SCALE
  5
5E
102
{ACAD_REACTORS
330
47
102
}
330
47
100
AcDbScale
 70
     0
300
1/8" = 1'-0"
140
0.125
141
12.0
290
     0
  0
SCALE
  5
5F
102
{ACAD_REACTORS
330
47
102
}
330
47
100
AcDbScale
 70
     0
300
3/16" = 1'-0"
140
0.1875
141
12.0
290
     0
  0
SCALE
  5
60
102
{ACAD_REACTORS
330
47
102
}
330
47
100
AcDbScale
 70
     0
300
1/4" = 1'-0"
140
0.25
141
12.0
290
     0
  0
SCALE
  5
61
102
{ACAD_REACTORS
330
47
102
}
330
47
100
AcDbScale
 70
     0
300
3/8" = 1'-0"
140
0.375
141
12.0
290
     0
  0
SCALE
  5
62
102
{ACAD_REACTORS
330
47
102
}
330
47
100
AcDbScale
 70
     0
300
1/2" = 1'-0"
140
0.5
141
12.0
290
     0
  0
SCALE
  5
63
102
{ACAD_REACTORS
330
47
102
}
330
47
100
AcDbScale
 70
     0
300
3/4" = 1'-0"
140
0.75
141
12.0
290
     0
  0
SCALE
  5
64
102
{ACAD_REACTORS
330
47
102
}
330
47
100
AcDbScale
 70
     0
300
1" = 1'-0"
140
1.0
141
12.0
290
     0
  0
SCALE
  5
65
102
{ACAD_REACTORS
330
47
102
}
330
47
100
AcDbScale
 70
     0
300
1-1/2" = 1'-0"
140
1.5
141
12.0
290
     0
  0
SCALE
  5
66
102
{ACAD_REACTORS
330
47
102
}
330
47
100
AcDbScale
 70
     0
300
3" = 1'-0"
140
3.0
141
12.0
290
     0
  0
SCALE
  5
67
102
{ACAD_REACTORS
330
47
102
}
330
47
100
AcDbScale
 70
     0
300
6" = 1'-0"
140
6.0
141
12.0
290
     0
  0
SCALE
  5
68
102
{ACAD_REACTORS
330
47
102
}
330
47
100
AcDbScale
 70
     0
300
1'-0" = 1'-0"
140
12.0
141
12.0
290
     0
  0
ENDSEC
  0
EOF
