  0
SECTION
  2
HEADER
  9
$ACADVER
  1
AC1015
  9
$ACADMAINTVER
 70
     6
  9
$DWGCODEPAGE
  3
ANSI_1252
  9
$INSBASE
 10
0.0
 20
0.0
 30
0.0
  9
$EXTMIN
 10
0.0
 20
0.0
 30
0.0
  9
$EXTMAX
 10
500.0
 20
350.0
 30
0.0
  9
$LIMMIN
 10
0.0
 20
0.0
  9
$LIMMAX
 10
420.0
 20
297.0
  9
$ORTHOMODE
 70
     0
  9
$REGENMODE
 70
     1
  9
$FILLMODE
 70
     1
  9
$QTEXTMODE
 70
     0
  9
$MIRRTEXT
 70
     1
  9
$LTSCALE
 40
1.0
  9
$ATTMODE
 70
     1
  9
$TEXTSIZE
 40
3.5
  9
$TRACEWID
 40
1.0
  9
$TEXTSTYLE
  7
STANDARD
  9
$CLAYER
  8
0
  9
$CELTYPE
  6
ByLayer
  9
$CECOLOR
 62
   256
  9
$CELTSCALE
 40
1.0
  9
$DISPSILH
 70
     0
  9
$DIMSCALE
 40
1.0
  9
$DIMASZ
 40
6.0
  9
$DIMEXO
 40
1.0
  9
$DIMDLI
 40
3.75
  9
$DIMRND
 40
0.0
  9
$DIMDLE
 40
0.0
  9
$DIMEXE
 40
1.0
  9
$DIMTP
 40
0.0
  9
$DIMTM
 40
0.0
  9
$DIMTXT
 40
3.5
  9
$DIMCEN
 40
2.5
  9
$DIMTSZ
 40
0.0
  9
$DIMTOL
 70
     0
  9
$DIMLIM
 70
     0
  9
$DIMTIH
 70
     1
  9
$DIMTOH
 70
     1
  9
$DIMSE1
 70
     0
  9
$DIMSE2
 70
     0
  9
$DIMTAD
 70
     1
  9
$DIMZIN
 70
     0
  9
$DIMBLK
  1

  9
$DIMASO
 70
     1
  9
$DIMSHO
 70
     1
  9
$DIMPOST
  1

  9
$DIMAPOST
  1

  9
$DIMALT
 70
     0
  9
$DIMALTD
 70
     3
  9
$DIMALTF
 40
0.0393700787
  9
$DIMLFAC
 40
1.0
  9
$DIMTOFL
 70
     1
  9
$DIMTVP
 40
0.0
  9
$DIMTIX
 70
     0
  9
$DIMSOXD
 70
     0
  9
$DIMSAH
 70
     0
  9
$DIMBLK1
  1

  9
$DIMBLK2
  1

  9
$DIMSTYLE
  2
ISO-25
  9
$DIMCLRD
 70
     0
  9
$DIMCLRE
 70
     0
  9
$DIMCLRT
 70
     0
  9
$DIMTFAC
 40
1.0
  9
$DIMGAP
 40
1.524
  9
$DIMJUST
 70
     0
  9
$DIMSD1
 70
     0
  9
$DIMSD2
 70
     0
  9
$DIMTOLJ
 70
     0
  9
$DIMTZIN
 70
     0
  9
$DIMALTZ
 70
     0
  9
$DIMALTTZ
 70
     0
  9
$DIMUPT
 70
     0
  9
$DIMDEC
 70
     2
  9
$DIMTDEC
 70
     2
  9
$DIMALTU
 70
     2
  9
$DIMALTTD
 70
     3
  9
$DIMTXSTY
  7
STANDARD
  9
$DIMAUNIT
 70
     0
  9
$DIMADEC
 70
     2
  9
$DIMALTRND
 40
0.0
  9
$DIMAZIN
 70
     0
  9
$DIMDSEP
 70
    44
  9
$DIMATFIT
 70
     3
  9
$DIMFRAC
 70
     0
  9
$DIMLDRBLK
  1

  9
$DIMLUNIT
 70
     2
  9
$DIMLWD
 70
    -2
  9
$DIMLWE
 70
    -2
  9
$DIMTMOVE
 70
     0
  9
$LUNITS
 70
     2
  9
$LUPREC
 70
     2
  9
$SKETCHINC
 40
1.0
  9
$FILLETRAD
 40
10.0
  9
$AUNITS
 70
     0
  9
$AUPREC
 70
     2
  9
$MENU
  1
.
  9
$ELEVATION
 40
0.0
  9
$PELEVATION
 40
0.0
  9
$THICKNESS
 40
0.0
  9
$LIMCHECK
 70
     0
  9
$CHAMFERA
 40
0.0
  9
$CHAMFERB
 40
0.0
  9
$CHAMFERC
 40
0.0
  9
$CHAMFERD
 40
0.0
  9
$SKPOLY
 70
     0
  9
$TDCREATE
 40
2458222.579032789
  9
$TDUCREATE
 40
2458222.495699456
  9
$TDUPDATE
 40
2458222.579049155
  9
$TDUUPDATE
 40
2458222.495715822
  9
$TDINDWG
 40
0.0000000116
  9
$TDUSRTIMER
 40
0.0000000116
  9
$USRTIMER
 70
     1
  9
$ANGBASE
 50
0.0
  9
$ANGDIR
 70
     0
  9
$PDMODE
 70
     0
  9
$PDSIZE
 40
-1.0
  9
$PLINEWID
 40
0.0
  9
$SPLFRAME
 70
     0
  9
$SPLINETYPE
 70
     6
  9
$SPLINESEGS
 70
     8
  9
$HANDSEED
  5
16C
  9
$SURFTAB1
 70
     6
  9
$SURFTAB2
 70
     6
  9
$SURFTYPE
 70
     6
  9
$SURFU
 70
     6
  9
$SURFV
 70
     6
  9
$UCSBASE
  2

  9
$UCSNAME
  2

  9
$UCSORG
 10
0.0
 20
0.0
 30
0.0
  9
$UCSXDIR
 10
1.0
 20
0.0
 30
0.0
  9
$UCSYDIR
 10
0.0
 20
1.0
 30
0.0
  9
$UCSORTHOREF
  2

  9
$UCSORTHOVIEW
 70
     0
  9
$UCSORGTOP
 10
0.0
 20
0.0
 30
0.0
  9
$UCSORGBOTTOM
 10
0.0
 20
0.0
 30
0.0
  9
$UCSORGLEFT
 10
0.0
 20
0.0
 30
0.0
  9
$UCSORGRIGHT
 10
0.0
 20
0.0
 30
0.0
  9
$UCSORGFRONT
 10
0.0
 20
0.0
 30
0.0
  9
$UCSORGBACK
 10
0.0
 20
0.0
 30
0.0
  9
$PUCSBASE
  2

  9
$PUCSNAME
  2

  9
$PUCSORG
 10
0.0
 20
0.0
 30
0.0
  9
$PUCSXDIR
 10
1.0
 20
0.0
 30
0.0
  9
$PUCSYDIR
 10
0.0
 20
1.0
 30
0.0
  9
$PUCSORTHOREF
  2

  9
$PUCSORTHOVIEW
 70
     0
  9
$PUCSORGTOP
 10
0.0
 20
0.0
 30
0.0
  9
$PUCSORGBOTTOM
 10
0.0
 20
0.0
 30
0.0
  9
$PUCSORGLEFT
 10
0.0
 20
0.0
 30
0.0
  9
$PUCSORGRIGHT
 10
0.0
 20
0.0
 30
0.0
  9
$PUCSORGFRONT
 10
0.0
 20
0.0
 30
0.0
  9
$PUCSORGBACK
 10
0.0
 20
0.0
 30
0.0
  9
$USERI1
 70
     0
  9
$USERI2
 70
     0
  9
$USERI3
 70
     0
  9
$USERI4
 70
     0
  9
$USERI5
 70
     0
  9
$USERR1
 40
0.0
  9
$USERR2
 40
0.0
  9
$USERR3
 40
0.0
  9
$USERR4
 40
0.0
  9
$USERR5
 40
0.0
  9
$WORLDVIEW
 70
     1
  9
$SHADEDGE
 70
     3
  9
$SHADEDIF
 70
    70
  9
$TILEMODE
 70
     1
  9
$MAXACTVP
 70
    64
  9
$PINSBASE
 10
0.0
 20
0.0
 30
0.0
  9
$PLIMCHECK
 70
     0
  9
$PEXTMIN
 10
0.0
 20
0.0
 30
0.0
  9
$PEXTMAX
 10
500.0
 20
170.0
 30
0.0
  9
$PLIMMIN
 10
-38.9105058366
 20
-14.5914396887
  9
$PLIMMAX
 10
538.9105058366
 20
393.9688715953
  9
$UNITMODE
 70
     0
  9
$VISRETAIN
 70
     1
  9
$PLINEGEN
 70
     0
  9
$PSLTSCALE
 70
     1
  9
$TREEDEPTH
 70
  3020
  9
$CMLSTYLE
  2
Standard
  9
$CMLJUST
 70
     0
  9
$CMLSCALE
 40
20.0
  9
$PROXYGRAPHICS
 70
     1
  9
$MEASUREMENT
 70
     1
  9
$CELWEIGHT
370
    -1
  9
$ENDCAPS
280
     0
  9
$JOINSTYLE
280
     0
  9
$LWDISPLAY
290
     1
  9
$INSUNITS
 70
     4
  9
$HYPERLINKBASE
  1

  9
$STYLESHEET
  1

  9
$XEDIT
290
     1
  9
$CEPSNTYPE
380
     0
  9
$PSTYLEMODE
290
     1
  9
$FINGERPRINTGUID
  2
{6B95A57C-C5E5-4E4B-96C3-4F00BC7A5A33}
  9
$VERSIONGUID
  2
{FAEB1C32-E019-11D5-929B-00C0DF256EC4}
  9
$EXTNAMES
290
     1
  9
$PSVPSCALE
 40
0.0
  9
$OLESTARTUP
290
     0
  0
ENDSEC
  0
SECTION
  2
CLASSES
  0
CLASS
  1
ACDBDICTIONARYWDFLT
  2
AcDbDictionaryWithDefault
  3
ObjectDBX Classes
 90
        0
280
     0
281
     0
  0
CLASS
  1
VISUALSTYLE
  2
AcDbVisualStyle
  3
ObjectDBX Classes
 90
     4095
280
     0
281
     0
  0
CLASS
  1
MATERIAL
  2
AcDbMaterial
  3
ObjectDBX Classes
 90
     1153
280
     0
281
     0
  0
CLASS
  1
SCALE
  2
AcDbScale
  3
ObjectDBX Classes
 90
     1153
280
     0
281
     0
  0
CLASS
  1
TABLESTYLE
  2
AcDbTableStyle
  3
ObjectDBX Classes
 90
     4095
280
     0
281
     0
  0
CLASS
  1
MLEADERSTYLE
  2
AcDbMLeaderStyle
  3
ACDB_MLEADERSTYLE_CLASS
 90
     4095
280
     0
281
     0
  0
CLASS
  1
SUN
  2
AcDbSun
  3
SCENEOE
 90
     1153
280
     0
281
     0
  0
CLASS
  1
ACDBPLACEHOLDER
  2
AcDbPlaceHolder
  3
ObjectDBX Classes
 90
        0
280
     0
281
     0
  0
CLASS
  1
LAYOUT
  2
AcDbLayout
  3
ObjectDBX Classes
 90
        0
280
     0
281
     0
  0
ENDSEC
  0
SECTION
  2
TABLES
  0
TABLE
  2
VPORT
  5
8
330
0
100
AcDbSymbolTable
 70
     1
  0
VPORT
  5
29
330
8
100
AcDbSymbolTableRecord
100
AcDbViewportTableRecord
  2
*Active
 70
     0
 10
0.0
 20
0.0
 11
1.0
 21
1.0
 12
250.0
 22
175.0
 13
0.0
 23
0.0
 14
10.0
 24
10.0
 15
10.0
 25
10.0
 16
0.0
 26
0.0
 36
1.0
 17
0.0
 27
0.0
 37
0.0
 40
357.0
 41
1.4285714286
 42
50.0
 43
0.0
 44
0.0
 50
0.0
 51
0.0
 71
     0
 72
   100
 73
     1
 74
     3
 75
     0
 76
     0
 77
     0
 78
     0
281
     0
 65
     1
110
0.0
120
0.0
130
0.0
111
1.0
121
0.0
131
0.0
112
0.0
122
1.0
132
0.0
 79
     0
146
0.0
  0
ENDTAB
  0
TABLE
  2
LTYPE
  5
5
330
0
100
AcDbSymbolTable
 70
     6
  0
LTYPE
  5
14
330
5
100
AcDbSymbolTableRecord
100
AcDbLinetypeTableRecord
  2
ByBlock
 70
     0
  3

 72
    65
 73
     0
 40
0.0
  0
LTYPE
  5
15
330
5
100
AcDbSymbolTableRecord
100
AcDbLinetypeTableRecord
  2
ByLayer
 70
     0
  3

 72
    65
 73
     0
 40
0.0
  0
LTYPE
  5
16
330
5
100
AcDbSymbolTableRecord
100
AcDbLinetypeTableRecord
  2
Continuous
 70
     0
  3
Solid line
 72
    65
 73
     0
 40
0.0
  0
LTYPE
  5
6E
330
5
100
AcDbSymbolTableRecord
100
AcDbLinetypeTableRecord
  2
HIDDEN
 70
     0
  3
Hidden __ __ __ __ __ __ __ __ __ __ __ __ __ __
 72
    65
 73
     2
 40
1.905
 49
1.27
 74
     0
 49
-0.635
 74
     0
  0
LTYPE
  5
6F
330
5
100
AcDbSymbolTableRecord
100
AcDbLinetypeTableRecord
  2
PHANTOM
 70
     0
  3
Phantom ______  __  __  ______  __  __  ______
 72
    65
 73
     6
 40
12.7
 49
6.35
 74
     0
 49
-1.27
 74
     0
 49
1.27
 74
     0
 49
-1.27
 74
     0
 49
1.27
 74
     0
 49
-1.27
 74
     0
  0
LTYPE
  5
70
330
5
100
AcDbSymbolTableRecord
100
AcDbLinetypeTableRecord
  2
CENTER
 70
     0
  3
Center ____ _ ____ _ ____ _ ____ _ ____ _ ____
 72
    65
 73
     4
 40
10.16
 49
6.35
 74
     0
 49
-1.27
 74
     0
 49
1.27
 74
     0
 49
-1.27
 74
     0
  0
LTYPE
  5
71
330
5
100
AcDbSymbolTableRecord
100
AcDbLinetypeTableRecord
  2
CENTERX2
 70
     0
  3
Center (2x) ________  __  ________  __  _____
 72
    65
 73
     4
 40
20.32
 49
12.7
 74
     0
 49
-2.54
 74
     0
 49
2.54
 74
     0
 49
-2.54
 74
     0
  0
LTYPE
  5
72
330
5
100
AcDbSymbolTableRecord
100
AcDbLinetypeTableRecord
  2
DOT2
 70
     0
  3
Dot (.5x) ........................................
 72
    65
 73
     2
 40
0.635
 49
0.0
 74
     0
 49
-0.635
 74
     0
  0
ENDTAB
  0
TABLE
  2
LAYER
  5
2
330
0
100
AcDbSymbolTable
 70
     1
  0
LAYER
  5
10
330
2
100
AcDbSymbolTableRecord
100
AcDbLayerTableRecord
  2
0
 70
     0
 62
     7
  6
Continuous
370
    -3
390
F
  0
ENDTAB
  0
TABLE
  2
STYLE
  5
3
330
0
100
AcDbSymbolTable
 70
     1
  0
STYLE
  5
11
330
3
100
AcDbSymbolTableRecord
100
AcDbTextStyleTableRecord
  2
STANDARD
 70
     0
 40
0.0
 41
1.0
 50
0.0
 71
     0
 42
3.5
  3
GOTHIC.TTF
  4

1001
ACAD
1000
CENTURY GOTHIC
1071
       34
  0
ENDTAB
  0
TABLE
  2
VIEW
  5
6
330
0
100
AcDbSymbolTable
 70
     0
  0
ENDTAB
  0
TABLE
  2
UCS
  5
7
330
0
100
AcDbSymbolTable
 70
     0
  0
ENDTAB
  0
TABLE
  2
APPID
  5
9
330
0
100
AcDbSymbolTable
 70
     1
  0
APPID
  5
12
330
9
100
AcDbSymbolTableRecord
100
AcDbRegAppTableRecord
  2
ACAD
 70
     0
  0
ENDTAB
  0
TABLE
  2
DIMSTYLE
  5
A
330
0
100
AcDbSymbolTable
 70
     1
100
AcDbDimStyleTable
  0
DIMSTYLE
105
27
330
A
100
AcDbSymbolTableRecord
100
AcDbDimStyleTableRecord
  2
ISO-25
 70
     0
 41
2.5
 42
0.625
 43
3.75
 44
1.25
 73
     0
 74
     0
 77
     1
 78
     8
140
2.5
141
2.5
143
0.0393700787
147
0.625
171
     3
172
     1
178
     0
271
     2
272
     2
274
     3
278
    44
283
     0
284
     8
340
11
  0
ENDTAB
  0
TABLE
  2
BLOCK_RECORD
  5
1
330
0
100
AcDbSymbolTable
 70
     8
  0
BLOCK_RECORD
  5
1F
330
1
100
AcDbSymbolTableRecord
100
AcDbBlockTableRecord
  2
*Model_Space
340
22
  0
BLOCK_RECORD
  5
1B
330
1
100
AcDbSymbolTableRecord
100
AcDbBlockTableRecord
  2
*Paper_Space
340
1E
  0
BLOCK_RECORD
  5
23
330
1
100
AcDbSymbolTableRecord
100
AcDbBlockTableRecord
  2
*Paper_Space0
340
26
  0
BLOCK_RECORD
  5
A7
330
1
100
AcDbSymbolTableRecord
100
AcDbBlockTableRecord
  2
*Paper_Space1
340
A8
  0
BLOCK_RECORD
  5
B3
330
1
100
AcDbSymbolTableRecord
100
AcDbBlockTableRecord
  2
*Paper_Space2
340
B4
  0
BLOCK_RECORD
  5
C1
330
1
100
AcDbSymbolTableRecord
100
AcDbBlockTableRecord
  2
*Paper_Space3
340
C2
  0
BLOCK_RECORD
  5
CD
330
1
100
AcDbSymbolTableRecord
100
AcDbBlockTableRecord
  2
*Paper_Space4
340
CE
  0
BLOCK_RECORD
  5
E3
330
1
100
AcDbSymbolTableRecord
100
AcDbBlockTableRecord
  2
*Paper_Space5
340
E4
  0
BLOCK_RECORD
  5
110
330
1
100
AcDbSymbolTableRecord
100
AcDbBlockTableRecord
  2
*Paper_Space6
340
111
  0
BLOCK_RECORD
  5
139
330
1
100
AcDbSymbolTableRecord
100
AcDbBlockTableRecord
  2
*Paper_Space7
340
13A
  0
ENDTAB
  0
ENDSEC
  0
SECTION
  2
BLOCKS
  0
BLOCK
  5
20
330
1F
100
AcDbEntity
  8
0
100
AcDbBlockBegin
  2
*Model_Space
 70
     0
 10
0.0
 20
0.0
 30
0.0
  3
*Model_Space
  1

  0
ENDBLK
  5
21
330
1F
100
AcDbEntity
  8
0
100
AcDbBlockEnd
  0
BLOCK
  5
1C
330
1B
100
AcDbEntity
 67
     1
  8
0
100
AcDbBlockBegin
  2
*Paper_Space
 70
     0
 10
0.0
 20
0.0
 30
0.0
  3
*Paper_Space
  1

  0
ENDBLK
  5
1D
330
1B
100
AcDbEntity
 67
     1
  8
0
100
AcDbBlockEnd
  0
BLOCK
  5
24
330
23
100
AcDbEntity
  8
0
100
AcDbBlockBegin
  2
*Paper_Space0
 70
     0
 10
0.0
 20
0.0
 30
0.0
  3
*Paper_Space0
  1

  0
LINE
  5
A3
330
23
100
AcDbEntity
  8
0
  6
Continuous
 62
     7
370
    25
100
AcDbLine
 10
0.0
 20
170.0
 30
0.0
 11
0.0
 21
0.0
 31
0.0
  0
LINE
  5
A4
330
23
100
AcDbEntity
  8
0
  6
Continuous
 62
     7
370
    25
100
AcDbLine
 10
0.0
 20
170.0
 30
0.0
 11
350.0
 21
170.0
 31
0.0
  0
LINE
  5
A5
330
23
100
AcDbEntity
  8
0
  6
Continuous
 62
     7
370
    25
100
AcDbLine
 10
350.0
 20
170.0
 30
0.0
 11
350.0
 21
0.0
 31
0.0
  0
LINE
  5
A6
330
23
100
AcDbEntity
  8
0
  6
Continuous
 62
     7
370
    25
100
AcDbLine
 10
0.0
 20
0.0
 30
0.0
 11
350.0
 21
0.0
 31
0.0
  0
VIEWPORT
  5
15C
330
23
100
AcDbEntity
  8
0
100
AcDbViewport
 10
0.0
 20
0.0
 30
0.0
 40
205.6
 41
156.0
 68
     1
 69
     1
 12
250.0
 22
175.0
 13
0.0
 23
0.0
 14
10.0
 24
10.0
 15
10.0
 25
10.0
 16
0.0
 26
0.0
 36
1.0
 17
0.0
 27
0.0
 37
0.0
 42
50.0
 43
0.0
 44
0.0
 45
386.9649805447
 50
0.0
 51
0.0
 72
   100
 90
   557152
  1

281
     0
 71
     1
 74
     0
110
0.0
120
0.0
130
0.0
111
1.0
121
0.0
131
0.0
112
0.0
122
1.0
132
0.0
 79
     0
146
0.0
  0
ENDBLK
  5
25
330
23
100
AcDbEntity
  8
0
100
AcDbBlockEnd
  0
BLOCK
  5
A9
330
A7
100
AcDbEntity
  8
0
100
AcDbBlockBegin
  2
*Paper_Space1
 70
     0
 10
0.0
 20
0.0
 30
0.0
  3
*Paper_Space1
  1

  0
LINE
  5
AF
330
A7
100
AcDbEntity
  8
0
  6
Continuous
 62
     7
370
    25
100
AcDbLine
 10
0.0
 20
0.0
 30
0.0
 11
500.0
 21
0.0
 31
0.0
  0
LINE
  5
B0
330
A7
100
AcDbEntity
  8
0
  6
Continuous
 62
     7
370
    25
100
AcDbLine
 10
0.0
 20
170.0
 30
0.0
 11
500.0
 21
170.0
 31
0.0
  0
LINE
  5
B1
330
A7
100
AcDbEntity
  8
0
  6
Continuous
 62
     7
370
    25
100
AcDbLine
 10
0.0
 20
170.0
 30
0.0
 11
0.0
 21
0.0
 31
0.0
  0
LINE
  5
B2
330
A7
100
AcDbEntity
  8
0
  6
Continuous
 62
     7
370
    25
100
AcDbLine
 10
500.0
 20
170.0
 30
0.0
 11
500.0
 21
0.0
 31
0.0
  0
VIEWPORT
  5
15E
330
A7
100
AcDbEntity
  8
0
100
AcDbViewport
 10
0.0
 20
0.0
 30
0.0
 40
205.6
 41
156.0
 68
     1
 69
     1
 12
250.0
 22
175.0
 13
0.0
 23
0.0
 14
10.0
 24
10.0
 15
10.0
 25
10.0
 16
0.0
 26
0.0
 36
1.0
 17
0.0
 27
0.0
 37
0.0
 42
50.0
 43
0.0
 44
0.0
 45
386.9649805447
 50
0.0
 51
0.0
 72
   100
 90
   557152
  1

281
     0
 71
     1
 74
     0
110
0.0
120
0.0
130
0.0
111
1.0
121
0.0
131
0.0
112
0.0
122
1.0
132
0.0
 79
     0
146
0.0
  0
ENDBLK
  5
AA
330
A7
100
AcDbEntity
  8
0
100
AcDbBlockEnd
  0
BLOCK
  5
B5
330
B3
100
AcDbEntity
  8
0
100
AcDbBlockBegin
  2
*Paper_Space2
 70
     0
 10
0.0
 20
0.0
 30
0.0
  3
*Paper_Space2
  1

  0
CIRCLE
  5
BA
330
B3
100
AcDbEntity
  8
0
  6
Continuous
 62
     7
370
    25
100
AcDbCircle
 10
-420.0
 20
110.0
 30
0.0
 40
6.999999999999943
  0
CIRCLE
  5
BB
330
B3
100
AcDbEntity
  8
0
  6
Continuous
 62
     7
370
    25
100
AcDbCircle
 10
-80.0
 20
110.0
 30
0.0
 40
7.000000000000014
  0
LINE
  5
BD
330
B3
100
AcDbEntity
  8
0
  6
Continuous
 62
     7
370
    25
100
AcDbLine
 10
-500.0
 20
170.0
 30
0.0
 11
0.0
 21
170.0
 31
0.0
  0
LINE
  5
BE
330
B3
100
AcDbEntity
  8
0
  6
Continuous
 62
     7
370
    25
100
AcDbLine
 10
0.0
 20
170.0
 30
0.0
 11
0.0
 21
0.0
 31
0.0
  0
LINE
  5
BF
330
B3
100
AcDbEntity
  8
0
  6
Continuous
 62
     7
370
    25
100
AcDbLine
 10
-500.0
 20
0.0
 30
0.0
 11
0.0
 21
0.0
 31
0.0
  0
LINE
  5
C0
330
B3
100
AcDbEntity
  8
0
  6
Continuous
 62
     7
370
    25
100
AcDbLine
 10
-500.0
 20
170.0
 30
0.0
 11
-500.0
 21
0.0
 31
0.0
  0
VIEWPORT
  5
160
330
B3
100
AcDbEntity
  8
0
100
AcDbViewport
 10
0.0
 20
0.0
 30
0.0
 40
205.6
 41
156.0
 68
     1
 69
     1
 12
250.0
 22
175.0
 13
0.0
 23
0.0
 14
10.0
 24
10.0
 15
10.0
 25
10.0
 16
0.0
 26
0.0
 36
1.0
 17
0.0
 27
0.0
 37
0.0
 42
50.0
 43
0.0
 44
0.0
 45
386.9649805447
 50
0.0
 51
0.0
 72
   100
 90
   557152
  1

281
     0
 71
     1
 74
     0
110
0.0
120
0.0
130
0.0
111
1.0
121
0.0
131
0.0
112
0.0
122
1.0
132
0.0
 79
     0
146
0.0
  0
ENDBLK
  5
B6
330
B3
100
AcDbEntity
  8
0
100
AcDbBlockEnd
  0
BLOCK
  5
C3
330
C1
100
AcDbEntity
  8
0
100
AcDbBlockBegin
  2
*Paper_Space3
 70
     0
 10
0.0
 20
0.0
 30
0.0
  3
*Paper_Space3
  1

  0
LINE
  5
C9
330
C1
100
AcDbEntity
  8
0
  6
Continuous
 62
     7
370
    25
100
AcDbLine
 10
0.0
 20
170.0
 30
0.0
 11
0.0
 21
0.0
 31
0.0
  0
LINE
  5
CA
330
C1
100
AcDbEntity
  8
0
  6
Continuous
 62
     7
370
    25
100
AcDbLine
 10
-350.0
 20
170.0
 30
0.0
 11
0.0
 21
170.0
 31
0.0
  0
LINE
  5
CB
330
C1
100
AcDbEntity
  8
0
  6
Continuous
 62
     7
370
    25
100
AcDbLine
 10
-350.0
 20
170.0
 30
0.0
 11
-350.0
 21
0.0
 31
0.0
  0
LINE
  5
CC
330
C1
100
AcDbEntity
  8
0
  6
Continuous
 62
     7
370
    25
100
AcDbLine
 10
-350.0
 20
0.0
 30
0.0
 11
0.0
 21
0.0
 31
0.0
  0
VIEWPORT
  5
162
330
C1
100
AcDbEntity
  8
0
100
AcDbViewport
 10
0.0
 20
0.0
 30
0.0
 40
205.6
 41
156.0
 68
     1
 69
     1
 12
250.0
 22
175.0
 13
0.0
 23
0.0
 14
10.0
 24
10.0
 15
10.0
 25
10.0
 16
0.0
 26
0.0
 36
1.0
 17
0.0
 27
0.0
 37
0.0
 42
50.0
 43
0.0
 44
0.0
 45
386.9649805447
 50
0.0
 51
0.0
 72
   100
 90
   557152
  1

281
     0
 71
     1
 74
     0
110
0.0
120
0.0
130
0.0
111
1.0
121
0.0
131
0.0
112
0.0
122
1.0
132
0.0
 79
     0
146
0.0
  0
ENDBLK
  5
C4
330
C1
100
AcDbEntity
  8
0
100
AcDbBlockEnd
  0
BLOCK
  5
CF
330
CD
100
AcDbEntity
  8
0
100
AcDbBlockBegin
  2
*Paper_Space4
 70
     0
 10
0.0
 20
0.0
 30
0.0
  3
*Paper_Space4
  1

  0
CIRCLE
  5
D6
330
CD
100
AcDbEntity
  8
0
  6
Continuous
 62
     7
370
    25
100
AcDbCircle
 10
250.0
 20
-135.0
 30
0.0
 40
22.49999999999997
  0
CIRCLE
  5
DA
330
CD
100
AcDbEntity
  8
0
  6
Continuous
 62
     7
370
    25
100
AcDbCircle
 10
250.0
 20
-300.0
 30
0.0
 40
17.49999999999983
  0
LINE
  5
DB
330
CD
100
AcDbEntity
  8
0
  6
Continuous
 62
     7
370
    25
100
AcDbLine
 10
500.0
 20
0.0
 30
0.0
 11
500.0
 21
-350.0
 31
0.0
  0
LINE
  5
DC
330
CD
100
AcDbEntity
  8
0
  6
Continuous
 62
     7
370
    25
100
AcDbLine
 10
500.0
 20
-350.0
 30
0.0
 11
0.0
 21
-350.0
 31
0.0
  0
LINE
  5
DD
330
CD
100
AcDbEntity
  8
0
  6
Continuous
 62
     7
370
    25
100
AcDbLine
 10
0.0
 20
-350.0
 30
0.0
 11
0.0
 21
0.0
 31
0.0
  0
LINE
  5
DE
330
CD
100
AcDbEntity
  8
0
  6
Continuous
 62
     7
370
    25
100
AcDbLine
 10
480.0
 20
-270.0
 30
0.0
 11
20.0
 21
-270.0
 31
0.0
  0
LINE
  5
DF
330
CD
100
AcDbEntity
  8
0
  6
Continuous
 62
     7
370
    25
100
AcDbLine
 10
20.0
 20
-270.0
 30
0.0
 11
20.0
 21
-330.0
 31
0.0
  0
LINE
  5
E0
330
CD
100
AcDbEntity
  8
0
  6
Continuous
 62
     7
370
    25
100
AcDbLine
 10
0.0
 20
0.0
 30
0.0
 11
500.0
 21
0.0
 31
0.0
  0
LINE
  5
E1
330
CD
100
AcDbEntity
  8
0
  6
Continuous
 62
     7
370
    25
100
AcDbLine
 10
20.0
 20
-330.0
 30
0.0
 11
480.0
 21
-330.0
 31
0.0
  0
LINE
  5
E2
330
CD
100
AcDbEntity
  8
0
  6
Continuous
 62
     7
370
    25
100
AcDbLine
 10
480.0
 20
-330.0
 30
0.0
 11
480.0
 21
-270.0
 31
0.0
  0
VIEWPORT
  5
164
330
CD
100
AcDbEntity
  8
0
100
AcDbViewport
 10
0.0
 20
0.0
 30
0.0
 40
205.6
 41
156.0
 68
     1
 69
     1
 12
250.0
 22
175.0
 13
0.0
 23
0.0
 14
10.0
 24
10.0
 15
10.0
 25
10.0
 16
0.0
 26
0.0
 36
1.0
 17
0.0
 27
0.0
 37
0.0
 42
50.0
 43
0.0
 44
0.0
 45
386.9649805447
 50
0.0
 51
0.0
 72
   100
 90
   557152
  1

281
     0
 71
     1
 74
     0
110
0.0
120
0.0
130
0.0
111
1.0
121
0.0
131
0.0
112
0.0
122
1.0
132
0.0
 79
     0
146
0.0
  0
ENDBLK
  5
D0
330
CD
100
AcDbEntity
  8
0
100
AcDbBlockEnd
  0
BLOCK
  5
E5
330
E3
100
AcDbEntity
  8
0
100
AcDbBlockBegin
  2
*Paper_Space5
 70
     0
 10
0.0
 20
0.0
 30
0.0
  3
*Paper_Space5
  1

  0
LWPOLYLINE
  5
F2
330
E3
100
AcDbEntity
  8
0
  6
Continuous
 62
     7
370
    25
100
AcDbPolyline
 90
       45
 70
   128
 43
0.0
 10
376.5343609818
 20
152.0785698377
 10
378.4213704887
 20
151.1346449416
 10
380.521872385
 20
150.3553581391
 10
382.7931065096
 20
149.7565734622
 10
385.1888370854
 20
149.3504804402
 10
387.6602939466
 20
149.1453459559
 10
390.1571653586
 20
149.1453459559
 10
392.6286222198
 20
149.3504804402
 10
395.0243527956
 20
149.7565734622
 10
397.2955869202
 20
150.3553581391
 10
399.3960888165
 20
151.1346449416
 10
401.2830983234
 20
152.0785698377
 10
402.9182013688
 20
153.1679172386
 10
404.26811197
 20
154.3805111725
 10
405.3053498401
 20
155.691666724
 10
406.0087998071
 20
157.0746925468
 10
406.3641416583
 20
158.5014342237
 10
406.3641416583
 20
159.9428474085
 10
406.0087998071
 20
161.3695890855
 10
405.3053498401
 20
162.7526149083
 10
404.26811197
 20
164.0637704597
 10
402.9182013688
 20
165.2763643937
 10
401.2830983234
 20
166.3657117946
 10
399.3960888165
 20
167.3096366907
 10
397.2955869202
 20
168.0889234932
 10
395.0243527956
 20
168.6877081701
 10
392.6286222198
 20
169.0938011921
 10
390.1571653586
 20
169.2989356764
 10
387.6602939466
 20
169.2989356764
 10
385.1888370854
 20
169.0938011921
 10
382.7931065096
 20
168.6877081701
 10
380.521872385
 20
168.0889234932
 10
378.4213704887
 20
167.3096366907
 10
376.5343609818
 20
166.3657117946
 10
374.8992579364
 20
165.2763643937
 10
373.5493473352
 20
164.0637704597
 10
372.5121094651
 20
162.7526149083
 10
371.8086594981
 20
161.3695890855
 10
371.4533176469
 20
159.9428474085
 10
371.4533176469
 20
158.5014342237
 10
371.8086594981
 20
157.0746925468
 10
372.5121094651
 20
155.691666724
 10
373.5493473352
 20
154.3805111725
 10
374.8992579364
 20
153.1679172386
 10
376.5343609818
 20
152.0785698377
  0
SPLINE
  5
F9
330
E3
100
AcDbEntity
  8
0
  6
Continuous
 62
     7
370
    25
100
AcDbSpline
210
0.0
220
0.0
230
1.0
 70
     8
 71
     3
 72
     9
 73
     5
 74
     0
 42
0.000000001
 43
0.00000001
 40
0.0
 40
0.0
 40
0.0
 40
0.0
 40
0.7995800941775344
 40
0.9999999999999999
 40
0.9999999999999999
 40
0.9999999999999999
 40
0.9999999999999999
 10
297.6667645628582
 20
-15.79904103160654
 30
0.0
 10
298.3948894466286
 20
-16.38909970389516
 30
0.0
 10
299.3055235270323
 20
-17.12706038674026
 30
0.0
 10
299.9728009402959
 20
-17.94398724441448
 30
0.0
 10
300.1065366166197
 20
-18.10771564829338
 30
0.0
  0
SPLINE
  5
FA
330
E3
100
AcDbEntity
  8
0
  6
Continuous
 62
     7
370
    25
100
AcDbSpline
210
0.0
220
0.0
230
1.0
 70
     8
 71
     3
 72
    11
 73
     7
 74
     0
 42
0.000000001
 43
0.00000001
 40
0.0
 40
0.0
 40
0.0
 40
0.0
 40
0.0076150909956223
 40
0.3384100606637461
 40
0.6692050303318696
 40
1.0
 40
1.0
 40
1.0
 40
1.0
 10
286.7459395344338
 20
-10.39480712662152
 30
0.0
 10
286.779778258726
 20
-10.40317124506908
 30
0.0
 10
288.2835508002587
 20
-10.77486763489091
 30
0.0
 10
290.9574188392608
 20
-11.86214147678757
 30
0.0
 10
294.6683572272861
 20
-13.62635795469658
 30
0.0
 10
296.6672954510008
 20
-15.07481333930322
 30
0.0
 10
297.6667645628582
 20
-15.79904103160654
 30
0.0
  0
LINE
  5
FD
330
E3
100
AcDbEntity
  8
0
  6
Continuous
 62
     7
370
    25
100
AcDbLine
 10
353.5533905933
 20
-65.2900899351
 30
0.0
 11
353.5533905933
 21
-204.1020279557
 31
0.0
  0
LINE
  5
FE
330
E3
100
AcDbEntity
  8
0
  6
Continuous
 62
     7
370
    25
100
AcDbLine
 10
353.5533905933
 20
-65.2900899351
 30
0.0
 11
601.0407640086
 21
77.5813296339
 31
0.0
  0
LINE
  5
FF
330
E3
100
AcDbEntity
  8
0
  6
Continuous
 62
     7
370
    25
100
AcDbLine
 10
601.0407640086
 20
77.5813296339
 30
0.0
 11
601.0407640086
 21
-61.2306083867
 31
0.0
  0
LINE
  5
100
330
E3
100
AcDbEntity
  8
0
  6
Continuous
 62
     7
370
    25
100
AcDbLine
 10
353.5533905933
 20
-204.1020279557
 30
0.0
 11
601.0407640086
 21
-61.2306083867
 31
0.0
  0
LINE
  5
101
330
E3
100
AcDbEntity
  8
0
  6
Continuous
 62
     7
370
    25
100
AcDbLine
 10
601.0407640086
 20
77.5813296339
 30
0.0
 11
247.4873734153
 21
281.6833575896
 31
0.0
  0
LINE
  5
102
330
E3
100
AcDbEntity
  8
0
  6
Continuous
 62
     7
370
    25
100
AcDbLine
 10
0.0
 20
138.8119380206
 30
0.0
 11
353.5533905933
 21
-65.2900899351
 31
0.0
  0
LINE
  5
103
330
E3
100
AcDbEntity
  8
0
  6
Continuous
 62
     7
370
    25
100
AcDbLine
 10
247.4873734153
 20
281.6833575896
 30
0.0
 11
0.0
 21
138.8119380206
 31
0.0
  0
LINE
  5
104
330
E3
100
AcDbEntity
  8
0
  6
Continuous
 62
     7
370
    25
100
AcDbLine
 10
353.5533905933
 20
-48.9619276986
 30
0.0
 11
516.1879502662
 21
44.925005161
 31
0.0
  0
LINE
  5
105
330
E3
100
AcDbEntity
  8
0
  6
Continuous
 62
     7
370
    25
100
AcDbLine
 10
516.1879502662
 20
44.925005161
 30
0.0
 11
190.9188309204
 21
232.6988708802
 31
0.0
  0
LINE
  5
106
330
E3
100
AcDbEntity
  8
0
  6
Continuous
 62
     7
370
    25
100
AcDbLine
 10
190.9188309204
 20
232.6988708802
 30
0.0
 11
28.2842712475
 21
138.8119380206
 31
0.0
  0
LINE
  5
107
330
E3
100
AcDbEntity
  8
0
  6
Continuous
 62
     7
370
    25
100
AcDbLine
 10
28.2842712475
 20
138.8119380206
 30
0.0
 11
353.5533905933
 21
-48.9619276986
 31
0.0
  0
LINE
  5
108
330
E3
100
AcDbEntity
  8
0
  6
Continuous
 62
     7
370
    25
100
AcDbLine
 10
0.0
 20
138.8119380206
 30
0.0
 11
0.0
 21
0.0
 31
0.0
  0
LINE
  5
109
330
E3
100
AcDbEntity
  8
0
  6
Continuous
 62
     7
370
    25
100
AcDbLine
 10
0.0
 20
0.0
 30
0.0
 11
353.5533905933
 21
-204.1020279557
 31
0.0
  0
LINE
  5
10A
330
E3
100
AcDbEntity
  8
0
  6
Continuous
 62
     7
370
    25
100
AcDbLine
 10
334.3295303736
 20
-37.864229415
 30
0.0
 11
363.8979643405
 21
-42.9901323876
 31
0.0
  0
LINE
  5
10B
330
E3
100
AcDbEntity
  8
0
  6
Continuous
 62
     7
370
    25
100
AcDbLine
 10
190.9188309204
 20
118.3831572162
 30
0.0
 11
190.9188309204
 21
232.6988708802
 31
0.0
  0
LINE
  5
10C
330
E3
100
AcDbEntity
  8
0
  6
Continuous
 62
     7
370
    25
100
AcDbLine
 10
190.9188309204
 20
118.3831572162
 30
0.0
 11
417.176910129
 21
-12.232851671
 31
0.0
  0
LINE
  5
10D
330
E3
100
AcDbEntity
  8
0
  6
Continuous
 62
     7
370
    25
100
AcDbLine
 10
251.5383042179
 20
9.9301281132
 30
0.0
 11
190.9188309204
 21
118.3831572162
 31
0.0
  0
LINE
  5
10E
330
E3
100
AcDbEntity
  8
0
  6
Continuous
 62
     7
370
    25
100
AcDbLine
 10
127.2953113846
 20
81.6540811886
 30
0.0
 11
190.9188309204
 21
118.3831572162
 31
0.0
  0
ARC
  5
10F
330
E3
100
AcDbEntity
  8
0
  6
Continuous
 62
     7
370
    25
100
AcDbCircle
 10
388.9087296526
 20
125.0508083746
 30
0.0
 40
27.97307773660859
100
AcDbArc
 50
68.3845062247
 51
111.6154937753
  0
VIEWPORT
  5
166
330
E3
100
AcDbEntity
  8
0
100
AcDbViewport
 10
0.0
 20
0.0
 30
0.0
 40
205.6
 41
156.0
 68
     1
 69
     1
 12
250.0
 22
175.0
 13
0.0
 23
0.0
 14
10.0
 24
10.0
 15
10.0
 25
10.0
 16
0.0
 26
0.0
 36
1.0
 17
0.0
 27
0.0
 37
0.0
 42
50.0
 43
0.0
 44
0.0
 45
386.9649805447
 50
0.0
 51
0.0
 72
   100
 90
   557152
  1

281
     0
 71
     1
 74
     0
110
0.0
120
0.0
130
0.0
111
1.0
121
0.0
131
0.0
112
0.0
122
1.0
132
0.0
 79
     0
146
0.0
  0
ENDBLK
  5
E6
330
E3
100
AcDbEntity
  8
0
100
AcDbBlockEnd
  0
BLOCK
  5
112
330
110
100
AcDbEntity
  8
0
100
AcDbBlockBegin
  2
*Paper_Space6
 70
     0
 10
0.0
 20
0.0
 30
0.0
  3
*Paper_Space6
  1

  0
LWPOLYLINE
  5
11F
330
110
100
AcDbEntity
  8
0
  6
Continuous
 62
     7
370
    25
100
AcDbPolyline
 90
       45
 70
   128
 43
0.0
 10
352.9459777921
 20
214.3082618706
 10
355.2317596837
 20
213.7907657213
 10
357.6372696626
 20
213.4460791728
 10
360.1135384824
 20
213.2812190492
 10
362.6101564511
 20
213.2995414271
 10
365.0762996263
 20
213.5006733159
 10
367.4617644449
 20
213.8805202502
 10
369.7179897221
 20
214.4313496419
 10
371.7990452179
 20
215.141948193
 10
373.6625666436
 20
215.9978501662
 10
375.2706180768
 20
216.9816318656
 10
376.5904642277
 20
218.0732663327
 10
377.5952368348
 20
219.2505310378
 10
378.2644816252
 20
220.4894602665
 10
378.584574705
 20
221.7648329924
 10
378.5489999022
 20
223.0506863048
 10
378.1584814172
 20
224.3208439382
 10
377.4209690801
 20
225.5494491461
 10
376.3514765153
 20
226.7114910695
 10
374.9717755074
 20
227.7833138858
 10
373.30995279
 20
228.7430983735
 10
371.3998382814
 20
229.571306088
 10
369.2803164046
 20
230.2510771087
 10
366.994534513
 20
230.768573258
 10
364.5890245342
 20
231.1132598065
 10
362.1127557143
 20
231.2781199301
 10
359.6161377457
 20
231.2597975522
 10
357.1499945704
 20
231.0586656634
 10
354.7645297519
 20
230.6788187291
 10
352.5083044746
 20
230.1279893374
 10
350.4272489788
 20
229.4173907863
 10
348.5637275532
 20
228.5614888131
 10
346.9556761199
 20
227.5777071137
 10
345.635829969
 20
226.4860726466
 10
344.631057362
 20
225.3088079415
 10
343.9618125715
 20
224.0698787128
 10
343.6417194917
 20
222.7945059869
 10
343.6772942945
 20
221.5086526745
 10
344.0678127796
 20
220.2384950411
 10
344.8053251166
 20
219.0098898332
 10
345.8748176814
 20
217.8478479098
 10
347.2545186894
 20
216.7760250935
 10
348.9163414068
 20
215.8162406059
 10
350.8264559154
 20
214.9880328913
 10
352.9459777921
 20
214.3082618706
  0
LINE
  5
127
330
110
100
AcDbEntity
  8
0
  6
Continuous
 62
     7
370
    25
100
AcDbLine
 10
442.2090608387
 20
25.5354937774
 30
0.0
 11
442.2090608387
 21
-120.182947342
 31
0.0
  0
LINE
  5
128
330
110
100
AcDbEntity
  8
0
  6
Continuous
 62
     7
370
    25
100
AcDbLine
 10
442.2090608387
 20
25.5354937774
 30
0.0
 11
605.5524469642
 21
184.9636461589
 31
0.0
  0
LINE
  5
129
330
110
100
AcDbEntity
  8
0
  6
Continuous
 62
     7
370
    25
100
AcDbLine
 10
605.5524469642
 20
184.9636461589
 30
0.0
 11
605.5524469642
 21
39.2452050395
 31
0.0
  0
LINE
  5
12A
330
110
100
AcDbEntity
  8
0
  6
Continuous
 62
     7
370
    25
100
AcDbLine
 10
442.2090608387
 20
-120.182947342
 30
0.0
 11
605.5524469642
 21
39.2452050395
 31
0.0
  0
LINE
  5
12B
330
110
100
AcDbEntity
  8
0
  6
Continuous
 62
     7
370
    25
100
AcDbLine
 10
605.5524469642
 20
184.9636461589
 30
0.0
 11
163.3433861255
 21
305.1465935009
 31
0.0
  0
LINE
  5
12C
330
110
100
AcDbEntity
  8
0
  6
Continuous
 62
     7
370
    25
100
AcDbLine
 10
0.0
 20
145.7184411194
 30
0.0
 11
442.2090608387
 21
25.5354937774
 31
0.0
  0
LINE
  5
12D
330
110
100
AcDbEntity
  8
0
  6
Continuous
 62
     7
370
    25
100
AcDbLine
 10
163.3433861255
 20
305.1465935009
 30
0.0
 11
0.0
 21
145.7184411194
 31
0.0
  0
LINE
  5
12E
330
110
100
AcDbEntity
  8
0
  6
Continuous
 62
     7
370
    25
100
AcDbLine
 10
433.8546061838
 20
39.4529918072
 30
0.0
 11
541.1945456377
 21
144.2200633721
 31
0.0
  0
LINE
  5
12F
330
110
100
AcDbEntity
  8
0
  6
Continuous
 62
     7
370
    25
100
AcDbLine
 10
541.1945456377
 20
144.2200633721
 30
0.0
 11
134.3622096661
 21
254.7883749268
 31
0.0
  0
LINE
  5
130
330
110
100
AcDbEntity
  8
0
  6
Continuous
 62
     7
370
    25
100
AcDbLine
 10
134.3622096661
 20
254.7883749268
 30
0.0
 11
27.0222702121
 21
150.0213033618
 31
0.0
  0
LINE
  5
131
330
110
100
AcDbEntity
  8
0
  6
Continuous
 62
     7
370
    25
100
AcDbLine
 10
27.0222702121
 20
150.0213033618
 30
0.0
 11
433.8546061838
 21
39.4529918072
 31
0.0
  0
LINE
  5
132
330
110
100
AcDbEntity
  8
0
  6
Continuous
 62
     7
370
    25
100
AcDbLine
 10
0.0
 20
145.7184411194
 30
0.0
 11
0.0
 21
0.0
 31
0.0
  0
LINE
  5
133
330
110
100
AcDbEntity
  8
0
  6
Continuous
 62
     7
370
    25
100
AcDbLine
 10
0.0
 20
0.0
 30
0.0
 11
442.2090608387
 21
-120.182947342
 31
0.0
  0
LINE
  5
134
330
110
100
AcDbEntity
  8
0
  6
Continuous
 62
     7
370
    25
100
AcDbLine
 10
163.4060243126
 20
112.9551213476
 30
0.0
 11
134.3622096661
 21
134.7849528285
 31
0.0
  0
LINE
  5
135
330
110
100
AcDbEntity
  8
0
  6
Continuous
 62
     7
370
    25
100
AcDbLine
 10
134.3622096661
 20
134.7849528285
 30
0.0
 11
445.0232565428
 21
50.3539369484
 31
0.0
  0
LINE
  5
136
330
110
100
AcDbEntity
  8
0
  6
Continuous
 62
     7
370
    25
100
AcDbLine
 10
134.3622096661
 20
134.7849528285
 30
0.0
 11
134.3622096661
 21
254.7883749268
 31
0.0
  0
LINE
  5
137
330
110
100
AcDbEntity
  8
0
  6
Continuous
 62
     7
370
    25
100
AcDbLine
 10
123.193559307
 20
123.8840076872
 30
0.0
 11
134.3622096661
 21
134.7849528285
 31
0.0
  0
ARC
  5
138
330
110
100
AcDbEntity
  8
0
  6
Continuous
 62
     7
370
    25
100
AcDbCircle
 10
361.1131470984
 20
180.9891016966
 30
0.0
 40
33.16313399673998
100
AcDbArc
 50
80.6113253658
 51
99.3886746342
  0
VIEWPORT
  5
168
330
110
100
AcDbEntity
  8
0
100
AcDbViewport
 10
0.0
 20
0.0
 30
0.0
 40
205.6
 41
156.0
 68
     1
 69
     1
 12
250.0
 22
175.0
 13
0.0
 23
0.0
 14
10.0
 24
10.0
 15
10.0
 25
10.0
 16
0.0
 26
0.0
 36
1.0
 17
0.0
 27
0.0
 37
0.0
 42
50.0
 43
0.0
 44
0.0
 45
386.9649805447
 50
0.0
 51
0.0
 72
   100
 90
   557152
  1

281
     0
 71
     1
 74
     0
110
0.0
120
0.0
130
0.0
111
1.0
121
0.0
131
0.0
112
0.0
122
1.0
132
0.0
 79
     0
146
0.0
  0
ENDBLK
  5
113
330
110
100
AcDbEntity
  8
0
100
AcDbBlockEnd
  0
BLOCK
  5
13B
330
139
100
AcDbEntity
  8
0
100
AcDbBlockBegin
  2
*Paper_Space7
 70
     0
 10
0.0
 20
0.0
 30
0.0
  3
*Paper_Space7
  1

  0
LWPOLYLINE
  5
148
330
139
100
AcDbEntity
  8
0
  6
Continuous
 62
     7
370
    25
100
AcDbPolyline
 90
       45
 70
   128
 43
0.0
 10
333.7324195007
 20
218.8996055003
 10
336.1250545918
 20
218.6616362753
 10
338.5949357629
 20
218.5395917258
 10
341.091783356
 20
218.535956327
 10
343.5647687542
 20
218.6508040851
 10
345.9635491065
 20
218.8817970309
 10
348.2392921624
 20
219.2242328143
 10
350.3456703559
 20
219.67114043
 10
352.2398039013
 20
220.2134221279
 10
353.8831337019
 20
220.8400386164
 10
355.2422063019
 20
221.5382337907
 10
356.2893549024
 20
222.2937944107
 10
357.0032625776
 20
223.0913394409
 10
357.369396226
 20
223.9146331644
 10
357.3803024224
 20
224.7469156952
 10
357.035759148
 20
225.5712441611
 10
356.3427803104
 20
226.3708376117
 10
355.3154729602
 20
227.1294186301
 10
353.9747501127
 20
227.8315446944
 10
352.3479050186
 20
228.4629225428
 10
350.4680555527
 20
229.0106991428
 10
348.3734700291
 20
229.4637233427
 10
346.1067881686
 20
229.8127728761
 10
343.7141530775
 20
230.0507421011
 10
341.2442719064
 20
230.1727866506
 10
338.7474243134
 20
230.1764220494
 10
336.2744389151
 20
230.0615742913
 10
333.8756585629
 20
229.8305813455
 10
331.599915507
 20
229.4881455622
 10
329.4935373135
 20
229.0412379464
 10
327.5994037681
 20
228.4989562485
 10
325.9560739675
 20
227.8723397601
 10
324.5970013675
 20
227.1741445857
 10
323.549852767
 20
226.4185839657
 10
322.8359450918
 20
225.6210389355
 10
322.4698114434
 20
224.797745212
 10
322.458905247
 20
223.9654626812
 10
322.8034485214
 20
223.1411342153
 10
323.496427359
 20
222.3415407647
 10
324.5237347092
 20
221.5829597463
 10
325.8644575567
 20
220.880833682
 10
327.4913026507
 20
220.2494558336
 10
329.3711521166
 20
219.7016792336
 10
331.4657376403
 20
219.2486550337
 10
333.7324195007
 20
218.8996055003
  0
LINE
  5
14C
330
139
100
AcDbEntity
  8
0
  6
Continuous
 62
     7
370
    25
100
AcDbLine
 10
467.7071733621
 20
101.3519720024
 30
0.0
 11
467.7071733621
 21
-58.9255650713
 31
0.0
  0
LINE
  5
14D
330
139
100
AcDbEntity
  8
0
  6
Continuous
 62
     7
370
    25
100
AcDbLine
 10
467.7071733621
 20
101.3519720024
 30
0.0
 11
591.4508600413
 21
210.4836457609
 31
0.0
  0
LINE
  5
14E
330
139
100
AcDbEntity
  8
0
  6
Continuous
 62
     7
370
    25
100
AcDbLine
 10
591.4508600413
 20
210.4836457609
 30
0.0
 11
591.4508600413
 21
50.2061086872
 31
0.0
  0
LINE
  5
14F
330
139
100
AcDbEntity
  8
0
  6
Continuous
 62
     7
370
    25
100
AcDbLine
 10
467.7071733621
 20
-58.9255650713
 30
0.0
 11
591.4508600413
 21
50.2061086872
 31
0.0
  0
LINE
  5
150
330
139
100
AcDbEntity
  8
0
  6
Continuous
 62
     7
370
    25
100
AcDbLine
 10
591.4508600413
 20
210.4836457609
 30
0.0
 11
123.7436866793
 21
269.4092108322
 31
0.0
  0
LINE
  5
151
330
139
100
AcDbEntity
  8
0
  6
Continuous
 62
     7
370
    25
100
AcDbLine
 10
0.0
 20
160.2775370737
 30
0.0
 11
467.7071733621
 21
101.3519720024
 31
0.0
  0
LINE
  5
152
330
139
100
AcDbEntity
  8
0
  6
Continuous
 62
     7
370
    25
100
AcDbLine
 10
123.7436866793
 20
269.4092108322
 30
0.0
 11
0.0
 21
160.2775370737
 31
0.0
  0
LINE
  5
153
330
139
100
AcDbEntity
  8
0
  6
Continuous
 62
     7
370
    25
100
AcDbLine
 10
456.0699542378
 20
109.9450902486
 30
0.0
 11
537.3872340556
 21
181.660190147
 31
0.0
  0
LINE
  5
154
330
139
100
AcDbEntity
  8
0
  6
Continuous
 62
     7
370
    25
100
AcDbLine
 10
537.3872340556
 20
181.660190147
 30
0.0
 11
107.0966345625
 21
235.8717100127
 31
0.0
  0
LINE
  5
155
330
139
100
AcDbEntity
  8
0
  6
Continuous
 62
     7
370
    25
100
AcDbLine
 10
107.0966345625
 20
235.8717100127
 30
0.0
 11
25.7793547447
 21
164.1566101142
 31
0.0
  0
LINE
  5
156
330
139
100
AcDbEntity
  8
0
  6
Continuous
 62
     7
370
    25
100
AcDbLine
 10
25.7793547447
 20
164.1566101142
 30
0.0
 11
456.0699542378
 21
109.9450902486
 31
0.0
  0
LINE
  5
157
330
139
100
AcDbEntity
  8
0
  6
Continuous
 62
     7
370
    25
100
AcDbLine
 10
0.0
 20
160.2775370737
 30
0.0
 11
0.0
 21
0.0
 31
0.0
  0
LINE
  5
158
330
139
100
AcDbEntity
  8
0
  6
Continuous
 62
     7
370
    25
100
AcDbLine
 10
0.0
 20
0.0
 30
0.0
 11
467.7071733621
 21
-58.9255650713
 31
0.0
  0
LINE
  5
159
330
139
100
AcDbEntity
  8
0
  6
Continuous
 62
     7
370
    25
100
AcDbLine
 10
107.0966345625
 20
153.9115958484
 30
0.0
 11
107.0966345625
 21
235.8717100127
 31
0.0
  0
VIEWPORT
  5
16A
330
139
100
AcDbEntity
  8
0
100
AcDbViewport
 10
0.0
 20
0.0
 30
0.0
 40
205.6
 41
156.0
 68
     1
 69
     1
 12
250.0
 22
175.0
 13
0.0
 23
0.0
 14
10.0
 24
10.0
 15
10.0
 25
10.0
 16
0.0
 26
0.0
 36
1.0
 17
0.0
 27
0.0
 37
0.0
 42
50.0
 43
0.0
 44
0.0
 45
386.9649805447
 50
0.0
 51
0.0
 72
   100
 90
   557152
  1

281
     0
 71
     1
 74
     0
110
0.0
120
0.0
130
0.0
111
1.0
121
0.0
131
0.0
112
0.0
122
1.0
132
0.0
 79
     0
146
0.0
  0
ENDBLK
  5
13C
330
139
100
AcDbEntity
  8
0
100
AcDbBlockEnd
  0
ENDSEC
  0
SECTION
  2
ENTITIES
  0
CIRCLE
  5
73
330
1F
100
AcDbEntity
  8
0
  6
Continuous
 62
     7
370
    25
100
AcDbCircle
 10
250.0
 20
300.0
 30
0.0
 40
17.49999999999983
  0
SPLINE
  5
7E
330
1F
100
AcDbEntity
  8
0
  6
Continuous
 62
     7
370
    25
100
AcDbSpline
210
0.0
220
0.0
230
1.0
 70
     8
 71
     3
 72
    20
 73
    16
 74
     0
 42
0.000000001
 43
0.00000001
 40
0.0
 40
0.0
 40
0.0
 40
0.0
 40
0.0624999997867705
 40
0.0624999997867705
 40
0.1249999997867711
 40
0.1249999997867711
 40
0.1874999997867716
 40
0.1874999997867716
 40
0.2499999997867722
 40
0.2499999997867722
 40
0.3124999997867727
 40
0.3124999997867727
 40
0.3749999997867733
 40
0.3749999997867733
 40
0.4374999997867738
 40
0.4374999997867738
 40
0.4374999997867738
 40
0.4374999997867738
 10
254.8381425673693
 20
166.1262329313686
 30
0.0
 10
256.4317209007777
 20
165.8785332117687
 30
0.0
 10
257.996451541578
 20
165.5093009120686
 30
0.0
 10
261.0176967063207
 20
164.5528516168488
 30
0.0
 10
262.4740815732197
 20
163.9658035869569
 30
0.0
 10
265.2394220820754
 20
162.6112387106746
 30
0.0
 10
266.5483370878748
 20
161.8439131710724
 30
0.0
 10
268.9938293198795
 20
160.1729533920294
 30
0.0
 10
270.1304447987295
 20
159.2694891474394
 30
0.0
 10
272.220708020686
 20
157.3714784118484
 30
0.0
 10
273.1744452836843
 20
156.3770536887142
 30
0.0
 10
274.9005674272989
 20
154.3389524125579
 30
0.0
 10
275.6730618651625
 20
153.2953422481218
 30
0.0
 10
277.0474539589166
 20
151.1944709036343
 30
0.0
 10
277.6494565164975
 20
150.1372282582487
 30
0.0
 10
278.1744565164974
 20
149.0872282582487
 30
0.0
  0
SPLINE
  5
7F
330
1F
100
AcDbEntity
  8
0
  6
Continuous
 62
     7
370
    25
100
AcDbSpline
210
0.0
220
0.0
230
1.0
 70
     8
 71
     3
 72
    14
 73
    10
 74
     0
 42
0.000000001
 43
0.00000001
 40
0.4374999997867738
 40
0.4374999997867738
 40
0.4374999997867738
 40
0.4374999997867738
 40
0.5000000005748495
 40
0.5000000005748495
 40
0.5625000005748491
 40
0.5625000005748491
 40
0.6250000005748484
 40
0.6250000005748484
 40
0.687500000788079
 40
0.687500000788079
 40
0.687500000788079
 40
0.687500000788079
 10
236.1432481723525
 20
163.2885211488158
 30
0.0
 10
237.5259184267804
 20
163.9658035869569
 30
0.0
 10
238.9823032936794
 20
164.5528516168488
 30
0.0
 10
242.003548458422
 20
165.5093009120686
 30
0.0
 10
243.5682790992222
 20
165.8785332117687
 30
0.0
 10
246.7554357660393
 20
166.3739326509686
 30
0.0
 10
248.3776607795316
 20
166.5000000000001
 30
0.0
 10
251.6223392204685
 20
166.5000000000001
 30
0.0
 10
253.2445642339608
 20
166.3739326509686
 30
0.0
 10
254.8381425673693
 20
166.1262329313686
 30
0.0
  0
SPLINE
  5
80
330
1F
100
AcDbEntity
  8
0
  6
Continuous
 62
     7
370
    25
100
AcDbSpline
210
0.0
220
0.0
230
1.0
 70
     8
 71
     3
 72
    16
 73
    12
 74
     0
 42
0.000000001
 43
0.00000001
 40
0.687500000788079
 40
0.687500000788079
 40
0.687500000788079
 40
0.687500000788079
 40
0.7500000007880785
 40
0.7500000007880785
 40
0.8125000007880779
 40
0.8125000007880779
 40
0.8750000007880774
 40
0.8750000007880774
 40
0.9375000007880768
 40
0.9375000007880768
 40
1.0
 40
1.0
 40
1.0
 40
1.0
 10
221.8255434835026
 20
149.0872282582487
 30
0.0
 10
222.3505434835027
 20
150.1372282582487
 30
0.0
 10
222.9525460410834
 20
151.1944709036343
 30
0.0
 10
224.3269381348375
 20
153.2953422481218
 30
0.0
 10
225.0994325727011
 20
154.3389524125579
 30
0.0
 10
226.8255547163158
 20
156.3770536887142
 30
0.0
 10
227.7792919793142
 20
157.3714784118484
 30
0.0
 10
229.8695552012705
 20
159.2694891474394
 30
0.0
 10
231.0061706801205
 20
160.1729533920295
 30
0.0
 10
233.4516629121255
 20
161.8439131710724
 30
0.0
 10
234.7605779179247
 20
162.6112387106746
 30
0.0
 10
236.1432481723525
 20
163.2885211488158
 30
0.0
  0
SPLINE
  5
83
330
1F
100
AcDbEntity
  8
0
  6
Continuous
 62
     7
370
    25
100
AcDbSpline
210
0.0
220
0.0
230
1.0
 70
     8
 71
     3
 72
    20
 73
    16
 74
     0
 42
0.000000001
 43
0.00000001
 40
0.0
 40
0.0
 40
0.0
 40
0.0
 40
0.06249999978697
 40
0.06249999978697
 40
0.1249999997869694
 40
0.1249999997869694
 40
0.1874999997869689
 40
0.1874999997869689
 40
0.2499999997869683
 40
0.2499999997869683
 40
0.3124999997869677
 40
0.3124999997869677
 40
0.3749999997869672
 40
0.3749999997869672
 40
0.4374999997869666
 40
0.4374999997869666
 40
0.4374999997869666
 40
0.4374999997869666
 10
245.1618574326308
 20
103.8737670686314
 30
0.0
 10
243.5682790992223
 20
104.1214667882313
 30
0.0
 10
242.003548458422
 20
104.4906990879314
 30
0.0
 10
238.9823032936794
 20
105.4471483831512
 30
0.0
 10
237.5259184267804
 20
106.0341964130432
 30
0.0
 10
234.7605779179247
 20
107.3887612893255
 30
0.0
 10
233.4516629121254
 20
108.1560868289277
 30
0.0
 10
231.0061706801205
 20
109.8270466079707
 30
0.0
 10
229.8695552012705
 20
110.7305108525606
 30
0.0
 10
227.7792919793142
 20
112.6285215881516
 30
0.0
 10
226.8255547163158
 20
113.6229463112859
 30
0.0
 10
225.0994325727011
 20
115.6610475874422
 30
0.0
 10
224.3269381348375
 20
116.7046577518782
 30
0.0
 10
222.9525460410834
 20
118.8055290963657
 30
0.0
 10
222.3505434835026
 20
119.8627717417513
 30
0.0
 10
221.8255434835026
 20
120.9127717417513
 30
0.0
  0
SPLINE
  5
84
330
1F
100
AcDbEntity
  8
0
  6
Continuous
 62
     7
370
    25
100
AcDbSpline
210
0.0
220
0.0
230
1.0
 70
     8
 71
     3
 72
    14
 73
    10
 74
     0
 42
0.000000001
 43
0.00000001
 40
0.4374999997869666
 40
0.4374999997869666
 40
0.4374999997869666
 40
0.4374999997869666
 40
0.5000000005773768
 40
0.5000000005773768
 40
0.5625000005773774
 40
0.5625000005773774
 40
0.6250000005773779
 40
0.6250000005773779
 40
0.6875000007904069
 40
0.6875000007904069
 40
0.6875000007904069
 40
0.6875000007904069
 10
263.8567518276476
 20
106.7114788511843
 30
0.0
 10
262.4740815732197
 20
106.0341964130432
 30
0.0
 10
261.0176967063207
 20
105.4471483831512
 30
0.0
 10
257.996451541578
 20
104.4906990879313
 30
0.0
 10
256.4317209007778
 20
104.1214667882313
 30
0.0
 10
253.2445642339608
 20
103.6260673490315
 30
0.0
 10
251.6223392204685
 20
103.4999999999999
 30
0.0
 10
248.3776607795315
 20
103.5
 30
0.0
 10
246.7554357660393
 20
103.6260673490315
 30
0.0
 10
245.1618574326308
 20
103.8737670686314
 30
0.0
  0
SPLINE
  5
85
330
1F
100
AcDbEntity
  8
0
  6
Continuous
 62
     7
370
    25
100
AcDbSpline
210
0.0
220
0.0
230
1.0
 70
     8
 71
     3
 72
    16
 73
    12
 74
     0
 42
0.000000001
 43
0.00000001
 40
0.6875000007904069
 40
0.6875000007904069
 40
0.6875000007904069
 40
0.6875000007904069
 40
0.7500000007904074
 40
0.7500000007904074
 40
0.812500000790408
 40
0.812500000790408
 40
0.8750000007904085
 40
0.8750000007904085
 40
0.9375000007904091
 40
0.9375000007904091
 40
1.0
 40
1.0
 40
1.0
 40
1.0
 10
278.1744565164974
 20
120.9127717417513
 30
0.0
 10
277.6494565164973
 20
119.8627717417513
 30
0.0
 10
277.0474539589166
 20
118.8055290963657
 30
0.0
 10
275.6730618651625
 20
116.7046577518782
 30
0.0
 10
274.9005674272989
 20
115.6610475874422
 30
0.0
 10
273.1744452836843
 20
113.6229463112859
 30
0.0
 10
272.2207080206859
 20
112.6285215881516
 30
0.0
 10
270.1304447987295
 20
110.7305108525606
 30
0.0
 10
268.9938293198796
 20
109.8270466079706
 30
0.0
 10
266.5483370878746
 20
108.1560868289276
 30
0.0
 10
265.2394220820755
 20
107.3887612893255
 30
0.0
 10
263.8567518276476
 20
106.7114788511843
 30
0.0
  0
SPLINE
  5
86
330
1F
100
AcDbEntity
  8
0
  6
Continuous
 62
     7
370
    25
100
AcDbSpline
210
0.0
220
0.0
230
1.0
 70
     8
 71
     3
 72
     8
 73
     4
 74
     0
 42
0.000000001
 43
0.00000001
 40
0.0
 40
0.0
 40
0.0
 40
0.0
 40
0.2499999983952553
 40
0.2499999983952553
 40
0.2499999983952553
 40
0.2499999983952553
 10
280.6343429361776
 20
127.6660356648891
 30
0.0
 10
280.0651679851863
 20
125.2885628762809
 30
0.0
 10
279.2244565164974
 20
123.0127717417513
 30
0.0
 10
278.1744565164974
 20
120.9127717417513
 30
0.0
  0
SPLINE
  5
87
330
1F
100
AcDbEntity
  8
0
  6
Continuous
 62
     7
370
    25
100
AcDbSpline
210
0.0
220
0.0
230
1.0
 70
     8
 71
     3
 72
    12
 73
     8
 74
     0
 42
0.000000001
 43
0.00000001
 40
0.2499999983952553
 40
0.2499999983952553
 40
0.2499999983952553
 40
0.2499999983952553
 40
0.4999999983952553
 40
0.4999999983952553
 40
0.7499999983952553
 40
0.7499999983952553
 40
1.0
 40
1.0
 40
1.0
 40
1.0
 10
278.1744565164974
 20
149.0872282582487
 30
0.0
 10
279.2244565164974
 20
146.9872282582487
 30
0.0
 10
280.0651679851863
 20
144.7114371237192
 30
0.0
 10
281.2035178871688
 20
139.9564915465026
 30
0.0
 10
281.5000000000002
 20
137.4787137637477
 30
0.0
 10
281.5000000000001
 20
132.5212862362523
 30
0.0
 10
281.2035178871688
 20
130.0435084534973
 30
0.0
 10
280.6343429361776
 20
127.6660356648891
 30
0.0
  0
SPLINE
  5
88
330
1F
100
AcDbEntity
  8
0
  6
Continuous
 62
     7
370
    25
100
AcDbSpline
210
0.0
220
0.0
230
1.0
 70
     8
 71
     3
 72
     8
 73
     4
 74
     0
 42
0.000000001
 43
0.00000001
 40
0.0
 40
0.0
 40
0.0
 40
0.0
 40
0.2499999983987746
 40
0.2499999983987746
 40
0.2499999983987746
 40
0.2499999983987746
 10
219.3656570638226
 20
142.3339643351109
 30
0.0
 10
219.9348320148139
 20
144.7114371237192
 30
0.0
 10
220.7755434835026
 20
146.9872282582487
 30
0.0
 10
221.8255434835026
 20
149.0872282582487
 30
0.0
  0
SPLINE
  5
89
330
1F
100
AcDbEntity
  8
0
  6
Continuous
 62
     7
370
    25
100
AcDbSpline
210
0.0
220
0.0
230
1.0
 70
     8
 71
     3
 72
    12
 73
     8
 74
     0
 42
0.000000001
 43
0.00000001
 40
0.2499999983987746
 40
0.2499999983987746
 40
0.2499999983987746
 40
0.2499999983987746
 40
0.4999999983987746
 40
0.4999999983987746
 40
0.7499999983987746
 40
0.7499999983987746
 40
1.0
 40
1.0
 40
1.0
 40
1.0
 10
221.8255434835026
 20
120.9127717417513
 30
0.0
 10
220.7755434835026
 20
123.0127717417513
 30
0.0
 10
219.9348320148139
 20
125.2885628762808
 30
0.0
 10
218.7964821128313
 20
130.0435084534974
 30
0.0
 10
218.4999999999999
 20
132.5212862362522
 30
0.0
 10
218.4999999999999
 20
137.4787137637477
 30
0.0
 10
218.7964821128313
 20
139.9564915465026
 30
0.0
 10
219.3656570638226
 20
142.3339643351109
 30
0.0
  0
CIRCLE
  5
8A
330
1F
100
AcDbEntity
  8
0
  6
Continuous
 62
     7
370
    25
100
AcDbCircle
 10
250.0
 20
135.0
 30
0.0
 40
22.49999999999997
  0
LINE
  5
8B
330
1F
100
AcDbEntity
  8
0
  6
Continuous
 62
     7
370
    25
100
AcDbLine
 10
500.0
 20
350.0
 30
0.0
 11
0.0
 21
350.0
 31
0.0
  0
LINE
  5
8C
330
1F
100
AcDbEntity
  8
0
  6
Continuous
 62
     7
370
    25
100
AcDbLine
 10
500.0
 20
0.0
 30
0.0
 11
500.0
 21
350.0
 31
0.0
  0
LINE
  5
8D
330
1F
100
AcDbEntity
  8
0
  6
Continuous
 62
     7
370
    25
100
AcDbLine
 10
0.0
 20
0.0
 30
0.0
 11
500.0
 21
0.0
 31
0.0
  0
LINE
  5
8E
330
1F
100
AcDbEntity
  8
0
  6
Continuous
 62
     7
370
    25
100
AcDbLine
 10
0.0
 20
350.0
 30
0.0
 11
0.0
 21
0.0
 31
0.0
  0
LINE
  5
8F
330
1F
100
AcDbEntity
  8
0
  6
Continuous
 62
     7
370
    25
100
AcDbLine
 10
480.0
 20
250.0
 30
0.0
 11
20.0
 21
250.0
 31
0.0
  0
LINE
  5
90
330
1F
100
AcDbEntity
  8
0
  6
Continuous
 62
     7
370
    25
100
AcDbLine
 10
480.0
 20
20.0
 30
0.0
 11
480.0
 21
250.0
 31
0.0
  0
LINE
  5
91
330
1F
100
AcDbEntity
  8
0
  6
Continuous
 62
     7
370
    25
100
AcDbLine
 10
20.0
 20
20.0
 30
0.0
 11
480.0
 21
20.0
 31
0.0
  0
LINE
  5
92
330
1F
100
AcDbEntity
  8
0
  6
Continuous
 62
     7
370
    25
100
AcDbLine
 10
20.0
 20
250.0
 30
0.0
 11
20.0
 21
20.0
 31
0.0
  0
LINE
  5
93
330
1F
100
AcDbEntity
  8
0
  6
Continuous
 62
     7
370
    25
100
AcDbLine
 10
221.8255434835
 20
149.0872282582
 30
0.0
 11
20.0
 21
250.0
 31
0.0
  0
LINE
  5
94
330
1F
100
AcDbEntity
  8
0
  6
Continuous
 62
     7
370
    25
100
AcDbLine
 10
278.1744565165
 20
149.0872282582
 30
0.0
 11
480.0
 21
250.0
 31
0.0
  0
LINE
  5
95
330
1F
100
AcDbEntity
  8
0
  6
Continuous
 62
     7
370
    25
100
AcDbLine
 10
278.1744565165
 20
120.9127717418
 30
0.0
 11
480.0
 21
20.0
 31
0.0
  0
LINE
  5
96
330
1F
100
AcDbEntity
  8
0
  6
Continuous
 62
     7
370
    25
100
AcDbLine
 10
20.0
 20
20.0
 30
0.0
 11
221.8255434835
 21
120.9127717418
 31
0.0
  0
LINE
  5
9B
330
1B
100
AcDbEntity
 67
     1
  8
0
  6
Continuous
 62
     7
370
    25
100
AcDbLine
 10
0.0
 20
0.0
 30
0.0
 11
500.0
 21
0.0
 31
0.0
  0
LINE
  5
9C
330
1B
100
AcDbEntity
 67
     1
  8
0
  6
Continuous
 62
     7
370
    25
100
AcDbLine
 10
0.0
 20
170.0
 30
0.0
 11
500.0
 21
170.0
 31
0.0
  0
LINE
  5
9D
330
1B
100
AcDbEntity
 67
     1
  8
0
  6
Continuous
 62
     7
370
    25
100
AcDbLine
 10
0.0
 20
170.0
 30
0.0
 11
0.0
 21
0.0
 31
0.0
  0
LINE
  5
9E
330
1B
100
AcDbEntity
 67
     1
  8
0
  6
Continuous
 62
     7
370
    25
100
AcDbLine
 10
500.0
 20
170.0
 30
0.0
 11
500.0
 21
0.0
 31
0.0
  0
VIEWPORT
  5
15A
330
1B
100
AcDbEntity
 67
     1
  8
0
100
AcDbViewport
 10
0.0
 20
0.0
 30
0.0
 40
205.6
 41
156.0
 68
     1
 69
     1
 12
250.0
 22
175.0
 13
0.0
 23
0.0
 14
10.0
 24
10.0
 15
10.0
 25
10.0
 16
0.0
 26
0.0
 36
1.0
 17
0.0
 27
0.0
 37
0.0
 42
50.0
 43
0.0
 44
0.0
 45
386.9649805447
 50
0.0
 51
0.0
 72
   100
 90
   557152
  1

281
     0
 71
     1
 74
     0
110
0.0
120
0.0
130
0.0
111
1.0
121
0.0
131
0.0
112
0.0
122
1.0
132
0.0
 79
     0
146
0.0
  0
ENDSEC
  0
SECTION
  2
OBJECTS
  0
DICTIONARY
  5
C
330
0
100
AcDbDictionary
281
     1
  3
ACAD_GROUP
350
D
  3
ACAD_LAYOUT
350
1A
  3
ACAD_MLINESTYLE
350
17
  3
ACAD_PLOTSETTINGS
350
19
  3
ACAD_PLOTSTYLENAME
350
E
  3
ACAD_SCALELIST
350
47
  0
DICTIONARY
  5
D
102
{ACAD_REACTORS
330
C
102
}
330
C
100
AcDbDictionary
281
     1
  0
DICTIONARY
  5
1A
102
{ACAD_REACTORS
330
C
102
}
330
C
100
AcDbDictionary
281
     1
  3
_Dimetrisch
350
13A
  3
_Isometrisch
350
E4
  3
_Links
350
C2
  3
_Normal auf
350
A8
  3
_Rechts
350
26
  3
_Rückseite
350
B4
  3
_Trimetrisch
350
111
  3
_Unten
350
CE
  3
_Vorderseite
350
1E
  3
Model
350
22
  0
DICTIONARY
  5
17
102
{ACAD_REACTORS
330
C
102
}
330
C
100
AcDbDictionary
281
     1
  3
Standard
350
18
  0
DICTIONARY
  5
19
102
{ACAD_REACTORS
330
C
102
}
330
C
100
AcDbDictionary
281
     1
  0
ACDBDICTIONARYWDFLT
  5
E
102
{ACAD_REACTORS
330
C
102
}
330
C
100
AcDbDictionary
281
     1
  3
Normal
350
F
100
AcDbDictionaryWithDefault
340
F
  0
DICTIONARY
  5
47
102
{ACAD_REACTORS
330
C
102
}
330
C
100
AcDbDictionary
281
     1
  3
A0
350
48
  3
A1
350
49
  3
A2
350
4A
  3
A3
350
4B
  3
A4
350
4C
  3
A5
350
4D
  3
A6
350
4E
  3
A7
350
4F
  3
A8
350
50
  3
A9
350
51
  3
B0
350
52
  3
B1
350
53
  3
B2
350
54
  3
B3
350
55
  3
B4
350
56
  3
B5
350
57
  3
B6
350
58
  3
B7
350
59
  3
B8
350
5A
  3
B9
350
5B
  3
C0
350
5C
  3
C1
350
5D
  3
C2
350
5E
  3
C3
350
5F
  3
C4
350
60
  3
C5
350
61
  3
C6
350
62
  3
C7
350
63
  3
C8
350
64
  3
C9
350
65
  3
D0
350
66
  3
D1
350
67
  3
D2
350
68
  0
LAYOUT
  5
13A
102
{ACAD_REACTORS
330
1A
102
}
330
1A
100
AcDbPlotSettings
  1

  2
none_device
  4
ISO_A4_(210.00_x_297.00_MM)
  6

 40
7.5
 41
20.0
 42
7.5
 43
20.0
 44
210.0
 45
297.0
 46
0.0
 47
0.0
 48
0.0
 49
0.0
140
0.0
141
0.0
142
1.0
143
1.9455252918
 70
   688
 72
     1
 73
     1
 74
     1
  7

 75
     0
147
0.514
148
0.0
149
0.0
100
AcDbLayout
  1
_Dimetrisch
 70
     1
 71
     9
 10
0.0
 20
0.0
 11
0.0
 21
0.0
 12
0.0
 22
0.0
 32
0.0
 14
0.0
 24
0.0
 34
0.0
 15
0.0
 25
0.0
 35
0.0
146
0.0
 13
0.0
 23
0.0
 33
0.0
 16
1.0
 26
0.0
 36
0.0
 17
0.0
 27
1.0
 37
0.0
 76
     0
330
139
331
16A
  0
LAYOUT
  5
E4
102
{ACAD_REACTORS
330
1A
102
}
330
1A
100
AcDbPlotSettings
  1

  2
none_device
  4
ISO_A4_(210.00_x_297.00_MM)
  6

 40
7.5
 41
20.0
 42
7.5
 43
20.0
 44
210.0
 45
297.0
 46
0.0
 47
0.0
 48
0.0
 49
0.0
140
0.0
141
0.0
142
1.0
143
1.9455252918
 70
   688
 72
     1
 73
     1
 74
     1
  7

 75
     0
147
0.514
148
0.0
149
0.0
100
AcDbLayout
  1
_Isometrisch
 70
     1
 71
     7
 10
0.0
 20
0.0
 11
0.0
 21
0.0
 12
0.0
 22
0.0
 32
0.0
 14
0.0
 24
0.0
 34
0.0
 15
0.0
 25
0.0
 35
0.0
146
0.0
 13
0.0
 23
0.0
 33
0.0
 16
1.0
 26
0.0
 36
0.0
 17
0.0
 27
1.0
 37
0.0
 76
     0
330
E3
331
166
  0
LAYOUT
  5
C2
102
{ACAD_REACTORS
330
1A
102
}
330
1A
100
AcDbPlotSettings
  1

  2
none_device
  4
ISO_A4_(210.00_x_297.00_MM)
  6

 40
7.5
 41
20.0
 42
7.5
 43
20.0
 44
210.0
 45
297.0
 46
0.0
 47
0.0
 48
0.0
 49
0.0
140
0.0
141
0.0
142
1.0
143
1.9455252918
 70
   688
 72
     1
 73
     1
 74
     1
  7

 75
     0
147
0.514
148
0.0
149
0.0
100
AcDbLayout
  1
_Links
 70
     1
 71
     5
 10
0.0
 20
0.0
 11
0.0
 21
0.0
 12
0.0
 22
0.0
 32
0.0
 14
0.0
 24
0.0
 34
0.0
 15
0.0
 25
0.0
 35
0.0
146
0.0
 13
0.0
 23
0.0
 33
0.0
 16
1.0
 26
0.0
 36
0.0
 17
0.0
 27
1.0
 37
0.0
 76
     0
330
C1
331
162
  0
LAYOUT
  5
A8
102
{ACAD_REACTORS
330
1A
102
}
330
1A
100
AcDbPlotSettings
  1

  2
none_device
  4
ISO_A4_(210.00_x_297.00_MM)
  6

 40
7.5
 41
20.0
 42
7.5
 43
20.0
 44
210.0
 45
297.0
 46
0.0
 47
0.0
 48
0.0
 49
0.0
140
0.0
141
0.0
142
1.0
143
1.9455252918
 70
   688
 72
     1
 73
     1
 74
     1
  7

 75
     0
147
0.514
148
0.0
149
0.0
100
AcDbLayout
  1
_Normal auf
 70
     1
 71
     3
 10
0.0
 20
0.0
 11
0.0
 21
0.0
 12
0.0
 22
0.0
 32
0.0
 14
0.0
 24
0.0
 34
0.0
 15
0.0
 25
0.0
 35
0.0
146
0.0
 13
0.0
 23
0.0
 33
0.0
 16
1.0
 26
0.0
 36
0.0
 17
0.0
 27
1.0
 37
0.0
 76
     0
330
A7
331
15E
  0
LAYOUT
  5
26
102
{ACAD_REACTORS
330
1A
102
}
330
1A
100
AcDbPlotSettings
  1

  2
none_device
  4
ISO_A4_(210.00_x_297.00_MM)
  6

 40
7.5
 41
20.0
 42
7.5
 43
20.0
 44
210.0
 45
297.0
 46
0.0
 47
0.0
 48
0.0
 49
0.0
140
0.0
141
0.0
142
1.0
143
1.9455252918
 70
   688
 72
     1
 73
     1
 74
     1
  7

 75
     0
147
0.514
148
0.0
149
0.0
100
AcDbLayout
  1
_Rechts
 70
     1
 71
     2
 10
0.0
 20
0.0
 11
0.0
 21
0.0
 12
0.0
 22
0.0
 32
0.0
 14
0.0
 24
0.0
 34
0.0
 15
0.0
 25
0.0
 35
0.0
146
0.0
 13
0.0
 23
0.0
 33
0.0
 16
1.0
 26
0.0
 36
0.0
 17
0.0
 27
1.0
 37
0.0
 76
     0
330
23
331
15C
  0
LAYOUT
  5
B4
102
{ACAD_REACTORS
330
1A
102
}
330
1A
100
AcDbPlotSettings
  1

  2
none_device
  4
ISO_A4_(210.00_x_297.00_MM)
  6

 40
7.5
 41
20.0
 42
7.5
 43
20.0
 44
210.0
 45
297.0
 46
0.0
 47
0.0
 48
0.0
 49
0.0
140
0.0
141
0.0
142
1.0
143
1.9455252918
 70
   688
 72
     1
 73
     1
 74
     1
  7

 75
     0
147
0.514
148
0.0
149
0.0
100
AcDbLayout
  1
_Rückseite
 70
     1
 71
     4
 10
0.0
 20
0.0
 11
0.0
 21
0.0
 12
0.0
 22
0.0
 32
0.0
 14
0.0
 24
0.0
 34
0.0
 15
0.0
 25
0.0
 35
0.0
146
0.0
 13
0.0
 23
0.0
 33
0.0
 16
1.0
 26
0.0
 36
0.0
 17
0.0
 27
1.0
 37
0.0
 76
     0
330
B3
331
160
  0
LAYOUT
  5
111
102
{ACAD_REACTORS
330
1A
102
}
330
1A
100
AcDbPlotSettings
  1

  2
none_device
  4
ISO_A4_(210.00_x_297.00_MM)
  6

 40
7.5
 41
20.0
 42
7.5
 43
20.0
 44
210.0
 45
297.0
 46
0.0
 47
0.0
 48
0.0
 49
0.0
140
0.0
141
0.0
142
1.0
143
1.9455252918
 70
   688
 72
     1
 73
     1
 74
     1
  7

 75
     0
147
0.514
148
0.0
149
0.0
100
AcDbLayout
  1
_Trimetrisch
 70
     1
 71
     8
 10
0.0
 20
0.0
 11
0.0
 21
0.0
 12
0.0
 22
0.0
 32
0.0
 14
0.0
 24
0.0
 34
0.0
 15
0.0
 25
0.0
 35
0.0
146
0.0
 13
0.0
 23
0.0
 33
0.0
 16
1.0
 26
0.0
 36
0.0
 17
0.0
 27
1.0
 37
0.0
 76
     0
330
110
331
168
  0
LAYOUT
  5
CE
102
{ACAD_REACTORS
330
1A
102
}
330
1A
100
AcDbPlotSettings
  1

  2
none_device
  4
ISO_A4_(210.00_x_297.00_MM)
  6

 40
7.5
 41
20.0
 42
7.5
 43
20.0
 44
210.0
 45
297.0
 46
0.0
 47
0.0
 48
0.0
 49
0.0
140
0.0
141
0.0
142
1.0
143
1.9455252918
 70
   688
 72
     1
 73
     1
 74
     1
  7

 75
     0
147
0.514
148
0.0
149
0.0
100
AcDbLayout
  1
_Unten
 70
     1
 71
     6
 10
0.0
 20
0.0
 11
0.0
 21
0.0
 12
0.0
 22
0.0
 32
0.0
 14
0.0
 24
0.0
 34
0.0
 15
0.0
 25
0.0
 35
0.0
146
0.0
 13
0.0
 23
0.0
 33
0.0
 16
1.0
 26
0.0
 36
0.0
 17
0.0
 27
1.0
 37
0.0
 76
     0
330
CD
331
164
  0
LAYOUT
  5
1E
102
{ACAD_REACTORS
330
1A
102
}
330
1A
100
AcDbPlotSettings
  1

  2
none_device
  4
ISO_A4_(210.00_x_297.00_MM)
  6

 40
7.5
 41
20.0
 42
7.5
 43
20.0
 44
210.0
 45
297.0
 46
0.0
 47
0.0
 48
0.0
 49
0.0
140
0.0
141
0.0
142
1.0
143
1.9455252918
 70
   688
 72
     1
 73
     1
 74
     1
  7

 75
     0
147
0.514
148
0.0
149
0.0
100
AcDbLayout
  1
_Vorderseite
 70
     1
 71
     1
 10
-38.9105058366
 20
-14.5914396887
 11
538.9105058366
 21
393.9688715953
 12
0.0
 22
0.0
 32
0.0
 14
0.0
 24
0.0
 34
0.0
 15
500.0
 25
170.0
 35
0.0
146
0.0
 13
0.0
 23
0.0
 33
0.0
 16
1.0
 26
0.0
 36
0.0
 17
0.0
 27
1.0
 37
0.0
 76
     0
330
1B
331
15A
  0
LAYOUT
  5
22
102
{ACAD_REACTORS
330
1A
102
}
330
1A
100
AcDbPlotSettings
  1

  2
none_device
  4
ANSI_A_(11.00_x_8.50_Inches)
  6

 40
6.35
 41
19.05
 42
6.35000508
 43
19.05000254
 44
279.4
 45
215.9
 46
-4.95300254
 47
-7.91210127
 48
0.0
 49
0.0
140
0.0
141
0.0
142
0.02178
143
1.0
 70
  1696
 72
     0
 73
     0
 74
     0
  7

 75
     0
147
0.0179189148
148
-1300.4909072572
149
0.0
100
AcDbLayout
  1
Model
 70
     1
 71
     0
 10
0.0
 20
0.0
 11
420.0
 21
297.0
 12
0.0
 22
0.0
 32
0.0
 14
0.0
 24
0.0
 34
0.0
 15
500.0
 25
350.0
 35
0.0
146
0.0
 13
0.0
 23
0.0
 33
0.0
 16
1.0
 26
0.0
 36
0.0
 17
0.0
 27
1.0
 37
0.0
 76
     0
330
1F
331
29
  0
MLINESTYLE
  5
18
102
{ACAD_REACTORS
330
17
102
}
330
17
100
AcDbMlineStyle
  2
Standard
 70
     0
  3

 62
   256
 51
90.0
 52
90.0
 71
     2
 49
0.5
 62
   256
  6
BYLAYER
 49
-0.5
 62
   256
  6
BYLAYER
  0
ACDBPLACEHOLDER
  5
F
102
{ACAD_REACTORS
330
E
102
}
330
E
  0
SCALE
  5
48
102
{ACAD_REACTORS
330
47
102
}
330
47
100
AcDbScale
 70
     0
300
1:1
140
1.0
141
1.0
290
     1
  0
SCALE
  5
49
102
{ACAD_REACTORS
330
47
102
}
330
47
100
AcDbScale
 70
     0
300
1:2
140
1.0
141
2.0
290
     0
  0
SCALE
  5
4A
102
{ACAD_REACTORS
330
47
102
}
330
47
100
AcDbScale
 70
     0
300
1:4
140
1.0
141
4.0
290
     0
  0
SCALE
  5
4B
102
{ACAD_REACTORS
330
47
102
}
330
47
100
AcDbScale
 70
     0
300
1:5
140
1.0
141
5.0
290
     0
  0
SCALE
  5
4C
102
{ACAD_REACTORS
330
47
102
}
330
47
100
AcDbScale
 70
     0
300
1:8
140
1.0
141
8.0
290
     0
  0
SCALE
  5
4D
102
{ACAD_REACTORS
330
47
102
}
330
47
100
AcDbScale
 70
     0
300
1:10
140
1.0
141
10.0
290
     0
  0
SCALE
  5
4E
102
{ACAD_REACTORS
330
47
102
}
330
47
100
AcDbScale
 70
     0
300
1:16
140
1.0
141
16.0
290
     0
  0
SCALE
  5
4F
102
{ACAD_REACTORS
330
47
102
}
330
47
100
AcDbScale
 70
     0
300
1:20
140
1.0
141
20.0
290
     0
  0
SCALE
  5
50
102
{ACAD_REACTORS
330
47
102
}
330
47
100
AcDbScale
 70
     0
300
1:30
140
1.0
141
30.0
290
     0
  0
SCALE
  5
51
102
{ACAD_REACTORS
330
47
102
}
330
47
100
AcDbScale
 70
     0
300
1:40
140
1.0
141
40.0
290
     0
  0
SCALE
  5
52
102
{ACAD_REACTORS
330
47
102
}
330
47
100
AcDbScale
 70
     0
300
1:50
140
1.0
141
50.0
290
     0
  0
SCALE
  5
53
102
{ACAD_REACTORS
330
47
102
}
330
47
100
AcDbScale
 70
     0
300
1:100
140
1.0
141
100.0
290
     0
  0
SCALE
  5
54
102
{ACAD_REACTORS
330
47
102
}
330
47
100
AcDbScale
 70
     0
300
2:1
140
2.0
141
1.0
290
     0
  0
SCALE
  5
55
102
{ACAD_REACTORS
330
47
102
}
330
47
100
AcDbScale
 70
     0
300
4:1
140
4.0
141
1.0
290
     0
  0
SCALE
  5
56
102
{ACAD_REACTORS
330
47
102
}
330
47
100
AcDbScale
 70
     0
300
8:1
140
8.0
141
1.0
290
     0
  0
SCALE
  5
57
102
{ACAD_REACTORS
330
47
102
}
330
47
100
AcDbScale
 70
     0
300
10:1
140
10.0
141
1.0
290
     0
  0
SCALE
  5
58
102
{ACAD_REACTORS
330
47
102
}
330
47
100
AcDbScale
 70
     0
300
100:1
140
100.0
141
1.0
290
     0
  0
SCALE
  5
59
102
{ACAD_REACTORS
330
47
102
}
330
47
100
AcDbScale
 70
     0
300
1/128" = 1'-0"
140
0.0078125
141
12.0
290
     0
  0
SCALE
  5
5A
102
{ACAD_REACTORS
330
47
102
}
330
47
100
AcDbScale
 70
     0
300
1/64" = 1'-0"
140
0.015625
141
12.0
290
     0
  0
SCALE
  5
5B
102
{ACAD_REACTORS
330
47
102
}
330
47
100
AcDbScale
 70
     0
300
1/32" = 1'-0"
140
0.03125
141
12.0
290
     0
  0
SCALE
  5
5C
102
{ACAD_REACTORS
330
47
102
}
330
47
100
AcDbScale
 70
     0
300
1/16" = 1'-0"
140
0.0625
141
12.0
290
     0
  0
SCALE
  5
5D
102
{ACAD_REACTORS
330
47
102
}
330
47
100
AcDbScale
 70
     0
300
3/32" = 1'-0"
140
0.09375
141
12.0
290
     0
  0
SCALE
  5
5E
102
{ACAD_REACTORS
330
47
102
}
330
47
100
AcDbScale
 70
     0
300
1/8" = 1'-0"
140
0.125
141
12.0
290
     0
  0
SCALE
  5
5F
102
{ACAD_REACTORS
330
47
102
}
330
47
100
AcDbScale
 70
     0
300
3/16" = 1'-0"
140
0.1875
141
12.0
290
     0
  0
SCALE
  5
60
102
{ACAD_REACTORS
330
47
102
}
330
47
100
AcDbScale
 70
     0
300
1/4" = 1'-0"
140
0.25
141
12.0
290
     0
  0
SCALE
  5
61
102
{ACAD_REACTORS
330
47
102
}
330
47
100
AcDbScale
 70
     0
300
3/8" = 1'-0"
140
0.375
141
12.0
290
     0
  0
SCALE
  5
62
102
{ACAD_REACTORS
330
47
102
}
330
47
100
AcDbScale
 70
     0
300
1/2" = 1'-0"
140
0.5
141
12.0
290
     0
  0
SCALE
  5
63
102
{ACAD_REACTORS
330
47
102
}
330
47
100
AcDbScale
 70
     0
300
3/4" = 1'-0"
140
0.75
141
12.0
290
     0
  0
SCALE
  5
64
102
{ACAD_REACTORS
330
47
102
}
330
47
100
AcDbScale
 70
     0
300
1" = 1'-0"
140
1.0
141
12.0
290
     0
  0
SCALE
  5
65
102
{ACAD_REACTORS
330
47
102
}
330
47
100
AcDbScale
 70
     0
300
1-1/2" = 1'-0"
140
1.5
141
12.0
290
     0
  0
SCALE
  5
66
102
{ACAD_REACTORS
330
47
102
}
330
47
100
AcDbScale
 70
     0
300
3" = 1'-0"
140
3.0
141
12.0
290
     0
  0
SCALE
  5
67
102
{ACAD_REACTORS
330
47
102
}
330
47
100
AcDbScale
 70
     0
300
6" = 1'-0"
140
6.0
141
12.0
290
     0
  0
SCALE
  5
68
102
{ACAD_REACTORS
330
47
102
}
330
47
100
AcDbScale
 70
     0
300
1'-0" = 1'-0"
140
12.0
141
12.0
290
     0
  0
ENDSEC
  0
EOF
