  0
SECTION
  2
HEADER
  9
$ACADVER
  1
AC1021
  9
$ACADMAINTVER
 70
    25
  9
$DWGCODEPAGE
  3
ANSI_1252
  9
$INSBASE
 10
0.0
 20
0.0
 30
0.0
  9
$EXTMIN
 10
-284.8443779256
 20
-188.5380169182
 30
0.0
  9
$EXTMAX
 10
284.8443779256
 20
164.4371592331
 30
0.0
  9
$LIMMIN
 10
0.0
 20
0.0
  9
$LIMMAX
 10
420.0
 20
297.0
  9
$ORTHOMODE
 70
     0
  9
$REGENMODE
 70
     1
  9
$FILLMODE
 70
     1
  9
$QTEXTMODE
 70
     0
  9
$MIRRTEXT
 70
     1
  9
$LTSCALE
 40
1.0
  9
$ATTMODE
 70
     1
  9
$TEXTSIZE
 40
3.5
  9
$TRACEWID
 40
1.0
  9
$TEXTSTYLE
  7
Standard
  9
$CLAYER
  8
0
  9
$CELTYPE
  6
ByLayer
  9
$CECOLOR
 62
   256
  9
$CELTSCALE
 40
1.0
  9
$DISPSILH
 70
     0
  9
$DIMSCALE
 40
1.0
  9
$DIMASZ
 40
6.0
  9
$DIMEXO
 40
1.0
  9
$DIMDLI
 40
3.75
  9
$DIMRND
 40
0.0
  9
$DIMDLE
 40
0.0
  9
$DIMEXE
 40
1.0
  9
$DIMTP
 40
0.0
  9
$DIMTM
 40
0.0
  9
$DIMTXT
 40
3.5
  9
$DIMCEN
 40
2.5
  9
$DIMTSZ
 40
0.0
  9
$DIMTOL
 70
     0
  9
$DIMLIM
 70
     0
  9
$DIMTIH
 70
     1
  9
$DIMTOH
 70
     1
  9
$DIMSE1
 70
     0
  9
$DIMSE2
 70
     0
  9
$DIMTAD
 70
     1
  9
$DIMZIN
 70
     0
  9
$DIMBLK
  1

  9
$DIMASO
 70
     1
  9
$DIMSHO
 70
     1
  9
$DIMPOST
  1

  9
$DIMAPOST
  1

  9
$DIMALT
 70
     0
  9
$DIMALTD
 70
     3
  9
$DIMALTF
 40
0.0393700787
  9
$DIMLFAC
 40
1.0
  9
$DIMTOFL
 70
     1
  9
$DIMTVP
 40
0.0
  9
$DIMTIX
 70
     0
  9
$DIMSOXD
 70
     0
  9
$DIMSAH
 70
     0
  9
$DIMBLK1
  1

  9
$DIMBLK2
  1

  9
$DIMSTYLE
  2
ISO-25
  9
$DIMCLRD
 70
     0
  9
$DIMCLRE
 70
     0
  9
$DIMCLRT
 70
     0
  9
$DIMTFAC
 40
1.0
  9
$DIMGAP
 40
1.524
  9
$DIMJUST
 70
     0
  9
$DIMSD1
 70
     0
  9
$DIMSD2
 70
     0
  9
$DIMTOLJ
 70
     0
  9
$DIMTZIN
 70
     0
  9
$DIMALTZ
 70
     0
  9
$DIMALTTZ
 70
     0
  9
$DIMUPT
 70
     0
  9
$DIMDEC
 70
     2
  9
$DIMTDEC
 70
     2
  9
$DIMALTU
 70
     2
  9
$DIMALTTD
 70
     3
  9
$DIMTXSTY
  7
Standard
  9
$DIMAUNIT
 70
     0
  9
$DIMADEC
 70
     2
  9
$DIMALTRND
 40
0.0
  9
$DIMAZIN
 70
     0
  9
$DIMDSEP
 70
    44
  9
$DIMATFIT
 70
     3
  9
$DIMFRAC
 70
     0
  9
$DIMLDRBLK
  1

  9
$DIMLUNIT
 70
     2
  9
$DIMLWD
 70
    -2
  9
$DIMLWE
 70
    -2
  9
$DIMTMOVE
 70
     0
  9
$DIMFXL
 40
1.0
  9
$DIMFXLON
 70
     0
  9
$DIMJOGANG
 40
0.7853981634
  9
$DIMTFILL
 70
     0
  9
$DIMTFILLCLR
 70
     0
  9
$DIMARCSYM
 70
     0
  9
$DIMLTYPE
  6

  9
$DIMLTEX1
  6

  9
$DIMLTEX2
  6

  9
$LUNITS
 70
     2
  9
$LUPREC
 70
     2
  9
$SKETCHINC
 40
1.0
  9
$FILLETRAD
 40
10.0
  9
$AUNITS
 70
     0
  9
$AUPREC
 70
     2
  9
$MENU
  1
.
  9
$ELEVATION
 40
0.0
  9
$PELEVATION
 40
0.0
  9
$THICKNESS
 40
0.0
  9
$LIMCHECK
 70
     0
  9
$CHAMFERA
 40
0.0
  9
$CHAMFERB
 40
0.0
  9
$CHAMFERC
 40
0.0
  9
$CHAMFERD
 40
0.0
  9
$SKPOLY
 70
     0
  9
$TDCREATE
 40
2458225.569822917
  9
$TDUCREATE
 40
2458225.486489583
  9
$TDUPDATE
 40
2458225.569850822
  9
$TDUUPDATE
 40
2458225.486517488
  9
$TDINDWG
 40
0.0000000116
  9
$TDUSRTIMER
 40
0.0000000116
  9
$USRTIMER
 70
     1
  9
$ANGBASE
 50
0.0
  9
$ANGDIR
 70
     0
  9
$PDMODE
 70
     0
  9
$PDSIZE
 40
-1.0
  9
$PLINEWID
 40
0.0
  9
$SPLFRAME
 70
     0
  9
$SPLINETYPE
 70
     6
  9
$SPLINESEGS
 70
     8
  9
$HANDSEED
  5
143
  9
$SURFTAB1
 70
     6
  9
$SURFTAB2
 70
     6
  9
$SURFTYPE
 70
     6
  9
$SURFU
 70
     6
  9
$SURFV
 70
     6
  9
$UCSBASE
  2

  9
$UCSNAME
  2

  9
$UCSORG
 10
0.0
 20
0.0
 30
0.0
  9
$UCSXDIR
 10
1.0
 20
0.0
 30
0.0
  9
$UCSYDIR
 10
0.0
 20
1.0
 30
0.0
  9
$UCSORTHOREF
  2

  9
$UCSORTHOVIEW
 70
     0
  9
$UCSORGTOP
 10
0.0
 20
0.0
 30
0.0
  9
$UCSORGBOTTOM
 10
0.0
 20
0.0
 30
0.0
  9
$UCSORGLEFT
 10
0.0
 20
0.0
 30
0.0
  9
$UCSORGRIGHT
 10
0.0
 20
0.0
 30
0.0
  9
$UCSORGFRONT
 10
0.0
 20
0.0
 30
0.0
  9
$UCSORGBACK
 10
0.0
 20
0.0
 30
0.0
  9
$PUCSBASE
  2

  9
$PUCSNAME
  2

  9
$PUCSORG
 10
0.0
 20
0.0
 30
0.0
  9
$PUCSXDIR
 10
1.0
 20
0.0
 30
0.0
  9
$PUCSYDIR
 10
0.0
 20
1.0
 30
0.0
  9
$PUCSORTHOREF
  2

  9
$PUCSORTHOVIEW
 70
     0
  9
$PUCSORGTOP
 10
0.0
 20
0.0
 30
0.0
  9
$PUCSORGBOTTOM
 10
0.0
 20
0.0
 30
0.0
  9
$PUCSORGLEFT
 10
0.0
 20
0.0
 30
0.0
  9
$PUCSORGRIGHT
 10
0.0
 20
0.0
 30
0.0
  9
$PUCSORGFRONT
 10
0.0
 20
0.0
 30
0.0
  9
$PUCSORGBACK
 10
0.0
 20
0.0
 30
0.0
  9
$USERI1
 70
     0
  9
$USERI2
 70
     0
  9
$USERI3
 70
     0
  9
$USERI4
 70
     0
  9
$USERI5
 70
     0
  9
$USERR1
 40
0.0
  9
$USERR2
 40
0.0
  9
$USERR3
 40
0.0
  9
$USERR4
 40
0.0
  9
$USERR5
 40
0.0
  9
$WORLDVIEW
 70
     1
  9
$SHADEDGE
 70
     3
  9
$SHADEDIF
 70
    70
  9
$TILEMODE
 70
     1
  9
$MAXACTVP
 70
    64
  9
$PINSBASE
 10
0.0
 20
0.0
 30
0.0
  9
$PLIMCHECK
 70
     0
  9
$PEXTMIN
 10
-342.5
 20
-212.5
 30
0.0
  9
$PEXTMAX
 10
342.5
 20
212.5
 30
0.0
  9
$PLIMMIN
 10
-395.8073929961
 20
-232.4902723735
  9
$PLIMMAX
 10
395.8073929961
 20
327.2373540856
  9
$UNITMODE
 70
     0
  9
$VISRETAIN
 70
     1
  9
$PLINEGEN
 70
     0
  9
$PSLTSCALE
 70
     1
  9
$TREEDEPTH
 70
  3020
  9
$CMLSTYLE
  2
Standard
  9
$CMLJUST
 70
     0
  9
$CMLSCALE
 40
20.0
  9
$PROXYGRAPHICS
 70
     1
  9
$MEASUREMENT
 70
     1
  9
$CELWEIGHT
370
    -1
  9
$ENDCAPS
280
     0
  9
$JOINSTYLE
280
     0
  9
$LWDISPLAY
290
     1
  9
$INSUNITS
 70
     4
  9
$HYPERLINKBASE
  1

  9
$STYLESHEET
  1

  9
$XEDIT
290
     1
  9
$CEPSNTYPE
380
     0
  9
$PSTYLEMODE
290
     1
  9
$FINGERPRINTGUID
  2
{45B75872-BFEB-4ED8-A9E0-D03AF8027D29}
  9
$VERSIONGUID
  2
{FAEB1C32-E019-11D5-929B-00C0DF256EC4}
  9
$EXTNAMES
290
     1
  9
$PSVPSCALE
 40
0.0
  9
$OLESTARTUP
290
     0
  9
$SORTENTS
280
   127
  9
$INDEXCTL
280
     0
  9
$HIDETEXT
280
     1
  9
$XCLIPFRAME
290
     0
  9
$HALOGAP
280
     0
  9
$OBSCOLOR
 70
   257
  9
$OBSLTYPE
280
     0
  9
$INTERSECTIONDISPLAY
280
     0
  9
$INTERSECTIONCOLOR
 70
   257
  9
$DIMASSOC
280
     2
  9
$PROJECTNAME
  1

  9
$CAMERADISPLAY
290
     0
  9
$LENSLENGTH
 40
50.0
  9
$CAMERAHEIGHT
 40
0.0
  9
$STEPSPERSEC
 40
2.0
  9
$STEPSIZE
 40
6.0
  9
$3DDWFPREC
 40
2.0
  9
$PSOLWIDTH
 40
5.0
  9
$PSOLHEIGHT
 40
80.0
  9
$LOFTANG1
 40
1.5707963268
  9
$LOFTANG2
 40
1.5707963268
  9
$LOFTMAG1
 40
0.0
  9
$LOFTMAG2
 40
0.0
  9
$LOFTPARAM
 70
     7
  9
$LOFTNORMALS
280
     1
  9
$LATITUDE
 40
37.795
  9
$LONGITUDE
 40
-122.394
  9
$NORTHDIRECTION
 40
0.0
  9
$TIMEZONE
 70
 -8000
  9
$LIGHTGLYPHDISPLAY
280
     1
  9
$TILEMODELIGHTSYNCH
280
     1
  9
$CMATERIAL
347
44
  9
$SOLIDHIST
280
     0
  9
$SHOWHIST
280
     1
  9
$DWFFRAME
280
     2
  9
$DGNFRAME
280
     2
  9
$REALWORLDSCALE
290
     1
  9
$INTERFERECOLOR
 62
   256
  9
$CSHADOW
280
     0
  9
$SHADOWPLANELOCATION
 40
0.0
  0
ENDSEC
  0
SECTION
  2
CLASSES
  0
CLASS
  1
ACDBDICTIONARYWDFLT
  2
AcDbDictionaryWithDefault
  3
ObjectDBX Classes
 90
        0
 91
        4
280
     0
281
     0
  0
CLASS
  1
VISUALSTYLE
  2
AcDbVisualStyle
  3
ObjectDBX Classes
 90
     4095
 91
        4
280
     0
281
     0
  0
CLASS
  1
MATERIAL
  2
AcDbMaterial
  3
ObjectDBX Classes
 90
     1153
 91
        4
280
     0
281
     0
  0
CLASS
  1
SCALE
  2
AcDbScale
  3
ObjectDBX Classes
 90
     1153
 91
        4
280
     0
281
     0
  0
CLASS
  1
TABLESTYLE
  2
AcDbTableStyle
  3
ObjectDBX Classes
 90
     4095
 91
        4
280
     0
281
     0
  0
CLASS
  1
MLEADERSTYLE
  2
AcDbMLeaderStyle
  3
ACDB_MLEADERSTYLE_CLASS
 90
     4095
 91
        4
280
     0
281
     0
  0
CLASS
  1
SUN
  2
AcDbSun
  3
SCENEOE
 90
     1153
 91
        4
280
     0
281
     0
  0
CLASS
  1
DICTIONARYVAR
  2
AcDbDictionaryVar
  3
ObjectDBX Classes
 90
        0
 91
        4
280
     0
281
     0
  0
CLASS
  1
CELLSTYLEMAP
  2
AcDbCellStyleMap
  3
ObjectDBX Classes
 90
     1152
 91
        4
280
     0
281
     0
  0
ENDSEC
  0
SECTION
  2
TABLES
  0
TABLE
  2
VPORT
  5
8
330
0
100
AcDbSymbolTable
 70
     1
  0
VPORT
  5
29
330
8
100
AcDbSymbolTableRecord
100
AcDbViewportTableRecord
  2
*Active
 70
     0
 10
0.0
 20
0.0
 11
1.0
 21
1.0
 12
0.0
 22
-12.0504288426
 13
0.0
 23
0.0
 14
10.0
 24
10.0
 15
10.0
 25
10.0
 16
0.0
 26
0.0
 36
1.0
 17
0.0
 27
0.0
 37
0.0
 40
360.0346796744
 41
1.6139626646
 42
50.0
 43
0.0
 44
0.0
 50
0.0
 51
0.0
 71
     0
 72
   100
 73
     1
 74
     3
 75
     0
 76
     0
 77
     0
 78
     0
281
     0
 65
     1
110
0.0
120
0.0
130
0.0
111
1.0
121
0.0
131
0.0
112
0.0
122
1.0
132
0.0
 79
     0
146
0.0
348
2F
 60
     3
 61
     5
292
     1
282
     1
141
0.0
142
0.0
 63
   250
361
6D
  0
ENDTAB
  0
TABLE
  2
LTYPE
  5
5
330
0
100
AcDbSymbolTable
 70
     6
  0
LTYPE
  5
14
330
5
100
AcDbSymbolTableRecord
100
AcDbLinetypeTableRecord
  2
ByBlock
 70
     0
  3

 72
    65
 73
     0
 40
0.0
  0
LTYPE
  5
15
330
5
100
AcDbSymbolTableRecord
100
AcDbLinetypeTableRecord
  2
ByLayer
 70
     0
  3

 72
    65
 73
     0
 40
0.0
  0
LTYPE
  5
16
330
5
100
AcDbSymbolTableRecord
100
AcDbLinetypeTableRecord
  2
Continuous
 70
     0
  3
Solid line
 72
    65
 73
     0
 40
0.0
  0
LTYPE
  5
6E
330
5
100
AcDbSymbolTableRecord
100
AcDbLinetypeTableRecord
  2
HIDDEN
 70
     0
  3
Hidden __ __ __ __ __ __ __ __ __ __ __ __ __ __
 72
    65
 73
     2
 40
1.905
 49
1.27
 74
     0
 49
-0.635
 74
     0
  0
LTYPE
  5
6F
330
5
100
AcDbSymbolTableRecord
100
AcDbLinetypeTableRecord
  2
PHANTOM
 70
     0
  3
Phantom ______  __  __  ______  __  __  ______
 72
    65
 73
     6
 40
12.7
 49
6.35
 74
     0
 49
-1.27
 74
     0
 49
1.27
 74
     0
 49
-1.27
 74
     0
 49
1.27
 74
     0
 49
-1.27
 74
     0
  0
LTYPE
  5
70
330
5
100
AcDbSymbolTableRecord
100
AcDbLinetypeTableRecord
  2
CENTER
 70
     0
  3
Center ____ _ ____ _ ____ _ ____ _ ____ _ ____
 72
    65
 73
     4
 40
10.16
 49
6.35
 74
     0
 49
-1.27
 74
     0
 49
1.27
 74
     0
 49
-1.27
 74
     0
  0
LTYPE
  5
71
330
5
100
AcDbSymbolTableRecord
100
AcDbLinetypeTableRecord
  2
CENTERX2
 70
     0
  3
Center (2x) ________  __  ________  __  _____
 72
    65
 73
     4
 40
20.32
 49
12.7
 74
     0
 49
-2.54
 74
     0
 49
2.54
 74
     0
 49
-2.54
 74
     0
  0
LTYPE
  5
72
330
5
100
AcDbSymbolTableRecord
100
AcDbLinetypeTableRecord
  2
DOT2
 70
     0
  3
Dot (.5x) ........................................
 72
    65
 73
     2
 40
0.635
 49
0.0
 74
     0
 49
-0.635
 74
     0
  0
ENDTAB
  0
TABLE
  2
LAYER
  5
2
330
0
100
AcDbSymbolTable
 70
     1
  0
LAYER
  5
10
330
2
100
AcDbSymbolTableRecord
100
AcDbLayerTableRecord
  2
0
 70
     0
 62
     7
  6
Continuous
370
    -3
390
F
347
46
  0
ENDTAB
  0
TABLE
  2
STYLE
  5
3
330
0
100
AcDbSymbolTable
 70
     1
  0
STYLE
  5
11
330
3
100
AcDbSymbolTableRecord
100
AcDbTextStyleTableRecord
  2
Standard
 70
     0
 40
0.0
 41
1.0
 50
0.0
 71
     0
 42
3.5
  3
txt
  4

  0
ENDTAB
  0
TABLE
  2
VIEW
  5
6
330
0
100
AcDbSymbolTable
 70
     0
  0
ENDTAB
  0
TABLE
  2
UCS
  5
7
330
0
100
AcDbSymbolTable
 70
     0
  0
ENDTAB
  0
TABLE
  2
APPID
  5
9
330
0
100
AcDbSymbolTable
 70
     2
  0
APPID
  5
12
330
9
100
AcDbSymbolTableRecord
100
AcDbRegAppTableRecord
  2
ACAD
 70
     0
  0
APPID
  5
13D
330
9
100
AcDbSymbolTableRecord
100
AcDbRegAppTableRecord
  2
ACAD_MLEADERVER
 70
     0
  0
ENDTAB
  0
TABLE
  2
DIMSTYLE
  5
A
330
0
100
AcDbSymbolTable
 70
     1
100
AcDbDimStyleTable
  0
DIMSTYLE
105
27
330
A
100
AcDbSymbolTableRecord
100
AcDbDimStyleTableRecord
  2
ISO-25
 70
     0
 41
2.5
 42
0.625
 43
3.75
 44
1.25
 73
     0
 74
     0
 77
     1
 78
     8
140
2.5
141
2.5
143
0.0393700787
147
0.625
171
     3
172
     1
178
     0
271
     2
272
     2
274
     3
278
    44
283
     0
284
     8
340
11
  0
ENDTAB
  0
TABLE
  2
BLOCK_RECORD
  5
1
330
0
100
AcDbSymbolTable
 70
     9
  0
BLOCK_RECORD
  5
1F
330
1
100
AcDbSymbolTableRecord
100
AcDbBlockTableRecord
  2
*Model_Space
340
22
 70
     0
280
     1
281
     0
  0
BLOCK_RECORD
  5
1B
330
1
100
AcDbSymbolTableRecord
100
AcDbBlockTableRecord
  2
*Paper_Space
340
1E
 70
     0
280
     1
281
     0
  0
BLOCK_RECORD
  5
23
330
1
100
AcDbSymbolTableRecord
100
AcDbBlockTableRecord
  2
*Paper_Space0
340
26
 70
     0
280
     1
281
     0
  0
BLOCK_RECORD
  5
93
330
1
100
AcDbSymbolTableRecord
100
AcDbBlockTableRecord
  2
*Paper_Space1
340
94
 70
     0
280
     1
281
     0
  0
BLOCK_RECORD
  5
A8
330
1
100
AcDbSymbolTableRecord
100
AcDbBlockTableRecord
  2
*Paper_Space2
340
A9
 70
     0
280
     1
281
     0
  0
BLOCK_RECORD
  5
BD
330
1
100
AcDbSymbolTableRecord
100
AcDbBlockTableRecord
  2
*Paper_Space3
340
BE
 70
     0
280
     1
281
     0
  0
BLOCK_RECORD
  5
D5
330
1
100
AcDbSymbolTableRecord
100
AcDbBlockTableRecord
  2
*Paper_Space4
340
D6
 70
     0
280
     1
281
     0
  0
BLOCK_RECORD
  5
F2
330
1
100
AcDbSymbolTableRecord
100
AcDbBlockTableRecord
  2
*Paper_Space5
340
F3
 70
     0
280
     1
281
     0
  0
BLOCK_RECORD
  5
FC
330
1
100
AcDbSymbolTableRecord
100
AcDbBlockTableRecord
  2
*Paper_Space6
340
FD
 70
     0
280
     1
281
     0
  0
BLOCK_RECORD
  5
10B
330
1
100
AcDbSymbolTableRecord
100
AcDbBlockTableRecord
  2
*Paper_Space7
340
10C
 70
     0
280
     1
281
     0
  0
BLOCK_RECORD
  5
118
330
1
100
AcDbSymbolTableRecord
100
AcDbBlockTableRecord
  2
*Paper_Space8
340
119
 70
     0
280
     1
281
     0
  0
ENDTAB
  0
ENDSEC
  0
SECTION
  2
BLOCKS
  0
BLOCK
  5
20
330
1F
100
AcDbEntity
  8
0
100
AcDbBlockBegin
  2
*Model_Space
 70
     0
 10
0.0
 20
0.0
 30
0.0
  3
*Model_Space
  1

  0
ENDBLK
  5
21
330
1F
100
AcDbEntity
  8
0
100
AcDbBlockEnd
  0
BLOCK
  5
1C
330
1B
100
AcDbEntity
 67
     1
  8
0
100
AcDbBlockBegin
  2
*Paper_Space
 70
     0
 10
0.0
 20
0.0
 30
0.0
  3
*Paper_Space
  1

  0
ENDBLK
  5
1D
330
1B
100
AcDbEntity
 67
     1
  8
0
100
AcDbBlockEnd
  0
BLOCK
  5
24
330
23
100
AcDbEntity
  8
0
100
AcDbBlockBegin
  2
*Paper_Space0
 70
     0
 10
0.0
 20
0.0
 30
0.0
  3
*Paper_Space0
  1

  0
SPLINE
  5
82
330
23
100
AcDbEntity
  8
0
  6
Continuous
 62
     7
370
    25
100
AcDbSpline
210
0.0
220
0.0
230
1.0
 70
     8
 71
     3
 72
    15
 73
    11
 74
     0
 42
0.000000001
 43
0.00000001
 40
0.0
 40
0.0
 40
0.0
 40
0.0
 40
0.1190243815771875
 40
0.2441156638741627
 40
0.3693564176900108
 40
0.494806453871223
 40
0.6205281614597457
 40
0.7465871885048505
 40
0.8730530989772728
 40
1.0
 40
1.0
 40
1.0
 40
1.0
 10
232.6008727158959
 20
-89.98469374113681
 30
0.0
 10
237.5112696187776
 20
-87.1602268427978
 30
0.0
 10
247.5823557605296
 20
-81.36732455805468
 30
0.0
 10
262.3150705988306
 20
-71.7665512389365
 30
0.0
 10
276.8951379840973
 20
-61.40592134105043
 30
0.0
 10
291.0208077812954
 20
-50.38217477112961
 30
0.0
 10
304.6834622537946
 20
-38.7294556172351
 30
0.0
 10
317.842459233967
 20
-26.44214636765546
 30
0.0
 10
330.5306065824533
 20
-13.58101071434421
 30
0.0
 10
338.5051568253093
 20
-4.532728273269532
 30
0.0
 10
342.5000000000001
 20
0.0
 30
0.0
  0
SPLINE
  5
83
330
23
100
AcDbEntity
  8
0
  6
Continuous
 62
     7
370
    25
100
AcDbSpline
210
0.0
220
0.0
230
1.0
 70
     8
 71
     3
 72
    15
 73
    11
 74
     0
 42
0.000000001
 43
0.00000001
 40
0.0
 40
0.0
 40
0.0
 40
0.0
 40
0.1268831455859394
 40
0.2532855421852702
 40
0.3792812597028046
 40
0.5049398271727706
 40
0.6303268596745913
 40
0.7555047149171079
 40
0.8805331737085316
 40
1.0
 40
1.0
 40
1.0
 40
1.0
 10
-342.5
 20
0.0
 30
0.0
 10
-338.5051568026779
 20
-4.532728235826344
 30
0.0
 10
-330.5306065146449
 20
-13.58101060215652
 30
0.0
 10
-317.8424595036401
 20
-26.44214681382458
 30
0.0
 10
-304.6834612471638
 20
-38.72945395178336
 30
0.0
 10
-291.0208115252021
 20
-50.38218096535319
 30
0.0
 10
-276.8951240533792
 20
-61.4058982929388
 30
0.0
 10
-262.3151224704508
 20
-71.76663705955829
 30
0.0
 10
-247.5621236206714
 20
-81.38007161279236
 30
0.0
 10
-237.4701985804457
 20
-87.18471708153466
 30
0.0
 10
-232.5390185974926
 20
-90.02101951437173
 30
0.0
  0
SPLINE
  5
86
330
23
100
AcDbEntity
  8
0
  6
Continuous
 62
     7
370
    25
100
AcDbSpline
210
0.0
220
0.0
230
1.0
 70
     8
 71
     3
 72
    15
 73
    11
 74
     0
 42
0.000000001
 43
0.00000001
 40
0.0
 40
0.0
 40
0.0
 40
0.0
 40
0.1269961350534617
 40
0.2534687803691865
 40
0.3795077491664792
 40
0.5051968798384123
 40
0.6306149878944535
 40
0.75583686401321
 40
0.8809343077773992
 40
1.0
 40
1.0
 40
1.0
 40
1.0
 10
74.99999999999999
 20
-140.0
 30
0.0
 10
81.63603360606521
 20
-139.2180439800344
 30
0.0
 10
94.88074647791916
 20
-137.6573552346674
 30
0.0
 10
114.5359238218653
 20
-134.091583213322
 30
0.0
 10
133.936484918768
 20
-129.6552260866616
 30
0.0
 10
153.0411810704352
 20
-124.274623318067
 30
0.0
 10
171.8245544265458
 20
-117.9959744647728
 30
0.0
 10
190.2424387326418
 20
-110.80617826685
 30
0.0
 10
208.0219803027646
 20
-102.9370170651468
 30
0.0
 10
219.428043113407
 20
-97.0263296299475
 30
0.0
 10
224.9901881055039
 20
-94.14399406303579
 30
0.0
  0
SPLINE
  5
87
330
23
100
AcDbEntity
  8
0
  6
Continuous
 62
     7
370
    25
100
AcDbSpline
210
0.0
220
0.0
230
1.0
 70
     8
 71
     3
 72
    15
 73
    11
 74
     0
 42
0.000000001
 43
0.00000001
 40
0.0
 40
0.0
 40
0.0
 40
0.0
 40
0.1190541931108133
 40
0.2441532698111677
 40
0.3693767804903439
 40
0.4947965256682814
 40
0.620487296999854
 40
0.7465279110233334
 40
0.8730022072261602
 40
1.0
 40
1.0
 40
1.0
 40
1.0
 10
-224.9883497502818
 20
-94.14492354397049
 30
0.0
 10
-219.4268131015548
 20
-97.02694018513768
 30
0.0
 10
-208.0213571282616
 20
-102.9373056095308
 30
0.0
 10
-190.242437333394
 20
-110.8061754005111
 30
0.0
 10
-171.8245548022548
 20
-117.995975234407
 30
0.0
 10
-153.0411809694682
 20
-124.2746231112372
 30
0.0
 10
-133.936484945918
 20
-129.6552261422778
 30
0.0
 10
-114.5359238145901
 20
-134.0915831984186
 30
0.0
 10
-94.88074647974949
 20
-137.6573552384166
 30
0.0
 10
-81.63603360667624
 20
-139.2180439812858
 30
0.0
 10
-75.0000000000001
 20
-140.0
 30
0.0
  0
SPLINE
  5
8A
330
23
100
AcDbEntity
  8
0
  6
Continuous
 62
     7
370
    25
100
AcDbSpline
210
0.0
220
0.0
230
1.0
 70
    24
 71
     3
 72
    59
 73
    55
 74
     0
 42
0.000000001
 43
0.00000001
 40
0.0
 40
0.0
 40
0.0
 40
0.0
 40
0.0129092608436662
 40
0.0295330053721505
 40
0.0441225091268204
 40
0.0588099926141406
 40
0.0735853164360051
 40
0.0884490445538459
 40
0.1082167408354799
 40
0.1281512270509086
 40
0.1482232318588239
 40
0.1684221619700988
 40
0.1862184160934903
 40
0.2040747812768532
 40
0.2227539924328748
 40
0.2414884106557138
 40
0.2611031497471518
 40
0.2807667378566645
 40
0.3000933325697204
 40
0.3194582467818463
 40
0.338941965512792
 40
0.3584600891283527
 40
0.3781282128473545
 40
0.3978279232990232
 40
0.4176407644322343
 40
0.4374828764617567
 40
0.4572917382290153
 40
0.477128525169968
 40
0.4970637518534597
 40
0.51702813998547
 40
0.5371216698362222
 40
0.5572443916143004
 40
0.5774675554302743
 40
0.597721182650963
 40
0.6216265169571847
 40
0.6455875426576414
 40
0.6712083950084288
 40
0.6969083512116467
 40
0.7210310381454441
 40
0.7452331540653624
 40
0.7664465099928808
 40
0.7867314685878161
 40
0.8070885808964925
 40
0.8258911302568643
 40
0.8447678026928629
 40
0.8634103655721422
 40
0.8821588440056407
 40
0.9010254193952953
 40
0.9200395261707999
 40
0.9354077828636134
 40
0.9508778219467344
 40
0.9664530326888423
 40
0.9821503790850515
 40
1.0
 40
1.0
 40
1.0
 40
1.0
 10
-232.526674227671
 20
-90.00000000000051
 30
0.0
 10
-232.501421343264
 20
-90.00000000000051
 30
0.0
 10
-232.4436493623668
 20
-90.00000000000051
 30
0.0
 10
-231.2389230500969
 20
-90.00000000000053
 30
0.0
 10
-229.2765919824965
 20
-90.00000000000048
 30
0.0
 10
-226.6685665419956
 20
-90.00000000000048
 30
0.0
 10
-223.3836371347476
 20
-90.00000000000044
 30
0.0
 10
-219.0209362805477
 20
-90.0000000000005
 30
0.0
 10
-213.3707140508945
 20
-90.0000000000005
 30
0.0
 10
-206.261959040322
 20
-90.00000000000054
 30
0.0
 10
-198.2922738526646
 20
-90.0000000000005
 30
0.0
 10
-189.9322227656743
 20
-90.00000000000044
 30
0.0
 10
-181.3684536887017
 20
-90.00000000000048
 30
0.0
 10
-172.6176774875845
 20
-90.00000000000055
 30
0.0
 10
-163.3292604522726
 20
-90.00000000000044
 30
0.0
 10
-153.3870720010617
 20
-90.00000000000048
 30
0.0
 10
-142.9537395634177
 20
-90.00000000000055
 30
0.0
 10
-132.1302958176414
 20
-90.00000000000045
 30
0.0
 10
-121.1111237078378
 20
-90.00000000000051
 30
0.0
 10
-109.9178366564428
 20
-90.00000000000048
 30
0.0
 10
-98.50566279610514
 20
-90.0000000000005
 30
0.0
 10
-86.87644039598874
 20
-90.00000000000048
 30
0.0
 10
-75.06941002808006
 20
-90.00000000000054
 30
0.0
 10
-63.08972959215928
 20
-90.00000000000044
 30
0.0
 10
-50.98177505426462
 20
-90.00000000000057
 30
0.0
 10
-38.77816264320374
 20
-90.0000000000005
 30
0.0
 10
-26.51468688403621
 20
-90.00000000000047
 30
0.0
 10
-14.19446092975368
 20
-90.00000000000048
 30
0.0
 10
-1.821545812538783
 20
-90.0000000000005
 30
0.0
 10
10.6072639335766
 20
-90.00000000000051
 30
0.0
 10
23.05931775615642
 20
-90.00000000000054
 30
0.0
 10
35.53125187779959
 20
-90.0000000000005
 30
0.0
 10
47.98420087406916
 20
-90.00000000000053
 30
0.0
 10
61.13840124208464
 20
-90.00000000000053
 30
0.0
 10
74.94361350496494
 20
-90.0000000000005
 30
0.0
 10
89.66534305960154
 20
-90.00000000000047
 30
0.0
 10
104.5210256089911
 20
-90.00000000000054
 30
0.0
 10
119.1195148905889
 20
-90.00000000000053
 30
0.0
 10
133.1096839972854
 20
-90.00000000000053
 30
0.0
 10
145.8906055829484
 20
-90.00000000000051
 30
0.0
 10
157.5801282713218
 20
-90.00000000000048
 30
0.0
 10
168.1915156288968
 20
-90.00000000000053
 30
0.0
 10
177.9547175966185
 20
-90.00000000000044
 30
0.0
 10
187.0168498196391
 20
-90.00000000000057
 30
0.0
 10
195.3093086473291
 20
-90.00000000000047
 30
0.0
 10
203.0182569595476
 20
-90.00000000000047
 30
0.0
 10
210.0623699880923
 20
-90.00000000000048
 30
0.0
 10
216.3812028562344
 20
-90.00000000000053
 30
0.0
 10
221.4925939966884
 20
-90.00000000000041
 30
0.0
 10
225.4838584228503
 20
-90.00000000000054
 30
0.0
 10
228.491209597954
 20
-90.00000000000048
 30
0.0
 10
230.7300807855837
 20
-90.00000000000048
 30
0.0
 10
232.2902629813151
 20
-90.00000000000057
 30
0.0
 10
232.4988824994496
 20
-90.00000000000047
 30
0.0
 10
232.6098844651302
 20
-90.00000000000044
 30
0.0
  0
SPLINE
  5
8B
330
23
100
AcDbEntity
  8
0
  6
Continuous
 62
     7
370
    25
100
AcDbSpline
210
0.0
220
0.0
230
1.0
 70
    24
 71
     3
 72
    21
 73
    17
 74
     0
 42
0.000000001
 43
0.00000001
 40
0.0
 40
0.0
 40
0.0
 40
0.0
 40
0.0062500000000001
 40
0.0083333333333333
 40
0.0416666666666666
 40
0.0833333333333334
 40
0.125
 40
0.1666666666666666
 40
0.2083333333333334
 40
0.2499999999996538
 40
0.2916666666666666
 40
0.3333333333333334
 40
0.375
 40
0.4166666666666666
 40
0.4583333333333334
 40
0.4999999999999999
 40
0.4999999999999999
 40
0.4999999999999999
 40
0.4999999999999999
 10
342.5000000000001
 20
0.0
 30
0.0
 10
342.5000000000001
 20
0.0
 30
0.0
 10
342.379383817169
 20
0.0
 30
0.0
 10
340.9820045202297
 20
0.0
 30
0.0
 10
332.1773908580587
 20
0.0
 30
0.0
 10
300.2359668465141
 20
0.0
 30
0.0
 10
245.0270232497481
 20
0.0
 30
0.0
 10
172.7603754928497
 20
0.0
 30
0.0
 10
90.13885508194167
 20
0.0
 30
0.0
 10
0.0000000000001483
 20
0.0
 30
0.0
 10
-90.13885508194133
 20
0.0
 30
0.0
 10
-172.7603754928494
 20
0.0
 30
0.0
 10
-245.0270232497477
 20
0.0
 30
0.0
 10
-300.2359668465142
 20
0.0
 30
0.0
 10
-334.4589211445978
 20
0.0
 30
0.0
 10
-342.5
 20
0.0
 30
0.0
 10
-342.5
 20
0.0
 30
0.0
  0
SPLINE
  5
8C
330
23
100
AcDbEntity
  8
0
  6
Continuous
 62
     7
370
    25
100
AcDbSpline
210
0.0
220
0.0
230
1.0
 70
     8
 71
     3
 72
    57
 73
    53
 74
     0
 42
0.000000001
 43
0.00000001
 40
0.0
 40
0.0
 40
0.0
 40
0.0
 40
0.01524302599118
 40
0.0306050078882718
 40
0.0463310951999865
 40
0.0621764511690015
 40
0.0774164999758786
 40
0.092747578331479
 40
0.1083371983731635
 40
0.1240045946110659
 40
0.1466839931854727
 40
0.1695421200047166
 40
0.1870176280993719
 40
0.2045515510430307
 40
0.2256737470650931
 40
0.2536112708941332
 40
0.2817013996936828
 40
0.3096331728311828
 40
0.3376769378526772
 40
0.3656054968143225
 40
0.3936234892552274
 40
0.416073716523286
 40
0.4385643678585607
 40
0.4611740484713152
 40
0.4838223543286408
 40
0.5062720549093385
 40
0.528758900848639
 40
0.5513593230097491
 40
0.5739985146702213
 40
0.5950343736278355
 40
0.6161037389874884
 40
0.6372795758659292
 40
0.6584936109023461
 40
0.6764898035603532
 40
0.6945130587909522
 40
0.7126244299523333
 40
0.7307684226940009
 40
0.7456612189161913
 40
0.7605758455984376
 40
0.7755623100038256
 40
0.7905757012265682
 40
0.8151748209143017
 40
0.8399321075466036
 40
0.8605780971216312
 40
0.8813586844027942
 40
0.9026327924046306
 40
0.9241138172747881
 40
0.9391039040452407
 40
0.9541871186792111
 40
0.9695831816617657
 40
0.9850959714014951
 40
1.0
 40
1.0
 40
1.0
 40
1.0
 10
225.0000000000001
 20
-94.16337122359073
 30
0.0
 10
224.9223128875778
 20
-94.16342303988536
 30
0.0
 10
224.7663323959172
 20
-94.1635270768467
 30
0.0
 10
223.49905266301
 20
-94.17160951173341
 30
0.0
 10
221.464327288457
 20
-94.19242552753138
 30
0.0
 10
218.638305694234
 20
-94.22776476932188
 30
0.0
 10
215.1295328360395
 20
-94.27538493061441
 30
0.0
 10
210.9973729160749
 20
-94.33221871372454
 30
0.0
 10
206.2299034504729
 20
-94.39783301183047
 30
0.0
 10
200.0800865115455
 20
-94.48273847418812
 30
0.0
 10
192.3130232929466
 20
-94.59138769919844
 30
0.0
 10
183.504254185
 20
-94.72207142612972
 30
0.0
 10
174.8606782649466
 20
-94.85927681500078
 30
0.0
 10
166.067031503251
 20
-95.0041895702347
 30
0.0
 10
155.1661447699673
 20
-95.18486142172168
 30
0.0
 10
141.951665040413
 20
-95.39581005634714
 30
0.0
 10
126.987982868416
 20
-95.63937103755603
 30
0.0
 10
111.5355487025236
 20
-95.89348021460648
 30
0.0
 10
95.73729934515579
 20
-96.14244552174868
 30
0.0
 10
79.62470497218794
 20
-96.37072347442789
 30
0.0
 10
64.36777570876198
 20
-96.55476224256553
 30
0.0
 10
50.03270270846551
 20
-96.69690926490718
 30
0.0
 10
36.67317079503136
 20
-96.80472430829079
 30
0.0
 10
23.21199560601768
 20
-96.88702610681386
 30
0.0
 10
9.719889228691871
 20
-96.93830225029359
 30
0.0
 10
-3.763777988335821
 20
-96.94892731887714
 30
0.0
 10
-17.23170093904825
 20
-96.91388365469534
 30
0.0
 10
-30.70869499655615
 20
-96.84472328845001
 30
0.0
 10
-43.84611754832723
 20
-96.74961728218956
 30
0.0
 10
-56.609277231378
 20
-96.63436234940454
 30
0.0
 10
-68.99647359558612
 20
-96.50046821096461
 30
0.0
 10
-81.30741447563
 20
-96.34597674880824
 30
0.0
 10
-92.891996396737
 20
-96.18253944080547
 30
0.0
 10
-103.7332951621119
 20
-96.0170263461189
 30
0.0
 10
-113.8474084253102
 20
-95.85491402073288
 30
0.0
 10
-123.8265947636341
 20
-95.69150468204234
 30
0.0
 10
-133.0530703943514
 20
-95.54055571420163
 30
0.0
 10
-141.5278962636321
 20
-95.40325806707162
 30
0.0
 10
-149.2794802494458
 20
-95.27860703215124
 30
0.0
 10
-156.8654957508061
 20
-95.1564637422904
 30
0.0
 10
-165.8312294889226
 20
-95.00832314432323
 30
0.0
 10
-175.9578790639822
 20
-94.8405914226043
 30
0.0
 10
-186.2402742176428
 20
-94.68012685935432
 30
0.0
 10
-195.1916308006982
 20
-94.55086640780716
 30
0.0
 10
-202.8952834650826
 20
-94.44371692941556
 30
0.0
 10
-209.7713971635698
 20
-94.34911894563814
 30
0.0
 10
-215.0281256071133
 20
-94.2766971262841
 30
0.0
 10
-218.8557044741702
 20
-94.22492628834696
 30
0.0
 10
-221.5580715638844
 20
-94.19142016784807
 30
0.0
 10
-223.534087877613
 20
-94.17131945661352
 30
0.0
 10
-224.7743548053436
 20
-94.16351602936327
 30
0.0
 10
-224.9242532129768
 20
-94.16342429097385
 30
0.0
 10
-224.9977023860426
 20
-94.16337933980361
 30
0.0
  0
SPLINE
  5
8D
330
23
100
AcDbEntity
  8
0
  6
Continuous
 62
     7
370
    25
100
AcDbSpline
210
0.0
220
0.0
230
1.0
 70
    24
 71
     3
 72
    21
 73
    17
 74
     0
 42
0.000000001
 43
0.00000001
 40
0.0
 40
0.0
 40
0.0
 40
0.0
 40
0.0062500000000001
 40
0.0083333333333333
 40
0.0416666666666666
 40
0.0833333333333334
 40
0.125
 40
0.1666666666666666
 40
0.2083333333333334
 40
0.2499999999996538
 40
0.2916666666666666
 40
0.3333333333333334
 40
0.375
 40
0.4166666666666666
 40
0.4583333333333334
 40
0.4999999999999999
 40
0.4999999999999999
 40
0.4999999999999999
 40
0.4999999999999999
 10
74.99999999999999
 20
-140.0
 30
0.0
 10
74.99999999999999
 20
-140.0
 30
0.0
 10
74.97358769719027
 20
-140.0
 30
0.0
 10
74.66759223070719
 20
-140.0
 30
0.0
 10
72.73957464045078
 20
-140.0
 30
0.0
 10
65.7451022291636
 20
-140.0
 30
0.0
 10
53.65555253644105
 20
-140.0
 30
0.0
 10
37.83073915901801
 20
-140.0
 30
0.0
 10
19.73843541940311
 20
-140.0
 30
0.0
 10
-0.0000000000001405
 20
-140.0
 30
0.0
 10
-19.73843541940337
 20
-140.0
 30
0.0
 10
-37.83073915901826
 20
-140.0
 30
0.0
 10
-53.65555253644127
 20
-140.0
 30
0.0
 10
-65.7451022291638
 20
-140.0
 30
0.0
 10
-73.23917981268518
 20
-140.0
 30
0.0
 10
-74.99999999999973
 20
-140.0
 30
0.0
 10
-75.0000000000001
 20
-140.0
 30
0.0
  0
SPLINE
  5
8E
330
23
100
AcDbEntity
  8
0
  6
Continuous
 62
     7
370
    25
100
AcDbSpline
210
0.0
220
0.0
230
1.0
 70
    24
 71
     3
 72
    21
 73
    17
 74
     0
 42
0.000000001
 43
0.00000001
 40
0.0
 40
0.0
 40
0.0
 40
0.0
 40
0.0062500000000001
 40
0.0083333333333333
 40
0.0416666666666666
 40
0.0833333333333334
 40
0.125
 40
0.1666666666666666
 40
0.2083333333333334
 40
0.2499999999996538
 40
0.2916666666666666
 40
0.3333333333333334
 40
0.375
 40
0.4166666666666666
 40
0.4583333333333334
 40
0.4999999999999999
 40
0.4999999999999999
 40
0.4999999999999999
 40
0.4999999999999999
 10
75.0
 20
-145.0
 30
0.0
 10
74.99999999999983
 20
-145.0
 30
0.0
 10
74.97312537457296
 20
-145.0
 30
0.0
 10
74.66205199857794
 20
-145.0
 30
0.0
 10
72.70371807169154
 20
-145.0
 30
0.0
 10
65.63875480695735
 20
-145.0
 30
0.0
 10
53.52787422140864
 20
-145.0
 30
0.0
 10
37.73746643098969
 20
-145.0
 30
0.0
 10
19.66517573985884
 20
-145.0
 30
0.0
 10
-0.000000000008684
 20
-145.0000000000001
 30
0.0
 10
-19.66517573987588
 20
-145.0000000000001
 30
0.0
 10
-37.73746643101205
 20
-145.0
 30
0.0
 10
-53.52787422142682
 20
-145.0
 30
0.0
 10
-65.63875480697027
 20
-145.0000000000001
 30
0.0
 10
-73.2083583048921
 20
-145.0000000000001
 30
0.0
 10
-75.00000000000014
 20
-145.0000000000001
 30
0.0
 10
-75.0000000000001
 20
-145.0000000000001
 30
0.0
  0
LINE
  5
8F
330
23
100
AcDbEntity
  8
0
  6
Continuous
 62
     7
370
    25
100
AcDbLine
 10
-225.0
 20
-90.0
 30
0.0
 11
-225.0
 21
-94.1633793398
 31
0.0
  0
LINE
  5
90
330
23
100
AcDbEntity
  8
0
  6
Continuous
 62
     7
370
    25
100
AcDbLine
 10
225.0
 20
-94.1633712236
 30
0.0
 11
225.0
 21
-90.0
 31
0.0
  0
LINE
  5
91
330
23
100
AcDbEntity
  8
0
  6
Continuous
 62
     7
370
    25
100
AcDbLine
 10
75.0
 20
-145.0
 30
0.0
 11
75.0
 21
-140.0
 31
0.0
  0
LINE
  5
92
330
23
100
AcDbEntity
  8
0
  6
Continuous
 62
     7
370
    25
100
AcDbLine
 10
-75.0
 20
-140.0
 30
0.0
 11
-75.0
 21
-145.0
 31
0.0
  0
VIEWPORT
  5
127
330
23
100
AcDbEntity
  8
0
100
AcDbViewport
 10
0.0
 20
0.0
 30
0.0
 40
205.6
 41
156.0
 68
     1
 69
     1
 12
0.0
 22
-12.0504288426
 13
0.0
 23
0.0
 14
10.0
 24
10.0
 15
10.0
 25
10.0
 16
0.0
 26
0.0
 36
1.0
 17
0.0
 27
0.0
 37
0.0
 42
50.0
 43
0.0
 44
0.0
 45
440.8991966491
 50
0.0
 51
0.0
 72
   100
 90
   557152
  1

281
     0
 71
     1
 74
     0
110
0.0
120
0.0
130
0.0
111
1.0
121
0.0
131
0.0
112
0.0
122
1.0
132
0.0
 79
     0
146
0.0
170
     0
 61
     5
348
2F
292
     1
282
     1
141
0.0
142
0.0
 63
   256
361
128
  0
ENDBLK
  5
25
330
23
100
AcDbEntity
  8
0
100
AcDbBlockEnd
  0
BLOCK
  5
95
330
93
100
AcDbEntity
  8
0
100
AcDbBlockBegin
  2
*Paper_Space1
 70
     0
 10
0.0
 20
0.0
 30
0.0
  3
*Paper_Space1
  1

  0
SPLINE
  5
97
330
93
100
AcDbEntity
  8
0
  6
Continuous
 62
     7
370
    25
100
AcDbSpline
210
0.0
220
0.0
230
1.0
 70
     8
 71
     3
 72
    15
 73
    11
 74
     0
 42
0.000000001
 43
0.00000001
 40
0.0
 40
0.0
 40
0.0
 40
0.0
 40
0.1163600619972047
 40
0.2406433495627364
 40
0.365282034832317
 40
0.4904317447075576
 40
0.6162667903752799
 40
0.7429847418202734
 40
0.8708105372143091
 40
1.0
 40
1.0
 40
1.0
 40
1.0
 10
160.2054399745854
 20
-89.99556012591964
 30
0.0
 10
163.1283962048414
 20
-87.12943607218241
 30
0.0
 10
169.1733395109987
 20
-81.20202695331977
 30
0.0
 10
177.512141801405
 20
-71.40852989432622
 30
0.0
 10
185.3753894591974
 20
-60.85167363970518
 30
0.0
 10
192.4783985634744
 20
-49.70005001920154
 30
0.0
 10
198.8063489794365
 20
-38.00773099017023
 30
0.0
 10
204.292121997458
 20
-25.79738836626768
 30
0.0
 10
208.9842450045178
 20
-13.12514800966752
 30
0.0
 10
211.323943689717
 20
-4.3904973924528
 30
0.0
 10
212.5
 20
0.0
 30
0.0
  0
SPLINE
  5
98
330
93
100
AcDbEntity
  8
0
  6
Continuous
 62
     7
370
    25
100
AcDbSpline
210
0.0
220
0.0
230
1.0
 70
     8
 71
     3
 72
    15
 73
    11
 74
     0
 42
0.000000001
 43
0.00000001
 40
0.0
 40
0.0
 40
0.0
 40
0.0
 40
0.1291744122525799
 40
0.2569853159803406
 40
0.3836885048225421
 40
0.5095088907457269
 40
0.6346440207178414
 40
0.759268185618507
 40
0.8835369942188481
 40
0.9999999999999999
 40
0.9999999999999999
 40
0.9999999999999999
 40
0.9999999999999999
 10
-212.5000000000001
 20
0.0
 30
0.0
 10
-211.3239436804411
 20
-4.390497383631232
 30
0.0
 10
-208.9842449767877
 20
-13.12514798329593
 30
0.0
 10
-204.2921221066186
 20
-25.79738847008042
 30
0.0
 10
-198.8063485750939
 20
-38.00773060563613
 30
0.0
 10
-192.4784000583377
 20
-49.7000514408324
 30
0.0
 10
-185.375383922125
 20
-60.85166837388996
 30
0.0
 10
-177.5121623514887
 20
-71.40854943767589
 30
0.0
 10
-169.1706052673966
 20
-81.20507997886037
 30
0.0
 10
-163.1226923877645
 20
-87.13531832203466
 30
0.0
 10
-160.196788661769
 20
-90.004292596246
 30
0.0
  0
SPLINE
  5
9B
330
93
100
AcDbEntity
  8
0
  6
Continuous
 62
     7
370
    25
100
AcDbSpline
210
0.0
220
0.0
230
1.0
 70
     8
 71
     3
 72
    15
 73
    11
 74
     0
 42
0.000000001
 43
0.00000001
 40
0.0
 40
0.0
 40
0.0
 40
0.0
 40
0.133499919744311
 40
0.2654723738233958
 40
0.3962346446513487
 40
0.5260617848488655
 40
0.6551923169508391
 40
0.7838348775609383
 40
0.912175570196305
 40
1.0
 40
1.0
 40
1.0
 40
1.0
 10
49.99999999999999
 20
-140.0
 30
0.0
 10
54.99157480170268
 20
-139.4210868888702
 30
0.0
 10
64.91761231740338
 20
-138.2698844151651
 30
0.0
 10
79.49454548418849
 20
-135.0382926965435
 30
0.0
 10
93.6458133025552
 20
-130.7711723655371
 30
0.0
 10
107.3062064224173
 20
-125.4032205890127
 30
0.0
 10
120.4352222171686
 20
-119.0202463040205
 30
0.0
 10
132.9446755813222
 20
-111.6186745862843
 30
0.0
 10
143.6574530326052
 20
-104.2628206412666
 30
0.0
 10
149.8688579740883
 20
-99.00900822959802
 30
0.0
 10
152.3924523963078
 20
-96.87446832721189
 30
0.0
  0
SPLINE
  5
9C
330
93
100
AcDbEntity
  8
0
  6
Continuous
 62
     7
370
    25
100
AcDbSpline
210
0.0
220
0.0
230
1.0
 70
     8
 71
     3
 72
    15
 73
    11
 74
     0
 42
0.000000001
 43
0.00000001
 40
0.0
 40
0.0
 40
0.0
 40
0.0
 40
0.0875213526159406
 40
0.2159046874108536
 40
0.3445899904784018
 40
0.4737634271700197
 40
0.6036337034104549
 40
0.7344394209855053
 40
0.8664557239041668
 40
1.0
 40
1.0
 40
1.0
 40
1.0
 10
-152.3635051050511
 20
-96.8982854830351
 30
0.0
 10
-149.8493962423833
 20
-99.02467816129342
 30
0.0
 10
-143.6473909958113
 20
-104.2702340489714
 30
0.0
 10
-132.9445956991898
 20
-111.6185729017485
 30
0.0
 10
-120.4352437289668
 20
-119.0202736870803
 30
0.0
 10
-107.3062006161165
 20
-125.4032131979857
 30
0.0
 10
-93.64581487333048
 20
-130.7711743650274
 30
0.0
 10
-79.49454505986526
 20
-135.0382921564088
 30
0.0
 10
-64.91761242532975
 20
-138.2698845525479
 30
0.0
 10
-54.99157483781592
 20
-139.4210869348399
 30
0.0
 10
-50.00000000000004
 20
-140.0
 30
0.0
  0
SPLINE
  5
9F
330
93
100
AcDbEntity
  8
0
  6
Continuous
 62
     7
370
    25
100
AcDbSpline
210
0.0
220
0.0
230
1.0
 70
    24
 71
     3
 72
    60
 73
    56
 74
     0
 42
0.000000001
 43
0.00000001
 40
0.0
 40
0.0
 40
0.0
 40
0.0
 40
0.0118505184440955
 40
0.0304474926728775
 40
0.0521155995163283
 40
0.0738713615832317
 40
0.0956648636805729
 40
0.1176224527939655
 40
0.1396227569293385
 40
0.1617947522115414
 40
0.1840165435238958
 40
0.2063449528924
 40
0.2294845310299909
 40
0.2526972461127255
 40
0.274358023568829
 40
0.2960993644130424
 40
0.3169191216945172
 40
0.3372052854743158
 40
0.3575929829572927
 40
0.3781108395589785
 40
0.3987782439822283
 40
0.4149115665634587
 40
0.4311419309049735
 40
0.4474886917253022
 40
0.4639575732958392
 40
0.4801313866270769
 40
0.4964422123208788
 40
0.5129102337263063
 40
0.5295293371946601
 40
0.5441215942573177
 40
0.5588062798378629
 40
0.5735844070444807
 40
0.5884452866077415
 40
0.6082173708402173
 40
0.6281474083423911
 40
0.6482238941908944
 40
0.6684182816707733
 40
0.6862145087271447
 40
0.7044535193842133
 40
0.722750026073442
 40
0.7418986668203416
 40
0.7610991190655046
 40
0.7807626772678959
 40
0.8000892425863767
 40
0.8194954335122331
 40
0.8389378161147025
 40
0.858514458750548
 40
0.8781240035079773
 40
0.8978650760322522
 40
0.9176364947952477
 40
0.9374785766461244
 40
0.9572874082853091
 40
0.9771592047172317
 40
0.9970593615352167
 40
1.0
 40
1.0
 40
1.0
 40
1.0
 10
-160.1924557969042
 20
-90.00000000000048
 30
0.0
 10
-160.1948542800139
 20
-90.0000000000005
 30
0.0
 10
-160.2010166936884
 20
-90.0000000000005
 30
0.0
 10
-159.7178099079724
 20
-90.00000000000048
 30
0.0
 10
-158.7243868134258
 20
-90.0000000000005
 30
0.0
 10
-157.106280954995
 20
-90.00000000000055
 30
0.0
 10
-154.9273071726846
 20
-90.0000000000005
 30
0.0
 10
-152.1647161875563
 20
-90.00000000000048
 30
0.0
 10
-148.7955699300205
 20
-90.00000000000048
 30
0.0
 10
-144.8055022936351
 20
-90.0000000000005
 30
0.0
 10
-140.1707021092742
 20
-90.00000000000048
 30
0.0
 10
-134.8206095311503
 20
-90.00000000000057
 30
0.0
 10
-128.7089385913242
 20
-90.0000000000005
 30
0.0
 10
-121.9465882173448
 20
-90.00000000000051
 30
0.0
 10
-114.6238401659766
 20
-90.00000000000051
 30
0.0
 10
-106.8788830589898
 20
-90.00000000000047
 30
0.0
 10
-98.62940971585095
 20
-90.00000000000051
 30
0.0
 10
-89.91676211136758
 20
-90.00000000000043
 30
0.0
 10
-80.60756450608554
 20
-90.00000000000051
 30
0.0
 10
-70.58779018196671
 20
-90.00000000000038
 30
0.0
 10
-60.65619790335128
 20
-90.00000000000057
 30
0.0
 10
-50.99811693063168
 20
-90.00000000000047
 30
0.0
 10
-41.77543384621663
 20
-90.00000000000054
 30
0.0
 10
-32.17718941243928
 20
-90.00000000000044
 30
0.0
 10
-22.33332505286425
 20
-90.00000000000051
 30
0.0
 10
-12.31033793536843
 20
-90.00000000000054
 30
0.0
 10
-2.178989641413144
 20
-90.00000000000048
 30
0.0
 10
8.065137753623219
 20
-90.00000000000055
 30
0.0
 10
17.8816909391494
 20
-90.00000000000048
 30
0.0
 10
27.18948129672751
 20
-90.00000000000048
 30
0.0
 10
35.94562918942056
 20
-90.00000000000045
 30
0.0
 10
44.52797216452502
 20
-90.00000000000051
 30
0.0
 10
53.79608963127485
 20
-90.00000000000047
 30
0.0
 10
63.60353573682623
 20
-90.0000000000005
 30
0.0
 10
73.75965116796607
 20
-90.00000000000053
 30
0.0
 10
83.36751315391926
 20
-90.00000000000048
 30
0.0
 10
92.02982768158122
 20
-90.00000000000047
 30
0.0
 10
99.87065135690703
 20
-90.00000000000053
 30
0.0
 10
106.9516070330473
 20
-90.00000000000048
 30
0.0
 10
113.6994686834969
 20
-90.00000000000041
 30
0.0
 10
120.0399571839217
 20
-90.00000000000051
 30
0.0
 10
126.0069113489028
 20
-90.00000000000051
 30
0.0
 10
131.4752476734527
 20
-90.00000000000048
 30
0.0
 10
136.4573232623292
 20
-90.00000000000045
 30
0.0
 10
140.930352614236
 20
-90.00000000000058
 30
0.0
 10
144.9361684744095
 20
-90.00000000000047
 30
0.0
 10
148.4735412316596
 20
-90.00000000000048
 30
0.0
 10
151.5500396064301
 20
-90.00000000000051
 30
0.0
 10
154.1618439678754
 20
-90.00000000000047
 30
0.0
 10
156.31407838057
 20
-90.00000000000054
 30
0.0
 10
158.0013333685803
 20
-90.00000000000048
 30
0.0
 10
159.2426844287502
 20
-90.0000000000005
 30
0.0
 10
159.9785631047855
 20
-90.0000000000005
 30
0.0
 10
160.2942173378111
 20
-90.00000000000044
 30
0.0
 10
160.2195363088656
 20
-90.00000000000053
 30
0.0
 10
160.2099214988912
 20
-90.00000000000051
 30
0.0
  0
SPLINE
  5
A0
330
93
100
AcDbEntity
  8
0
  6
Continuous
 62
     7
370
    25
100
AcDbSpline
210
0.0
220
0.0
230
1.0
 70
    24
 71
     3
 72
    19
 73
    15
 74
     0
 42
0.000000001
 43
0.00000001
 40
0.2499999999996538
 40
0.2499999999996538
 40
0.2499999999996538
 40
0.2499999999996538
 40
0.2916666666666666
 40
0.3333333333333334
 40
0.375
 40
0.4166666666666666
 40
0.4583333333333334
 40
0.4999999999999999
 40
0.5416666666666667
 40
0.5833333333333333
 40
0.625
 40
0.6666666666666667
 40
0.7083333333333333
 40
0.7499999999996151
 40
0.7499999999996151
 40
0.7499999999996151
 40
0.7499999999996151
 10
212.5
 20
0.0
 30
0.0
 10
212.4999999999793
 20
0.0
 30
0.0
 10
207.5110094692171
 20
0.0
 30
0.0
 10
186.2777896492971
 20
0.0
 30
0.0
 10
152.0240655199166
 20
0.0
 30
0.0
 10
107.1870942838847
 20
0.0
 30
0.0
 10
55.92556702164246
 20
0.0
 30
0.0
 10
-0.0000000000000301
 20
0.0
 30
0.0
 10
-55.92556702164251
 20
0.0
 30
0.0
 10
-107.1870942838847
 20
0.0
 30
0.0
 10
-152.0240655199166
 20
0.0
 30
0.0
 10
-186.2777896492971
 20
0.0
 30
0.0
 10
-207.5110094693081
 20
0.0
 30
0.0
 10
-212.4999999999997
 20
0.0
 30
0.0
 10
-212.5000000000001
 20
0.0
 30
0.0
  0
SPLINE
  5
A1
330
93
100
AcDbEntity
  8
0
  6
Continuous
 62
     7
370
    25
100
AcDbSpline
210
0.0
220
0.0
230
1.0
 70
     8
 71
     3
 72
    59
 73
    55
 74
     0
 42
0.000000001
 43
0.00000001
 40
0.0
 40
0.0
 40
0.0
 40
0.0
 40
0.0062752439977606
 40
0.0287620341470697
 40
0.0513624002364052
 40
0.0740015357289154
 40
0.0950373424964451
 40
0.1161066555828838
 40
0.1372824399239542
 40
0.1584964223282306
 40
0.1764925703375824
 40
0.1945157808523836
 40
0.212627107079351
 40
0.2307710548056704
 40
0.2456638140787495
 40
0.2605784037577231
 40
0.2755648309816085
 40
0.2905781849560429
 40
0.315177243613222
 40
0.3399344688225564
 40
0.3605804071747675
 40
0.3813609428991765
 40
0.4026349981198312
 40
0.4241159696954452
 40
0.439106019275408
 40
0.4541891964878381
 40
0.4695852212726735
 40
0.4850979725250842
 40
0.5000910547017808
 40
0.5151982600372528
 40
0.5299327942123481
 40
0.5447713411051341
 40
0.5597626876274094
 40
0.5749557057281136
 40
0.5901122408087377
 40
0.6053507304993359
 40
0.6208198564091774
 40
0.6363577686697206
 40
0.6603198525900239
 40
0.6844711128796328
 40
0.7084250558843681
 40
0.73250880018636
 40
0.7496274960190887
 40
0.7667814956625153
 40
0.7840339122349633
 40
0.8013159123058677
 40
0.8184331298415176
 40
0.8355747462966551
 40
0.8527859425565844
 40
0.8700187645890352
 40
0.9042661278319248
 40
0.9386623361117433
 40
0.972907294530568
 40
1.0
 40
1.0
 40
1.0
 40
1.0
 10
152.4452466179796
 20
-96.93862406084402
 30
0.0
 10
152.4612875551537
 20
-96.93992658282798
 30
0.0
 10
152.5348097931603
 20
-96.94589657886205
 30
0.0
 10
152.1179428647809
 20
-96.91180588858072
 30
0.0
 10
151.1737624728054
 20
-96.84528363828255
 30
0.0
 10
149.6639359987263
 20
-96.74947883563395
 30
0.0
 10
147.6800632390796
 20
-96.63439834707309
 30
0.0
 10
145.2414741206163
 20
-96.50045850140577
 30
0.0
 10
142.2878228211893
 20
-96.34597937551118
 30
0.0
 10
138.9804897914283
 20
-96.18253885436043
 30
0.0
 10
135.3997985937954
 20
-96.01702649244244
 30
0.0
 10
131.6162946305892
 20
-95.854913981271
 30
0.0
 10
127.4129550751281
 20
-95.69150469272857
 30
0.0
 10
123.0540588476912
 20
-95.54055571190197
 30
0.0
 10
118.6180213527909
 20
-95.40325806763576
 30
0.0
 10
114.1721321932715
 20
-95.2786070320026
 30
0.0
 10
109.4031392953954
 20
-95.1564637423175
 30
0.0
 10
103.2177917267429
 20
-95.00832314436698
 30
0.0
 10
95.30521580113921
 20
-94.84059142220607
 30
0.0
 10
85.83471289130914
 20
-94.68012686074299
 30
0.0
 10
76.11521302209817
 20
-94.55086640356244
 30
0.0
 10
66.24437142264102
 20
-94.44371694563021
 30
0.0
 10
55.57737427939733
 20
-94.3491188832526
 30
0.0
 10
45.30411074303967
 20
-94.27669733138377
 30
0.0
 10
35.75012664148895
 20
-94.22492577400196
 30
0.0
 10
27.08120357843332
 20
-94.19142214107934
 30
0.0
 10
18.11421242329506
 20
-94.17131189304081
 30
0.0
 10
9.024807278893553
 20
-94.16352889891698
 30
0.0
 10
-0.0761601783457415
 20
-94.16328457451621
 30
0.0
 10
-9.021674432368009
 20
-94.16356098268078
 30
0.0
 10
-17.86855030844677
 20
-94.17113609906775
 30
0.0
 10
-26.56474482159571
 20
-94.18998239201852
 30
0.0
 10
-35.16397913462625
 20
-94.22219516567955
 30
0.0
 10
-43.58514647473525
 20
-94.26699723541755
 30
0.0
 10
-51.7707641076824
 20
-94.32167577669878
 30
0.0
 10
-59.69243432439691
 20
-94.38486680524161
 30
0.0
 10
-67.33944567434068
 20
-94.456137544395
 30
0.0
 10
-76.00337313397543
 20
-94.54988169994746
 30
0.0
 10
-85.39939424474044
 20
-94.67291339555604
 30
0.0
 10
-95.15083513077327
 20
-94.8379254193068
 30
0.0
 10
-104.0488524157608
 20
-95.0257580814362
 30
0.0
 10
-111.3196808157028
 20
-95.20304118416797
 30
0.0
 10
-117.2675044970425
 20
-95.36339205960981
 30
0.0
 10
-122.1168692989806
 20
-95.50997308089363
 30
0.0
 10
-126.5873406678409
 20
-95.66176089054865
 30
0.0
 10
-130.6698950599007
 20
-95.81683593667496
 30
0.0
 10
-134.3712118845613
 20
-95.97180474439179
 30
0.0
 10
-137.7059269405754
 20
-96.12262841683244
 30
0.0
 10
-140.6934044996297
 20
-96.26644984693448
 30
0.0
 10
-144.2059851956733
 20
-96.44447340099242
 30
0.0
 10
-147.7563965751588
 20
-96.63698114655026
 30
0.0
 10
-150.6521900672086
 20
-96.80813082461039
 30
0.0
 10
-152.2842414608026
 20
-96.92435782987289
 30
0.0
 10
-152.3600006565415
 20
-96.93149399405543
 30
0.0
 10
-152.3934633195555
 20
-96.93464602140897
 30
0.0
  0
SPLINE
  5
A2
330
93
100
AcDbEntity
  8
0
  6
Continuous
 62
     7
370
    25
100
AcDbSpline
210
0.0
220
0.0
230
1.0
 70
    24
 71
     3
 72
    19
 73
    15
 74
     0
 42
0.000000001
 43
0.00000001
 40
0.2499999999996538
 40
0.2499999999996538
 40
0.2499999999996538
 40
0.2499999999996538
 40
0.2916666666666666
 40
0.3333333333333334
 40
0.375
 40
0.4166666666666666
 40
0.4583333333333334
 40
0.4999999999999999
 40
0.5416666666666667
 40
0.5833333333333333
 40
0.625
 40
0.6666666666666667
 40
0.7083333333333333
 40
0.7499999999996151
 40
0.7499999999996151
 40
0.7499999999996151
 40
0.7499999999996151
 10
49.99999999999999
 20
-140.0
 30
0.0
 10
49.9999999999951
 20
-140.0
 30
0.0
 10
48.8261198751099
 20
-140.0
 30
0.0
 10
43.83006815277572
 20
-140.0
 30
0.0
 10
35.77036835762737
 20
-140.0
 30
0.0
 10
25.22049277267871
 20
-140.0
 30
0.0
 10
13.15895694626876
 20
-140.0
 30
0.0
 10
-0.0000000000000772
 20
-140.0
 30
0.0
 10
-13.1589569462689
 20
-140.0
 30
0.0
 10
-25.22049277267882
 20
-140.0
 30
0.0
 10
-35.77036835762749
 20
-140.0
 30
0.0
 10
-43.83006815277582
 20
-140.0
 30
0.0
 10
-48.82611987513148
 20
-140.0
 30
0.0
 10
-50.00000000000003
 20
-140.0
 30
0.0
 10
-50.00000000000003
 20
-140.0
 30
0.0
  0
SPLINE
  5
A3
330
93
100
AcDbEntity
  8
0
  6
Continuous
 62
     7
370
    25
100
AcDbSpline
210
0.0
220
0.0
230
1.0
 70
    24
 71
     3
 72
    19
 73
    15
 74
     0
 42
0.000000001
 43
0.00000001
 40
0.2499999999996538
 40
0.2499999999996538
 40
0.2499999999996538
 40
0.2499999999996538
 40
0.2916666666666666
 40
0.3333333333333334
 40
0.375
 40
0.4166666666666666
 40
0.4583333333333334
 40
0.4999999999999999
 40
0.5416666666666667
 40
0.5833333333333333
 40
0.625
 40
0.6666666666666667
 40
0.7083333333333333
 40
0.7499999999996151
 40
0.7499999999996151
 40
0.7499999999996151
 40
0.7499999999996151
 10
49.99999999999999
 20
-145.0
 30
0.0
 10
49.99999999999522
 20
-145.0000000000001
 30
0.0
 10
48.80797995955402
 20
-145.0000000000001
 30
0.0
 10
43.76940283561461
 20
-145.0
 30
0.0
 10
35.70451153140299
 20
-145.0
 30
0.0
 10
25.18118463891956
 20
-145.0000000000001
 30
0.0
 10
13.1245636977552
 20
-145.0000000000001
 30
0.0
 10
-0.0000000000000587
 20
-145.0000000000001
 30
0.0
 10
-13.12456369775548
 20
-145.0
 30
0.0
 10
-25.18118463892021
 20
-145.0000000000001
 30
0.0
 10
-35.70451153140403
 20
-145.0000000000001
 30
0.0
 10
-43.76940283561581
 20
-145.0
 30
0.0
 10
-48.80797995957488
 20
-145.0
 30
0.0
 10
-50.00000000000003
 20
-145.0
 30
0.0
 10
-50.00000000000004
 20
-145.0
 30
0.0
  0
LINE
  5
A4
330
93
100
AcDbEntity
  8
0
  6
Continuous
 62
     7
370
    25
100
AcDbLine
 10
-152.5
 20
-90.0
 30
0.0
 11
-152.5
 21
-96.9346460214
 31
0.0
  0
LINE
  5
A5
330
93
100
AcDbEntity
  8
0
  6
Continuous
 62
     7
370
    25
100
AcDbLine
 10
152.5
 20
-96.9386240608
 30
0.0
 11
152.5
 21
-90.0
 31
0.0
  0
LINE
  5
A6
330
93
100
AcDbEntity
  8
0
  6
Continuous
 62
     7
370
    25
100
AcDbLine
 10
50.0
 20
-145.0
 30
0.0
 11
50.0
 21
-140.0
 31
0.0
  0
LINE
  5
A7
330
93
100
AcDbEntity
  8
0
  6
Continuous
 62
     7
370
    25
100
AcDbLine
 10
-50.0
 20
-140.0
 30
0.0
 11
-50.0
 21
-145.0
 31
0.0
  0
VIEWPORT
  5
129
330
93
100
AcDbEntity
  8
0
100
AcDbViewport
 10
0.0
 20
0.0
 30
0.0
 40
205.6
 41
156.0
 68
     1
 69
     1
 12
0.0
 22
-12.0504288426
 13
0.0
 23
0.0
 14
10.0
 24
10.0
 15
10.0
 25
10.0
 16
0.0
 26
0.0
 36
1.0
 17
0.0
 27
0.0
 37
0.0
 42
50.0
 43
0.0
 44
0.0
 45
440.8991966491
 50
0.0
 51
0.0
 72
   100
 90
   557152
  1

281
     0
 71
     1
 74
     0
110
0.0
120
0.0
130
0.0
111
1.0
121
0.0
131
0.0
112
0.0
122
1.0
132
0.0
 79
     0
146
0.0
170
     0
 61
     5
348
2F
292
     1
282
     1
141
0.0
142
0.0
 63
   256
361
12A
  0
ENDBLK
  5
96
330
93
100
AcDbEntity
  8
0
100
AcDbBlockEnd
  0
BLOCK
  5
AA
330
A8
100
AcDbEntity
  8
0
100
AcDbBlockBegin
  2
*Paper_Space2
 70
     0
 10
0.0
 20
0.0
 30
0.0
  3
*Paper_Space2
  1

  0
SPLINE
  5
AC
330
A8
100
AcDbEntity
  8
0
  6
Continuous
 62
     7
370
    25
100
AcDbSpline
210
0.0
220
0.0
230
1.0
 70
     8
 71
     3
 72
    15
 73
    11
 74
     0
 42
0.000000001
 43
0.00000001
 40
0.0
 40
0.0
 40
0.0
 40
0.0
 40
0.1190243816495653
 40
0.2441156639362634
 40
0.3693564177418222
 40
0.4948064539127279
 40
0.6205281614909217
 40
0.74658718852567
 40
0.8730530989877022
 40
1.0
 40
1.0
 40
1.0
 40
1.0
 10
232.6008727057824
 20
-89.9846937470762
 30
0.0
 10
237.5112696120623
 20
-87.160226846802
 30
0.0
 10
247.5823557572215
 20
-81.36732456013885
 30
0.0
 10
262.315070598839
 20
-71.76655123895053
 30
0.0
 10
276.8951379840951
 20
-61.40592134104667
 30
0.0
 10
291.0208077812961
 20
-50.38217477113062
 30
0.0
 10
304.6834622537944
 20
-38.72945561723484
 30
0.0
 10
317.8424592339671
 20
-26.44214636765553
 30
0.0
 10
330.5306065824532
 20
-13.58101071434418
 30
0.0
 10
338.5051568253093
 20
-4.532728273269532
 30
0.0
 10
342.5000000000001
 20
0.0
 30
0.0
  0
SPLINE
  5
AD
330
A8
100
AcDbEntity
  8
0
  6
Continuous
 62
     7
370
    25
100
AcDbSpline
210
0.0
220
0.0
230
1.0
 70
     8
 71
     3
 72
    15
 73
    11
 74
     0
 42
0.000000001
 43
0.00000001
 40
0.0
 40
0.0
 40
0.0
 40
0.0
 40
0.1268832047112042
 40
0.2532856602117795
 40
0.3792814364410532
 40
0.5049400624656528
 40
0.6303271533955765
 40
0.7555050669687233
 40
0.8805335840211611
 40
1.0
 40
1.0
 40
1.0
 40
1.0
 10
-342.5
 20
0.0
 30
0.0
 10
-338.5051568026988
 20
-4.532728235861011
 30
0.0
 10
-330.5306065147076
 20
-13.58101060226038
 30
0.0
 10
-317.8424595033905
 20
-26.44214681341152
 30
0.0
 10
-304.6834612480958
 20
-38.72945395332524
 30
0.0
 10
-291.0208115217361
 20
-50.38218095961859
 30
0.0
 10
-276.8951240662763
 20
-61.40589831427668
 30
0.0
 10
-262.3151224224283
 20
-71.76663698010579
 30
0.0
 10
-247.5621423928087
 20
-81.38005978540652
 30
0.0
 10
-237.4702366877646
 20
-87.18469435830902
 30
0.0
 10
-232.5390759883165
 20
-90.02098580980835
 30
0.0
  0
SPLINE
  5
B0
330
A8
100
AcDbEntity
  8
0
  6
Continuous
 62
     7
370
    25
100
AcDbSpline
210
0.0
220
0.0
230
1.0
 70
     8
 71
     3
 72
    15
 73
    11
 74
     0
 42
0.000000001
 43
0.00000001
 40
0.0
 40
0.0
 40
0.0
 40
0.0
 40
0.1269961350497567
 40
0.2534687803617918
 40
0.3795077491554074
 40
0.5051968798236737
 40
0.6306149878760557
 40
0.7558368639911591
 40
0.8809343077516988
 40
1.0
 40
1.0
 40
1.0
 40
1.0
 10
74.99999999999999
 20
-140.0
 30
0.0
 10
81.6360336060652
 20
-139.2180439800343
 30
0.0
 10
94.88074647791917
 20
-137.6573552346674
 30
0.0
 10
114.5359238218653
 20
-134.0915832133221
 30
0.0
 10
133.9364849187679
 20
-129.6552260866614
 30
0.0
 10
153.0411810704354
 20
-124.2746233180674
 30
0.0
 10
171.824554426545
 20
-117.9959744647712
 30
0.0
 10
190.242438732645
 20
-110.8061782668564
 30
0.0
 10
208.0219803041574
 20
-102.9370170645019
 30
0.0
 10
219.4280431161561
 20
-97.02632962858289
 30
0.0
 10
224.9901881096127
 20
-94.14399406095839
 30
0.0
  0
SPLINE
  5
B1
330
A8
100
AcDbEntity
  8
0
  6
Continuous
 62
     7
370
    25
100
AcDbSpline
210
0.0
220
0.0
230
1.0
 70
     8
 71
     3
 72
    15
 73
    11
 74
     0
 42
0.000000001
 43
0.00000001
 40
0.0
 40
0.0
 40
0.0
 40
0.0
 40
0.1190541931108133
 40
0.2441532698111677
 40
0.3693767804903439
 40
0.4947965256682814
 40
0.620487296999854
 40
0.7465279110233334
 40
0.8730022072261602
 40
1.0
 40
1.0
 40
1.0
 40
1.0
 10
-224.9883497502818
 20
-94.14492354397049
 30
0.0
 10
-219.4268131015548
 20
-97.02694018513768
 30
0.0
 10
-208.0213571282616
 20
-102.9373056095308
 30
0.0
 10
-190.242437333394
 20
-110.8061754005111
 30
0.0
 10
-171.8245548022548
 20
-117.995975234407
 30
0.0
 10
-153.0411809694682
 20
-124.2746231112372
 30
0.0
 10
-133.936484945918
 20
-129.6552261422778
 30
0.0
 10
-114.5359238145901
 20
-134.0915831984186
 30
0.0
 10
-94.88074647974949
 20
-137.6573552384166
 30
0.0
 10
-81.63603360667624
 20
-139.2180439812858
 30
0.0
 10
-75.0000000000001
 20
-140.0
 30
0.0
  0
SPLINE
  5
B4
330
A8
100
AcDbEntity
  8
0
  6
Continuous
 62
     7
370
    25
100
AcDbSpline
210
0.0
220
0.0
230
1.0
 70
    24
 71
     3
 72
    59
 73
    55
 74
     0
 42
0.000000001
 43
0.00000001
 40
0.0
 40
0.0
 40
0.0
 40
0.0
 40
0.0129138803144619
 40
0.0295330099989848
 40
0.0441252900805181
 40
0.0588127998876941
 40
0.0735881492691359
 40
0.0884490522750169
 40
0.1082211676974003
 40
0.1281557035509609
 40
0.1482277537864186
 40
0.1684221731223766
 40
0.1864088166321526
 40
0.2044574633794013
 40
0.2231524630982674
 40
0.2419026639189802
 40
0.2613110760213442
 40
0.2807667324731559
 40
0.3001139210439315
 40
0.3194995496053583
 40
0.3389918701455572
 40
0.358518636053086
 40
0.3781782050616045
 40
0.3978693151472915
 40
0.4176615078112476
 40
0.4374828781686833
 40
0.4573092238420386
 40
0.4771635688483691
 40
0.4971062094827945
 40
0.5170780447977397
 40
0.5371643729089642
 40
0.5572798609477296
 40
0.5774853352535486
 40
0.597721193823993
 40
0.6216265294815916
 40
0.6455875565365732
 40
0.6712084103357161
 40
0.6969083679917614
 40
0.7210310562892226
 40
0.7452331735772948
 40
0.7659491831302551
 40
0.7860769429991851
 40
0.8062748996068376
 40
0.8254819612238737
 40
0.8447677923790925
 40
0.8634139306912991
 40
0.8821624421099888
 40
0.9010290546708379
 40
0.9200395211201293
 40
0.9354110120403534
 40
0.9508810840224582
 40
0.9664563300001554
 40
0.9821503780760064
 40
1.0
 40
1.0
 40
1.0
 40
1.0
 10
-232.5267514125581
 20
-90.0000000000005
 30
0.0
 10
-232.5014285825627
 20
-90.0000000000005
 30
0.0
 10
-232.4435172984833
 20
-90.00000000000053
 30
0.0
 10
-231.2386606999255
 20
-90.00000000000053
 30
0.0
 10
-229.2763254937944
 20
-90.00000000000051
 30
0.0
 10
-226.6680062511241
 20
-90.0000000000005
 30
0.0
 10
-223.3831579623666
 20
-90.00000000000048
 30
0.0
 10
-219.0202540392746
 20
-90.00000000000045
 30
0.0
 10
-213.3697537411899
 20
-90.00000000000051
 30
0.0
 10
-206.2602715622858
 20
-90.00000000000047
 30
0.0
 10
-198.2909996287921
 20
-90.0000000000005
 30
0.0
 10
-189.9041284982631
 20
-90.00000000000048
 30
0.0
 10
-181.2797045544803
 20
-90.00000000000045
 30
0.0
 10
-172.4582255403396
 20
-90.0000000000005
 30
0.0
 10
-163.1243944278487
 20
-90.00000000000045
 30
0.0
 10
-153.2054936756765
 20
-90.00000000000051
 30
0.0
 10
-142.8392313189006
 20
-90.00000000000051
 30
0.0
 10
-132.0872348627377
 20
-90.00000000000044
 30
0.0
 10
-121.0993895165212
 20
-90.0000000000005
 30
0.0
 10
-109.8961821578053
 20
-90.00000000000055
 30
0.0
 10
-98.47618680061248
 20
-90.00000000000051
 30
0.0
 10
-86.84483425784778
 20
-90.00000000000047
 30
0.0
 10
-75.03917337415349
 20
-90.00000000000055
 30
0.0
 10
-63.06691023578925
 20
-90.00000000000045
 30
0.0
 10
-50.96903101695103
 20
-90.00000000000051
 30
0.0
 10
-38.77029931902421
 20
-90.0000000000005
 30
0.0
 10
-26.50384980925842
 20
-90.00000000000048
 30
0.0
 10
-14.1748019825236
 20
-90.0000000000005
 30
0.0
 10
-1.795147842243353
 20
-90.00000000000051
 30
0.0
 10
10.63523552225775
 20
-90.00000000000051
 30
0.0
 10
23.08578330618539
 20
-90.00000000000047
 30
0.0
 10
35.55100296554062
 20
-90.00000000000045
 30
0.0
 10
47.99509150289266
 20
-90.0000000000005
 30
0.0
 10
61.14200200666825
 20
-90.00000000000051
 30
0.0
 10
74.94361358351279
 20
-90.00000000000048
 30
0.0
 10
89.66534324499503
 20
-90.00000000000041
 30
0.0
 10
104.5210247142243
 20
-90.00000000000058
 30
0.0
 10
119.1195181842665
 20
-90.00000000000047
 30
0.0
 10
133.1096725200555
 20
-90.00000000000054
 30
0.0
 10
145.7992349381729
 20
-90.00000000000045
 30
0.0
 10
157.3763189384987
 20
-90.0000000000005
 30
0.0
 10
167.8597270971153
 20
-90.00000000000048
 30
0.0
 10
177.6539925632042
 20
-90.00000000000047
 30
0.0
 10
186.8345681579493
 20
-90.00000000000051
 30
0.0
 10
195.2537920443048
 20
-90.00000000000051
 30
0.0
 10
203.0192198084801
 20
-90.00000000000045
 30
0.0
 10
210.0636564668957
 20
-90.00000000000047
 30
0.0
 10
216.3819309926291
 20
-90.00000000000053
 30
0.0
 10
221.4931956131037
 20
-90.00000000000044
 30
0.0
 10
225.4843560114607
 20
-90.00000000000054
 30
0.0
 10
228.4917650573977
 20
-90.0000000000005
 30
0.0
 10
230.730313537953
 20
-90.00000000000054
 30
0.0
 10
232.290287823713
 20
-90.00000000000054
 30
0.0
 10
232.4988840017637
 20
-90.0000000000005
 30
0.0
 10
232.6098844651302
 20
-90.00000000000044
 30
0.0
  0
SPLINE
  5
B5
330
A8
100
AcDbEntity
  8
0
  6
Continuous
 62
     7
370
    25
100
AcDbSpline
210
0.0
220
0.0
230
1.0
 70
    24
 71
     3
 72
    21
 73
    17
 74
     0
 42
0.000000001
 43
0.00000001
 40
0.0
 40
0.0
 40
0.0
 40
0.0
 40
0.0062500000000001
 40
0.0083333333333333
 40
0.0416666666666666
 40
0.0833333333333334
 40
0.125
 40
0.1666666666666666
 40
0.2083333333333334
 40
0.2499999999996538
 40
0.2916666666666666
 40
0.3333333333333334
 40
0.375
 40
0.4166666666666666
 40
0.4583333333333334
 40
0.4999999999999999
 40
0.4999999999999999
 40
0.4999999999999999
 40
0.4999999999999999
 10
342.5000000000001
 20
0.0
 30
0.0
 10
342.5000000000001
 20
0.0
 30
0.0
 10
342.379383817169
 20
0.0
 30
0.0
 10
340.9820045202297
 20
0.0
 30
0.0
 10
332.1773908580587
 20
0.0
 30
0.0
 10
300.2359668465141
 20
0.0
 30
0.0
 10
245.0270232497481
 20
0.0
 30
0.0
 10
172.7603754928497
 20
0.0
 30
0.0
 10
90.13885508194167
 20
0.0
 30
0.0
 10
0.0000000000001483
 20
0.0
 30
0.0
 10
-90.13885508194133
 20
0.0
 30
0.0
 10
-172.7603754928494
 20
0.0
 30
0.0
 10
-245.0270232497477
 20
0.0
 30
0.0
 10
-300.2359668465142
 20
0.0
 30
0.0
 10
-334.4589211445978
 20
0.0
 30
0.0
 10
-342.5
 20
0.0
 30
0.0
 10
-342.5
 20
0.0
 30
0.0
  0
SPLINE
  5
B6
330
A8
100
AcDbEntity
  8
0
  6
Continuous
 62
     7
370
    25
100
AcDbSpline
210
0.0
220
0.0
230
1.0
 70
     8
 71
     3
 72
    57
 73
    53
 74
     0
 42
0.000000001
 43
0.00000001
 40
0.0
 40
0.0
 40
0.0
 40
0.0
 40
0.01524302599118
 40
0.0306050078882718
 40
0.0463310951999865
 40
0.0621764511690015
 40
0.0774164999758786
 40
0.092747578331479
 40
0.1083371983731635
 40
0.1240045946110659
 40
0.1466839931854727
 40
0.1695421200047166
 40
0.1870176280993719
 40
0.2045515510430307
 40
0.2256737470650931
 40
0.2536112708941332
 40
0.2817013996936828
 40
0.3096331728311828
 40
0.3376769378526772
 40
0.3656054968143225
 40
0.3936234892552274
 40
0.416073716523286
 40
0.4385643678585607
 40
0.4611740484713152
 40
0.4838223543286408
 40
0.5062720549093385
 40
0.528758900848639
 40
0.5513593230097491
 40
0.5739985146702213
 40
0.5950343736278355
 40
0.6161037389874884
 40
0.6372795758659292
 40
0.6584936109023461
 40
0.6764898035603532
 40
0.6945130587909522
 40
0.7126244299523333
 40
0.7307684226940009
 40
0.7456612189161913
 40
0.7605758455984376
 40
0.7755623100038256
 40
0.7905757012265682
 40
0.8151748209143017
 40
0.8399321075466036
 40
0.8605780971216312
 40
0.8813586844027942
 40
0.9026327924046306
 40
0.9241138172747881
 40
0.9391039040452407
 40
0.9541871186792111
 40
0.9695831816617657
 40
0.9850959714014951
 40
1.0
 40
1.0
 40
1.0
 40
1.0
 10
225.0000000000001
 20
-94.16337122359073
 30
0.0
 10
224.9223128875778
 20
-94.16342303988536
 30
0.0
 10
224.7663323959172
 20
-94.1635270768467
 30
0.0
 10
223.49905266301
 20
-94.17160951173341
 30
0.0
 10
221.464327288457
 20
-94.19242552753138
 30
0.0
 10
218.638305694234
 20
-94.22776476932188
 30
0.0
 10
215.1295328360395
 20
-94.27538493061441
 30
0.0
 10
210.9973729160749
 20
-94.33221871372454
 30
0.0
 10
206.2299034504729
 20
-94.39783301183047
 30
0.0
 10
200.0800865115455
 20
-94.48273847418812
 30
0.0
 10
192.3130232929466
 20
-94.59138769919844
 30
0.0
 10
183.504254185
 20
-94.72207142612972
 30
0.0
 10
174.8606782649466
 20
-94.85927681500078
 30
0.0
 10
166.067031503251
 20
-95.0041895702347
 30
0.0
 10
155.1661447699673
 20
-95.18486142172168
 30
0.0
 10
141.951665040413
 20
-95.39581005634714
 30
0.0
 10
126.987982868416
 20
-95.63937103755603
 30
0.0
 10
111.5355487025236
 20
-95.89348021460648
 30
0.0
 10
95.73729934515579
 20
-96.14244552174868
 30
0.0
 10
79.62470497218794
 20
-96.37072347442789
 30
0.0
 10
64.36777570876198
 20
-96.55476224256553
 30
0.0
 10
50.03270270846551
 20
-96.69690926490718
 30
0.0
 10
36.67317079503136
 20
-96.80472430829079
 30
0.0
 10
23.21199560601768
 20
-96.88702610681386
 30
0.0
 10
9.719889228691871
 20
-96.93830225029359
 30
0.0
 10
-3.763777988335821
 20
-96.94892731887714
 30
0.0
 10
-17.23170093904825
 20
-96.91388365469534
 30
0.0
 10
-30.70869499655615
 20
-96.84472328845001
 30
0.0
 10
-43.84611754832723
 20
-96.74961728218956
 30
0.0
 10
-56.609277231378
 20
-96.63436234940454
 30
0.0
 10
-68.99647359558612
 20
-96.50046821096461
 30
0.0
 10
-81.30741447563
 20
-96.34597674880824
 30
0.0
 10
-92.891996396737
 20
-96.18253944080547
 30
0.0
 10
-103.7332951621119
 20
-96.0170263461189
 30
0.0
 10
-113.8474084253102
 20
-95.85491402073288
 30
0.0
 10
-123.8265947636341
 20
-95.69150468204234
 30
0.0
 10
-133.0530703943514
 20
-95.54055571420163
 30
0.0
 10
-141.5278962636321
 20
-95.40325806707162
 30
0.0
 10
-149.2794802494458
 20
-95.27860703215124
 30
0.0
 10
-156.8654957508061
 20
-95.1564637422904
 30
0.0
 10
-165.8312294889226
 20
-95.00832314432323
 30
0.0
 10
-175.9578790639822
 20
-94.8405914226043
 30
0.0
 10
-186.2402742176428
 20
-94.68012685935432
 30
0.0
 10
-195.1916308006982
 20
-94.55086640780716
 30
0.0
 10
-202.8952834650826
 20
-94.44371692941556
 30
0.0
 10
-209.7713971635698
 20
-94.34911894563814
 30
0.0
 10
-215.0281256071133
 20
-94.2766971262841
 30
0.0
 10
-218.8557044741702
 20
-94.22492628834696
 30
0.0
 10
-221.5580715638844
 20
-94.19142016784807
 30
0.0
 10
-223.534087877613
 20
-94.17131945661352
 30
0.0
 10
-224.7743548053436
 20
-94.16351602936327
 30
0.0
 10
-224.9242532129768
 20
-94.16342429097385
 30
0.0
 10
-224.9977023860426
 20
-94.16337933980361
 30
0.0
  0
SPLINE
  5
B7
330
A8
100
AcDbEntity
  8
0
  6
Continuous
 62
     7
370
    25
100
AcDbSpline
210
0.0
220
0.0
230
1.0
 70
    24
 71
     3
 72
    21
 73
    17
 74
     0
 42
0.000000001
 43
0.00000001
 40
0.0
 40
0.0
 40
0.0
 40
0.0
 40
0.0062500000000001
 40
0.0083333333333333
 40
0.0416666666666666
 40
0.0833333333333334
 40
0.125
 40
0.1666666666666666
 40
0.2083333333333334
 40
0.2499999999996538
 40
0.2916666666666666
 40
0.3333333333333334
 40
0.375
 40
0.4166666666666666
 40
0.4583333333333334
 40
0.4999999999999999
 40
0.4999999999999999
 40
0.4999999999999999
 40
0.4999999999999999
 10
74.99999999999999
 20
-140.0
 30
0.0
 10
74.99999999999999
 20
-140.0
 30
0.0
 10
74.97358769719027
 20
-140.0
 30
0.0
 10
74.66759223070719
 20
-140.0
 30
0.0
 10
72.73957464045078
 20
-140.0
 30
0.0
 10
65.7451022291636
 20
-140.0
 30
0.0
 10
53.65555253644105
 20
-140.0
 30
0.0
 10
37.83073915901801
 20
-140.0
 30
0.0
 10
19.73843541940311
 20
-140.0
 30
0.0
 10
-0.0000000000001405
 20
-140.0
 30
0.0
 10
-19.73843541940337
 20
-140.0
 30
0.0
 10
-37.83073915901826
 20
-140.0
 30
0.0
 10
-53.65555253644127
 20
-140.0
 30
0.0
 10
-65.7451022291638
 20
-140.0
 30
0.0
 10
-73.23917981268518
 20
-140.0
 30
0.0
 10
-74.99999999999973
 20
-140.0
 30
0.0
 10
-75.0000000000001
 20
-140.0
 30
0.0
  0
SPLINE
  5
B8
330
A8
100
AcDbEntity
  8
0
  6
Continuous
 62
     7
370
    25
100
AcDbSpline
210
0.0
220
0.0
230
1.0
 70
    24
 71
     3
 72
    21
 73
    17
 74
     0
 42
0.000000001
 43
0.00000001
 40
0.0
 40
0.0
 40
0.0
 40
0.0
 40
0.0062500000000001
 40
0.0083333333333333
 40
0.0416666666666666
 40
0.0833333333333334
 40
0.125
 40
0.1666666666666666
 40
0.2083333333333334
 40
0.2499999999996538
 40
0.2916666666666666
 40
0.3333333333333334
 40
0.375
 40
0.4166666666666666
 40
0.4583333333333334
 40
0.4999999999999999
 40
0.4999999999999999
 40
0.4999999999999999
 40
0.4999999999999999
 10
75.0
 20
-145.0
 30
0.0
 10
74.99999999999983
 20
-145.0
 30
0.0
 10
74.97312537457296
 20
-145.0
 30
0.0
 10
74.66205199857794
 20
-145.0
 30
0.0
 10
72.70371807169154
 20
-145.0
 30
0.0
 10
65.63875480695735
 20
-145.0
 30
0.0
 10
53.52787422140864
 20
-145.0
 30
0.0
 10
37.73746643098969
 20
-145.0
 30
0.0
 10
19.66517573985884
 20
-145.0
 30
0.0
 10
-0.000000000008684
 20
-145.0000000000001
 30
0.0
 10
-19.66517573987588
 20
-145.0000000000001
 30
0.0
 10
-37.73746643101205
 20
-145.0
 30
0.0
 10
-53.52787422142682
 20
-145.0
 30
0.0
 10
-65.63875480697027
 20
-145.0000000000001
 30
0.0
 10
-73.2083583048921
 20
-145.0000000000001
 30
0.0
 10
-75.00000000000014
 20
-145.0000000000001
 30
0.0
 10
-75.0000000000001
 20
-145.0000000000001
 30
0.0
  0
LINE
  5
B9
330
A8
100
AcDbEntity
  8
0
  6
Continuous
 62
     7
370
    25
100
AcDbLine
 10
-225.0
 20
-90.0
 30
0.0
 11
-225.0
 21
-94.1633793398
 31
0.0
  0
LINE
  5
BA
330
A8
100
AcDbEntity
  8
0
  6
Continuous
 62
     7
370
    25
100
AcDbLine
 10
225.0
 20
-94.1633712236
 30
0.0
 11
225.0
 21
-90.0
 31
0.0
  0
LINE
  5
BB
330
A8
100
AcDbEntity
  8
0
  6
Continuous
 62
     7
370
    25
100
AcDbLine
 10
75.0
 20
-145.0
 30
0.0
 11
75.0
 21
-140.0
 31
0.0
  0
LINE
  5
BC
330
A8
100
AcDbEntity
  8
0
  6
Continuous
 62
     7
370
    25
100
AcDbLine
 10
-75.0
 20
-140.0
 30
0.0
 11
-75.0
 21
-145.0
 31
0.0
  0
VIEWPORT
  5
12B
330
A8
100
AcDbEntity
  8
0
100
AcDbViewport
 10
0.0
 20
0.0
 30
0.0
 40
205.6
 41
156.0
 68
     1
 69
     1
 12
0.0
 22
-12.0504288426
 13
0.0
 23
0.0
 14
10.0
 24
10.0
 15
10.0
 25
10.0
 16
0.0
 26
0.0
 36
1.0
 17
0.0
 27
0.0
 37
0.0
 42
50.0
 43
0.0
 44
0.0
 45
440.8991966491
 50
0.0
 51
0.0
 72
   100
 90
   557152
  1

281
     0
 71
     1
 74
     0
110
0.0
120
0.0
130
0.0
111
1.0
121
0.0
131
0.0
112
0.0
122
1.0
132
0.0
 79
     0
146
0.0
170
     0
 61
     5
348
2F
292
     1
282
     1
141
0.0
142
0.0
 63
   256
361
12C
  0
ENDBLK
  5
AB
330
A8
100
AcDbEntity
  8
0
100
AcDbBlockEnd
  0
BLOCK
  5
BF
330
BD
100
AcDbEntity
  8
0
100
AcDbBlockBegin
  2
*Paper_Space3
 70
     0
 10
0.0
 20
0.0
 30
0.0
  3
*Paper_Space3
  1

  0
SPLINE
  5
C1
330
BD
100
AcDbEntity
  8
0
  6
Continuous
 62
     7
370
    25
100
AcDbSpline
210
0.0
220
0.0
230
1.0
 70
     8
 71
     3
 72
    15
 73
    11
 74
     0
 42
0.000000001
 43
0.00000001
 40
0.0
 40
0.0
 40
0.0
 40
0.0
 40
0.1194664945753375
 40
0.2444950004677197
 40
0.3696729028674758
 40
0.4950599826053377
 40
0.6207185974136382
 40
0.7467143623965188
 40
0.8731168066144007
 40
0.9999999999999999
 40
0.9999999999999999
 40
0.9999999999999999
 40
0.9999999999999999
 10
232.5390649949524
 20
-90.02099226600654
 30
0.0
 10
237.4702293882069
 20
-87.18469871100292
 30
0.0
 10
247.5621387969562
 20
-81.38006205097355
 30
0.0
 10
262.3151224316271
 20
-71.76663699532513
 30
0.0
 10
276.8951240638059
 20
-61.40589831018937
 30
0.0
 10
291.0208115224
 20
-50.38218096071706
 30
0.0
 10
304.6834612479173
 20
-38.7294539530299
 30
0.0
 10
317.8424595034383
 20
-26.44214681349063
 30
0.0
 10
330.5306065146957
 20
-13.58101060224049
 30
0.0
 10
338.5051568026948
 20
-4.532728235854377
 30
0.0
 10
342.5
 20
0.0
 30
0.0
  0
SPLINE
  5
C2
330
BD
100
AcDbEntity
  8
0
  6
Continuous
 62
     7
370
    25
100
AcDbSpline
210
0.0
220
0.0
230
1.0
 70
     8
 71
     3
 72
    15
 73
    11
 74
     0
 42
0.000000001
 43
0.00000001
 40
0.0
 40
0.0
 40
0.0
 40
0.0
 40
0.1269468997941972
 40
0.2534128090427443
 40
0.3794718348679115
 40
0.505193541239761
 40
0.6306435762069291
 40
0.7558843288107585
 40
0.8809756098971615
 40
0.9999999999999999
 40
0.9999999999999999
 40
0.9999999999999999
 40
0.9999999999999999
 10
-342.5000000000001
 20
0.0
 30
0.0
 10
-338.5051568253089
 20
-4.53272827326881
 30
0.0
 10
-330.530606582452
 20
-13.58101071434204
 30
0.0
 10
-317.8424592339724
 20
-26.44214636766408
 30
0.0
 10
-304.6834622537751
 20
-38.72945561720296
 30
0.0
 10
-291.0208077813677
 20
-50.38217477124916
 30
0.0
 10
-276.8951379838285
 20
-61.40592134060557
 30
0.0
 10
-262.3150705998319
 20
-71.76655124059302
 30
0.0
 10
-247.5823553708622
 20
-81.36732480355673
 30
0.0
 10
-237.5112688277581
 20
-87.16022731446996
 30
0.0
 10
-232.6008715246017
 20
-89.98469444076167
 30
0.0
  0
SPLINE
  5
C5
330
BD
100
AcDbEntity
  8
0
  6
Continuous
 62
     7
370
    25
100
AcDbSpline
210
0.0
220
0.0
230
1.0
 70
     8
 71
     3
 72
    15
 73
    11
 74
     0
 42
0.000000001
 43
0.00000001
 40
0.0
 40
0.0
 40
0.0
 40
0.0
 40
0.1269977927738397
 40
0.2534720889766666
 40
0.3795127030001459
 40
0.5052034743317186
 40
0.630623219509656
 40
0.7558467301888323
 40
0.8809458068891867
 40
1.0
 40
1.0
 40
1.0
 40
1.0
 10
75.0000000000001
 20
-140.0
 30
0.0
 10
81.63603360667626
 20
-139.2180439812858
 30
0.0
 10
94.8807464797495
 20
-137.6573552384166
 30
0.0
 10
114.5359238145901
 20
-134.0915831984186
 30
0.0
 10
133.936484945918
 20
-129.6552261422779
 30
0.0
 10
153.0411809694681
 20
-124.2746231112371
 30
0.0
 10
171.8245548022548
 20
-117.995975234407
 30
0.0
 10
190.242437333394
 20
-110.8061754005111
 30
0.0
 10
208.0213571282617
 20
-102.9373056095308
 30
0.0
 10
219.4268131015548
 20
-97.02694018513768
 30
0.0
 10
224.9883497502818
 20
-94.14492354397049
 30
0.0
  0
SPLINE
  5
C6
330
BD
100
AcDbEntity
  8
0
  6
Continuous
 62
     7
370
    25
100
AcDbSpline
210
0.0
220
0.0
230
1.0
 70
     8
 71
     3
 72
    15
 73
    11
 74
     0
 42
0.000000001
 43
0.00000001
 40
0.0
 40
0.0
 40
0.0
 40
0.0
 40
0.1190656710273358
 40
0.2441631178013675
 40
0.3693849969329603
 40
0.494803108006559
 40
0.6204922417025706
 40
0.7465312135323587
 40
0.8730038618910134
 40
1.0
 40
1.0
 40
1.0
 40
1.0
 10
-224.9901847169871
 20
-94.14399577628562
 30
0.0
 10
-219.4280408462086
 20
-97.02633075534264
 30
0.0
 10
-208.0219791541088
 20
-102.937017597001
 30
0.0
 10
-190.2424387300627
 20
-110.8061782615669
 30
0.0
 10
-171.8245544272384
 20
-117.9959744661915
 30
0.0
 10
-153.0411810702491
 20
-124.2746233176857
 30
0.0
 10
-133.936484918818
 20
-129.6552260867641
 30
0.0
 10
-114.5359238218519
 20
-134.0915832132946
 30
0.0
 10
-94.88074647792256
 20
-137.6573552346743
 30
0.0
 10
-81.63603360606635
 20
-139.2180439800367
 30
0.0
 10
-74.99999999999999
 20
-140.0
 30
0.0
  0
SPLINE
  5
C9
330
BD
100
AcDbEntity
  8
0
  6
Continuous
 62
     7
370
    25
100
AcDbSpline
210
0.0
220
0.0
230
1.0
 70
    24
 71
     3
 72
    58
 73
    54
 74
     0
 42
0.000000001
 43
0.00000001
 40
0.0
 40
0.0
 40
0.0
 40
0.0
 40
0.0172540574450022
 40
0.0346798513634617
 40
0.0522762988648237
 40
0.0700297939448389
 40
0.0872228902933635
 40
0.104536316105229
 40
0.121961710929166
 40
0.1394832586120706
 40
0.1595791282960085
 40
0.1796312080897801
 40
0.199773919847852
 40
0.2197476284230706
 40
0.2397902919940702
 40
0.2634915717722766
 40
0.2872880546744218
 40
0.3111606269060557
 40
0.3351125867407188
 40
0.3590663164122568
 40
0.3830804559901247
 40
0.4013392696924307
 40
0.4196456558150742
 40
0.4379750054724792
 40
0.4563844105697281
 40
0.4748162191253696
 40
0.493328503664141
 40
0.5118640811512032
 40
0.5304471441260247
 40
0.5521408969029593
 40
0.5739151163042132
 40
0.5957271737482964
 40
0.6176853244056091
 40
0.6396861995283849
 40
0.6618401716743675
 40
0.6840438245144097
 40
0.7063461139495562
 40
0.729080901566142
 40
0.7518849063116714
 40
0.7736998536999615
 40
0.7955966933983811
 40
0.8169211787073827
 40
0.8372093818465548
 40
0.8575991490833803
 40
0.8781153203843994
 40
0.8987810025598005
 40
0.9149161358789023
 40
0.931148343106713
 40
0.9474935740820453
 40
0.9639608903090544
 40
0.980137089584518
 40
0.9964503610536289
 40
1.0
 40
1.0
 40
1.0
 40
1.0
 10
-232.6098844651302
 20
-90.00000000000044
 30
0.0
 10
-232.5051635691069
 20
-90.00000000000044
 30
0.0
 10
-232.2946794484694
 20
-90.00000000000044
 30
0.0
 10
-230.6143827503972
 20
-90.00000000000053
 30
0.0
 10
-227.9618514344425
 20
-90.00000000000054
 30
0.0
 10
-224.3238385868344
 20
-90.0000000000005
 30
0.0
 10
-219.8231801525842
 20
-90.00000000000047
 30
0.0
 10
-214.5552189017211
 20
-90.0000000000005
 30
0.0
 10
-208.5332888805863
 20
-90.00000000000044
 30
0.0
 10
-201.5142030381708
 20
-90.00000000000053
 30
0.0
 10
-193.4903256530088
 20
-90.00000000000045
 30
0.0
 10
-184.4641581604267
 20
-90.00000000000055
 30
0.0
 10
-174.9067770370411
 20
-90.00000000000051
 30
0.0
 10
-164.8756625845577
 20
-90.0000000000005
 30
0.0
 10
-153.8132181610949
 20
-90.0000000000005
 30
0.0
 10
-141.6562755500949
 20
-90.00000000000048
 30
0.0
 10
-128.4007379567279
 20
-90.00000000000054
 30
0.0
 10
-114.7528158087387
 20
-90.00000000000045
 30
0.0
 10
-100.7821540888993
 20
-90.00000000000051
 30
0.0
 10
-86.53918015459456
 20
-90.00000000000045
 30
0.0
 10
-73.23870565576803
 20
-90.00000000000058
 30
0.0
 10
-60.95449029327757
 20
-90.00000000000047
 30
0.0
 10
-49.74631770209207
 20
-90.00000000000051
 30
0.0
 10
-38.44633371201814
 20
-90.00000000000051
 30
0.0
 10
-27.07373098064739
 20
-90.00000000000053
 30
0.0
 10
-15.63032033433318
 20
-90.00000000000051
 30
0.0
 10
-4.141401190569294
 20
-90.0000000000005
 30
0.0
 10
7.384164019431709
 20
-90.0000000000005
 30
0.0
 10
19.55884803285727
 20
-90.0000000000005
 30
0.0
 10
32.37587722358014
 20
-90.0000000000005
 30
0.0
 10
45.80474967327254
 20
-90.0000000000005
 30
0.0
 10
59.20890774079428
 20
-90.00000000000045
 30
0.0
 10
72.55349015498274
 20
-90.00000000000051
 30
0.0
 10
85.83157756940376
 20
-90.00000000000048
 30
0.0
 10
98.99046841530372
 20
-90.00000000000051
 30
0.0
 10
112.004044070284
 20
-90.00000000000048
 30
0.0
 10
124.8845147718624
 20
-90.00000000000057
 30
0.0
 10
137.5844980644429
 20
-90.00000000000048
 30
0.0
 10
149.842673470189
 20
-90.00000000000051
 30
0.0
 10
161.5445135830843
 20
-90.00000000000048
 30
0.0
 10
172.5224906381445
 20
-90.00000000000045
 30
0.0
 10
182.7184557471736
 20
-90.00000000000054
 30
0.0
 10
192.1007348244969
 20
-90.00000000000048
 30
0.0
 10
200.7206445694898
 20
-90.00000000000045
 30
0.0
 10
208.6344371264715
 20
-90.00000000000051
 30
0.0
 10
215.1713952890294
 20
-90.00000000000055
 30
0.0
 10
220.425615910256
 20
-90.00000000000044
 30
0.0
 10
224.5462934400725
 20
-90.00000000000058
 30
0.0
 10
227.9077459979018
 20
-90.00000000000045
 30
0.0
 10
230.4443648736008
 20
-90.00000000000053
 30
0.0
 10
232.0049467544652
 20
-90.00000000000047
 30
0.0
 10
232.695991325017
 20
-90.00000000000048
 30
0.0
 10
232.552397782919
 20
-90.00000000000051
 30
0.0
 10
232.5267366275889
 20
-90.0000000000005
 30
0.0
  0
SPLINE
  5
CB
330
BD
100
AcDbEntity
  8
0
  6
Continuous
 62
     7
370
    25
100
AcDbSpline
210
0.0
220
0.0
230
1.0
 70
     8
 71
     3
 72
    58
 73
    54
 74
     0
 42
0.000000001
 43
0.00000001
 40
0.0
 40
0.0
 40
0.0
 40
0.0
 40
0.0000890912612652
 40
0.0151964163302264
 40
0.0299310672851728
 40
0.044769731782172
 40
0.0597611971196874
 40
0.0749543356339975
 40
0.0901109908390782
 40
0.1053496013036714
 40
0.1208188498154357
 40
0.1363568852230741
 40
0.1603191590569884
 40
0.1844706107595425
 40
0.2084247436133673
 40
0.2325086787932004
 40
0.2496275103016639
 40
0.2667816459006288
 40
0.284034199208627
 40
0.3013163362495484
 40
0.3184336894492167
 40
0.3355754417617484
 40
0.3527867744305327
 40
0.3700197330432354
 40
0.4042673677166254
 40
0.4386638486066285
 40
0.4729090784368938
 40
0.5072882233996171
 40
0.5415330818157018
 40
0.5759121523791542
 40
0.6101583991192663
 40
0.6273490742263357
 40
0.6445595894629541
 40
0.6616764349819041
 40
0.6788152436731868
 40
0.6960247583579988
 40
0.7132600794277283
 40
0.7291047402525122
 40
0.7449732779311509
 40
0.7609203773733995
 40
0.7768969241315011
 40
0.8026164058416781
 40
0.8285002726201282
 40
0.8500210711867942
 40
0.8716816788099786
 40
0.8901070843173374
 40
0.9086542226324834
 40
0.9276366333051614
 40
0.9467951898802872
 40
0.9599848034823028
 40
0.9732450231199828
 40
0.9865829411096291
 40
1.0
 40
1.0
 40
1.0
 40
1.0
 10
224.9977023860426
 20
-94.16337933980361
 30
0.0
 10
224.9984677970133
 20
-94.1633766261517
 30
0.0
 10
225.1290249763512
 20
-94.1629137548962
 30
0.0
 10
224.6760248621851
 20
-94.16376924275481
 30
0.0
 10
223.5911062069368
 20
-94.17108047230622
 30
0.0
 10
221.6819628228336
 20
-94.18999750626044
 30
0.0
 10
219.0654157573198
 20
-94.22219103711221
 30
0.0
 10
215.741245442318
 20
-94.26699834468644
 30
0.0
 10
211.7630321703073
 20
-94.3216754781589
 30
0.0
 10
207.1726338837786
 20
-94.38486688667511
 30
0.0
 10
202.0019194212593
 20
-94.4561375226404
 30
0.0
 10
195.2718735591883
 20
-94.54988170939912
 30
0.0
 10
186.7064317916031
 20
-94.67291339251803
 30
0.0
 10
176.1244268783276
 20
-94.83792542024979
 30
0.0
 10
164.7883297454187
 20
-95.02575808068778
 30
0.0
 10
154.0047105677981
 20
-95.20304118595891
 30
0.0
 10
143.9961940860074
 20
-95.36339205512569
 30
0.0
 10
134.9323336960586
 20
-95.50997309786753
 30
0.0
 10
125.6400652957819
 20
-95.66176082671126
 30
0.0
 10
116.1792407300627
 20
-95.81683617437699
 30
0.0
 10
106.5868460654248
 20
-95.97180386621766
 30
0.0
 10
96.87602854907375
 20
-96.1226317060911
 30
0.0
 10
87.02856095823918
 20
-96.26643750952626
 30
0.0
 10
73.7842710252877
 20
-96.44453874401367
 30
0.0
 10
57.01260463193016
 20
-96.63645729400905
 30
0.0
 10
36.68705085741468
 20
-96.81004934249927
 30
0.0
 10
16.19101456027798
 20
-96.9260792165728
 30
0.0
 10
-4.337110805560846
 20
-96.9584192455801
 30
0.0
 10
-24.87529189584517
 20
-96.88471004490184
 30
0.0
 10
-45.29044921964923
 20
-96.74345479587018
 30
0.0
 10
-62.17201749903938
 20
-96.57892429631825
 30
0.0
 10
-75.53577066086267
 20
-96.41979296885854
 30
0.0
 10
-85.48308768820267
 20
-96.28801885323989
 30
0.0
 10
-95.32408068432379
 20
-96.14595755230106
 30
0.0
 10
-105.0534170178381
 20
-95.99611831391391
 30
0.0
 10
-114.6758314077027
 20
-95.8413679850319
 30
0.0
 10
-123.9116142970144
 20
-95.69011034575888
 30
0.0
 10
-132.7453109545836
 20
-95.54559716340951
 30
0.0
 10
-141.1820585987043
 20
-95.40880591620875
 30
0.0
 10
-149.4551276528708
 20
-95.27580442466184
 30
0.0
 10
-159.1766616391294
 20
-95.11915500302946
 30
0.0
 10
-170.1331983726018
 20
-94.93616115636466
 30
0.0
 10
-181.264998708966
 20
-94.75617021405998
 30
0.0
 10
-191.0101237559741
 20
-94.61019948487191
 30
0.0
 10
-198.9685628175146
 20
-94.49813212924833
 30
0.0
 10
-205.7786224277541
 20
-94.40402919876526
 30
0.0
 10
-211.5121879238494
 20
-94.32514549360401
 30
0.0
 10
-216.4312965615926
 20
-94.25744364977378
 30
0.0
 10
-219.9686352001133
 20
-94.21042489011967
 30
0.0
 10
-222.3564912837816
 20
-94.18291208220225
 30
0.0
 10
-223.8601357820067
 20
-94.1689725691397
 30
0.0
 10
-224.8200822749525
 20
-94.16348175022951
 30
0.0
 10
-224.9399092760402
 20
-94.16340813838467
 30
0.0
 10
-225.0000000000001
 20
-94.16337122359073
 30
0.0
  0
LINE
  5
CE
330
BD
100
AcDbEntity
  8
0
  6
Continuous
 62
     7
370
    25
100
AcDbLine
 10
225.0
 20
-94.1633793398
 30
0.0
 11
225.0
 21
-90.0
 31
0.0
  0
LINE
  5
CF
330
BD
100
AcDbEntity
  8
0
  6
Continuous
 62
     7
370
    25
100
AcDbLine
 10
-225.0
 20
-90.0
 30
0.0
 11
-225.0
 21
-94.1633712236
 31
0.0
  0
LINE
  5
D0
330
BD
100
AcDbEntity
  8
0
  6
Continuous
 62
     7
370
    25
100
AcDbLine
 10
75.0
 20
-145.0
 30
0.0
 11
75.0
 21
-140.0
 31
0.0
  0
LINE
  5
D1
330
BD
100
AcDbEntity
  8
0
  6
Continuous
 62
     7
370
    25
100
AcDbLine
 10
-75.0
 20
-140.0
 30
0.0
 11
-75.0
 21
-145.0
 31
0.0
  0
LINE
  5
D2
330
BD
100
AcDbEntity
  8
0
  6
Continuous
 62
     7
370
    25
100
AcDbLine
 10
342.5
 20
0.0
 30
0.0
 11
-342.5
 21
0.0
 31
0.0
  0
LINE
  5
D3
330
BD
100
AcDbEntity
  8
0
  6
Continuous
 62
     7
370
    25
100
AcDbLine
 10
75.0
 20
-140.0
 30
0.0
 11
-75.0
 21
-140.0
 31
0.0
  0
LINE
  5
D4
330
BD
100
AcDbEntity
  8
0
  6
Continuous
 62
     7
370
    25
100
AcDbLine
 10
75.0
 20
-145.0
 30
0.0
 11
-75.0
 21
-145.0
 31
0.0
  0
VIEWPORT
  5
12D
330
BD
100
AcDbEntity
  8
0
100
AcDbViewport
 10
0.0
 20
0.0
 30
0.0
 40
205.6
 41
156.0
 68
     1
 69
     1
 12
0.0
 22
-12.0504288426
 13
0.0
 23
0.0
 14
10.0
 24
10.0
 15
10.0
 25
10.0
 16
0.0
 26
0.0
 36
1.0
 17
0.0
 27
0.0
 37
0.0
 42
50.0
 43
0.0
 44
0.0
 45
440.8991966491
 50
0.0
 51
0.0
 72
   100
 90
   557152
  1

281
     0
 71
     1
 74
     0
110
0.0
120
0.0
130
0.0
111
1.0
121
0.0
131
0.0
112
0.0
122
1.0
132
0.0
 79
     0
146
0.0
170
     0
 61
     5
348
2F
292
     1
282
     1
141
0.0
142
0.0
 63
   256
361
12E
  0
ENDBLK
  5
C0
330
BD
100
AcDbEntity
  8
0
100
AcDbBlockEnd
  0
BLOCK
  5
D7
330
D5
100
AcDbEntity
  8
0
100
AcDbBlockBegin
  2
*Paper_Space4
 70
     0
 10
0.0
 20
0.0
 30
0.0
  3
*Paper_Space4
  1

  0
SPLINE
  5
D9
330
D5
100
AcDbEntity
  8
0
  6
Continuous
 62
     7
370
    25
100
AcDbSpline
210
0.0
220
0.0
230
1.0
 70
     8
 71
     3
 72
    15
 73
    11
 74
     0
 42
0.000000001
 43
0.00000001
 40
0.0
 40
0.0
 40
0.0
 40
0.0
 40
0.1164626161783383
 40
0.2407314795760199
 40
0.3653556994307231
 40
0.4904908845821895
 40
0.6163113259868954
 40
0.7430145706998972
 40
0.8708255307869139
 40
1.0
 40
1.0
 40
1.0
 40
1.0
 10
160.1968214074766
 20
-90.0042595433527
 30
0.0
 10
163.1227139769968
 20
-87.13529605735118
 30
0.0
 10
169.1706156166314
 20
-81.20506842295613
 30
0.0
 10
177.5121622737458
 20
-71.40854936374153
 30
0.0
 10
185.3753839430723
 20
-60.85166839381105
 30
0.0
 10
192.4784000526825
 20
-49.70005143545423
 30
0.0
 10
198.8063485766236
 20
-38.00773060709087
 30
0.0
 10
204.2921221062056
 20
-25.79738846968768
 30
0.0
 10
208.9842449768926
 20
-13.1251479833957
 30
0.0
 10
211.3239436804761
 20
-4.390497383664608
 30
0.0
 10
212.5000000000001
 20
0.0
 30
0.0
  0
SPLINE
  5
DA
330
D5
100
AcDbEntity
  8
0
  6
Continuous
 62
     7
370
    25
100
AcDbSpline
210
0.0
220
0.0
230
1.0
 70
     8
 71
     3
 72
    15
 73
    11
 74
     0
 42
0.000000001
 43
0.00000001
 40
0.0
 40
0.0
 40
0.0
 40
0.0
 40
0.1291900923545184
 40
0.2570165106719288
 40
0.3837350796415283
 40
0.5095707385312616
 40
0.63472105828872
 40
0.7593603509501827
 40
0.8836442441756649
 40
1.0
 40
1.0
 40
1.0
 40
1.0
 10
-212.5
 20
0.0
 30
0.0
 10
-211.3239436901052
 20
-4.390497392821962
 30
0.0
 10
-208.9842450056782
 20
-13.12514801077112
 30
0.0
 10
-204.2921219928899
 20
-25.79738836192334
 30
0.0
 10
-198.8063489963573
 20
-38.00773100626219
 30
0.0
 10
-192.4783985009175
 20
-49.70004995970923
 30
0.0
 10
-185.3753896909124
 20
-60.85167386006862
 30
0.0
 10
-177.5121409414267
 20
-71.40852907647766
 30
0.0
 10
-169.1734538718066
 20
-81.20189926009049
 30
0.0
 10
-163.1286347688898
 20
-87.12919004598284
 30
0.0
 10
-160.2058018179672
 20
-89.99519488810405
 30
0.0
  0
SPLINE
  5
DD
330
D5
100
AcDbEntity
  8
0
  6
Continuous
 62
     7
370
    25
100
AcDbSpline
210
0.0
220
0.0
230
1.0
 70
     8
 71
     3
 72
    15
 73
    11
 74
     0
 42
0.000000001
 43
0.00000001
 40
0.0
 40
0.0
 40
0.0
 40
0.0
 40
0.1335442760958333
 40
0.2655605790144948
 40
0.3963662965895453
 40
0.5262365728299805
 40
0.6554100095215983
 40
0.7840953125891464
 40
0.9124786473840595
 40
1.0
 40
1.0
 40
1.0
 40
1.0
 10
50.00000000000003
 20
-140.0
 30
0.0
 10
54.99157483781591
 20
-139.4210869348399
 30
0.0
 10
64.91761242532975
 20
-138.2698845525479
 30
0.0
 10
79.49454505986525
 20
-135.0382921564087
 30
0.0
 10
93.64581487333048
 20
-130.7711743650274
 30
0.0
 10
107.3062006161165
 20
-125.4032131979856
 30
0.0
 10
120.4352437289668
 20
-119.0202736870803
 30
0.0
 10
132.9445956991897
 20
-111.6185729017485
 30
0.0
 10
143.6473909958113
 20
-104.2702340489714
 30
0.0
 10
149.8493962423833
 20
-99.0246781612934
 30
0.0
 10
152.3635051050511
 20
-96.89828548303508
 30
0.0
  0
SPLINE
  5
DE
330
D5
100
AcDbEntity
  8
0
  6
Continuous
 62
     7
370
    25
100
AcDbSpline
210
0.0
220
0.0
230
1.0
 70
     8
 71
     3
 72
    15
 73
    11
 74
     0
 42
0.000000001
 43
0.00000001
 40
0.0
 40
0.0
 40
0.0
 40
0.0
 40
0.0878244298036949
 40
0.2161651224390616
 40
0.3448076830491609
 40
0.4739382151511346
 40
0.6037653553486513
 40
0.7345276261766042
 40
0.866500080255689
 40
1.0
 40
1.0
 40
1.0
 40
1.0
 10
-152.3924523963078
 20
-96.8744683272119
 30
0.0
 10
-149.8688579740883
 20
-99.00900822959802
 30
0.0
 10
-143.6574530326052
 20
-104.2628206412665
 30
0.0
 10
-132.9446755813223
 20
-111.6186745862844
 30
0.0
 10
-120.4352222171686
 20
-119.0202463040205
 30
0.0
 10
-107.3062064224173
 20
-125.4032205890128
 30
0.0
 10
-93.64581330255518
 20
-130.7711723655371
 30
0.0
 10
-79.49454548418846
 20
-135.0382926965434
 30
0.0
 10
-64.9176123174034
 20
-138.269884415165
 30
0.0
 10
-54.99157480170268
 20
-139.4210868888702
 30
0.0
 10
-49.99999999999999
 20
-140.0
 30
0.0
  0
SPLINE
  5
E1
330
D5
100
AcDbEntity
  8
0
  6
Continuous
 62
     7
370
    25
100
AcDbSpline
210
0.0
220
0.0
230
1.0
 70
    24
 71
     3
 72
    33
 73
    29
 74
     0
 42
0.000000001
 43
0.00000001
 40
0.0
 40
0.0
 40
0.0
 40
0.0
 40
0.0345081562977051
 40
0.0693650708066402
 40
0.1045527229909026
 40
0.140059755757225
 40
0.1744459897156756
 40
0.2090763714255224
 40
0.2439237141509414
 40
0.2789668515663964
 40
0.3190089011877507
 40
0.3592628572274054
 40
0.3993007385389817
 40
0.4394958043802086
 40
0.4795811796222341
 40
0.5269933801335557
 40
0.5745768186117105
 40
0.6223316985827797
 40
0.6702259973512033
 40
0.7181335141804024
 40
0.7661618509672381
 40
0.8027032715002815
 40
0.8392923382673608
 40
0.8760086475777819
 40
0.9127699358905128
 40
0.9496913842601875
 40
0.9866582108794676
 40
1.0
 40
1.0
 40
1.0
 40
1.0
 10
0.0000000000000623
 20
-90.00000000000044
 30
0.0
 10
3.575391490870536
 20
-90.00000000000045
 30
0.0
 10
10.76230932519662
 20
-90.00000000000047
 30
0.0
 10
21.48662091859908
 20
-90.00000000000051
 30
0.0
 10
32.10447135512082
 20
-90.00000000000054
 30
0.0
 10
42.37956700239253
 20
-90.00000000000047
 30
0.0
 10
52.23857621612641
 20
-90.0000000000005
 30
0.0
 10
61.63092470836755
 20
-90.00000000000051
 30
0.0
 10
70.6388174395522
 20
-90.00000000000044
 30
0.0
 10
79.62286578587711
 20
-90.00000000000048
 30
0.0
 10
88.48877737612256
 20
-90.0000000000005
 30
0.0
 10
97.11688166081433
 20
-90.00000000000054
 30
0.0
 10
105.1411286350893
 20
-90.00000000000048
 30
0.0
 10
112.5487001434963
 20
-90.00000000000053
 30
0.0
 10
119.7741233193228
 20
-90.00000000000051
 30
0.0
 10
126.7155766945638
 20
-90.0000000000005
 30
0.0
 10
133.2793028770251
 20
-90.0000000000005
 30
0.0
 10
139.1133545919776
 20
-90.00000000000054
 30
0.0
 10
144.2202461425307
 20
-90.00000000000045
 30
0.0
 10
148.607958691415
 20
-90.0000000000005
 30
0.0
 10
151.9907299298362
 20
-90.00000000000054
 30
0.0
 10
154.563659746597
 20
-90.00000000000048
 30
0.0
 10
156.4951121515956
 20
-90.00000000000048
 30
0.0
 10
158.0312870345061
 20
-90.0000000000005
 30
0.0
 10
159.1833582659581
 20
-90.00000000000051
 30
0.0
 10
159.9131564306448
 20
-90.00000000000051
 30
0.0
 10
160.252744127859
 20
-90.00000000000047
 30
0.0
 10
160.2051451118487
 20
-90.00000000000051
 30
0.0
 10
160.1925219055725
 20
-90.00000000000051
 30
0.0
  0
SPLINE
  5
E2
330
D5
100
AcDbEntity
  8
0
  6
Continuous
 62
     7
370
    25
100
AcDbSpline
210
0.0
220
0.0
230
1.0
 70
    24
 71
     3
 72
    32
 73
    28
 74
     0
 42
0.000000001
 43
0.00000001
 40
0.0
 40
0.0
 40
0.0
 40
0.0
 40
0.0342327513206094
 40
0.0743934718497723
 40
0.1146124581952272
 40
0.154993567947309
 40
0.1954353119059585
 40
0.2440403573132619
 40
0.2927625490495914
 40
0.3432114446516376
 40
0.3938115068910804
 40
0.4420573057327326
 40
0.4904619639459425
 40
0.5312430157948389
 40
0.5712933712769718
 40
0.6114816050675596
 40
0.6504253275920461
 40
0.6895328660174089
 40
0.7268290452981686
 40
0.7643264282542147
 40
0.802060019743457
 40
0.8400776420725864
 40
0.8708241273193945
 40
0.9017645741080114
 40
0.9329153730601828
 40
0.964300443709867
 40
1.0
 40
1.0
 40
1.0
 40
1.0
 10
-160.2106520063653
 20
-90.00000000000048
 30
0.0
 10
-160.1886158102977
 20
-90.00000000000048
 30
0.0
 10
-160.1407274849781
 20
-90.0000000000005
 30
0.0
 10
-159.4882979122589
 20
-90.00000000000051
 30
0.0
 10
-158.3752860559862
 20
-90.00000000000047
 30
0.0
 10
-156.7708945516747
 20
-90.0000000000005
 30
0.0
 10
-154.5451388297367
 20
-90.00000000000054
 30
0.0
 10
-151.5616334712128
 20
-90.00000000000051
 30
0.0
 10
-147.6280304504274
 20
-90.00000000000048
 30
0.0
 10
-142.867806577268
 20
-90.00000000000047
 30
0.0
 10
-137.3201189143417
 20
-90.00000000000051
 30
0.0
 10
-131.058945150337
 20
-90.00000000000054
 30
0.0
 10
-124.4761897943138
 20
-90.0000000000005
 30
0.0
 10
-117.6210636638774
 20
-90.00000000000054
 30
0.0
 10
-110.6125167465864
 20
-90.00000000000047
 30
0.0
 10
-103.1139894359279
 20
-90.00000000000048
 30
0.0
 10
-95.08639998741694
 20
-90.00000000000051
 30
0.0
 10
-86.6809910440539
 20
-90.00000000000047
 30
0.0
 10
-77.82039909994612
 20
-90.0000000000005
 30
0.0
 10
-68.52173845982576
 20
-90.0000000000006
 30
0.0
 10
-58.6239101568048
 20
-90.00000000000047
 30
0.0
 10
-48.83195475009934
 20
-90.00000000000045
 30
0.0
 10
-39.29784030510265
 20
-90.00000000000048
 30
0.0
 10
-30.15282997503421
 20
-90.00000000000055
 30
0.0
 10
-20.72541692972408
 20
-90.00000000000047
 30
0.0
 10
-10.65004321075463
 20
-90.00000000000057
 30
0.0
 10
-3.699030387234645
 20
-90.0000000000005
 30
0.0
 10
0.0000000000000623
 20
-90.00000000000044
 30
0.0
  0
SPLINE
  5
E3
330
D5
100
AcDbEntity
  8
0
  6
Continuous
 62
     7
370
    25
100
AcDbSpline
210
0.0
220
0.0
230
1.0
 70
    24
 71
     3
 72
    15
 73
    11
 74
     0
 42
0.000000001
 43
0.00000001
 40
0.0
 40
0.0
 40
0.0
 40
0.0
 40
0.0062500000000001
 40
0.0083333333333333
 40
0.0416666666666666
 40
0.0833333333333334
 40
0.125
 40
0.1666666666666666
 40
0.2083333333333334
 40
0.2499999999996538
 40
0.2499999999996538
 40
0.2499999999996538
 40
0.2499999999996538
 10
0.0000000000001505
 20
0.0
 30
0.0
 10
-2.79627835108201
 20
0.0
 30
0.0
 10
-6.524649485858157
 20
0.0
 30
0.0
 10
-25.14318496094193
 20
0.0
 30
0.0
 10
-59.34300217245835
 20
0.0
 30
0.0
 10
-107.1870942838844
 20
0.0
 30
0.0
 10
-152.0240655199164
 20
0.0
 30
0.0
 10
-186.2777896492969
 20
0.0
 30
0.0
 10
-207.5110094693346
 20
0.0
 30
0.0
 10
-212.5000000000207
 20
0.0
 30
0.0
 10
-212.5
 20
0.0
 30
0.0
  0
SPLINE
  5
E5
330
D5
100
AcDbEntity
  8
0
  6
Continuous
 62
     7
370
    25
100
AcDbSpline
210
0.0
220
0.0
230
1.0
 70
     8
 71
     3
 72
    31
 73
    27
 74
     0
 42
0.000000001
 43
0.00000001
 40
0.0
 40
0.0
 40
0.0
 40
0.0
 40
0.0304862473783152
 40
0.0612104080933151
 40
0.0926627843049234
 40
0.1243536993600029
 40
0.1548339923315484
 40
0.1854963455674222
 40
0.2166757854896355
 40
0.2480107788012753
 40
0.29336986667076
 40
0.3390864133209847
 40
0.3740376535237948
 40
0.4091057241734149
 40
0.4513503869768801
 40
0.5072257927580228
 40
0.5634064104363838
 40
0.61927031476073
 40
0.6753582042886566
 40
0.7312156802200918
 40
0.7872520242564682
 40
0.8321527665755754
 40
0.8771343575472994
 40
0.922354008599785
 40
0.9676509106365387
 40
1.0
 40
1.0
 40
1.0
 40
1.0
 10
0.0000000000000574
 20
-94.16337122359073
 30
0.0
 10
-3.041361490320587
 20
-94.16342303988534
 30
0.0
 10
-9.147819122565522
 20
-94.16352707684668
 30
0.0
 10
-18.32000939615018
 20
-94.17160951173341
 30
0.0
 10
-27.46702547592269
 20
-94.19242552753143
 30
0.0
 10
-36.37907250160414
 20
-94.22776476932187
 30
0.0
 10
-44.95631368548908
 20
-94.27538493061446
 30
0.0
 10
-53.19373546786093
 20
-94.3322187137242
 30
0.0
 10
-61.17917587120672
 20
-94.39783301183184
 30
0.0
 10
-70.01538964690663
 20
-94.48273847418191
 30
0.0
 10
-79.45628913497082
 20
-94.59138769923361
 30
0.0
 10
-88.44123378244011
 20
-94.72207142601195
 30
0.0
 10
-96.09883562568787
 20
-94.85927681532696
 30
0.0
 10
-103.0364385172589
 20
-95.00418956889557
 30
0.0
 10
-110.638705993954
 20
-95.1848614287282
 30
0.0
 10
-118.551131126033
 20
-95.39581002082747
 30
0.0
 10
-126.0960162769533
 20
-95.63937116932426
 30
0.0
 10
-132.6309145037643
 20
-95.89347972552554
 30
0.0
 10
-138.1785416478924
 20
-96.14244735221834
 30
0.0
 10
-142.7925439078644
 20
-96.37071666590084
 30
0.0
 10
-146.2518559628665
 20
-96.5547856035625
 30
0.0
 10
-148.7766172614285
 20
-96.69684107709277
 30
0.0
 10
-150.5578686323986
 20
-96.80498176298244
 30
0.0
 10
-151.7673034177589
 20
-96.88605845793641
 30
0.0
 10
-152.426772444281
 20
-96.9367304187527
 30
0.0
 10
-152.4398134414071
 20
-96.93806714869113
 30
0.0
 10
-152.4452466179796
 20
-96.93862406084402
 30
0.0
  0
SPLINE
  5
E6
330
D5
100
AcDbEntity
  8
0
  6
Continuous
 62
     7
370
    25
100
AcDbSpline
210
0.0
220
0.0
230
1.0
 70
     8
 71
     3
 72
    33
 73
    29
 74
     0
 42
0.000000001
 43
0.00000001
 40
0.0
 40
0.0
 40
0.0
 40
0.0
 40
0.0145725077845995
 40
0.0830624983851743
 40
0.1518209143534351
 40
0.2203136816131634
 40
0.2546951692570925
 40
0.2891163373187303
 40
0.3233501651961945
 40
0.3576279195939073
 40
0.3920470865439334
 40
0.4265178664701021
 40
0.4582073147888321
 40
0.4899445170061537
 40
0.5218388433787522
 40
0.5537920646184721
 40
0.6052312336516338
 40
0.6569991741355078
 40
0.7000409433155345
 40
0.7433623317262934
 40
0.7802132900417773
 40
0.817307714946021
 40
0.8552726880450869
 40
0.8935899543572352
 40
0.9199692870048176
 40
0.9464921714194952
 40
0.9731657749574095
 40
1.0
 40
1.0
 40
1.0
 40
1.0
 10
152.3934633195555
 20
-96.93464602140897
 30
0.0
 10
152.426422480006
 20
-96.93722910974883
 30
0.0
 10
152.6142878942619
 20
-96.9519525721913
 30
0.0
 10
151.7112007837156
 20
-96.87949000625443
 30
0.0
 10
149.6179580433144
 20
-96.74488065364639
 30
0.0
 10
146.6948087030498
 20
-96.57874689859993
 30
0.0
 10
143.7100194939472
 20
-96.41982650880237
 30
0.0
 10
141.127104762591
 20
-96.28800991678278
 30
0.0
 10
138.2020384509773
 20
-96.14595994440361
 30
0.0
 10
134.9248876540473
 20
-95.99611766956183
 30
0.0
 10
131.2784471518312
 20
-95.84136815875858
 30
0.0
 10
127.3609641599913
 20
-95.6901103033472
 30
0.0
 10
123.2002304155063
 20
-95.5455971743829
 30
0.0
 10
118.8161708713669
 20
-95.4088059132538
 30
0.0
 10
114.0764353317548
 20
-95.27580442544453
 30
0.0
 10
107.9336003173029
 20
-95.11915500267337
 30
0.0
 10
100.0603838441236
 20
-94.93616115647959
 30
0.0
 10
90.60989380049986
 20
-94.75617021403554
 30
0.0
 10
80.85541293827325
 20
-94.61019948487584
 30
0.0
 10
71.47301575441587
 20
-94.49813212925535
 30
0.0
 10
61.95137723068529
 20
-94.40402919873924
 30
0.0
 10
52.3604189960563
 20
-94.32514549370441
 30
0.0
 10
42.16163044200623
 20
-94.25744364938753
 30
0.0
 10
32.53463526808146
 20
-94.21042489138323
 30
0.0
 10
23.74805103470051
 20
-94.18291137355564
 30
0.0
 10
15.94992397048827
 20
-94.16897232041913
 30
0.0
 10
8.014476299888802
 20
-94.1634817496113
 30
0.0
 10
2.67683300253486
 20
-94.16340813925288
 30
0.0
 10
0.0000000000000574
 20
-94.16337122359073
 30
0.0
  0
SPLINE
  5
E7
330
D5
100
AcDbEntity
  8
0
  6
Continuous
 62
     7
370
    25
100
AcDbSpline
210
0.0
220
0.0
230
1.0
 70
    24
 71
     3
 72
    15
 73
    11
 74
     0
 42
0.000000001
 43
0.00000001
 40
0.0
 40
0.0
 40
0.0
 40
0.0
 40
0.0062500000000001
 40
0.0083333333333333
 40
0.0416666666666666
 40
0.0833333333333334
 40
0.125
 40
0.1666666666666666
 40
0.2083333333333334
 40
0.2499999999996538
 40
0.2499999999996538
 40
0.2499999999996538
 40
0.2499999999996538
 10
-0.0000000000000316
 20
-140.0
 30
0.0
 10
-0.6579478473134835
 20
-140.0
 30
0.0
 10
-1.535211643731404
 20
-140.0
 30
0.0
 10
-5.91604352022172
 20
-140.0
 30
0.0
 10
-13.9630593346962
 20
-140.0
 30
0.0
 10
-25.22049277267882
 20
-140.0
 30
0.0
 10
-35.77036835762748
 20
-140.0
 30
0.0
 10
-43.83006815277582
 20
-140.0
 30
0.0
 10
-48.82611987513759
 20
-140.0
 30
0.0
 10
-50.00000000000487
 20
-140.0
 30
0.0
 10
-49.99999999999999
 20
-140.0
 30
0.0
  0
SPLINE
  5
E9
330
D5
100
AcDbEntity
  8
0
  6
Continuous
 62
     7
370
    25
100
AcDbSpline
210
0.0
220
0.0
230
1.0
 70
    24
 71
     3
 72
    15
 73
    11
 74
     0
 42
0.000000001
 43
0.00000001
 40
0.0
 40
0.0
 40
0.0
 40
0.0
 40
0.0062500000000001
 40
0.0083333333333333
 40
0.0416666666666666
 40
0.0833333333333334
 40
0.125
 40
0.1666666666666666
 40
0.2083333333333334
 40
0.2499999999996538
 40
0.2499999999996538
 40
0.2499999999996538
 40
0.2499999999996538
 10
-0.0000000000000278
 20
-145.0
 30
0.0
 10
-0.6562281848878032
 20
-145.0
 30
0.0
 10
-1.531199098071489
 20
-145.0
 30
0.0
 10
-5.900713950206979
 20
-145.0
 30
0.0
 10
-13.92833842716638
 20
-145.0
 30
0.0
 10
-25.18118463892012
 20
-145.0
 30
0.0
 10
-35.70451153140391
 20
-145.0
 30
0.0
 10
-43.7694028356157
 20
-145.0
 30
0.0
 10
-48.80797995958082
 20
-145.0
 30
0.0
 10
-50.00000000000476
 20
-145.0
 30
0.0
 10
-49.99999999999999
 20
-145.0
 30
0.0
  0
LINE
  5
EB
330
D5
100
AcDbEntity
  8
0
  6
Continuous
 62
     7
370
    25
100
AcDbLine
 10
152.5
 20
-96.9346460214
 30
0.0
 11
152.5
 21
-90.0
 31
0.0
  0
LINE
  5
EC
330
D5
100
AcDbEntity
  8
0
  6
Continuous
 62
     7
370
    25
100
AcDbLine
 10
-152.5
 20
-90.0
 30
0.0
 11
-152.5
 21
-96.9386240608
 31
0.0
  0
LINE
  5
ED
330
D5
100
AcDbEntity
  8
0
  6
Continuous
 62
     7
370
    25
100
AcDbLine
 10
50.0
 20
-145.0
 30
0.0
 11
50.0
 21
-140.0
 31
0.0
  0
LINE
  5
EE
330
D5
100
AcDbEntity
  8
0
  6
Continuous
 62
     7
370
    25
100
AcDbLine
 10
-50.0
 20
-140.0
 30
0.0
 11
-50.0
 21
-145.0
 31
0.0
  0
LINE
  5
EF
330
D5
100
AcDbEntity
  8
0
  6
Continuous
 62
     7
370
    25
100
AcDbLine
 10
212.5
 20
0.0
 30
0.0
 11
0.0
 21
0.0
 31
0.0
  0
LINE
  5
F0
330
D5
100
AcDbEntity
  8
0
  6
Continuous
 62
     7
370
    25
100
AcDbLine
 10
50.0
 20
-140.0
 30
0.0
 11
0.0
 21
-140.0
 31
0.0
  0
LINE
  5
F1
330
D5
100
AcDbEntity
  8
0
  6
Continuous
 62
     7
370
    25
100
AcDbLine
 10
50.0
 20
-145.0
 30
0.0
 11
0.0
 21
-145.0
 31
0.0
  0
VIEWPORT
  5
12F
330
D5
100
AcDbEntity
  8
0
100
AcDbViewport
 10
0.0
 20
0.0
 30
0.0
 40
205.6
 41
156.0
 68
     1
 69
     1
 12
0.0
 22
-12.0504288426
 13
0.0
 23
0.0
 14
10.0
 24
10.0
 15
10.0
 25
10.0
 16
0.0
 26
0.0
 36
1.0
 17
0.0
 27
0.0
 37
0.0
 42
50.0
 43
0.0
 44
0.0
 45
440.8991966491
 50
0.0
 51
0.0
 72
   100
 90
   557152
  1

281
     0
 71
     1
 74
     0
110
0.0
120
0.0
130
0.0
111
1.0
121
0.0
131
0.0
112
0.0
122
1.0
132
0.0
 79
     0
146
0.0
170
     0
 61
     5
348
2F
292
     1
282
     1
141
0.0
142
0.0
 63
   256
361
130
  0
ENDBLK
  5
D8
330
D5
100
AcDbEntity
  8
0
100
AcDbBlockEnd
  0
BLOCK
  5
F4
330
F2
100
AcDbEntity
  8
0
100
AcDbBlockBegin
  2
*Paper_Space5
 70
     0
 10
0.0
 20
0.0
 30
0.0
  3
*Paper_Space5
  1

  0
SPLINE
  5
F6
330
F2
100
AcDbEntity
  8
0
  6
Continuous
 62
     7
370
    25
100
AcDbSpline
210
0.0
220
0.0
230
1.0
 70
    11
 71
     3
 72
    35
 73
    31
 74
     0
 42
0.000000001
 43
0.00000001
 40
0.0
 40
0.0
 40
0.0
 40
0.0
 40
0.0062500000000001
 40
0.0083333333333333
 40
0.0416666666666666
 40
0.0833333333333334
 40
0.125
 40
0.1666666666666666
 40
0.2083333333333334
 40
0.2499999999996538
 40
0.2916666666666666
 40
0.3333333333333334
 40
0.375
 40
0.4166666666666666
 40
0.4583333333333334
 40
0.4999999999999999
 40
0.5416666666666667
 40
0.5833333333333333
 40
0.625
 40
0.6666666666666667
 40
0.7083333333333333
 40
0.7499999999996151
 40
0.7916666666666666
 40
0.8333333333333334
 40
0.875
 40
0.9166666666666666
 40
0.9583333333333334
 40
0.9916666666666667
 40
0.99375
 40
1.0
 40
1.0
 40
1.0
 40
1.0
 10
22.99999999999994
 20
0.0000000000000022
 30
0.0
 10
22.99999999999994
 20
0.3058699265881806
 30
0.0
 10
22.99133516299601
 20
0.713696495372411
 30
0.0
 10
22.89145991336851
 20
2.750466703463506
 30
0.0
 10
22.26524099857048
 20
6.493723289480204
 30
0.0
 10
20.06579618222126
 20
11.76226989751439
 30
0.0
 10
16.46208693124008
 20
16.46208693124017
 30
0.0
 10
11.76226989751427
 20
20.06579618222131
 30
0.0
 10
6.117398531763338
 20
22.4223441997383
 30
0.0
 10
-0.0000000000001435
 20
23.28882790013073
 30
0.0
 10
-6.117398531763618
 20
22.42234419973825
 30
0.0
 10
-11.76226989751453
 20
20.06579618222122
 30
0.0
 10
-16.46208693124031
 20
16.46208693124005
 30
0.0
 10
-20.06579618222145
 20
11.76226989751424
 30
0.0
 10
-22.42234419973844
 20
6.117398531763309
 30
0.0
 10
-23.28882790013088
 20
-0.0000000000001789
 30
0.0
 10
-22.42234419973839
 20
-6.117398531763646
 30
0.0
 10
-20.06579618222136
 20
-11.76226989751455
 30
0.0
 10
-16.46208693124019
 20
-16.46208693124034
 30
0.0
 10
-11.76226989751438
 20
-20.06579618222148
 30
0.0
 10
-6.117398531763454
 20
-22.42234419973846
 30
0.0
 10
0.0000000000000208
 20
-23.2888279001309
 30
0.0
 10
6.1173985317635
 20
-22.42234419973842
 30
0.0
 10
11.76226989751441
 20
-20.06579618222139
 30
0.0
 10
16.4620869312402
 20
-16.46208693124022
 30
0.0
 10
20.06579618222134
 20
-11.76226989751441
 30
0.0
 10
22.26524099857052
 20
-6.493723289480205
 30
0.0
 10
22.89145991336856
 20
-2.750466703463496
 30
0.0
 10
22.99133516299603
 20
-0.7136964953724011
 30
0.0
 10
22.99999999999994
 20
-0.3058699265881706
 30
0.0
 10
22.99999999999994
 20
0.0000000000000022
 30
0.0
  0
SPLINE
  5
F7
330
F2
100
AcDbEntity
  8
0
  6
Continuous
 62
     7
370
    25
100
AcDbSpline
210
0.0
220
0.0
230
1.0
 70
    11
 71
     3
 72
    35
 73
    31
 74
     0
 42
0.000000001
 43
0.00000001
 40
0.0
 40
0.0
 40
0.0
 40
0.0
 40
0.0062500000000001
 40
0.0083333333333333
 40
0.0416666666666666
 40
0.0833333333333334
 40
0.125
 40
0.1666666666666666
 40
0.2083333333333334
 40
0.2499999999996538
 40
0.2916666666666666
 40
0.3333333333333334
 40
0.375
 40
0.4166666666666666
 40
0.4583333333333334
 40
0.4999999999999999
 40
0.5416666666666667
 40
0.5833333333333333
 40
0.625
 40
0.6666666666666667
 40
0.7083333333333333
 40
0.7499999999996151
 40
0.7916666666666666
 40
0.8333333333333334
 40
0.875
 40
0.9166666666666666
 40
0.9583333333333334
 40
0.9916666666666667
 40
0.99375
 40
1.0
 40
1.0
 40
1.0
 40
1.0
 10
75.0
 20
0.0000000000000278
 30
0.0
 10
74.99999999999983
 20
0.6562281848878032
 30
0.0
 10
74.97312537457296
 20
1.531199098071489
 30
0.0
 10
74.66205199857794
 20
5.900713950206979
 30
0.0
 10
72.70371807169154
 20
13.92833842716638
 30
0.0
 10
65.63875480695735
 20
25.18118463892012
 30
0.0
 10
53.52787422140864
 20
35.70451153140391
 30
0.0
 10
37.73746643098969
 20
43.7694028356157
 30
0.0
 10
19.66517573985884
 20
48.80797995956687
 30
0.0
 10
-0.000000000008684
 20
50.59601002021627
 30
0.0
 10
-19.66517573987588
 20
48.80797995956797
 30
0.0
 10
-37.73746643101205
 20
43.76940283561461
 30
0.0
 10
-53.52787422142682
 20
35.70451153140299
 30
0.0
 10
-65.63875480697027
 20
25.18118463891956
 30
0.0
 10
-73.20835830489362
 20
13.1245636977552
 30
0.0
 10
-75.89582084755503
 20
-0.0000000000000587
 30
0.0
 10
-73.20835830488684
 20
-13.12456369775548
 30
0.0
 10
-65.63875480695712
 20
-25.18118463892021
 30
0.0
 10
-53.52787422140802
 20
-35.70451153140403
 30
0.0
 10
-37.73746643098873
 20
-43.76940283561581
 30
0.0
 10
-19.66517573985806
 20
-48.80797995956686
 30
0.0
 10
0.0000000000095271
 20
-50.59601002021634
 30
0.0
 10
19.66517573987667
 20
-48.80797995956806
 30
0.0
 10
37.737466431013
 20
-43.7694028356146
 30
0.0
 10
53.52787422142742
 20
-35.70451153140299
 30
0.0
 10
65.63875480697051
 20
-25.18118463891955
 30
0.0
 10
72.70371807169875
 20
-13.92833842716618
 30
0.0
 10
74.662051998581
 20
-5.900713950206892
 30
0.0
 10
74.97312537457375
 20
-1.53119909807142
 30
0.0
 10
75.00000000000017
 20
-0.656228184887736
 30
0.0
 10
75.0
 20
0.0000000000000278
 30
0.0
  0
SPLINE
  5
F8
330
F2
100
AcDbEntity
  8
0
  6
Continuous
 62
     7
370
    25
100
AcDbSpline
210
0.0
220
0.0
230
1.0
 70
    11
 71
     3
 72
    35
 73
    31
 74
     0
 42
0.000000001
 43
0.00000001
 40
0.0
 40
0.0
 40
0.0
 40
0.0
 40
0.0062500000000001
 40
0.0083333333333333
 40
0.0416666666666666
 40
0.0833333333333334
 40
0.125
 40
0.1666666666666666
 40
0.2083333333333334
 40
0.2499999999996538
 40
0.2916666666666666
 40
0.3333333333333334
 40
0.375
 40
0.4166666666666666
 40
0.4583333333333334
 40
0.4999999999999999
 40
0.5416666666666667
 40
0.5833333333333333
 40
0.625
 40
0.6666666666666667
 40
0.7083333333333333
 40
0.7499999999996151
 40
0.7916666666666666
 40
0.8333333333333334
 40
0.875
 40
0.9166666666666666
 40
0.9583333333333334
 40
0.9916666666666667
 40
0.99375
 40
1.0
 40
1.0
 40
1.0
 40
1.0
 10
74.99999999999999
 20
0.0000000000000316
 30
0.0
 10
74.99999999999999
 20
0.6579478473134835
 30
0.0
 10
74.97358769719027
 20
1.535211643731404
 30
0.0
 10
74.66759223070719
 20
5.91604352022172
 30
0.0
 10
72.73957464045078
 20
13.9630593346962
 30
0.0
 10
65.7451022291636
 20
25.22049277267882
 30
0.0
 10
53.65555253644105
 20
35.77036835762748
 30
0.0
 10
37.83073915901801
 20
43.83006815277582
 30
0.0
 10
19.73843541940311
 20
48.82611987512376
 30
0.0
 10
-0.0000000000001405
 20
50.58694006243811
 30
0.0
 10
-19.73843541940337
 20
48.82611987512373
 30
0.0
 10
-37.83073915901826
 20
43.83006815277572
 30
0.0
 10
-53.65555253644127
 20
35.77036835762737
 30
0.0
 10
-65.7451022291638
 20
25.22049277267871
 30
0.0
 10
-73.23917981268572
 20
13.15895694626876
 30
0.0
 10
-75.8804100936573
 20
-0.0000000000000772
 30
0.0
 10
-73.23917981268568
 20
-13.1589569462689
 30
0.0
 10
-65.74510222916373
 20
-25.22049277267882
 30
0.0
 10
-53.65555253644116
 20
-35.77036835762749
 30
0.0
 10
-37.83073915901813
 20
-43.83006815277582
 30
0.0
 10
-19.73843541940324
 20
-48.82611987512378
 30
0.0
 10
0.0000000000000074
 20
-50.58694006243816
 30
0.0
 10
19.73843541940325
 20
-48.82611987512377
 30
0.0
 10
37.83073915901816
 20
-43.83006815277579
 30
0.0
 10
53.65555253644115
 20
-35.77036835762745
 30
0.0
 10
65.74510222916368
 20
-25.22049277267876
 30
0.0
 10
72.73957464045083
 20
-13.96305933469615
 30
0.0
 10
74.66759223070723
 20
-5.916043520221649
 30
0.0
 10
74.97358769719027
 20
-1.535211643731329
 30
0.0
 10
74.99999999999999
 20
-0.6579478473134087
 30
0.0
 10
74.99999999999999
 20
0.0000000000000316
 30
0.0
  0
SPLINE
  5
F9
330
F2
100
AcDbEntity
  8
0
  6
Continuous
 62
     7
370
    25
100
AcDbSpline
210
0.0
220
0.0
230
1.0
 70
    11
 71
     3
 72
   219
 73
   215
 74
     0
 42
0.000000001
 43
0.00000001
 40
0.0
 40
0.0
 40
0.0
 40
0.0
 40
0.0156250000000005
 40
0.0156250000000005
 40
0.031250000000001
 40
0.031250000000001
 40
0.0468750000000015
 40
0.0468750000000015
 40
0.0546875000000018
 40
0.0546875000000018
 40
0.062500000000002
 40
0.062500000000002
 40
0.0781250000000025
 40
0.0781250000000025
 40
0.0820312500000026
 40
0.0820312500000026
 40
0.0859375000000027
 40
0.0859375000000027
 40
0.0937500000000028
 40
0.0937500000000028
 40
0.109375000000003
 40
0.109375000000003
 40
0.1171875000000031
 40
0.1171875000000031
 40
0.1250000000000032
 40
0.1250000000000032
 40
0.1406250000000035
 40
0.1406250000000035
 40
0.1562500000000037
 40
0.1562500000000037
 40
0.1640625000000038
 40
0.1640625000000038
 40
0.1718750000000039
 40
0.1718750000000039
 40
0.1875000000000042
 40
0.1875000000000042
 40
0.1953125000000043
 40
0.1953125000000043
 40
0.2031250000000044
 40
0.2031250000000044
 40
0.2187500000000046
 40
0.2187500000000046
 40
0.2343750000000048
 40
0.2343750000000048
 40
0.250000000000005
 40
0.250000000000005
 40
0.2656250000000052
 40
0.2656250000000052
 40
0.2812500000000054
 40
0.2812500000000054
 40
0.2890625000000055
 40
0.2890625000000055
 40
0.2968750000000056
 40
0.2968750000000056
 40
0.3125000000000057
 40
0.3125000000000057
 40
0.3281250000000059
 40
0.3281250000000059
 40
0.335937500000006
 40
0.335937500000006
 40
0.3437500000000061
 40
0.3437500000000061
 40
0.3593750000000062
 40
0.3593750000000062
 40
0.3671875000000063
 40
0.3671875000000063
 40
0.3750000000000063
 40
0.3750000000000063
 40
0.3906250000000064
 40
0.3906250000000064
 40
0.3984375000000065
 40
0.3984375000000065
 40
0.4062500000000066
 40
0.4062500000000066
 40
0.4140625000000067
 40
0.4140625000000067
 40
0.4179687500000067
 40
0.4179687500000067
 40
0.4218750000000067
 40
0.4218750000000067
 40
0.4375000000000067
 40
0.4375000000000067
 40
0.4531250000000066
 40
0.4531250000000066
 40
0.4609375000000066
 40
0.4609375000000066
 40
0.4648437500000066
 40
0.4648437500000066
 40
0.4687500000000065
 40
0.4687500000000065
 40
0.4843750000000064
 40
0.4843750000000064
 40
0.4921875000000064
 40
0.4921875000000064
 40
0.4960937500000064
 40
0.4960937500000064
 40
0.5000000000000063
 40
0.5000000000000063
 40
0.5078125000000062
 40
0.5078125000000062
 40
0.5117187500000062
 40
0.5117187500000062
 40
0.5156250000000063
 40
0.5156250000000063
 40
0.5312500000000062
 40
0.5312500000000062
 40
0.5351562500000062
 40
0.5351562500000062
 40
0.5390625000000062
 40
0.5390625000000062
 40
0.5468750000000062
 40
0.5468750000000062
 40
0.562500000000006
 40
0.562500000000006
 40
0.5664062500000059
 40
0.5664062500000059
 40
0.5703125000000058
 40
0.5703125000000058
 40
0.5781250000000058
 40
0.5781250000000058
 40
0.5859375000000057
 40
0.5859375000000057
 40
0.5937500000000056
 40
0.5937500000000056
 40
0.6093750000000053
 40
0.6093750000000053
 40
0.6171875000000052
 40
0.6171875000000052
 40
0.6250000000000051
 40
0.6250000000000051
 40
0.640625000000005
 40
0.640625000000005
 40
0.6484375000000049
 40
0.6484375000000049
 40
0.6562500000000048
 40
0.6562500000000048
 40
0.6718750000000046
 40
0.6718750000000046
 40
0.6796875000000044
 40
0.6796875000000044
 40
0.6875000000000043
 40
0.6875000000000043
 40
0.7031250000000041
 40
0.7031250000000041
 40
0.7187500000000038
 40
0.7187500000000038
 40
0.7265625000000037
 40
0.7265625000000037
 40
0.7343750000000034
 40
0.7343750000000034
 40
0.7500000000000031
 40
0.7500000000000031
 40
0.757812500000003
 40
0.757812500000003
 40
0.7656250000000028
 40
0.7656250000000028
 40
0.7812500000000026
 40
0.7812500000000026
 40
0.7890625000000023
 40
0.7890625000000023
 40
0.7968750000000021
 40
0.7968750000000021
 40
0.8125000000000019
 40
0.8125000000000019
 40
0.8203125000000018
 40
0.8203125000000018
 40
0.8281250000000017
 40
0.8281250000000017
 40
0.8437500000000014
 40
0.8437500000000014
 40
0.8515625000000013
 40
0.8515625000000013
 40
0.8593750000000012
 40
0.8593750000000012
 40
0.875000000000001
 40
0.875000000000001
 40
0.8828125000000008
 40
0.8828125000000008
 40
0.8867187500000007
 40
0.8867187500000007
 40
0.8906250000000006
 40
0.8906250000000006
 40
0.9062500000000003
 40
0.9062500000000003
 40
0.9140625000000002
 40
0.9140625000000002
 40
0.9218750000000001
 40
0.9218750000000001
 40
0.9296875000000001
 40
0.9296875000000001
 40
0.9335937500000001
 40
0.9335937500000001
 40
0.9375000000000001
 40
0.9375000000000001
 40
0.953125
 40
0.953125
 40
0.96875
 40
0.96875
 40
0.97265625
 40
0.97265625
 40
0.974609375
 40
0.974609375
 40
0.9765624999999999
 40
0.9765624999999999
 40
0.9843749999999999
 40
0.9843749999999999
 40
0.9921875
 40
0.9921875
 40
0.99609375
 40
0.99609375
 40
0.9980468749999999
 40
0.9990234375
 40
0.9990234375
 40
1.0
 40
1.0
 40
1.0
 40
1.0
 10
225.0000000000002
 20
-0.0000000000000508
 30
0.0
 10
225.0000000000001
 20
6.269971541806544
 30
0.0
 10
224.4320092632915
 20
12.43832098370331
 30
0.0
 10
222.2401115239106
 20
24.58607110816251
 30
0.0
 10
220.6157736345798
 20
30.56546374120053
 30
0.0
 10
216.3392176647391
 20
42.34003799704742
 30
0.0
 10
213.7452760192131
 20
47.97826008152363
 30
0.0
 10
209.2598337315015
 20
56.11064174626329
 30
0.0
 10
207.6650980503917
 20
58.76700338182821
 30
0.0
 10
204.286361281868
 20
63.97627883515052
 30
0.0
 10
202.5015193728227
 20
66.53028287882842
 30
0.0
 10
196.8793141480166
 20
74.03646476542711
 30
0.0
 10
192.8261748363087
 20
78.76713638329652
 30
0.0
 10
187.427331389272
 20
84.38239934105516
 30
0.0
 10
186.330852983504
 20
85.49046846960202
 30
0.0
 10
184.105374875678
 20
87.67744442431375
 30
0.0
 10
182.9755395623072
 20
88.75712015180797
 30
0.0
 10
179.5447929737606
 20
91.94761076332982
 30
0.0
 10
177.2053047522507
 20
94.00773329973258
 30
0.0
 10
170.0404804015121
 20
100.0010577114825
 30
0.0
 10
165.0693207162472
 20
103.747897739757
 30
0.0
 10
157.3509428410025
 20
109.0339035241841
 30
0.0
 10
154.732255657312
 20
110.7411863264125
 30
0.0
 10
149.4348560061327
 20
114.0342549769831
 30
0.0
 10
146.7536531749902
 20
115.6218722326626
 30
0.0
 10
138.6176498674618
 20
120.2172161994807
 30
0.0
 10
133.0707185181736
 20
123.0579079107865
 30
0.0
 10
121.7506567730084
 20
128.3291907129232
 30
0.0
 10
116.00254148482
 20
130.7479394783366
 30
0.0
 10
107.2661712094983
 20
134.0734970001524
 30
0.0
 10
104.3345420239633
 20
135.1316661193552
 30
0.0
 10
98.43346947049517
 20
137.1504320140356
 30
0.0
 10
95.46210138912004
 20
138.1115873338022
 30
0.0
 10
86.51084037026388
 20
140.8469261719992
 30
0.0
 10
80.49283042799394
 20
142.4740148488769
 30
0.0
 10
71.39405461579445
 20
144.6356462515161
 30
0.0
 10
68.34914802741392
 20
145.3096064432702
 30
0.0
 10
62.23580654373706
 20
146.566066105539
 30
0.0
 10
59.16905130045513
 20
147.1481515561764
 30
0.0
 10
49.95901986404398
 20
148.7553079267274
 30
0.0
 10
43.79835278729148
 20
149.6431462844727
 30
0.0
 10
31.43709735573899
 20
151.0638913727767
 30
0.0
 10
25.23650559932441
 20
151.5967687353911
 30
0.0
 10
12.79585708135576
 20
152.311969203856
 30
0.0
 10
6.548509057267887
 20
152.4938848575271
 30
0.0
 10
-5.913099388068186
 20
152.5058110871076
 30
0.0
 10
-12.13466404393358
 20
152.3366453378582
 30
0.0
 10
-24.55932468301195
 20
151.6476711806772
 30
0.0
 10
-30.76242144176975
 20
151.1278768031449
 30
0.0
 10
-40.0529224668997
 20
150.0793764611135
 30
0.0
 10
-43.14960083418354
 20
149.6846909648796
 30
0.0
 10
-49.32707766863265
 20
148.8054904181949
 30
0.0
 10
-52.40601681651167
 20
148.3213154410685
 30
0.0
 10
-61.61313706159036
 20
146.7337012547289
 30
0.0
 10
-67.71167924970108
 20
145.4954498266804
 30
0.0
 10
-79.82674010211802
 20
142.6457440279209
 30
0.0
 10
-85.84327478674128
 20
141.0343624615007
 30
0.0
 10
-94.80278598401092
 20
138.3200363019766
 30
0.0
 10
-97.77551308774254
 20
137.3664144270939
 30
0.0
 10
-103.6779835422497
 20
135.3635552317993
 30
0.0
 10
-106.6098740793383
 20
134.313680348828
 30
0.0
 10
-115.3457663438262
 20
131.0142941696569
 30
0.0
 10
-121.09017757486
 20
128.6154862958837
 30
0.0
 10
-129.5775909089728
 20
124.6933782840583
 30
0.0
 10
-132.3875263546797
 20
123.3306929784973
 30
0.0
 10
-137.9506016006176
 20
120.4972570267482
 30
0.0
 10
-140.7006138740781
 20
119.0282236587556
 30
0.0
 10
-148.8521822018648
 20
114.4577252380234
 30
0.0
 10
-154.1556772195709
 20
111.193533988856
 30
0.0
 10
-161.8927501028675
 20
105.935335867148
 30
0.0
 10
-164.4384971537453
 20
104.1196545963986
 30
0.0
 10
-169.4318656435719
 20
100.3745396302322
 30
0.0
 10
-171.8800578284991
 20
98.44499726436024
 30
0.0
 10
-176.6742072921731
 20
94.4657568069363
 30
0.0
 10
-179.0201746859574
 20
92.41607055400497
 30
0.0
 10
-182.457505667082
 20
89.24560917809477
 30
0.0
 10
-183.5896677795982
 20
88.17278657468611
 30
0.0
 10
-185.8257802500679
 20
85.99398314456379
 30
0.0
 10
-186.930984395943
 20
84.88667183506467
 30
0.0
 10
-192.3613557803131
 20
79.28742783893344
 30
0.0
 10
-196.409531916662
 20
74.60087000790983
 30
0.0
 10
-203.8578239104729
 20
64.77444229309049
 30
0.0
 10
-207.2584934492104
 20
59.63495891499065
 30
0.0
 10
-211.8046421130802
 20
51.53762957823448
 30
0.0
 10
-213.2272176892607
 20
48.77360370888383
 30
0.0
 10
-215.209202575989
 20
44.52132867656203
 30
0.0
 10
-215.8451796803211
 20
43.08423132896584
 30
0.0
 10
-217.0531174738387
 20
40.19991588764756
 30
0.0
 10
-217.626543338857
 20
38.74975365486495
 30
0.0
 10
-220.3394951523805
 20
31.4585359128544
 30
0.0
 10
-222.0184370173467
 20
25.49676945947748
 30
0.0
 10
-223.7494604904383
 20
16.34776219216443
 30
0.0
 10
-224.1948595932545
 20
13.26360165961952
 30
0.0
 10
-224.655208940505
 20
8.582918487454792
 30
0.0
 10
-224.7736993123694
 20
7.014994929651095
 30
0.0
 10
-224.9388411436793
 20
3.885032193343566
 30
0.0
 10
-224.985807866184
 20
2.320080917771185
 30
0.0
 10
-225.0201083848101
 20
-2.374682813351428
 30
0.0
 10
-224.9009439786764
 20
-5.504405259809478
 30
0.0
 10
-224.5081790072686
 20
-10.19880803904475
 30
0.0
 10
-224.3419835793476
 20
-11.75772819814867
 30
0.0
 10
-223.9417440379165
 20
-14.85486521646155
 30
0.0
 10
-223.7075780353655
 20
-16.39457229763142
 30
0.0
 10
-222.3706709021004
 20
-24.04988038736447
 30
0.0
 10
-220.7717765931055
 20
-30.03633862469018
 30
0.0
 10
-218.155463887241
 20
-37.35862846968963
 30
0.0
 10
-217.6011919961507
 20
-38.81501496446857
 30
0.0
 10
-216.4312580956321
 20
-41.71180892832377
 30
0.0
 10
-215.8143725519672
 20
-43.15487516617182
 30
0.0
 10
-213.8817142276292
 20
-47.43977588853765
 30
0.0
 10
-212.4878087865308
 20
-50.23049727970091
 30
0.0
 10
-208.0132944918217
 20
-58.41976996950456
 30
0.0
 10
-204.6411713367333
 20
-63.6362326067356
 30
0.0
 10
-199.9933262934795
 20
-69.88653127038134
 30
0.0
 10
-199.042017603966
 20
-71.12301127467933
 30
0.0
 10
-197.096878100638
 20
-73.56940925606666
 30
0.0
 10
-196.1018712627519
 20
-74.78067630240989
 30
0.0
 10
-193.0659205555499
 20
-78.3619430035331
 30
0.0
 10
-190.9731341512815
 20
-80.68115232832773
 30
0.0
 10
-186.6595397586033
 20
-85.19249813628201
 30
0.0
 10
-184.4387149167993
 20
-87.38461788751117
 30
0.0
 10
-179.8765918550828
 20
-91.64927204646251
 30
0.0
 10
-177.53338599932
 20
-93.72337631985208
 30
0.0
 10
-170.3445582791863
 20
-99.7646768743415
 30
0.0
 10
-165.3631920548905
 20
-103.533279857023
 30
0.0
 10
-157.6400801209925
 20
-108.8420140679504
 30
0.0
 10
-155.0228518896543
 20
-110.5545526142576
 30
0.0
 10
-149.7117763000641
 20
-113.8674915230718
 30
0.0
 10
-147.0253637074644
 20
-115.4633184591243
 30
0.0
 10
-138.8787695167256
 20
-120.0791886470836
 30
0.0
 10
-133.3314956189281
 20
-122.9281339106881
 30
0.0
 10
-124.8515486456195
 20
-126.889115533545
 30
0.0
 10
-121.9983220881352
 20
-128.1572310987346
 30
0.0
 10
-116.2405158215934
 20
-130.5925968347923
 30
0.0
 10
-113.3357244457155
 20
-131.7597836298779
 30
0.0
 10
-104.5791792600702
 20
-135.1025251078392
 30
0.0
 10
-98.67451472766942
 20
-137.1243939567424
 30
0.0
 10
-89.72363938765211
 20
-139.867768029618
 30
0.0
 10
-86.72433591853434
 20
-140.7338884232496
 30
0.0
 10
-80.69512600104945
 20
-142.3718073103758
 30
0.0
 10
-77.66313254655196
 20
-143.1440857022803
 30
0.0
 10
-68.53876747657121
 20
-145.3181668656395
 30
0.0
 10
-62.42189698243097
 20
-146.5769377819672
 30
0.0
 10
-50.12322375984458
 20
-148.7301444810485
 30
0.0
 10
-43.94141591517418
 20
-149.6245327987318
 30
0.0
 10
-34.62109338604316
 20
-150.6989943457125
 30
0.0
 10
-31.50964340767447
 20
-151.0121546224499
 30
0.0
 10
-25.284574964435
 20
-151.548951288631
 30
0.0
 10
-22.16984854390152
 20
-151.7727167788013
 30
0.0
 10
-12.81914822583595
 20
-152.3113260656848
 30
0.0
 10
-6.576664841931983
 20
-152.4937109453546
 30
0.0
 10
2.800075580873374
 20
-152.5029051514073
 30
0.0
 10
5.929209833076085
 20
-152.4617718076346
 30
0.0
 10
12.17800691836739
 20
-152.2912127427845
 30
0.0
 10
15.29905661020106
 20
-152.1618273460898
 30
0.0
 10
24.65215457331194
 20
-151.6411925867729
 30
0.0
 10
30.87417052663358
 20
-151.1177048708192
 30
0.0
 10
40.18677208577357
 20
-150.0630130208004
 30
0.0
 10
43.28869943448799
 20
-149.6663155528541
 30
0.0
 10
49.4805911415066
 20
-148.7821514340906
 30
0.0
 10
52.56723389681755
 20
-148.2951945486142
 30
0.0
 10
61.79893525199739
 20
-146.698164353288
 30
0.0
 10
67.91582358538635
 20
-145.4522167422999
 30
0.0
 10
77.03253826636131
 20
-143.3004685700518
 30
0.0
 10
80.06165956299932
 20
-142.5360128925241
 30
0.0
 10
86.09977403499425
 20
-140.9099552380812
 30
0.0
 10
89.10775810621598
 20
-140.0485333007238
 30
0.0
 10
98.07358884095109
 20
-137.3223421242779
 30
0.0
 10
103.9821224038896
 20
-135.3137480216941
 30
0.0
 10
112.7354675205634
 20
-131.9960521703713
 30
0.0
 10
115.6349756736521
 20
-130.8392649890487
 30
0.0
 10
121.3959396002129
 20
-128.419679046508
 30
0.0
 10
124.2601527740634
 20
-127.1555625094476
 30
0.0
 10
132.7674320440779
 20
-123.2084573663588
 30
0.0
 10
138.3263253664052
 20
-120.3714496973854
 30
0.0
 10
146.4809969598942
 20
-115.780641360417
 30
0.0
 10
149.168543503894
 20
-114.1943702120331
 30
0.0
 10
153.1512924976658
 20
-111.7263111117945
 30
0.0
 10
154.47077474385
 20
-110.8888392062925
 30
0.0
 10
157.0930373131787
 20
-109.1834145214009
 30
0.0
 10
158.3962297288076
 20
-108.315155530065
 30
0.0
 10
164.8535329064524
 20
-103.9059709809755
 30
0.0
 10
169.8440138342421
 20
-100.1549226021111
 30
0.0
 10
177.0363764054341
 20
-94.15399285029692
 30
0.0
 10
179.3848027498889
 20
-92.09111912783237
 30
0.0
 10
183.9765090610394
 20
-87.83118951412295
 30
0.0
 10
186.2101194228498
 20
-85.64305117032629
 30
0.0
 10
190.5443001223503
 20
-81.1455247852
 30
0.0
 10
192.6451498387953
 20
-78.8359045448638
 30
0.0
 10
195.6904253841335
 20
-75.27409978922886
 30
0.0
 10
196.6878346523299
 20
-74.07058774842167
 30
0.0
 10
198.6459642843885
 20
-71.6298610774776
 30
0.0
 10
199.6077730211107
 20
-70.39112192217708
 30
0.0
 10
204.2979637642426
 20
-64.1416742593727
 30
0.0
 10
207.6852677249153
 20
-58.94851484570724
 30
0.0
 10
213.664936469777
 20
-48.1403856792767
 30
0.0
 10
216.2580027107842
 20
-42.52578878744611
 30
0.0
 10
218.9330603407355
 20
-35.20705114685072
 30
0.0
 10
219.4396092080386
 20
-33.72819986795502
 30
0.0
 10
220.1549163806003
 20
-31.48630008255256
 30
0.0
 10
220.385993457839
 20
-30.73476883269007
 30
0.0
 10
220.8309226563427
 20
-29.23088198322403
 30
0.0
 10
221.0450602147021
 20
-28.47766158515006
 30
0.0
 10
222.0740521200562
 20
-24.70516542924505
 30
0.0
 10
222.7639361834384
 20
-21.6667251219267
 30
0.0
 10
223.8736729888452
 20
-15.54843546383775
 30
0.0
 10
224.2935350686372
 20
-12.46858754290919
 30
0.0
 10
224.7159015335646
 20
-7.817008761493837
 30
0.0
 10
224.8220938909278
 20
-6.261177473653609
 30
0.0
 10
224.9286305733581
 20
-3.919341881355565
 30
0.0
 10
224.9687085420487
 20
-2.746401551640319
 30
0.0
 10
224.9888146125207
 20
-1.570398918127161
 30
0.0
 10
224.9977583176334
 20
-0.7857132635405676
 30
0.0
 10
225.0000000000002
 20
-0.3918732213629504
 30
0.0
 10
225.0000000000001
 20
-0.0000000000000495
 30
0.0
  0
SPLINE
  5
FA
330
F2
100
AcDbEntity
  8
0
  6
Continuous
 62
     7
370
    25
100
AcDbSpline
210
0.0
220
0.0
230
1.0
 70
    11
 71
     3
 72
   196
 73
   192
 74
     0
 42
0.000000001
 43
0.00000001
 40
0.0
 40
0.0
 40
0.0
 40
0.0
 40
0.0156249999999999
 40
0.0156249999999999
 40
0.0312499999999998
 40
0.0312499999999998
 40
0.0351562499999998
 40
0.0351562499999998
 40
0.0390624999999997
 40
0.0390624999999997
 40
0.0468749999999997
 40
0.0468749999999997
 40
0.0624999999999995
 40
0.0624999999999995
 40
0.0664062499999995
 40
0.0664062499999995
 40
0.0703124999999995
 40
0.0703124999999995
 40
0.0781249999999995
 40
0.0781249999999995
 40
0.0937499999999994
 40
0.0937499999999994
 40
0.1093749999999994
 40
0.1093749999999994
 40
0.1171874999999993
 40
0.1171874999999993
 40
0.1210937499999993
 40
0.1210937499999993
 40
0.1249999999999993
 40
0.1249999999999993
 40
0.1406249999999993
 40
0.1406249999999993
 40
0.1562499999999994
 40
0.1562499999999994
 40
0.1718749999999994
 40
0.1718749999999994
 40
0.1874999999999995
 40
0.1874999999999995
 40
0.1953124999999995
 40
0.1953124999999995
 40
0.2031249999999996
 40
0.2031249999999996
 40
0.2187499999999996
 40
0.2187499999999996
 40
0.2343749999999997
 40
0.2343749999999997
 40
0.2499999999999998
 40
0.2499999999999998
 40
0.2656249999999999
 40
0.2656249999999999
 40
0.2812500000000001
 40
0.2812500000000001
 40
0.2968750000000002
 40
0.2968750000000002
 40
0.3125000000000003
 40
0.3125000000000003
 40
0.3281250000000004
 40
0.3281250000000004
 40
0.3437500000000005
 40
0.3437500000000005
 40
0.3515625000000006
 40
0.3515625000000006
 40
0.3554687500000006
 40
0.3554687500000006
 40
0.3593750000000006
 40
0.3593750000000006
 40
0.3750000000000007
 40
0.3750000000000007
 40
0.3906250000000008
 40
0.3906250000000008
 40
0.4062500000000008
 40
0.4062500000000008
 40
0.4101562500000008
 40
0.4101562500000008
 40
0.4140625000000009
 40
0.4140625000000009
 40
0.4218750000000009
 40
0.4218750000000009
 40
0.4375000000000011
 40
0.4375000000000011
 40
0.4453125000000011
 40
0.4453125000000011
 40
0.4492187500000011
 40
0.4492187500000011
 40
0.4531250000000012
 40
0.4531250000000012
 40
0.4687500000000011
 40
0.4687500000000011
 40
0.4765625000000011
 40
0.4765625000000011
 40
0.4804687500000011
 40
0.4804687500000011
 40
0.4843750000000011
 40
0.4843750000000011
 40
0.500000000000001
 40
0.500000000000001
 40
0.5078125000000009
 40
0.5078125000000009
 40
0.5117187500000009
 40
0.5117187500000009
 40
0.5136718750000009
 40
0.5136718750000009
 40
0.5156250000000009
 40
0.5156250000000009
 40
0.5312500000000008
 40
0.5312500000000008
 40
0.5390625000000007
 40
0.5390625000000007
 40
0.5429687500000007
 40
0.5429687500000007
 40
0.5468750000000007
 40
0.5468750000000007
 40
0.5625000000000006
 40
0.5625000000000006
 40
0.5781250000000004
 40
0.5781250000000004
 40
0.5820312500000004
 40
0.5820312500000004
 40
0.5859375000000003
 40
0.5859375000000003
 40
0.5937500000000004
 40
0.5937500000000004
 40
0.6250000000000004
 40
0.6250000000000004
 40
0.6328125000000003
 40
0.6328125000000003
 40
0.6406250000000003
 40
0.6406250000000003
 40
0.6562500000000003
 40
0.6562500000000003
 40
0.6718750000000003
 40
0.6718750000000003
 40
0.6875000000000003
 40
0.6875000000000003
 40
0.7031250000000003
 40
0.7031250000000003
 40
0.7187500000000003
 40
0.7187500000000003
 40
0.7343750000000003
 40
0.7343750000000003
 40
0.7500000000000003
 40
0.7500000000000003
 40
0.7656250000000003
 40
0.7656250000000003
 40
0.7812500000000004
 40
0.7812500000000004
 40
0.7968750000000006
 40
0.7968750000000006
 40
0.8007812500000006
 40
0.8007812500000006
 40
0.8046875000000004
 40
0.8046875000000004
 40
0.8125000000000004
 40
0.8125000000000004
 40
0.8281250000000003
 40
0.8281250000000003
 40
0.8437500000000002
 40
0.8437500000000002
 40
0.8593750000000001
 40
0.8593750000000001
 40
0.8671875
 40
0.8671875
 40
0.87109375
 40
0.87109375
 40
0.875
 40
0.875
 40
0.90625
 40
0.90625
 40
0.921875
 40
0.921875
 40
0.92578125
 40
0.92578125
 40
0.9296874999999999
 40
0.9296874999999999
 40
0.9375
 40
0.9375
 40
0.953125
 40
0.953125
 40
0.95703125
 40
0.95703125
 40
0.9609374999999999
 40
0.9609374999999999
 40
0.96875
 40
0.96875
 40
0.984375
 40
0.984375
 40
0.98828125
 40
0.98828125
 40
0.9921874999999999
 40
0.9921874999999999
 40
1.0
 40
1.0
 40
1.0
 40
1.0
 10
232.6098844633121
 20
-0.0000000000000653
 30
0.0
 10
232.6098844633132
 20
-6.570224701294211
 30
0.0
 10
232.0033184768277
 20
-13.01925410253858
 30
0.0
 10
229.7068329087182
 20
-25.70085275568171
 30
0.0
 10
228.0160320306263
 20
-31.93324591958308
 30
0.0
 10
225.2511748120959
 20
-39.59359275330998
 30
0.0
 10
224.6650695741162
 20
-41.12004563652899
 30
0.0
 10
223.4288998337887
 20
-44.15600651470007
 30
0.0
 10
222.7824778520427
 20
-45.65670663858821
 30
0.0
 10
220.7615673405076
 20
-50.10901916099875
 30
0.0
 10
219.3055369051428
 20
-53.01090631402289
 30
0.0
 10
214.6339206216682
 20
-61.53147455129113
 30
0.0
 10
211.1159242128345
 20
-66.96574199855864
 30
0.0
 10
206.2686119703968
 20
-73.48427259546094
 30
0.0
 10
205.2765681490604
 20
-74.77420831910852
 30
0.0
 10
203.2483514847063
 20
-77.32716935241211
 30
0.0
 10
202.2107628576911
 20
-78.5918529504626
 30
0.0
 10
199.0433395089797
 20
-82.33447231224183
 30
0.0
 10
196.8665757328488
 20
-84.75266817494115
 30
0.0
 10
190.158383366959
 20
-91.79730844397152
 30
0.0
 10
185.4500759779819
 20
-96.21501191085513
 30
0.0
 10
175.620918889349
 20
-104.5635630435118
 30
0.0
 10
170.4996132417007
 20
-108.4938726289005
 30
0.0
 10
162.5310594830145
 20
-114.0511157517593
 30
0.0
 10
159.8268276053076
 20
-115.8468278146018
 30
0.0
 10
155.7017611339636
 20
-118.4592985890032
 30
0.0
 10
154.3136797269038
 20
-119.3175453478039
 30
0.0
 10
151.5250110081554
 20
-121.001562980625
 30
0.0
 10
150.1242543621493
 20
-121.8275010896765
 30
0.0
 10
143.0895187571743
 20
-125.8797384491264
 30
0.0
 10
137.3631614566618
 20
-128.8748762178942
 30
0.0
 10
125.7344787223557
 20
-134.4248206807521
 30
0.0
 10
119.8320254224156
 20
-136.9793074110131
 30
0.0
 10
107.8622511544342
 20
-141.6757268703012
 30
0.0
 10
101.794771824757
 20
-143.8172633255939
 30
0.0
 10
89.50133160156977
 20
-147.7037624019401
 30
0.0
 10
83.27535444335814
 20
-149.4486843232746
 30
0.0
 10
73.82028770142412
 20
-151.7755436929746
 30
0.0
 10
70.64520330362869
 20
-152.5034304915449
 30
0.0
 10
64.29354291026404
 20
-153.8553655456218
 30
0.0
 10
61.11350084511169
 20
-154.4803937873455
 30
0.0
 10
51.56110995568064
 20
-156.2071465429578
 30
0.0
 10
45.17654752431181
 20
-157.1611569435657
 30
0.0
 10
32.37609532220672
 20
-158.6902978510743
 30
0.0
 10
25.96020012982714
 20
-159.2653627874006
 30
0.0
 10
13.09721896063593
 20
-160.0382642924671
 30
0.0
 10
6.650133144555901
 20
-160.236102805132
 30
0.0
 10
-6.276133752217597
 20
-160.2436124759772
 30
0.0
 10
-12.75739920961702
 20
-160.0530309341324
 30
0.0
 10
-25.74365330351482
 20
-159.2837896195708
 30
0.0
 10
-32.19193634027149
 20
-158.7086475466149
 30
0.0
 10
-45.0007871821458
 20
-157.1857020344109
 30
0.0
 10
-51.36135617560382
 20
-156.2379036438714
 30
0.0
 10
-63.99366183068901
 20
-153.9648994555226
 30
0.0
 10
-70.26530684500166
 20
-152.6393042907497
 30
0.0
 10
-82.71642449066145
 20
-149.5965162246607
 30
0.0
 10
-88.89591409202603
 20
-147.8793954210842
 30
0.0
 10
-101.1578512112593
 20
-144.0328669767694
 30
0.0
 10
-107.2403190754462
 20
-141.9035457781079
 30
0.0
 10
-116.2858955398447
 20
-138.3776456533093
 30
0.0
 10
-119.2880485061015
 20
-137.1469481428003
 30
0.0
 10
-123.7708426003723
 20
-135.2140815242279
 30
0.0
 10
-125.2630204482974
 20
-134.554694764433
 30
0.0
 10
-128.2297196218085
 20
-133.211102376639
 30
0.0
 10
-129.7050903544989
 20
-132.5265600855534
 30
0.0
 10
-137.0416190011466
 20
-129.0394300332809
 30
0.0
 10
-142.7823214984152
 20
-126.0444165884748
 30
0.0
 10
-153.987772925925
 20
-119.6135581012306
 30
0.0
 10
-159.4527207852962
 20
-116.1780308450317
 30
0.0
 10
-170.0718657141896
 20
-108.810556704396
 30
0.0
 10
-175.2263454953376
 20
-104.879061447453
 30
0.0
 10
-181.4510343601879
 20
-99.61578436943083
 30
0.0
 10
-182.6866097970155
 20
-98.5441302896421
 30
0.0
 10
-185.1257169315175
 20
-96.37262906033705
 30
0.0
 10
-186.3289911354702
 20
-95.27310374514812
 30
0.0
 10
-189.8890549771055
 20
-91.93242466899093
 30
0.0
 10
-192.196159809765
 20
-89.64923036271004
 30
0.0
 10
-198.9088571156195
 20
-82.62312706677498
 30
0.0
 10
-203.1069864585831
 20
-77.70467420363468
 30
0.0
 10
-208.9271254446212
 20
-69.92333722064318
 30
0.0
 10
-210.7874476995524
 20
-67.26210010640341
 30
0.0
 10
-213.4479296305595
 20
-63.16024436751237
 30
0.0
 10
-214.3130667995807
 20
-61.77460611835387
 30
0.0
 10
-215.9979049813392
 20
-58.96488404726658
 30
0.0
 10
-216.8150813839715
 20
-57.54482936134178
 30
0.0
 10
-220.7544282184625
 20
-50.39839691418408
 30
0.0
 10
-223.456397877887
 20
-44.50420763923831
 30
0.0
 10
-226.7833186890743
 20
-35.37696782478267
 30
0.0
 10
-227.7711605679457
 20
-32.28684556582378
 30
0.0
 10
-229.0609680135788
 20
-27.57605856089878
 30
0.0
 10
-229.4588693719374
 20
-25.99317912249736
 30
0.0
 10
-230.1883269855489
 20
-22.80128953801528
 30
0.0
 10
-230.5201635559975
 20
-21.18979988476207
 30
0.0
 10
-231.9932640933037
 20
-13.14722931905806
 30
0.0
 10
-232.5945668337474
 20
-6.702452344057669
 30
0.0
 10
-232.6171123125387
 20
2.981047290990971
 30
0.0
 10
-232.4772914653803
 20
6.211617127798577
 30
0.0
 10
-232.0480907958906
 20
11.06154831676129
 30
0.0
 10
-231.8684083686058
 20
12.67887214493295
 30
0.0
 10
-231.5438056706827
 20
15.10588092788862
 30
0.0
 10
-231.4264224676953
 20
15.91505440803141
 30
0.0
 10
-231.173235432716
 20
17.53374351384719
 30
0.0
 10
-231.0372385381662
 20
18.34428500332187
 30
0.0
 10
-229.7354838616876
 20
25.61118854667872
 30
0.0
 10
-228.0292074853791
 20
31.88486861201694
 30
0.0
 10
-224.7294518758244
 20
41.0449198106047
 30
0.0
 10
-223.5052999342382
 20
44.05624011542992
 30
0.0
 10
-221.4881624233831
 20
48.51201603953366
 30
0.0
 10
-220.7856189997092
 20
49.98706964445491
 30
0.0
 10
-219.3209268865176
 20
52.91701146506976
 30
0.0
 10
-218.5588449981527
 20
54.37141297706545
 30
0.0
 10
-214.6342605086633
 20
61.53628699418719
 30
0.0
 10
-211.1077043434359
 20
66.975300689598
 30
0.0
 10
-203.3931530019361
 20
77.35260016864954
 30
0.0
 10
-199.2043927965183
 20
82.2903068037364
 30
0.0
 10
-193.6007143606236
 20
88.18405953618819
 30
0.0
 10
-192.4615111490528
 20
89.34882964794464
 30
0.0
 10
-190.1469655854309
 20
91.65101152693366
 30
0.0
 10
-188.9701909138796
 20
92.78971058045681
 30
0.0
 10
-185.4061615333336
 20
96.14747635095559
 30
0.0
 10
-182.9806000750687
 20
98.31325394916239
 30
0.0
 10
-170.6233497879343
 20
108.8052943888021
 30
0.0
 10
-160.0079741323213
 20
116.1278297784658
 30
0.0
 10
-146.0040755056585
 20
124.2024093615524
 30
0.0
 10
-143.1663401773238
 20
125.7630703886809
 30
0.0
 10
-137.4196613591876
 20
128.7798510306151
 30
0.0
 10
-134.5090002630071
 20
130.2367806893172
 30
0.0
 10
-125.6836409427401
 20
134.44964536506
 30
0.0
 10
-119.732815823091
 20
137.0215893391267
 30
0.0
 10
-107.7081818774826
 20
141.7327491102746
 30
0.0
 10
-101.6342399802104
 20
143.8714966851145
 30
0.0
 10
-89.37055626186088
 20
147.7415403810477
 30
0.0
 10
-83.18079421949726
 20
149.4727653519008
 30
0.0
 10
-70.69036646665012
 20
152.5449917138612
 30
0.0
 10
-64.38968436795483
 20
153.8859354417142
 30
0.0
 10
-51.68031431501927
 20
156.1877955069941
 30
0.0
 10
-45.27174033658176
 20
157.1491128775585
 30
0.0
 10
-32.34734837217079
 20
158.6944008524679
 30
0.0
 10
-25.89113096815566
 20
159.2712223208289
 30
0.0
 10
-12.99208947131442
 20
160.0428486400925
 30
0.0
 10
-6.548972817385625
 20
160.2376463244127
 30
0.0
 10
6.324349296703394
 20
160.2421384098951
 30
0.0
 10
12.75455274250994
 20
160.0517727287483
 30
0.0
 10
25.60230442362037
 20
159.2935733181063
 30
0.0
 10
32.01985318531923
 20
158.7257552894453
 30
0.0
 10
44.84213395346911
 20
157.2078327747926
 30
0.0
 10
51.24686883625964
 20
156.2578140816431
 30
0.0
 10
59.24438381057215
 20
154.8196349474955
 30
0.0
 10
60.84463648570948
 20
154.5191840262892
 30
0.0
 10
64.03532786108886
 20
153.8944949844725
 30
0.0
 10
65.62640425311554
 20
153.5701644462265
 30
0.0
 10
70.38678690136673
 20
152.561106295591
 30
0.0
 10
73.54325114325137
 20
151.840324818892
 30
0.0
 10
82.96080324849132
 20
149.5324382141316
 30
0.0
 10
89.17013103367273
 20
147.8000170331739
 30
0.0
 10
101.4463906455242
 20
143.9353990262196
 30
0.0
 10
107.5133404684042
 20
141.803252724454
 30
0.0
 10
119.4977646228875
 20
137.1193087377859
 30
0.0
 10
125.4153824840557
 20
134.56791401112
 30
0.0
 10
134.1713000216035
 20
130.4024930434159
 30
0.0
 10
137.0697984642651
 20
128.957474412373
 30
0.0
 10
141.3856412020841
 20
126.700373611536
 30
0.0
 10
142.8189330812044
 20
125.9330641707723
 30
0.0
 10
145.6745245140657
 20
124.3675844135927
 30
0.0
 10
147.0979278204522
 20
123.5687492692198
 30
0.0
 10
159.8064117541028
 20
116.2651393001435
 30
0.0
 10
170.4537122563303
 20
108.9274521590341
 30
0.0
 10
185.2529177645036
 20
96.39454635228897
 30
0.0
 10
189.9909203493062
 20
91.96280827370423
 30
0.0
 10
195.6298890997877
 20
86.05378920579324
 30
0.0
 10
196.7420371563599
 20
84.8547193247284
 30
0.0
 10
198.9236811303549
 20
82.43239599508658
 30
0.0
 10
199.9946827917048
 20
81.20758051715147
 30
0.0
 10
203.1466948308548
 20
77.4911173029095
 30
0.0
 10
205.1667398341438
 20
74.95747177883598
 30
0.0
 10
210.9693371036456
 20
67.17912277458692
 30
0.0
 10
214.4957605950587
 20
61.75797746966946
 30
0.0
 10
218.4134516977809
 20
54.64376193401881
 30
0.0
 10
219.1723631978783
 20
53.20395398763326
 30
0.0
 10
220.6388696206045
 20
50.2889871641635
 30
0.0
 10
221.3475788598353
 20
48.81135756269192
 30
0.0
 10
223.3854187878919
 20
44.34043756362107
 30
0.0
 10
224.6195565389369
 20
41.32499708171655
 30
0.0
 10
227.9424251097555
 20
32.17243688463824
 30
0.0
 10
229.6546971735864
 20
25.9299422029978
 30
0.0
 10
231.1153346312049
 20
17.9365675748271
 30
0.0
 10
231.3732707628259
 20
16.32832210966792
 30
0.0
 10
231.81858735976
 20
13.09208186855881
 30
0.0
 10
232.0061850976252
 20
11.46148140772643
 30
0.0
 10
232.4574904140437
 20
6.559424720956495
 30
0.0
 10
232.6098844633116
 20
3.285112350647077
 30
0.0
 10
232.6098844633121
 20
-0.0000000000000497
 30
0.0
  0
SPLINE
  5
FB
330
F2
100
AcDbEntity
  8
0
  6
Continuous
 62
     7
370
    25
100
AcDbSpline
210
0.0
220
0.0
230
1.0
 70
    11
 71
     3
 72
    35
 73
    31
 74
     0
 42
0.000000001
 43
0.00000001
 40
0.0
 40
0.0
 40
0.0
 40
0.0
 40
0.0062500000000001
 40
0.0083333333333333
 40
0.0416666666666666
 40
0.0833333333333334
 40
0.125
 40
0.1666666666666666
 40
0.2083333333333334
 40
0.2499999999996538
 40
0.2916666666666666
 40
0.3333333333333334
 40
0.375
 40
0.4166666666666666
 40
0.4583333333333334
 40
0.4999999999999999
 40
0.5416666666666667
 40
0.5833333333333333
 40
0.625
 40
0.6666666666666667
 40
0.7083333333333333
 40
0.7499999999996151
 40
0.7916666666666666
 40
0.8333333333333334
 40
0.875
 40
0.9166666666666666
 40
0.9583333333333334
 40
0.9916666666666667
 40
0.99375
 40
1.0
 40
1.0
 40
1.0
 40
1.0
 10
342.5000000000001
 20
-0.0000000000001505
 30
0.0
 10
342.5000000000001
 20
2.79627835108201
 30
0.0
 10
342.379383817169
 20
6.524649485858157
 30
0.0
 10
340.9820045202297
 20
25.14318496094193
 30
0.0
 10
332.1773908580587
 20
59.34300217245835
 30
0.0
 10
300.2359668465141
 20
107.1870942838844
 30
0.0
 10
245.0270232497481
 20
152.0240655199164
 30
0.0
 10
172.7603754928497
 20
186.2777896492969
 30
0.0
 10
90.13885508194167
 20
207.5110094692758
 30
0.0
 10
0.0000000000001483
 20
214.994495265362
 30
0.0
 10
-90.13885508194133
 20
207.511009469276
 30
0.0
 10
-172.7603754928494
 20
186.2777896492971
 30
0.0
 10
-245.0270232497477
 20
152.0240655199166
 30
0.0
 10
-300.2359668465142
 20
107.1870942838847
 30
0.0
 10
-334.4589211445978
 20
55.92556702164246
 30
0.0
 10
-346.5205394277012
 20
-0.0000000000000301
 30
0.0
 10
-334.4589211445976
 20
-55.92556702164251
 30
0.0
 10
-300.235966846514
 20
-107.1870942838847
 30
0.0
 10
-245.0270232497478
 20
-152.0240655199166
 30
0.0
 10
-172.7603754928494
 20
-186.2777896492971
 30
0.0
 10
-90.1388550819414
 20
-207.511009469276
 30
0.0
 10
0.000000000000098
 20
-214.9944952653622
 30
0.0
 10
90.1388550819416
 20
-207.511009469276
 30
0.0
 10
172.7603754928496
 20
-186.2777896492971
 30
0.0
 10
245.027023249748
 20
-152.0240655199165
 30
0.0
 10
300.2359668465142
 20
-107.1870942838848
 30
0.0
 10
332.177390858059
 20
-59.34300217245866
 30
0.0
 10
340.9820045202297
 20
-25.14318496094219
 30
0.0
 10
342.379383817169
 20
-6.524649485858409
 30
0.0
 10
342.5000000000001
 20
-2.796278351082261
 30
0.0
 10
342.5000000000001
 20
-0.0000000000001505
 30
0.0
  0
VIEWPORT
  5
131
330
F2
100
AcDbEntity
  8
0
100
AcDbViewport
 10
0.0
 20
0.0
 30
0.0
 40
205.6
 41
156.0
 68
     1
 69
     1
 12
0.0
 22
-12.0504288426
 13
0.0
 23
0.0
 14
10.0
 24
10.0
 15
10.0
 25
10.0
 16
0.0
 26
0.0
 36
1.0
 17
0.0
 27
0.0
 37
0.0
 42
50.0
 43
0.0
 44
0.0
 45
440.8991966491
 50
0.0
 51
0.0
 72
   100
 90
   557152
  1

281
     0
 71
     1
 74
     0
110
0.0
120
0.0
130
0.0
111
1.0
121
0.0
131
0.0
112
0.0
122
1.0
132
0.0
 79
     0
146
0.0
170
     0
 61
     5
348
2F
292
     1
282
     1
141
0.0
142
0.0
 63
   256
361
132
  0
ENDBLK
  5
F5
330
F2
100
AcDbEntity
  8
0
100
AcDbBlockEnd
  0
BLOCK
  5
FE
330
FC
100
AcDbEntity
  8
0
100
AcDbBlockBegin
  2
*Paper_Space6
 70
     0
 10
0.0
 20
0.0
 30
0.0
  3
*Paper_Space6
  1

  0
SPLINE
  5
100
330
FC
100
AcDbEntity
  8
0
  6
Continuous
 62
     7
370
    25
100
AcDbSpline
210
0.0
220
0.0
230
1.0
 70
     8
 71
     3
 72
    50
 73
    46
 74
     0
 42
0.000000001
 43
0.00000001
 40
0.0
 40
0.0
 40
0.0
 40
0.0
 40
0.0176220906519867
 40
0.0413731292101594
 40
0.0643205943874405
 40
0.085128236639053
 40
0.1016725004231815
 40
0.1146316858727981
 40
0.1282687275827792
 40
0.1434500357692002
 40
0.1700650424384996
 40
0.1994693962803154
 40
0.2283183883759141
 40
0.2548518873573472
 40
0.2906117598145003
 40
0.3315533989601601
 40
0.364561612349318
 40
0.3952808795300012
 40
0.428356869660097
 40
0.4648797346824206
 40
0.4950796737471623
 40
0.5313285831526812
 40
0.5624563789724238
 40
0.5944289413309128
 40
0.6227042126126273
 40
0.6495482208696086
 40
0.6668363030874475
 40
0.6838697294726163
 40
0.7023160936752474
 40
0.7254171725932793
 40
0.7496758878078654
 40
0.7725203451809044
 40
0.7906046758656018
 40
0.8065877729319529
 40
0.8233736114144811
 40
0.8448244684130736
 40
0.8678449325078721
 40
0.8892076459003516
 40
0.9015262552149442
 40
0.9121359618003269
 40
0.923022850953941
 40
0.9347473884164694
 40
0.9503810624088667
 40
0.9721483338790143
 40
0.9999999999999999
 40
0.9999999999999999
 40
0.9999999999999999
 40
0.9999999999999999
 10
57.93977446842041
 20
-188.2137453848654
 30
0.0
 10
59.03672511981074
 20
-188.2596405364253
 30
0.0
 10
61.61214491156075
 20
-188.3673931336118
 30
0.0
 10
66.01149973753759
 20
-188.4790005237736
 30
0.0
 10
70.85242206150762
 20
-188.5503967419
 30
0.0
 10
75.26784330621882
 20
-188.5564852132807
 30
0.0
 10
78.92865663951828
 20
-188.5180348208304
 30
0.0
 10
82.05388921078294
 20
-188.4563374535726
 30
0.0
 10
85.02047424254702
 20
-188.3735791102546
 30
0.0
 10
88.87255342749137
 20
-188.2332871162801
 30
0.0
 10
93.8202990646581
 20
-187.9919206676194
 30
0.0
 10
99.78916023623893
 20
-187.5991485744317
 30
0.0
 10
105.7242312109922
 20
-187.1013059715879
 30
0.0
 10
112.0924718992143
 20
-186.4567123289611
 30
0.0
 10
119.2667936145883
 20
-185.5885960741702
 30
0.0
 10
126.8775262792903
 20
-184.4792799100513
 30
0.0
 10
134.1182991803388
 20
-183.2457673984394
 30
0.0
 10
140.7398326983506
 20
-181.9759342781568
 30
0.0
 10
147.6570188702125
 20
-180.4970784835165
 30
0.0
 10
154.4336145680893
 20
-178.8810634270162
 30
0.0
 10
161.4033523431804
 20
-177.0515657110256
 30
0.0
 10
167.9349293643642
 20
-175.1765625362621
 30
0.0
 10
174.5703239519568
 20
-173.1030418749734
 30
0.0
 10
180.6794798820594
 20
-171.0406451400413
 30
0.0
 10
186.2943323064483
 20
-169.0100297127126
 30
0.0
 10
191.0058909955165
 20
-167.2002230131503
 30
0.0
 10
194.9415269498711
 20
-165.6142871584923
 30
0.0
 10
198.3183563636266
 20
-164.2036162222812
 30
0.0
 10
202.0359532440805
 20
-162.5925298679256
 30
0.0
 10
206.1802616627126
 20
-160.719294661734
 30
0.0
 10
210.5603492211756
 20
-158.6438255642517
 30
0.0
 10
214.5837341552241
 20
-156.6475525558036
 30
0.0
 10
218.0679615658231
 20
-154.8492333208459
 30
0.0
 10
221.1486003058409
 20
-153.2067990140868
 30
0.0
 10
224.3999526549398
 20
-151.4191776968528
 30
0.0
 10
228.0404413424547
 20
-149.345212927792
 30
0.0
 10
231.9143216624047
 20
-147.0458293604331
 30
0.0
 10
235.206782667547
 20
-145.0109112464608
 30
0.0
 10
237.7574960314826
 20
-143.3857586868527
 30
0.0
 10
239.6906853536179
 20
-142.1284402504012
 30
0.0
 10
241.5762471060278
 20
-140.8782956422926
 30
0.0
 10
243.7336534507495
 20
-139.4190873224252
 30
0.0
 10
246.47514167086
 20
-137.5180045235904
 30
0.0
 10
250.0806243508106
 20
-134.9423343168047
 30
0.0
 10
252.7753662712163
 20
-132.9046069841736
 30
0.0
 10
254.2879551312965
 20
-131.7608077802948
 30
0.0
  0
SPLINE
  5
101
330
FC
100
AcDbEntity
  8
0
  6
Continuous
 62
     7
370
    25
100
AcDbSpline
210
0.0
220
0.0
230
1.0
 70
     8
 71
     3
 72
    59
 73
    55
 74
     0
 42
0.000000001
 43
0.00000001
 40
0.0
 40
0.0
 40
0.0
 40
0.0
 40
0.0156999794179771
 40
0.0281934799417088
 40
0.0376665833900149
 40
0.0465728136606012
 40
0.0557400540713394
 40
0.0739501799954575
 40
0.0925102916262355
 40
0.1166070539362041
 40
0.1421256961300167
 40
0.1682227821496882
 40
0.188002212302544
 40
0.2057141595833064
 40
0.2218251357448243
 40
0.2372243534694843
 40
0.2526181434048654
 40
0.2680702153019798
 40
0.2866385464948444
 40
0.311056595911485
 40
0.3338114898708083
 40
0.3525702443393702
 40
0.3695793612434256
 40
0.3887522168534447
 40
0.4130191115586864
 40
0.4288096684025293
 40
0.4416863611011937
 40
0.4528351147323178
 40
0.464629155630454
 40
0.4800451752276556
 40
0.4966242394123478
 40
0.5104450272825107
 40
0.538003743440401
 40
0.5722331308350195
 40
0.6011909313256981
 40
0.633558577807249
 40
0.6628975787868929
 40
0.6933595189420222
 40
0.7248172734765567
 40
0.75089495552291
 40
0.7861174877648496
 40
0.815144958823284
 40
0.8447309074436951
 40
0.8776485305206935
 40
0.8870752993432
 40
0.8966350005649392
 40
0.9083660495483886
 40
0.9217970099768914
 40
0.9357338384962278
 40
0.9476894096329779
 40
0.9599533946434945
 40
0.9721494553799861
 40
0.9891862630670806
 40
1.0
 40
1.0
 40
1.0
 40
1.0
 10
-270.3052579791778
 20
22.57489319963222
 30
0.0
 10
-269.6672990698171
 20
21.43188678293782
 30
0.0
 10
-268.5216745288
 20
19.37931539896393
 30
0.0
 10
-266.9663555814637
 20
16.65630681477865
 30
0.0
 10
-265.6861379566063
 20
14.44269441700519
 30
0.0
 10
-264.5339300743332
 20
12.47353817143438
 30
0.0
 10
-263.001140082067
 20
9.882900580469958
 30
0.0
 10
-261.0344912550086
 20
6.61467060992136
 30
0.0
 10
-258.3869706059865
 20
2.313157648312802
 30
0.0
 10
-255.37450325335
 20
-2.455941963853833
 30
0.0
 10
-251.954825984642
 20
-7.709991947994633
 30
0.0
 10
-248.6637864842033
 20
-12.61213458404232
 30
0.0
 10
-245.6791720308734
 20
-16.93786134272675
 30
0.0
 10
-243.1264048997261
 20
-20.5561994727658
 30
0.0
 10
-240.7519847677898
 20
-23.85499652915519
 30
0.0
 10
-238.4625743814664
 20
-26.97701474240256
 30
0.0
 10
-236.1792745326125
 20
-30.0346523034636
 30
0.0
 10
-233.711739054786
 20
-33.27948788721317
 30
0.0
 10
-230.7580759689935
 20
-37.08658817713116
 30
0.0
 10
-227.3837025808191
 20
-41.32737556223685
 30
0.0
 10
-223.9427036693424
 20
-45.53347469813828
 30
0.0
 10
-220.8457725499506
 20
-49.22760556221256
 30
0.0
 10
-217.9029279037892
 20
-52.66474190634146
 30
0.0
 10
-214.6280176533807
 20
-56.40900556326397
 30
0.0
 10
-211.3723192277394
 20
-60.03707719160649
 30
0.0
 10
-208.4258551777235
 20
-63.24357280643597
 30
0.0
 10
-206.190507954971
 20
-65.63516242847216
 30
0.0
 10
-204.1591964915044
 20
-67.77777950555011
 30
0.0
 10
-201.9403249345009
 20
-70.08589484794923
 30
0.0
 10
-199.4423548740548
 20
-72.64225893016236
 30
0.0
 10
-196.8096523893668
 20
-75.28623693881077
 30
0.0
 10
-193.4210075484928
 20
-78.62807774519037
 30
0.0
 10
-188.9376797009575
 20
-82.94024588373864
 30
0.0
 10
-183.4923261316117
 20
-87.9858959679293
 30
0.0
 10
-177.6149207302612
 20
-93.22507232505585
 30
0.0
 10
-172.0041420260185
 20
-98.04070843718024
 30
0.0
 10
-166.1846745571748
 20
-102.8482791114603
 30
0.0
 10
-160.3388398809008
 20
-107.4983696918798
 30
0.0
 10
-154.6652297738347
 20
-111.838427024684
 30
0.0
 10
-148.5170954502216
 20
-116.3699169624514
 30
0.0
 10
-142.5007707082768
 20
-120.6277811368314
 30
0.0
 10
-136.1747651601857
 20
-124.9175169229158
 30
0.0
 10
-129.8915080696866
 20
-129.009825210681
 30
0.0
 10
-124.9212675812037
 20
-132.107803058737
 30
0.0
 10
-121.271250306357
 20
-134.3139401224252
 30
0.0
 10
-119.1520398318152
 20
-135.5770295076366
 30
0.0
 10
-116.8014839012515
 20
-136.956351442848
 30
0.0
 10
-114.1702491888615
 20
-138.4718011397894
 30
0.0
 10
-111.5070617486768
 20
-139.9747822197608
 30
0.0
 10
-108.9101208645728
 20
-141.4120710659912
 30
0.0
 10
-106.4296944384881
 20
-142.7602199685582
 30
0.0
 10
-103.5500973724788
 20
-144.2960682217765
 30
0.0
 10
-100.5079580841577
 20
-145.9002106762593
 30
0.0
 10
-98.3497206964348
 20
-146.9963902230468
 30
0.0
 10
-97.5117259043023
 20
-147.4220119626551
 30
0.0
  0
SPLINE
  5
102
330
FC
100
AcDbEntity
  8
0
  6
Continuous
 62
     7
370
    25
100
AcDbSpline
210
0.0
220
0.0
230
1.0
 70
     8
 71
     3
 72
     9
 73
     5
 74
     0
 42
0.000000001
 43
0.00000001
 40
0.0
 40
0.0
 40
0.0
 40
0.0
 40
0.0299708451526818
 40
1.0
 40
1.0
 40
1.0
 40
1.0
 10
-66.06477203901733
 20
-161.570635800631
 30
0.0
 10
-66.02435978274335
 20
-161.5866252920603
 30
0.0
 10
-64.67597417439372
 20
-162.1201268115467
 30
0.0
 10
-63.30899493873879
 20
-162.635455745402
 30
0.0
 10
-61.98298522608268
 20
-163.1353398355781
 30
0.0
  0
SPLINE
  5
103
330
FC
100
AcDbEntity
  8
0
  6
Continuous
 62
     7
370
    25
100
AcDbSpline
210
0.0
220
0.0
230
1.0
 70
     8
 71
     3
 72
     9
 73
     5
 74
     0
 42
0.000000001
 43
0.00000001
 40
0.0
 40
0.0
 40
0.0
 40
0.0
 40
0.2615560460505784
 40
1.0
 40
1.0
 40
1.0
 40
1.0
 10
17.95514213725428
 20
-184.3022899443339
 30
0.0
 10
18.41741333440407
 20
-184.3800793150717
 30
0.0
 10
20.18480202271751
 20
-184.6774892656825
 30
0.0
 10
21.93625755914995
 20
-184.8905582496313
 30
0.0
 10
23.22960931063971
 20
-185.0478977526024
 30
0.0
  0
SPLINE
  5
104
330
FC
100
AcDbEntity
  8
0
  6
Continuous
 62
     7
370
    25
100
AcDbSpline
210
0.0
220
0.0
230
1.0
 70
    11
 71
     3
 72
    35
 73
    31
 74
     0
 42
0.000000001
 43
0.00000001
 40
0.0
 40
0.0
 40
0.0
 40
0.0
 40
0.0062500000000001
 40
0.0083333333333333
 40
0.0416666666666666
 40
0.0833333333333334
 40
0.125
 40
0.1666666666666666
 40
0.2083333333333334
 40
0.2499999999996538
 40
0.2916666666666666
 40
0.3333333333333334
 40
0.375
 40
0.4166666666666666
 40
0.4583333333333334
 40
0.4999999999999999
 40
0.5416666666666667
 40
0.5833333333333333
 40
0.625
 40
0.6666666666666667
 40
0.7083333333333333
 40
0.7499999999996151
 40
0.7916666666666666
 40
0.8333333333333334
 40
0.875
 40
0.9166666666666666
 40
0.9583333333333334
 40
0.9916666666666667
 40
0.99375
 40
1.0
 40
1.0
 40
1.0
 40
1.0
 10
242.1840725563923
 20
-139.8098891496391
 30
0.0
 10
240.2068051722569
 20
-140.951341314008
 30
0.0
 10
237.4851601392758
 20
-142.4240415181262
 30
0.0
 10
223.3317710723263
 20
-149.4537873175277
 30
0.0
 10
192.9230463804738
 20
-159.8202124070649
 30
0.0
 10
136.5061668894526
 20
-166.3117460252486
 30
0.0
 10
65.76302208116932
 20
-162.0778648397963
 30
0.0
 10
-9.55825521413134
 20
-146.560835237995
 30
0.0
 10
-82.99464628975875
 20
-121.5018819512722
 30
0.0
 10
-152.0240655199167
 20
-87.76162496593516
 30
0.0
 10
-210.4702376434233
 20
-47.91178947196345
 30
0.0
 10
-253.8783212767873
 20
-5.517863284095231
 30
0.0
 10
-280.7575173465313
 20
37.96418455706963
 30
0.0
 10
-288.0916093370861
 20
78.80333276917983
 30
0.0
 10
-276.0435188523876
 20
113.6984448595842
 30
0.0
 10
-245.0270232497474
 20
141.4510896509783
 30
0.0
 10
-196.952823486975
 20
159.3565314343376
 30
0.0
 10
-136.5061668894523
 20
166.3117460252486
 30
0.0
 10
-65.76302208116898
 20
162.0778648397963
 30
0.0
 10
9.558255214131645
 20
146.5608352379948
 30
0.0
 10
82.99464628975902
 20
121.5018819512721
 30
0.0
 10
152.024065519917
 20
87.76162496593513
 30
0.0
 10
210.4702376434235
 20
47.91178947196336
 30
0.0
 10
253.8783212767874
 20
5.517863284095183
 30
0.0
 10
280.7575173465315
 20
-37.96418455706974
 30
0.0
 10
288.0916093370861
 20
-78.80333276917983
 30
0.0
 10
276.846724884701
 20
-111.3721040535573
 30
0.0
 10
258.8896042453459
 20
-128.9266871583559
 30
0.0
 10
246.7124079319073
 20
-137.0972647510717
 30
0.0
 10
244.1613399405275
 20
-138.6684369852703
 30
0.0
 10
242.1840725563923
 20
-139.8098891496391
 30
0.0
  0
SPLINE
  5
105
330
FC
100
AcDbEntity
  8
0
  6
Continuous
 62
     7
370
    25
100
AcDbSpline
210
0.0
220
0.0
230
1.0
 70
    11
 71
     3
 72
    35
 73
    31
 74
     0
 42
0.000000001
 43
0.00000001
 40
0.0
 40
0.0
 40
0.0
 40
0.0
 40
0.0062500000000001
 40
0.0083333333333333
 40
0.0416666666666666
 40
0.0833333333333334
 40
0.125
 40
0.1666666666666666
 40
0.2083333333333334
 40
0.2499999999996538
 40
0.2916666666666666
 40
0.3333333333333334
 40
0.375
 40
0.4166666666666666
 40
0.4583333333333334
 40
0.4999999999999999
 40
0.5416666666666667
 40
0.5833333333333333
 40
0.625
 40
0.6666666666666667
 40
0.7083333333333333
 40
0.7499999999996151
 40
0.7916666666666666
 40
0.8333333333333334
 40
0.875
 40
0.9166666666666666
 40
0.9583333333333334
 40
0.9916666666666667
 40
0.99375
 40
1.0
 40
1.0
 40
1.0
 40
1.0
 10
221.0640468294941
 20
-127.6175578185703
 30
0.0
 10
219.2838369356501
 20
-128.6452511152196
 30
0.0
 10
216.8324229679658
 20
-129.970595412172
 30
0.0
 10
204.0779625325476
 20
-136.2929029885071
 30
0.0
 10
176.6272517472939
 20
-145.582636994538
 30
0.0
 10
125.5849483722791
 20
-151.2588255153999
 30
0.0
 10
61.47292301596823
 20
-147.1483163743668
 30
0.0
 10
-6.903339274532502
 20
-132.7783132657927
 30
0.0
 10
-73.706092003854
 20
-109.7527890903437
 30
0.0
 10
-136.6490074342843
 20
-78.88579286050063
 30
0.0
 10
-190.1180066588309
 20
-42.54962121967283
 30
0.0
 10
-230.0037061002175
 20
-3.985212935548738
 30
0.0
 10
-254.8959787187711
 20
35.48756308309618
 30
0.0
 10
-262.0163609042568
 20
72.49864751821234
 30
0.0
 10
-251.4815263135551
 20
104.0694630913618
 30
0.0
 10
-223.6574060259035
 20
129.1146722156817
 30
0.0
 10
-180.2731305597948
 20
145.1771949573337
 30
0.0
 10
-125.5849483722791
 20
151.2588255154
 30
0.0
 10
-61.47292301596831
 20
147.1483163743669
 30
0.0
 10
6.903339274532295
 20
132.7783132657927
 30
0.0
 10
73.70609200385397
 20
109.7527890903437
 30
0.0
 10
136.6490074342842
 20
78.88579286050071
 30
0.0
 10
190.1180066588307
 20
42.54962121967282
 30
0.0
 10
230.0037061002173
 20
3.98521293554889
 30
0.0
 10
254.8959787187711
 20
-35.48756308309611
 30
0.0
 10
262.0163609042568
 20
-72.49864751821222
 30
0.0
 10
252.1838486196021
 20
-101.9647420531519
 30
0.0
 10
236.0918137268621
 20
-117.8117000774935
 30
0.0
 10
225.1400691392379
 20
-125.1746933611419
 30
0.0
 10
222.8442567233381
 20
-126.589864521921
 30
0.0
 10
221.0640468294941
 20
-127.6175578185703
 30
0.0
  0
SPLINE
  5
106
330
FC
100
AcDbEntity
  8
0
  6
Continuous
 62
     7
370
    25
100
AcDbSpline
210
0.0
220
0.0
230
1.0
 70
     8
 71
     3
 72
    21
 73
    17
 74
     0
 42
0.000000001
 43
0.00000001
 40
0.0
 40
0.0
 40
0.0
 40
0.0
 40
0.0086322740052347
 40
0.0806995212756559
 40
0.1528720693882951
 40
0.2252455421940659
 40
0.3122278428486932
 40
0.3994197854679881
 40
0.489701791547376
 40
0.5802543214333524
 40
0.6665937239583566
 40
0.7532174170030556
 40
0.8254350818211206
 40
0.8978711346289142
 40
0.968543712657127
 40
1.0
 40
1.0
 40
1.0
 40
1.0
 10
-97.5069570221141
 20
-147.4126783199862
 30
0.0
 10
-97.13644798625509
 20
-147.6061447767049
 30
0.0
 10
-93.67271388745392
 20
-149.4147818091514
 30
0.0
 10
-86.81247001770524
 20
-152.6452920163179
 30
0.0
 10
-76.91087612654924
 20
-157.0842245668012
 30
0.0
 10
-65.9845979700048
 20
-161.5661926693332
 30
0.0
 10
-54.00681981542095
 20
-166.0480096944205
 30
0.0
 10
-40.76133907946851
 20
-170.4821812632428
 30
0.0
 10
-26.95087113058836
 20
-174.5687878342565
 30
0.0
 10
-12.81627390364598
 20
-178.1991136496775
 30
0.0
 10
1.450017891287597
 20
-181.3237940954089
 30
0.0
 10
14.99342495845739
 20
-183.7826524115655
 30
0.0
 10
27.97306546830999
 20
-185.6880747565484
 30
0.0
 10
40.21364312115885
 20
-187.0453592134526
 30
0.0
 10
50.22441561876911
 20
-187.8853156777537
 30
0.0
 10
56.12454157591608
 20
-188.0985344774543
 30
0.0
 10
57.94181484917524
 20
-188.1642071137449
 30
0.0
  0
SPLINE
  5
107
330
FC
100
AcDbEntity
  8
0
  6
Continuous
 62
     7
370
    25
100
AcDbSpline
210
0.0
220
0.0
230
1.0
 70
    11
 71
     3
 72
    35
 73
    31
 74
     0
 42
0.000000001
 43
0.00000001
 40
0.0
 40
0.0
 40
0.0
 40
0.0
 40
0.0062500000000001
 40
0.0083333333333333
 40
0.0416666666666666
 40
0.0833333333333334
 40
0.125
 40
0.1666666666666666
 40
0.2083333333333334
 40
0.2499999999996538
 40
0.2916666666666666
 40
0.3333333333333334
 40
0.375
 40
0.4166666666666666
 40
0.4583333333333334
 40
0.4999999999999999
 40
0.5416666666666667
 40
0.5833333333333333
 40
0.625
 40
0.6666666666666667
 40
0.7083333333333333
 40
0.7499999999996151
 40
0.7916666666666666
 40
0.8333333333333334
 40
0.875
 40
0.9166666666666666
 40
0.9583333333333334
 40
0.9916666666666667
 40
0.99375
 40
1.0
 40
1.0
 40
1.0
 40
1.0
 10
23.33452377915599
 20
-111.4556312713647
 30
0.0
 10
23.02420512370814
 20
-111.6347744179856
 30
0.0
 10
22.60165605361344
 20
-111.8685570897227
 30
0.0
 10
20.43393413010213
 20
-113.0029656319545
 30
0.0
 10
16.00090673983249
 20
-114.8285649734352
 30
0.0
 10
8.424297023536479
 20
-116.6260890334017
 30
0.0
 10
-0.0000000000001318
 20
-117.2680619119612
 30
0.0
 10
-8.42429702353673
 20
-116.6260890334017
 30
0.0
 10
-16.54209314813957
 20
-114.7001703977232
 30
0.0
 10
-23.627552540186
 20
-111.6247931743948
 30
0.0
 10
-28.95483936605337
 20
-107.5344445328852
 30
0.0
 10
-32.29098977313674
 20
-102.8481405809363
 30
0.0
 10
-33.40303990883117
 20
-97.98489742628983
 30
0.0
 10
-32.29098977313666
 20
-93.12165427164335
 30
0.0
 10
-28.95483936605322
 20
-88.4353503196945
 30
0.0
 10
-23.62755254018578
 20
-84.34500167818501
 30
0.0
 10
-16.54209314813931
 20
-81.2696244548566
 30
0.0
 10
-8.424297023536443
 20
-79.34370581917815
 30
0.0
 10
0.0000000000001631
 20
-78.7017329406187
 30
0.0
 10
8.424297023536756
 20
-79.34370581917818
 30
0.0
 10
16.5420931481396
 20
-81.26962445485665
 30
0.0
 10
23.62755254018603
 20
-84.34500167818516
 30
0.0
 10
28.9548393660534
 20
-88.43535031969465
 30
0.0
 10
32.29098977313677
 20
-93.12165427164352
 30
0.0
 10
33.4030399088312
 20
-97.98489742629
 30
0.0
 10
32.2909897731367
 20
-102.8481405809365
 30
0.0
 10
29.17724939319215
 20
-107.2220242694221
 30
0.0
 10
26.01487592973223
 20
-109.7811565091634
 30
0.0
 10
24.04980977903673
 20
-111.0325557388249
 30
0.0
 10
23.64484243460383
 20
-111.2764881247437
 30
0.0
 10
23.33452377915599
 20
-111.4556312713647
 30
0.0
  0
SPLINE
  5
108
330
FC
100
AcDbEntity
  8
0
  6
Continuous
 62
     7
370
    25
100
AcDbSpline
210
0.0
220
0.0
230
1.0
 70
     8
 71
     3
 72
    16
 73
    12
 74
     0
 42
0.000000001
 43
0.00000001
 40
0.0
 40
0.0
 40
0.0
 40
0.0
 40
0.0441450166621884
 40
0.1772843700614417
 40
0.3111509792913652
 40
0.4442629271353543
 40
0.5779085846635735
 40
0.711005214997764
 40
0.8445280504485474
 40
0.951517086428487
 40
1.0
 40
1.0
 40
1.0
 40
1.0
 10
38.30761935390878
 20
-186.7745984614149
 30
0.0
 10
36.48592686769836
 20
-186.616304154898
 30
0.0
 10
29.17009307076396
 20
-185.9806014519201
 30
0.0
 10
16.55388258383064
 20
-184.2096445503784
 30
0.0
 10
0.628873786597331
 20
-181.4094963585568
 30
0.0
 10
-14.91648273572779
 20
-177.9692789085881
 30
0.0
 10
-30.00941371772058
 20
-173.9890831932312
 30
0.0
 10
-44.67088907619288
 20
-169.4858049267821
 30
0.0
 10
-57.88529006980867
 20
-164.8041130350339
 30
0.0
 10
-67.84483201969125
 20
-160.9344984121207
 30
0.0
 10
-72.9909843551093
 20
-158.6762297481903
 30
0.0
 10
-74.59577840074736
 20
-157.9720033924363
 30
0.0
  0
SPLINE
  5
109
330
FC
100
AcDbEntity
  8
0
  6
Continuous
 62
     7
370
    25
100
AcDbSpline
210
0.0
220
0.0
230
1.0
 70
     8
 71
     3
 72
    29
 73
    25
 74
     0
 42
0.000000001
 43
0.00000001
 40
0.0
 40
0.0
 40
0.0
 40
0.0
 40
0.0438229901005701
 40
0.0893387940368415
 40
0.1340830480589766
 40
0.1788273020811233
 40
0.2243431060174678
 40
0.2705841772090256
 40
0.3170415240295016
 40
0.3634988708499776
 40
0.4097399420415353
 40
0.4552557459778799
 40
0.5000000000000265
 40
0.5447442540221861
 40
0.5902600579586121
 40
0.6365011291502516
 40
0.6829584759707428
 40
0.7294158227912033
 40
0.7756568939826793
 40
0.8211726979189424
 40
0.8659169519410763
 40
0.910661205963223
 40
0.9561770098995676
 40
1.0
 40
1.0
 40
1.0
 40
1.0
 10
-19.26304294211239
 20
-113.3660823580856
 30
0.0
 10
-19.98766771211037
 20
-112.6450610278804
 30
0.0
 10
-21.46490837807762
 20
-111.1751664367639
 30
0.0
 10
-22.71594543943339
 20
-108.7115071405263
 30
0.0
 10
-23.17230302545624
 20
-106.1512426197193
 30
0.0
 10
-22.72498708931543
 20
-103.5853233344879
 30
0.0
 10
-21.40520617216991
 20
-101.0945834610998
 30
0.0
 10
-19.27194159743846
 20
-98.76279390953889
 30
0.0
 10
-16.3782419103581
 20
-96.69536102534276
 30
0.0
 10
-12.79689530442466
 20
-95.02481869764826
 30
0.0
 10
-8.757839101111516
 20
-93.79345556439692
 30
0.0
 10
-4.442717628354319
 20
-93.03104124785794
 30
0.0
 10
0.000000000000569
 20
-92.77471600246186
 30
0.0
 10
4.442717628358154
 20
-93.03104124785831
 30
0.0
 10
8.757839101120458
 20
-93.79345556439918
 30
0.0
 10
12.79689530443881
 20
-95.02481869765214
 30
0.0
 10
16.37824191037113
 20
-96.69536102535027
 30
0.0
 10
19.27194159744533
 20
-98.76279390954706
 30
0.0
 10
21.40520617217371
 20
-101.0945834611049
 30
0.0
 10
22.72498708931615
 20
-103.5853233344901
 30
0.0
 10
23.17230302545633
 20
-106.15124261972
 30
0.0
 10
22.71594543943264
 20
-108.7115071405282
 30
0.0
 10
21.46490837807692
 20
-111.175166436765
 30
0.0
 10
19.98766771211021
 20
-112.6450610278801
 30
0.0
 10
19.26304294211427
 20
-113.366082358083
 30
0.0
  0
SPLINE
  5
10A
330
FC
100
AcDbEntity
  8
0
  6
Continuous
 62
     7
370
    25
100
AcDbSpline
210
0.0
220
0.0
230
1.0
 70
     8
 71
     3
 72
    19
 73
    15
 74
     0
 42
0.000000001
 43
0.00000001
 40
0.0
 40
0.0
 40
0.0
 40
0.0
 40
0.04757017031155
 40
0.1391884782994581
 40
0.2308067862873661
 40
0.3219985781580907
 40
0.4117600739979543
 40
0.5000000000000012
 40
0.5882399260020734
 40
0.6780014218420978
 40
0.7691932137129838
 40
0.8608115217009221
 40
0.9524298296887999
 40
1.0
 40
1.0
 40
1.0
 40
1.0
 10
-20.26296025303916
 20
-112.2743616342905
 30
0.0
 10
-19.91196802691067
 20
-111.8632034308954
 30
0.0
 10
-18.88497834977045
 20
-110.6601704315157
 30
0.0
 10
-16.35368779043042
 20
-108.95090944505
 30
0.0
 10
-12.80344194284766
 20
-107.2709468534443
 30
0.0
 10
-8.75612627895724
 20
-106.0420918717688
 30
0.0
 10
-4.44313460267818
 20
-105.2790073918911
 30
0.0
 10
0.0000000000005586
 20
-105.0229005737186
 30
0.0
 10
4.443134602682028
 20
-105.2790073918915
 30
0.0
 10
8.756126278966166
 20
-106.0420918717709
 30
0.0
 10
12.80344194286186
 20
-107.2709468534482
 30
0.0
 10
16.35368779044335
 20
-108.9509094450574
 30
0.0
 10
18.8849783497761
 20
-110.6601704315221
 30
0.0
 10
19.91196802691336
 20
-111.8632034308985
 30
0.0
 10
20.2629602530392
 20
-112.2743616342906
 30
0.0
  0
VIEWPORT
  5
133
330
FC
100
AcDbEntity
  8
0
100
AcDbViewport
 10
0.0
 20
0.0
 30
0.0
 40
205.6
 41
156.0
 68
     1
 69
     1
 12
0.0
 22
-12.0504288426
 13
0.0
 23
0.0
 14
10.0
 24
10.0
 15
10.0
 25
10.0
 16
0.0
 26
0.0
 36
1.0
 17
0.0
 27
0.0
 37
0.0
 42
50.0
 43
0.0
 44
0.0
 45
440.8991966491
 50
0.0
 51
0.0
 72
   100
 90
   557152
  1

281
     0
 71
     1
 74
     0
110
0.0
120
0.0
130
0.0
111
1.0
121
0.0
131
0.0
112
0.0
122
1.0
132
0.0
 79
     0
146
0.0
170
     0
 61
     5
348
2F
292
     1
282
     1
141
0.0
142
0.0
 63
   256
361
134
  0
ENDBLK
  5
FF
330
FC
100
AcDbEntity
  8
0
100
AcDbBlockEnd
  0
BLOCK
  5
10D
330
10B
100
AcDbEntity
  8
0
100
AcDbBlockBegin
  2
*Paper_Space7
 70
     0
 10
0.0
 20
0.0
 30
0.0
  3
*Paper_Space7
  1

  0
SPLINE
  5
10F
330
10B
100
AcDbEntity
  8
0
  6
Continuous
 62
     7
370
    25
100
AcDbSpline
210
0.0
220
0.0
230
1.0
 70
     8
 71
     3
 72
    54
 73
    50
 74
     0
 42
0.000000001
 43
0.00000001
 40
0.0
 40
0.0
 40
0.0
 40
0.0
 40
0.0211417377915949
 40
0.0444234932845119
 40
0.0612166549791207
 40
0.0747375757916376
 40
0.0885954555292067
 40
0.1027851612003664
 40
0.1718802607109878
 40
0.2137154345489529
 40
0.2528902571735331
 40
0.2883039888548802
 40
0.3117087491086135
 40
0.3347361508010612
 40
0.3582722932776119
 40
0.3853121328602763
 40
0.4174212468931006
 40
0.4481143535984679
 40
0.4746381093295244
 40
0.4963672553201657
 40
0.5142346388899467
 40
0.5355875214250105
 40
0.5642064798279048
 40
0.5907500090249449
 40
0.6114675030974615
 40
0.6297546869945037
 40
0.644050792045325
 40
0.663041919647744
 40
0.6864957735085921
 40
0.7069632019883952
 40
0.7225384374987589
 40
0.73651217514192
 40
0.7507197399011826
 40
0.7663196696586676
 40
0.7849895053256655
 40
0.8059734300000495
 40
0.8235457793561916
 40
0.8367229985758813
 40
0.8510167868740929
 40
0.8668214341935154
 40
0.8850359122663208
 40
0.9006511896148216
 40
0.9126395310567729
 40
0.9188924680707833
 40
0.9276476632526435
 40
0.9401401926690406
 40
0.9563666631179036
 40
0.9763221616709096
 40
1.0
 40
1.0
 40
1.0
 40
1.0
 10
143.639040889378
 20
-161.216589192889
 30
0.0
 10
144.8621288335418
 20
-160.9473816915756
 30
0.0
 10
147.4321086341392
 20
-160.3817168562332
 30
0.0
 10
150.9650354568136
 20
-159.546498850884
 30
0.0
 10
154.0420031232872
 20
-158.7951064743316
 30
0.0
 10
156.5598772912346
 20
-158.1612912662791
 30
0.0
 10
158.9334186577388
 20
-157.5485724463101
 30
0.0
 10
164.4794121970857
 20
-156.0793896371671
 30
0.0
 10
171.5827171547085
 20
-154.0539500549792
 30
0.0
 10
180.025898610857
 20
-151.4124454091266
 30
0.0
 10
186.5320459105043
 20
-149.2421422517575
 30
0.0
 10
191.9684466543281
 20
-147.3227591335157
 30
0.0
 10
196.4828331072839
 20
-145.6582735549389
 30
0.0
 10
200.3228619295355
 20
-144.1943219077841
 30
0.0
 10
204.3429258218866
 20
-142.6105421989651
 30
0.0
 10
208.8299864435492
 20
-140.7798871799677
 30
0.0
 10
213.6775769361711
 20
-138.721366330999
 30
0.0
 10
218.4615646731403
 20
-136.6035112082012
 30
0.0
 10
222.6619725256256
 20
-134.6736091913994
 30
0.0
 10
226.1558761466646
 20
-133.0180793831286
 30
0.0
 10
229.3588787240509
 20
-131.4620585323718
 30
0.0
 10
232.8995909104486
 20
-129.6994818146369
 30
0.0
 10
236.867120022751
 20
-127.6629239496999
 30
0.0
 10
240.7776209709744
 20
-125.587209089863
 30
0.0
 10
244.1271195197315
 20
-123.7580806844035
 30
0.0
 10
246.8357006419887
 20
-122.2442649855234
 30
0.0
 10
249.4417777679857
 20
-120.7594202246007
 30
0.0
 10
252.2852169958783
 20
-119.1074466600771
 30
0.0
 10
255.4174212431414
 20
-117.242329054438
 30
0.0
 10
258.3615158545413
 20
-115.4441737965188
 30
0.0
 10
260.8205796489425
 20
-113.910819828523
 30
0.0
 10
262.9575866765632
 20
-112.5556021826351
 30
0.0
 10
265.0841924537964
 20
-111.1852011463778
 30
0.0
 10
267.4241876503688
 20
-109.6516167037507
 30
0.0
 10
270.0721932144243
 20
-107.8823225130468
 30
0.0
 10
272.795326949913
 20
-106.0218764213673
 30
0.0
 10
275.2401524203242
 20
-104.3151026246136
 30
0.0
 10
277.3537358544712
 20
-102.8139961748677
 30
0.0
 10
279.366098614875
 20
-101.3627827607539
 30
0.0
 10
281.5976148918287
 20
-99.72649280417161
 30
0.0
 10
283.8738920603931
 20
-98.02570586117831
 30
0.0
 10
285.9626607742746
 20
-96.43558621020333
 30
0.0
 10
287.4976542734666
 20
-95.24908092524784
 30
0.0
 10
288.7170004492281
 20
-94.29701444973001
 30
0.0
 10
289.9500694662791
 20
-93.32621023344052
 30
0.0
 10
291.6216198350683
 20
-91.99487179118661
 30
0.0
 10
293.778403740951
 20
-90.24901443840177
 30
0.0
 10
296.4124086832264
 20
-88.07782719437347
 30
0.0
 10
298.3095490816348
 20
-86.46473117278245
 30
0.0
 10
299.3390413655386
 20
-85.58937692445298
 30
0.0
  0
SPLINE
  5
110
330
10B
100
AcDbEntity
  8
0
  6
Continuous
 62
     7
370
    25
100
AcDbSpline
210
0.0
220
0.0
230
1.0
 70
     8
 71
     3
 72
    51
 73
    47
 74
     0
 42
0.000000001
 43
0.00000001
 40
0.0
 40
0.0
 40
0.0
 40
0.0
 40
0.0382081788650404
 40
0.0696921217628797
 40
0.0944590270719955
 40
0.1124905079909302
 40
0.1308097844299213
 40
0.1547656826731926
 40
0.1792521806814302
 40
0.1964850256867829
 40
0.2118941104731583
 40
0.2252861359760875
 40
0.2392773752493726
 40
0.2577685896509754
 40
0.2796593042547181
 40
0.2989941407943108
 40
0.3174835947718877
 40
0.3338923337833347
 40
0.3493208666234549
 40
0.3686444984791202
 40
0.3924330704638516
 40
0.415679425614563
 40
0.4405267475720623
 40
0.4611685039434982
 40
0.4797826144380147
 40
0.4994265780078829
 40
0.521990865143041
 40
0.5488787472847759
 40
0.5748128954905092
 40
0.598438298012169
 40
0.6184151265294661
 40
0.6366862154361277
 40
0.6548364146368735
 40
0.6803653705303291
 40
0.7074433391333884
 40
0.7370863206053687
 40
0.7691704382109096
 40
0.8315939311309043
 40
0.891831208137512
 40
0.9051130168984112
 40
0.9182243741809656
 40
0.9309759063803414
 40
0.9433934921309346
 40
0.9593330643789191
 40
0.9814241881215706
 40
1.0
 40
1.0
 40
1.0
 40
1.0
 10
-305.1123597001109
 20
12.07011264543571
 30
0.0
 10
-303.5940010480792
 20
10.0075439788345
 30
0.0
 10
-300.8244988315278
 20
6.245396948356858
 30
0.0
 10
-296.97211557712
 20
1.221456209210915
 30
0.0
 10
-293.899877800465
 20
-2.693682289033335
 30
0.0
 10
-291.3415984185471
 20
-5.890240174929
 30
0.0
 10
-288.7959215589004
 20
-9.020159317037514
 30
0.0
 10
-285.9462914618067
 20
-12.45832667162886
 30
0.0
 10
-283.1074398746928
 20
-15.8105159094343
 30
0.0
 10
-280.6123737682487
 20
-18.70267369998791
 30
0.0
 10
-278.585506196193
 20
-21.01835885396515
 30
0.0
 10
-276.688233297748
 20
-23.1584878133355
 30
0.0
 10
-274.6424238187477
 20
-25.43835645079777
 30
0.0
 10
-272.1992337959221
 20
-28.12223623155295
 30
0.0
 10
-269.4889869017865
 20
-31.04677668033434
 30
0.0
 10
-266.7519119435547
 20
-33.94683787750397
 30
0.0
 10
-264.2454516139721
 20
-36.55842190984644
 30
0.0
 10
-261.9013979312333
 20
-38.96330042159137
 30
0.0
 10
-259.5023083781326
 20
-41.39011417515937
 30
0.0
 10
-256.7381793934837
 20
-44.14338392916501
 30
0.0
 10
-253.573798641245
 20
-47.23548742514106
 30
0.0
 10
-250.1114362234201
 20
-50.54850156066263
 30
0.0
 10
-246.7681103937016
 20
-53.67949663557384
 30
0.0
 10
-243.6205425186094
 20
-56.56757484645437
 30
0.0
 10
-240.7086013868115
 20
-59.19275104003013
 30
0.0
 10
-237.6803662713128
 20
-61.87621307191496
 30
0.0
 10
-234.2160224198566
 20
-64.8883696845034
 30
0.0
 10
-230.3987882507219
 20
-68.13415973042119
 30
0.0
 10
-226.4881326337247
 20
-71.3807777207194
 30
0.0
 10
-222.8978882741538
 20
-74.29487333390583
 30
0.0
 10
-219.6876949011796
 20
-76.84913287190793
 30
0.0
 10
-216.7463995786289
 20
-79.14889540706413
 30
0.0
 10
-213.4907739375239
 20
-81.65219223623168
 30
0.0
 10
-209.746790857464
 20
-84.47345957663494
 30
0.0
 10
-205.359300413169
 20
-87.69978876953354
 30
0.0
 10
-200.5810279882515
 20
-91.12134498834762
 30
0.0
 10
-193.8383199367339
 20
-95.81063774989329
 30
0.0
 10
-185.3158146943954
 20
-101.4749045753866
 30
0.0
 10
-177.6995890741693
 20
-106.240639754703
 30
0.0
 10
-172.7984936243831
 20
-109.1957261795363
 30
0.0
 10
-170.5752402762994
 20
-110.5182694414007
 30
0.0
 10
-168.3898574415662
 20
-111.801003610518
 30
0.0
 10
-166.0277136309778
 20
-113.1696497490495
 30
0.0
 10
-163.1327336128005
 20
-114.8207636068734
 30
0.0
 10
-159.8812477896575
 20
-116.6456155683095
 30
0.0
 10
-157.5226888187722
 20
-117.9230163853277
 30
0.0
 10
-156.4453480484822
 20
-118.5065065575742
 30
0.0
  0
SPLINE
  5
111
330
10B
100
AcDbEntity
  8
0
  6
Continuous
 62
     7
370
    25
100
AcDbSpline
210
0.0
220
0.0
230
1.0
 70
     8
 71
     3
 72
    63
 73
    59
 74
     0
 42
0.000000001
 43
0.00000001
 40
0.0
 40
0.0
 40
0.0
 40
0.0
 40
0.0043574272306529
 40
0.0118318993193524
 40
0.0196697709264112
 40
0.0285237650072933
 40
0.0395489372469916
 40
0.0488215622990034
 40
0.0564998751519879
 40
0.0655797944852712
 40
0.0812992415020628
 40
0.0939324558044762
 40
0.1053759452364593
 40
0.1198476888329462
 40
0.1338366407030478
 40
0.1447675452565233
 40
0.1567996730256581
 40
0.1701620279215923
 40
0.182660109883589
 40
0.1924706322903176
 40
0.201105778651645
 40
0.2119081055287166
 40
0.2248743558952606
 40
0.2378490355404144
 40
0.2506478716460814
 40
0.2632662412746691
 40
0.312507082664258
 40
0.3585587542928049
 40
0.4020180571490453
 40
0.4463516050570282
 40
0.4932409108676798
 40
0.5191573231341092
 40
0.5458225046319635
 40
0.5732535967129947
 40
0.6014680366898191
 40
0.6293166969056735
 40
0.6545741617887161
 40
0.680997157887204
 40
0.7038541904877395
 40
0.7232459878052252
 40
0.7401910032336471
 40
0.7546975163903809
 40
0.773236664994036
 40
0.7948054134032646
 40
0.8186230106536733
 40
0.8434500134823228
 40
0.8657093244880286
 40
0.8791836751620171
 40
0.8932200347373609
 40
0.9073615882029931
 40
0.921981609749307
 40
0.9393658290716812
 40
0.9509283797697996
 40
0.9606469604347859
 40
0.9685682370152867
 40
0.9787486665758024
 40
0.993747938806149
 40
1.0
 40
1.0
 40
1.0
 40
1.0
 10
-134.2658429375974
 20
-129.7239437372839
 30
0.0
 10
-133.9154936505511
 20
-129.8892393973387
 30
0.0
 10
-132.9641759872799
 20
-130.3380734235128
 30
0.0
 10
-131.3826896046875
 20
-131.0697678454678
 30
0.0
 10
-129.4372054638665
 20
-131.9618721376425
 30
0.0
 10
-127.1993003436341
 20
-132.9732481082627
 30
0.0
 10
-124.8368710903814
 20
-134.0238605393112
 30
0.0
 10
-122.560275508248
 20
-135.0192322493255
 30
0.0
 10
-120.4355936437243
 20
-135.9350033251668
 30
0.0
 10
-117.7854464926331
 20
-137.0610667978343
 30
0.0
 10
-114.7216401700845
 20
-138.3354544585967
 30
0.0
 10
-111.4462287780148
 20
-139.6644747348466
 30
0.0
 10
-108.2699990744251
 20
-140.9259792556741
 30
0.0
 10
-104.9719224815286
 20
-142.2056800306195
 30
0.0
 10
-101.704761318084
 20
-143.4407284065514
 30
0.0
 10
-98.63548725783502
 20
-144.5743156134332
 30
0.0
 10
-95.6091180265908
 20
-145.6679908507431
 30
0.0
 10
-92.43966606547744
 20
-146.7856087066929
 30
0.0
 10
-89.44349545234644
 20
-147.8154795656375
 30
0.0
 10
-86.83699727154556
 20
-148.6914468701333
 30
0.0
 10
-84.37474386039139
 20
-149.503418514122
 30
0.0
 10
-81.64238702835661
 20
-150.3864056182146
 30
0.0
 10
-78.53241908939576
 20
-151.3663115532334
 30
0.0
 10
-75.2456270307735
 20
-152.3729957129759
 30
0.0
 10
-71.98126511629734
 20
-153.3443039277481
 30
0.0
 10
-65.61144390283977
 20
-155.1849735334909
 30
0.0
 10
-56.32372661321067
 20
-157.6734513569097
 30
0.0
 10
-44.33155883627566
 20
-160.5066267489478
 30
0.0
 10
-32.78452651713182
 20
-162.90579282066
 30
0.0
 10
-21.11106064468085
 20
-165.0130549112978
 30
0.0
 10
-10.85929245941966
 20
-166.5768171175854
 30
0.0
 10
-2.094413481329292
 20
-167.7183121704924
 30
0.0
 10
4.991722364308407
 20
-168.5278311628271
 30
0.0
 10
12.31766947263973
 20
-169.244491106084
 30
0.0
 10
19.78530407582803
 20
-169.8492122432573
 30
0.0
 10
27.09129188538963
 20
-170.3168942910212
 30
0.0
 10
34.25722766458396
 20
-170.6602774495601
 30
0.0
 10
40.98511805064195
 20
-170.8774284809637
 30
0.0
 10
47.18432611729163
 20
-170.9850510320428
 30
0.0
 10
52.51296414605457
 20
-171.0095276471399
 30
0.0
 10
57.06933385220291
 20
-170.9807018507732
 30
0.0
 10
61.56816050678885
 20
-170.9096722355339
 30
0.0
 10
66.52267276177537
 20
-170.7810334089022
 30
0.0
 10
72.29582751201605
 20
-170.5589700218677
 30
0.0
 10
78.52727640646175
 20
-170.2333186284123
 30
0.0
 10
84.76406526101171
 20
-169.8137434355967
 30
0.0
 10
90.18599001607353
 20
-169.3686998343776
 30
0.0
 10
94.62687207010312
 20
-168.9537531189685
 30
0.0
 10
98.35377941966136
 20
-168.5730199782394
 30
0.0
 10
102.1741872186383
 20
-168.1482799897245
 30
0.0
 10
106.274483531001
 20
-167.6547780396751
 30
0.0
 10
110.1492020629417
 20
-167.1486321625422
 30
0.0
 10
113.5873098268897
 20
-166.6673135741172
 30
0.0
 10
116.1808484960161
 20
-166.2861168486744
 30
0.0
 10
118.6434929032003
 20
-165.9103675110496
 30
0.0
 10
121.5650772252002
 20
-165.4452033615124
 30
0.0
 10
124.3410797584159
 20
-164.9894680652207
 30
0.0
 10
126.2193716693046
 20
-164.6511670897336
 30
0.0
 10
126.771957981532
 20
-164.5516402337727
 30
0.0
  0
SPLINE
  5
112
330
10B
100
AcDbEntity
  8
0
  6
Continuous
 62
     7
370
    25
100
AcDbSpline
210
0.0
220
0.0
230
1.0
 70
     8
 71
     3
 72
    34
 73
    30
 74
     0
 42
0.000000001
 43
0.00000001
 40
0.0
 40
0.0
 40
0.0
 40
0.0
 40
0.0079933334011456
 40
0.0449022472938247
 40
0.0820107480279101
 40
0.1191786896529139
 40
0.1565012002040719
 40
0.1938785444315965
 40
0.2313797417991819
 40
0.2689340479602332
 40
0.3066246495626906
 40
0.3443704943309274
 40
0.3822889311257183
 40
0.4202623510058119
 40
0.4583745060732726
 40
0.4965438164102096
 40
0.5424471024696527
 40
0.5884610231639785
 40
0.6361056671880275
 40
0.683893075102963
 40
0.729457083671134
 40
0.7751711212561433
 40
0.8132826462645619
 40
0.8509797563298629
 40
0.8888055424585863
 40
0.9259116420688643
 40
0.9631764102836691
 40
0.9984011343028024
 40
1.0
 40
1.0
 40
1.0
 40
1.0
 10
-156.4355239130141
 20
-118.4883069697111
 30
0.0
 10
-155.8414162887296
 20
-118.8202992350523
 30
0.0
 10
-152.5040392363792
 20
-120.6852531972941
 30
0.0
 10
-146.0441072115065
 20
-123.9129357852123
 30
0.0
 10
-137.0631224647816
 20
-128.1609391253184
 30
0.0
 10
-127.695295678456
 20
-132.2205038890355
 30
0.0
 10
-118.0129329206422
 20
-136.10275007086
 30
0.0
 10
-108.0185819068256
 20
-139.8019878931158
 30
0.0
 10
-97.74052482221593
 20
-143.312484178637
 30
0.0
 10
-87.18437665843956
 20
-146.6309384968515
 30
0.0
 10
-76.36889346521534
 20
-149.7484428840892
 30
0.0
 10
-65.29277442718063
 20
-152.6585226820064
 30
0.0
 10
-53.98103927176525
 20
-155.3555219948538
 30
0.0
 10
-42.441663323795
 20
-157.8374488547139
 30
0.0
 10
-30.70096179928931
 20
-160.0958141786655
 30
0.0
 10
-17.97329816142847
 20
-162.258732040389
 30
0.0
 10
-4.237967310641189
 20
-164.2547345131199
 30
0.0
 10
10.68490776421185
 20
-166.019690478201
 30
0.0
 10
25.97021804919974
 20
-167.4018193038094
 30
0.0
 10
41.33167407025601
 20
-168.3460567481301
 30
0.0
 10
56.55997886638603
 20
-168.8385951110643
 30
0.0
 10
70.75798659554971
 20
-168.8758072961674
 30
0.0
 10
84.07289674372984
 20
-168.5214593886523
 30
0.0
 10
96.47102656251735
 20
-167.8379693125729
 30
0.0
 10
108.6577748617741
 20
-166.7837782491925
 30
0.0
 10
120.6610532354984
 20
-165.3618309007349
 30
0.0
 10
132.1389098879807
 20
-163.528035697763
 30
0.0
 10
139.8248654323236
 20
-162.136598843061
 30
0.0
 10
143.4796198305815
 20
-161.2518078194088
 30
0.0
 10
143.6383078206463
 20
-161.2133905432061
 30
0.0
  0
SPLINE
  5
113
330
10B
100
AcDbEntity
  8
0
  6
Continuous
 62
     7
370
    25
100
AcDbSpline
210
0.0
220
0.0
230
1.0
 70
    11
 71
     3
 72
    35
 73
    31
 74
     0
 42
0.000000001
 43
0.00000001
 40
0.0
 40
0.0
 40
0.0
 40
0.0
 40
0.0062500000000001
 40
0.0083333333333333
 40
0.0416666666666666
 40
0.0833333333333334
 40
0.125
 40
0.1666666666666666
 40
0.2083333333333334
 40
0.2499999999996538
 40
0.2916666666666666
 40
0.3333333333333334
 40
0.375
 40
0.4166666666666666
 40
0.4583333333333334
 40
0.4999999999999999
 40
0.5416666666666667
 40
0.5833333333333333
 40
0.625
 40
0.6666666666666667
 40
0.7083333333333333
 40
0.7499999999996151
 40
0.7916666666666666
 40
0.8333333333333334
 40
0.875
 40
0.9166666666666666
 40
0.9583333333333334
 40
0.9916666666666667
 40
0.99375
 40
1.0
 40
1.0
 40
1.0
 40
1.0
 10
302.9132066745169
 20
-82.32531892924301
 30
0.0
 10
301.608196461902
 20
-83.59904890369275
 30
0.0
 10
299.7615077072186
 20
-85.2683635195928
 30
0.0
 10
289.8364554792963
 20
-93.41339179707676
 30
0.0
 10
266.088598607238
 20
-106.8753877277283
 30
0.0
 10
215.5104072032979
 20
-120.9911736468427
 30
0.0
 10
145.7574092782054
 20
-128.1444707604886
 30
0.0
 10
65.85742130426124
 20
-126.3769131741156
 30
0.0
 10
-17.12399436980935
 20
-116.1894403718572
 30
0.0
 10
-100.3369395856904
 20
-97.93192900671112
 30
0.0
 10
-176.5648681732574
 20
-72.85682727674686
 30
0.0
 10
-239.7273922830829
 20
-43.32550873157769
 30
0.0
 10
-287.6552700472985
 20
-10.35219143016134
 30
0.0
 10
-315.5578525134994
 20
23.34179992786622
 30
0.0
 10
-321.9017350692616
 20
54.91791832694615
 30
0.0
 10
-306.4690446032943
 20
83.29171948589445
 30
0.0
 10
-269.7013265646621
 20
105.8671173049345
 30
0.0
 10
-215.5104072032977
 20
120.9911736468428
 30
0.0
 10
-145.7574092782051
 20
128.1444707604886
 30
0.0
 10
-65.85742130426088
 20
126.3769131741156
 30
0.0
 10
17.12399436980963
 20
116.1894403718572
 30
0.0
 10
100.3369395856907
 20
97.9319290067111
 30
0.0
 10
176.5648681732576
 20
72.8568272767468
 30
0.0
 10
239.7273922830831
 20
43.32550873157766
 30
0.0
 10
287.6552700472986
 20
10.35219143016129
 30
0.0
 10
315.5578525134995
 20
-23.34179992786621
 30
0.0
 10
321.4788095655443
 20
-52.81284376700751
 30
0.0
 10
313.304872447871
 20
-70.50749737816703
 30
0.0
 10
305.8515553660885
 20
-79.32429030549416
 30
0.0
 10
304.2182168871319
 20
-81.0515889547933
 30
0.0
 10
302.9132066745169
 20
-82.32531892924301
 30
0.0
  0
SPLINE
  5
114
330
10B
100
AcDbEntity
  8
0
  6
Continuous
 62
     7
370
    25
100
AcDbSpline
210
0.0
220
0.0
230
1.0
 70
    11
 71
     3
 72
    35
 73
    31
 74
     0
 42
0.000000001
 43
0.00000001
 40
0.0
 40
0.0
 40
0.0
 40
0.0
 40
0.0062500000000001
 40
0.0083333333333333
 40
0.0416666666666666
 40
0.0833333333333334
 40
0.125
 40
0.1666666666666666
 40
0.2083333333333334
 40
0.2499999999996538
 40
0.2916666666666666
 40
0.3333333333333334
 40
0.375
 40
0.4166666666666666
 40
0.4583333333333334
 40
0.4999999999999999
 40
0.5416666666666667
 40
0.5833333333333333
 40
0.625
 40
0.6666666666666667
 40
0.7083333333333333
 40
0.7499999999996151
 40
0.7916666666666666
 40
0.8333333333333334
 40
0.875
 40
0.9166666666666666
 40
0.9583333333333334
 40
0.9916666666666667
 40
0.99375
 40
1.0
 40
1.0
 40
1.0
 40
1.0
 10
276.4972056119642
 20
-75.14601586687567
 30
0.0
 10
275.3222547121998
 20
-76.29280396483075
 30
0.0
 10
273.6583437172885
 20
-77.79540804485863
 30
0.0
 10
264.7078347743055
 20
-85.12462533799223
 30
0.0
 10
243.2351108273533
 20
-97.21889101260847
 30
0.0
 10
197.3745113204737
 20
-109.8220783879647
 30
0.0
 10
134.0198868564706
 20
-116.0717465022926
 30
0.0
 10
61.34192458634568
 20
-114.2253309669083
 30
0.0
 10
-14.26141282412206
 20
-104.7619052119525
 30
0.0
 10
-90.18929441524419
 20
-88.02751622991542
 30
0.0
 10
-159.8643254807691
 20
-65.19015344490113
 30
0.0
 10
-217.7022206874653
 20
-38.38711147425909
 30
0.0
 10
-261.6804476246522
 20
-8.52887442286654
 30
0.0
 10
-287.4201915882321
 20
21.93473396868932
 30
0.0
 10
-293.5089039255641
 20
50.44713942473756
 30
0.0
 10
-279.7408654528082
 20
76.02757310839417
 30
0.0
 10
-246.5108679349874
 20
96.31866334294028
 30
0.0
 10
-197.3745113204737
 20
109.8220783879648
 30
0.0
 10
-134.0198868564707
 20
116.0717465022927
 30
0.0
 10
-61.34192458634584
 20
114.2253309669082
 30
0.0
 10
14.26141282412202
 20
104.7619052119526
 30
0.0
 10
90.18929441524406
 20
88.02751622991548
 30
0.0
 10
159.8643254807689
 20
65.19015344490111
 30
0.0
 10
217.7022206874651
 20
38.38711147425921
 30
0.0
 10
261.6804476246522
 20
8.528874422866602
 30
0.0
 10
287.420191588232
 20
-21.93473396868921
 30
0.0
 10
293.1029897697422
 20
-48.54631239433432
 30
0.0
 10
285.8371990114981
 20
-64.50171809188666
 30
0.0
 10
279.1414479161892
 20
-72.44373025440164
 30
0.0
 10
277.6721565117286
 20
-73.9992277689206
 30
0.0
 10
276.4972056119642
 20
-75.14601586687567
 30
0.0
  0
SPLINE
  5
115
330
10B
100
AcDbEntity
  8
0
  6
Continuous
 62
     7
370
    25
100
AcDbSpline
210
0.0
220
0.0
230
1.0
 70
     8
 71
     3
 72
    25
 73
    21
 74
     0
 42
0.000000001
 43
0.00000001
 40
0.0
 40
0.0
 40
0.0
 40
0.0
 40
0.0372717187622577
 40
0.0956888449737661
 40
0.1541059711852746
 40
0.2122511447009088
 40
0.2694843412810418
 40
0.3257473634581819
 40
0.3820103856353383
 40
0.4392435822155738
 40
0.4973887557313109
 40
0.5558058819428386
 40
0.6142230081543278
 40
0.6723681816698592
 40
0.7296013782498897
 40
0.7858644004270139
 40
0.8421274226041542
 40
0.899360619184287
 40
0.9575057926999213
 40
1.0
 40
1.0
 40
1.0
 40
1.0
 10
-32.41629524564933
 20
-100.1885202605701
 30
0.0
 10
-32.20109596155728
 20
-99.47585549524034
 30
0.0
 10
-31.64860813384805
 20
-97.64620903640952
 30
0.0
 10
-29.36010141490488
 20
-94.87483602884431
 30
0.0
 10
-25.71742190923127
 20
-92.04658230270265
 30
0.0
 10
-21.07412384444146
 20
-89.6600122590329
 30
0.0
 10
-15.7216118198448
 20
-87.78549584696637
 30
0.0
 10
-9.819130304843243
 20
-86.50236485381824
 30
0.0
 10
-3.541231471007168
 20
-85.84609945428818
 30
0.0
 10
2.933539266737948
 20
-85.83662969065949
 30
0.0
 10
9.374099748171108
 20
-86.46091620276218
 30
0.0
 10
15.50962382342738
 20
-87.72219674452984
 30
0.0
 10
20.99410381789126
 20
-89.61898227677855
 30
0.0
 10
25.62954393398225
 20
-92.00492552738312
 30
0.0
 10
29.26926077805163
 20
-94.76325862489011
 30
0.0
 10
31.75841085488994
 20
-97.8023580453286
 30
0.0
 10
33.04122060211527
 20
-101.03778106558
 30
0.0
 10
33.02666731703136
 20
-104.3650096630412
 30
0.0
 10
32.0396058022809
 20
-107.4041797117605
 30
0.0
 10
30.50319316156803
 20
-109.1847170062415
 30
0.0
 10
29.85445469831706
 20
-109.9365352336981
 30
0.0
  0
SPLINE
  5
116
330
10B
100
AcDbEntity
  8
0
  6
Continuous
 62
     7
370
    25
100
AcDbSpline
210
0.0
220
0.0
230
1.0
 70
     8
 71
     3
 72
    30
 73
    26
 74
     0
 42
0.000000001
 43
0.00000001
 40
0.0
 40
0.0
 40
0.0
 40
0.0
 40
0.0086430805367696
 40
0.0533231830370935
 40
0.0874820403699302
 40
0.1217550794754754
 40
0.1630420095358668
 40
0.2176506587116107
 40
0.2725576002968047
 40
0.3271550087663661
 40
0.381971324449788
 40
0.4365624502651417
 40
0.4913283890497243
 40
0.5352111823960253
 40
0.5791729914674986
 40
0.6233674635371427
 40
0.6676374352266895
 40
0.7115191990728285
 40
0.7554735698496624
 40
0.7996499446984916
 40
0.8439021011377844
 40
0.8850202706991365
 40
0.9262039342307224
 40
0.9675957144820394
 40
1.0
 40
1.0
 40
1.0
 40
1.0
 10
135.40765098894
 20
-162.8510053285626
 30
0.0
 10
134.5967896520944
 20
-163.0365557659894
 30
0.0
 10
129.5942089983133
 20
-164.1813026991491
 30
0.0
 10
121.000066675431
 20
-165.5630024360025
 30
0.0
 10
109.8056327042273
 20
-167.1202782325485
 30
0.0
 10
98.78456720236365
 20
-168.2835343937601
 30
0.0
 10
85.59776370532296
 20
-169.2836450052598
 30
0.0
 10
70.21718196740434
 20
-169.8914003294264
 30
0.0
 10
53.46209180176559
 20
-169.9404496140506
 30
0.0
 10
36.74580875775453
 20
-169.4206609910558
 30
0.0
 10
20.18452825953776
 20
-168.3637061275847
 30
0.0
 10
3.780869656958466
 20
-166.7882237652005
 30
0.0
 10
-11.32690336466305
 20
-164.8543081177334
 30
0.0
 10
-25.18392918701397
 20
-162.6810604579534
 30
0.0
 10
-37.82874789383018
 20
-160.3718266466285
 30
0.0
 10
-50.30562261551096
 20
-157.7646325174358
 30
0.0
 10
-62.55088831852332
 20
-154.8706536168553
 30
0.0
 10
-74.53220977596149
 20
-151.6935179391441
 30
0.0
 10
-86.24489429171956
 20
-148.2324423006958
 30
0.0
 10
-97.70830321335727
 20
-144.4887045654316
 30
0.0
 10
-108.6260002331097
 20
-140.5652348437257
 30
0.0
 10
-118.9896607875828
 20
-136.4953848584005
 30
0.0
 10
-128.7978166402449
 20
-132.2873115172218
 30
0.0
 10
-137.6456288960418
 20
-128.1929036437385
 30
0.0
 10
-143.0417173512292
 20
-125.3986851496665
 30
0.0
 10
-145.4111714563945
 20
-124.1717274123182
 30
0.0
  0
SPLINE
  5
117
330
10B
100
AcDbEntity
  8
0
  6
Continuous
 62
     7
370
    25
100
AcDbSpline
210
0.0
220
0.0
230
1.0
 70
     8
 71
     3
 72
    19
 73
    15
 74
     0
 42
0.000000001
 43
0.00000001
 40
0.0
 40
0.0
 40
0.0
 40
0.0
 40
0.0484824653865337
 40
0.1391182528416365
 40
0.2282176501204382
 40
0.3173170473992656
 40
0.4079528348545306
 40
0.5000328496573694
 40
0.5925435349138323
 40
0.6850542201702341
 40
0.777134234972747
 40
0.8677700224276877
 40
0.9568694197064639
 40
1.0
 40
1.0
 40
1.0
 40
1.0
 10
-16.27529193746871
 20
-103.1550659277205
 30
0.0
 10
-15.72545797531622
 20
-102.854729208999
 30
0.0
 10
-14.1477341620199
 20
-101.9929265089999
 30
0.0
 10
-10.93848104058767
 20
-100.9347903845339
 30
0.0
 10
-6.848686329076746
 20
-100.0283764270224
 30
0.0
 10
-2.466762624778924
 20
-99.57421826374909
 30
0.0
 10
2.044250598197376
 20
-99.56672795634513
 30
0.0
 10
6.533408707585694
 20
-100.0020993073193
 30
0.0
 10
10.81030059321299
 20
-100.8810319864783
 30
0.0
 10
14.63006306168457
 20
-102.2033352697046
 30
0.0
 10
17.87112162923695
 20
-103.8652124190433
 30
0.0
 10
20.37026453578101
 20
-105.7915159093653
 30
0.0
 10
21.92262157995575
 20
-107.5358753178635
 30
0.0
 10
22.29856240929191
 20
-108.6450051125453
 30
0.0
 10
22.42118623804085
 20
-109.006779443478
 30
0.0
  0
VIEWPORT
  5
135
330
10B
100
AcDbEntity
  8
0
100
AcDbViewport
 10
0.0
 20
0.0
 30
0.0
 40
205.6
 41
156.0
 68
     1
 69
     1
 12
0.0
 22
-12.0504288426
 13
0.0
 23
0.0
 14
10.0
 24
10.0
 15
10.0
 25
10.0
 16
0.0
 26
0.0
 36
1.0
 17
0.0
 27
0.0
 37
0.0
 42
50.0
 43
0.0
 44
0.0
 45
440.8991966491
 50
0.0
 51
0.0
 72
   100
 90
   557152
  1

281
     0
 71
     1
 74
     0
110
0.0
120
0.0
130
0.0
111
1.0
121
0.0
131
0.0
112
0.0
122
1.0
132
0.0
 79
     0
146
0.0
170
     0
 61
     5
348
2F
292
     1
282
     1
141
0.0
142
0.0
 63
   256
361
136
  0
ENDBLK
  5
10E
330
10B
100
AcDbEntity
  8
0
100
AcDbBlockEnd
  0
BLOCK
  5
11A
330
118
100
AcDbEntity
  8
0
100
AcDbBlockBegin
  2
*Paper_Space8
 70
     0
 10
0.0
 20
0.0
 30
0.0
  3
*Paper_Space8
  1

  0
SPLINE
  5
11C
330
118
100
AcDbEntity
  8
0
  6
Continuous
 62
     7
370
    25
100
AcDbSpline
210
0.0
220
0.0
230
1.0
 70
     8
 71
     3
 72
    47
 73
    43
 74
     0
 42
0.000000001
 43
0.00000001
 40
0.0
 40
0.0
 40
0.0
 40
0.0
 40
0.0293030962553093
 40
0.0585388626310987
 40
0.0816076604977635
 40
0.0995417770235828
 40
0.1150813799760104
 40
0.1323428204484629
 40
0.1527976619375501
 40
0.1789652611594351
 40
0.2052998771613292
 40
0.2260446340950076
 40
0.2459521050919362
 40
0.2677598403792086
 40
0.2909387009582053
 40
0.3218036038078586
 40
0.3507135587399857
 40
0.3775200548076418
 40
0.4056024933886705
 40
0.4328878587008988
 40
0.457740515423237
 40
0.4854108810316367
 40
0.509844019546817
 40
0.5370503540861058
 40
0.5605910944095016
 40
0.5794979272844798
 40
0.5980840025103754
 40
0.6193829615683061
 40
0.6433881688745775
 40
0.6746827127052296
 40
0.6996635481153074
 40
0.7224783717906749
 40
0.7510285078879043
 40
0.7946903672931198
 40
0.8348801785290816
 40
0.8693834711083315
 40
0.8809311623388527
 40
0.8932904039140295
 40
0.9112410852281835
 40
0.9350063456579774
 40
0.9645906988226649
 40
1.0
 40
1.0
 40
1.0
 40
1.0
 10
201.379964218172
 20
-121.8471835701508
 30
0.0
 10
202.7238036453187
 20
-121.2658255645497
 30
0.0
 10
205.4083947526403
 20
-120.104445342717
 30
0.0
 10
209.1301214270387
 20
-118.4224994538193
 30
0.0
 10
212.3207104861208
 20
-116.9466644580684
 30
0.0
 10
214.8761791276591
 20
-115.7389329228253
 30
0.0
 10
217.1626611732353
 20
-114.6403146377027
 30
0.0
 10
219.5534746897757
 20
-113.4726839373439
 30
0.0
 10
222.4058013573669
 20
-112.0536626906229
 30
0.0
 10
225.6485206946575
 20
-110.4035095430619
 30
0.0
 10
228.8886938630963
 20
-108.7125260684116
 30
0.0
 10
231.8358105229611
 20
-107.1396390095298
 30
0.0
 10
234.568129555905
 20
-105.6532043625867
 30
0.0
 10
237.3928707207697
 20
-104.0862779443401
 30
0.0
 10
240.6765264984386
 20
-102.2264503062335
 30
0.0
 10
244.2440485221394
 20
-100.1551348113601
 30
0.0
 10
247.9400271959928
 20
-97.95015057969592
 30
0.0
 10
251.4883248170846
 20
-95.77953915838133
 30
0.0
 10
254.9420944869126
 20
-93.61443207427122
 30
0.0
 10
258.2888754138747
 20
-91.4643854732293
 30
0.0
 10
261.5938012825153
 20
-89.29204492399131
 30
0.0
 10
264.752690670246
 20
-87.16761235506661
 30
0.0
 10
267.9836191156817
 20
-84.94518483549393
 30
0.0
 10
271.0246395781023
 20
-82.80636187766684
 30
0.0
 10
273.8219979986505
 20
-80.79564142652676
 30
0.0
 10
276.25686291488
 20
-79.01345507217418
 30
0.0
 10
278.5846470105993
 20
-77.28226846474504
 30
0.0
 10
281.0957682719289
 20
-75.38294603808181
 30
0.0
 10
284.0826260715217
 20
-73.08023235113332
 30
0.0
 10
287.1854906986276
 20
-70.63186189774292
 30
0.0
 10
290.2135482668614
 20
-68.18547464768358
 30
0.0
 10
293.1079398338435
 20
-65.79991431771909
 30
0.0
 10
296.6764641059355
 20
-62.79516993713901
 30
0.0
 10
300.8443587352349
 20
-59.17880670804553
 30
0.0
 10
305.1614494844795
 20
-55.30028166610452
 30
0.0
 10
308.2596553657962
 20
-52.42931659330661
 30
0.0
 10
310.3377155758154
 20
-50.46661198061761
 30
0.0
 10
311.8180359843145
 20
-49.05453044685089
 30
0.0
 10
313.7172745783556
 20
-47.22018463728355
 30
0.0
 10
316.1998646651213
 20
-44.77956020218032
 30
0.0
 10
319.2599463811844
 20
-41.70992074334791
 30
0.0
 10
321.4620794438989
 20
-39.42243212269714
 30
0.0
 10
322.6618272291194
 20
-38.17618163365547
 30
0.0
  0
SPLINE
  5
11D
330
118
100
AcDbEntity
  8
0
  6
Continuous
 62
     7
370
    25
100
AcDbSpline
210
0.0
220
0.0
230
1.0
 70
     8
 71
     3
 72
    49
 73
    45
 74
     0
 42
0.000000001
 43
0.00000001
 40
0.0
 40
0.0
 40
0.0
 40
0.0
 40
0.0347065213886289
 40
0.0637357817120725
 40
0.0871182826814318
 40
0.1048793130251025
 40
0.1176619551754399
 40
0.1437196415090758
 40
0.1737459618245849
 40
0.2260145063667134
 40
0.2752016718260324
 40
0.3073539480599312
 40
0.3337853802359127
 40
0.3624014062571221
 40
0.3971814463605295
 40
0.4340996614050134
 40
0.4701239462191437
 40
0.4983413626544496
 40
0.5160433127798293
 40
0.5375727838822895
 40
0.5591069045477973
 40
0.5761193707293143
 40
0.589601299211269
 40
0.6063584253867976
 40
0.6276737099392744
 40
0.6485408802942791
 40
0.6657271577242658
 40
0.6791514080282061
 40
0.6929812767502771
 40
0.7112767504413706
 40
0.7335511301009616
 40
0.7585273490867813
 40
0.7772008798698735
 40
0.7943509314241985
 40
0.8124055127712999
 40
0.834087118419596
 40
0.8609897809588701
 40
0.8785258573441628
 40
0.8927701118813872
 40
0.9038096525851471
 40
0.9181616868892635
 40
0.9401952114910831
 40
0.9698220392058796
 40
1.0
 40
1.0
 40
1.0
 40
1.0
 10
-323.6482848586447
 20
10.41898577804597
 30
0.0
 10
-322.4935450127952
 20
8.942090537829433
 30
0.0
 10
-320.3729566102534
 20
6.229889231682953
 30
0.0
 10
-317.416465973915
 20
2.567327560792088
 30
0.0
 10
-315.008395780681
 20
-0.3612174703786497
 30
0.0
 10
-313.1399537392548
 20
-2.596858093858345
 30
0.0
 10
-311.1663840388664
 20
-4.930956064970168
 30
0.0
 10
-308.7456741295618
 20
-7.751508143827746
 30
0.0
 10
-304.8911298174748
 20
-12.14748667305449
 30
0.0
 10
-300.1315515596344
 20
-17.40787317719419
 30
0.0
 10
-295.1968057882309
 20
-22.65534289152561
 30
0.0
 10
-291.1536333526929
 20
-26.82399660133503
 30
0.0
 10
-287.8448560719053
 20
-30.16041763104445
 30
0.0
 10
-284.4042467024975
 20
-33.55803218846255
 30
0.0
 10
-280.5168452691354
 20
-37.30557545015429
 30
0.0
 10
-276.2895164754677
 20
-41.27123385092966
 30
0.0
 10
-272.2685857700809
 20
-44.93989775375203
 30
0.0
 10
-268.9774109692112
 20
-47.86993804247705
 30
0.0
 10
-266.250533697906
 20
-50.25533283534478
 30
0.0
 10
-263.7775670912744
 20
-52.38633593937563
 30
0.0
 10
-261.3149406581525
 20
-54.47359719851087
 30
0.0
 10
-259.1691010235039
 20
-56.26553135879442
 30
0.0
 10
-257.213323536165
 20
-57.87963240226796
 30
0.0
 10
-255.0707923636185
 20
-59.62731512046233
 30
0.0
 10
-252.6062372763586
 20
-61.60823676208797
 30
0.0
 10
-250.1065866974542
 20
-63.58466217446188
 30
0.0
 10
-247.9266956494056
 20
-65.28282643123197
 30
0.0
 10
-246.0369701965384
 20
-66.73738830492229
 30
0.0
 10
-244.0955988772864
 20
-68.2157967675054
 30
0.0
 10
-241.7670565732036
 20
-69.96677973563936
 30
0.0
 10
-238.9442621225685
 20
-72.05567958887477
 30
0.0
 10
-236.0846867166725
 20
-74.1324370211042
 30
0.0
 10
-233.4328507982275
 20
-76.02501010906362
 30
0.0
 10
-231.073728025036
 20
-77.68463820310376
 30
0.0
 10
-228.5727662437615
 20
-79.41926407108
 30
0.0
 10
-225.6241361751902
 20
-81.4317373839698
 30
0.0
 10
-222.6725238202415
 20
-83.40659428126729
 30
0.0
 10
-220.0396553836829
 20
-85.13614058438121
 30
0.0
 10
-218.1147385365269
 20
-86.3840879114589
 30
0.0
 10
-216.3413672097605
 20
-87.52182861347059
 30
0.0
 10
-214.2174561397493
 20
-88.87041785949475
 30
0.0
 10
-211.2363236986575
 20
-90.73345925361006
 30
0.0
 10
-207.515226320654
 20
-93.01598866239027
 30
0.0
 10
-204.7585507059847
 20
-94.64481202540544
 30
0.0
 10
-203.3675107793208
 20
-95.46672894569173
 30
0.0
  0
SPLINE
  5
11E
330
118
100
AcDbEntity
  8
0
  6
Continuous
 62
     7
370
    25
100
AcDbSpline
210
0.0
220
0.0
230
1.0
 70
     8
 71
     3
 72
    80
 73
    76
 74
     0
 42
0.000000001
 43
0.00000001
 40
0.0
 40
0.0
 40
0.0
 40
0.0
 40
0.0036266914577795
 40
0.0130630568683438
 40
0.0202810583044072
 40
0.0254129705802644
 40
0.0301156684073449
 40
0.0349477337545076
 40
0.0399077991591934
 40
0.0449497837482511
 40
0.0777747374782869
 40
0.1091688950760913
 40
0.1430567415223488
 40
0.1605014084409047
 40
0.1759262458637593
 40
0.1889870837048438
 40
0.2033718351513726
 40
0.2208136368167575
 40
0.2366151795977287
 40
0.2482812803358463
 40
0.2546493442243431
 40
0.2619607498895827
 40
0.2705907600710002
 40
0.2804715187726697
 40
0.2891442503430426
 40
0.295264722599087
 40
0.3004094357542616
 40
0.3073157082353031
 40
0.3154094568947282
 40
0.3224947046220358
 40
0.3283633132921363
 40
0.333102452942969
 40
0.3438059237775108
 40
0.3557467201575333
 40
0.3664203340447219
 40
0.3762744109909166
 40
0.3856979482252579
 40
0.3997028711222314
 40
0.4144022903150035
 40
0.4297941994347412
 40
0.4466249873871568
 40
0.4662651857922331
 40
0.4887106877277737
 40
0.5100790422511954
 40
0.5328349520394781
 40
0.554173644140936
 40
0.5738112605038089
 40
0.591862269699313
 40
0.6081327123231702
 40
0.6226369357981765
 40
0.6351974428155863
 40
0.6459653290780424
 40
0.6581758092547804
 40
0.673583819086186
 40
0.690487740520267
 40
0.7019950510060458
 40
0.719052185742376
 40
0.7317681226425963
 40
0.7498873989240835
 40
0.7666246090569678
 40
0.789182026958834
 40
0.8069669689389898
 40
0.8244976965697893
 40
0.8470638069280674
 40
0.8692638773594787
 40
0.8904116651388525
 40
0.9104298568421569
 40
0.9294092498255747
 40
0.9485561992631064
 40
0.9611616893458653
 40
0.9731696516732025
 40
0.9780142028867082
 40
0.9848290035802598
 40
0.9938311989364921
 40
1.0
 40
1.0
 40
1.0
 40
1.0
 10
-192.2767362583472
 20
-101.7736254057502
 30
0.0
 10
-191.8608546453457
 20
-102.0036406963693
 30
0.0
 10
-190.362881844411
 20
-102.8321376492878
 30
0.0
 10
-188.0145675808737
 20
-104.0903971947264
 30
0.0
 10
-185.4840657548501
 20
-105.4301452836078
 30
0.0
 10
-183.4983372142051
 20
-106.4652504916139
 30
0.0
 10
-181.7879985620104
 20
-107.3471736135142
 30
0.0
 10
-180.0938931616653
 20
-108.2111490948038
 30
0.0
 10
-178.3561464049824
 20
-109.0874362162033
 30
0.0
 10
-173.3283089299692
 20
-111.5934784868101
 30
0.0
 10
-165.132538337824
 20
-115.4992061987933
 30
0.0
 10
-153.3909334773126
 20
-120.6725710413745
 30
0.0
 10
-143.3851857072233
 20
-124.7284140091802
 30
0.0
 10
-135.2482006406796
 20
-127.8083577356235
 30
0.0
 10
-129.6220623880041
 20
-129.8430479832036
 30
0.0
 10
-124.343488792962
 20
-131.6759255512411
 30
0.0
 10
-118.7933435418868
 20
-133.5266912929012
 30
0.0
 10
-112.914204399858
 20
-135.3945668530864
 30
0.0
 10
-107.355697679889
 20
-137.0712465451478
 30
0.0
 10
-103.0833734051818
 20
-138.3031153085024
 30
0.0
 10
-99.90851268188186
 20
-139.1908089766402
 30
0.0
 10
-97.11128944114806
 20
-139.954786055703
 30
0.0
 10
-93.86910813211463
 20
-140.8158492419816
 30
0.0
 10
-90.44272000558124
 20
-141.6961045420337
 30
0.0
 10
-87.31853738117695
 20
-142.4716860824166
 30
0.0
 10
-84.78998015362482
 20
-143.0820382064901
 30
0.0
 10
-82.4949965997393
 20
-143.6241368705862
 30
0.0
 10
-79.94687887461188
 20
-144.2120534734428
 30
0.0
 10
-77.14351863372279
 20
-144.8398143090523
 30
0.0
 10
-74.46212513867953
 20
-145.4219356523787
 30
0.0
 10
-72.20215439084312
 20
-145.8994447686491
 30
0.0
 10
-69.48247085892086
 20
-146.4612351807537
 30
0.0
 10
-65.960331608108
 20
-147.1649630779117
 30
0.0
 10
-61.62001972147232
 20
-147.9878819148853
 30
0.0
 10
-57.48845869209962
 20
-148.7312938748378
 30
0.0
 10
-53.69805339236922
 20
-149.3806862034957
 30
0.0
 10
-49.42597651790874
 20
-150.0777300297137
 30
0.0
 10
-44.50795381472363
 20
-150.8314328045132
 30
0.0
 10
-38.80742834417037
 20
-151.6360957690509
 30
0.0
 10
-32.71199531691913
 20
-152.418942675764
 30
0.0
 10
-25.95541881732679
 20
-153.1948233229504
 30
0.0
 10
-18.27151352000925
 20
-153.9625130336468
 30
0.0
 10
-9.949008318414057
 20
-154.6544394964145
 30
0.0
 10
-1.163253439624812
 20
-155.2337940433768
 30
0.0
 10
7.532001469828284
 20
-155.6567090006974
 30
0.0
 10
16.0318166913184
 20
-155.9217508413431
 30
0.0
 10
23.92372826149589
 20
-156.0391489628229
 30
0.0
 10
31.14752242831828
 20
-156.0376853738294
 30
0.0
 10
37.68247739708877
 20
-155.9463531452305
 30
0.0
 10
43.48666910512024
 20
-155.7936110748458
 30
0.0
 10
48.55587909709288
 20
-155.60477878012
 30
0.0
 10
53.31242065256053
 20
-155.3823755502002
 30
0.0
 10
58.44303765382224
 20
-155.0940874777029
 30
0.0
 10
64.388138368737
 20
-154.6918570497515
 30
0.0
 10
70.24296630017875
 20
-154.2155854138083
 30
0.0
 10
76.30408177085276
 20
-153.6476772654656
 30
0.0
 10
81.8063777278929
 20
-153.0631034562649
 30
0.0
 10
88.16819342105875
 20
-152.3035218233935
 30
0.0
 10
94.48924998092646
 20
-151.4619852957752
 30
0.0
 10
102.0953726178879
 20
-150.3294065042927
 30
0.0
 10
109.631842461275
 20
-149.0714232024869
 30
0.0
 10
117.2511840889076
 20
-147.6553739957837
 30
0.0
 10
124.8298773868455
 20
-146.1189090211711
 30
0.0
 10
132.9683665730467
 20
-144.3100130460956
 30
0.0
 10
141.5200934898751
 20
-142.2184102326748
 30
0.0
 10
149.6952125324717
 20
-140.0387009852431
 30
0.0
 10
157.4057723657497
 20
-137.8178935975998
 30
0.0
 10
164.8133280909314
 20
-135.5312635177836
 30
0.0
 10
171.2336974537041
 20
-133.4170173538439
 30
0.0
 10
176.7385896988942
 20
-131.5080534116004
 30
0.0
 10
180.4271892879944
 20
-130.1780556164312
 30
0.0
 10
183.3791210488036
 20
-129.0858787259644
 30
0.0
 10
185.947378318768
 20
-128.1174012398013
 30
0.0
 10
188.6753368308525
 20
-127.0698515932261
 30
0.0
 10
190.5506638950882
 20
-126.3204855433809
 30
0.0
 10
191.3132057392897
 20
-126.0157797773689
 30
0.0
  0
SPLINE
  5
120
330
118
100
AcDbEntity
  8
0
  6
Continuous
 62
     7
370
    25
100
AcDbSpline
210
0.0
220
0.0
230
1.0
 70
    11
 71
     3
 72
    35
 73
    31
 74
     0
 42
0.000000001
 43
0.00000001
 40
0.0
 40
0.0
 40
0.0
 40
0.0
 40
0.0062500000000001
 40
0.0083333333333333
 40
0.0416666666666666
 40
0.0833333333333334
 40
0.125
 40
0.1666666666666666
 40
0.2083333333333334
 40
0.2499999999996538
 40
0.2916666666666666
 40
0.3333333333333334
 40
0.375
 40
0.4166666666666666
 40
0.4583333333333334
 40
0.4999999999999999
 40
0.5416666666666667
 40
0.5833333333333333
 40
0.625
 40
0.6666666666666667
 40
0.7083333333333333
 40
0.7499999999996151
 40
0.7916666666666666
 40
0.8333333333333334
 40
0.875
 40
0.9166666666666666
 40
0.9583333333333334
 40
0.9916666666666667
 40
0.99375
 40
1.0
 40
1.0
 40
1.0
 40
1.0
 10
320.3794137530185
 20
-40.36401207386833
 30
0.0
 10
319.3907800611776
 20
-41.23590503600634
 30
0.0
 10
317.9597756975226
 20
-42.38421423206353
 30
0.0
 10
310.0700007117633
 20
-48.02487990076187
 30
0.0
 10
289.7425774447772
 20
-57.65091278599999
 30
0.0
 10
242.9486701876084
 20
-68.80459658666315
 30
0.0
 10
175.4531690789139
 20
-76.2785422390883
 30
0.0
 10
95.74338967384035
 20
-78.44231111989136
 30
0.0
 10
10.95095727447185
 20
-75.32589104603584
 30
0.0
 10
-76.01203274252045
 20
-67.03631176336157
 30
0.0
 10
-157.6833992074009
 20
-54.0799591636875
 30
0.0
 10
-227.4616778890821
 20
-37.72230012847876
 30
0.0
 10
-282.9504166869339
 20
-18.52511902812865
 30
0.0
 10
-318.7413913940377
 20
1.961699418021379
 30
0.0
 10
-332.630347065352
 20
21.97850260043288
 30
0.0
 10
-324.1402840152601
 20
40.83783718920617
 30
0.0
 10
-293.0849993917177
 20
56.8542210859527
 30
0.0
 10
-242.9486701876082
 20
68.80459658666321
 30
0.0
 10
-175.4531690789136
 20
76.27854223908834
 30
0.0
 10
-95.74338967383996
 20
78.44231111989133
 30
0.0
 10
-10.95095727447154
 20
75.32589104603585
 30
0.0
 10
76.01203274252072
 20
67.03631176336158
 30
0.0
 10
157.6833992074012
 20
54.07995916368748
 30
0.0
 10
227.4616778890823
 20
37.72230012847874
 30
0.0
 10
282.9504166869341
 20
18.5251190281286
 30
0.0
 10
318.7413913940377
 20
-1.961699418021379
 30
0.0
 10
331.7044166872645
 20
-20.64404905493879
 30
0.0
 10
327.8489172941945
 20
-32.34534928128997
 30
0.0
 10
322.5733995927799
 20
-38.31538040875289
 30
0.0
 10
321.3680474448593
 20
-39.49211911173034
 30
0.0
 10
320.3794137530185
 20
-40.36401207386833
 30
0.0
  0
SPLINE
  5
121
330
118
100
AcDbEntity
  8
0
  6
Continuous
 62
     7
370
    25
100
AcDbSpline
210
0.0
220
0.0
230
1.0
 70
    11
 71
     3
 72
    35
 73
    31
 74
     0
 42
0.000000001
 43
0.00000001
 40
0.0
 40
0.0
 40
0.0
 40
0.0
 40
0.0062500000000001
 40
0.0083333333333333
 40
0.0416666666666666
 40
0.0833333333333334
 40
0.125
 40
0.1666666666666666
 40
0.2083333333333334
 40
0.2499999999996538
 40
0.2916666666666666
 40
0.3333333333333334
 40
0.375
 40
0.4166666666666666
 40
0.4583333333333334
 40
0.4999999999999999
 40
0.5416666666666667
 40
0.5833333333333333
 40
0.625
 40
0.6666666666666667
 40
0.7083333333333333
 40
0.7499999999996151
 40
0.7916666666666666
 40
0.8333333333333334
 40
0.875
 40
0.9166666666666666
 40
0.9583333333333334
 40
0.9916666666666667
 40
0.99375
 40
1.0
 40
1.0
 40
1.0
 40
1.0
 10
292.4402458737735
 20
-36.84400778769704
 30
0.0
 10
291.5501409270557
 20
-37.62900656430401
 30
0.0
 10
290.2604135790191
 20
-38.66270480380396
 30
0.0
 10
283.1414778701349
 20
-43.73920540049254
 30
0.0
 10
264.7427335442438
 20
-52.39292211333135
 30
0.0
 10
222.2663149304204
 20
-62.38040813318517
 30
0.0
 10
160.9025952284401
 20
-69.00985039147668
 30
0.0
 10
88.34026068174973
 20
-70.82479104112721
 30
0.0
 10
11.04321930747176
 20
-67.86873911538508
 30
0.0
 10
-68.324503701466
 20
-60.25654841679446
 30
0.0
 10
-142.9552686085487
 20
-48.46675334862208
 30
0.0
 10
-206.7937833419456
 20
-33.64139658755767
 30
0.0
 10
-257.6141230576511
 20
-16.28170012699594
 30
0.0
 10
-290.4820211807573
 20
2.21981004938028
 30
0.0
 10
-303.380961313942
 20
20.27957919049196
 30
0.0
 10
-295.8709376208668
 20
37.27623432023005
 30
0.0
 10
-267.7767634452312
 20
51.67953025477047
 30
0.0
 10
-222.2663149304204
 20
62.38040813318524
 30
0.0
 10
-160.9025952284402
 20
69.00985039147669
 30
0.0
 10
-88.34026068174985
 20
70.82479104112718
 30
0.0
 10
-11.04321930747182
 20
67.86873911538515
 30
0.0
 10
68.32450370146589
 20
60.25654841679451
 30
0.0
 10
142.9552686085485
 20
48.46675334862209
 30
0.0
 10
206.7937833419454
 20
33.64139658755777
 30
0.0
 10
257.6141230576511
 20
16.28170012699599
 30
0.0
 10
290.4820211807573
 20
-2.219810049380211
 30
0.0
 10
302.5210319717299
 20
-19.07559458108448
 30
0.0
 10
299.1484034636194
 20
-29.62242394179098
 30
0.0
 10
294.4142366637021
 20
-34.99937717963815
 30
0.0
 10
293.3303508204913
 20
-36.05900901109008
 30
0.0
 10
292.4402458737735
 20
-36.84400778769704
 30
0.0
  0
SPLINE
  5
122
330
118
100
AcDbEntity
  8
0
  6
Continuous
 62
     7
370
    25
100
AcDbSpline
210
0.0
220
0.0
230
1.0
 70
     8
 71
     3
 72
    45
 73
    41
 74
     0
 42
0.000000001
 43
0.00000001
 40
0.0
 40
0.0
 40
0.0
 40
0.0
 40
0.0186711149356826
 40
0.0431947040458713
 40
0.0682358596256319
 40
0.0933428280671996
 40
0.1187332962692049
 40
0.1443749746518873
 40
0.1701016554109891
 40
0.1958764892122506
 40
0.2217790180058216
 40
0.2477250652453522
 40
0.2737950766845061
 40
0.2999050002303509
 40
0.3260875154559491
 40
0.3523567887643483
 40
0.3786921466025083
 40
0.40506521380723
 40
0.431546898098047
 40
0.4580674065072283
 40
0.4846966218884238
 40
0.5113647118311151
 40
0.5381019926546012
 40
0.5702568584160724
 40
0.6024892228086574
 40
0.6358638951766113
 40
0.6693385724492489
 40
0.7012557771819735
 40
0.7332780759789991
 40
0.7597902326003243
 40
0.786381380539681
 40
0.812576231196969
 40
0.838870526191366
 40
0.8649741828670059
 40
0.8896493978324486
 40
0.9144553627875813
 40
0.9394187891382739
 40
0.9645676930909634
 40
0.9849097610362119
 40
0.9999999999999999
 40
0.9999999999999999
 40
0.9999999999999999
 40
0.9999999999999999
 10
-203.3527891532374
 20
-95.4421631935207
 30
0.0
 10
-201.8997490887712
 20
-96.28785233100551
 30
0.0
 10
-198.5382125245319
 20
-98.24431246390594
 30
0.0
 10
-192.5647330684895
 20
-101.2002253939502
 30
0.0
 10
-185.5853581176767
 20
-104.3275813627232
 30
0.0
 10
-178.036646398348
 20
-107.364338980094
 30
0.0
 10
-170.0035378447445
 20
-110.301617644824
 30
0.0
 10
-161.5053959706403
 20
-113.135660896696
 30
0.0
 10
-152.5953482012776
 20
-115.8550851652933
 30
0.0
 10
-143.311716769101
 20
-118.453049530046
 30
0.0
 10
-133.6833619662248
 20
-120.9263476265806
 30
0.0
 10
-123.7231169461364
 20
-123.2756996328862
 30
0.0
 10
-113.4632278139525
 20
-125.4969769009768
 30
0.0
 10
-102.9200097367898
 20
-127.5897223985356
 30
0.0
 10
-92.11810280263262
 20
-129.5521080756097
 30
0.0
 10
-81.07077094380354
 20
-131.3828717084288
 30
0.0
 10
-69.79775805364476
 20
-133.0781328003804
 30
0.0
 10
-58.30976609025872
 20
-134.6344181559674
 30
0.0
 10
-46.62319578061143
 20
-136.0453814128055
 30
0.0
 10
-34.74550607578593
 20
-137.31074603921
 30
0.0
 10
-22.70421174112824
 20
-138.4275859336971
 30
0.0
 10
-10.51074390809933
 20
-139.3931086570537
 30
0.0
 10
2.634600461784347
 20
-140.2563758317103
 30
0.0
 10
16.74418751673477
 20
-140.9711364634104
 30
0.0
 10
31.97660798714045
 20
-141.4884831999728
 30
0.0
 10
47.47660571151437
 20
-141.7450086054628
 30
0.0
 10
62.94684580589379
 20
-141.7171642083406
 30
0.0
 10
78.17634965470668
 20
-141.4047444242523
 30
0.0
 10
92.24519155787381
 20
-140.8435346862366
 30
0.0
 10
105.3728840828972
 20
-140.0671383908249
 30
0.0
 10
117.4649896873446
 20
-139.1202422610048
 30
0.0
 10
129.3363084560031
 20
-137.9404357161053
 30
0.0
 10
140.8949750864326
 20
-136.5265222174284
 30
0.0
 10
151.9308376233486
 20
-134.8925595708649
 30
0.0
 10
162.3946179874015
 20
-133.0436995596481
 30
0.0
 10
172.2704171175451
 20
-130.9740640507298
 30
0.0
 10
181.6855641428591
 20
-128.6340682640914
 30
0.0
 10
189.9073377718236
 20
-126.1776890425359
 30
0.0
 10
196.4922242521516
 20
-123.8949223091762
 30
0.0
 10
199.9109680226774
 20
-122.4377576422198
 30
0.0
 10
201.3669742766772
 20
-121.81716686075
 30
0.0
  0
SPLINE
  5
123
330
118
100
AcDbEntity
  8
0
  6
Continuous
 62
     7
370
    25
100
AcDbSpline
210
0.0
220
0.0
230
1.0
 70
     8
 71
     3
 72
    45
 73
    41
 74
     0
 42
0.000000001
 43
0.00000001
 40
0.0
 40
0.0
 40
0.0
 40
0.0
 40
0.0175865683950867
 40
0.0374672573487356
 40
0.057466694619184
 40
0.0778034002873734
 40
0.0982415652346374
 40
0.1278269080657016
 40
0.1576454024232382
 40
0.1804422546603544
 40
0.2033153092415726
 40
0.2308692767159504
 40
0.2673138595659519
 40
0.3039575160534417
 40
0.3403945971092414
 40
0.3769777719104901
 40
0.4134106600643366
 40
0.4499602144576246
 40
0.4792466026385859
 40
0.5085857241353489
 40
0.5380801196782741
 40
0.5676249019675154
 40
0.5969106030832495
 40
0.6262447604296565
 40
0.6557270782949006
 40
0.6852599710872642
 40
0.7127013116045229
 40
0.7401863613228036
 40
0.7678103034537185
 40
0.795484075195217
 40
0.8189601619924148
 40
0.842471551995974
 40
0.8660978894930709
 40
0.8897667819385847
 40
0.9091944788636654
 40
0.9286506536887571
 40
0.9482005410371497
 40
0.9677855544987929
 40
0.9998751792265514
 40
1.0
 40
1.0
 40
1.0
 40
1.0
 10
196.4750986271425
 20
-123.8138412620221
 30
0.0
 10
194.8447388267944
 20
-124.5360590879134
 30
0.0
 10
191.3713431740223
 20
-126.0747061131101
 30
0.0
 10
185.3301744597095
 20
-128.2521158235913
 30
0.0
 10
178.566047560064
 20
-130.3902707278814
 30
0.0
 10
171.2795271325722
 20
-132.3793398095605
 30
0.0
 10
162.4039202623416
 20
-134.4900496266783
 30
0.0
 10
151.8002217313405
 20
-136.6207510910679
 30
0.0
 10
140.3838336897052
 20
-138.5074132503578
 30
0.0
 10
129.5911133104574
 20
-140.0057878581232
 30
0.0
 10
118.9126031211574
 20
-141.2692508798913
 30
0.0
 10
106.0279477490834
 20
-142.5253309515965
 30
0.0
 10
90.86946968514498
 20
-143.6340061990999
 30
0.0
 10
74.20470748465624
 20
-144.4526814078428
 30
0.0
 10
57.4398407734986
 20
-144.9087859532799
 30
0.0
 10
40.70055949407981
 20
-145.0114388066939
 30
0.0
 10
23.99727333371988
 20
-144.7664754242753
 30
0.0
 10
8.502804300228956
 20
-144.2204552349502
 30
0.0
 10
-5.799470128736099
 20
-143.4526567376701
 30
0.0
 10
-18.92449990833697
 20
-142.5340065054752
 30
0.0
 10
-31.94927658220087
 20
-141.4070570275331
 30
0.0
 10
-44.80680686008985
 20
-140.07419662038
 30
0.0
 10
-57.4621277688179
 20
-138.5326346274853
 30
0.0
 10
-69.90981115183861
 20
-136.7797404925952
 30
0.0
 10
-82.17086458747634
 20
-134.8215363552338
 30
0.0
 10
-93.92909351502637
 20
-132.7155719974049
 30
0.0
 10
-105.16575750641
 20
-130.4834923876409
 30
0.0
 10
-115.8909498367591
 20
-128.1372257239734
 30
0.0
 10
-126.3624530018058
 20
-125.6197007120992
 30
0.0
 10
-136.0295304607978
 20
-123.0691244630706
 30
0.0
 10
-144.9046748665374
 20
-120.5189394279567
 30
0.0
 10
-153.0278672797948
 20
-117.9944211869871
 30
0.0
 10
-160.8765279141925
 20
-115.3536913112038
 30
0.0
 10
-167.9656802768137
 20
-112.7648511807278
 30
0.0
 10
-174.3257788049286
 20
-110.2536116874565
 30
0.0
 10
-180.0012819743179
 20
-107.8357652184994
 30
0.0
 10
-185.4247168369444
 20
-105.3416294239705
 30
0.0
 10
-191.5634341272015
 20
-102.2074695561454
 30
0.0
 10
-195.9140817596789
 20
-99.88702621203375
 30
0.0
 10
-198.1164283859289
 20
-98.36537879258887
 30
0.0
 10
-198.1249617815845
 20
-98.35948289077041
 30
0.0
  0
LINE
  5
124
330
118
100
AcDbEntity
  8
0
  6
Continuous
 62
     7
370
    25
100
AcDbLine
 10
191.6542578491
 20
-125.8802208967
 30
0.0
 11
191.9997798555
 21
-125.7428853544
 31
0.0
  0
VIEWPORT
  5
137
330
118
100
AcDbEntity
  8
0
100
AcDbViewport
 10
0.0
 20
0.0
 30
0.0
 40
205.6
 41
156.0
 68
     1
 69
     1
 12
0.0
 22
-12.0504288426
 13
0.0
 23
0.0
 14
10.0
 24
10.0
 15
10.0
 25
10.0
 16
0.0
 26
0.0
 36
1.0
 17
0.0
 27
0.0
 37
0.0
 42
50.0
 43
0.0
 44
0.0
 45
440.8991966491
 50
0.0
 51
0.0
 72
   100
 90
   557152
  1

281
     0
 71
     1
 74
     0
110
0.0
120
0.0
130
0.0
111
1.0
121
0.0
131
0.0
112
0.0
122
1.0
132
0.0
 79
     0
146
0.0
170
     0
 61
     5
348
2F
292
     1
282
     1
141
0.0
142
0.0
 63
   256
361
138
  0
ENDBLK
  5
11B
330
118
100
AcDbEntity
  8
0
100
AcDbBlockEnd
  0
ENDSEC
  0
SECTION
  2
ENTITIES
  0
SPLINE
  5
73
330
1F
100
AcDbEntity
  8
0
  6
Continuous
 62
     7
370
    25
100
AcDbSpline
210
0.0
220
0.0
230
1.0
 70
     8
 71
     3
 72
    50
 73
    46
 74
     0
 42
0.000000001
 43
0.00000001
 40
0.0
 40
0.0
 40
0.0
 40
0.0
 40
0.0175546889543141
 40
0.0413073570893585
 40
0.0642563967097286
 40
0.0850654665895471
 40
0.101610865488233
 40
0.1145709400774479
 40
0.1282089174352626
 40
0.1433912672228178
 40
0.1700080999680255
 40
0.1994144712649866
 40
0.2282654427119376
 40
0.2548007621769744
 40
0.2905630881462527
 40
0.3315075363290027
 40
0.3645180144368584
 40
0.3952393892898941
 40
0.4283176487889016
 40
0.4648430196728523
 40
0.4950450307784484
 40
0.5312964272492905
 40
0.5624263587708473
 40
0.5944011147912269
 40
0.622678326060871
 40
0.6495241761057342
 40
0.6668134444720806
 40
0.6838480395336259
 40
0.702295669355375
 40
0.7253983332560521
 40
0.7496587128795924
 40
0.7725047376282764
 40
0.790590309092696
 40
0.8065745027715281
 40
0.8233614929432379
 40
0.8448138217014908
 40
0.8678358652478898
 40
0.8892000443524297
 40
0.9015194988562034
 40
0.9121299333816475
 40
0.9230175694930305
 40
0.9347429113850171
 40
0.9503776580157116
 40
0.9721464229549579
 40
1.0
 40
1.0
 40
1.0
 40
1.0
 10
57.95276603671346
 20
-188.2142560194453
 30
0.0
 10
59.04547819954148
 20
-188.2599679486524
 30
0.0
 10
61.61670299442624
 20
-188.3675311750879
 30
0.0
 10
66.01153886172168
 20
-188.4789949928084
 30
0.0
 10
70.85241271841323
 20
-188.5503980627283
 30
0.0
 10
75.2678451802888
 20
-188.5564849483445
 30
0.0
 10
78.92865629610567
 20
-188.5180348693784
 30
0.0
 10
82.05388929762171
 20
-188.4563374412963
 30
0.0
 10
85.020474216231
 20
-188.373579113975
 30
0.0
 10
88.8725534411623
 20
-188.2332871143474
 30
0.0
 10
93.82029905966435
 20
-187.9919206683253
 30
0.0
 10
99.7891602376067
 20
-187.5991485742385
 30
0.0
 10
105.7242312106646
 20
-187.1013059716342
 30
0.0
 10
112.092471899332
 20
-186.4567123289445
 30
0.0
 10
119.266793614547
 20
-185.588596074176
 30
0.0
 10
126.8775262792996
 20
-184.47927991005
 30
0.0
 10
134.1182991803367
 20
-183.2457673984397
 30
0.0
 10
140.7398326983512
 20
-181.9759342781568
 30
0.0
 10
147.6570188702123
 20
-180.4970784835165
 30
0.0
 10
154.4336145680893
 20
-178.8810634270162
 30
0.0
 10
161.4033523431804
 20
-177.0515657110256
 30
0.0
 10
167.9349293643642
 20
-175.1765625362621
 30
0.0
 10
174.5703239519568
 20
-173.1030418749733
 30
0.0
 10
180.6794798820593
 20
-171.0406451400413
 30
0.0
 10
186.2943323064483
 20
-169.0100297127125
 30
0.0
 10
191.0058909955164
 20
-167.2002230131502
 30
0.0
 10
194.9415269498712
 20
-165.6142871584923
 30
0.0
 10
198.3183563636267
 20
-164.2036162222812
 30
0.0
 10
202.0359532440805
 20
-162.5925298679255
 30
0.0
 10
206.1802616627126
 20
-160.719294661734
 30
0.0
 10
210.5603492211756
 20
-158.6438255642518
 30
0.0
 10
214.583734155224
 20
-156.6475525558036
 30
0.0
 10
218.0679615658231
 20
-154.8492333208459
 30
0.0
 10
221.1486003058408
 20
-153.2067990140867
 30
0.0
 10
224.3999526549398
 20
-151.4191776968528
 30
0.0
 10
228.0404413424547
 20
-149.345212927792
 30
0.0
 10
231.9143216624046
 20
-147.0458293604331
 30
0.0
 10
235.2067826675471
 20
-145.0109112464609
 30
0.0
 10
237.7574960314826
 20
-143.3857586868527
 30
0.0
 10
239.6906853536179
 20
-142.1284402504013
 30
0.0
 10
241.5762471060278
 20
-140.8782956422926
 30
0.0
 10
243.7336534507494
 20
-139.4190873224252
 30
0.0
 10
246.4751416708599
 20
-137.5180045235903
 30
0.0
 10
250.0806243508106
 20
-134.9423343168048
 30
0.0
 10
252.7753662712164
 20
-132.9046069841737
 30
0.0
 10
254.2879551312965
 20
-131.7608077802948
 30
0.0
  0
SPLINE
  5
74
330
1F
100
AcDbEntity
  8
0
  6
Continuous
 62
     7
370
    25
100
AcDbSpline
210
0.0
220
0.0
230
1.0
 70
     8
 71
     3
 72
    59
 73
    55
 74
     0
 42
0.000000001
 43
0.00000001
 40
0.0
 40
0.0
 40
0.0
 40
0.0
 40
0.0157000682543439
 40
0.0281936394709833
 40
0.0376667965216586
 40
0.0465730771870332
 40
0.0557403694694529
 40
0.0739505984332875
 40
0.0925108150841321
 40
0.1166077137426117
 40
0.1421265003304645
 40
0.1682237340172281
 40
0.1880032760895117
 40
0.2057153235911091
 40
0.2218263909145673
 40
0.2372256957737719
 40
0.252619572812985
 40
0.2680717321437125
 40
0.2866401684031532
 40
0.3110583559862677
 40
0.333813378701308
 40
0.3525722393139321
 40
0.3695814524619448
 40
0.3887544165591656
 40
0.4130214485755912
 40
0.4288120947683219
 40
0.4416888603281389
 40
0.4528376770430889
 40
0.464631784676328
 40
0.4800478915031455
 40
0.4966270494983955
 40
0.5104479155717553
 40
0.5380067876671888
 40
0.572236368744508
 40
0.6011943330892732
 40
0.6335621627190972
 40
0.6629013297098029
 40
0.6933634422300046
 40
0.7248213747643024
 40
0.7508992043679529
 40
0.7861219359121789
 40
0.8151495712189221
 40
0.8447356872477172
 40
0.8776534965849623
 40
0.8870803187476594
 40
0.8966400740617704
 40
0.9083711894238911
 40
0.921802225849801
 40
0.9357391332289356
 40
0.9476947720147874
 40
0.9599588264195269
 40
0.9721549561659003
 40
0.9891918602536369
 40
1.0
 40
1.0
 40
1.0
 40
1.0
 10
-270.3052579791778
 20
22.57489319963222
 30
0.0
 10
-269.667299069817
 20
21.43188678293782
 30
0.0
 10
-268.5216745288
 20
19.3793153989639
 30
0.0
 10
-266.9663555814638
 20
16.65630681477862
 30
0.0
 10
-265.6861379566062
 20
14.44269441700519
 30
0.0
 10
-264.5339300743331
 20
12.47353817143438
 30
0.0
 10
-263.0011400820671
 20
9.882900580469958
 30
0.0
 10
-261.0344912550086
 20
6.61467060992136
 30
0.0
 10
-258.3869706059864
 20
2.313157648312802
 30
0.0
 10
-255.37450325335
 20
-2.455941963853833
 30
0.0
 10
-251.9548259846421
 20
-7.709991947994613
 30
0.0
 10
-248.6637864842033
 20
-12.61213458404231
 30
0.0
 10
-245.6791720308733
 20
-16.93786134272676
 30
0.0
 10
-243.1264048997261
 20
-20.55619947276577
 30
0.0
 10
-240.7519847677898
 20
-23.85499652915517
 30
0.0
 10
-238.4625743814663
 20
-26.97701474240255
 30
0.0
 10
-236.1792745326125
 20
-30.03465230346361
 30
0.0
 10
-233.7117390547859
 20
-33.27948788721316
 30
0.0
 10
-230.7580759689936
 20
-37.08658817713117
 30
0.0
 10
-227.3837025808191
 20
-41.32737556223682
 30
0.0
 10
-223.9427036693424
 20
-45.53347469813831
 30
0.0
 10
-220.8457725499506
 20
-49.22760556221255
 30
0.0
 10
-217.9029279037892
 20
-52.66474190634145
 30
0.0
 10
-214.6280176533807
 20
-56.40900556326397
 30
0.0
 10
-211.3723192277393
 20
-60.03707719160646
 30
0.0
 10
-208.4258551777235
 20
-63.24357280643603
 30
0.0
 10
-206.1905079549709
 20
-65.63516242847211
 30
0.0
 10
-204.1591964915044
 20
-67.77777950555011
 30
0.0
 10
-201.940324934501
 20
-70.08589484794923
 30
0.0
 10
-199.4423548740549
 20
-72.64225893016237
 30
0.0
 10
-196.8096523893669
 20
-75.28623693881079
 30
0.0
 10
-193.4210075484927
 20
-78.62807774519037
 30
0.0
 10
-188.9376797009575
 20
-82.94024588373865
 30
0.0
 10
-183.4923261316118
 20
-87.98589596792932
 30
0.0
 10
-177.6149207302611
 20
-93.22507232505583
 30
0.0
 10
-172.0041420260185
 20
-98.04070843718024
 30
0.0
 10
-166.1846745571748
 20
-102.8482791114603
 30
0.0
 10
-160.3388398809008
 20
-107.4983696918798
 30
0.0
 10
-154.6652297738348
 20
-111.838427024684
 30
0.0
 10
-148.5170954502215
 20
-116.3699169624513
 30
0.0
 10
-142.5007707082779
 20
-120.6277811368319
 30
0.0
 10
-136.1747651601825
 20
-124.9175169229143
 30
0.0
 10
-129.8915080696998
 20
-129.0098252106871
 30
0.0
 10
-124.9212675811653
 20
-132.1078030587196
 30
0.0
 10
-121.2712503063935
 20
-134.3139401224417
 30
0.0
 10
-119.1520398316582
 20
-135.577029507565
 30
0.0
 10
-116.8014839020352
 20
-136.9563514432056
 30
0.0
 10
-114.170249185431
 20
-138.4718011382239
 30
0.0
 10
-111.5070617611488
 20
-139.9747822254521
 30
0.0
 10
-108.910120824962
 20
-141.4120710479157
 30
0.0
 10
-106.429694590987
 20
-142.7602200381479
 30
0.0
 10
-103.550096712332
 20
-144.296067920532
 30
0.0
 10
-100.5083909246333
 20
-145.8999853917487
 30
0.0
 10
-98.35059366892514
 20
-146.9959429813709
 30
0.0
 10
-97.51303800110277
 20
-147.4213423039685
 30
0.0
  0
SPLINE
  5
75
330
1F
100
AcDbEntity
  8
0
  6
Continuous
 62
     7
370
    25
100
AcDbSpline
210
0.0
220
0.0
230
1.0
 70
     8
 71
     3
 72
     9
 73
     5
 74
     0
 42
0.000000001
 43
0.00000001
 40
0.0
 40
0.0
 40
0.0
 40
0.0
 40
0.0299708451526818
 40
1.0
 40
1.0
 40
1.0
 40
1.0
 10
-66.06477203901733
 20
-161.570635800631
 30
0.0
 10
-66.02435978274335
 20
-161.5866252920603
 30
0.0
 10
-64.67597417439372
 20
-162.1201268115467
 30
0.0
 10
-63.30899493873879
 20
-162.635455745402
 30
0.0
 10
-61.98298522608268
 20
-163.1353398355781
 30
0.0
  0
SPLINE
  5
76
330
1F
100
AcDbEntity
  8
0
  6
Continuous
 62
     7
370
    25
100
AcDbSpline
210
0.0
220
0.0
230
1.0
 70
     8
 71
     3
 72
     9
 73
     5
 74
     0
 42
0.000000001
 43
0.00000001
 40
0.0
 40
0.0
 40
0.0
 40
0.0
 40
0.2615560460505784
 40
1.0
 40
1.0
 40
1.0
 40
1.0
 10
17.95514213725428
 20
-184.3022899443339
 30
0.0
 10
18.41741333440407
 20
-184.3800793150717
 30
0.0
 10
20.18480202271751
 20
-184.6774892656825
 30
0.0
 10
21.93625755914995
 20
-184.8905582496313
 30
0.0
 10
23.22960931063971
 20
-185.0478977526024
 30
0.0
  0
SPLINE
  5
77
330
1F
100
AcDbEntity
  8
0
  6
Continuous
 62
     7
370
    25
100
AcDbSpline
210
0.0
220
0.0
230
1.0
 70
    11
 71
     3
 72
    35
 73
    31
 74
     0
 42
0.000000001
 43
0.00000001
 40
0.0
 40
0.0
 40
0.0
 40
0.0
 40
0.0062500000000001
 40
0.0083333333333333
 40
0.0416666666666666
 40
0.0833333333333334
 40
0.125
 40
0.1666666666666666
 40
0.2083333333333334
 40
0.2499999999996538
 40
0.2916666666666666
 40
0.3333333333333334
 40
0.375
 40
0.4166666666666666
 40
0.4583333333333334
 40
0.4999999999999999
 40
0.5416666666666667
 40
0.5833333333333333
 40
0.625
 40
0.6666666666666667
 40
0.7083333333333333
 40
0.7499999999996151
 40
0.7916666666666666
 40
0.8333333333333334
 40
0.875
 40
0.9166666666666666
 40
0.9583333333333334
 40
0.9916666666666667
 40
0.99375
 40
1.0
 40
1.0
 40
1.0
 40
1.0
 10
242.1840725563923
 20
-139.8098891496391
 30
0.0
 10
240.2068051722569
 20
-140.951341314008
 30
0.0
 10
237.4851601392758
 20
-142.4240415181262
 30
0.0
 10
223.3317710723263
 20
-149.4537873175277
 30
0.0
 10
192.9230463804738
 20
-159.8202124070649
 30
0.0
 10
136.5061668894526
 20
-166.3117460252486
 30
0.0
 10
65.76302208116932
 20
-162.0778648397963
 30
0.0
 10
-9.55825521413134
 20
-146.560835237995
 30
0.0
 10
-82.99464628975875
 20
-121.5018819512722
 30
0.0
 10
-152.0240655199167
 20
-87.76162496593516
 30
0.0
 10
-210.4702376434233
 20
-47.91178947196345
 30
0.0
 10
-253.8783212767873
 20
-5.517863284095231
 30
0.0
 10
-280.7575173465313
 20
37.96418455706963
 30
0.0
 10
-288.0916093370861
 20
78.80333276917983
 30
0.0
 10
-276.0435188523876
 20
113.6984448595842
 30
0.0
 10
-245.0270232497474
 20
141.4510896509783
 30
0.0
 10
-196.952823486975
 20
159.3565314343376
 30
0.0
 10
-136.5061668894523
 20
166.3117460252486
 30
0.0
 10
-65.76302208116898
 20
162.0778648397963
 30
0.0
 10
9.558255214131645
 20
146.5608352379948
 30
0.0
 10
82.99464628975902
 20
121.5018819512721
 30
0.0
 10
152.024065519917
 20
87.76162496593513
 30
0.0
 10
210.4702376434235
 20
47.91178947196336
 30
0.0
 10
253.8783212767874
 20
5.517863284095183
 30
0.0
 10
280.7575173465315
 20
-37.96418455706974
 30
0.0
 10
288.0916093370861
 20
-78.80333276917983
 30
0.0
 10
276.846724884701
 20
-111.3721040535573
 30
0.0
 10
258.8896042453459
 20
-128.9266871583559
 30
0.0
 10
246.7124079319073
 20
-137.0972647510717
 30
0.0
 10
244.1613399405275
 20
-138.6684369852703
 30
0.0
 10
242.1840725563923
 20
-139.8098891496391
 30
0.0
  0
SPLINE
  5
78
330
1F
100
AcDbEntity
  8
0
  6
Continuous
 62
     7
370
    25
100
AcDbSpline
210
0.0
220
0.0
230
1.0
 70
    11
 71
     3
 72
    35
 73
    31
 74
     0
 42
0.000000001
 43
0.00000001
 40
0.0
 40
0.0
 40
0.0
 40
0.0
 40
0.0062500000000001
 40
0.0083333333333333
 40
0.0416666666666666
 40
0.0833333333333334
 40
0.125
 40
0.1666666666666666
 40
0.2083333333333334
 40
0.2499999999996538
 40
0.2916666666666666
 40
0.3333333333333334
 40
0.375
 40
0.4166666666666666
 40
0.4583333333333334
 40
0.4999999999999999
 40
0.5416666666666667
 40
0.5833333333333333
 40
0.625
 40
0.6666666666666667
 40
0.7083333333333333
 40
0.7499999999996151
 40
0.7916666666666666
 40
0.8333333333333334
 40
0.875
 40
0.9166666666666666
 40
0.9583333333333334
 40
0.9916666666666667
 40
0.99375
 40
1.0
 40
1.0
 40
1.0
 40
1.0
 10
221.0640468294941
 20
-127.6175578185703
 30
0.0
 10
219.2838369356501
 20
-128.6452511152196
 30
0.0
 10
216.8324229679658
 20
-129.970595412172
 30
0.0
 10
204.0779625325476
 20
-136.2929029885071
 30
0.0
 10
176.6272517472939
 20
-145.582636994538
 30
0.0
 10
125.5849483722791
 20
-151.2588255153999
 30
0.0
 10
61.47292301596823
 20
-147.1483163743668
 30
0.0
 10
-6.903339274532502
 20
-132.7783132657927
 30
0.0
 10
-73.706092003854
 20
-109.7527890903437
 30
0.0
 10
-136.6490074342843
 20
-78.88579286050063
 30
0.0
 10
-190.1180066588309
 20
-42.54962121967283
 30
0.0
 10
-230.0037061002175
 20
-3.985212935548738
 30
0.0
 10
-254.8959787187711
 20
35.48756308309618
 30
0.0
 10
-262.0163609042568
 20
72.49864751821234
 30
0.0
 10
-251.4815263135551
 20
104.0694630913618
 30
0.0
 10
-223.6574060259035
 20
129.1146722156817
 30
0.0
 10
-180.2731305597948
 20
145.1771949573337
 30
0.0
 10
-125.5849483722791
 20
151.2588255154
 30
0.0
 10
-61.47292301596831
 20
147.1483163743669
 30
0.0
 10
6.903339274532295
 20
132.7783132657927
 30
0.0
 10
73.70609200385397
 20
109.7527890903437
 30
0.0
 10
136.6490074342842
 20
78.88579286050071
 30
0.0
 10
190.1180066588307
 20
42.54962121967282
 30
0.0
 10
230.0037061002173
 20
3.98521293554889
 30
0.0
 10
254.8959787187711
 20
-35.48756308309611
 30
0.0
 10
262.0163609042568
 20
-72.49864751821222
 30
0.0
 10
252.1838486196021
 20
-101.9647420531519
 30
0.0
 10
236.0918137268621
 20
-117.8117000774935
 30
0.0
 10
225.1400691392379
 20
-125.1746933611419
 30
0.0
 10
222.8442567233381
 20
-126.589864521921
 30
0.0
 10
221.0640468294941
 20
-127.6175578185703
 30
0.0
  0
SPLINE
  5
79
330
1F
100
AcDbEntity
  8
0
  6
Continuous
 62
     7
370
    25
100
AcDbSpline
210
0.0
220
0.0
230
1.0
 70
     8
 71
     3
 72
    21
 73
    17
 74
     0
 42
0.000000001
 43
0.00000001
 40
0.0
 40
0.0
 40
0.0
 40
0.0
 40
0.0081761065108074
 40
0.0803720745015506
 40
0.1526739222905963
 40
0.2252336288224824
 40
0.3107879379750418
 40
0.3965415599127091
 40
0.4882355013022189
 40
0.5802125458418173
 40
0.6665447338416883
 40
0.7531611886059231
 40
0.8290812317200589
 40
0.9052568805168184
 40
0.9745342831987436
 40
1.0
 40
1.0
 40
1.0
 40
1.0
 10
-97.50862994012188
 20
-147.4127151008217
 30
0.0
 10
-97.15772150931889
 20
-147.5960050834391
 30
0.0
 10
-93.70825096897792
 20
-149.3977668534016
 30
0.0
 10
-86.85673929396495
 20
-152.6247033684225
 30
0.0
 10
-76.9353579925435
 20
-157.0740917062355
 30
0.0
 10
-66.06095018318278
 20
-161.5351738283476
 30
0.0
 10
-54.21554373834984
 20
-165.9712508612294
 30
0.0
 10
-41.05136763365831
 20
-170.3906180710872
 30
0.0
 10
-27.17663312663991
 20
-174.5092599307481
 30
0.0
 10
-12.89380033002452
 20
-178.1821172274123
 30
0.0
 10
1.450023298936315
 20
-181.3238567026079
 30
0.0
 10
15.19825842941156
 20
-183.8196196578384
 30
0.0
 10
28.60132138801302
 20
-185.7774397766006
 30
0.0
 10
41.19870990248996
 20
-187.137348171332
 30
0.0
 10
51.00789348154908
 20
-187.9339189347201
 30
0.0
 10
56.48285321884323
 20
-188.1199944573021
 30
0.0
 10
57.95445110298261
 20
-188.1700091347538
 30
0.0
  0
SPLINE
  5
7A
330
1F
100
AcDbEntity
  8
0
  6
Continuous
 62
     7
370
    25
100
AcDbSpline
210
0.0
220
0.0
230
1.0
 70
    11
 71
     3
 72
    35
 73
    31
 74
     0
 42
0.000000001
 43
0.00000001
 40
0.0
 40
0.0
 40
0.0
 40
0.0
 40
0.0062500000000001
 40
0.0083333333333333
 40
0.0416666666666666
 40
0.0833333333333334
 40
0.125
 40
0.1666666666666666
 40
0.2083333333333334
 40
0.2499999999996538
 40
0.2916666666666666
 40
0.3333333333333334
 40
0.375
 40
0.4166666666666666
 40
0.4583333333333334
 40
0.4999999999999999
 40
0.5416666666666667
 40
0.5833333333333333
 40
0.625
 40
0.6666666666666667
 40
0.7083333333333333
 40
0.7499999999996151
 40
0.7916666666666666
 40
0.8333333333333334
 40
0.875
 40
0.9166666666666666
 40
0.9583333333333334
 40
0.9916666666666667
 40
0.99375
 40
1.0
 40
1.0
 40
1.0
 40
1.0
 10
23.33452377915599
 20
-111.4556312713647
 30
0.0
 10
23.02420512370814
 20
-111.6347744179856
 30
0.0
 10
22.60165605361344
 20
-111.8685570897227
 30
0.0
 10
20.43393413010213
 20
-113.0029656319545
 30
0.0
 10
16.00090673983249
 20
-114.8285649734352
 30
0.0
 10
8.424297023536479
 20
-116.6260890334017
 30
0.0
 10
-0.0000000000001318
 20
-117.2680619119612
 30
0.0
 10
-8.42429702353673
 20
-116.6260890334017
 30
0.0
 10
-16.54209314813957
 20
-114.7001703977232
 30
0.0
 10
-23.627552540186
 20
-111.6247931743948
 30
0.0
 10
-28.95483936605337
 20
-107.5344445328852
 30
0.0
 10
-32.29098977313674
 20
-102.8481405809363
 30
0.0
 10
-33.40303990883117
 20
-97.98489742628983
 30
0.0
 10
-32.29098977313666
 20
-93.12165427164335
 30
0.0
 10
-28.95483936605322
 20
-88.4353503196945
 30
0.0
 10
-23.62755254018578
 20
-84.34500167818501
 30
0.0
 10
-16.54209314813931
 20
-81.2696244548566
 30
0.0
 10
-8.424297023536443
 20
-79.34370581917815
 30
0.0
 10
0.0000000000001631
 20
-78.7017329406187
 30
0.0
 10
8.424297023536756
 20
-79.34370581917818
 30
0.0
 10
16.5420931481396
 20
-81.26962445485665
 30
0.0
 10
23.62755254018603
 20
-84.34500167818516
 30
0.0
 10
28.9548393660534
 20
-88.43535031969465
 30
0.0
 10
32.29098977313677
 20
-93.12165427164352
 30
0.0
 10
33.4030399088312
 20
-97.98489742629
 30
0.0
 10
32.2909897731367
 20
-102.8481405809365
 30
0.0
 10
29.17724939319215
 20
-107.2220242694221
 30
0.0
 10
26.01487592973223
 20
-109.7811565091634
 30
0.0
 10
24.04980977903673
 20
-111.0325557388249
 30
0.0
 10
23.64484243460383
 20
-111.2764881247437
 30
0.0
 10
23.33452377915599
 20
-111.4556312713647
 30
0.0
  0
SPLINE
  5
7B
330
1F
100
AcDbEntity
  8
0
  6
Continuous
 62
     7
370
    25
100
AcDbSpline
210
0.0
220
0.0
230
1.0
 70
     8
 71
     3
 72
    16
 73
    12
 74
     0
 42
0.000000001
 43
0.00000001
 40
0.0
 40
0.0
 40
0.0
 40
0.0
 40
0.0507696617549721
 40
0.1829642148842367
 40
0.3158808629996307
 40
0.4480482050523885
 40
0.5807454694114085
 40
0.7128976026524124
 40
0.8454729165195116
 40
0.951702723409788
 40
1.0
 40
1.0
 40
1.0
 40
1.0
 10
39.17140831296358
 20
-186.8534293942622
 30
0.0
 10
37.06103431766913
 20
-186.6710596196929
 30
0.0
 10
29.45564740324193
 20
-186.0138336018454
 30
0.0
 10
16.55306884495154
 20
-184.2120273858901
 30
0.0
 10
0.62909073070129
 20
-181.4088606692614
 30
0.0
 10
-14.91654024947794
 20
-177.9694490004568
 30
0.0
 10
-30.0094011397078
 20
-173.9890400550089
 30
0.0
 10
-44.67088209654445
 20
-169.4858079543448
 30
0.0
 10
-57.88532759634961
 20
-164.8041424060415
 30
0.0
 10
-67.85024365679318
 20
-160.9322899989263
 30
0.0
 10
-73.00162910407808
 20
-158.6716638625176
 30
0.0
 10
-74.6116891800629
 20
-157.9651075533061
 30
0.0
  0
SPLINE
  5
7C
330
1F
100
AcDbEntity
  8
0
  6
Continuous
 62
     7
370
    25
100
AcDbSpline
210
0.0
220
0.0
230
1.0
 70
     8
 71
     3
 72
    29
 73
    25
 74
     0
 42
0.000000001
 43
0.00000001
 40
0.0
 40
0.0
 40
0.0
 40
0.0
 40
0.0438229901005701
 40
0.0893387940368415
 40
0.1340830480589766
 40
0.1788273020811233
 40
0.2243431060174678
 40
0.2705841772090256
 40
0.3170415240295016
 40
0.3634988708499776
 40
0.4097399420415353
 40
0.4552557459778799
 40
0.5000000000000265
 40
0.5447442540221861
 40
0.5902600579586121
 40
0.6365011291502516
 40
0.6829584759707428
 40
0.7294158227912033
 40
0.7756568939826793
 40
0.8211726979189424
 40
0.8659169519410763
 40
0.910661205963223
 40
0.9561770098995676
 40
1.0
 40
1.0
 40
1.0
 40
1.0
 10
-19.26304294211239
 20
-113.3660823580856
 30
0.0
 10
-19.98766771211037
 20
-112.6450610278804
 30
0.0
 10
-21.46490837807762
 20
-111.1751664367639
 30
0.0
 10
-22.71594543943339
 20
-108.7115071405263
 30
0.0
 10
-23.17230302545624
 20
-106.1512426197193
 30
0.0
 10
-22.72498708931543
 20
-103.5853233344879
 30
0.0
 10
-21.40520617216991
 20
-101.0945834610998
 30
0.0
 10
-19.27194159743846
 20
-98.76279390953889
 30
0.0
 10
-16.3782419103581
 20
-96.69536102534276
 30
0.0
 10
-12.79689530442466
 20
-95.02481869764826
 30
0.0
 10
-8.757839101111516
 20
-93.79345556439692
 30
0.0
 10
-4.442717628354319
 20
-93.03104124785794
 30
0.0
 10
0.000000000000569
 20
-92.77471600246186
 30
0.0
 10
4.442717628358154
 20
-93.03104124785831
 30
0.0
 10
8.757839101120458
 20
-93.79345556439918
 30
0.0
 10
12.79689530443881
 20
-95.02481869765214
 30
0.0
 10
16.37824191037113
 20
-96.69536102535027
 30
0.0
 10
19.27194159744533
 20
-98.76279390954706
 30
0.0
 10
21.40520617217371
 20
-101.0945834611049
 30
0.0
 10
22.72498708931615
 20
-103.5853233344901
 30
0.0
 10
23.17230302545633
 20
-106.15124261972
 30
0.0
 10
22.71594543943264
 20
-108.7115071405282
 30
0.0
 10
21.46490837807692
 20
-111.175166436765
 30
0.0
 10
19.98766771211021
 20
-112.6450610278801
 30
0.0
 10
19.26304294211427
 20
-113.366082358083
 30
0.0
  0
SPLINE
  5
7D
330
1F
100
AcDbEntity
  8
0
  6
Continuous
 62
     7
370
    25
100
AcDbSpline
210
0.0
220
0.0
230
1.0
 70
     8
 71
     3
 72
    19
 73
    15
 74
     0
 42
0.000000001
 43
0.00000001
 40
0.0
 40
0.0
 40
0.0
 40
0.0
 40
0.04757017031155
 40
0.1391884782994581
 40
0.2308067862873661
 40
0.3219985781580907
 40
0.4117600739979543
 40
0.5000000000000012
 40
0.5882399260020734
 40
0.6780014218420978
 40
0.7691932137129838
 40
0.8608115217009221
 40
0.9524298296887999
 40
1.0
 40
1.0
 40
1.0
 40
1.0
 10
-20.26296025303916
 20
-112.2743616342905
 30
0.0
 10
-19.91196802691067
 20
-111.8632034308954
 30
0.0
 10
-18.88497834977045
 20
-110.6601704315157
 30
0.0
 10
-16.35368779043042
 20
-108.95090944505
 30
0.0
 10
-12.80344194284766
 20
-107.2709468534443
 30
0.0
 10
-8.75612627895724
 20
-106.0420918717688
 30
0.0
 10
-4.44313460267818
 20
-105.2790073918911
 30
0.0
 10
0.0000000000005586
 20
-105.0229005737186
 30
0.0
 10
4.443134602682028
 20
-105.2790073918915
 30
0.0
 10
8.756126278966166
 20
-106.0420918717709
 30
0.0
 10
12.80344194286186
 20
-107.2709468534482
 30
0.0
 10
16.35368779044335
 20
-108.9509094450574
 30
0.0
 10
18.8849783497761
 20
-110.6601704315221
 30
0.0
 10
19.91196802691336
 20
-111.8632034308985
 30
0.0
 10
20.2629602530392
 20
-112.2743616342906
 30
0.0
  0
SPLINE
  5
7E
330
1B
100
AcDbEntity
 67
     1
  8
0
  6
Continuous
 62
     7
370
    25
100
AcDbSpline
210
0.0
220
0.0
230
1.0
 70
    11
 71
     3
 72
    35
 73
    31
 74
     0
 42
0.000000001
 43
0.00000001
 40
0.0
 40
0.0
 40
0.0
 40
0.0
 40
0.0062500000000001
 40
0.0083333333333333
 40
0.0416666666666666
 40
0.0833333333333334
 40
0.125
 40
0.1666666666666666
 40
0.2083333333333334
 40
0.2499999999996538
 40
0.2916666666666666
 40
0.3333333333333334
 40
0.375
 40
0.4166666666666666
 40
0.4583333333333334
 40
0.4999999999999999
 40
0.5416666666666667
 40
0.5833333333333333
 40
0.625
 40
0.6666666666666667
 40
0.7083333333333333
 40
0.7499999999996151
 40
0.7916666666666666
 40
0.8333333333333334
 40
0.875
 40
0.9166666666666666
 40
0.9583333333333334
 40
0.9916666666666667
 40
0.99375
 40
1.0
 40
1.0
 40
1.0
 40
1.0
 10
312.631773179352
 20
0.0000000000001444
 30
0.0
 10
312.6317731793521
 20
-2.517596975744907
 30
0.0
 10
312.5217462669221
 20
-5.874392943404913
 30
0.0
 10
311.2470336663949
 20
-22.63721127139708
 30
0.0
 10
303.2152369174988
 20
-53.42658201178815
 30
0.0
 10
274.075514186225
 20
-96.47157696822228
 30
0.0
 10
223.7065957731777
 20
-136.7707543252776
 30
0.0
 10
157.7557822676516
 20
-167.5185782953577
 30
0.0
 10
82.31565426344807
 20
-186.551809204817
 30
0.0
 10
0.0000000000032413
 20
-193.2508795983896
 30
0.0
 10
-82.31565426344167
 20
-186.5518092048152
 30
0.0
 10
-157.7557822676434
 20
-167.5185782953595
 30
0.0
 10
-223.7065957731709
 20
-136.7707543252791
 30
0.0
 10
-274.0755141862206
 20
-96.47157696822333
 30
0.0
 10
-305.296645684016
 20
-50.35193951490042
 30
0.0
 10
-316.2993369270193
 20
0.0000000000000797
 30
0.0
 10
-305.2966456840184
 20
50.35193951490022
 30
0.0
 10
-274.0755141862251
 20
96.47157696822235
 30
0.0
 10
-223.7065957731778
 20
136.7707543252775
 30
0.0
 10
-157.7557822676517
 20
167.5185782953575
 30
0.0
 10
-82.31565426344812
 20
186.551809204817
 30
0.0
 10
-0.0000000000033519
 20
193.2508795983896
 30
0.0
 10
82.31565426344159
 20
186.551809204815
 30
0.0
 10
157.7557822676431
 20
167.5185782953596
 30
0.0
 10
223.7065957731709
 20
136.7707543252791
 30
0.0
 10
274.0755141862205
 20
96.4715769682234
 30
0.0
 10
303.2152369174965
 20
53.4265820117887
 30
0.0
 10
311.2470336663939
 20
22.63721127139737
 30
0.0
 10
312.5217462669219
 20
5.87439294340516
 30
0.0
 10
312.631773179352
 20
2.517596975745151
 30
0.0
 10
312.631773179352
 20
0.0000000000001444
 30
0.0
  0
SPLINE
  5
7F
330
1B
100
AcDbEntity
 67
     1
  8
0
  6
Continuous
 62
     7
370
    25
100
AcDbSpline
210
0.0
220
0.0
230
1.0
 70
    11
 71
     3
 72
    35
 73
    31
 74
     0
 42
0.000000001
 43
0.00000001
 40
0.0
 40
0.0
 40
0.0
 40
0.0
 40
0.0062500000000001
 40
0.0083333333333333
 40
0.0416666666666666
 40
0.0833333333333334
 40
0.125
 40
0.1666666666666666
 40
0.2083333333333334
 40
0.2499999999996538
 40
0.2916666666666666
 40
0.3333333333333334
 40
0.375
 40
0.4166666666666666
 40
0.4583333333333334
 40
0.4999999999999999
 40
0.5416666666666667
 40
0.5833333333333333
 40
0.625
 40
0.6666666666666667
 40
0.7083333333333333
 40
0.7499999999996151
 40
0.7916666666666666
 40
0.8333333333333334
 40
0.875
 40
0.9166666666666666
 40
0.9583333333333334
 40
0.9916666666666667
 40
0.99375
 40
1.0
 40
1.0
 40
1.0
 40
1.0
 10
32.99999999999994
 20
-0.0000000000000027
 30
0.0
 10
32.99999999999994
 20
-0.4388568511917368
 30
0.0
 10
32.98756784255953
 20
-1.023999319447372
 30
0.0
 10
32.84426857135487
 20
-3.946321791925899
 30
0.0
 10
31.94578056316637
 20
-9.317081241428122
 30
0.0
 10
28.79005539188271
 20
-16.87630028773804
 30
0.0
 10
23.61951603177929
 20
-23.61951603177939
 30
0.0
 10
16.87630028773792
 20
-28.79005539188277
 30
0.0
 10
8.777137023834415
 20
-32.17118950397236
 30
0.0
 10
-0.0000000000001448
 20
-33.41440524801371
 30
0.0
 10
-8.777137023834696
 20
-32.17118950397232
 30
0.0
 10
-16.87630028773818
 20
-28.79005539188269
 30
0.0
 10
-23.61951603177953
 20
-23.61951603177926
 30
0.0
 10
-28.79005539188292
 20
-16.87630028773788
 30
0.0
 10
-32.17118950397251
 20
-8.777137023834385
 30
0.0
 10
-33.41440524801385
 20
0.0000000000001795
 30
0.0
 10
-32.17118950397246
 20
8.777137023834722
 30
0.0
 10
-28.79005539188282
 20
16.8763002877382
 30
0.0
 10
-23.6195160317794
 20
23.61951603177954
 30
0.0
 10
-16.87630028773803
 20
28.79005539188292
 30
0.0
 10
-8.77713702383453
 20
32.17118950397253
 30
0.0
 10
0.0000000000000199
 20
33.41440524801388
 30
0.0
 10
8.777137023834577
 20
32.17118950397249
 30
0.0
 10
16.87630028773806
 20
28.79005539188285
 30
0.0
 10
23.6195160317794
 20
23.61951603177943
 30
0.0
 10
28.79005539188279
 20
16.87630028773806
 30
0.0
 10
31.94578056316642
 20
9.317081241428118
 30
0.0
 10
32.84426857135487
 20
3.946321791925886
 30
0.0
 10
32.98756784255953
 20
1.023999319447359
 30
0.0
 10
32.99999999999994
 20
0.4388568511917236
 30
0.0
 10
32.99999999999994
 20
-0.0000000000000027
 30
0.0
  0
SPLINE
  5
80
330
1B
100
AcDbEntity
 67
     1
  8
0
  6
Continuous
 62
     7
370
    25
100
AcDbSpline
210
0.0
220
0.0
230
1.0
 70
    11
 71
     3
 72
    35
 73
    31
 74
     0
 42
0.000000001
 43
0.00000001
 40
0.0
 40
0.0
 40
0.0
 40
0.0
 40
0.0062500000000001
 40
0.0083333333333333
 40
0.0416666666666666
 40
0.0833333333333334
 40
0.125
 40
0.1666666666666666
 40
0.2083333333333334
 40
0.2499999999996538
 40
0.2916666666666666
 40
0.3333333333333334
 40
0.375
 40
0.4166666666666666
 40
0.4583333333333334
 40
0.4999999999999999
 40
0.5416666666666667
 40
0.5833333333333333
 40
0.625
 40
0.6666666666666667
 40
0.7083333333333333
 40
0.7499999999996151
 40
0.7916666666666666
 40
0.8333333333333334
 40
0.875
 40
0.9166666666666666
 40
0.9583333333333334
 40
0.9916666666666667
 40
0.99375
 40
1.0
 40
1.0
 40
1.0
 40
1.0
 10
342.5000000000001
 20
0.0000000000001505
 30
0.0
 10
342.5000000000001
 20
-2.79627835108201
 30
0.0
 10
342.379383817169
 20
-6.524649485858157
 30
0.0
 10
340.9820045202297
 20
-25.14318496094193
 30
0.0
 10
332.1773908580587
 20
-59.34300217245835
 30
0.0
 10
300.2359668465141
 20
-107.1870942838844
 30
0.0
 10
245.0270232497481
 20
-152.0240655199164
 30
0.0
 10
172.7603754928497
 20
-186.2777896492969
 30
0.0
 10
90.13885508194167
 20
-207.5110094692758
 30
0.0
 10
0.0000000000001483
 20
-214.994495265362
 30
0.0
 10
-90.13885508194133
 20
-207.511009469276
 30
0.0
 10
-172.7603754928494
 20
-186.2777896492971
 30
0.0
 10
-245.0270232497477
 20
-152.0240655199166
 30
0.0
 10
-300.2359668465142
 20
-107.1870942838847
 30
0.0
 10
-334.4589211445978
 20
-55.92556702164246
 30
0.0
 10
-346.5205394277012
 20
0.0000000000000301
 30
0.0
 10
-334.4589211445976
 20
55.92556702164251
 30
0.0
 10
-300.235966846514
 20
107.1870942838847
 30
0.0
 10
-245.0270232497478
 20
152.0240655199166
 30
0.0
 10
-172.7603754928494
 20
186.2777896492971
 30
0.0
 10
-90.1388550819414
 20
207.511009469276
 30
0.0
 10
0.000000000000098
 20
214.9944952653622
 30
0.0
 10
90.1388550819416
 20
207.511009469276
 30
0.0
 10
172.7603754928496
 20
186.2777896492971
 30
0.0
 10
245.027023249748
 20
152.0240655199165
 30
0.0
 10
300.2359668465142
 20
107.1870942838848
 30
0.0
 10
332.177390858059
 20
59.34300217245866
 30
0.0
 10
340.9820045202297
 20
25.14318496094219
 30
0.0
 10
342.379383817169
 20
6.524649485858409
 30
0.0
 10
342.5000000000001
 20
2.796278351082261
 30
0.0
 10
342.5000000000001
 20
0.0000000000001505
 30
0.0
  0
SPLINE
  5
81
330
1B
100
AcDbEntity
 67
     1
  8
0
  6
Continuous
 62
     7
370
    25
100
AcDbSpline
210
0.0
220
0.0
230
1.0
 70
    11
 71
     3
 72
    35
 73
    31
 74
     0
 42
0.000000001
 43
0.00000001
 40
0.0
 40
0.0
 40
0.0
 40
0.0
 40
0.0062500000000001
 40
0.0083333333333333
 40
0.0416666666666666
 40
0.0833333333333334
 40
0.125
 40
0.1666666666666666
 40
0.2083333333333334
 40
0.2499999999996538
 40
0.2916666666666666
 40
0.3333333333333334
 40
0.375
 40
0.4166666666666666
 40
0.4583333333333334
 40
0.4999999999999999
 40
0.5416666666666667
 40
0.5833333333333333
 40
0.625
 40
0.6666666666666667
 40
0.7083333333333333
 40
0.7499999999996151
 40
0.7916666666666666
 40
0.8333333333333334
 40
0.875
 40
0.9166666666666666
 40
0.9583333333333334
 40
0.9916666666666667
 40
0.99375
 40
1.0
 40
1.0
 40
1.0
 40
1.0
 10
22.99999999999994
 20
-0.0000000000000022
 30
0.0
 10
22.99999999999994
 20
-0.3058699265881806
 30
0.0
 10
22.99133516299601
 20
-0.713696495372411
 30
0.0
 10
22.89145991336851
 20
-2.750466703463506
 30
0.0
 10
22.26524099857048
 20
-6.493723289480204
 30
0.0
 10
20.06579618222126
 20
-11.76226989751439
 30
0.0
 10
16.46208693124008
 20
-16.46208693124017
 30
0.0
 10
11.76226989751427
 20
-20.06579618222131
 30
0.0
 10
6.117398531763338
 20
-22.4223441997383
 30
0.0
 10
-0.0000000000001435
 20
-23.28882790013073
 30
0.0
 10
-6.117398531763618
 20
-22.42234419973825
 30
0.0
 10
-11.76226989751453
 20
-20.06579618222122
 30
0.0
 10
-16.46208693124031
 20
-16.46208693124005
 30
0.0
 10
-20.06579618222145
 20
-11.76226989751424
 30
0.0
 10
-22.42234419973844
 20
-6.117398531763309
 30
0.0
 10
-23.28882790013088
 20
0.0000000000001789
 30
0.0
 10
-22.42234419973839
 20
6.117398531763646
 30
0.0
 10
-20.06579618222136
 20
11.76226989751455
 30
0.0
 10
-16.46208693124019
 20
16.46208693124034
 30
0.0
 10
-11.76226989751438
 20
20.06579618222148
 30
0.0
 10
-6.117398531763454
 20
22.42234419973846
 30
0.0
 10
0.0000000000000208
 20
23.2888279001309
 30
0.0
 10
6.1173985317635
 20
22.42234419973842
 30
0.0
 10
11.76226989751441
 20
20.06579618222139
 30
0.0
 10
16.4620869312402
 20
16.46208693124022
 30
0.0
 10
20.06579618222134
 20
11.76226989751441
 30
0.0
 10
22.26524099857052
 20
6.493723289480205
 30
0.0
 10
22.89145991336856
 20
2.750466703463496
 30
0.0
 10
22.99133516299603
 20
0.7136964953724011
 30
0.0
 10
22.99999999999994
 20
0.3058699265881706
 30
0.0
 10
22.99999999999994
 20
-0.0000000000000022
 30
0.0
  0
VIEWPORT
  5
125
330
1B
100
AcDbEntity
 67
     1
  8
0
100
AcDbViewport
 10
0.0
 20
0.0
 30
0.0
 40
205.6
 41
156.0
 68
     1
 69
     1
 12
0.0
 22
-12.0504288426
 13
0.0
 23
0.0
 14
10.0
 24
10.0
 15
10.0
 25
10.0
 16
0.0
 26
0.0
 36
1.0
 17
0.0
 27
0.0
 37
0.0
 42
50.0
 43
0.0
 44
0.0
 45
440.8991966491
 50
0.0
 51
0.0
 72
   100
 90
   557152
  1

281
     0
 71
     1
 74
     0
110
0.0
120
0.0
130
0.0
111
1.0
121
0.0
131
0.0
112
0.0
122
1.0
132
0.0
 79
     0
146
0.0
170
     0
 61
     5
348
2F
292
     1
282
     1
141
0.0
142
0.0
 63
   256
361
126
  0
ENDSEC
  0
SECTION
  2
OBJECTS
  0
DICTIONARY
  5
C
330
0
100
AcDbDictionary
281
     1
  3
ACAD_DETAILVIEWSTYLE
350
141
  3
ACAD_GROUP
350
D
  3
ACAD_LAYOUT
350
1A
  3
ACAD_MATERIAL
350
43
  3
ACAD_MLEADERSTYLE
350
6B
  3
ACAD_MLINESTYLE
350
17
  3
ACAD_PLOTSETTINGS
350
19
  3
ACAD_PLOTSTYLENAME
350
E
  3
ACAD_SCALELIST
350
47
  3
ACAD_SECTIONVIEWSTYLE
350
142
  3
ACAD_TABLESTYLE
350
69
  3
ACAD_VISUALSTYLE
350
2A
  3
ACDB_RECOMPOSE_DATA
350
13E
  3
AcDbVariableDictionary
350
139
  0
SUN
  5
6D
330
29
100
AcDbSun
 90
        1
290
     0
 63
     7
421
 16777215
 40
1.0
291
     1
 91
  2455826
 92
 54000000
292
     0
 70
     2
 71
   256
280
     1
  0
SUN
  5
128
330
127
100
AcDbSun
 90
        1
290
     0
 63
     7
421
 16777215
 40
1.0
291
     1
 91
  2455826
 92
 54000000
292
     0
 70
     2
 71
   256
280
     1
  0
SUN
  5
12A
330
129
100
AcDbSun
 90
        1
290
     0
 63
     7
421
 16777215
 40
1.0
291
     1
 91
  2455826
 92
 54000000
292
     0
 70
     2
 71
   256
280
     1
  0
SUN
  5
12C
330
12B
100
AcDbSun
 90
        1
290
     0
 63
     7
421
 16777215
 40
1.0
291
     1
 91
  2455826
 92
 54000000
292
     0
 70
     2
 71
   256
280
     1
  0
SUN
  5
12E
330
12D
100
AcDbSun
 90
        1
290
     0
 63
     7
421
 16777215
 40
1.0
291
     1
 91
  2455826
 92
 54000000
292
     0
 70
     2
 71
   256
280
     1
  0
SUN
  5
130
330
12F
100
AcDbSun
 90
        1
290
     0
 63
     7
421
 16777215
 40
1.0
291
     1
 91
  2455826
 92
 54000000
292
     0
 70
     2
 71
   256
280
     1
  0
SUN
  5
132
330
131
100
AcDbSun
 90
        1
290
     0
 63
     7
421
 16777215
 40
1.0
291
     1
 91
  2455826
 92
 54000000
292
     0
 70
     2
 71
   256
280
     1
  0
SUN
  5
134
330
133
100
AcDbSun
 90
        1
290
     0
 63
     7
421
 16777215
 40
1.0
291
     1
 91
  2455826
 92
 54000000
292
     0
 70
     2
 71
   256
280
     1
  0
SUN
  5
136
330
135
100
AcDbSun
 90
        1
290
     0
 63
     7
421
 16777215
 40
1.0
291
     1
 91
  2455826
 92
 54000000
292
     0
 70
     2
 71
   256
280
     1
  0
SUN
  5
138
330
137
100
AcDbSun
 90
        1
290
     0
 63
     7
421
 16777215
 40
1.0
291
     1
 91
  2455826
 92
 54000000
292
     0
 70
     2
 71
   256
280
     1
  0
SUN
  5
126
330
125
100
AcDbSun
 90
        1
290
     0
 63
     7
421
 16777215
 40
1.0
291
     1
 91
  2455826
 92
 54000000
292
     0
 70
     2
 71
   256
280
     1
  0
DICTIONARY
  5
141
102
{ACAD_REACTORS
330
C
102
}
330
C
100
AcDbDictionary
281
     1
  0
DICTIONARY
  5
D
102
{ACAD_REACTORS
330
C
102
}
330
C
100
AcDbDictionary
281
     1
  0
DICTIONARY
  5
1A
102
{ACAD_REACTORS
330
C
102
}
330
C
100
AcDbDictionary
281
     1
  3
_Dimetrisch
350
119
  3
_Isometrisch
350
FD
  3
_Links
350
94
  3
_Normal auf
350
A9
  3
_Oben
350
1E
  3
_Rechts
350
D6
  3
_Rückseite
350
BE
  3
_Trimetrisch
350
10C
  3
_Unten
350
F3
  3
_Vorderseite
350
26
  3
Model
350
22
  0
DICTIONARY
  5
43
102
{ACAD_REACTORS
330
C
102
}
330
C
100
AcDbDictionary
281
     1
  3
ByBlock
350
45
  3
ByLayer
350
44
  3
Global
350
46
  0
DICTIONARY
  5
6B
102
{ACAD_REACTORS
330
C
102
}
330
C
100
AcDbDictionary
281
     1
  3
Standard
350
6C
  0
DICTIONARY
  5
17
102
{ACAD_REACTORS
330
C
102
}
330
C
100
AcDbDictionary
281
     1
  3
Standard
350
18
  0
DICTIONARY
  5
19
102
{ACAD_REACTORS
330
C
102
}
330
C
100
AcDbDictionary
281
     1
  0
ACDBDICTIONARYWDFLT
  5
E
102
{ACAD_REACTORS
330
C
102
}
330
C
100
AcDbDictionary
281
     1
  3
Normal
350
F
100
AcDbDictionaryWithDefault
340
F
  0
DICTIONARY
  5
47
102
{ACAD_REACTORS
330
C
102
}
330
C
100
AcDbDictionary
281
     1
  3
A0
350
48
  3
A1
350
49
  3
A2
350
4A
  3
A3
350
4B
  3
A4
350
4C
  3
A5
350
4D
  3
A6
350
4E
  3
A7
350
4F
  3
A8
350
50
  3
A9
350
51
  3
B0
350
52
  3
B1
350
53
  3
B2
350
54
  3
B3
350
55
  3
B4
350
56
  3
B5
350
57
  3
B6
350
58
  3
B7
350
59
  3
B8
350
5A
  3
B9
350
5B
  3
C0
350
5C
  3
C1
350
5D
  3
C2
350
5E
  3
C3
350
5F
  3
C4
350
60
  3
C5
350
61
  3
C6
350
62
  3
C7
350
63
  3
C8
350
64
  3
C9
350
65
  3
D0
350
66
  3
D1
350
67
  3
D2
350
68
  0
DICTIONARY
  5
142
102
{ACAD_REACTORS
330
C
102
}
330
C
100
AcDbDictionary
281
     1
  0
DICTIONARY
  5
69
102
{ACAD_REACTORS
330
C
102
}
330
C
100
AcDbDictionary
281
     1
  3
Standard
350
6A
  0
DICTIONARY
  5
2A
102
{ACAD_REACTORS
330
C
102
}
330
C
100
AcDbDictionary
281
     1
  3
2dWireframe
350
2F
  3
Basic
350
32
  3
Brighten
350
36
  3
ColorChange
350
3A
  3
Conceptual
350
34
  3
Dim
350
35
  3
EdgeColorOff
350
3D
  3
Facepattern
350
39
  3
Flat
350
2B
  3
FlatWithEdges
350
2C
  3
Gouraud
350
2D
  3
GouraudWithEdges
350
2E
  3
Hidden
350
31
  3
JitterOff
350
3B
  3
Linepattern
350
38
  3
OverhangOff
350
3C
  3
Realistic
350
33
  3
Shaded
350
42
  3
Shaded with edges
350
41
  3
Shades of Gray
350
3E
  3
Sketchy
350
3F
  3
Thicken
350
37
  3
Wireframe
350
30
  3
X-Ray
350
40
  0
XRECORD
  5
13E
102
{ACAD_REACTORS
330
C
102
}
330
C
100
AcDbXrecord
280
     1
 90
        1
330
6A
  0
DICTIONARY
  5
139
102
{ACAD_REACTORS
330
C
102
}
330
C
100
AcDbDictionary
281
     1
  3
CANNOSCALE
350
13A
  3
CMLEADERSTYLE
350
140
  3
CTABLESTYLE
350
13F
  0
LAYOUT
  5
119
102
{ACAD_REACTORS
330
1A
102
}
330
1A
100
AcDbPlotSettings
  1

  2
none_device
  4
ISO_A4_(210.00_x_297.00_MM)
  6

 40
7.5
 41
20.0
 42
7.5
 43
20.0
 44
210.0
 45
297.0
 46
0.0
 47
0.0
 48
0.0
 49
0.0
140
0.0
141
0.0
142
1.0
143
2.6653696498
 70
   688
 72
     1
 73
     1
 74
     1
  7

 75
     0
 76
     0
 77
     2
 78
   300
147
0.3751824818
148
342.5
149
212.5
100
AcDbLayout
  1
_Dimetrisch
 70
     1
 71
    10
 10
0.0
 20
0.0
 11
0.0
 21
0.0
 12
0.0
 22
0.0
 32
0.0
 14
0.0
 24
0.0
 34
0.0
 15
0.0
 25
0.0
 35
0.0
146
0.0
 13
0.0
 23
0.0
 33
0.0
 16
1.0
 26
0.0
 36
0.0
 17
0.0
 27
1.0
 37
0.0
 76
     0
330
118
331
137
  0
LAYOUT
  5
FD
102
{ACAD_REACTORS
330
1A
102
}
330
1A
100
AcDbPlotSettings
  1

  2
none_device
  4
ISO_A4_(210.00_x_297.00_MM)
  6

 40
7.5
 41
20.0
 42
7.5
 43
20.0
 44
210.0
 45
297.0
 46
0.0
 47
0.0
 48
0.0
 49
0.0
140
0.0
141
0.0
142
1.0
143
2.6653696498
 70
   688
 72
     1
 73
     1
 74
     1
  7

 75
     0
 76
     0
 77
     2
 78
   300
147
0.3751824818
148
342.5
149
212.5
100
AcDbLayout
  1
_Isometrisch
 70
     1
 71
     8
 10
0.0
 20
0.0
 11
0.0
 21
0.0
 12
0.0
 22
0.0
 32
0.0
 14
0.0
 24
0.0
 34
0.0
 15
0.0
 25
0.0
 35
0.0
146
0.0
 13
0.0
 23
0.0
 33
0.0
 16
1.0
 26
0.0
 36
0.0
 17
0.0
 27
1.0
 37
0.0
 76
     0
330
FC
331
133
  0
LAYOUT
  5
94
102
{ACAD_REACTORS
330
1A
102
}
330
1A
100
AcDbPlotSettings
  1

  2
none_device
  4
ISO_A4_(210.00_x_297.00_MM)
  6

 40
7.5
 41
20.0
 42
7.5
 43
20.0
 44
210.0
 45
297.0
 46
0.0
 47
0.0
 48
0.0
 49
0.0
140
0.0
141
0.0
142
1.0
143
2.6653696498
 70
   688
 72
     1
 73
     1
 74
     1
  7

 75
     0
 76
     0
 77
     2
 78
   300
147
0.3751824818
148
342.5
149
212.5
100
AcDbLayout
  1
_Links
 70
     1
 71
     3
 10
0.0
 20
0.0
 11
0.0
 21
0.0
 12
0.0
 22
0.0
 32
0.0
 14
0.0
 24
0.0
 34
0.0
 15
0.0
 25
0.0
 35
0.0
146
0.0
 13
0.0
 23
0.0
 33
0.0
 16
1.0
 26
0.0
 36
0.0
 17
0.0
 27
1.0
 37
0.0
 76
     0
330
93
331
129
  0
LAYOUT
  5
A9
102
{ACAD_REACTORS
330
1A
102
}
330
1A
100
AcDbPlotSettings
  1

  2
none_device
  4
ISO_A4_(210.00_x_297.00_MM)
  6

 40
7.5
 41
20.0
 42
7.5
 43
20.0
 44
210.0
 45
297.0
 46
0.0
 47
0.0
 48
0.0
 49
0.0
140
0.0
141
0.0
142
1.0
143
2.6653696498
 70
   688
 72
     1
 73
     1
 74
     1
  7

 75
     0
 76
     0
 77
     2
 78
   300
147
0.3751824818
148
342.5
149
212.5
100
AcDbLayout
  1
_Normal auf
 70
     1
 71
     4
 10
0.0
 20
0.0
 11
0.0
 21
0.0
 12
0.0
 22
0.0
 32
0.0
 14
0.0
 24
0.0
 34
0.0
 15
0.0
 25
0.0
 35
0.0
146
0.0
 13
0.0
 23
0.0
 33
0.0
 16
1.0
 26
0.0
 36
0.0
 17
0.0
 27
1.0
 37
0.0
 76
     0
330
A8
331
12B
  0
LAYOUT
  5
1E
102
{ACAD_REACTORS
330
1A
102
}
330
1A
100
AcDbPlotSettings
  1

  2
none_device
  4
ISO_A4_(210.00_x_297.00_MM)
  6

 40
7.5
 41
20.0
 42
7.5
 43
20.0
 44
210.0
 45
297.0
 46
0.0
 47
0.0
 48
0.0
 49
0.0
140
0.0
141
0.0
142
1.0
143
2.6653696498
 70
   688
 72
     1
 73
     1
 74
     1
  7

 75
     0
 76
     0
 77
     2
 78
   300
147
0.3751824818
148
342.5
149
212.5
100
AcDbLayout
  1
_Oben
 70
     1
 71
     1
 10
-395.8073929961
 20
-232.4902723735
 11
395.8073929961
 21
327.2373540856
 12
0.0
 22
0.0
 32
0.0
 14
-342.5
 24
-212.5
 34
0.0
 15
342.5
 25
212.5
 35
0.0
146
0.0
 13
0.0
 23
0.0
 33
0.0
 16
1.0
 26
0.0
 36
0.0
 17
0.0
 27
1.0
 37
0.0
 76
     0
330
1B
331
125
  0
LAYOUT
  5
D6
102
{ACAD_REACTORS
330
1A
102
}
330
1A
100
AcDbPlotSettings
  1

  2
none_device
  4
ISO_A4_(210.00_x_297.00_MM)
  6

 40
7.5
 41
20.0
 42
7.5
 43
20.0
 44
210.0
 45
297.0
 46
0.0
 47
0.0
 48
0.0
 49
0.0
140
0.0
141
0.0
142
1.0
143
2.6653696498
 70
   688
 72
     1
 73
     1
 74
     1
  7

 75
     0
 76
     0
 77
     2
 78
   300
147
0.3751824818
148
342.5
149
212.5
100
AcDbLayout
  1
_Rechts
 70
     1
 71
     6
 10
0.0
 20
0.0
 11
0.0
 21
0.0
 12
0.0
 22
0.0
 32
0.0
 14
0.0
 24
0.0
 34
0.0
 15
0.0
 25
0.0
 35
0.0
146
0.0
 13
0.0
 23
0.0
 33
0.0
 16
1.0
 26
0.0
 36
0.0
 17
0.0
 27
1.0
 37
0.0
 76
     0
330
D5
331
12F
  0
LAYOUT
  5
BE
102
{ACAD_REACTORS
330
1A
102
}
330
1A
100
AcDbPlotSettings
  1

  2
none_device
  4
ISO_A4_(210.00_x_297.00_MM)
  6

 40
7.5
 41
20.0
 42
7.5
 43
20.0
 44
210.0
 45
297.0
 46
0.0
 47
0.0
 48
0.0
 49
0.0
140
0.0
141
0.0
142
1.0
143
2.6653696498
 70
   688
 72
     1
 73
     1
 74
     1
  7

 75
     0
 76
     0
 77
     2
 78
   300
147
0.3751824818
148
342.5
149
212.5
100
AcDbLayout
  1
_Rückseite
 70
     1
 71
     5
 10
0.0
 20
0.0
 11
0.0
 21
0.0
 12
0.0
 22
0.0
 32
0.0
 14
0.0
 24
0.0
 34
0.0
 15
0.0
 25
0.0
 35
0.0
146
0.0
 13
0.0
 23
0.0
 33
0.0
 16
1.0
 26
0.0
 36
0.0
 17
0.0
 27
1.0
 37
0.0
 76
     0
330
BD
331
12D
  0
LAYOUT
  5
10C
102
{ACAD_REACTORS
330
1A
102
}
330
1A
100
AcDbPlotSettings
  1

  2
none_device
  4
ISO_A4_(210.00_x_297.00_MM)
  6

 40
7.5
 41
20.0
 42
7.5
 43
20.0
 44
210.0
 45
297.0
 46
0.0
 47
0.0
 48
0.0
 49
0.0
140
0.0
141
0.0
142
1.0
143
2.6653696498
 70
   688
 72
     1
 73
     1
 74
     1
  7

 75
     0
 76
     0
 77
     2
 78
   300
147
0.3751824818
148
342.5
149
212.5
100
AcDbLayout
  1
_Trimetrisch
 70
     1
 71
     9
 10
0.0
 20
0.0
 11
0.0
 21
0.0
 12
0.0
 22
0.0
 32
0.0
 14
0.0
 24
0.0
 34
0.0
 15
0.0
 25
0.0
 35
0.0
146
0.0
 13
0.0
 23
0.0
 33
0.0
 16
1.0
 26
0.0
 36
0.0
 17
0.0
 27
1.0
 37
0.0
 76
     0
330
10B
331
135
  0
LAYOUT
  5
F3
102
{ACAD_REACTORS
330
1A
102
}
330
1A
100
AcDbPlotSettings
  1

  2
none_device
  4
ISO_A4_(210.00_x_297.00_MM)
  6

 40
7.5
 41
20.0
 42
7.5
 43
20.0
 44
210.0
 45
297.0
 46
0.0
 47
0.0
 48
0.0
 49
0.0
140
0.0
141
0.0
142
1.0
143
2.6653696498
 70
   688
 72
     1
 73
     1
 74
     1
  7

 75
     0
 76
     0
 77
     2
 78
   300
147
0.3751824818
148
342.5
149
212.5
100
AcDbLayout
  1
_Unten
 70
     1
 71
     7
 10
0.0
 20
0.0
 11
0.0
 21
0.0
 12
0.0
 22
0.0
 32
0.0
 14
0.0
 24
0.0
 34
0.0
 15
0.0
 25
0.0
 35
0.0
146
0.0
 13
0.0
 23
0.0
 33
0.0
 16
1.0
 26
0.0
 36
0.0
 17
0.0
 27
1.0
 37
0.0
 76
     0
330
F2
331
131
  0
LAYOUT
  5
26
102
{ACAD_REACTORS
330
1A
102
}
330
1A
100
AcDbPlotSettings
  1

  2
none_device
  4
ISO_A4_(210.00_x_297.00_MM)
  6

 40
7.5
 41
20.0
 42
7.5
 43
20.0
 44
210.0
 45
297.0
 46
0.0
 47
0.0
 48
0.0
 49
0.0
140
0.0
141
0.0
142
1.0
143
2.6653696498
 70
   688
 72
     1
 73
     1
 74
     1
  7

 75
     0
 76
     0
 77
     2
 78
   300
147
0.3751824818
148
342.5
149
212.5
100
AcDbLayout
  1
_Vorderseite
 70
     1
 71
     2
 10
0.0
 20
0.0
 11
0.0
 21
0.0
 12
0.0
 22
0.0
 32
0.0
 14
0.0
 24
0.0
 34
0.0
 15
0.0
 25
0.0
 35
0.0
146
0.0
 13
0.0
 23
0.0
 33
0.0
 16
1.0
 26
0.0
 36
0.0
 17
0.0
 27
1.0
 37
0.0
 76
     0
330
23
331
127
  0
LAYOUT
  5
22
102
{ACAD_REACTORS
330
1A
102
}
330
1A
100
AcDbPlotSettings
  1

  2
none_device
  4
ANSI_A_(11.00_x_8.50_Inches)
  6

 40
6.35
 41
19.05
 42
6.35000508
 43
19.05000254
 44
279.4
 45
215.9
 46
133.34999746
 47
94.7509495978
 48
0.0
 49
0.0
140
0.0
141
0.0
142
0.0191157011
143
1.0
 70
  1696
 72
     0
 73
     0
 74
     0
  7

 75
     0
 76
     0
 77
     2
 78
   300
147
0.0179189148
148
-1300.4909072572
149
0.0
100
AcDbLayout
  1
Model
 70
     1
 71
     0
 10
0.0
 20
0.0
 11
420.0
 21
297.0
 12
0.0
 22
0.0
 32
0.0
 14
-284.8443779256
 24
-188.5380169182
 34
0.0
 15
284.8443779256
 25
164.4371592331
 35
0.0
146
0.0
 13
0.0
 23
0.0
 33
0.0
 16
1.0
 26
0.0
 36
0.0
 17
0.0
 27
1.0
 37
0.0
 76
     0
330
1F
331
29
  0
MATERIAL
  5
45
102
{ACAD_REACTORS
330
43
102
}
330
43
100
AcDbMaterial
  1
ByBlock
 72
     1
 94
      127
  0
MATERIAL
  5
44
102
{ACAD_REACTORS
330
43
102
}
330
43
100
AcDbMaterial
  1
ByLayer
 72
     1
 94
      127
  0
MATERIAL
  5
46
102
{ACAD_REACTORS
330
43
102
}
330
43
100
AcDbMaterial
  1
Global
 72
     1
 94
      127
  0
MLEADERSTYLE
  5
6C
102
{ACAD_REACTORS
330
6B
102
}
330
6B
100
AcDbMLeaderStyle
170
     2
171
     1
172
     0
 90
        2
 40
0.0
 41
0.0
173
     1
 91
-1056964608
340
14
 92
       -2
290
     1
 42
2.0
291
     1
 43
8.0
  3
Standard
341
0
 44
4.0
300

342
11
174
     1
178
     6
175
     1
176
     0
 93
-1056964608
 45
4.0
292
     0
297
     0
 46
4.0
343
0
 94
-1056964608
 47
1.0
 49
1.0
140
1.0
293
     1
141
0.0
294
     1
177
     0
142
1.0
295
     0
296
     0
143
3.75
1001
ACAD_MLEADERVER
1070
     2
  0
MLINESTYLE
  5
18
102
{ACAD_REACTORS
330
17
102
}
330
17
100
AcDbMlineStyle
  2
Standard
 70
     0
  3

 62
   256
 51
90.0
 52
90.0
 71
     2
 49
0.5
 62
   256
  6
BYLAYER
 49
-0.5
 62
   256
  6
BYLAYER
  0
ACDBPLACEHOLDER
  5
F
102
{ACAD_REACTORS
330
E
102
}
330
E
  0
SCALE
  5
48
102
{ACAD_REACTORS
330
47
102
}
330
47
100
AcDbScale
 70
     0
300
1:1
140
1.0
141
1.0
290
     1
  0
SCALE
  5
49
102
{ACAD_REACTORS
330
47
102
}
330
47
100
AcDbScale
 70
     0
300
1:2
140
1.0
141
2.0
290
     0
  0
SCALE
  5
4A
102
{ACAD_REACTORS
330
47
102
}
330
47
100
AcDbScale
 70
     0
300
1:4
140
1.0
141
4.0
290
     0
  0
SCALE
  5
4B
102
{ACAD_REACTORS
330
47
102
}
330
47
100
AcDbScale
 70
     0
300
1:5
140
1.0
141
5.0
290
     0
  0
SCALE
  5
4C
102
{ACAD_REACTORS
330
47
102
}
330
47
100
AcDbScale
 70
     0
300
1:8
140
1.0
141
8.0
290
     0
  0
SCALE
  5
4D
102
{ACAD_REACTORS
330
47
102
}
330
47
100
AcDbScale
 70
     0
300
1:10
140
1.0
141
10.0
290
     0
  0
SCALE
  5
4E
102
{ACAD_REACTORS
330
47
102
}
330
47
100
AcDbScale
 70
     0
300
1:16
140
1.0
141
16.0
290
     0
  0
SCALE
  5
4F
102
{ACAD_REACTORS
330
47
102
}
330
47
100
AcDbScale
 70
     0
300
1:20
140
1.0
141
20.0
290
     0
  0
SCALE
  5
50
102
{ACAD_REACTORS
330
47
102
}
330
47
100
AcDbScale
 70
     0
300
1:30
140
1.0
141
30.0
290
     0
  0
SCALE
  5
51
102
{ACAD_REACTORS
330
47
102
}
330
47
100
AcDbScale
 70
     0
300
1:40
140
1.0
141
40.0
290
     0
  0
SCALE
  5
52
102
{ACAD_REACTORS
330
47
102
}
330
47
100
AcDbScale
 70
     0
300
1:50
140
1.0
141
50.0
290
     0
  0
SCALE
  5
53
102
{ACAD_REACTORS
330
47
102
}
330
47
100
AcDbScale
 70
     0
300
1:100
140
1.0
141
100.0
290
     0
  0
SCALE
  5
54
102
{ACAD_REACTORS
330
47
102
}
330
47
100
AcDbScale
 70
     0
300
2:1
140
2.0
141
1.0
290
     0
  0
SCALE
  5
55
102
{ACAD_REACTORS
330
47
102
}
330
47
100
AcDbScale
 70
     0
300
4:1
140
4.0
141
1.0
290
     0
  0
SCALE
  5
56
102
{ACAD_REACTORS
330
47
102
}
330
47
100
AcDbScale
 70
     0
300
8:1
140
8.0
141
1.0
290
     0
  0
SCALE
  5
57
102
{ACAD_REACTORS
330
47
102
}
330
47
100
AcDbScale
 70
     0
300
10:1
140
10.0
141
1.0
290
     0
  0
SCALE
  5
58
102
{ACAD_REACTORS
330
47
102
}
330
47
100
AcDbScale
 70
     0
300
100:1
140
100.0
141
1.0
290
     0
  0
SCALE
  5
59
102
{ACAD_REACTORS
330
47
102
}
330
47
100
AcDbScale
 70
     0
300
1/128" = 1'-0"
140
0.0078125
141
12.0
290
     0
  0
SCALE
  5
5A
102
{ACAD_REACTORS
330
47
102
}
330
47
100
AcDbScale
 70
     0
300
1/64" = 1'-0"
140
0.015625
141
12.0
290
     0
  0
SCALE
  5
5B
102
{ACAD_REACTORS
330
47
102
}
330
47
100
AcDbScale
 70
     0
300
1/32" = 1'-0"
140
0.03125
141
12.0
290
     0
  0
SCALE
  5
5C
102
{ACAD_REACTORS
330
47
102
}
330
47
100
AcDbScale
 70
     0
300
1/16" = 1'-0"
140
0.0625
141
12.0
290
     0
  0
SCALE
  5
5D
102
{ACAD_REACTORS
330
47
102
}
330
47
100
AcDbScale
 70
     0
300
3/32" = 1'-0"
140
0.09375
141
12.0
290
     0
  0
SCALE
  5
5E
102
{ACAD_REACTORS
330
47
102
}
330
47
100
AcDbScale
 70
     0
300
1/8" = 1'-0"
140
0.125
141
12.0
290
     0
  0
SCALE
  5
5F
102
{ACAD_REACTORS
330
47
102
}
330
47
100
AcDbScale
 70
     0
300
3/16" = 1'-0"
140
0.1875
141
12.0
290
     0
  0
SCALE
  5
60
102
{ACAD_REACTORS
330
47
102
}
330
47
100
AcDbScale
 70
     0
300
1/4" = 1'-0"
140
0.25
141
12.0
290
     0
  0
SCALE
  5
61
102
{ACAD_REACTORS
330
47
102
}
330
47
100
AcDbScale
 70
     0
300
3/8" = 1'-0"
140
0.375
141
12.0
290
     0
  0
SCALE
  5
62
102
{ACAD_REACTORS
330
47
102
}
330
47
100
AcDbScale
 70
     0
300
1/2" = 1'-0"
140
0.5
141
12.0
290
     0
  0
SCALE
  5
63
102
{ACAD_REACTORS
330
47
102
}
330
47
100
AcDbScale
 70
     0
300
3/4" = 1'-0"
140
0.75
141
12.0
290
     0
  0
SCALE
  5
64
102
{ACAD_REACTORS
330
47
102
}
330
47
100
AcDbScale
 70
     0
300
1" = 1'-0"
140
1.0
141
12.0
290
     0
  0
SCALE
  5
65
102
{ACAD_REACTORS
330
47
102
}
330
47
100
AcDbScale
 70
     0
300
1-1/2" = 1'-0"
140
1.5
141
12.0
290
     0
  0
SCALE
  5
66
102
{ACAD_REACTORS
330
47
102
}
330
47
100
AcDbScale
 70
     0
300
3" = 1'-0"
140
3.0
141
12.0
290
     0
  0
SCALE
  5
67
102
{ACAD_REACTORS
330
47
102
}
330
47
100
AcDbScale
 70
     0
300
6" = 1'-0"
140
6.0
141
12.0
290
     0
  0
SCALE
  5
68
102
{ACAD_REACTORS
330
47
102
}
330
47
100
AcDbScale
 70
     0
300
1'-0" = 1'-0"
140
12.0
141
12.0
290
     0
  0
TABLESTYLE
  5
6A
102
{ACAD_REACTORS
330
69
102
}
102
{ACAD_XDICTIONARY
360
13B
102
}
330
69
100
AcDbTableStyle
  3
Standard
 70
     0
 71
     0
 40
0.06
 41
0.06
280
     0
281
     0
  7
Standard
140
4.5
170
     2
 62
     0
 63
   257
283
     0
 90
        4
 91
        0
  1

274
    -2
284
     1
 64
     0
275
    -2
285
     1
 65
     0
276
    -2
286
     1
 66
     0
277
    -2
287
     1
 67
     0
278
    -2
288
     1
 68
     0
279
    -2
289
     1
 69
     0
  7
Standard
140
6.0
170
     5
 62
     0
 63
   257
283
     0
 90
        4
 91
        0
  1

274
    -2
284
     1
 64
     0
275
    -2
285
     1
 65
     0
276
    -2
286
     1
 66
     0
277
    -2
287
     1
 67
     0
278
    -2
288
     1
 68
     0
279
    -2
289
     1
 69
     0
  7
Standard
140
4.5
170
     5
 62
     0
 63
   257
283
     0
 90
        4
 91
        0
  1

274
    -2
284
     1
 64
     0
275
    -2
285
     1
 65
     0
276
    -2
286
     1
 66
     0
277
    -2
287
     1
 67
     0
278
    -2
288
     1
 68
     0
279
    -2
289
     1
 69
     0
  0
VISUALSTYLE
  5
2F
102
{ACAD_REACTORS
330
2A
102
}
330
2A
100
AcDbVisualStyle
  2
2dWireframe
 70
     4
 71
     0
 72
     2
 73
     0
 90
        0
 40
0.6
 41
30.0
 62
     5
 63
     7
421
 16777215
 74
     1
 91
        4
 64
     7
 65
   257
 75
     1
175
     1
 42
1.0
 92
        0
 66
   257
 43
1.0
 76
     1
 77
     6
 78
     2
 67
     7
 79
     5
170
     0
171
     0
290
     0
174
     0
 93
        1
 44
0.0
173
     0
291
     0
 45
0.0
  0
VISUALSTYLE
  5
32
102
{ACAD_REACTORS
330
2A
102
}
330
2A
100
AcDbVisualStyle
  2
Basic
 70
     7
 71
     1
 72
     0
 73
     1
 90
        0
 40
0.6
 41
30.0
 62
     5
 63
     7
421
 16777215
 74
     0
 91
        4
 64
     7
 65
   257
 75
     1
175
     1
 42
1.0
 92
        8
 66
     7
 43
1.0
 76
     1
 77
     6
 78
     2
 67
     7
 79
     5
170
     0
171
     0
290
     0
174
     0
 93
        1
 44
0.0
173
     0
291
     1
 45
0.0
  0
VISUALSTYLE
  5
36
102
{ACAD_REACTORS
330
2A
102
}
330
2A
100
AcDbVisualStyle
  2
Brighten
 70
    12
 71
     2
 72
     2
 73
     0
 90
        0
 40
0.6
 41
30.0
 62
     5
 63
     7
421
 16777215
 74
     1
 91
        4
 64
     7
 65
   257
 75
     1
175
     1
 42
1.0
 92
        8
 66
     7
 43
1.0
 76
     1
 77
     6
 78
     2
 67
     7
 79
     5
170
     0
171
     0
290
     0
174
     0
 93
        1
 44
50.0
173
     0
291
     1
 45
0.0
  0
VISUALSTYLE
  5
3A
102
{ACAD_REACTORS
330
2A
102
}
330
2A
100
AcDbVisualStyle
  2
ColorChange
 70
    16
 71
     2
 72
     2
 73
     3
 90
        0
 40
0.6
 41
30.0
 62
     5
 63
     8
421
  8421504
 74
     1
 91
        4
 64
     7
 65
   257
 75
     1
175
     1
 42
1.0
 92
        8
 66
     8
424
  8421504
 43
1.0
 76
     1
 77
     6
 78
     2
 67
     7
 79
     5
170
     0
171
     0
290
     0
174
     0
 93
        1
 44
0.0
173
     0
291
     1
 45
0.0
  0
VISUALSTYLE
  5
34
102
{ACAD_REACTORS
330
2A
102
}
330
2A
100
AcDbVisualStyle
  2
Conceptual
 70
     9
 71
     3
 72
     2
 73
     0
 90
        0
 40
0.6
 41
30.0
 62
     5
 63
     7
421
 16777215
 74
     2
 91
        2
 64
     7
 65
   257
 75
     1
175
     1
 42
179.0
 92
        8
 66
     7
 43
1.0
 76
     1
 77
     6
 78
     2
 67
     7
 79
     3
170
     0
171
     0
290
     0
174
     0
 93
        1
 44
0.0
173
     0
291
     0
 45
0.0
  0
VISUALSTYLE
  5
35
102
{ACAD_REACTORS
330
2A
102
}
330
2A
100
AcDbVisualStyle
  2
Dim
 70
    11
 71
     2
 72
     2
 73
     0
 90
        0
 40
0.6
 41
30.0
 62
     5
 63
     7
421
 16777215
 74
     1
 91
        4
 64
     7
 65
   257
 75
     1
175
     1
 42
1.0
 92
        8
 66
     7
 43
1.0
 76
     1
 77
     6
 78
     2
 67
     7
 79
     5
170
     0
171
     0
290
     0
174
     0
 93
        1
 44
-50.0
173
     0
291
     1
 45
0.0
  0
VISUALSTYLE
  5
3D
102
{ACAD_REACTORS
330
2A
102
}
330
2A
100
AcDbVisualStyle
  2
EdgeColorOff
 70
    22
 71
     2
 72
     2
 73
     0
 90
        0
 40
0.6
 41
30.0
 62
     5
 63
     7
421
 16777215
 74
     1
 91
        4
 64
     7
 65
   257
 75
     1
175
     1
 42
1.0
 92
        8
 66
     7
 43
1.0
 76
     1
 77
     6
 78
     2
 67
     7
 79
     5
170
     0
171
     0
290
     0
174
     0
 93
        1
 44
0.0
173
     0
291
     1
 45
0.0
  0
VISUALSTYLE
  5
39
102
{ACAD_REACTORS
330
2A
102
}
330
2A
100
AcDbVisualStyle
  2
Facepattern
 70
    15
 71
     2
 72
     2
 73
     0
 90
        0
 40
0.6
 41
30.0
 62
     5
 63
     7
421
 16777215
 74
     1
 91
        4
 64
     7
 65
   257
 75
     1
175
     1
 42
1.0
 92
        8
 66
     7
 43
1.0
 76
     1
 77
     6
 78
     2
 67
     7
 79
     5
170
     0
171
     0
290
     0
174
     0
 93
        1
 44
0.0
173
     0
291
     1
 45
0.0
  0
VISUALSTYLE
  5
2B
102
{ACAD_REACTORS
330
2A
102
}
330
2A
100
AcDbVisualStyle
  2
Flat
 70
     0
 71
     2
 72
     1
 73
     1
 90
        2
 40
0.6
 41
30.0
 62
     5
 63
     7
421
 16777215
 74
     0
 91
        0
 64
     7
 65
   257
 75
     1
175
     1
 42
1.0
 92
        8
 66
     7
 43
1.0
 76
     1
 77
     6
 78
     2
 67
     7
 79
     5
170
     0
171
     0
290
     0
174
     0
 93
       13
 44
0.0
173
     0
291
     1
 45
0.0
  0
VISUALSTYLE
  5
2C
102
{ACAD_REACTORS
330
2A
102
}
330
2A
100
AcDbVisualStyle
  2
FlatWithEdges
 70
     1
 71
     2
 72
     1
 73
     1
 90
        2
 40
0.6
 41
30.0
 62
     5
 63
     7
421
 16777215
 74
     1
 91
        0
 64
     7
 65
   257
 75
     1
175
     1
 42
1.0
 92
        0
 66
   257
 43
1.0
 76
     1
 77
     6
 78
     2
 67
     7
 79
     5
170
     0
171
     0
290
     0
174
     0
 93
       13
 44
0.0
173
     0
291
     1
 45
0.0
  0
VISUALSTYLE
  5
2D
102
{ACAD_REACTORS
330
2A
102
}
330
2A
100
AcDbVisualStyle
  2
Gouraud
 70
     2
 71
     2
 72
     2
 73
     1
 90
        2
 40
0.6
 41
30.0
 62
     5
 63
     7
421
 16777215
 74
     0
 91
        0
 64
     7
 65
   257
 75
     1
175
     1
 42
1.0
 92
        0
 66
     7
 43
1.0
 76
     1
 77
     6
 78
     2
 67
     7
 79
     5
170
     0
171
     0
290
     0
174
     0
 93
       13
 44
0.0
173
     0
291
     1
 45
0.0
  0
VISUALSTYLE
  5
2E
102
{ACAD_REACTORS
330
2A
102
}
330
2A
100
AcDbVisualStyle
  2
GouraudWithEdges
 70
     3
 71
     2
 72
     2
 73
     1
 90
        2
 40
0.6
 41
30.0
 62
     5
 63
     7
421
 16777215
 74
     1
 91
        0
 64
     7
 65
   257
 75
     1
175
     1
 42
1.0
 92
        0
 66
   257
 43
1.0
 76
     1
 77
     6
 78
     2
 67
     7
 79
     5
170
     0
171
     0
290
     0
174
     0
 93
       13
 44
0.0
173
     0
291
     1
 45
0.0
  0
VISUALSTYLE
  5
31
102
{ACAD_REACTORS
330
2A
102
}
330
2A
100
AcDbVisualStyle
  2
Hidden
 70
     6
 71
     1
 72
     2
 73
     2
 90
        0
 40
0.6
 41
30.0
 62
     5
 63
     7
421
 16777215
 74
     2
 91
        2
 64
     7
 65
   257
 75
     2
175
     1
 42
40.0
 92
        0
 66
   257
 43
1.0
 76
     1
 77
     6
 78
     2
 67
     7
 79
     3
170
     0
171
     0
290
     0
174
     0
 93
        1
 44
0.0
173
     0
291
     0
 45
0.0
  0
VISUALSTYLE
  5
3B
102
{ACAD_REACTORS
330
2A
102
}
330
2A
100
AcDbVisualStyle
  2
JitterOff
 70
    20
 71
     2
 72
     2
 73
     0
 90
        0
 40
0.6
 41
30.0
 62
     5
 63
     7
421
 16777215
 74
     1
 91
        4
 64
     7
 65
   257
 75
     1
175
     1
 42
1.0
 92
       10
 66
     7
 43
1.0
 76
     1
 77
     6
 78
     2
 67
     7
 79
     5
170
     0
171
     0
290
     0
174
     0
 93
        1
 44
0.0
173
     0
291
     1
 45
0.0
  0
VISUALSTYLE
  5
38
102
{ACAD_REACTORS
330
2A
102
}
330
2A
100
AcDbVisualStyle
  2
Linepattern
 70
    14
 71
     2
 72
     2
 73
     0
 90
        0
 40
0.6
 41
30.0
 62
     5
 63
     7
421
 16777215
 74
     1
 91
        4
 64
     7
 65
   257
 75
     7
175
     7
 42
1.0
 92
        8
 66
     7
 43
1.0
 76
     1
 77
     6
 78
     2
 67
     7
 79
     5
170
     0
171
     0
290
     0
174
     0
 93
        1
 44
0.0
173
     0
291
     1
 45
0.0
  0
VISUALSTYLE
  5
3C
102
{ACAD_REACTORS
330
2A
102
}
330
2A
100
AcDbVisualStyle
  2
OverhangOff
 70
    21
 71
     2
 72
     2
 73
     0
 90
        0
 40
0.6
 41
30.0
 62
     5
 63
     7
421
 16777215
 74
     1
 91
        4
 64
     7
 65
   257
 75
     1
175
     1
 42
1.0
 92
        9
 66
     7
 43
1.0
 76
     1
 77
     6
 78
     2
 67
     7
 79
     5
170
     0
171
     0
290
     0
174
     0
 93
        1
 44
0.0
173
     0
291
     1
 45
0.0
  0
VISUALSTYLE
  5
33
102
{ACAD_REACTORS
330
2A
102
}
330
2A
100
AcDbVisualStyle
  2
Realistic
 70
     8
 71
     2
 72
     3
 73
     0
 90
        2
 40
0.6
 41
30.0
 62
     5
 63
     7
421
 16777215
 74
     0
 91
        0
 64
     7
 65
   257
 75
     1
175
     1
 42
1.0
 92
        8
 66
   257
 43
1.0
 76
     1
 77
     6
 78
     2
 67
     7
 79
     3
170
     0
171
     0
290
     0
174
     0
 93
       13
 44
0.0
173
     0
291
     0
 45
0.0
  0
VISUALSTYLE
  5
42
102
{ACAD_REACTORS
330
2A
102
}
330
2A
100
AcDbVisualStyle
  2
Shaded
 70
    27
 71
     2
 72
     2
 73
     1
 90
        2
 40
0.6
 41
30.0
 62
     5
 63
     7
421
 16777215
 74
     0
 91
        4
 64
     7
 65
   257
 75
     1
175
     1
 42
1.0
 92
        8
 66
   257
 43
1.0
 76
     1
 77
     6
 78
     2
 67
     8
425
  7895160
 79
     3
170
     0
171
     0
290
     0
174
     0
 93
        5
 44
0.0
173
     0
291
     0
 45
0.0
  0
VISUALSTYLE
  5
41
102
{ACAD_REACTORS
330
2A
102
}
330
2A
100
AcDbVisualStyle
  2
Shaded with edges
 70
    26
 71
     2
 72
     2
 73
     1
 90
        2
 40
0.6
 41
30.0
 62
     5
 63
     7
421
 16777215
 74
     1
 91
       10
 64
     7
 65
   257
 75
     2
175
     1
 42
1.0
 92
        8
 66
   257
 43
1.0
 76
     1
 77
     6
 78
     2
 67
     7
 79
     3
170
     0
171
     0
290
     0
174
     0
 93
        5
 44
0.0
173
     0
291
     0
 45
0.0
  0
VISUALSTYLE
  5
3E
102
{ACAD_REACTORS
330
2A
102
}
330
2A
100
AcDbVisualStyle
  2
Shades of Gray
 70
    23
 71
     2
 72
     2
 73
     3
 90
        0
 40
0.6
 41
30.0
 62
     5
 63
     7
421
 16777215
 74
     2
 91
        2
 64
     7
 65
     7
 75
     1
175
     1
 42
40.0
 92
        8
 66
     7
 43
1.0
 76
     1
 77
     6
 78
     2
 67
     7
 79
     3
170
     0
171
     0
290
     0
174
     0
 93
        1
 44
0.0
173
     0
291
     0
 45
0.0
  0
VISUALSTYLE
  5
3F
102
{ACAD_REACTORS
330
2A
102
}
330
2A
100
AcDbVisualStyle
  2
Sketchy
 70
    24
 71
     1
 72
     2
 73
     2
 90
        0
 40
0.6
 41
30.0
 62
     5
 63
     7
421
 16777215
 74
     2
 91
        2
 64
     7
 65
     7
 75
     1
175
     1
 42
40.0
 92
       11
 66
     7
 43
1.0
 76
     1
 77
     6
 78
     2
 67
     7
 79
     6
170
     0
171
     0
290
     0
174
     0
 93
        1
 44
0.0
173
     0
291
     0
 45
0.0
  0
VISUALSTYLE
  5
37
102
{ACAD_REACTORS
330
2A
102
}
330
2A
100
AcDbVisualStyle
  2
Thicken
 70
    13
 71
     2
 72
     2
 73
     0
 90
        0
 40
0.6
 41
30.0
 62
     5
 63
     7
421
 16777215
 74
     1
 91
        4
 64
     7
 65
   257
 75
     1
175
     1
 42
1.0
 92
       12
 66
     7
 43
1.0
 76
     1
 77
     6
 78
     2
 67
     7
 79
     5
170
     0
171
     0
290
     0
174
     0
 93
        1
 44
0.0
173
     0
291
     1
 45
0.0
  0
VISUALSTYLE
  5
30
102
{ACAD_REACTORS
330
2A
102
}
330
2A
100
AcDbVisualStyle
  2
Wireframe
 70
     5
 71
     0
 72
     2
 73
     0
 90
        0
 40
0.6
 41
30.0
 62
     5
 63
     7
421
 16777215
 74
     1
 91
        4
 64
     7
 65
   257
 75
     1
175
     1
 42
1.0
 92
        0
 66
   257
 43
1.0
 76
     1
 77
     6
 78
     2
 67
     7
 79
     3
170
     0
171
     0
290
     0
174
     0
 93
        1
 44
0.0
173
     0
291
     0
 45
0.0
  0
VISUALSTYLE
  5
40
102
{ACAD_REACTORS
330
2A
102
}
330
2A
100
AcDbVisualStyle
  2
X-Ray
 70
    25
 71
     2
 72
     2
 73
     1
 90
        1
 40
0.5
 41
30.0
 62
     5
 63
     7
421
 16777215
 74
     1
 91
        0
 64
     7
 65
   257
 75
     1
175
     1
 42
1.0
 92
        8
 66
     7
 43
1.0
 76
     1
 77
     6
 78
     2
 67
     7
 79
     3
170
     0
171
     0
290
     0
174
     0
 93
       13
 44
0.0
173
     0
291
     0
 45
0.0
  0
DICTIONARYVAR
  5
13A
102
{ACAD_REACTORS
330
139
102
}
330
139
100
DictionaryVariables
280
     0
  1
1:1
  0
DICTIONARYVAR
  5
140
102
{ACAD_REACTORS
330
139
102
}
330
139
100
DictionaryVariables
280
     0
  1
Standard
  0
DICTIONARYVAR
  5
13F
102
{ACAD_REACTORS
330
139
102
}
330
139
100
DictionaryVariables
280
     0
  1
Standard
  0
DICTIONARY
  5
13B
330
6A
100
AcDbDictionary
280
     1
281
     1
  3
ACAD_ROUNDTRIP_2008_TABLESTYLE_CELLSTYLEMAP
360
13C
  0
CELLSTYLEMAP
  5
13C
102
{ACAD_REACTORS
330
13B
102
}
330
13B
100
AcDbCellStyleMap
 90
        3
300
CELLSTYLE
  1
TABLEFORMAT_BEGIN
 90
        5
170
     1
 91
        0
 92
    32768
 62
   257
 93
        1
300
CONTENTFORMAT
  1
CONTENTFORMAT_BEGIN
 90
        0
 91
        0
 92
        4
 93
        0
300

 40
0.0
140
1.0
 94
        5
 62
     0
340
11
144
6.0
309
CONTENTFORMAT_END
171
     1
301
MARGIN
  1
CELLMARGIN_BEGIN
 40
1.5
 40
1.5
 40
1.5
 40
1.5
 40
1.5
 40
1.5
309
CELLMARGIN_END
 94
        6
 95
        1
302
GRIDFORMAT
  1
GRIDFORMAT_BEGIN
 90
        0
 91
        1
 62
     0
 92
       -2
340
14
 93
        0
 40
0.045
309
GRIDFORMAT_END
 95
        2
302
GRIDFORMAT
  1
GRIDFORMAT_BEGIN
 90
        0
 91
        1
 62
     0
 92
       -2
340
14
 93
        0
 40
0.045
309
GRIDFORMAT_END
 95
        4
302
GRIDFORMAT
  1
GRIDFORMAT_BEGIN
 90
        0
 91
        1
 62
     0
 92
       -2
340
14
 93
        0
 40
0.045
309
GRIDFORMAT_END
 95
        8
302
GRIDFORMAT
  1
GRIDFORMAT_BEGIN
 90
        0
 91
        1
 62
     0
 92
       -2
340
14
 93
        0
 40
0.045
309
GRIDFORMAT_END
 95
       16
302
GRIDFORMAT
  1
GRIDFORMAT_BEGIN
 90
        0
 91
        1
 62
     0
 92
       -2
340
14
 93
        0
 40
0.045
309
GRIDFORMAT_END
 95
       32
302
GRIDFORMAT
  1
GRIDFORMAT_BEGIN
 90
        0
 91
        1
 62
     0
 92
       -2
340
14
 93
        0
 40
0.045
309
GRIDFORMAT_END
309
TABLEFORMAT_END
  1
CELLSTYLE_BEGIN
 90
        1
 91
        1
300
_TITLE
309
CELLSTYLE_END
300
CELLSTYLE
  1
TABLEFORMAT_BEGIN
 90
        5
170
     1
 91
        0
 92
        0
 62
   257
 93
        1
300
CONTENTFORMAT
  1
CONTENTFORMAT_BEGIN
 90
        0
 91
        0
 92
        4
 93
        0
300

 40
0.0
140
1.0
 94
        5
 62
     0
340
11
144
4.5
309
CONTENTFORMAT_END
171
     1
301
MARGIN
  1
CELLMARGIN_BEGIN
 40
1.5
 40
1.5
 40
1.5
 40
1.5
 40
1.5
 40
1.5
309
CELLMARGIN_END
 94
        6
 95
        1
302
GRIDFORMAT
  1
GRIDFORMAT_BEGIN
 90
        0
 91
        1
 62
     0
 92
       -2
340
14
 93
        0
 40
0.045
309
GRIDFORMAT_END
 95
        2
302
GRIDFORMAT
  1
GRIDFORMAT_BEGIN
 90
        0
 91
        1
 62
     0
 92
       -2
340
14
 93
        0
 40
0.045
309
GRIDFORMAT_END
 95
        4
302
GRIDFORMAT
  1
GRIDFORMAT_BEGIN
 90
        0
 91
        1
 62
     0
 92
       -2
340
14
 93
        0
 40
0.045
309
GRIDFORMAT_END
 95
        8
302
GRIDFORMAT
  1
GRIDFORMAT_BEGIN
 90
        0
 91
        1
 62
     0
 92
       -2
340
14
 93
        0
 40
0.045
309
GRIDFORMAT_END
 95
       16
302
GRIDFORMAT
  1
GRIDFORMAT_BEGIN
 90
        0
 91
        1
 62
     0
 92
       -2
340
14
 93
        0
 40
0.045
309
GRIDFORMAT_END
 95
       32
302
GRIDFORMAT
  1
GRIDFORMAT_BEGIN
 90
        0
 91
        1
 62
     0
 92
       -2
340
14
 93
        0
 40
0.045
309
GRIDFORMAT_END
309
TABLEFORMAT_END
  1
CELLSTYLE_BEGIN
 90
        2
 91
        1
300
_HEADER
309
CELLSTYLE_END
300
CELLSTYLE
  1
TABLEFORMAT_BEGIN
 90
        5
170
     1
 91
        0
 92
        0
 62
   257
 93
        1
300
CONTENTFORMAT
  1
CONTENTFORMAT_BEGIN
 90
        0
 91
        0
 92
        4
 93
        0
300

 40
0.0
140
1.0
 94
        2
 62
     0
340
11
144
4.5
309
CONTENTFORMAT_END
171
     1
301
MARGIN
  1
CELLMARGIN_BEGIN
 40
1.5
 40
1.5
 40
1.5
 40
1.5
 40
1.5
 40
1.5
309
CELLMARGIN_END
 94
        6
 95
        1
302
GRIDFORMAT
  1
GRIDFORMAT_BEGIN
 90
        0
 91
        1
 62
     0
 92
       -2
340
14
 93
        0
 40
0.045
309
GRIDFORMAT_END
 95
        2
302
GRIDFORMAT
  1
GRIDFORMAT_BEGIN
 90
        0
 91
        1
 62
     0
 92
       -2
340
14
 93
        0
 40
0.045
309
GRIDFORMAT_END
 95
        4
302
GRIDFORMAT
  1
GRIDFORMAT_BEGIN
 90
        0
 91
        1
 62
     0
 92
       -2
340
14
 93
        0
 40
0.045
309
GRIDFORMAT_END
 95
        8
302
GRIDFORMAT
  1
GRIDFORMAT_BEGIN
 90
        0
 91
        1
 62
     0
 92
       -2
340
14
 93
        0
 40
0.045
309
GRIDFORMAT_END
 95
       16
302
GRIDFORMAT
  1
GRIDFORMAT_BEGIN
 90
        0
 91
        1
 62
     0
 92
       -2
340
14
 93
        0
 40
0.045
309
GRIDFORMAT_END
 95
       32
302
GRIDFORMAT
  1
GRIDFORMAT_BEGIN
 90
        0
 91
        1
 62
     0
 92
       -2
340
14
 93
        0
 40
0.045
309
GRIDFORMAT_END
309
TABLEFORMAT_END
  1
CELLSTYLE_BEGIN
 90
        3
 91
        2
300
_DATA
309
CELLSTYLE_END
  0
ENDSEC
  0
EOF
