  0
SECTION
  2
HEADER
  9
$ACADVER
  1
AC1021
  9
$ACADMAINTVER
 70
    25
  9
$DWGCODEPAGE
  3
ANSI_1252
  9
$INSBASE
 10
0.0
 20
0.0
 30
0.0
  9
$EXTMIN
 10
-285.0001032322
 20
-185.9824193227
 30
0.0
  9
$EXTMAX
 10
285.0001032322
 20
164.4468967292
 30
0.0
  9
$LIMMIN
 10
0.0
 20
0.0
  9
$LIMMAX
 10
420.0
 20
297.0
  9
$ORTHOMODE
 70
     0
  9
$REGENMODE
 70
     1
  9
$FILLMODE
 70
     1
  9
$QTEXTMODE
 70
     0
  9
$MIRRTEXT
 70
     1
  9
$LTSCALE
 40
1.0
  9
$ATTMODE
 70
     1
  9
$TEXTSIZE
 40
3.5
  9
$TRACEWID
 40
1.0
  9
$TEXTSTYLE
  7
Standard
  9
$CLAYER
  8
0
  9
$CELTYPE
  6
ByLayer
  9
$CECOLOR
 62
   256
  9
$CELTSCALE
 40
1.0
  9
$DISPSILH
 70
     0
  9
$DIMSCALE
 40
1.0
  9
$DIMASZ
 40
8.0
  9
$DIMEXO
 40
1.0
  9
$DIMDLI
 40
3.75
  9
$DIMRND
 40
0.0
  9
$DIMDLE
 40
0.0
  9
$DIMEXE
 40
1.0
  9
$DIMTP
 40
0.0
  9
$DIMTM
 40
0.0
  9
$DIMTXT
 40
16.9333333333
  9
$DIMCEN
 40
2.5
  9
$DIMTSZ
 40
0.0
  9
$DIMTOL
 70
     0
  9
$DIMLIM
 70
     0
  9
$DIMTIH
 70
     1
  9
$DIMTOH
 70
     1
  9
$DIMSE1
 70
     0
  9
$DIMSE2
 70
     0
  9
$DIMTAD
 70
     1
  9
$DIMZIN
 70
     0
  9
$DIMBLK
  1

  9
$DIMASO
 70
     1
  9
$DIMSHO
 70
     1
  9
$DIMPOST
  1

  9
$DIMAPOST
  1

  9
$DIMALT
 70
     0
  9
$DIMALTD
 70
     3
  9
$DIMALTF
 40
0.0393700787
  9
$DIMLFAC
 40
1.0
  9
$DIMTOFL
 70
     1
  9
$DIMTVP
 40
0.0
  9
$DIMTIX
 70
     0
  9
$DIMSOXD
 70
     0
  9
$DIMSAH
 70
     0
  9
$DIMBLK1
  1

  9
$DIMBLK2
  1

  9
$DIMSTYLE
  2
ISO-25
  9
$DIMCLRD
 70
     0
  9
$DIMCLRE
 70
     0
  9
$DIMCLRT
 70
     0
  9
$DIMTFAC
 40
1.0
  9
$DIMGAP
 40
1.524
  9
$DIMJUST
 70
     0
  9
$DIMSD1
 70
     0
  9
$DIMSD2
 70
     0
  9
$DIMTOLJ
 70
     0
  9
$DIMTZIN
 70
     0
  9
$DIMALTZ
 70
     0
  9
$DIMALTTZ
 70
     0
  9
$DIMUPT
 70
     0
  9
$DIMDEC
 70
     2
  9
$DIMTDEC
 70
     2
  9
$DIMALTU
 70
     2
  9
$DIMALTTD
 70
     3
  9
$DIMTXSTY
  7
Standard
  9
$DIMAUNIT
 70
     0
  9
$DIMADEC
 70
     2
  9
$DIMALTRND
 40
0.0
  9
$DIMAZIN
 70
     0
  9
$DIMDSEP
 70
    44
  9
$DIMATFIT
 70
     3
  9
$DIMFRAC
 70
     0
  9
$DIMLDRBLK
  1

  9
$DIMLUNIT
 70
     2
  9
$DIMLWD
 70
    -2
  9
$DIMLWE
 70
    -2
  9
$DIMTMOVE
 70
     0
  9
$DIMFXL
 40
1.0
  9
$DIMFXLON
 70
     0
  9
$DIMJOGANG
 40
0.7853981634
  9
$DIMTFILL
 70
     0
  9
$DIMTFILLCLR
 70
     0
  9
$DIMARCSYM
 70
     0
  9
$DIMLTYPE
  6

  9
$DIMLTEX1
  6

  9
$DIMLTEX2
  6

  9
$LUNITS
 70
     2
  9
$LUPREC
 70
     2
  9
$SKETCHINC
 40
1.0
  9
$FILLETRAD
 40
10.0
  9
$AUNITS
 70
     0
  9
$AUPREC
 70
     2
  9
$MENU
  1
.
  9
$ELEVATION
 40
0.0
  9
$PELEVATION
 40
0.0
  9
$THICKNESS
 40
0.0
  9
$LIMCHECK
 70
     0
  9
$CHAMFERA
 40
0.0
  9
$CHAMFERB
 40
0.0
  9
$CHAMFERC
 40
0.0
  9
$CHAMFERD
 40
0.0
  9
$SKPOLY
 70
     0
  9
$TDCREATE
 40
2458225.588426991
  9
$TDUCREATE
 40
2458225.505093657
  9
$TDUPDATE
 40
2458225.588454966
  9
$TDUUPDATE
 40
2458225.505121632
  9
$TDINDWG
 40
0.0000000116
  9
$TDUSRTIMER
 40
0.0000000116
  9
$USRTIMER
 70
     1
  9
$ANGBASE
 50
0.0
  9
$ANGDIR
 70
     0
  9
$PDMODE
 70
     0
  9
$PDSIZE
 40
-1.0
  9
$PLINEWID
 40
0.0
  9
$SPLFRAME
 70
     0
  9
$SPLINETYPE
 70
     6
  9
$SPLINESEGS
 70
     8
  9
$HANDSEED
  5
14C
  9
$SURFTAB1
 70
     6
  9
$SURFTAB2
 70
     6
  9
$SURFTYPE
 70
     6
  9
$SURFU
 70
     6
  9
$SURFV
 70
     6
  9
$UCSBASE
  2

  9
$UCSNAME
  2

  9
$UCSORG
 10
0.0
 20
0.0
 30
0.0
  9
$UCSXDIR
 10
1.0
 20
0.0
 30
0.0
  9
$UCSYDIR
 10
0.0
 20
1.0
 30
0.0
  9
$UCSORTHOREF
  2

  9
$UCSORTHOVIEW
 70
     0
  9
$UCSORGTOP
 10
0.0
 20
0.0
 30
0.0
  9
$UCSORGBOTTOM
 10
0.0
 20
0.0
 30
0.0
  9
$UCSORGLEFT
 10
0.0
 20
0.0
 30
0.0
  9
$UCSORGRIGHT
 10
0.0
 20
0.0
 30
0.0
  9
$UCSORGFRONT
 10
0.0
 20
0.0
 30
0.0
  9
$UCSORGBACK
 10
0.0
 20
0.0
 30
0.0
  9
$PUCSBASE
  2

  9
$PUCSNAME
  2

  9
$PUCSORG
 10
0.0
 20
0.0
 30
0.0
  9
$PUCSXDIR
 10
1.0
 20
0.0
 30
0.0
  9
$PUCSYDIR
 10
0.0
 20
1.0
 30
0.0
  9
$PUCSORTHOREF
  2

  9
$PUCSORTHOVIEW
 70
     0
  9
$PUCSORGTOP
 10
0.0
 20
0.0
 30
0.0
  9
$PUCSORGBOTTOM
 10
0.0
 20
0.0
 30
0.0
  9
$PUCSORGLEFT
 10
0.0
 20
0.0
 30
0.0
  9
$PUCSORGRIGHT
 10
0.0
 20
0.0
 30
0.0
  9
$PUCSORGFRONT
 10
0.0
 20
0.0
 30
0.0
  9
$PUCSORGBACK
 10
0.0
 20
0.0
 30
0.0
  9
$USERI1
 70
     0
  9
$USERI2
 70
     0
  9
$USERI3
 70
     0
  9
$USERI4
 70
     0
  9
$USERI5
 70
     0
  9
$USERR1
 40
0.0
  9
$USERR2
 40
0.0
  9
$USERR3
 40
0.0
  9
$USERR4
 40
0.0
  9
$USERR5
 40
0.0
  9
$WORLDVIEW
 70
     1
  9
$SHADEDGE
 70
     3
  9
$SHADEDIF
 70
    70
  9
$TILEMODE
 70
     1
  9
$MAXACTVP
 70
    64
  9
$PINSBASE
 10
0.0
 20
0.0
 30
0.0
  9
$PLIMCHECK
 70
     0
  9
$PEXTMIN
 10
-342.5
 20
-212.5
 30
0.0
  9
$PEXTMAX
 10
342.5
 20
212.5
 30
0.0
  9
$PLIMMIN
 10
-395.8073929961
 20
-232.4902723735
  9
$PLIMMAX
 10
395.8073929961
 20
327.2373540856
  9
$UNITMODE
 70
     0
  9
$VISRETAIN
 70
     1
  9
$PLINEGEN
 70
     0
  9
$PSLTSCALE
 70
     1
  9
$TREEDEPTH
 70
  3020
  9
$CMLSTYLE
  2
Standard
  9
$CMLJUST
 70
     0
  9
$CMLSCALE
 40
20.0
  9
$PROXYGRAPHICS
 70
     1
  9
$MEASUREMENT
 70
     1
  9
$CELWEIGHT
370
    -1
  9
$ENDCAPS
280
     0
  9
$JOINSTYLE
280
     0
  9
$LWDISPLAY
290
     1
  9
$INSUNITS
 70
     4
  9
$HYPERLINKBASE
  1

  9
$STYLESHEET
  1

  9
$XEDIT
290
     1
  9
$CEPSNTYPE
380
     0
  9
$PSTYLEMODE
290
     1
  9
$FINGERPRINTGUID
  2
{94D93DFE-A56A-434C-8DC3-B67387491B00}
  9
$VERSIONGUID
  2
{FAEB1C32-E019-11D5-929B-00C0DF256EC4}
  9
$EXTNAMES
290
     1
  9
$PSVPSCALE
 40
0.0
  9
$OLESTARTUP
290
     0
  9
$SORTENTS
280
   127
  9
$INDEXCTL
280
     0
  9
$HIDETEXT
280
     1
  9
$XCLIPFRAME
290
     0
  9
$HALOGAP
280
     0
  9
$OBSCOLOR
 70
   257
  9
$OBSLTYPE
280
     0
  9
$INTERSECTIONDISPLAY
280
     0
  9
$INTERSECTIONCOLOR
 70
   257
  9
$DIMASSOC
280
     2
  9
$PROJECTNAME
  1

  9
$CAMERADISPLAY
290
     0
  9
$LENSLENGTH
 40
50.0
  9
$CAMERAHEIGHT
 40
0.0
  9
$STEPSPERSEC
 40
2.0
  9
$STEPSIZE
 40
6.0
  9
$3DDWFPREC
 40
2.0
  9
$PSOLWIDTH
 40
5.0
  9
$PSOLHEIGHT
 40
80.0
  9
$LOFTANG1
 40
1.5707963268
  9
$LOFTANG2
 40
1.5707963268
  9
$LOFTMAG1
 40
0.0
  9
$LOFTMAG2
 40
0.0
  9
$LOFTPARAM
 70
     7
  9
$LOFTNORMALS
280
     1
  9
$LATITUDE
 40
37.795
  9
$LONGITUDE
 40
-122.394
  9
$NORTHDIRECTION
 40
0.0
  9
$TIMEZONE
 70
 -8000
  9
$LIGHTGLYPHDISPLAY
280
     1
  9
$TILEMODELIGHTSYNCH
280
     1
  9
$CMATERIAL
347
44
  9
$SOLIDHIST
280
     0
  9
$SHOWHIST
280
     1
  9
$DWFFRAME
280
     2
  9
$DGNFRAME
280
     2
  9
$REALWORLDSCALE
290
     1
  9
$INTERFERECOLOR
 62
   256
  9
$CSHADOW
280
     0
  9
$SHADOWPLANELOCATION
 40
0.0
  0
ENDSEC
  0
SECTION
  2
CLASSES
  0
CLASS
  1
ACDBDICTIONARYWDFLT
  2
AcDbDictionaryWithDefault
  3
ObjectDBX Classes
 90
        0
 91
        4
280
     0
281
     0
  0
CLASS
  1
VISUALSTYLE
  2
AcDbVisualStyle
  3
ObjectDBX Classes
 90
     4095
 91
        4
280
     0
281
     0
  0
CLASS
  1
MATERIAL
  2
AcDbMaterial
  3
ObjectDBX Classes
 90
     1153
 91
        4
280
     0
281
     0
  0
CLASS
  1
SCALE
  2
AcDbScale
  3
ObjectDBX Classes
 90
     1153
 91
        4
280
     0
281
     0
  0
CLASS
  1
TABLESTYLE
  2
AcDbTableStyle
  3
ObjectDBX Classes
 90
     4095
 91
        4
280
     0
281
     0
  0
CLASS
  1
MLEADERSTYLE
  2
AcDbMLeaderStyle
  3
ACDB_MLEADERSTYLE_CLASS
 90
     4095
 91
        4
280
     0
281
     0
  0
CLASS
  1
SUN
  2
AcDbSun
  3
SCENEOE
 90
     1153
 91
        4
280
     0
281
     0
  0
CLASS
  1
DICTIONARYVAR
  2
AcDbDictionaryVar
  3
ObjectDBX Classes
 90
        0
 91
        4
280
     0
281
     0
  0
CLASS
  1
CELLSTYLEMAP
  2
AcDbCellStyleMap
  3
ObjectDBX Classes
 90
     1152
 91
        4
280
     0
281
     0
  0
ENDSEC
  0
SECTION
  2
TABLES
  0
TABLE
  2
VPORT
  5
8
330
0
100
AcDbSymbolTable
 70
     1
  0
VPORT
  5
29
330
8
100
AcDbSymbolTableRecord
100
AcDbViewportTableRecord
  2
*Active
 70
     0
 10
0.0
 20
0.0
 11
1.0
 21
1.0
 12
0.0
 22
-10.7677612968
 13
0.0
 23
0.0
 14
10.0
 24
10.0
 15
10.0
 25
10.0
 16
0.0
 26
0.0
 36
1.0
 17
0.0
 27
0.0
 37
0.0
 40
357.437902373
 41
1.6265768312
 42
50.0
 43
0.0
 44
0.0
 50
0.0
 51
0.0
 71
     0
 72
   100
 73
     1
 74
     3
 75
     0
 76
     0
 77
     0
 78
     0
281
     0
 65
     1
110
0.0
120
0.0
130
0.0
111
1.0
121
0.0
131
0.0
112
0.0
122
1.0
132
0.0
 79
     0
146
0.0
348
2F
 60
     3
 61
     5
292
     1
282
     1
141
0.0
142
0.0
 63
   250
361
6D
  0
ENDTAB
  0
TABLE
  2
LTYPE
  5
5
330
0
100
AcDbSymbolTable
 70
     6
  0
LTYPE
  5
14
330
5
100
AcDbSymbolTableRecord
100
AcDbLinetypeTableRecord
  2
ByBlock
 70
     0
  3

 72
    65
 73
     0
 40
0.0
  0
LTYPE
  5
15
330
5
100
AcDbSymbolTableRecord
100
AcDbLinetypeTableRecord
  2
ByLayer
 70
     0
  3

 72
    65
 73
     0
 40
0.0
  0
LTYPE
  5
16
330
5
100
AcDbSymbolTableRecord
100
AcDbLinetypeTableRecord
  2
Continuous
 70
     0
  3
Solid line
 72
    65
 73
     0
 40
0.0
  0
LTYPE
  5
6E
330
5
100
AcDbSymbolTableRecord
100
AcDbLinetypeTableRecord
  2
HIDDEN
 70
     0
  3
Hidden __ __ __ __ __ __ __ __ __ __ __ __ __ __
 72
    65
 73
     2
 40
1.905
 49
1.27
 74
     0
 49
-0.635
 74
     0
  0
LTYPE
  5
6F
330
5
100
AcDbSymbolTableRecord
100
AcDbLinetypeTableRecord
  2
PHANTOM
 70
     0
  3
Phantom ______  __  __  ______  __  __  ______
 72
    65
 73
     6
 40
12.7
 49
6.35
 74
     0
 49
-1.27
 74
     0
 49
1.27
 74
     0
 49
-1.27
 74
     0
 49
1.27
 74
     0
 49
-1.27
 74
     0
  0
LTYPE
  5
70
330
5
100
AcDbSymbolTableRecord
100
AcDbLinetypeTableRecord
  2
CENTER
 70
     0
  3
Center ____ _ ____ _ ____ _ ____ _ ____ _ ____
 72
    65
 73
     4
 40
10.16
 49
6.35
 74
     0
 49
-1.27
 74
     0
 49
1.27
 74
     0
 49
-1.27
 74
     0
  0
LTYPE
  5
71
330
5
100
AcDbSymbolTableRecord
100
AcDbLinetypeTableRecord
  2
CENTERX2
 70
     0
  3
Center (2x) ________  __  ________  __  _____
 72
    65
 73
     4
 40
20.32
 49
12.7
 74
     0
 49
-2.54
 74
     0
 49
2.54
 74
     0
 49
-2.54
 74
     0
  0
LTYPE
  5
72
330
5
100
AcDbSymbolTableRecord
100
AcDbLinetypeTableRecord
  2
DOT2
 70
     0
  3
Dot (.5x) ........................................
 72
    65
 73
     2
 40
0.635
 49
0.0
 74
     0
 49
-0.635
 74
     0
  0
ENDTAB
  0
TABLE
  2
LAYER
  5
2
330
0
100
AcDbSymbolTable
 70
     1
  0
LAYER
  5
10
330
2
100
AcDbSymbolTableRecord
100
AcDbLayerTableRecord
  2
0
 70
     0
 62
     7
  6
Continuous
370
    -3
390
F
347
46
  0
ENDTAB
  0
TABLE
  2
STYLE
  5
3
330
0
100
AcDbSymbolTable
 70
     1
  0
STYLE
  5
11
330
3
100
AcDbSymbolTableRecord
100
AcDbTextStyleTableRecord
  2
Standard
 70
     0
 40
0.0
 41
1.0
 50
0.0
 71
     0
 42
3.5
  3
txt
  4

  0
ENDTAB
  0
TABLE
  2
VIEW
  5
6
330
0
100
AcDbSymbolTable
 70
     0
  0
ENDTAB
  0
TABLE
  2
UCS
  5
7
330
0
100
AcDbSymbolTable
 70
     0
  0
ENDTAB
  0
TABLE
  2
APPID
  5
9
330
0
100
AcDbSymbolTable
 70
     2
  0
APPID
  5
12
330
9
100
AcDbSymbolTableRecord
100
AcDbRegAppTableRecord
  2
ACAD
 70
     0
  0
APPID
  5
146
330
9
100
AcDbSymbolTableRecord
100
AcDbRegAppTableRecord
  2
ACAD_MLEADERVER
 70
     0
  0
ENDTAB
  0
TABLE
  2
DIMSTYLE
  5
A
330
0
100
AcDbSymbolTable
 70
     1
100
AcDbDimStyleTable
  0
DIMSTYLE
105
27
330
A
100
AcDbSymbolTableRecord
100
AcDbDimStyleTableRecord
  2
ISO-25
 70
     0
 41
2.5
 42
0.625
 43
3.75
 44
1.25
 73
     0
 74
     0
 77
     1
 78
     8
140
2.5
141
2.5
143
0.0393700787
147
0.625
171
     3
172
     1
178
     0
271
     2
272
     2
274
     3
278
    44
283
     0
284
     8
340
11
  0
ENDTAB
  0
TABLE
  2
BLOCK_RECORD
  5
1
330
0
100
AcDbSymbolTable
 70
     9
  0
BLOCK_RECORD
  5
1F
330
1
100
AcDbSymbolTableRecord
100
AcDbBlockTableRecord
  2
*Model_Space
340
22
 70
     0
280
     1
281
     0
  0
BLOCK_RECORD
  5
1B
330
1
100
AcDbSymbolTableRecord
100
AcDbBlockTableRecord
  2
*Paper_Space
340
1E
 70
     0
280
     1
281
     0
  0
BLOCK_RECORD
  5
23
330
1
100
AcDbSymbolTableRecord
100
AcDbBlockTableRecord
  2
*Paper_Space0
340
26
 70
     0
280
     1
281
     0
  0
BLOCK_RECORD
  5
95
330
1
100
AcDbSymbolTableRecord
100
AcDbBlockTableRecord
  2
*Paper_Space1
340
96
 70
     0
280
     1
281
     0
  0
BLOCK_RECORD
  5
B2
330
1
100
AcDbSymbolTableRecord
100
AcDbBlockTableRecord
  2
*Paper_Space2
340
B3
 70
     0
280
     1
281
     0
  0
BLOCK_RECORD
  5
CA
330
1
100
AcDbSymbolTableRecord
100
AcDbBlockTableRecord
  2
*Paper_Space3
340
CB
 70
     0
280
     1
281
     0
  0
BLOCK_RECORD
  5
E2
330
1
100
AcDbSymbolTableRecord
100
AcDbBlockTableRecord
  2
*Paper_Space4
340
E3
 70
     0
280
     1
281
     0
  0
BLOCK_RECORD
  5
F7
330
1
100
AcDbSymbolTableRecord
100
AcDbBlockTableRecord
  2
*Paper_Space5
340
F8
 70
     0
280
     1
281
     0
  0
BLOCK_RECORD
  5
101
330
1
100
AcDbSymbolTableRecord
100
AcDbBlockTableRecord
  2
*Paper_Space6
340
102
 70
     0
280
     1
281
     0
  0
BLOCK_RECORD
  5
110
330
1
100
AcDbSymbolTableRecord
100
AcDbBlockTableRecord
  2
*Paper_Space7
340
111
 70
     0
280
     1
281
     0
  0
BLOCK_RECORD
  5
121
330
1
100
AcDbSymbolTableRecord
100
AcDbBlockTableRecord
  2
*Paper_Space8
340
122
 70
     0
280
     1
281
     0
  0
ENDTAB
  0
ENDSEC
  0
SECTION
  2
BLOCKS
  0
BLOCK
  5
20
330
1F
100
AcDbEntity
  8
0
100
AcDbBlockBegin
  2
*Model_Space
 70
     0
 10
0.0
 20
0.0
 30
0.0
  3
*Model_Space
  1

  0
ENDBLK
  5
21
330
1F
100
AcDbEntity
  8
0
100
AcDbBlockEnd
  0
BLOCK
  5
1C
330
1B
100
AcDbEntity
 67
     1
  8
0
100
AcDbBlockBegin
  2
*Paper_Space
 70
     0
 10
0.0
 20
0.0
 30
0.0
  3
*Paper_Space
  1

  0
ENDBLK
  5
1D
330
1B
100
AcDbEntity
 67
     1
  8
0
100
AcDbBlockEnd
  0
BLOCK
  5
24
330
23
100
AcDbEntity
  8
0
100
AcDbBlockBegin
  2
*Paper_Space0
 70
     0
 10
0.0
 20
0.0
 30
0.0
  3
*Paper_Space0
  1

  0
SPLINE
  5
81
330
23
100
AcDbEntity
  8
0
  6
Continuous
 62
     7
370
    25
100
AcDbSpline
210
0.0
220
0.0
230
1.0
 70
     8
 71
     3
 72
    15
 73
    11
 74
     0
 42
0.000000001
 43
0.00000001
 40
0.0
 40
0.0
 40
0.0
 40
0.0
 40
0.1198955829174983
 40
0.2456253780107001
 40
0.371354837177139
 40
0.4970833476555579
 40
0.6228118450528655
 40
0.7485411638548266
 40
0.8742707448391096
 40
1.0
 40
1.0
 40
1.0
 40
1.0
 10
224.5351783267852
 20
-90.01690134049997
 30
0.0
 10
229.8092073678911
 20
-87.236031370523
 30
0.0
 10
240.6139037990552
 20
-81.53897213820561
 30
0.0
 10
256.4398492859086
 20
-72.00946471460718
 30
0.0
 10
272.0997254780503
 20
-61.68175051386402
 30
0.0
 10
287.2726770377272
 20
-50.64797076778073
 30
0.0
 10
301.941465786347
 20
-38.95239932726817
 30
0.0
 10
316.0605753994964
 20
-26.60137330534229
 30
0.0
 10
329.6595864001055
 20
-13.6732107698507
 30
0.0
 10
338.2198658306461
 20
-4.557732986209887
 30
0.0
 10
342.5000000000002
 20
0.0
 30
0.0
  0
SPLINE
  5
82
330
23
100
AcDbEntity
  8
0
  6
Continuous
 62
     7
370
    25
100
AcDbSpline
210
0.0
220
0.0
230
1.0
 70
     8
 71
     3
 72
    15
 73
    11
 74
     0
 42
0.000000001
 43
0.00000001
 40
0.0
 40
0.0
 40
0.0
 40
0.0
 40
0.1257906190669046
 40
0.2515815641162241
 40
0.3773722468552593
 40
0.503162107788744
 40
0.6289519818097257
 40
0.7547428049817474
 40
0.8805339642444853
 40
1.0
 40
1.0
 40
1.0
 40
1.0
 10
-342.5000000000001
 20
0.0
 30
0.0
 10
-338.2198658522474
 20
-4.557733025064445
 30
0.0
 10
-329.6595864649096
 20
-13.67321088641448
 30
0.0
 10
-316.0605751402786
 20
-26.60137283908609
 30
0.0
 10
-301.9414667584085
 20
-38.95240107571975
 30
0.0
 10
-287.2726734087243
 20
-50.64796424027523
 30
0.0
 10
-272.099739022055
 20
-61.68177487553304
 30
0.0
 10
-256.4397987384224
 20
-72.00937379459195
 30
0.0
 10
-240.6348779974151
 20
-81.52678592435345
 30
0.0
 10
-229.8517464759073
 20
-87.2127214581742
 30
0.0
 10
-224.5992278869664
 20
-89.98236977669316
 30
0.0
  0
SPLINE
  5
85
330
23
100
AcDbEntity
  8
0
  6
Continuous
 62
     7
370
    25
100
AcDbSpline
210
0.0
220
0.0
230
1.0
 70
     8
 71
     3
 72
    15
 73
    11
 74
     0
 42
0.000000001
 43
0.00000001
 40
0.0
 40
0.0
 40
0.0
 40
0.0
 40
0.0759623310505311
 40
0.1659244786042912
 40
0.2699291154439279
 40
0.3879068742345972
 40
0.5198447030686085
 40
0.6657413481065846
 40
0.8256593842529939
 40
1.0
 40
1.0
 40
1.0
 40
1.0
 10
67.80324967569284
 20
-135.0482863233055
 30
0.0
 10
68.38126932417146
 20
-134.9872797272501
 30
0.0
 10
69.64383732952994
 20
-134.8540230525021
 30
0.0
 10
71.50370827454869
 20
-134.6530083862204
 30
0.0
 10
73.48573380742627
 20
-134.4347388640307
 30
0.0
 10
75.50191278163491
 20
-134.2075430905075
 30
0.0
 10
77.47156247901691
 20
-133.9804255571685
 30
0.0
 10
79.27362065622745
 20
-133.7680010773382
 30
0.0
 10
80.82732581931965
 20
-133.581046305979
 30
0.0
 10
81.42861380873393
 20
-133.5093186776629
 30
0.0
 10
81.74222997909169
 20
-133.4719074130154
 30
0.0
  0
SPLINE
  5
86
330
23
100
AcDbEntity
  8
0
  6
Continuous
 62
     7
370
    25
100
AcDbSpline
210
0.0
220
0.0
230
1.0
 70
     8
 71
     3
 72
    22
 73
    18
 74
     0
 42
0.000000001
 43
0.00000001
 40
0.0
 40
0.0
 40
0.0
 40
0.0
 40
0.0974087022307404
 40
0.1969738031606277
 40
0.2893932292326083
 40
0.3746665806942576
 40
0.4527937300706468
 40
0.5237747886917196
 40
0.5876099391549502
 40
0.6442991779838838
 40
0.6993072007052058
 40
0.7453511103014341
 40
0.7842682982780583
 40
0.8271627736704826
 40
0.8783647154894499
 40
0.9359771578551321
 40
1.0
 40
1.0
 40
1.0
 40
1.0
 10
-212.4916216174497
 20
-95.95405476889938
 30
0.0
 10
-208.4678231004305
 20
-97.82307822965802
 30
0.0
 10
-200.3311486668475
 20
-101.6025009180951
 30
0.0
 10
-188.1466903456157
 20
-106.6368195231846
 30
0.0
 10
-176.3437425976964
 20
-111.1275822283833
 30
0.0
 10
-165.3348292437111
 20
-114.9463595012698
 30
0.0
 10
-155.1600318481432
 20
-118.1773652110774
 30
0.0
 10
-145.8471768791542
 20
-120.8865385595265
 30
0.0
 10
-137.420492340445
 20
-123.1381531017805
 30
0.0
 10
-129.6577495632972
 20
-125.0498777784104
 30
0.0
 10
-122.6517360992491
 20
-126.6407252007012
 30
0.0
 10
-116.4128129138411
 20
-127.9499855225479
 30
0.0
 10
-110.6979047335416
 20
-129.066948175905
 30
0.0
 10
-104.7375322362237
 20
-130.1503057634812
 30
0.0
 10
-97.92093106410105
 20
-131.2793245868272
 30
0.0
 10
-90.13460471055052
 20
-132.4390418006363
 30
0.0
 10
-84.63627880036194
 20
-133.1157312884145
 30
0.0
 10
-81.74222997871013
 20
-133.4719074130601
 30
0.0
  0
SPLINE
  5
87
330
23
100
AcDbEntity
  8
0
  6
Continuous
 62
     7
370
    25
100
AcDbSpline
210
0.0
220
0.0
230
1.0
 70
     8
 71
     3
 72
    15
 73
    11
 74
     0
 42
0.000000001
 43
0.00000001
 40
0.0
 40
0.0
 40
0.0
 40
0.0
 40
0.1270090439051052
 40
0.2523285768845499
 40
0.3766798369268071
 40
0.5006201581981701
 40
0.6245648468494072
 40
0.7489088711420185
 40
0.8739939160452778
 40
1.0
 40
1.0
 40
1.0
 40
1.0
 10
-81.74222997839199
 20
-133.4719074130973
 30
0.0
 10
-81.60605080186254
 20
-133.4882920476896
 30
0.0
 10
-81.33550394347769
 20
-133.5208433637403
 30
0.0
 10
-80.3811288634211
 20
-133.6369847663394
 30
0.0
 10
-79.06877296827135
 20
-133.7939976262945
 30
0.0
 10
-77.39262457336663
 20
-133.9907433855574
 30
0.0
 10
-75.39836586206793
 20
-134.2199331325587
 30
0.0
 10
-73.1131963513199
 20
-134.4763700962958
 30
0.0
 10
-70.58698859688069
 20
-134.7535042593339
 30
0.0
 10
-68.73342902557151
 20
-134.9497856390104
 30
0.0
 10
-67.80324967586787
 20
-135.0482863232789
 30
0.0
  0
SPLINE
  5
88
330
23
100
AcDbEntity
  8
0
  6
Continuous
 62
     7
370
    25
100
AcDbSpline
210
0.0
220
0.0
230
1.0
 70
     8
 71
     3
 72
    23
 73
    19
 74
     0
 42
0.000000001
 43
0.00000001
 40
0.0
 40
0.0
 40
0.0
 40
0.0
 40
0.0612953974094936
 40
0.1167457420983196
 40
0.1663509526453759
 40
0.2101109411506406
 40
0.240548184824317
 40
0.2734788994783051
 40
0.3119476375765252
 40
0.3559543262575436
 40
0.4126838410632156
 40
0.4765643444556489
 40
0.5475958329559191
 40
0.6257784892912299
 40
0.7111124248706218
 40
0.8035975121285983
 40
0.9032333510287232
 40
1.0
 40
1.0
 40
1.0
 40
1.0
 10
81.74222997870982
 20
-133.47190741306
 30
0.0
 10
84.511100405582
 20
-133.131857548553
 30
0.0
 10
89.78480522553342
 20
-132.4841845509038
 30
0.0
 10
97.27500336919947
 20
-131.3785819771672
 30
0.0
 10
103.9588973300282
 20
-130.2843906391177
 30
0.0
 10
109.5046064567589
 20
-129.2879163935375
 30
0.0
 10
114.2925978586768
 20
-128.3682950551747
 30
0.0
 10
118.8348664000524
 20
-127.4471859175321
 30
0.0
 10
123.9699607557792
 20
-126.3437039421377
 30
0.0
 10
130.1456421894058
 20
-124.9297217058173
 30
0.0
 10
137.4204963677887
 20
-123.1381532239181
 30
0.0
 10
145.8471755020327
 20
-120.8865382795596
 30
0.0
 10
155.1600327427559
 20
-118.1773663506772
 30
0.0
 10
165.3348269621009
 20
-114.9463546289698
 30
0.0
 10
176.3437518113242
 20
-111.1276029060384
 30
0.0
 10
188.1466517685153
 20
-106.6367326306792
 30
0.0
 10
200.3013774379344
 20
-101.615212219919
 30
0.0
 10
208.4087799430613
 20
-97.84962580185946
 30
0.0
 10
212.4032617889133
 20
-95.99433780099685
 30
0.0
  0
SPLINE
  5
8B
330
23
100
AcDbEntity
  8
0
  6
Continuous
 62
     7
370
    25
100
AcDbSpline
210
0.0
220
0.0
230
1.0
 70
    24
 71
     3
 72
    60
 73
    56
 74
     0
 42
0.000000001
 43
0.00000001
 40
0.0
 40
0.0
 40
0.0
 40
0.0
 40
0.0135056625999044
 40
0.0308675625345881
 40
0.046412142484469
 40
0.0620604924388991
 40
0.0778060150449269
 40
0.0936474522223
 40
0.110382177894229
 40
0.1272119565211602
 40
0.1441250547130531
 40
0.1611149230885395
 40
0.1813312805329936
 40
0.2016434098286915
 40
0.2233909144520141
 40
0.2452303458256302
 40
0.2679963239374835
 40
0.2863196418776326
 40
0.3046795994035105
 40
0.3231404931543832
 40
0.3416339407603162
 40
0.3602529350532748
 40
0.3789016591641683
 40
0.3976458180495711
 40
0.4164173506802733
 40
0.4352179500575906
 40
0.4540440721577369
 40
0.4729494041652356
 40
0.4918804021289689
 40
0.510914375429259
 40
0.5299751508125679
 40
0.5491168072202356
 40
0.5682849976796768
 40
0.5896266049087753
 40
0.6110067893497997
 40
0.632524927988633
 40
0.654087212317919
 40
0.675835790037171
 40
0.6976363368498749
 40
0.7195928265723716
 40
0.7416122969261284
 40
0.761524682741192
 40
0.7814972375184601
 40
0.8009418449298584
 40
0.8204595606536812
 40
0.8396880502971493
 40
0.8588778786511303
 40
0.8781773557966016
 40
0.8976022567223596
 40
0.9171779640401945
 40
0.9333595756203483
 40
0.9496481041373217
 40
0.966048932141367
 40
0.9825746216198569
 40
1.0
 40
1.0
 40
1.0
 40
1.0
 10
224.5260661686964
 20
-90.00000000000003
 30
0.0
 10
224.5007462425982
 20
-90.00000000000003
 30
0.0
 10
224.4428768565961
 20
-90.00000000000009
 30
0.0
 10
223.2328897853485
 20
-90.00000000000001
 30
0.0
 10
221.2360705805002
 20
-90.00000000000001
 30
0.0
 10
218.543029209562
 20
-89.99999999999996
 30
0.0
 10
215.1311682716012
 20
-90.00000000000013
 30
0.0
 10
210.9533028591826
 20
-89.99999999999982
 30
0.0
 10
206.0140206904014
 20
-90.00000000000007
 30
0.0
 10
200.3294174586426
 20
-89.99999999999999
 30
0.0
 10
194.0378514224017
 20
-90.0
 30
0.0
 10
186.7770733585723
 20
-90.0
 30
0.0
 10
178.4942230903238
 20
-90.00000000000004
 30
0.0
 10
168.9490538131277
 20
-90.00000000000014
 30
0.0
 10
158.618349999005
 20
-89.99999999999987
 30
0.0
 10
147.3956066385214
 20
-90.00000000000003
 30
0.0
 10
136.3501477852444
 20
-90.00000000000001
 30
0.0
 10
125.6224435786659
 20
-90.0
 30
0.0
 10
115.4586299120158
 20
-90.00000000000009
 30
0.0
 10
105.0758273379064
 20
-89.99999999999996
 30
0.0
 10
94.47926329273747
 20
-89.99999999999999
 30
0.0
 10
83.7031481910023
 20
-90.0
 30
0.0
 10
72.75491110843333
 20
-90.00000000000013
 30
0.0
 10
61.67235454753066
 20
-89.99999999999989
 30
0.0
 10
50.47348692973873
 20
-90.00000000000006
 30
0.0
 10
39.18943360523967
 20
-90.00000000000001
 30
0.0
 10
27.82576595313404
 20
-90.0
 30
0.0
 10
16.39827767005882
 20
-90.00000000000003
 30
0.0
 10
4.906356569792328
 20
-89.99999999999997
 30
0.0
 10
-6.623974481758308
 20
-89.99999999999991
 30
0.0
 10
-18.18747519507398
 20
-90.0000000000001
 30
0.0
 10
-29.75278369286141
 20
-89.99999999999989
 30
0.0
 10
-41.73487382952256
 20
-90.00000000000004
 30
0.0
 10
-54.10119295252812
 20
-89.99999999999996
 30
0.0
 10
-66.84063016395218
 20
-90.00000000000009
 30
0.0
 10
-79.49976156338082
 20
-89.9999999999999
 30
0.0
 10
-92.07633386520187
 20
-89.99999999999994
 30
0.0
 10
-104.5187659933309
 20
-90.00000000000003
 30
0.0
 10
-116.8090405059086
 20
-89.99999999999999
 30
0.0
 10
-128.8806146021972
 20
-89.99999999999996
 30
0.0
 10
-140.2976352602963
 20
-90.00000000000001
 30
0.0
 10
-151.0238583339747
 20
-89.99999999999994
 30
0.0
 10
-160.9465309866814
 20
-89.99999999999999
 30
0.0
 10
-170.3893940849217
 20
-89.99999999999997
 30
0.0
 10
-179.2532931353371
 20
-89.99999999999997
 30
0.0
 10
-187.5578966204269
 20
-90.00000000000004
 30
0.0
 10
-195.2423954550538
 20
-90.00000000000006
 30
0.0
 10
-202.2708472266595
 20
-90.0
 30
0.0
 10
-208.5555354235952
 20
-89.99999999999999
 30
0.0
 10
-213.6542795478183
 20
-89.99999999999999
 30
0.0
 10
-217.6442108464719
 20
-89.9999999999999
 30
0.0
 10
-220.6493913416247
 20
-90.00000000000007
 30
0.0
 10
-222.8585871606273
 20
-89.99999999999991
 30
0.0
 10
-224.323115965923
 20
-89.99999999999999
 30
0.0
 10
-224.5118747784833
 20
-90.00000000000004
 30
0.0
 10
-224.6087551990093
 20
-90.00000000000006
 30
0.0
  0
SPLINE
  5
8C
330
23
100
AcDbEntity
  8
0
  6
Continuous
 62
     7
370
    25
100
AcDbSpline
210
0.0
220
0.0
230
1.0
 70
    24
 71
     3
 72
    21
 73
    17
 74
     0
 42
0.000000001
 43
0.00000001
 40
0.4999999999999999
 40
0.4999999999999999
 40
0.4999999999999999
 40
0.4999999999999999
 40
0.5416666666666667
 40
0.5833333333333333
 40
0.625
 40
0.6666666666666667
 40
0.7083333333333333
 40
0.7499999999996151
 40
0.7916666666666666
 40
0.8333333333333334
 40
0.875
 40
0.9166666666666666
 40
0.9583333333333334
 40
0.9916666666666667
 40
0.99375
 40
1.0
 40
1.0
 40
1.0
 40
1.0
 10
342.5000000000002
 20
0.0
 30
0.0
 10
342.5000000000002
 20
0.0
 30
0.0
 10
334.4589211445978
 20
0.0
 30
0.0
 10
300.2359668465141
 20
0.0
 30
0.0
 10
245.0270232497479
 20
0.0
 30
0.0
 10
172.7603754928494
 20
0.0
 30
0.0
 10
90.13885508194136
 20
0.0
 30
0.0
 10
-0.0000000000000703
 20
0.0
 30
0.0
 10
-90.13885508194154
 20
0.0
 30
0.0
 10
-172.7603754928496
 20
0.0
 30
0.0
 10
-245.0270232497479
 20
0.0
 30
0.0
 10
-300.2359668465141
 20
0.0
 30
0.0
 10
-332.1773908580587
 20
0.0
 30
0.0
 10
-340.9820045202297
 20
0.0
 30
0.0
 10
-342.3793838171691
 20
0.0
 30
0.0
 10
-342.5000000000001
 20
0.0
 30
0.0
 10
-342.5000000000001
 20
0.0
 30
0.0
  0
SPLINE
  5
8D
330
23
100
AcDbEntity
  8
0
  6
Continuous
 62
     7
370
    25
100
AcDbSpline
210
0.0
220
0.0
230
1.0
 70
     8
 71
     3
 72
    61
 73
    57
 74
     0
 42
0.000000001
 43
0.00000001
 40
0.0
 40
0.0
 40
0.0
 40
0.0
 40
0.015883377052204
 40
0.0318992773598165
 40
0.0480389474494559
 40
0.0644674741238237
 40
0.0803294075275371
 40
0.0962874412580099
 40
0.1123365792564989
 40
0.128587348782507
 40
0.1517176001386445
 40
0.175029468040308
 40
0.1988348551131366
 40
0.2227798870194633
 40
0.2467354928774157
 40
0.2707946394732277
 40
0.2891064263133172
 40
0.3074543937715952
 40
0.3259045364872231
 40
0.3443859598953823
 40
0.362696459476503
 40
0.381033690344693
 40
0.3994483461805935
 40
0.4178875663840276
 40
0.4361974795081478
 40
0.4545298978453369
 40
0.4729292053454601
 40
0.491350503869021
 40
0.5096602545018306
 40
0.5279915253885086
 40
0.5463882537643722
 40
0.5648071795808134
 40
0.5831170691181679
 40
0.6014499559222986
 40
0.619854851508345
 40
0.6382850909925555
 40
0.6565955321940896
 40
0.6749339163916332
 40
0.6933624508161753
 40
0.7118239552713272
 40
0.7273297663084678
 40
0.7428595590539141
 40
0.7584147329416822
 40
0.7739986380106229
 40
0.7998196305877685
 40
0.8258076004071339
 40
0.8475879179166933
 40
0.8695105529018675
 40
0.8883274472406625
 40
0.9072692262062226
 40
0.9240507285478305
 40
0.9409454525528427
 40
0.9582277319061988
 40
0.975657851348108
 40
0.9918306372274416
 40
1.0
 40
1.0
 40
1.0
 40
1.0
 10
-212.5
 20
-95.97239835804508
 30
0.0
 10
-212.4227171038455
 20
-95.97431817196444
 30
0.0
 10
-212.2675065002378
 20
-95.97817381780675
 30
0.0
 10
-211.0124835650397
 20
-96.01358321166036
 30
0.0
 10
-209.0063431572983
 20
-96.07390160948418
 30
0.0
 10
-206.2255727879503
 20
-96.15910783644009
 30
0.0
 10
-202.7530214432612
 20
-96.26365837076025
 30
0.0
 10
-198.6682186865376
 20
-96.3817501243643
 30
0.0
 10
-193.9590913826287
 20
-96.51175680197882
 30
0.0
 10
-187.9301371576617
 20
-96.67095824812998
 30
0.0
 10
-180.3416480071409
 20
-96.86189185472362
 30
0.0
 10
-170.9779149073479
 20
-97.09154046687185
 30
0.0
 10
-160.758913522292
 20
-97.33892113664461
 30
0.0
 10
-149.8074813729123
 20
-97.59478683046878
 30
0.0
 10
-138.2784289592856
 20
-97.84540146029438
 30
0.0
 10
-127.2356221724912
 20
-98.07794037001426
 30
0.0
 10
-116.8473852105339
 20
-98.29220147816461
 30
0.0
 10
-107.2271068401836
 20
-98.48583683063508
 30
0.0
 10
-97.41027351033456
 20
-98.67533372400028
 30
0.0
 10
-87.45560152197791
 20
-98.8554903344358
 30
0.0
 10
-77.39824192804878
 20
-99.02268446672471
 30
0.0
 10
-67.24895753876284
 20
-99.17449737821426
 30
0.0
 10
-56.98816540649819
 20
-99.30952703559906
 30
0.0
 10
-46.66012089829407
 20
-99.42615936748196
 30
0.0
 10
-36.29002269048175
 20
-99.52454146284143
 30
0.0
 10
-25.88373394554452
 20
-99.60367559089555
 30
0.0
 10
-15.42549830805215
 20
-99.66093232217068
 30
0.0
 10
-4.953272507311598
 20
-99.69238504876886
 30
0.0
 10
5.511828246913994
 20
-99.69141950734603
 30
0.0
 10
15.96579345394456
 20
-99.65855466376675
 30
0.0
 10
26.42163051846011
 20
-99.6001175812324
 30
0.0
 10
36.8418377371074
 20
-99.51979758117146
 30
0.0
 10
47.20541977190445
 20
-99.42045097454806
 30
0.0
 10
57.50833586140777
 20
-99.3031230711144
 30
0.0
 10
67.76094232263077
 20
-99.16728125888683
 30
0.0
 10
77.92069558885188
 20
-99.01441103762832
 30
0.0
 10
87.96284551631807
 20
-98.8466234458585
 30
0.0
 10
97.88119533086969
 20
-98.66647242986285
 30
0.0
 10
107.6819486992828
 20
-98.47683557742593
 30
0.0
 10
116.8204451973399
 20
-98.29262731943744
 30
0.0
 10
125.2925653988014
 20
-98.11802633717882
 30
0.0
 10
133.1118296721751
 20
-97.95434404347644
 30
0.0
 10
140.7688439385664
 20
-97.79122117347809
 30
0.0
 10
149.8726241040791
 20
-97.59253490890362
 30
0.0
 10
160.2203577629768
 20
-97.35213940766597
 30
0.0
 10
170.8142814993577
 20
-97.09551567072862
 30
0.0
 10
180.0989678994844
 20
-96.86778236295474
 30
0.0
 10
187.7107463263031
 20
-96.67666983594748
 30
0.0
 10
194.2300024541468
 20
-96.5048171831055
 30
0.0
 10
199.4714152976302
 20
-96.35916513856395
 30
0.0
 10
203.7934274669171
 20
-96.23280544437156
 30
0.0
 10
207.2398750902149
 20
-96.12802157225937
 30
0.0
 10
209.9237078462265
 20
-96.04603553790048
 30
0.0
 10
211.6470236467708
 20
-95.99514534488041
 30
0.0
 10
212.4750097315604
 20
-95.97294918034943
 30
0.0
 10
212.4147263913507
 20
-95.97456552624388
 30
0.0
 10
212.3944949613995
 20
-95.9751079810685
 30
0.0
  0
SPLINE
  5
8E
330
23
100
AcDbEntity
  8
0
  6
Continuous
 62
     7
370
    25
100
AcDbSpline
210
0.0
220
0.0
230
1.0
 70
     8
 71
     3
 72
    25
 73
    21
 74
     0
 42
0.000000001
 43
0.00000001
 40
0.0
 40
0.0
 40
0.0
 40
0.0
 40
0.0304428941803247
 40
0.080809594724011
 40
0.1341933318282253
 40
0.1903981932932406
 40
0.2489333711906275
 40
0.3092735995897547
 40
0.3713827472515058
 40
0.435158230145538
 40
0.4998424047199779
 40
0.564526579294388
 40
0.6283020621882824
 40
0.6904112098497577
 40
0.7507514382486211
 40
0.8092866161459056
 40
0.8654914776109234
 40
0.9188752147151589
 40
0.9692419152588652
 40
1.0
 40
1.0
 40
1.0
 40
1.0
 10
67.8448354672953
 20
-135.0384615824576
 30
0.0
 10
66.95980129714107
 20
-135.1322232857925
 30
0.0
 10
64.61050913774817
 20
-135.381110438316
 30
0.0
 10
59.64742251798423
 20
-135.8397602978874
 30
0.0
 10
53.17929452870844
 20
-136.3754420486692
 30
0.0
 10
45.74214809823133
 20
-136.9117234137943
 30
0.0
 10
37.56997695057446
 20
-137.4171390150573
 30
0.0
 10
28.78322146338862
 20
-137.8652611902612
 30
0.0
 10
19.50308073506151
 20
-138.2227209307371
 30
0.0
 10
9.854076084754112
 20
-138.4592175959276
 30
0.0
 10
0.0000000406101732
 20
-138.5478806241332
 30
0.0
 10
-9.85407624632701
 20
-138.4592175899442
 30
0.0
 10
-19.50308018464921
 20
-138.2227209540014
 30
0.0
 10
-28.78322342587262
 20
-137.8652611065072
 30
0.0
 10
-37.56996994388351
 20
-137.4171393142504
 30
0.0
 10
-45.74217297867972
 20
-136.9117223512725
 30
0.0
 10
-53.17920756220656
 20
-136.3754457625432
 30
0.0
 10
-59.64772213179155
 20
-135.8397475029343
 30
0.0
 10
-64.62128814163688
 20
-135.3800706739047
 30
0.0
 10
-66.97925316090252
 20
-135.1302336994088
 30
0.0
 10
-67.8732646226839
 20
-135.0355091734081
 30
0.0
  0
LINE
  5
90
330
23
100
AcDbEntity
  8
0
  6
Continuous
 62
     7
370
    25
100
AcDbLine
 10
-212.5
 20
-90.0
 30
0.0
 11
-212.5
 21
-95.972398358
 31
0.0
  0
LINE
  5
91
330
23
100
AcDbEntity
  8
0
  6
Continuous
 62
     7
370
    25
100
AcDbLine
 10
212.5
 20
-95.9751079811
 30
0.0
 11
212.5
 21
-90.0
 31
0.0
  0
LINE
  5
92
330
23
100
AcDbEntity
  8
0
  6
Continuous
 62
     7
370
    25
100
AcDbLine
 10
75.0
 20
-145.0
 30
0.0
 11
75.0
 21
-134.2055241856
 31
0.0
  0
LINE
  5
93
330
23
100
AcDbEntity
  8
0
  6
Continuous
 62
     7
370
    25
100
AcDbLine
 10
-75.0
 20
-134.2055241856
 30
0.0
 11
-75.0
 21
-145.0
 31
0.0
  0
LINE
  5
94
330
23
100
AcDbEntity
  8
0
  6
Continuous
 62
     7
370
    25
100
AcDbLine
 10
75.0
 20
-145.0
 30
0.0
 11
-75.0
 21
-145.0
 31
0.0
  0
VIEWPORT
  5
130
330
23
100
AcDbEntity
  8
0
100
AcDbViewport
 10
0.0
 20
0.0
 30
0.0
 40
205.6
 41
156.0
 68
     1
 69
     1
 12
0.0
 22
-10.7677612968
 13
0.0
 23
0.0
 14
10.0
 24
10.0
 15
10.0
 25
10.0
 16
0.0
 26
0.0
 36
1.0
 17
0.0
 27
0.0
 37
0.0
 42
50.0
 43
0.0
 44
0.0
 45
441.1402376099
 50
0.0
 51
0.0
 72
   100
 90
   557152
  1

281
     0
 71
     1
 74
     0
110
0.0
120
0.0
130
0.0
111
1.0
121
0.0
131
0.0
112
0.0
122
1.0
132
0.0
 79
     0
146
0.0
170
     0
 61
     5
348
2F
292
     1
282
     1
141
0.0
142
0.0
 63
   256
361
131
  0
ENDBLK
  5
25
330
23
100
AcDbEntity
  8
0
100
AcDbBlockEnd
  0
BLOCK
  5
97
330
95
100
AcDbEntity
  8
0
100
AcDbBlockBegin
  2
*Paper_Space1
 70
     0
 10
0.0
 20
0.0
 30
0.0
  3
*Paper_Space1
  1

  0
SPLINE
  5
99
330
95
100
AcDbEntity
  8
0
  6
Continuous
 62
     7
370
    25
100
AcDbSpline
210
0.0
220
0.0
230
1.0
 70
     8
 71
     3
 72
    15
 73
    11
 74
     0
 42
0.000000001
 43
0.00000001
 40
0.0
 40
0.0
 40
0.0
 40
0.0
 40
0.0812408923538119
 40
0.2124920949870433
 40
0.3437434197525716
 40
0.4749947107102643
 40
0.6062462295392372
 40
0.7374974889638121
 40
0.8687486198021692
 40
1.0
 40
1.0
 40
1.0
 40
1.0
 10
158.7441571719757
 20
-89.93610992280159
 30
0.0
 10
160.8634005162143
 20
-87.98903781377871
 30
0.0
 10
166.4064521119969
 20
-82.8963139459112
 30
0.0
 10
174.545092408597
 20
-73.81595137906262
 30
0.0
 10
183.179216552794
 20
-62.85712942427768
 30
0.0
 10
190.9323589769618
 20
-51.24977121881074
 30
0.0
 10
197.8033699287717
 20
-39.10106488467025
 30
0.0
 10
203.720803324868
 20
-26.46381889259071
 30
0.0
 10
208.7436218712379
 20
-13.434940740487
 30
0.0
 10
211.2478731641233
 20
-4.478316416222983
 30
0.0
 10
212.5
 20
0.0
 30
0.0
  0
SPLINE
  5
9A
330
95
100
AcDbEntity
  8
0
  6
Continuous
 62
     7
370
    25
100
AcDbSpline
210
0.0
220
0.0
230
1.0
 70
     8
 71
     3
 72
    15
 73
    11
 74
     0
 42
0.000000001
 43
0.00000001
 40
0.0
 40
0.0
 40
0.0
 40
0.0
 40
0.1312562315725902
 40
0.26251221377649
 40
0.3937683245713609
 40
0.5250246947802181
 40
0.6562808371093702
 40
0.7875370132476088
 40
0.9187930672490379
 40
0.9999999999999999
 40
0.9999999999999999
 40
0.9999999999999999
 40
0.9999999999999999
 10
-212.5000000000001
 20
0.0
 30
0.0
 10
-211.2478731683659
 20
-4.478316420535866
 30
0.0
 10
-208.7436218839651
 20
-13.43494075342564
 30
0.0
 10
-203.7208032739594
 20
-26.46381884083612
 30
0.0
 10
-197.8033701196797
 20
-39.10106507875041
 30
0.0
 10
-190.9323582642373
 20
-51.24977049424388
 30
0.0
 10
-183.1792192127792
 20
-62.85713212845961
 30
0.0
 10
-174.5450824813805
 20
-73.81594128690104
 30
0.0
 10
-166.4073582994535
 20
-82.8953691719897
 30
0.0
 10
-160.8652881799765
 20
-87.98722480574146
 30
0.0
 10
-158.7470156169631
 20
-89.9334178078646
 30
0.0
  0
SPLINE
  5
9D
330
95
100
AcDbEntity
  8
0
  6
Continuous
 62
     7
370
    25
100
AcDbSpline
210
0.0
220
0.0
230
1.0
 70
     8
 71
     3
 72
    15
 73
    11
 74
     0
 42
0.000000001
 43
0.00000001
 40
0.0
 40
0.0
 40
0.0
 40
0.0
 40
0.1264333616576693
 40
0.2528665278589591
 40
0.3792996904493732
 40
0.5057332658274827
 40
0.632166468106266
 40
0.7585998961658026
 40
0.8850329419027332
 40
1.0
 40
1.0
 40
1.0
 40
1.0
 10
50.00000000000005
 20
-138.5181872348719
 30
0.0
 10
54.45534890125575
 20
-138.0132185429152
 30
0.0
 10
63.36603981613591
 20
-137.0032819396448
 30
0.0
 10
76.5483688007876
 20
-134.2655952511392
 30
0.0
 10
89.5077642743204
 20
-130.6474248395837
 30
0.0
 10
102.1672650237582
 20
-126.0803734593042
 30
0.0
 10
114.4664763085652
 20
-120.6161512558634
 30
0.0
 10
126.3227377452148
 20
-114.2558674892434
 30
0.0
 10
137.3955301014247
 20
-107.3357898766344
 30
0.0
 10
144.2063191075296
 20
-102.1490781846105
 30
0.0
 10
147.4499646690531
 20
-99.67890118402305
 30
0.0
  0
SPLINE
  5
9E
330
95
100
AcDbEntity
  8
0
  6
Continuous
 62
     7
370
    25
100
AcDbSpline
210
0.0
220
0.0
230
1.0
 70
     8
 71
     3
 72
    15
 73
    11
 74
     0
 42
0.000000001
 43
0.00000001
 40
0.0
 40
0.0
 40
0.0
 40
0.0
 40
0.1148604138729334
 40
0.241308694471137
 40
0.3677573574380175
 40
0.4942057945969381
 40
0.6206546049001412
 40
0.7471030023659095
 40
0.8735514034429892
 40
1.0
 40
1.0
 40
1.0
 40
1.0
 10
-147.4396584688093
 20
-99.68651388679842
 30
0.0
 10
-144.1993945604161
 20
-102.1540772705285
 30
0.0
 10
-137.3919678142328
 20
-107.3381479052679
 30
0.0
 10
-126.3227197443206
 20
-114.2558420188724
 30
0.0
 10
-114.4664811318778
 20
-120.6161580806111
 30
0.0
 10
-102.1672637313838
 20
-126.0803716306589
 30
0.0
 10
-89.50776462049103
 20
-130.6474253293981
 30
0.0
 10
-76.5483687084753
 20
-134.265595120522
 30
0.0
 10
-63.36603983921382
 20
-137.0032819722991
 30
0.0
 10
-54.45534890894825
 20
-138.0132185537999
 30
0.0
 10
-49.99999999999986
 20
-138.5181872348719
 30
0.0
  0
SPLINE
  5
A1
330
95
100
AcDbEntity
  8
0
  6
Continuous
 62
     7
370
    25
100
AcDbSpline
210
0.0
220
0.0
230
1.0
 70
    24
 71
     3
 72
    31
 73
    27
 74
     0
 42
0.000000001
 43
0.00000001
 40
0.0
 40
0.0
 40
0.0
 40
0.0
 40
0.0354798050326857
 40
0.0712879805724054
 40
0.1074269062614542
 40
0.1438757970606695
 40
0.1792570366812676
 40
0.2148869327515121
 40
0.2507520369826467
 40
0.2868220048677494
 40
0.326838790537217
 40
0.3667669472903114
 40
0.4068768918614086
 40
0.4466538501132731
 40
0.4865711222369523
 40
0.5328976583620335
 40
0.5796976545177087
 40
0.6266489525187723
 40
0.6740498808895451
 40
0.7205882182016647
 40
0.7672430826513077
 40
0.814030505121798
 40
0.8609222348477533
 40
0.9109784424425
 40
0.9611537139698796
 40
1.0
 40
1.0
 40
1.0
 40
1.0
 10
0.000000000000065
 20
-90.00000000000006
 30
0.0
 10
-3.587327709150895
 20
-89.99999999999999
 30
0.0
 10
-10.79518434199348
 20
-89.99999999999984
 30
0.0
 10
-21.55627763945035
 20
-90.00000000000007
 30
0.0
 10
-32.21801515605959
 20
-89.99999999999994
 30
0.0
 10
-42.55575943502988
 20
-90.00000000000006
 30
0.0
 10
-52.4935520468835
 20
-89.99999999999997
 30
0.0
 10
-61.9780104873031
 20
-90.0000000000002
 30
0.0
 10
-71.07963041139553
 20
-89.99999999999994
 30
0.0
 10
-80.06176562409671
 20
-89.99999999999997
 30
0.0
 10
-88.82079386960115
 20
-90.00000000000009
 30
0.0
 10
-97.28556058456158
 20
-89.99999999999999
 30
0.0
 10
-105.1371897245468
 20
-89.99999999999993
 30
0.0
 10
-112.3955300343263
 20
-90.00000000000003
 30
0.0
 10
-119.4163770939241
 20
-90.0
 30
0.0
 10
-126.1565174489119
 20
-90.00000000000004
 30
0.0
 10
-132.5162787360073
 20
-90.00000000000004
 30
0.0
 10
-138.1991045740586
 20
-89.99999999999989
 30
0.0
 10
-143.155756055101
 20
-90.00000000000003
 30
0.0
 10
-147.4038870012079
 20
-89.99999999999991
 30
0.0
 10
-150.9578901403264
 20
-89.99999999999994
 30
0.0
 10
-153.8530307639538
 20
-90.0
 30
0.0
 10
-156.1533222732399
 20
-90.00000000000001
 30
0.0
 10
-157.7892639710704
 20
-89.99999999999993
 30
0.0
 10
-158.7276774412671
 20
-90.00000000000004
 30
0.0
 10
-158.7847978555882
 20
-90.00000000000001
 30
0.0
 10
-158.8097234580351
 20
-90.0
 30
0.0
  0
SPLINE
  5
A2
330
95
100
AcDbEntity
  8
0
  6
Continuous
 62
     7
370
    25
100
AcDbSpline
210
0.0
220
0.0
230
1.0
 70
    24
 71
     3
 72
    33
 73
    29
 74
     0
 42
0.000000001
 43
0.00000001
 40
0.0
 40
0.0
 40
0.0
 40
0.0
 40
0.0218219418461315
 40
0.0599981556116889
 40
0.0982273392129476
 40
0.1365639879732204
 40
0.1792475006424442
 40
0.2221049736847539
 40
0.2650447472956305
 40
0.3083081463520021
 40
0.3516670787069505
 40
0.3953676595462015
 40
0.439181765254794
 40
0.4832210136452666
 40
0.5230460635155915
 40
0.5623965128572713
 40
0.6018809223724139
 40
0.6405464577897253
 40
0.6793738595198748
 40
0.7177575823968787
 40
0.7563530086497389
 40
0.7952069537842417
 40
0.8343547704706502
 40
0.8667216828797861
 40
0.8992955045324941
 40
0.93210092463718
 40
0.9651489997510244
 40
1.0
 40
1.0
 40
1.0
 40
1.0
 10
158.8043295495822
 20
-89.99999999999997
 30
0.0
 10
158.8111389544443
 20
-89.99999999999996
 30
0.0
 10
158.8298610157267
 20
-90.0
 30
0.0
 10
158.3789060647666
 20
-90.00000000000003
 30
0.0
 10
157.4975619074531
 20
-89.99999999999989
 30
0.0
 10
156.1150830923211
 20
-90.0
 30
0.0
 10
154.193532537566
 20
-90.00000000000003
 30
0.0
 10
151.6535256485454
 20
-89.99999999999999
 30
0.0
 10
148.5422127035742
 20
-89.99999999999987
 30
0.0
 10
144.8434416250393
 20
-90.0000000000001
 30
0.0
 10
140.5308310535722
 20
-89.99999999999996
 30
0.0
 10
135.5915133235248
 20
-90.00000000000004
 30
0.0
 10
130.0017750317205
 20
-89.99999999999993
 30
0.0
 10
123.9549735870645
 20
-90.00000000000003
 30
0.0
 10
117.5291776072115
 20
-89.99999999999997
 30
0.0
 10
110.7849050067762
 20
-89.99999999999997
 30
0.0
 10
103.5363764285799
 20
-89.99999999999996
 30
0.0
 10
95.75419221790659
 20
-90.00000000000009
 30
0.0
 10
87.48609210253844
 20
-90.00000000000001
 30
0.0
 10
78.66505717415906
 20
-90.00000000000007
 30
0.0
 10
69.28700406189293
 20
-90.0
 30
0.0
 10
59.30124612139743
 20
-89.99999999999996
 30
0.0
 10
49.36132976487151
 20
-90.0
 30
0.0
 10
39.61567839577553
 20
-89.99999999999993
 30
0.0
 10
30.19149395416499
 20
-90.00000000000009
 30
0.0
 10
20.48245476748568
 20
-90.00000000000001
 30
0.0
 10
10.38914716562286
 20
-89.99999999999997
 30
0.0
 10
3.523814150986427
 20
-90.00000000000003
 30
0.0
 10
0.000000000000065
 20
-90.00000000000006
 30
0.0
  0
SPLINE
  5
A3
330
95
100
AcDbEntity
  8
0
  6
Continuous
 62
     7
370
    25
100
AcDbSpline
210
0.0
220
0.0
230
1.0
 70
    24
 71
     3
 72
    15
 73
    11
 74
     0
 42
0.000000001
 43
0.00000001
 40
0.7499999999996151
 40
0.7499999999996151
 40
0.7499999999996151
 40
0.7499999999996151
 40
0.7916666666666666
 40
0.8333333333333334
 40
0.875
 40
0.9166666666666666
 40
0.9583333333333334
 40
0.9916666666666667
 40
0.99375
 40
1.0
 40
1.0
 40
1.0
 40
1.0
 10
212.5
 20
0.0
 30
0.0
 10
212.4999999999769
 20
0.0
 30
0.0
 10
207.5110094692104
 20
0.0
 30
0.0
 10
186.2777896492971
 20
0.0
 30
0.0
 10
152.0240655199165
 20
0.0
 30
0.0
 10
107.1870942838846
 20
0.0
 30
0.0
 10
59.34300217245861
 20
0.0
 30
0.0
 10
25.1431849609421
 20
0.0
 30
0.0
 10
6.5246494858583
 20
0.0
 30
0.0
 10
2.796278351082149
 20
0.0
 30
0.0
 10
0.0000000000000345
 20
0.0
 30
0.0
  0
SPLINE
  5
A5
330
95
100
AcDbEntity
  8
0
  6
Continuous
 62
     7
370
    25
100
AcDbSpline
210
0.0
220
0.0
230
1.0
 70
     8
 71
     3
 72
    34
 73
    30
 74
     0
 42
0.000000001
 43
0.00000001
 40
0.0
 40
0.0
 40
0.0
 40
0.0
 40
0.0317744997345099
 40
0.0637984916751554
 40
0.0960777999561053
 40
0.1289348208356179
 40
0.1606586562936328
 40
0.1925746922152343
 40
0.2246729364928103
 40
0.2571744434269215
 40
0.3034349004247328
 40
0.3500585901546501
 40
0.3976693172515101
 40
0.4455593337393731
 40
0.4934704981095894
 40
0.5415887437508876
 40
0.5782122812397816
 40
0.6149081798935456
 40
0.651808428860071
 40
0.6887712391498358
 40
0.7253922021233364
 40
0.7620666276181441
 40
0.7988959028953507
 40
0.8357743068590756
 40
0.8723940969197342
 40
0.9090588973620516
 40
0.9458574759980378
 40
0.9827000366374365
 40
1.0
 40
1.0
 40
1.0
 40
1.0
 10
0.0
 20
-95.97239835804508
 30
0.0
 10
3.019908787698259
 20
-95.97431906622064
 30
0.0
 10
9.083438576097873
 20
-95.97817556390187
 30
0.0
 10
18.14335155081663
 20
-96.01358808034897
 30
0.0
 10
27.16292118567032
 20
-96.07390159822914
 30
0.0
 10
35.94799666126158
 20
-96.15910783936144
 30
0.0
 10
44.44236330271325
 20
-96.26365836998413
 30
0.0
 10
52.57869617364382
 20
-96.38175012457387
 30
0.0
 10
60.45544269119934
 20
-96.51175680192232
 30
0.0
 10
69.10030752928289
 20
-96.67095824815264
 30
0.0
 10
78.30423917600422
 20
-96.86189185471557
 30
0.0
 10
87.83618652364459
 20
-97.09154046687793
 30
0.0
 10
96.68085720455504
 20
-97.33892113662822
 30
0.0
 10
104.8039959529776
 20
-97.59478683052855
 30
0.0
 10
112.1709678023511
 20
-97.84540146007123
 30
0.0
 10
118.2591737801296
 20
-98.07794037076653
 30
0.0
 10
123.2837370616339
 20
-98.2922014760907
 30
0.0
 10
127.4246330169678
 20
-98.48583683848133
 30
0.0
 10
131.1660638143458
 20
-98.67533369449781
 30
0.0
 10
134.5011949035053
 20
-98.85549044430124
 30
0.0
 10
137.4367117793728
 20
-99.02268406069736
 30
0.0
 10
139.9855031895999
 20
-99.17449889916476
 30
0.0
 10
142.1616055733261
 20
-99.30952132958333
 30
0.0
 10
143.9632998074876
 20
-99.42618062800028
 30
0.0
 10
145.3934998864811
 20
-99.52446270009459
 30
0.0
 10
146.4655655073892
 20
-99.60397046171163
 30
0.0
 10
147.1588583862521
 20
-99.65982684699436
 30
0.0
 10
147.4941910097312
 20
-99.69007849473434
 30
0.0
 10
147.4649789625772
 20
-99.6874356375692
 30
0.0
 10
147.4556449436184
 20
-99.68659117505159
 30
0.0
  0
SPLINE
  5
A6
330
95
100
AcDbEntity
  8
0
  6
Continuous
 62
     7
370
    25
100
AcDbSpline
210
0.0
220
0.0
230
1.0
 70
     8
 71
     3
 72
    31
 73
    27
 74
     0
 42
0.000000001
 43
0.00000001
 40
0.0
 40
0.0
 40
0.0
 40
0.0
 40
0.0587779076626532
 40
0.1256555898850942
 40
0.1922732439923954
 40
0.2591755554968198
 40
0.325799219890782
 40
0.3592657545824546
 40
0.3927788668797925
 40
0.4254573956956417
 40
0.4581862857544252
 40
0.4910798295782693
 40
0.5240345773801697
 40
0.5775315001048663
 40
0.6313725915798234
 40
0.6764526894272685
 40
0.7218266930175836
 40
0.7528261344375509
 40
0.7839533580423865
 40
0.8152142904200923
 40
0.8469932775775765
 40
0.8789637780255046
 40
0.9112559977691688
 40
0.9440045043978756
 40
0.971918260457694
 40
1.0
 40
1.0
 40
1.0
 40
1.0
 10
-147.4388243594618
 20
-99.68534166900582
 30
0.0
 10
-147.3753398251013
 20
-99.67909576458392
 30
0.0
 10
-147.2396223943376
 20
-99.66574325110211
 30
0.0
 10
-145.5833823339775
 20
-99.53490596480844
 30
0.0
 10
-142.7684632724451
 20
-99.34620736593034
 30
0.0
 10
-138.7035354703472
 20
-99.09491450655942
 30
0.0
 10
-134.2679419978742
 20
-98.84077525699193
 30
0.0
 10
-130.066140968013
 20
-98.61860398972402
 30
0.0
 10
-126.599398418725
 20
-98.4463899012849
 30
0.0
 10
-122.8249551734617
 20
-98.27239683752825
 30
0.0
 10
-118.7394558102239
 20
-98.0990413248474
 30
0.0
 10
-114.2978389757953
 20
-97.92595880992788
 30
0.0
 10
-108.4923616308947
 20
-97.71788159865372
 30
0.0
 10
-100.9896541859119
 20
-97.47089154644728
 30
0.0
 10
-91.89344821881838
 20
-97.20007841925877
 30
0.0
 10
-82.43765577005614
 20
-96.95745098110298
 30
0.0
 10
-73.8201682912519
 20
-96.76684841466756
 30
0.0
 10
-65.70912954878506
 20
-96.60715754647462
 30
0.0
 10
-58.32741359652061
 20
-96.47530234073429
 30
0.0
 10
-50.55897878228232
 20
-96.35094208108832
 30
0.0
 10
-42.41142054485276
 20
-96.23685333482587
 30
0.0
 10
-33.89131937587153
 20
-96.13700725709249
 30
0.0
 10
-25.03956371973296
 20
-96.05718207413139
 30
0.0
 10
-16.37216513092271
 20
-96.0052806845492
 30
0.0
 10
-7.990145632849756
 20
-95.97687934216802
 30
0.0
 10
-2.66870322485437
 20
-95.97389500370448
 30
0.0
 10
0.0
 20
-95.9723983580451
 30
0.0
  0
SPLINE
  5
A7
330
95
100
AcDbEntity
  8
0
  6
Continuous
 62
     7
370
    25
100
AcDbSpline
210
0.0
220
0.0
230
1.0
 70
     8
 71
     3
 72
    15
 73
    11
 74
     0
 42
0.000000001
 43
0.00000001
 40
0.0
 40
0.0
 40
0.0
 40
0.0
 40
0.0062500000000001
 40
0.0083333333333333
 40
0.0416666666666666
 40
0.0833333333333334
 40
0.1250000000000001
 40
0.1666666666666666
 40
0.2083333333333334
 40
0.2499999999996537
 40
0.2499999999996537
 40
0.2499999999996537
 40
0.2499999999996537
 10
0.0000000000001032
 20
-134.2055241855717
 30
0.0
 10
-0.661246553470827
 20
-134.2055241855718
 30
0.0
 10
-1.542908624765383
 20
-134.2091180714463
 30
0.0
 10
-5.945530147491375
 20
-134.2498487780237
 30
0.0
 10
-14.03074202408885
 20
-134.5010214685815
 30
0.0
 10
-25.31209538947808
 20
-135.2836899479005
 30
0.0
 10
-35.87530772067239
 20
-136.3618557102265
 30
0.0
 10
-43.90761159435971
 20
-137.4400214725516
 30
0.0
 10
-48.84764634170863
 20
-138.2785948432475
 30
0.0
 10
-50.00000000000494
 20
-138.5181872348733
 30
0.0
 10
-49.99999999999986
 20
-138.5181872348719
 30
0.0
  0
SPLINE
  5
A9
330
95
100
AcDbEntity
  8
0
  6
Continuous
 62
     7
370
    25
100
AcDbSpline
210
0.0
220
0.0
230
1.0
 70
    24
 71
     3
 72
    15
 73
    11
 74
     0
 42
0.000000001
 43
0.00000001
 40
0.0
 40
0.0
 40
0.0
 40
0.0
 40
0.0062500000000001
 40
0.0083333333333333
 40
0.0416666666666666
 40
0.0833333333333334
 40
0.1250000000000001
 40
0.1666666666666666
 40
0.2083333333333334
 40
0.2499999999996537
 40
0.2499999999996537
 40
0.2499999999996537
 40
0.2499999999996537
 10
0.0000000000001087
 20
-145.0
 30
0.0
 10
-0.6579478473133373
 20
-144.9999999999999
 30
0.0
 10
-1.53521164373125
 20
-145.0
 30
0.0
 10
-5.916043520221528
 20
-144.9999999999999
 30
0.0
 10
-13.96305933469594
 20
-145.0
 30
0.0
 10
-25.22049277267855
 20
-145.0
 30
0.0
 10
-35.77036835762724
 20
-145.0
 30
0.0
 10
-43.83006815277562
 20
-145.0
 30
0.0
 10
-48.82611987513748
 20
-145.0
 30
0.0
 10
-50.00000000000477
 20
-145.0
 30
0.0
 10
-49.99999999999991
 20
-145.0
 30
0.0
  0
LINE
  5
AB
330
95
100
AcDbEntity
  8
0
  6
Continuous
 62
     7
370
    25
100
AcDbLine
 10
-147.5
 20
-90.0
 30
0.0
 11
-147.5
 21
-99.685341669
 31
0.0
  0
LINE
  5
AC
330
95
100
AcDbEntity
  8
0
  6
Continuous
 62
     7
370
    25
100
AcDbLine
 10
147.5
 20
-99.6865911751
 30
0.0
 11
147.5
 21
-90.0
 31
0.0
  0
LINE
  5
AD
330
95
100
AcDbEntity
  8
0
  6
Continuous
 62
     7
370
    25
100
AcDbLine
 10
50.0
 20
-145.0
 30
0.0
 11
50.0
 21
-138.5181872349
 31
0.0
  0
LINE
  5
AE
330
95
100
AcDbEntity
  8
0
  6
Continuous
 62
     7
370
    25
100
AcDbLine
 10
-50.0
 20
-138.5181872349
 30
0.0
 11
-50.0
 21
-145.0
 31
0.0
  0
LINE
  5
AF
330
95
100
AcDbEntity
  8
0
  6
Continuous
 62
     7
370
    25
100
AcDbLine
 10
-212.5
 20
0.0
 30
0.0
 11
0.0
 21
0.0
 31
0.0
  0
LINE
  5
B0
330
95
100
AcDbEntity
  8
0
  6
Continuous
 62
     7
370
    25
100
AcDbLine
 10
50.0
 20
-145.0
 30
0.0
 11
0.0
 21
-145.0
 31
0.0
  0
ARC
  5
B1
330
95
100
AcDbEntity
  8
0
  6
Continuous
 62
     7
370
    25
100
AcDbCircle
 10
0.7910779691
 20
-417.034397874
 30
0.0
 40
282.8299800166789
100
AcDbArc
 50
79.9802493318
 51
90.1602570137
  0
VIEWPORT
  5
132
330
95
100
AcDbEntity
  8
0
100
AcDbViewport
 10
0.0
 20
0.0
 30
0.0
 40
205.6
 41
156.0
 68
     1
 69
     1
 12
0.0
 22
-10.7677612968
 13
0.0
 23
0.0
 14
10.0
 24
10.0
 15
10.0
 25
10.0
 16
0.0
 26
0.0
 36
1.0
 17
0.0
 27
0.0
 37
0.0
 42
50.0
 43
0.0
 44
0.0
 45
441.1402376099
 50
0.0
 51
0.0
 72
   100
 90
   557152
  1

281
     0
 71
     1
 74
     0
110
0.0
120
0.0
130
0.0
111
1.0
121
0.0
131
0.0
112
0.0
122
1.0
132
0.0
 79
     0
146
0.0
170
     0
 61
     5
348
2F
292
     1
282
     1
141
0.0
142
0.0
 63
   256
361
133
  0
ENDBLK
  5
98
330
95
100
AcDbEntity
  8
0
100
AcDbBlockEnd
  0
BLOCK
  5
B4
330
B2
100
AcDbEntity
  8
0
100
AcDbBlockBegin
  2
*Paper_Space2
 70
     0
 10
0.0
 20
0.0
 30
0.0
  3
*Paper_Space2
  1

  0
SPLINE
  5
B6
330
B2
100
AcDbEntity
  8
0
  6
Continuous
 62
     7
370
    25
100
AcDbSpline
210
0.0
220
0.0
230
1.0
 70
     8
 71
     3
 72
    15
 73
    11
 74
     0
 42
0.000000001
 43
0.00000001
 40
0.0
 40
0.0
 40
0.0
 40
0.0
 40
0.1198953901008929
 40
0.2456252127394538
 40
0.3713546994511783
 40
0.497083237474675
 40
0.6228117624170575
 40
0.7485411087642735
 40
0.8742707172938688
 40
1.0
 40
1.0
 40
1.0
 40
1.0
 10
224.5352070915977
 20
-90.0168858322911
 30
0.0
 10
229.8092264722623
 20
-87.23602090190374
 30
0.0
 10
240.6139132185804
 20
-81.53896666527888
 30
0.0
 10
256.4398492632559
 20
-72.0094646738618
 30
0.0
 10
272.0997254841199
 20
-61.68175052478157
 30
0.0
 10
287.2726770361009
 20
-50.64797076485547
 30
0.0
 10
301.9414657867827
 20
-38.95239932805175
 30
0.0
 10
316.0605753993802
 20
-26.60137330513333
 30
0.0
 10
329.6595864001345
 20
-13.67321076990297
 30
0.0
 10
338.2198658306558
 20
-4.557732986227303
 30
0.0
 10
342.5000000000002
 20
0.0
 30
0.0
  0
SPLINE
  5
B7
330
B2
100
AcDbEntity
  8
0
  6
Continuous
 62
     7
370
    25
100
AcDbSpline
210
0.0
220
0.0
230
1.0
 70
     8
 71
     3
 72
    15
 73
    11
 74
     0
 42
0.000000001
 43
0.00000001
 40
0.0
 40
0.0
 40
0.0
 40
0.0
 40
0.1257906190622459
 40
0.2515815641069066
 40
0.3773722468412831
 40
0.5031621077701091
 40
0.6289519817864321
 40
0.7547428049537951
 40
0.8805339642118741
 40
1.0
 40
1.0
 40
1.0
 40
1.0
 10
-342.5000000000001
 20
0.0
 30
0.0
 10
-338.2198658522473
 20
-4.557733025064445
 30
0.0
 10
-329.6595864649095
 20
-13.67321088641445
 30
0.0
 10
-316.0605751402788
 20
-26.60137283908615
 30
0.0
 10
-301.9414667584084
 20
-38.95240107571959
 30
0.0
 10
-287.2726734087246
 20
-50.64796424027573
 30
0.0
 10
-272.0997390220539
 20
-61.68177487553119
 30
0.0
 10
-256.4397987384262
 20
-72.00937379459886
 30
0.0
 10
-240.6348779958235
 20
-81.52678592527818
 30
0.0
 10
-229.8517464726793
 20
-87.21272145994298
 30
0.0
 10
-224.5992278821061
 20
-89.98236977931349
 30
0.0
  0
SPLINE
  5
BA
330
B2
100
AcDbEntity
  8
0
  6
Continuous
 62
     7
370
    25
100
AcDbSpline
210
0.0
220
0.0
230
1.0
 70
     8
 71
     3
 72
    15
 73
    11
 74
     0
 42
0.000000001
 43
0.00000001
 40
0.0
 40
0.0
 40
0.0
 40
0.0
 40
0.0759623310505311
 40
0.1659244786042912
 40
0.2699291154439279
 40
0.3879068742345972
 40
0.5198447030686085
 40
0.6657413481065846
 40
0.8256593842529939
 40
1.0
 40
1.0
 40
1.0
 40
1.0
 10
67.80324967569284
 20
-135.0482863233055
 30
0.0
 10
68.38126932417146
 20
-134.9872797272501
 30
0.0
 10
69.64383732952994
 20
-134.8540230525021
 30
0.0
 10
71.50370827454869
 20
-134.6530083862204
 30
0.0
 10
73.48573380742627
 20
-134.4347388640307
 30
0.0
 10
75.50191278163491
 20
-134.2075430905075
 30
0.0
 10
77.47156247901691
 20
-133.9804255571685
 30
0.0
 10
79.27362065622745
 20
-133.7680010773382
 30
0.0
 10
80.82732581931965
 20
-133.581046305979
 30
0.0
 10
81.42861380873393
 20
-133.5093186776629
 30
0.0
 10
81.74222997909169
 20
-133.4719074130154
 30
0.0
  0
SPLINE
  5
BB
330
B2
100
AcDbEntity
  8
0
  6
Continuous
 62
     7
370
    25
100
AcDbSpline
210
0.0
220
0.0
230
1.0
 70
     8
 71
     3
 72
    22
 73
    18
 74
     0
 42
0.000000001
 43
0.00000001
 40
0.0
 40
0.0
 40
0.0
 40
0.0
 40
0.0974087021849586
 40
0.196973803119896
 40
0.2893932291965643
 40
0.374666580662539
 40
0.4527937300428909
 40
0.5237747886675641
 40
0.5876099391340326
 40
0.6442991779658416
 40
0.6993072006899537
 40
0.7453511102885175
 40
0.7842682982671157
 40
0.8271627736617156
 40
0.8783647154832801
 40
0.9359771578518845
 40
1.0
 40
1.0
 40
1.0
 40
1.0
 10
-212.491621611144
 20
-95.95405477177415
 30
0.0
 10
-208.4678230962169
 20
-97.82307823155253
 30
0.0
 10
-200.3311486647228
 20
-101.6025009190022
 30
0.0
 10
-188.146690345613
 20
-106.6368195231784
 30
0.0
 10
-176.3437425976971
 20
-111.1275822283848
 30
0.0
 10
-165.3348292437109
 20
-114.9463595012694
 30
0.0
 10
-155.1600318481432
 20
-118.1773652110774
 30
0.0
 10
-145.8471768791542
 20
-120.8865385595265
 30
0.0
 10
-137.4204923404449
 20
-123.1381531017805
 30
0.0
 10
-129.6577495632972
 20
-125.0498777784103
 30
0.0
 10
-122.6517360992491
 20
-126.6407252007012
 30
0.0
 10
-116.4128129138411
 20
-127.9499855225479
 30
0.0
 10
-110.6979047335416
 20
-129.066948175905
 30
0.0
 10
-104.7375322362238
 20
-130.1503057634813
 30
0.0
 10
-97.92093106410104
 20
-131.2793245868272
 30
0.0
 10
-90.13460471055053
 20
-132.4390418006363
 30
0.0
 10
-84.63627880036194
 20
-133.1157312884146
 30
0.0
 10
-81.74222997871013
 20
-133.4719074130601
 30
0.0
  0
SPLINE
  5
BC
330
B2
100
AcDbEntity
  8
0
  6
Continuous
 62
     7
370
    25
100
AcDbSpline
210
0.0
220
0.0
230
1.0
 70
     8
 71
     3
 72
    15
 73
    11
 74
     0
 42
0.000000001
 43
0.00000001
 40
0.0
 40
0.0
 40
0.0
 40
0.0
 40
0.1270090439051052
 40
0.2523285768845499
 40
0.3766798369268071
 40
0.5006201581981701
 40
0.6245648468494072
 40
0.7489088711420185
 40
0.8739939160452778
 40
1.0
 40
1.0
 40
1.0
 40
1.0
 10
-81.74222997839199
 20
-133.4719074130973
 30
0.0
 10
-81.60605080186254
 20
-133.4882920476896
 30
0.0
 10
-81.33550394347769
 20
-133.5208433637403
 30
0.0
 10
-80.3811288634211
 20
-133.6369847663394
 30
0.0
 10
-79.06877296827135
 20
-133.7939976262945
 30
0.0
 10
-77.39262457336663
 20
-133.9907433855574
 30
0.0
 10
-75.39836586206793
 20
-134.2199331325587
 30
0.0
 10
-73.1131963513199
 20
-134.4763700962958
 30
0.0
 10
-70.58698859688069
 20
-134.7535042593339
 30
0.0
 10
-68.73342902557151
 20
-134.9497856390104
 30
0.0
 10
-67.80324967586787
 20
-135.0482863232789
 30
0.0
  0
SPLINE
  5
BD
330
B2
100
AcDbEntity
  8
0
  6
Continuous
 62
     7
370
    25
100
AcDbSpline
210
0.0
220
0.0
230
1.0
 70
     8
 71
     3
 72
    23
 73
    19
 74
     0
 42
0.000000001
 43
0.00000001
 40
0.0
 40
0.0
 40
0.0
 40
0.0
 40
0.0612953974094936
 40
0.1167457420983196
 40
0.1663509526453759
 40
0.2101109411506406
 40
0.240548184824317
 40
0.2734788994783051
 40
0.3119476375765252
 40
0.3559543262575436
 40
0.4126838410632156
 40
0.4765643444556489
 40
0.5475958329559191
 40
0.6257784892912299
 40
0.7111124248706218
 40
0.8035975121285983
 40
0.9032333510287232
 40
1.0
 40
1.0
 40
1.0
 40
1.0
 10
81.74222997870982
 20
-133.47190741306
 30
0.0
 10
84.511100405582
 20
-133.131857548553
 30
0.0
 10
89.78480522553342
 20
-132.4841845509038
 30
0.0
 10
97.27500336919947
 20
-131.3785819771672
 30
0.0
 10
103.9588973300282
 20
-130.2843906391177
 30
0.0
 10
109.5046064567589
 20
-129.2879163935375
 30
0.0
 10
114.2925978586768
 20
-128.3682950551747
 30
0.0
 10
118.8348664000524
 20
-127.4471859175321
 30
0.0
 10
123.9699607557792
 20
-126.3437039421377
 30
0.0
 10
130.1456421894058
 20
-124.9297217058173
 30
0.0
 10
137.4204963677887
 20
-123.1381532239181
 30
0.0
 10
145.8471755020327
 20
-120.8865382795596
 30
0.0
 10
155.1600327427559
 20
-118.1773663506772
 30
0.0
 10
165.3348269621009
 20
-114.9463546289698
 30
0.0
 10
176.3437518113242
 20
-111.1276029060384
 30
0.0
 10
188.1466517685153
 20
-106.6367326306792
 30
0.0
 10
200.3013774379344
 20
-101.615212219919
 30
0.0
 10
208.4087799430613
 20
-97.84962580185946
 30
0.0
 10
212.4032617889133
 20
-95.99433780099685
 30
0.0
  0
SPLINE
  5
C0
330
B2
100
AcDbEntity
  8
0
  6
Continuous
 62
     7
370
    25
100
AcDbSpline
210
0.0
220
0.0
230
1.0
 70
    24
 71
     3
 72
    60
 73
    56
 74
     0
 42
0.000000001
 43
0.00000001
 40
0.0
 40
0.0
 40
0.0
 40
0.0
 40
0.0135079866442606
 40
0.0308675657449911
 40
0.0464136761504401
 40
0.0620620415069735
 40
0.0778075792327995
 40
0.093647458955457
 40
0.1103835128541137
 40
0.1272133027415981
 40
0.1441264115164364
 40
0.1611149335378498
 40
0.1816643394519633
 40
0.2023141749978958
 40
0.2239378449784529
 40
0.2456515335736547
 40
0.2679963042482787
 40
0.2863362269025912
 40
0.3047128868570692
 40
0.3231807335037307
 40
0.3416811666601332
 40
0.3602932973729629
 40
0.3789351213279568
 40
0.3976625801148216
 40
0.4164173380254521
 40
0.4352313724132822
 40
0.4540709840774728
 40
0.4729819806628266
 40
0.4919186668759919
 40
0.5109471159019292
 40
0.5300023430326953
 40
0.5491304297323878
 40
0.5682849939769644
 40
0.5896507371440334
 40
0.6110551907017696
 40
0.6325837264535276
 40
0.6541564791565946
 40
0.675895252711425
 40
0.6976859351792721
 40
0.7196177340739859
 40
0.7416123085797903
 40
0.7613766553125133
 40
0.7811997789690566
 40
0.8007003067304674
 40
0.8202744739372658
 40
0.839688040288473
 40
0.8588797687501909
 40
0.8781792645516686
 40
0.8976041862994362
 40
0.9171779590187255
 40
0.9333613030911811
 40
0.9496498500411463
 40
0.966050697548526
 40
0.9825746206135123
 40
1.0
 40
1.0
 40
1.0
 40
1.0
 10
224.5261032945765
 20
-89.99999999999999
 30
0.0
 10
224.5007497779729
 20
-89.99999999999996
 30
0.0
 10
224.4428135835394
 20
-89.9999999999999
 30
0.0
 10
223.2327597590458
 20
-90.00000000000001
 30
0.0
 10
221.2359291123863
 20
-89.99999999999994
 30
0.0
 10
218.542728979718
 20
-90.00000000000003
 30
0.0
 10
215.1309098780089
 20
-89.99999999999999
 30
0.0
 10
210.9530325105254
 20
-89.99999999999986
 30
0.0
 10
206.0137445254934
 20
-90.0
 30
0.0
 10
200.3289424783003
 20
-90.00000000000014
 30
0.0
 10
194.037494448898
 20
-89.99999999999999
 30
0.0
 10
186.7322069097882
 20
-90.0
 30
0.0
 10
178.3477776153996
 20
-90.00000000000001
 30
0.0
 10
168.7049792410455
 20
-90.00000000000011
 30
0.0
 10
158.345740788707
 20
-89.99999999999982
 30
0.0
 10
147.2266499132448
 20
-90.00000000000009
 30
0.0
 10
136.2712466197688
 20
-90.00000000000003
 30
0.0
 10
125.613394023376
 20
-89.99999999999997
 30
0.0
 10
115.4418886505794
 20
-89.99999999999999
 30
0.0
 10
105.0529802725979
 20
-90.00000000000003
 30
0.0
 10
94.45470145932227
 20
-89.99999999999993
 30
0.0
 10
83.67958604357796
 20
-90.0000000000001
 30
0.0
 10
72.73708136261978
 20
-90.00000000000003
 30
0.0
 10
61.66237034515913
 20
-89.99999999999999
 30
0.0
 10
50.46745960247494
 20
-90.00000000000004
 30
0.0
 10
39.18134996480029
 20
-90.0
 30
0.0
 10
27.81108013718693
 20
-90.00000000000007
 30
0.0
 10
16.37853383077427
 20
-90.00000000000001
 30
0.0
 10
4.885405891900276
 20
-89.99999999999996
 30
0.0
 10
-6.64383160464118
 20
-89.99999999999996
 30
0.0
 10
-18.20232442835008
 20
-90.0
 30
0.0
 10
-29.76099218374427
 20
-90.00000000000001
 30
0.0
 10
-41.74244377291978
 20
-89.99999999999997
 30
0.0
 10
-54.11567555967434
 20
-90.00000000000004
 30
0.0
 10
-66.86659715546413
 20
-89.99999999999996
 30
0.0
 10
-79.53424948060729
 20
-90.0
 30
0.0
 10
-92.11246564862219
 20
-90.00000000000009
 30
0.0
 10
-104.5525191450942
 20
-89.9999999999999
 30
0.0
 10
-116.8338484126864
 20
-90.00000000000003
 30
0.0
 10
-128.8939967789957
 20
-89.99999999999999
 30
0.0
 10
-140.2755014977108
 20
-90.00000000000004
 30
0.0
 10
-150.9470160869576
 20
-89.99999999999991
 30
0.0
 10
-160.8334655004111
 20
-89.99999999999996
 30
0.0
 10
-170.2764954560749
 20
-89.99999999999999
 30
0.0
 10
-179.191138596534
 20
-90.00000000000007
 30
0.0
 10
-187.5335369397101
 20
-90.00000000000001
 30
0.0
 10
-195.2428918443015
 20
-90.00000000000001
 30
0.0
 10
-202.2715089975244
 20
-90.00000000000001
 30
0.0
 10
-208.5559082203038
 20
-89.99999999999994
 30
0.0
 10
-213.654587794209
 20
-89.99999999999999
 30
0.0
 10
-217.644465489238
 20
-89.99999999999999
 30
0.0
 10
-220.6496721046883
 20
-90.0
 30
0.0
 10
-222.8587021170168
 20
-90.00000000000006
 30
0.0
 10
-224.3231277658882
 20
-89.99999999999997
 30
0.0
 10
-224.5118754479868
 20
-90.00000000000004
 30
0.0
 10
-224.6087551990093
 20
-90.00000000000006
 30
0.0
  0
SPLINE
  5
C1
330
B2
100
AcDbEntity
  8
0
  6
Continuous
 62
     7
370
    25
100
AcDbSpline
210
0.0
220
0.0
230
1.0
 70
    24
 71
     3
 72
    21
 73
    17
 74
     0
 42
0.000000001
 43
0.00000001
 40
0.4999999999999999
 40
0.4999999999999999
 40
0.4999999999999999
 40
0.4999999999999999
 40
0.5416666666666667
 40
0.5833333333333333
 40
0.625
 40
0.6666666666666667
 40
0.7083333333333333
 40
0.7499999999996151
 40
0.7916666666666666
 40
0.8333333333333334
 40
0.875
 40
0.9166666666666666
 40
0.9583333333333334
 40
0.9916666666666667
 40
0.99375
 40
1.0
 40
1.0
 40
1.0
 40
1.0
 10
342.5000000000002
 20
0.0
 30
0.0
 10
342.5000000000002
 20
0.0
 30
0.0
 10
334.4589211445978
 20
0.0
 30
0.0
 10
300.2359668465141
 20
0.0
 30
0.0
 10
245.0270232497479
 20
0.0
 30
0.0
 10
172.7603754928494
 20
0.0
 30
0.0
 10
90.13885508194136
 20
0.0
 30
0.0
 10
-0.0000000000000703
 20
0.0
 30
0.0
 10
-90.13885508194154
 20
0.0
 30
0.0
 10
-172.7603754928496
 20
0.0
 30
0.0
 10
-245.0270232497479
 20
0.0
 30
0.0
 10
-300.2359668465141
 20
0.0
 30
0.0
 10
-332.1773908580587
 20
0.0
 30
0.0
 10
-340.9820045202297
 20
0.0
 30
0.0
 10
-342.3793838171691
 20
0.0
 30
0.0
 10
-342.5000000000001
 20
0.0
 30
0.0
 10
-342.5000000000001
 20
0.0
 30
0.0
  0
SPLINE
  5
C2
330
B2
100
AcDbEntity
  8
0
  6
Continuous
 62
     7
370
    25
100
AcDbSpline
210
0.0
220
0.0
230
1.0
 70
     8
 71
     3
 72
    61
 73
    57
 74
     0
 42
0.000000001
 43
0.00000001
 40
0.0
 40
0.0
 40
0.0
 40
0.0
 40
0.0158872655672217
 40
0.0319012444261187
 40
0.0480389474204262
 40
0.0644674740950293
 40
0.08032940749897
 40
0.0962874412296714
 40
0.1123365792283902
 40
0.1285873487546311
 40
0.1517176001111
 40
0.1750294680130973
 40
0.1988348550862669
 40
0.2227798869929365
 40
0.2467354928512321
 40
0.2707946394473887
 40
0.2891064262877405
 40
0.3074543937462813
 40
0.3259045364621735
 40
0.3443859598705974
 40
0.3626964594519804
 40
0.3810336903204331
 40
0.3994483461565974
 40
0.4178875663602956
 40
0.436197479484678
 40
0.4545298978221298
 40
0.4729292053225165
 40
0.4913505038463413
 40
0.5096602544794131
 40
0.5279915253663536
 40
0.5463882537424807
 40
0.5648071795591859
 40
0.5831170690968025
 40
0.6014499559011959
 40
0.6198548514875059
 40
0.6382850909719804
 40
0.6565955321737769
 40
0.6749339163715831
 40
0.6933624507963891
 40
0.7118239552518055
 40
0.7273301571683061
 40
0.742859950844346
 40
0.7584151257237739
 40
0.7739986380073859
 40
0.7998196305849014
 40
0.825807600404639
 40
0.8475879179145104
 40
0.8695105528999986
 40
0.888327447239063
 40
0.9072692262048945
 40
0.9240507285467429
 40
0.9409454525519969
 40
0.9582277319056006
 40
0.9756578513477595
 40
0.9918306372273247
 40
1.0
 40
1.0
 40
1.0
 40
1.0
 10
-212.5
 20
-95.97239835804508
 30
0.0
 10
-212.4226811447096
 20
-95.97431907790653
 30
0.0
 10
-212.2674267561599
 20
-95.97817583686327
 30
0.0
 10
-211.0122561777375
 20
-96.0135900013434
 30
0.0
 10
-209.0062305372668
 20
-96.07390506467553
 30
0.0
 10
-206.2255727030619
 20
-96.15910783790558
 30
0.0
 10
-202.7530214658138
 20
-96.2636583703709
 30
0.0
 10
-198.6682186804484
 20
-96.38175012446943
 30
0.0
 10
-193.9590913842678
 20
-96.51175680195048
 30
0.0
 10
-187.9301371570084
 20
-96.67095824814129
 30
0.0
 10
-180.3416480073427
 20
-96.86189185472011
 30
0.0
 10
-170.9779149072924
 20
-97.09154046687286
 30
0.0
 10
-160.7589135223071
 20
-97.33892113664436
 30
0.0
 10
-149.8074813729082
 20
-97.59478683046882
 30
0.0
 10
-138.2784289592868
 20
-97.84540146029441
 30
0.0
 10
-127.2356221724909
 20
-98.07794037001423
 30
0.0
 10
-116.847385210534
 20
-98.29220147816469
 30
0.0
 10
-107.2271068401835
 20
-98.48583683063502
 30
0.0
 10
-97.41027351033453
 20
-98.67533372400025
 30
0.0
 10
-87.45560152197791
 20
-98.85549033443581
 30
0.0
 10
-77.39824192804879
 20
-99.02268446672474
 30
0.0
 10
-67.24895753876284
 20
-99.17449737821428
 30
0.0
 10
-56.9881654064982
 20
-99.30952703559907
 30
0.0
 10
-46.66012089829407
 20
-99.42615936748194
 30
0.0
 10
-36.29002269048173
 20
-99.52454146284141
 30
0.0
 10
-25.88373394554456
 20
-99.60367559089559
 30
0.0
 10
-15.42549830805211
 20
-99.66093232217065
 30
0.0
 10
-4.953272507311632
 20
-99.69238504876887
 30
0.0
 10
5.511828246914017
 20
-99.69141950734601
 30
0.0
 10
15.9657934539445
 20
-99.65855466376675
 30
0.0
 10
26.42163051846031
 20
-99.60011758123242
 30
0.0
 10
36.84183773710691
 20
-99.51979758117145
 30
0.0
 10
47.20541977190589
 20
-99.42045097454812
 30
0.0
 10
57.50833586140276
 20
-99.30312307111433
 30
0.0
 10
67.76094232264938
 20
-99.16728125888712
 30
0.0
 10
77.9206955887827
 20
-99.01441103762726
 30
0.0
 10
87.96284551657438
 20
-98.84662344586235
 30
0.0
 10
97.88119532990889
 20
-98.66647242984826
 30
0.0
 10
107.6819487028911
 20
-98.47683557748087
 30
0.0
 10
116.820513359009
 20
-98.29262594503072
 30
0.0
 10
125.2926988249796
 20
-98.11802357472716
 30
0.0
 10
133.1120248513999
 20
-97.95433992542756
 30
0.0
 10
140.7689703113842
 20
-97.79121843898025
 30
0.0
 10
149.872684391075
 20
-97.59253351222101
 30
0.0
 10
160.2203577703655
 20
-97.35213940622656
 30
0.0
 10
170.8142814977266
 20
-97.09551567104639
 30
0.0
 10
180.0989678998935
 20
-96.86778236287505
 30
0.0
 10
187.7107463262103
 20
-96.67666983596553
 30
0.0
 10
194.2300024541704
 20
-96.50481718310093
 30
0.0
 10
199.4714152976246
 20
-96.35916513856502
 30
0.0
 10
203.7934274669184
 20
-96.23280544437125
 30
0.0
 10
207.2398750902146
 20
-96.12802157225946
 30
0.0
 10
209.9237078462267
 20
-96.04603553790048
 30
0.0
 10
211.6470236467707
 20
-95.9951453448804
 30
0.0
 10
212.4750097315604
 20
-95.97294918034945
 30
0.0
 10
212.4147263913507
 20
-95.9745655262439
 30
0.0
 10
212.3944949613995
 20
-95.9751079810685
 30
0.0
  0
SPLINE
  5
C3
330
B2
100
AcDbEntity
  8
0
  6
Continuous
 62
     7
370
    25
100
AcDbSpline
210
0.0
220
0.0
230
1.0
 70
     8
 71
     3
 72
    25
 73
    21
 74
     0
 42
0.000000001
 43
0.00000001
 40
0.0
 40
0.0
 40
0.0
 40
0.0
 40
0.0304428941803247
 40
0.080809594724011
 40
0.1341933318282253
 40
0.1903981932932406
 40
0.2489333711906275
 40
0.3092735995897547
 40
0.3713827472515058
 40
0.435158230145538
 40
0.4998424047199779
 40
0.564526579294388
 40
0.6283020621882824
 40
0.6904112098497577
 40
0.7507514382486211
 40
0.8092866161459056
 40
0.8654914776109234
 40
0.9188752147151589
 40
0.9692419152588652
 40
1.0
 40
1.0
 40
1.0
 40
1.0
 10
67.8448354672953
 20
-135.0384615824576
 30
0.0
 10
66.95980129714107
 20
-135.1322232857925
 30
0.0
 10
64.61050913774817
 20
-135.381110438316
 30
0.0
 10
59.64742251798423
 20
-135.8397602978874
 30
0.0
 10
53.17929452870844
 20
-136.3754420486692
 30
0.0
 10
45.74214809823133
 20
-136.9117234137943
 30
0.0
 10
37.56997695057446
 20
-137.4171390150573
 30
0.0
 10
28.78322146338862
 20
-137.8652611902612
 30
0.0
 10
19.50308073506151
 20
-138.2227209307371
 30
0.0
 10
9.854076084754112
 20
-138.4592175959276
 30
0.0
 10
0.0000000406101732
 20
-138.5478806241332
 30
0.0
 10
-9.85407624632701
 20
-138.4592175899442
 30
0.0
 10
-19.50308018464921
 20
-138.2227209540014
 30
0.0
 10
-28.78322342587262
 20
-137.8652611065072
 30
0.0
 10
-37.56996994388351
 20
-137.4171393142504
 30
0.0
 10
-45.74217297867972
 20
-136.9117223512725
 30
0.0
 10
-53.17920756220656
 20
-136.3754457625432
 30
0.0
 10
-59.64772213179155
 20
-135.8397475029343
 30
0.0
 10
-64.62128814163688
 20
-135.3800706739047
 30
0.0
 10
-66.97925316090252
 20
-135.1302336994088
 30
0.0
 10
-67.8732646226839
 20
-135.0355091734081
 30
0.0
  0
LINE
  5
C5
330
B2
100
AcDbEntity
  8
0
  6
Continuous
 62
     7
370
    25
100
AcDbLine
 10
-212.5
 20
-90.0
 30
0.0
 11
-212.5
 21
-95.972398358
 31
0.0
  0
LINE
  5
C6
330
B2
100
AcDbEntity
  8
0
  6
Continuous
 62
     7
370
    25
100
AcDbLine
 10
212.5
 20
-95.9751079811
 30
0.0
 11
212.5
 21
-90.0
 31
0.0
  0
LINE
  5
C7
330
B2
100
AcDbEntity
  8
0
  6
Continuous
 62
     7
370
    25
100
AcDbLine
 10
75.0
 20
-145.0
 30
0.0
 11
75.0
 21
-134.2055241856
 31
0.0
  0
LINE
  5
C8
330
B2
100
AcDbEntity
  8
0
  6
Continuous
 62
     7
370
    25
100
AcDbLine
 10
-75.0
 20
-134.2055241856
 30
0.0
 11
-75.0
 21
-145.0
 31
0.0
  0
LINE
  5
C9
330
B2
100
AcDbEntity
  8
0
  6
Continuous
 62
     7
370
    25
100
AcDbLine
 10
75.0
 20
-145.0
 30
0.0
 11
-75.0
 21
-145.0
 31
0.0
  0
VIEWPORT
  5
134
330
B2
100
AcDbEntity
  8
0
100
AcDbViewport
 10
0.0
 20
0.0
 30
0.0
 40
205.6
 41
156.0
 68
     1
 69
     1
 12
0.0
 22
-10.7677612968
 13
0.0
 23
0.0
 14
10.0
 24
10.0
 15
10.0
 25
10.0
 16
0.0
 26
0.0
 36
1.0
 17
0.0
 27
0.0
 37
0.0
 42
50.0
 43
0.0
 44
0.0
 45
441.1402376099
 50
0.0
 51
0.0
 72
   100
 90
   557152
  1

281
     0
 71
     1
 74
     0
110
0.0
120
0.0
130
0.0
111
1.0
121
0.0
131
0.0
112
0.0
122
1.0
132
0.0
 79
     0
146
0.0
170
     0
 61
     5
348
2F
292
     1
282
     1
141
0.0
142
0.0
 63
   256
361
135
  0
ENDBLK
  5
B5
330
B2
100
AcDbEntity
  8
0
100
AcDbBlockEnd
  0
BLOCK
  5
CC
330
CA
100
AcDbEntity
  8
0
100
AcDbBlockBegin
  2
*Paper_Space3
 70
     0
 10
0.0
 20
0.0
 30
0.0
  3
*Paper_Space3
  1

  0
SPLINE
  5
CE
330
CA
100
AcDbEntity
  8
0
  6
Continuous
 62
     7
370
    25
100
AcDbSpline
210
0.0
220
0.0
230
1.0
 70
     8
 71
     3
 72
    15
 73
    11
 74
     0
 42
0.000000001
 43
0.00000001
 40
0.0
 40
0.0
 40
0.0
 40
0.0
 40
0.119466031760643
 40
0.2452571915940796
 40
0.3710480153367984
 40
0.4968378899284729
 40
0.6226277514326504
 40
0.7484184347423821
 40
0.8742093803623993
 40
1.0
 40
1.0
 40
1.0
 40
1.0
 10
224.599228482349
 20
-89.9823694556996
 30
0.0
 10
229.8517468713371
 20
-87.21272124149495
 30
0.0
 10
240.6348781923849
 20
-81.52678581107602
 30
0.0
 10
256.4397987379515
 20
-72.009373793745
 30
0.0
 10
272.099739022181
 20
-61.68177487575996
 30
0.0
 10
287.2726734086907
 20
-50.64796424021443
 30
0.0
 10
301.9414667584174
 20
-38.95240107573601
 30
0.0
 10
316.0605751402762
 20
-26.60137283908176
 30
0.0
 10
329.6595864649103
 20
-13.67321088641556
 30
0.0
 10
338.2198658522477
 20
-4.557733025064806
 30
0.0
 10
342.5000000000001
 20
0.0
 30
0.0
  0
SPLINE
  5
CF
330
CA
100
AcDbEntity
  8
0
  6
Continuous
 62
     7
370
    25
100
AcDbSpline
210
0.0
220
0.0
230
1.0
 70
     8
 71
     3
 72
    15
 73
    11
 74
     0
 42
0.000000001
 43
0.00000001
 40
0.0
 40
0.0
 40
0.0
 40
0.0
 40
0.125729277455748
 40
0.2514588807349464
 40
0.3771882218317766
 40
0.5029167415238075
 40
0.6286452742969522
 40
0.7543747557582849
 40
0.8801045731464401
 40
1.0
 40
1.0
 40
1.0
 40
1.0
 10
-342.5000000000002
 20
0.0
 30
0.0
 10
-338.219865830654
 20
-4.557732986223987
 30
0.0
 10
-329.6595864001289
 20
-13.67321076989299
 30
0.0
 10
-316.0605753994024
 20
-26.60137330517316
 30
0.0
 10
-301.9414657866997
 20
-38.95239932790238
 30
0.0
 10
-287.2726770364109
 20
-50.64797076541305
 30
0.0
 10
-272.099725482963
 20
-61.68175052270056
 30
0.0
 10
-256.4398492675738
 20
-72.00946468162827
 30
0.0
 10
-240.6139114231301
 20
-81.53896770847021
 30
0.0
 10
-229.8092228307892
 20
-87.2360228973211
 30
0.0
 10
-224.5352016087535
 20
-90.0168887883017
 30
0.0
  0
SPLINE
  5
D2
330
CA
100
AcDbEntity
  8
0
  6
Continuous
 62
     7
370
    25
100
AcDbSpline
210
0.0
220
0.0
230
1.0
 70
     8
 71
     3
 72
    15
 73
    11
 74
     0
 42
0.000000001
 43
0.00000001
 40
0.0
 40
0.0
 40
0.0
 40
0.0
 40
0.0759623310505212
 40
0.1659244786042669
 40
0.2699291154438895
 40
0.3879068742345477
 40
0.5198447030685552
 40
0.6657413481065364
 40
0.8256593842529615
 40
1.0
 40
1.0
 40
1.0
 40
1.0
 10
67.80324967569936
 20
-135.0482863233047
 30
0.0
 10
68.38126932417697
 20
-134.9872797272495
 30
0.0
 10
69.64383732953324
 20
-134.8540230525015
 30
0.0
 10
71.50370827454744
 20
-134.6530083862206
 30
0.0
 10
73.48573380741882
 20
-134.4347388640314
 30
0.0
 10
75.50191278161964
 20
-134.2075430905091
 30
0.0
 10
77.47156247899208
 20
-133.9804255571712
 30
0.0
 10
79.27362065619145
 20
-133.7680010773424
 30
0.0
 10
80.8273258192706
 20
-133.5810463059847
 30
0.0
 10
81.42861380867541
 20
-133.5093186776698
 30
0.0
 10
81.74222997902825
 20
-133.4719074130229
 30
0.0
  0
SPLINE
  5
D3
330
CA
100
AcDbEntity
  8
0
  6
Continuous
 62
     7
370
    25
100
AcDbSpline
210
0.0
220
0.0
230
1.0
 70
     8
 71
     3
 72
    22
 73
    18
 74
     0
 42
0.000000001
 43
0.00000001
 40
0.0
 40
0.0
 40
0.0
 40
0.0
 40
0.096766725382772
 40
0.1964026429600399
 40
0.28888780324859
 40
0.3742218062116696
 40
0.4524045242836817
 40
0.523436068873755
 40
0.5873166227092375
 40
0.6440461823112016
 40
0.6990933300242298
 40
0.7451699887994319
 40
0.7841148570048933
 40
0.8270398415105512
 40
0.8782782012091276
 40
0.9359316209853442
 40
1.0
 40
1.0
 40
1.0
 40
1.0
 10
-212.4032617889132
 20
-95.99433780099685
 30
0.0
 10
-208.4087799421658
 20
-97.84962580184518
 30
0.0
 10
-200.3013774352214
 20
-101.6152122198758
 30
0.0
 10
-188.1466517794072
 20
-106.6367326308528
 30
0.0
 10
-176.3437517749896
 20
-111.1276029054587
 30
0.0
 10
-165.3348270820433
 20
-114.9463546308831
 30
0.0
 10
-155.1600323511694
 20
-118.1773663444307
 30
0.0
 10
-145.8471767638272
 20
-120.8865382996873
 30
0.0
 10
-137.4204923663238
 20
-123.1381531600883
 30
0.0
 10
-129.6577495568908
 20
-125.049877763977
 30
0.0
 10
-122.6517361006469
 20
-126.6407252038513
 30
0.0
 10
-116.4128129135552
 20
-127.9499855219046
 30
0.0
 10
-110.69790473362
 20
-129.0669481760823
 30
0.0
 10
-104.7375322361968
 20
-130.1503057634212
 30
0.0
 10
-97.92093106410941
 20
-131.2793245868467
 30
0.0
 10
-90.13460471054765
 20
-132.4390418006303
 30
0.0
 10
-84.63627880036074
 20
-133.1157312884125
 30
0.0
 10
-81.74222997870982
 20
-133.47190741306
 30
0.0
  0
SPLINE
  5
D4
330
CA
100
AcDbEntity
  8
0
  6
Continuous
 62
     7
370
    25
100
AcDbSpline
210
0.0
220
0.0
230
1.0
 70
     8
 71
     3
 72
    23
 73
    19
 74
     0
 42
0.000000001
 43
0.00000001
 40
0.0
 40
0.0
 40
0.0
 40
0.0
 40
0.0612518300951176
 40
0.1166627619943805
 40
0.1662327143345586
 40
0.2099615992781065
 40
0.2403772088810388
 40
0.2732845171642621
 40
0.3117259125960314
 40
0.3557013223667003
 40
0.4123905151790357
 40
0.4762256138250869
 40
0.5472066148284018
 40
0.6253337007863061
 40
0.7106069830286538
 40
0.8030263340806186
 40
0.9025913541901011
 40
1.0
 40
1.0
 40
1.0
 40
1.0
 10
81.74222997871013
 20
-133.4719074130601
 30
0.0
 10
84.51110040558208
 20
-133.1318575485525
 30
0.0
 10
89.78480522553312
 20
-132.4841845509025
 30
0.0
 10
97.27500336920183
 20
-131.3785819771719
 30
0.0
 10
103.9588973300218
 20
-130.2843906391026
 30
0.0
 10
109.5046064567785
 20
-129.2879163935811
 30
0.0
 10
114.2925978586272
 20
-128.3682950550623
 30
0.0
 10
118.8348664002735
 20
-127.4471859180293
 30
0.0
 10
123.9699607547419
 20
-126.3437039397998
 30
0.0
 10
130.1456421944328
 20
-124.9297217171428
 30
0.0
 10
137.4204963416906
 20
-123.1381531651164
 30
0.0
 10
145.8471756174322
 20
-120.8865385395622
 30
0.0
 10
155.1600322396924
 20
-118.1773652172398
 30
0.0
 10
165.3348291238441
 20
-114.9463594995258
 30
0.0
 10
176.343742633737
 20
-111.127582228302
 30
0.0
 10
188.1466903359512
 20
-106.6368195257704
 30
0.0
 10
200.3311496182881
 20
-101.6025005130843
 30
0.0
 10
208.4678249828318
 20
-97.82307738370825
 30
0.0
 10
212.4916244331571
 20
-95.95405348522524
 30
0.0
  0
SPLINE
  5
D5
330
CA
100
AcDbEntity
  8
0
  6
Continuous
 62
     7
370
    25
100
AcDbSpline
210
0.0
220
0.0
230
1.0
 70
     8
 71
     3
 72
    15
 73
    11
 74
     0
 42
0.000000001
 43
0.00000001
 40
0.0
 40
0.0
 40
0.0
 40
0.0
 40
0.1270090439058355
 40
0.252328576885777
 40
0.3766798369283142
 40
0.5006201581997527
 40
0.6245648468508702
 40
0.7489088711431756
 40
0.8739939160459458
 40
1.0
 40
1.0
 40
1.0
 40
1.0
 10
-81.74222997832797
 20
-133.4719074131047
 30
0.0
 10
-81.60605080180329
 20
-133.4882920476964
 30
0.0
 10
-81.3355039434282
 20
-133.5208433637459
 30
0.0
 10
-80.38112886337966
 20
-133.6369847663442
 30
0.0
 10
-79.06877296823525
 20
-133.7939976262986
 30
0.0
 10
-77.39262457333427
 20
-133.9907433855612
 30
0.0
 10
-75.39836586203936
 20
-134.219933132562
 30
0.0
 10
-73.11319635129631
 20
-134.4763700962985
 30
0.0
 10
-70.58698859686469
 20
-134.7535042593358
 30
0.0
 10
-68.73342902556138
 20
-134.9497856390115
 30
0.0
 10
-67.80324967586134
 20
-135.0482863232796
 30
0.0
  0
SPLINE
  5
D8
330
CA
100
AcDbEntity
  8
0
  6
Continuous
 62
     7
370
    25
100
AcDbSpline
210
0.0
220
0.0
230
1.0
 70
    24
 71
     3
 72
    56
 73
    52
 74
     0
 42
0.000000001
 43
0.00000001
 40
0.0
 40
0.0
 40
0.0
 40
0.0
 40
0.0177410152592089
 40
0.035646249292234
 40
0.0537143010430805
 40
0.071937300477654
 40
0.089628676200346
 40
0.1074443977639842
 40
0.1253758966548262
 40
0.1434098101173077
 40
0.1633435653308457
 40
0.1832832832459388
 40
0.2033136198618292
 40
0.2232631668616397
 40
0.2432835554490638
 40
0.2665231522172746
 40
0.2898464320851476
 40
0.3133991651162929
 40
0.336813235977909
 40
0.3602911315620289
 40
0.3836183698918112
 40
0.4070118866811133
 40
0.4304575566646528
 40
0.4554854524311928
 40
0.4805728796692261
 40
0.5040832910428994
 40
0.5276442843384198
 40
0.5487918352011254
 40
0.5700112149820376
 40
0.5912672697020802
 40
0.612649130593531
 40
0.6340720432266116
 40
0.6556269841453465
 40
0.6772293963369814
 40
0.698919847084567
 40
0.7216094723268971
 40
0.744369261912521
 40
0.7665032680344531
 40
0.7887228944182347
 40
0.8106017379944922
 40
0.8312956620373694
 40
0.8520966743528744
 40
0.8730272021248652
 40
0.8941114683872083
 40
0.9109951919244837
 40
0.9279838096916292
 40
0.9450911418535195
 40
0.962326534461795
 40
0.9792447936834632
 40
0.9963018437470762
 40
1.0
 40
1.0
 40
1.0
 40
1.0
 10
224.6087551990093
 20
-90.00000000000006
 30
0.0
 10
224.5078802191637
 20
-90.00000000000004
 30
0.0
 10
224.3051965155319
 20
-90.00000000000003
 30
0.0
 10
222.6817806524768
 20
-90.0
 30
0.0
 10
220.1094529072766
 20
-90.00000000000006
 30
0.0
 10
216.5632234571797
 20
-90.00000000000003
 30
0.0
 10
212.1500609192229
 20
-90.00000000000001
 30
0.0
 10
206.9546464725301
 20
-89.99999999999989
 30
0.0
 10
200.9891305913259
 20
-90.0000000000001
 30
0.0
 10
194.1011889017281
 20
-89.99999999999994
 30
0.0
 10
186.3037085916428
 20
-90.00000000000013
 30
0.0
 10
177.6170738992709
 20
-89.99999999999996
 30
0.0
 10
168.3873174372154
 20
-90.00000000000007
 30
0.0
 10
158.6718598414152
 20
-90.00000000000007
 30
0.0
 10
148.0033588046771
 20
-90.00000000000001
 30
0.0
 10
136.3462340817695
 20
-90.00000000000003
 30
0.0
 10
123.6740595728174
 20
-90.00000000000004
 30
0.0
 10
110.6328605868975
 20
-90.00000000000004
 30
0.0
 10
97.27709766809582
 20
-89.99999999999986
 30
0.0
 10
83.72637735047503
 20
-89.99999999999997
 30
0.0
 10
69.98523791503987
 20
-89.9999999999999
 30
0.0
 10
56.09486961024199
 20
-90.00000000000003
 30
0.0
 10
41.74478159486674
 20
-89.99999999999999
 30
0.0
 10
26.96099335184279
 20
-89.99999999999996
 30
0.0
 10
12.10133883439366
 20
-90.00000000000006
 30
0.0
 10
-2.488610577387946
 20
-89.99999999999999
 30
0.0
 10
-16.27691225816175
 20
-90.00000000000003
 30
0.0
 10
-29.57017945037914
 20
-90.00000000000013
 30
0.0
 10
-42.34851927890283
 20
-89.9999999999999
 30
0.0
 10
-55.10092316000547
 20
-90.0
 30
0.0
 10
-67.79613685287887
 20
-90.00000000000007
 30
0.0
 10
-80.42478173595933
 20
-89.99999999999989
 30
0.0
 10
-92.94058002156227
 20
-90.00000000000006
 30
0.0
 10
-105.3182991045792
 20
-89.9999999999999
 30
0.0
 10
-117.682308180696
 20
-90.0
 30
0.0
 10
-129.9818565383978
 20
-90.0000000000001
 30
0.0
 10
-142.0206847741265
 20
-89.99999999999997
 30
0.0
 10
-153.5781042215654
 20
-89.99999999999999
 30
0.0
 10
-164.5210065105315
 20
-90.0000000000001
 30
0.0
 10
-174.6908762261834
 20
-89.99999999999994
 30
0.0
 10
-184.0539753391761
 20
-89.99999999999993
 30
0.0
 10
-192.6294593752434
 20
-90.00000000000013
 30
0.0
 10
-200.4957394316785
 20
-89.99999999999997
 30
0.0
 10
-207.0348796714028
 20
-90.00000000000001
 30
0.0
 10
-212.3270016938297
 20
-89.99999999999997
 30
0.0
 10
-216.5034045565208
 20
-90.00000000000001
 30
0.0
 10
-219.8964621872394
 20
-89.99999999999997
 30
0.0
 10
-222.4450807697841
 20
-90.00000000000009
 30
0.0
 10
-224.0064096795523
 20
-90.00000000000007
 30
0.0
 10
-224.6948728285132
 20
-89.99999999999999
 30
0.0
 10
-224.5516208171815
 20
-90.0
 30
0.0
 10
-224.5260962180342
 20
-90.00000000000001
 30
0.0
  0
SPLINE
  5
DA
330
CA
100
AcDbEntity
  8
0
  6
Continuous
 62
     7
370
    25
100
AcDbSpline
210
0.0
220
0.0
230
1.0
 70
     8
 71
     3
 72
    56
 73
    52
 74
     0
 42
0.000000001
 43
0.00000001
 40
0.0
 40
0.0
 40
0.0
 40
0.0
 40
0.0081356201543115
 40
0.0248597324955464
 40
0.0417273763900554
 40
0.0567920243515673
 40
0.0719502131460134
 40
0.0872878033908415
 40
0.1027084411361782
 40
0.1235187897122838
 40
0.1444919671135988
 40
0.1652964952724881
 40
0.1862195467557654
 40
0.2074660055394467
 40
0.2288053779336087
 40
0.2454557291338588
 40
0.2621406831976461
 40
0.2789225374832405
 40
0.2957336827984622
 40
0.3123826449204842
 40
0.329055908336728
 40
0.3457985874674705
 40
0.3625628786164244
 40
0.3958737505386237
 40
0.4293332765989483
 40
0.4626416424906967
 40
0.4960826123792381
 40
0.5293904127873469
 40
0.5628291502482464
 40
0.5961378740545803
 40
0.6295889261182998
 40
0.6629006550586491
 40
0.6796338705364041
 40
0.6963903747448034
 40
0.7127295885059368
 40
0.7290939828104851
 40
0.7455407037423752
 40
0.7620180265684365
 40
0.7887664050186229
 40
0.81568686731053
 40
0.8382268463668998
 40
0.860913777839195
 40
0.8764120370235061
 40
0.891974168968275
 40
0.907607431600027
 40
0.9234968759261318
 40
0.939482076600642
 40
0.9556281364244037
 40
0.9720023389835108
 40
0.9859591737513079
 40
1.0
 40
1.0
 40
1.0
 40
1.0
 10
-212.3944949613995
 20
-95.9751079810685
 30
0.0
 10
-212.4147304751451
 20
-95.9745653828913
 30
0.0
 10
-212.4765634330616
 20
-95.97290738444957
 30
0.0
 10
-211.6357930544311
 20
-95.99545624079612
 30
0.0
 10
-209.9765060998618
 20
-96.0445133540252
 30
0.0
 10
-207.5824825966185
 20
-96.11748880117624
 30
0.0
 10
-204.6312937299483
 20
-96.20750693560619
 30
0.0
 10
-201.0413472193834
 20
-96.3137221797973
 30
0.0
 10
-196.3708168730769
 20
-96.44619383153261
 30
0.0
 10
-190.4250349815018
 20
-96.60638461933141
 30
0.0
 10
-183.0789708437045
 20
-96.7937863480374
 30
0.0
 10
-174.9909618399227
 20
-96.99331984568772
 30
0.0
 10
-166.2384321017262
 20
-97.20666933141894
 30
0.0
 10
-156.8616648977886
 20
-97.43122072582293
 30
0.0
 10
-147.673085871352
 20
-97.6412598257496
 30
0.0
 10
-138.8822439178505
 20
-97.83179789621352
 30
0.0
 10
-130.6033025348126
 20
-98.00720181380028
 30
0.0
 10
-122.1019288948927
 20
-98.18418916601705
 30
0.0
 10
-113.4336699716844
 20
-98.36142281905623
 30
0.0
 10
-104.6331573206951
 20
-98.53659371251553
 30
0.0
 10
-95.71291006953778
 20
-98.70660710145204
 30
0.0
 10
-86.65626060137994
 20
-98.86892115485736
 30
0.0
 10
-74.46306655067598
 20
-99.07093880916008
 30
0.0
 10
-58.99974677236579
 20
-99.29186869204644
 30
0.0
 10
-40.22903011562543
 20
-99.49663900117133
 30
0.0
 10
-21.27247270550825
 20
-99.64064890769019
 30
0.0
 10
-2.261572750843897
 20
-99.70853510366987
 30
0.0
 10
16.78274582990914
 20
-99.66480449029237
 30
0.0
 10
35.73676520531706
 20
-99.5365820835314
 30
0.0
 10
54.57586998767162
 20
-99.3457560832813
 30
0.0
 10
73.16548910648682
 20
-99.0950377500323
 30
0.0
 10
88.41088819576828
 20
-98.84075991307692
 30
0.0
 10
100.3893341812025
 20
-98.61860689451333
 30
0.0
 10
109.2011227541474
 20
-98.44638914410505
 30
0.0
 10
117.8089766860501
 20
-98.27239703854164
 30
0.0
 10
126.2084245315989
 20
-98.09904127071282
 30
0.0
 10
134.455408693783
 20
-97.92595882426707
 30
0.0
 10
144.1968529663399
 20
-97.717881592053
 30
0.0
 10
155.2276606159145
 20
-97.47089154869539
 30
0.0
 10
166.515222394642
 20
-97.20007841839328
 30
0.0
 10
176.4568781512187
 20
-96.9574509824326
 30
0.0
 10
184.1510712645467
 20
-96.76685284717566
 30
0.0
 10
190.3659522569038
 20
-96.60717011175034
 30
0.0
 10
195.2991192927227
 20
-96.47531392550356
 30
0.0
 10
199.7503909749281
 20
-96.35094891312175
 30
0.0
 10
203.6553260194768
 20
-96.23685333490617
 30
0.0
 10
206.9467694585336
 20
-96.13700725707069
 30
0.0
 10
209.556089767101
 20
-96.05718207413736
 30
0.0
 10
211.2994984685514
 20
-96.00528068454788
 30
0.0
 10
212.3193107135067
 20
-95.9768793421683
 30
0.0
 10
212.4396499008005
 20
-95.97389500370458
 30
0.0
 10
212.5
 20
-95.97239835804508
 30
0.0
  0
SPLINE
  5
DB
330
CA
100
AcDbEntity
  8
0
  6
Continuous
 62
     7
370
    25
100
AcDbSpline
210
0.0
220
0.0
230
1.0
 70
     8
 71
     3
 72
    25
 73
    21
 74
     0
 42
0.000000001
 43
0.00000001
 40
0.0
 40
0.0
 40
0.0
 40
0.0
 40
0.0304428941804021
 40
0.0808095947240901
 40
0.1341933318283071
 40
0.1903981932933238
 40
0.2489333711907069
 40
0.3092735995898223
 40
0.371382747251561
 40
0.4351582301455875
 40
0.4998424047200274
 40
0.5645265792944397
 40
0.6283020621883417
 40
0.6904112098498312
 40
0.7507514382487079
 40
0.8092866161459976
 40
0.8654914776110165
 40
0.9188752147152511
 40
0.9692419152589568
 40
0.9999999999999999
 40
0.9999999999999999
 40
0.9999999999999999
 40
0.9999999999999999
 10
67.84483546730218
 20
-135.0384615824568
 30
0.0
 10
66.95980129714573
 20
-135.1322232857919
 30
0.0
 10
64.6105091377506
 20
-135.3811104383156
 30
0.0
 10
59.64742251798388
 20
-135.8397602978871
 30
0.0
 10
53.17929452870782
 20
-136.375442048669
 30
0.0
 10
45.74214809823076
 20
-136.911723413794
 30
0.0
 10
37.56997695057474
 20
-137.4171390150571
 30
0.0
 10
28.78322146339043
 20
-137.8652611902609
 30
0.0
 10
19.50308073506498
 20
-138.2227209307371
 30
0.0
 10
9.854076084758736
 20
-138.4592175959274
 30
0.0
 10
0.0000000406151488
 20
-138.5478806241332
 30
0.0
 10
-9.854076246322434
 20
-138.4592175899444
 30
0.0
 10
-19.50308018464573
 20
-138.2227209540016
 30
0.0
 10
-28.78322342587079
 20
-137.8652611065075
 30
0.0
 10
-37.56996994388314
 20
-137.4171393142507
 30
0.0
 10
-45.74217297868022
 20
-136.9117223512729
 30
0.0
 10
-53.1792075622072
 20
-136.3754457625434
 30
0.0
 10
-59.64772213179187
 20
-135.8397475029344
 30
0.0
 10
-64.62128814163394
 20
-135.3800706739051
 30
0.0
 10
-66.97925316089692
 20
-135.1302336994094
 30
0.0
 10
-67.87326462267569
 20
-135.035509173409
 30
0.0
  0
SPLINE
  5
DC
330
CA
100
AcDbEntity
  8
0
  6
Continuous
 62
     7
370
    25
100
AcDbSpline
210
0.0
220
0.0
230
1.0
 70
    24
 71
     3
 72
    21
 73
    17
 74
     0
 42
0.000000001
 43
0.00000001
 40
0.0
 40
0.0
 40
0.0
 40
0.0
 40
0.0062500000000001
 40
0.0083333333333333
 40
0.0416666666666666
 40
0.0833333333333334
 40
0.1250000000000001
 40
0.1666666666666666
 40
0.2083333333333334
 40
0.2499999999996537
 40
0.2916666666666666
 40
0.3333333333333334
 40
0.375
 40
0.4166666666666666
 40
0.4583333333333334
 40
0.4999999999999999
 40
0.4999999999999999
 40
0.4999999999999999
 40
0.4999999999999999
 10
74.99999999999999
 20
-145.0
 30
0.0
 10
74.99999999999999
 20
-144.9999999999999
 30
0.0
 10
74.97358769719025
 20
-145.0
 30
0.0
 10
74.66759223070719
 20
-144.9999999999999
 30
0.0
 10
72.73957464045081
 20
-145.0
 30
0.0
 10
65.7451022291637
 20
-145.0
 30
0.0
 10
53.65555253644128
 20
-145.0
 30
0.0
 10
37.83073915901831
 20
-145.0
 30
0.0
 10
19.73843541940346
 20
-145.0
 30
0.0
 10
0.0000000000002077
 20
-145.0
 30
0.0
 10
-19.73843541940304
 20
-145.0
 30
0.0
 10
-37.83073915901795
 20
-145.0
 30
0.0
 10
-53.655552536441
 20
-145.0
 30
0.0
 10
-65.74510222916354
 20
-145.0
 30
0.0
 10
-73.23917981268606
 20
-145.0
 30
0.0
 10
-75.00000000000028
 20
-145.0
 30
0.0
 10
-74.99999999999991
 20
-145.0
 30
0.0
  0
LINE
  5
DD
330
CA
100
AcDbEntity
  8
0
  6
Continuous
 62
     7
370
    25
100
AcDbLine
 10
212.5
 20
-95.972398358
 30
0.0
 11
212.5
 21
-90.0
 31
0.0
  0
LINE
  5
DE
330
CA
100
AcDbEntity
  8
0
  6
Continuous
 62
     7
370
    25
100
AcDbLine
 10
-212.5
 20
-90.0
 30
0.0
 11
-212.5
 21
-95.9751079811
 31
0.0
  0
LINE
  5
DF
330
CA
100
AcDbEntity
  8
0
  6
Continuous
 62
     7
370
    25
100
AcDbLine
 10
75.0
 20
-145.0
 30
0.0
 11
75.0
 21
-134.2055241856
 31
0.0
  0
LINE
  5
E0
330
CA
100
AcDbEntity
  8
0
  6
Continuous
 62
     7
370
    25
100
AcDbLine
 10
-75.0
 20
-134.2055241856
 30
0.0
 11
-75.0
 21
-145.0
 31
0.0
  0
LINE
  5
E1
330
CA
100
AcDbEntity
  8
0
  6
Continuous
 62
     7
370
    25
100
AcDbLine
 10
-342.5
 20
0.0
 30
0.0
 11
342.5
 21
0.0
 31
0.0
  0
VIEWPORT
  5
136
330
CA
100
AcDbEntity
  8
0
100
AcDbViewport
 10
0.0
 20
0.0
 30
0.0
 40
205.6
 41
156.0
 68
     1
 69
     1
 12
0.0
 22
-10.7677612968
 13
0.0
 23
0.0
 14
10.0
 24
10.0
 15
10.0
 25
10.0
 16
0.0
 26
0.0
 36
1.0
 17
0.0
 27
0.0
 37
0.0
 42
50.0
 43
0.0
 44
0.0
 45
441.1402376099
 50
0.0
 51
0.0
 72
   100
 90
   557152
  1

281
     0
 71
     1
 74
     0
110
0.0
120
0.0
130
0.0
111
1.0
121
0.0
131
0.0
112
0.0
122
1.0
132
0.0
 79
     0
146
0.0
170
     0
 61
     5
348
2F
292
     1
282
     1
141
0.0
142
0.0
 63
   256
361
137
  0
ENDBLK
  5
CD
330
CA
100
AcDbEntity
  8
0
100
AcDbBlockEnd
  0
BLOCK
  5
E4
330
E2
100
AcDbEntity
  8
0
100
AcDbBlockBegin
  2
*Paper_Space4
 70
     0
 10
0.0
 20
0.0
 30
0.0
  3
*Paper_Space4
  1

  0
SPLINE
  5
E6
330
E2
100
AcDbEntity
  8
0
  6
Continuous
 62
     7
370
    25
100
AcDbSpline
210
0.0
220
0.0
230
1.0
 70
     8
 71
     3
 72
    15
 73
    11
 74
     0
 42
0.000000001
 43
0.00000001
 40
0.0
 40
0.0
 40
0.0
 40
0.0
 40
0.0812069327509621
 40
0.2124629867523912
 40
0.3437191628906298
 40
0.4749753052197819
 40
0.6062316754286391
 40
0.73748778622351
 40
0.8687437684274097
 40
1.0
 40
1.0
 40
1.0
 40
1.0
 10
158.7470156169631
 20
-89.9334178078646
 30
0.0
 10
160.8652881799765
 20
-87.98722480574145
 30
0.0
 10
166.4073582994535
 20
-82.8953691719897
 30
0.0
 10
174.5450824813805
 20
-73.81594128690105
 30
0.0
 10
183.1792192127792
 20
-62.85713212845961
 30
0.0
 10
190.9323582642372
 20
-51.24977049424385
 30
0.0
 10
197.8033701196798
 20
-39.10106507875043
 30
0.0
 10
203.7208032739593
 20
-26.46381884083609
 30
0.0
 10
208.7436218839652
 20
-13.43494075342565
 30
0.0
 10
211.2478731683659
 20
-4.478316420535866
 30
0.0
 10
212.5000000000001
 20
0.0
 30
0.0
  0
SPLINE
  5
E7
330
E2
100
AcDbEntity
  8
0
  6
Continuous
 62
     7
370
    25
100
AcDbSpline
210
0.0
220
0.0
230
1.0
 70
     8
 71
     3
 72
    15
 73
    11
 74
     0
 42
0.000000001
 43
0.00000001
 40
0.0
 40
0.0
 40
0.0
 40
0.0
 40
0.1312513091551507
 40
0.2625023689509626
 40
0.3937535573329225
 40
0.5250050051191402
 40
0.6562562250342011
 40
0.7875074787570792
 40
0.9187586103477264
 40
0.9999999999999999
 40
0.9999999999999999
 40
0.9999999999999999
 40
0.9999999999999999
 10
-212.5
 20
0.0
 30
0.0
 10
-211.2478731640612
 20
-4.478316416159839
 30
0.0
 10
-208.7436218710515
 20
-13.43494074029755
 30
0.0
 10
-203.7208033256134
 20
-26.46381889334846
 30
0.0
 10
-197.8033699259765
 20
-39.10106488182863
 30
0.0
 10
-190.9323589873972
 20
-51.24977122941951
 30
0.0
 10
-183.1792165138477
 20
-62.85712938468424
 30
0.0
 10
-174.5450925539469
 20
-73.81595152682756
 30
0.0
 10
-166.4064388414713
 20
-82.89632778155594
 30
0.0
 10
-160.863372872587
 20
-87.98906436417231
 30
0.0
 10
-158.7441153118394
 20
-89.93614934713857
 30
0.0
  0
SPLINE
  5
EA
330
E2
100
AcDbEntity
  8
0
  6
Continuous
 62
     7
370
    25
100
AcDbSpline
210
0.0
220
0.0
230
1.0
 70
     8
 71
     3
 72
    15
 73
    11
 74
     0
 42
0.000000001
 43
0.00000001
 40
0.0
 40
0.0
 40
0.0
 40
0.0
 40
0.1264485965570109
 40
0.2528969976340905
 40
0.3793453950998588
 40
0.505794205403062
 40
0.6322426425619826
 40
0.7586913055288631
 40
0.8851395861270666
 40
1.0
 40
1.0
 40
1.0
 40
1.0
 10
49.99999999999986
 20
-138.5181872348719
 30
0.0
 10
54.45534890894827
 20
-138.0132185537999
 30
0.0
 10
63.36603983921385
 20
-137.0032819722991
 30
0.0
 10
76.54836870847527
 20
-134.265595120522
 30
0.0
 10
89.50776462049107
 20
-130.6474253293982
 30
0.0
 10
102.1672637313838
 20
-126.0803716306589
 30
0.0
 10
114.4664811318777
 20
-120.6161580806111
 30
0.0
 10
126.3227197443206
 20
-114.2558420188724
 30
0.0
 10
137.3919678142328
 20
-107.3381479052679
 30
0.0
 10
144.1993945604161
 20
-102.1540772705285
 30
0.0
 10
147.4396584688093
 20
-99.68651388679842
 30
0.0
  0
SPLINE
  5
EB
330
E2
100
AcDbEntity
  8
0
  6
Continuous
 62
     7
370
    25
100
AcDbSpline
210
0.0
220
0.0
230
1.0
 70
     8
 71
     3
 72
    15
 73
    11
 74
     0
 42
0.000000001
 43
0.00000001
 40
0.0
 40
0.0
 40
0.0
 40
0.0
 40
0.1149670580972666
 40
0.2414001038341972
 40
0.3678335318937339
 40
0.4942667341725174
 40
0.6207003095506267
 40
0.7471334721410409
 40
0.8735666383423307
 40
1.0
 40
1.0
 40
1.0
 40
1.0
 10
-147.4499646690531
 20
-99.67890118402306
 30
0.0
 10
-144.2063191075297
 20
-102.1490781846106
 30
0.0
 10
-137.3955301014248
 20
-107.3357898766344
 30
0.0
 10
-126.3227377452148
 20
-114.2558674892435
 30
0.0
 10
-114.4664763085652
 20
-120.6161512558633
 30
0.0
 10
-102.1672650237582
 20
-126.0803734593042
 30
0.0
 10
-89.50776427432035
 20
-130.6474248395837
 30
0.0
 10
-76.54836880078757
 20
-134.2655952511392
 30
0.0
 10
-63.36603981613594
 20
-137.0032819396448
 30
0.0
 10
-54.45534890125575
 20
-138.0132185429152
 30
0.0
 10
-50.00000000000005
 20
-138.5181872348719
 30
0.0
  0
SPLINE
  5
EE
330
E2
100
AcDbEntity
  8
0
  6
Continuous
 62
     7
370
    25
100
AcDbSpline
210
0.0
220
0.0
230
1.0
 70
    24
 71
     3
 72
    60
 73
    56
 74
     0
 42
0.000000001
 43
0.00000001
 40
0.0
 40
0.0
 40
0.0
 40
0.0
 40
0.0040873596373928
 40
0.0276479484882513
 40
0.0488130987480035
 40
0.0700141519012768
 40
0.0913134988487743
 40
0.1126513360150876
 40
0.1341178815219237
 40
0.1556284523719529
 40
0.1772488664637076
 40
0.198920572448471
 40
0.2216098082039193
 40
0.2440181553781259
 40
0.2665028226905515
 40
0.2885026174483269
 40
0.310600526499281
 40
0.3312940953131995
 40
0.3520957327154327
 40
0.3730249191401811
 40
0.3941088234730067
 40
0.4109922571866836
 40
0.4279814853636497
 40
0.4450876218792331
 40
0.4623227186272088
 40
0.479240687432444
 40
0.4962985907600521
 40
0.5135047124952827
 40
0.5308631658061526
 40
0.546410072483115
 40
0.5620584769058881
 40
0.5778040537515974
 40
0.5936431866167103
 40
0.610379937983058
 40
0.6272097672337303
 40
0.6441229152000589
 40
0.6611107982919926
 40
0.6818783712264996
 40
0.7027495027139096
 40
0.7242916799844321
 40
0.7459226369628461
 40
0.7679923511412403
 40
0.7863464688137797
 40
0.8047374073140929
 40
0.8232112374721373
 40
0.8417176821591753
 40
0.8603240088138225
 40
0.8789599976593938
 40
0.8976732237524282
 40
0.9164136853709083
 40
0.9352392300302605
 40
0.954090398664667
 40
0.9730062613657635
 40
0.9919478339372304
 40
1.0
 40
1.0
 40
1.0
 40
1.0
 10
158.8097234580351
 20
-90.0
 30
0.0
 10
158.8247665605855
 20
-90.0
 30
0.0
 10
158.9265219629271
 20
-90.00000000000003
 30
0.0
 10
158.4912568233108
 20
-90.00000000000004
 30
0.0
 10
157.5367665886853
 20
-90.00000000000003
 30
0.0
 10
156.0365293409426
 20
-89.99999999999999
 30
0.0
 10
154.0147049301227
 20
-89.99999999999996
 30
0.0
 10
151.4373585750517
 20
-90.00000000000007
 30
0.0
 10
148.2945793937324
 20
-89.99999999999999
 30
0.0
 10
144.5649899723932
 20
-90.00000000000001
 30
0.0
 10
140.2364451598682
 20
-90.0
 30
0.0
 10
135.2183092897861
 20
-89.99999999999999
 30
0.0
 10
129.4966502474128
 20
-90.00000000000011
 30
0.0
 10
123.0279761834186
 20
-90.00000000000003
 30
0.0
 10
115.9364364201001
 20
-90.0
 30
0.0
 10
108.1684100414364
 20
-89.99999999999994
 30
0.0
 10
99.9019167320788
 20
-89.99999999999997
 30
0.0
 10
91.11322695803797
 20
-89.99999999999997
 30
0.0
 10
81.83938925877264
 20
-90.00000000000007
 30
0.0
 10
71.85341013114332
 20
-89.99999999999996
 30
0.0
 10
61.88370048309775
 20
-90.00000000000004
 30
0.0
 10
52.10401151109525
 20
-89.99999999999993
 30
0.0
 10
42.66981928452799
 20
-89.99999999999999
 30
0.0
 10
32.85232925985333
 20
-89.99999999999996
 30
0.0
 10
22.79024434736359
 20
-90.0000000000001
 30
0.0
 10
12.55277035992379
 20
-90.00000000000003
 30
0.0
 10
2.214765195184758
 20
-89.99999999999997
 30
0.0
 10
-8.232124849378998
 20
-90.0
 30
0.0
 10
-18.30343238442583
 20
-90.00000000000003
 30
0.0
 10
-27.9193545122891
 20
-89.99999999999994
 30
0.0
 10
-37.03015488701628
 20
-90.00000000000001
 30
0.0
 10
-45.95747731370723
 20
-90.00000000000001
 30
0.0
 10
-54.79724609119871
 20
-89.99999999999984
 30
0.0
 10
-63.48853511005627
 20
-90.00000000000014
 30
0.0
 10
-71.97312713865092
 20
-90.00000000000003
 30
0.0
 10
-80.08155675471384
 20
-90.00000000000003
 30
0.0
 10
-88.35744218278586
 20
-90.0
 30
0.0
 10
-96.68102990467573
 20
-89.99999999999999
 30
0.0
 10
-104.996169419431
 20
-90.00000000000007
 30
0.0
 10
-112.7520739277912
 20
-89.99999999999996
 30
0.0
 10
-119.9651971389605
 20
-89.99999999999994
 30
0.0
 10
-126.1934229292959
 20
-90.00000000000007
 30
0.0
 10
-131.5601076181407
 20
-89.99999999999999
 30
0.0
 10
-136.1519535992706
 20
-89.99999999999999
 30
0.0
 10
-140.3141290110786
 20
-90.00000000000003
 30
0.0
 10
-144.0531220993683
 20
-89.99999999999989
 30
0.0
 10
-147.3674370834221
 20
-90.00000000000004
 30
0.0
 10
-150.2621323546281
 20
-89.99999999999997
 30
0.0
 10
-152.7362015341765
 20
-90.0
 30
0.0
 10
-154.795704319148
 20
-90.00000000000006
 30
0.0
 10
-156.4398837054435
 20
-89.99999999999999
 30
0.0
 10
-157.6790291347021
 20
-90.00000000000001
 30
0.0
 10
-158.4766639743691
 20
-90.00000000000004
 30
0.0
 10
-158.8591952877423
 20
-89.9999999999999
 30
0.0
 10
-158.8168746897954
 20
-89.99999999999999
 30
0.0
 10
-158.8042505591715
 20
-90.0
 30
0.0
  0
SPLINE
  5
EF
330
E2
100
AcDbEntity
  8
0
  6
Continuous
 62
     7
370
    25
100
AcDbSpline
210
0.0
220
0.0
230
1.0
 70
    24
 71
     3
 72
    19
 73
    15
 74
     0
 42
0.000000001
 43
0.00000001
 40
0.2499999999996537
 40
0.2499999999996537
 40
0.2499999999996537
 40
0.2499999999996537
 40
0.2916666666666666
 40
0.3333333333333334
 40
0.375
 40
0.4166666666666666
 40
0.4583333333333334
 40
0.4999999999999999
 40
0.5416666666666667
 40
0.5833333333333333
 40
0.625
 40
0.6666666666666667
 40
0.7083333333333333
 40
0.7499999999996151
 40
0.7499999999996151
 40
0.7499999999996151
 40
0.7499999999996151
 10
212.5000000000002
 20
0.0
 30
0.0
 10
212.5000000000005
 20
0.0
 30
0.0
 10
207.511009469247
 20
0.0
 30
0.0
 10
186.2777896492971
 20
0.0
 30
0.0
 10
152.0240655199166
 20
0.0
 30
0.0
 10
107.1870942838847
 20
0.0
 30
0.0
 10
55.92556702164243
 20
0.0
 30
0.0
 10
-0.0000000000000803
 20
0.0
 30
0.0
 10
-55.92556702164253
 20
0.0
 30
0.0
 10
-107.1870942838848
 20
0.0
 30
0.0
 10
-152.0240655199167
 20
0.0
 30
0.0
 10
-186.277789649297
 20
0.0
 30
0.0
 10
-207.5110094693413
 20
0.0
 30
0.0
 10
-212.500000000023
 20
0.0
 30
0.0
 10
-212.5
 20
0.0
 30
0.0
  0
SPLINE
  5
F0
330
E2
100
AcDbEntity
  8
0
  6
Continuous
 62
     7
370
    25
100
AcDbSpline
210
0.0
220
0.0
230
1.0
 70
     8
 71
     3
 72
    60
 73
    56
 74
     0
 42
0.000000001
 43
0.00000001
 40
0.0
 40
0.0
 40
0.0
 40
0.0
 40
0.0096598576631753
 40
0.0279913131187082
 40
0.0463882267224871
 40
0.0648073379903392
 40
0.0831174118812699
 40
0.1014504832705255
 40
0.119855564166719
 40
0.1382859892162522
 40
0.1565966147769171
 40
0.1749351836149363
 40
0.1933639035876337
 40
0.2118255939229004
 40
0.2273321474196523
 40
0.2428620979228066
 40
0.2584174299154353
 40
0.274000902692618
 40
0.2998221552490669
 40
0.3258103867289501
 40
0.3475909235341758
 40
0.3695137792479434
 40
0.3883308630451051
 40
0.4072728327264359
 40
0.4240545040330157
 40
0.4409493981429748
 40
0.4582318515033887
 40
0.4756621464408873
 40
0.4918350951563158
 40
0.5081400612632352
 40
0.5248639699427524
 40
0.5417314084276552
 40
0.5567958729359579
 40
0.5719991826635467
 40
0.5872912792543321
 40
0.6027117292113123
 40
0.6235218243646203
 40
0.6444947463602524
 40
0.6652990211672237
 40
0.686221817855238
 40
0.7074680179052895
 40
0.728807130434345
 40
0.7454572788711207
 40
0.7621420297500493
 40
0.7789236796707603
 40
0.7957346202644002
 40
0.8123833796398637
 40
0.8290564400136143
 40
0.8457989152565378
 40
0.8625630022544875
 40
0.8958734685258962
 40
0.9293325871251603
 40
0.9626405473966361
 40
0.996081110050089
 40
1.0
 40
1.0
 40
1.0
 40
1.0
 10
-147.4556449436184
 20
-99.68659117505159
 30
0.0
 10
-147.4632602387665
 20
-99.68727021511543
 30
0.0
 10
-147.4853270350295
 20
-99.68923786554151
 30
0.0
 10
-147.1319404373096
 20
-99.65755159085222
 30
0.0
 10
-146.4192970926065
 20
-99.60038717245625
 30
0.0
 10
-145.3270180667039
 20
-99.51972578743363
 30
0.0
 10
-143.8772781198257
 20
-99.42047018761575
 30
0.0
 10
-142.0602880505997
 20
-99.30311789788837
 30
0.0
 10
-139.8668519064324
 20
-99.16728264976915
 30
0.0
 10
-137.2948241396934
 20
-99.0144106674442
 30
0.0
 10
-134.3412581143617
 20
-98.84662354493554
 30
0.0
 10
-130.9964536705071
 20
-98.66647240312233
 30
0.0
 10
-127.240195604393
 20
-98.4768355847404
 30
0.0
 10
-123.2844174970896
 20
-98.2926252561726
 30
0.0
 10
-119.1979635814961
 20
-98.11802219382044
 30
0.0
 10
-115.0441050286959
 20
-97.95433786605543
 30
0.0
 10
-110.5681733154293
 20
-97.79121707199685
 30
0.0
 10
-104.7117964969094
 20
-97.59253281220056
 30
0.0
 10
-97.14841432895803
 20
-97.35213941610671
 30
0.0
 10
-87.997896810287
 20
-97.09551563471608
 30
0.0
 10
-78.53961253226801
 20
-96.86778247488316
 30
0.0
 10
-69.40073079158928
 20
-96.67666943765938
 30
0.0
 10
-60.1086286609122
 20
-96.50481844094891
 30
0.0
 10
-51.15416039711488
 20
-96.35916061419482
 30
0.0
 10
-42.12682335400444
 20
-96.2328202443754
 30
0.0
 10
-33.06673813027043
 20
-96.1279651543207
 30
0.0
 10
-23.61809907946557
 20
-96.04625227368352
 30
0.0
 10
-14.09566006578877
 20
-95.99435428724998
 30
0.0
 10
-4.638421881950531
 20
-95.97135097555689
 30
0.0
 10
4.723857830922364
 20
-95.9713244762601
 30
0.0
 10
14.17869123261021
 20
-95.99467913158979
 30
0.0
 10
23.28084751301233
 20
-96.04469758037003
 30
0.0
 10
31.92260214132046
 20
-96.1175114830063
 30
0.0
 10
40.06889205068727
 20
-96.20761936741863
 30
0.0
 10
48.02913693667328
 20
-96.3138349893498
 30
0.0
 10
56.64369333979406
 20
-96.44619517379782
 30
0.0
 10
65.76035788292201
 20
-96.60638421187578
 30
0.0
 10
75.12881387740484
 20
-96.79378645657724
 30
0.0
 10
83.89096463795428
 20
-96.993319816507
 30
0.0
 10
92.0630179490322
 20
-97.20666933949667
 30
0.0
 10
99.67075682005519
 20
-97.43122072322933
 30
0.0
 10
106.1818974386073
 20
-97.6412598276091
 30
0.0
 10
111.7219060713609
 20
-97.83179789209363
 30
0.0
 10
116.4313389002797
 20
-98.0072018290039
 30
0.0
 10
120.7928700102155
 20
-98.18418910893762
 30
0.0
 10
124.7957266090372
 20
-98.36142303156322
 30
0.0
 10
128.4446386753339
 20
-98.53659292751901
 30
0.0
 10
131.7527625942913
 20
-98.70661004195773
 30
0.0
 10
134.7377542460283
 20
-98.86891012413372
 30
0.0
 10
138.2804378211652
 20
-99.07099722806451
 30
0.0
 10
141.9090327385445
 20
-99.29140040966942
 30
0.0
 10
145.0571134032845
 20
-99.49835414142878
 30
0.0
 10
146.8840973165366
 20
-99.63428036380435
 30
0.0
 10
147.647884671398
 20
-99.70355807055775
 30
0.0
 10
147.4586721611102
 20
-99.68707110067749
 30
0.0
 10
147.4388243594618
 20
-99.68534166900582
 30
0.0
  0
SPLINE
  5
F1
330
E2
100
AcDbEntity
  8
0
  6
Continuous
 62
     7
370
    25
100
AcDbSpline
210
0.0
220
0.0
230
1.0
 70
     8
 71
     3
 72
    19
 73
    15
 74
     0
 42
0.000000001
 43
0.00000001
 40
0.2499999999996537
 40
0.2499999999996537
 40
0.2499999999996537
 40
0.2499999999996537
 40
0.2916666666666666
 40
0.3333333333333334
 40
0.375
 40
0.4166666666666666
 40
0.4583333333333334
 40
0.4999999999999999
 40
0.5416666666666667
 40
0.5833333333333333
 40
0.625
 40
0.6666666666666667
 40
0.7083333333333333
 40
0.7499999999996151
 40
0.7499999999996151
 40
0.7499999999996151
 40
0.7499999999996151
 10
49.99999999999986
 20
-138.5181872348719
 30
0.0
 10
49.9999999999948
 20
-138.5181872348706
 30
0.0
 10
48.84764634167957
 20
-138.2785948432408
 30
0.0
 10
43.90761159436141
 20
-137.4400214725421
 30
0.0
 10
35.87530772067387
 20
-136.361855710217
 30
0.0
 10
25.31209538947903
 20
-135.2836899478929
 30
0.0
 10
13.2249310694186
 20
-134.4451165771974
 30
0.0
 10
0.0000000000000015
 20
-134.0857279897577
 30
0.0
 10
-13.22493106941829
 20
-134.4451165772015
 30
0.0
 10
-25.31209538947815
 20
-135.2836899479006
 30
0.0
 10
-35.87530772067242
 20
-136.3618557102268
 30
0.0
 10
-43.90761159435977
 20
-137.4400214725519
 30
0.0
 10
-48.84764634169995
 20
-138.278594843246
 30
0.0
 10
-49.9999999999984
 20
-138.5181872348719
 30
0.0
 10
-50.00000000000006
 20
-138.518187234872
 30
0.0
  0
SPLINE
  5
F2
330
E2
100
AcDbEntity
  8
0
  6
Continuous
 62
     7
370
    25
100
AcDbSpline
210
0.0
220
0.0
230
1.0
 70
    24
 71
     3
 72
    19
 73
    15
 74
     0
 42
0.000000001
 43
0.00000001
 40
0.2499999999996537
 40
0.2499999999996537
 40
0.2499999999996537
 40
0.2499999999996537
 40
0.2916666666666666
 40
0.3333333333333334
 40
0.375
 40
0.4166666666666666
 40
0.4583333333333334
 40
0.4999999999999999
 40
0.5416666666666667
 40
0.5833333333333333
 40
0.625
 40
0.6666666666666667
 40
0.7083333333333333
 40
0.7499999999996151
 40
0.7499999999996151
 40
0.7499999999996151
 40
0.7499999999996151
 10
49.99999999999991
 20
-145.0
 30
0.0
 10
49.99999999999503
 20
-145.0
 30
0.0
 10
48.82611987510987
 20
-145.0
 30
0.0
 10
43.83006815277574
 20
-145.0
 30
0.0
 10
35.77036835762745
 20
-145.0
 30
0.0
 10
25.2204927726788
 20
-145.0
 30
0.0
 10
13.15895694626887
 20
-145.0
 30
0.0
 10
0.000000000000042
 20
-145.0
 30
0.0
 10
-13.15895694626878
 20
-144.9999999999999
 30
0.0
 10
-25.22049277267872
 20
-145.0
 30
0.0
 10
-35.77036835762738
 20
-145.0
 30
0.0
 10
-43.83006815277575
 20
-145.0
 30
0.0
 10
-48.82611987513144
 20
-145.0
 30
0.0
 10
-50.00000000000001
 20
-145.0
 30
0.0
 10
-49.99999999999997
 20
-145.0
 30
0.0
  0
LINE
  5
F3
330
E2
100
AcDbEntity
  8
0
  6
Continuous
 62
     7
370
    25
100
AcDbLine
 10
147.5
 20
-99.685341669
 30
0.0
 11
147.5
 21
-90.0
 31
0.0
  0
LINE
  5
F4
330
E2
100
AcDbEntity
  8
0
  6
Continuous
 62
     7
370
    25
100
AcDbLine
 10
-147.5
 20
-90.0
 30
0.0
 11
-147.5
 21
-99.6865911751
 31
0.0
  0
LINE
  5
F5
330
E2
100
AcDbEntity
  8
0
  6
Continuous
 62
     7
370
    25
100
AcDbLine
 10
50.0
 20
-145.0
 30
0.0
 11
50.0
 21
-138.5181872349
 31
0.0
  0
LINE
  5
F6
330
E2
100
AcDbEntity
  8
0
  6
Continuous
 62
     7
370
    25
100
AcDbLine
 10
-50.0
 20
-138.5181872349
 30
0.0
 11
-50.0
 21
-145.0
 31
0.0
  0
VIEWPORT
  5
138
330
E2
100
AcDbEntity
  8
0
100
AcDbViewport
 10
0.0
 20
0.0
 30
0.0
 40
205.6
 41
156.0
 68
     1
 69
     1
 12
0.0
 22
-10.7677612968
 13
0.0
 23
0.0
 14
10.0
 24
10.0
 15
10.0
 25
10.0
 16
0.0
 26
0.0
 36
1.0
 17
0.0
 27
0.0
 37
0.0
 42
50.0
 43
0.0
 44
0.0
 45
441.1402376099
 50
0.0
 51
0.0
 72
   100
 90
   557152
  1

281
     0
 71
     1
 74
     0
110
0.0
120
0.0
130
0.0
111
1.0
121
0.0
131
0.0
112
0.0
122
1.0
132
0.0
 79
     0
146
0.0
170
     0
 61
     5
348
2F
292
     1
282
     1
141
0.0
142
0.0
 63
   256
361
139
  0
ENDBLK
  5
E5
330
E2
100
AcDbEntity
  8
0
100
AcDbBlockEnd
  0
BLOCK
  5
F9
330
F7
100
AcDbEntity
  8
0
100
AcDbBlockBegin
  2
*Paper_Space5
 70
     0
 10
0.0
 20
0.0
 30
0.0
  3
*Paper_Space5
  1

  0
SPLINE
  5
FB
330
F7
100
AcDbEntity
  8
0
  6
Continuous
 62
     7
370
    25
100
AcDbSpline
210
0.0
220
0.0
230
1.0
 70
    11
 71
     3
 72
    35
 73
    31
 74
     0
 42
0.000000001
 43
0.00000001
 40
0.0
 40
0.0
 40
0.0
 40
0.0
 40
0.0062500000000001
 40
0.0083333333333333
 40
0.0416666666666666
 40
0.0833333333333334
 40
0.1250000000000001
 40
0.1666666666666666
 40
0.2083333333333334
 40
0.2499999999996537
 40
0.2916666666666666
 40
0.3333333333333334
 40
0.375
 40
0.4166666666666666
 40
0.4583333333333334
 40
0.4999999999999999
 40
0.5416666666666667
 40
0.5833333333333333
 40
0.625
 40
0.6666666666666667
 40
0.7083333333333333
 40
0.7499999999996151
 40
0.7916666666666666
 40
0.8333333333333334
 40
0.875
 40
0.9166666666666666
 40
0.9583333333333334
 40
0.9916666666666667
 40
0.99375
 40
1.0
 40
1.0
 40
1.0
 40
1.0
 10
-74.99999999999999
 20
0.0000000000001087
 30
0.0
 10
-74.99999999999999
 20
-0.6579478473133373
 30
0.0
 10
-74.97358769719025
 20
-1.53521164373125
 30
0.0
 10
-74.66759223070719
 20
-5.916043520221528
 30
0.0
 10
-72.73957464045081
 20
-13.96305933469594
 30
0.0
 10
-65.7451022291637
 20
-25.22049277267855
 30
0.0
 10
-53.65555253644128
 20
-35.77036835762724
 30
0.0
 10
-37.83073915901831
 20
-43.83006815277562
 30
0.0
 10
-19.73843541940346
 20
-48.82611987512364
 30
0.0
 10
-0.0000000000002077
 20
-50.58694006243801
 30
0.0
 10
19.73843541940304
 20
-48.82611987512371
 30
0.0
 10
37.83073915901795
 20
-43.83006815277574
 30
0.0
 10
53.655552536441
 20
-35.77036835762745
 30
0.0
 10
65.74510222916354
 20
-25.2204927726788
 30
0.0
 10
73.23917981268552
 20
-13.15895694626887
 30
0.0
 10
75.8804100936571
 20
-0.000000000000042
 30
0.0
 10
73.23917981268555
 20
13.15895694626878
 30
0.0
 10
65.74510222916362
 20
25.22049277267872
 30
0.0
 10
53.65555253644113
 20
35.77036835762738
 30
0.0
 10
37.83073915901813
 20
43.83006815277575
 30
0.0
 10
19.73843541940324
 20
48.82611987512369
 30
0.0
 10
-0.0000000000000078
 20
50.58694006243812
 30
0.0
 10
-19.73843541940325
 20
48.82611987512371
 30
0.0
 10
-37.83073915901817
 20
43.83006815277577
 30
0.0
 10
-53.65555253644116
 20
35.77036835762741
 30
0.0
 10
-65.74510222916368
 20
25.22049277267876
 30
0.0
 10
-72.73957464045083
 20
13.96305933469616
 30
0.0
 10
-74.66759223070723
 20
5.916043520221735
 30
0.0
 10
-74.97358769719027
 20
1.535211643731455
 30
0.0
 10
-74.99999999999999
 20
0.657947847313543
 30
0.0
 10
-74.99999999999999
 20
0.0000000000001087
 30
0.0
  0
SPLINE
  5
FC
330
F7
100
AcDbEntity
  8
0
  6
Continuous
 62
     7
370
    25
100
AcDbSpline
210
0.0
220
0.0
230
1.0
 70
    11
 71
     3
 72
    35
 73
    31
 74
     0
 42
0.000000001
 43
0.00000001
 40
0.0
 40
0.0
 40
0.0
 40
0.0
 40
0.0062500000000001
 40
0.0083333333333333
 40
0.0416666666666666
 40
0.0833333333333334
 40
0.1250000000000001
 40
0.1666666666666666
 40
0.2083333333333334
 40
0.2499999999996537
 40
0.2916666666666666
 40
0.3333333333333334
 40
0.375
 40
0.4166666666666666
 40
0.4583333333333334
 40
0.4999999999999999
 40
0.5416666666666667
 40
0.5833333333333333
 40
0.625
 40
0.6666666666666667
 40
0.7083333333333333
 40
0.7499999999996151
 40
0.7916666666666666
 40
0.8333333333333334
 40
0.875
 40
0.9166666666666666
 40
0.9583333333333334
 40
0.9916666666666667
 40
0.99375
 40
1.0
 40
1.0
 40
1.0
 40
1.0
 10
-23.0
 20
-0.0000000000000065
 30
0.0
 10
-23.0
 20
-0.3058699265881847
 30
0.0
 10
-22.99133516299608
 20
-0.7136964953724152
 30
0.0
 10
-22.89145991336859
 20
-2.75046670346351
 30
0.0
 10
-22.26524099857055
 20
-6.493723289480213
 30
0.0
 10
-20.06579618222134
 20
-11.76226989751441
 30
0.0
 10
-16.46208693124018
 20
-16.4620869312402
 30
0.0
 10
-11.76226989751438
 20
-20.06579618222135
 30
0.0
 10
-6.117398531763469
 20
-22.42234419973835
 30
0.0
 10
0.0000000000000087
 20
-23.28882790013082
 30
0.0
 10
6.117398531763485
 20
-22.42234419973835
 30
0.0
 10
11.7622698975144
 20
-20.06579618222134
 30
0.0
 10
16.4620869312402
 20
-16.46208693124018
 30
0.0
 10
20.06579618222136
 20
-11.76226989751439
 30
0.0
 10
22.42234419973837
 20
-6.117398531763469
 30
0.0
 10
23.28882790013084
 20
0.0000000000000145
 30
0.0
 10
22.42234419973837
 20
6.117398531763485
 30
0.0
 10
20.06579618222135
 20
11.7622698975144
 30
0.0
 10
16.46208693124019
 20
16.4620869312402
 30
0.0
 10
11.76226989751439
 20
20.06579618222136
 30
0.0
 10
6.117398531763475
 20
22.42234419973836
 30
0.0
 10
0.000000000000003
 20
23.28882790013082
 30
0.0
 10
-6.11739853176348
 20
22.42234419973835
 30
0.0
 10
-11.7622698975144
 20
20.06579618222135
 30
0.0
 10
-16.4620869312402
 20
16.46208693124019
 30
0.0
 10
-20.06579618222135
 20
11.76226989751439
 30
0.0
 10
-22.26524099857056
 20
6.493723289480199
 30
0.0
 10
-22.89145991336859
 20
2.750466703463492
 30
0.0
 10
-22.99133516299607
 20
0.7136964953723968
 30
0.0
 10
-23.0
 20
0.3058699265881663
 30
0.0
 10
-23.0
 20
-0.0000000000000065
 30
0.0
  0
SPLINE
  5
FD
330
F7
100
AcDbEntity
  8
0
  6
Continuous
 62
     7
370
    25
100
AcDbSpline
210
0.0
220
0.0
230
1.0
 70
    11
 71
     3
 72
    35
 73
    31
 74
     0
 42
0.000000001
 43
0.00000001
 40
0.0
 40
0.0
 40
0.0
 40
0.0
 40
0.0062500000000001
 40
0.0083333333333333
 40
0.0416666666666666
 40
0.0833333333333334
 40
0.1250000000000001
 40
0.1666666666666666
 40
0.2083333333333334
 40
0.2499999999996537
 40
0.2916666666666666
 40
0.3333333333333334
 40
0.375
 40
0.4166666666666666
 40
0.4583333333333334
 40
0.4999999999999999
 40
0.5416666666666667
 40
0.5833333333333333
 40
0.625
 40
0.6666666666666667
 40
0.7083333333333333
 40
0.7499999999996151
 40
0.7916666666666666
 40
0.8333333333333334
 40
0.875
 40
0.9166666666666666
 40
0.9583333333333334
 40
0.9916666666666667
 40
0.99375
 40
1.0
 40
1.0
 40
1.0
 40
1.0
 10
-75.00000000000006
 20
0.0000000000001032
 30
0.0
 10
-75.00000000000027
 20
-0.661246553470827
 30
0.0
 10
-74.97411923532695
 20
-1.542908624765383
 30
0.0
 10
-74.67398880268992
 20
-5.945530147491375
 30
0.0
 10
-72.78115802011935
 20
-14.03074202408885
 30
0.0
 10
-65.87275066378133
 20
-25.31209538947808
 30
0.0
 10
-53.82829887254416
 20
-35.87530772067239
 30
0.0
 10
-37.98153115899604
 20
-43.90761159435971
 30
0.0
 10
-19.84703897598414
 20
-48.84764634169495
 30
0.0
 10
-0.0000000000116734
 20
-50.57617682915276
 30
0.0
 10
19.84703897596117
 20
-48.84764634169325
 30
0.0
 10
37.98153115896594
 20
-43.90761159436141
 30
0.0
 10
53.8282988725196
 20
-35.87530772067387
 30
0.0
 10
65.87275066376385
 20
-25.31209538947903
 30
0.0
 10
73.27461568841996
 20
-13.2249310694186
 30
0.0
 10
75.86269215578739
 20
-0.0000000000000015
 30
0.0
 10
73.27461568842901
 20
13.22493106941829
 30
0.0
 10
65.8727506637815
 20
25.31209538947815
 30
0.0
 10
53.82829887254483
 20
35.87530772067242
 30
0.0
 10
37.98153115899723
 20
43.90761159435977
 30
0.0
 10
19.84703897598513
 20
48.84764634169517
 30
0.0
 10
0.0000000000127875
 20
50.57617682915297
 30
0.0
 10
-19.84703897596017
 20
48.84764634169328
 30
0.0
 10
-37.98153115896477
 20
43.90761159436165
 30
0.0
 10
-53.82829887251893
 20
35.87530772067402
 30
0.0
 10
-65.8727506637637
 20
25.31209538947912
 30
0.0
 10
-72.78115802010974
 20
14.03074202408932
 30
0.0
 10
-74.67398880268591
 20
5.945530147491608
 30
0.0
 10
-74.97411923532592
 20
1.542908624765581
 30
0.0
 10
-74.99999999999983
 20
0.6612465534710217
 30
0.0
 10
-75.00000000000006
 20
0.0000000000001032
 30
0.0
  0
SPLINE
  5
FE
330
F7
100
AcDbEntity
  8
0
  6
Continuous
 62
     7
370
    25
100
AcDbSpline
210
0.0
220
0.0
230
1.0
 70
    11
 71
     3
 72
   217
 73
   213
 74
     0
 42
0.000000001
 43
0.00000001
 40
0.0
 40
0.0
 40
0.0
 40
0.0
 40
0.015625
 40
0.015625
 40
0.03125
 40
0.03125
 40
0.03515625
 40
0.03515625
 40
0.0390625
 40
0.0390625
 40
0.046875
 40
0.046875
 40
0.0624999999999999
 40
0.0624999999999999
 40
0.0664062499999999
 40
0.0664062499999999
 40
0.0703124999999999
 40
0.0703124999999999
 40
0.0781249999999999
 40
0.0781249999999999
 40
0.0937499999999998
 40
0.0937499999999998
 40
0.1093749999999997
 40
0.1093749999999997
 40
0.1132812499999997
 40
0.1132812499999997
 40
0.1171874999999997
 40
0.1171874999999997
 40
0.1249999999999997
 40
0.1249999999999997
 40
0.1328124999999997
 40
0.1328124999999997
 40
0.1406249999999997
 40
0.1406249999999997
 40
0.1562499999999997
 40
0.1562499999999997
 40
0.1718749999999997
 40
0.1718749999999997
 40
0.1874999999999997
 40
0.1874999999999997
 40
0.2031249999999997
 40
0.2031249999999997
 40
0.2109374999999998
 40
0.2109374999999998
 40
0.2187499999999998
 40
0.2187499999999998
 40
0.2343749999999997
 40
0.2343749999999997
 40
0.2421874999999998
 40
0.2421874999999998
 40
0.2499999999999997
 40
0.2499999999999997
 40
0.2656249999999997
 40
0.2656249999999997
 40
0.2812499999999996
 40
0.2812499999999996
 40
0.2890624999999996
 40
0.2890624999999996
 40
0.2968749999999996
 40
0.2968749999999996
 40
0.3124999999999995
 40
0.3124999999999995
 40
0.3203124999999994
 40
0.3203124999999994
 40
0.3281249999999994
 40
0.3281249999999994
 40
0.3437499999999993
 40
0.3437499999999993
 40
0.3515624999999993
 40
0.3515624999999993
 40
0.3593749999999992
 40
0.3593749999999992
 40
0.3749999999999991
 40
0.3749999999999991
 40
0.382812499999999
 40
0.382812499999999
 40
0.3906249999999989
 40
0.3906249999999989
 40
0.4062499999999989
 40
0.4062499999999989
 40
0.410156249999999
 40
0.410156249999999
 40
0.414062499999999
 40
0.414062499999999
 40
0.421874999999999
 40
0.421874999999999
 40
0.429687499999999
 40
0.429687499999999
 40
0.437499999999999
 40
0.437499999999999
 40
0.4531249999999991
 40
0.4531249999999991
 40
0.4687499999999991
 40
0.4687499999999991
 40
0.4843749999999992
 40
0.4843749999999992
 40
0.4863281249999992
 40
0.4863281249999992
 40
0.4882812499999992
 40
0.4882812499999992
 40
0.4921874999999992
 40
0.4921874999999992
 40
0.4999999999999993
 40
0.4999999999999993
 40
0.5156249999999994
 40
0.5156249999999994
 40
0.5195312499999994
 40
0.5195312499999994
 40
0.5234374999999994
 40
0.5234374999999994
 40
0.5312499999999996
 40
0.5312499999999996
 40
0.5468749999999997
 40
0.5468749999999997
 40
0.5507812499999997
 40
0.5507812499999997
 40
0.5546874999999997
 40
0.5546874999999997
 40
0.5624999999999997
 40
0.5624999999999997
 40
0.5703124999999998
 40
0.5703124999999998
 40
0.5742187499999998
 40
0.5742187499999998
 40
0.5781249999999998
 40
0.5781249999999998
 40
0.5937499999999999
 40
0.5937499999999999
 40
0.609375
 40
0.609375
 40
0.61328125
 40
0.61328125
 40
0.6171875
 40
0.6171875
 40
0.625
 40
0.625
 40
0.640625
 40
0.640625
 40
0.6484375
 40
0.6484375
 40
0.65625
 40
0.65625
 40
0.6718750000000001
 40
0.6718750000000001
 40
0.6796875000000001
 40
0.6796875000000001
 40
0.6875000000000001
 40
0.6875000000000001
 40
0.7031250000000002
 40
0.7031250000000002
 40
0.7109375000000002
 40
0.7109375000000002
 40
0.7187500000000002
 40
0.7187500000000002
 40
0.7343750000000002
 40
0.7343750000000002
 40
0.7421875000000002
 40
0.7421875000000002
 40
0.7500000000000002
 40
0.7500000000000002
 40
0.7656250000000002
 40
0.7656250000000002
 40
0.7812500000000002
 40
0.7812500000000002
 40
0.7968750000000002
 40
0.7968750000000002
 40
0.8125000000000002
 40
0.8125000000000002
 40
0.8203125000000003
 40
0.8203125000000003
 40
0.8281250000000003
 40
0.8281250000000003
 40
0.8437500000000003
 40
0.8437500000000003
 40
0.8515625000000003
 40
0.8515625000000003
 40
0.8593750000000003
 40
0.8593750000000003
 40
0.8750000000000003
 40
0.8750000000000003
 40
0.8789062500000003
 40
0.8789062500000003
 40
0.8828125000000003
 40
0.8828125000000003
 40
0.8906250000000003
 40
0.8906250000000003
 40
0.9062500000000003
 40
0.9062500000000003
 40
0.9101562500000003
 40
0.9101562500000003
 40
0.9140625000000003
 40
0.9140625000000003
 40
0.9218750000000003
 40
0.9218750000000003
 40
0.9375000000000002
 40
0.9375000000000002
 40
0.9531250000000002
 40
0.9531250000000002
 40
0.9570312500000002
 40
0.9570312500000002
 40
0.9609375000000002
 40
0.9609375000000002
 40
0.9687500000000001
 40
0.9687500000000001
 40
0.984375
 40
0.984375
 40
0.98828125
 40
0.98828125
 40
0.9921875
 40
0.99609375
 40
0.99609375
 40
1.0
 40
1.0
 40
1.0
 40
1.0
 10
-212.5
 20
0.0000000000000369
 30
0.0
 10
-212.5
 20
5.996915147968143
 30
0.0
 10
-211.9753663103722
 20
11.90008988118686
 30
0.0
 10
-209.9480103781744
 20
23.53163615822025
 30
0.0
 10
-208.4449376292392
 20
29.25994519384633
 30
0.0
 10
-205.9699280089849
 20
36.3137961087927
 30
0.0
 10
-205.445407369351
 20
37.71766597222915
 30
0.0
 10
-204.3467370078252
 20
40.49124762866383
 30
0.0
 10
-203.7715794254416
 20
41.86390897324316
 30
0.0
 10
-201.9713272377168
 20
45.94097807729636
 30
0.0
 10
-200.6715470111801
 20
48.60452240756114
 30
0.0
 10
-196.491060312382
 20
56.44134600710213
 30
0.0
 10
-193.330262661689
 20
61.46139509278886
 30
0.0
 10
-188.9514058752823
 20
67.50240760860692
 30
0.0
 10
-188.0531441901332
 20
68.70005344153866
 30
0.0
 10
-186.2263906220396
 20
71.05710005125388
 30
0.0
 10
-185.2966608138133
 20
72.21829784278717
 30
0.0
 10
-182.4604587771284
 20
75.65208206241806
 30
0.0
 10
-180.5070394033767
 20
77.87492815517311
 30
0.0
 10
-174.4726182392116
 20
84.35891973276705
 30
0.0
 10
-170.218150386872
 20
88.43625177216293
 30
0.0
 10
-161.2977552163127
 20
96.1549427754212
 30
0.0
 10
-156.6315656537758
 20
99.79602515108509
 30
0.0
 10
-150.5612842550683
 20
104.0957998066663
 30
0.0
 10
-149.3343741958535
 20
104.9437486258649
 30
0.0
 10
-146.8644172529247
 20
106.6099146970272
 30
0.0
 10
-145.6208336083397
 20
107.4285453909496
 30
0.0
 10
-141.8649803599396
 20
109.8422726719777
 30
0.0
 10
-139.327630293311
 20
111.3952407239064
 30
0.0
 10
-134.1892608456572
 20
114.394209908163
 30
0.0
 10
-131.5882374662085
 20
115.8402043629567
 30
0.0
 10
-126.325086216666
 20
118.6295286723228
 30
0.0
 10
-123.6627432821212
 20
119.9727945362536
 30
0.0
 10
-115.6189592021097
 20
123.8393303680295
 30
0.0
 10
-110.1704358927557
 20
126.2055267327021
 30
0.0
 10
-99.11451480593027
 20
130.5474644588198
 30
0.0
 10
-93.50706379664241
 20
132.5230876585278
 30
0.0
 10
-82.14123832681268
 20
136.1037365150301
 30
0.0
 10
-76.41009651575811
 20
137.7000788495426
 30
0.0
 10
-64.86522572727935
 20
140.5244781512843
 30
0.0
 10
-59.05004610865625
 20
141.752917637169
 30
0.0
 10
-50.26535847191595
 20
143.3294813524216
 30
0.0
 10
-47.32477917099683
 20
143.8108701983406
 30
0.0
 10
-41.43368503565912
 20
144.6841102609552
 30
0.0
 10
-38.48429926367049
 20
145.0758699317249
 30
0.0
 10
-29.62481251562643
 20
146.1187856711676
 30
0.0
 10
-23.7034029050669
 20
146.6378128816532
 30
0.0
 10
-14.79901275277468
 20
147.1563970515024
 30
0.0
 10
-11.82716479046265
 20
147.2858727084795
 30
0.0
 10
-5.876029537898241
 20
147.4580883974298
 30
0.0
 10
-2.895667936311031
 20
147.5007728524943
 30
0.0
 10
6.033100768430167
 20
147.4984224743359
 30
0.0
 10
11.97644023904937
 20
147.3235579279974
 30
0.0
 10
23.84478405566686
 20
146.6267343783982
 30
0.0
 10
29.76978920682183
 20
146.1047903057392
 30
0.0
 10
38.64324637401989
 20
145.055562773435
 30
0.0
 10
41.59544134995581
 20
144.6617175254405
 30
0.0
 10
47.47988096142764
 20
143.7862072130149
 30
0.0
 10
50.41344817901359
 20
143.3043898343679
 30
0.0
 10
59.18786872644542
 20
141.7250985067281
 30
0.0
 10
65.002495003651
 20
140.494074198472
 30
0.0
 10
73.6697264193368
 20
138.3688488418881
 30
0.0
 10
76.55152022628675
 20
137.6133985452078
 30
0.0
 10
82.28760241930087
 20
136.0090924820702
 30
0.0
 10
85.13904291548431
 20
135.1611033683666
 30
0.0
 10
93.64251939413207
 20
132.4767004552097
 30
0.0
 10
99.24384188094793
 20
130.5002181275009
 30
0.0
 10
107.5380255670775
 20
127.2375048954013
 30
0.0
 10
110.284755993951
 20
126.1001821745547
 30
0.0
 10
115.7407380040949
 20
123.7218871504192
 30
0.0
 10
118.4522722426097
 20
122.4797335909278
 30
0.0
 10
126.4973458147055
 20
118.6053598454152
 30
0.0
 10
131.7491113684602
 20
115.8228697780967
 30
0.0
 10
139.4451132306007
 20
111.3243493926387
 30
0.0
 10
141.9801078728014
 20
109.7705973219608
 30
0.0
 10
146.9861145781546
 20
106.5487171697462
 30
0.0
 10
149.4593480488432
 20
104.8788686864784
 30
0.0
 10
156.743099568756
 20
99.71177857802074
 30
0.0
 10
161.4276143055951
 20
96.0522309418874
 30
0.0
 10
167.0451910785818
 20
91.1791312590467
 30
0.0
 10
168.1567587933509
 20
90.18952286204676
 30
0.0
 10
170.355205882469
 20
88.17933249420861
 30
0.0
 10
171.4428564183449
 20
87.15798840991226
 30
0.0
 10
174.659622860566
 20
84.05347936736159
 30
0.0
 10
176.7435930284601
 20
81.92915665318324
 30
0.0
 10
180.7840333457968
 20
77.56541979503257
 30
0.0
 10
182.7405166217812
 20
75.3260174579323
 30
0.0
 10
186.5178271639983
 20
70.72477342809837
 30
0.0
 10
188.341518448985
 20
68.35871124658422
 30
0.0
 10
193.5630103799247
 20
61.10695393994673
 30
0.0
 10
196.7182822502249
 20
56.06376442560383
 30
0.0
 10
202.295588720829
 20
45.50756631121071
 30
0.0
 10
204.6657607712481
 20
40.0912133839039
 30
0.0
 10
208.5231972095367
 20
28.97221936596024
 30
0.0
 10
210.0113443115528
 20
23.26898150136385
 30
0.0
 10
211.1403866527327
 20
16.67496874461111
 30
0.0
 10
211.2582295676137
 20
15.93981886384719
 30
0.0
 10
211.4784669583956
 20
14.46447857683136
 30
0.0
 10
211.5809740051342
 20
13.72332861462568
 30
0.0
 10
211.863767018303
 20
11.50188685746819
 30
0.0
 10
212.0195935595265
 20
10.02249716678582
 30
0.0
 10
212.3902297222836
 20
5.58898162337556
 30
0.0
 10
212.5082852732186
 20
2.639505028258978
 30
0.0
 10
212.4820765387144
 20
-6.190649651382506
 30
0.0
 10
211.9587693516507
 20
-12.05311587740972
 30
0.0
 10
210.673995049506
 20
-19.35089193416068
 30
0.0
 10
210.3854024975192
 20
-20.80892676814757
 30
0.0
 10
209.7445570090588
 20
-23.72193716361466
 30
0.0
 10
209.39227664207
 20
-25.1761709622027
 30
0.0
 10
208.2512215918744
 20
-29.49347770060682
 30
0.0
 10
207.3754597403481
 20
-32.32506912987185
 30
0.0
 10
204.4224788346832
 20
-40.68790999393845
 30
0.0
 10
202.0208044464368
 20
-46.08773273375321
 30
0.0
 10
198.5195622136258
 20
-52.63537210786716
 30
0.0
 10
197.7942558284299
 20
-53.93475216453886
 30
0.0
 10
196.2942037014541
 20
-56.51349139005329
 30
0.0
 10
195.5211876302612
 20
-57.78979112919819
 30
0.0
 10
193.141451915007
 20
-61.57075431026355
 30
0.0
 10
191.4716411462232
 20
-64.03182682055699
 30
0.0
 10
187.97549775912
 20
-68.8420698513269
 30
0.0
 10
186.1491478922617
 20
-71.191228014684
 30
0.0
 10
183.2980955287545
 20
-74.63522948644139
 30
0.0
 10
182.3284271363729
 20
-75.77067050926456
 30
0.0
 10
180.3616660258328
 20
-78.00560165883284
 30
0.0
 10
179.363619200855
 20
-79.10629553538173
 30
0.0
 10
174.3029092964372
 20
-84.52916811581618
 30
0.0
 10
170.0298396028258
 20
-88.61071605825506
 30
0.0
 10
161.0895396731573
 20
-96.32306397679075
 30
0.0
 10
156.4220154379163
 20
-99.9535292925496
 30
0.0
 10
150.3623849743729
 20
-104.2341779778748
 30
0.0
 10
149.139158089753
 20
-105.0773918064178
 30
0.0
 10
146.6704973120022
 20
-106.7384372811802
 30
0.0
 10
145.4254337485379
 20
-107.5559809018346
 30
0.0
 10
141.6698666372031
 20
-109.963470842934
 30
0.0
 10
139.1350208892603
 20
-111.5110298655491
 30
0.0
 10
131.4420189120849
 20
-115.9904830071594
 30
0.0
 10
126.1956534282154
 20
-118.7596179062059
 30
0.0
 10
118.1637781932965
 20
-122.6138050394774
 30
0.0
 10
115.4582323529258
 20
-123.848978531296
 30
0.0
 10
109.9993698860102
 20
-126.220204989987
 30
0.0
 10
107.2517042714655
 20
-127.3538604605212
 30
0.0
 10
98.9562102668673
 20
-130.6053048897245
 30
0.0
 10
93.35600538013199
 20
-132.5739216503324
 30
0.0
 10
84.85716158004408
 20
-135.2464409805235
 30
0.0
 10
82.00775867545292
 20
-136.090453774359
 30
0.0
 10
76.27674116450427
 20
-137.6868432796408
 30
0.0
 10
73.3973027141264
 20
-138.4385442710152
 30
0.0
 10
64.73636511772136
 20
-140.553109949744
 30
0.0
 10
58.92512989510441
 20
-141.7777422396546
 30
0.0
 10
50.15456830569276
 20
-143.3481254352891
 30
0.0
 10
47.22208264805872
 20
-143.82708765081
 30
0.0
 10
41.33939065286955
 20
-144.6970589990466
 30
0.0
 10
38.38797930245106
 20
-145.0881594709376
 30
0.0
 10
29.52926121725324
 20
-146.1280845375788
 30
0.0
 10
23.61106284233743
 20
-146.6448704433917
 30
0.0
 10
14.7155213473005
 20
-147.1604011451099
 30
0.0
 10
11.74729582312681
 20
-147.2889099618328
 30
0.0
 10
5.804759568782401
 20
-147.4594061445742
 30
0.0
 10
2.828700224864694
 20
-147.5013814181437
 30
0.0
 10
-6.094658800950318
 20
-147.4971330760685
 30
0.0
 10
-12.0339548146802
 20
-147.3212148158571
 30
0.0
 10
-23.89334582654987
 20
-146.6228401649082
 30
0.0
 10
-29.8134416378917
 20
-146.1003981496188
 30
0.0
 10
-41.63402275323173
 20
-144.7011488197668
 30
0.0
 10
-47.51203019294402
 20
-143.8270036901434
 30
0.0
 10
-59.20189098021534
 20
-141.7221802773301
 30
0.0
 10
-65.01378399412644
 20
-140.4915427312335
 30
0.0
 10
-73.679862112697
 20
-138.3662449130213
 30
0.0
 10
-76.55904657735819
 20
-137.6113091805297
 30
0.0
 10
-82.28274952928363
 20
-136.0104341078577
 30
0.0
 10
-85.12932057735848
 20
-135.164009307475
 30
0.0
 10
-93.62211061398861
 20
-132.4834684890762
 30
0.0
 10
-99.22153298340733
 20
-130.5084709487172
 30
0.0
 10
-107.5206465183422
 20
-127.2446014644792
 30
0.0
 10
-110.2725389441857
 20
-126.1052868329732
 30
0.0
 10
-115.7229028793591
 20
-123.729881199417
 30
0.0
 10
-118.422941122137
 20
-122.4932726342368
 30
0.0
 10
-126.4450560923671
 20
-118.6317022990322
 30
0.0
 10
-131.6894100281213
 20
-115.85552752671
 30
0.0
 10
-138.103023282445
 20
-112.1093808076444
 30
0.0
 10
-139.3786328326832
 20
-111.3463135114683
 30
0.0
 10
-141.9152272634411
 20
-109.7917302191328
 30
0.0
 10
-143.1767328951773
 20
-108.9998610924113
 30
0.0
 10
-146.9301308176777
 20
-106.5858804872996
 30
0.0
 10
-149.3933415862685
 20
-104.924015602839
 30
0.0
 10
-156.6604912444352
 20
-99.77366369230583
 30
0.0
 10
-161.3425375164616
 20
-96.12119024682232
 30
0.0
 10
-166.9667877269587
 20
-91.24830155415174
 30
0.0
 10
-168.0802590986784
 20
-90.2581468678979
 30
0.0
 10
-170.2736952262811
 20
-88.25509598710833
 30
0.0
 10
-171.3549182306656
 20
-87.24113053746815
 30
0.0
 10
-174.5512923869276
 20
-84.16126315464602
 30
0.0
 10
-176.6191932569503
 20
-82.05742566630799
 30
0.0
 10
-182.6258798631368
 20
-75.58773949236759
 30
0.0
 10
-186.3686228153041
 20
-71.06450256939826
 30
0.0
 10
-193.2683753583875
 20
-61.54784944110749
 30
0.0
 10
-196.4260558464557
 20
-56.55496979836899
 30
0.0
 10
-199.9443904714111
 20
-49.96965540075186
 30
0.0
 10
-200.6247479817148
 20
-48.63829495860679
 30
0.0
 10
-201.9299569930863
 20
-45.96235083150891
 30
0.0
 10
-202.5560481713104
 20
-44.615473390682
 30
0.0
 10
-204.3538180156697
 20
-40.54779966637418
 30
0.0
 10
-205.4450742687399
 20
-37.79998945342577
 30
0.0
 10
-208.3866025789563
 20
-29.44494197574517
 30
0.0
 10
-209.9063649521168
 20
-23.72666432860055
 30
0.0
 10
-211.1973328189774
 20
-16.37428156381839
 30
0.0
 10
-211.4250354047637
 20
-14.89207374385106
 30
0.0
 10
-211.8149668500352
 20
-11.92729389733118
 30
0.0
 10
-212.1403773364725
 20
-8.957484961108866
 30
0.0
 10
-212.3363250401457
 20
-5.977585487300892
 30
0.0
 10
-212.4671493328158
 20
-2.992610509985495
 30
0.0
 10
-212.5000000000001
 20
-1.499228786991988
 30
0.0
 10
-212.5000000000001
 20
0.000000000000038
 30
0.0
  0
SPLINE
  5
FF
330
F7
100
AcDbEntity
  8
0
  6
Continuous
 62
     7
370
    25
100
AcDbSpline
210
0.0
220
0.0
230
1.0
 70
    11
 71
     3
 72
   200
 73
   196
 74
     0
 42
0.000000001
 43
0.00000001
 40
0.0
 40
0.0
 40
0.0
 40
0.0
 40
0.015625
 40
0.015625
 40
0.03125
 40
0.03125
 40
0.03515625
 40
0.03515625
 40
0.0390625
 40
0.0390625
 40
0.046875
 40
0.046875
 40
0.0625
 40
0.0625
 40
0.0703125000000001
 40
0.0703125000000001
 40
0.07421875
 40
0.07421875
 40
0.078125
 40
0.078125
 40
0.0937499999999999
 40
0.0937499999999999
 40
0.1093749999999999
 40
0.1093749999999999
 40
0.1171874999999998
 40
0.1171874999999998
 40
0.1249999999999998
 40
0.1249999999999998
 40
0.1406249999999997
 40
0.1406249999999997
 40
0.1562499999999997
 40
0.1562499999999997
 40
0.1718749999999996
 40
0.1718749999999996
 40
0.1874999999999995
 40
0.1874999999999995
 40
0.1953124999999995
 40
0.1953124999999995
 40
0.2031249999999995
 40
0.2031249999999995
 40
0.2187499999999994
 40
0.2187499999999994
 40
0.2343749999999993
 40
0.2343749999999993
 40
0.2499999999999992
 40
0.2499999999999992
 40
0.2578124999999992
 40
0.2578124999999992
 40
0.2617187499999992
 40
0.2617187499999992
 40
0.2656249999999992
 40
0.2656249999999992
 40
0.2812499999999991
 40
0.2812499999999991
 40
0.2968749999999991
 40
0.2968749999999991
 40
0.312499999999999
 40
0.312499999999999
 40
0.3281249999999989
 40
0.3281249999999989
 40
0.3437499999999988
 40
0.3437499999999988
 40
0.3476562499999988
 40
0.3476562499999988
 40
0.3515624999999988
 40
0.3515624999999988
 40
0.3593749999999989
 40
0.3593749999999989
 40
0.374999999999999
 40
0.374999999999999
 40
0.3906249999999991
 40
0.3906249999999991
 40
0.3984374999999991
 40
0.3984374999999991
 40
0.4062499999999991
 40
0.4062499999999991
 40
0.4218749999999992
 40
0.4218749999999992
 40
0.4374999999999993
 40
0.4374999999999993
 40
0.4453124999999993
 40
0.4453124999999993
 40
0.4492187499999993
 40
0.4492187499999993
 40
0.4531249999999993
 40
0.4531249999999993
 40
0.4687499999999994
 40
0.4687499999999994
 40
0.4765624999999995
 40
0.4765624999999995
 40
0.4804687499999995
 40
0.4804687499999995
 40
0.4824218749999995
 40
0.4824218749999995
 40
0.4843749999999995
 40
0.4843749999999995
 40
0.4999999999999996
 40
0.4999999999999996
 40
0.5156249999999997
 40
0.5156249999999997
 40
0.5234374999999997
 40
0.5234374999999997
 40
0.5312499999999997
 40
0.5312499999999997
 40
0.5468749999999997
 40
0.5468749999999997
 40
0.5546874999999997
 40
0.5546874999999997
 40
0.5624999999999997
 40
0.5624999999999997
 40
0.5781249999999997
 40
0.5781249999999997
 40
0.5820312499999997
 40
0.5820312499999997
 40
0.5859374999999997
 40
0.5859374999999997
 40
0.5937499999999998
 40
0.5937499999999998
 40
0.6249999999999998
 40
0.6249999999999998
 40
0.6328124999999997
 40
0.6328124999999997
 40
0.6367187499999997
 40
0.6367187499999997
 40
0.6406249999999997
 40
0.6406249999999997
 40
0.6562499999999997
 40
0.6562499999999997
 40
0.6718749999999997
 40
0.6718749999999997
 40
0.6874999999999997
 40
0.6874999999999997
 40
0.7031249999999997
 40
0.7031249999999997
 40
0.7070312499999997
 40
0.7070312499999997
 40
0.7109374999999997
 40
0.7109374999999997
 40
0.7187499999999997
 40
0.7187499999999997
 40
0.7343749999999997
 40
0.7343749999999997
 40
0.7499999999999997
 40
0.7499999999999997
 40
0.7656249999999997
 40
0.7656249999999997
 40
0.7812499999999997
 40
0.7812499999999997
 40
0.7851562499999997
 40
0.7851562499999997
 40
0.7890624999999997
 40
0.7890624999999997
 40
0.7968749999999997
 40
0.7968749999999997
 40
0.8124999999999997
 40
0.8124999999999997
 40
0.8281249999999997
 40
0.8281249999999997
 40
0.8437499999999997
 40
0.8437499999999997
 40
0.8593749999999997
 40
0.8593749999999997
 40
0.8671874999999997
 40
0.8671874999999997
 40
0.8749999999999996
 40
0.8749999999999996
 40
0.9062499999999997
 40
0.9062499999999997
 40
0.9140624999999997
 40
0.9140624999999997
 40
0.9179687499999997
 40
0.9179687499999997
 40
0.9218749999999997
 40
0.9218749999999997
 40
0.9374999999999998
 40
0.9374999999999998
 40
0.9531249999999999
 40
0.9531249999999999
 40
0.9570312499999999
 40
0.9570312499999999
 40
0.9609374999999999
 40
0.9609374999999999
 40
0.9687499999999999
 40
0.9687499999999999
 40
0.984375
 40
0.984375
 40
0.98828125
 40
0.98828125
 40
0.9921875
 40
0.9921875
 40
0.99609375
 40
0.99609375
 40
0.998046875
 40
0.998046875
 40
1.0
 40
1.0
 40
1.0
 40
1.0
 10
-224.6087551954227
 20
0.0000000000000574
 30
0.0
 10
-224.6087551954223
 20
-6.403843101601798
 30
0.0
 10
-224.0569339623773
 20
-12.70103996144848
 30
0.0
 10
-221.9503353975547
 20
-25.1016000767607
 30
0.0
 10
-220.3949241754288
 20
-31.20484082511835
 30
0.0
 10
-217.8390660371127
 20
-38.71569367488924
 30
0.0
 10
-217.2971476212344
 20
-40.21192204977586
 30
0.0
 10
-216.151600943421
 20
-43.19245261264803
 30
0.0
 10
-215.5491030892213
 20
-44.67345940786883
 30
0.0
 10
-213.6664072960509
 20
-49.06107549538405
 30
0.0
 10
-212.306778596841
 20
-51.92373894173586
 30
0.0
 10
-207.933901910002
 20
-60.33613661265629
 30
0.0
 10
-204.6276018858812
 20
-65.71083874137324
 30
0.0
 10
-199.138682855569
 20
-73.45665435138778
 30
0.0
 10
-197.2205377958844
 20
-75.98573100437811
 30
0.0
 10
-194.215750087148
 20
-79.70315178436026
 30
0.0
 10
-193.1929357107341
 20
-80.92938151783052
 30
0.0
 10
-191.1194692681586
 20
-83.3414256004339
 30
0.0
 10
-190.0671648778622
 20
-84.5293221377772
 30
0.0
 10
-184.7311069694796
 20
-90.3820417959073
 30
0.0
 10
-180.2251802572891
 20
-94.78824585560075
 30
0.0
 10
-170.7980146826104
 20
-103.1172129424021
 30
0.0
 10
-165.8763324235365
 20
-107.0394598369983
 30
0.0
 10
-158.2048157803818
 20
-112.5864297213409
 30
0.0
 10
-155.5993059947813
 20
-114.3791526910225
 30
0.0
 10
-150.296160928076
 20
-117.8573606296619
 30
0.0
 10
-147.5928415006891
 20
-119.5460053518072
 30
0.0
 10
-139.4175736701403
 20
-124.41750572324
 30
0.0
 10
-133.8667959194344
 20
-127.4173928834051
 30
0.0
 10
-122.5859832953447
 20
-132.9756499043576
 30
0.0
 10
-116.8558123920379
 20
-135.5336847181277
 30
0.0
 10
-105.2277699548372
 20
-140.2367011379924
 30
0.0
 10
-99.32974154923863
 20
-142.3812963629468
 30
0.0
 10
-87.37268809805303
 20
-146.2739457960487
 30
0.0
 10
-81.3136475400281
 20
-148.0219617964552
 30
0.0
 10
-72.10724359083527
 20
-150.3537336059559
 30
0.0
 10
-69.01422917351567
 20
-151.0834588259282
 30
0.0
 10
-62.82457478140569
 20
-152.4392175829555
 30
0.0
 10
-59.72530154665444
 20
-153.0660715346204
 30
0.0
 10
-50.41454903022593
 20
-154.7982086217168
 30
0.0
 10
-44.19019213276746
 20
-155.7557004564151
 30
0.0
 10
-31.70846283481466
 20
-157.2917782614896
 30
0.0
 10
-25.45108488380575
 20
-157.8703005308062
 30
0.0
 10
-12.9034328908347
 20
-158.6498096503388
 30
0.0
 10
-6.613159704574985
 20
-158.8508063211125
 30
0.0
 10
2.847694980764429
 20
-158.8602802100712
 30
0.0
 10
6.005567750389225
 20
-158.814610487448
 30
0.0
 10
10.74873226583797
 20
-158.6731679399589
 30
0.0
 10
12.33084685721063
 20
-158.6138580595515
 30
0.0
 10
15.49719782940059
 20
-158.4708873608577
 30
0.0
 10
17.08265418589373
 20
-158.387143375694
 30
0.0
 10
24.99382305717524
 20
-157.9087384858758
 30
0.0
 10
31.27886204003019
 20
-157.3355573128187
 30
0.0
 10
43.76309939540464
 20
-155.8167481601141
 30
0.0
 10
49.96229830071002
 20
-154.8711224921279
 30
0.0
 10
62.27367900774246
 20
-152.6023197592127
 30
0.0
 10
68.38576767393991
 20
-151.2787385961489
 30
0.0
 10
80.51939807559576
 20
-148.2387095945797
 30
0.0
 10
86.54096002063073
 20
-146.5223494417532
 30
0.0
 10
98.4884345464904
 20
-142.674623929203
 30
0.0
 10
104.4143680967539
 20
-140.5433495520625
 30
0.0
 10
111.7573495296909
 20
-137.5996826361549
 30
0.0
 10
113.2227173393134
 20
-136.9969414782038
 30
0.0
 10
116.1468505425829
 20
-135.7628124793808
 30
0.0
 10
117.6070865569941
 20
-135.1307610923614
 30
0.0
 10
121.9633732719293
 20
-133.197008283842
 30
0.0
 10
124.8362372948501
 20
-131.8573860177654
 30
0.0
 10
133.358970488264
 20
-127.684134217773
 30
0.0
 10
138.9134126202565
 20
-124.6968151746321
 30
0.0
 10
149.7482217197162
 20
-118.2807667900903
 30
0.0
 10
155.0287998213429
 20
-114.8523774896872
 30
0.0
 10
162.7176267587475
 20
-109.3360824051149
 30
0.0
 10
165.2416623299954
 20
-107.4346563318193
 30
0.0
 10
170.2075921349438
 20
-103.4995118909994
 30
0.0
 10
172.6509056085296
 20
-101.464589962946
 30
0.0
 10
179.8404116478735
 20
-95.15521853964117
 30
0.0
 10
184.3808334422828
 20
-90.73555685959501
 30
0.0
 10
192.9148215784462
 20
-81.43417944285243
 30
0.0
 10
196.9084616708746
 20
-76.55252602024295
 30
0.0
 10
202.4300400788961
 20
-68.83387409235438
 30
0.0
 10
204.1922345561666
 20
-66.19480542259763
 30
0.0
 10
206.7082822001919
 20
-62.12869020552775
 30
0.0
 10
207.5271636645187
 20
-60.752770563529
 30
0.0
 10
209.1101265707177
 20
-57.9821659351901
 30
0.0
 10
209.8749633421446
 20
-56.58647306685184
 30
0.0
 10
213.564492815034
 20
-49.55549792053888
 30
0.0
 10
216.0863230395609
 20
-43.76311245624894
 30
0.0
 10
219.1841449107558
 20
-34.80743651557788
 30
0.0
 10
220.1025102174352
 20
-31.77766056580949
 30
0.0
 10
221.3005330212719
 20
-27.16298770343077
 30
0.0
 10
221.6699170276868
 20
-25.6130811940184
 30
0.0
 10
222.1776755274904
 20
-23.27015911635298
 30
0.0
 10
222.3393703483943
 20
-22.48527531795482
 30
0.0
 10
222.6457858137049
 20
-20.91608558369273
 30
0.0
 10
222.790622741954
 20
-20.13133802811952
 30
0.0
 10
224.0191166722303
 20
-13.06724128255638
 30
0.0
 10
224.5804356066584
 20
-6.778364336096955
 30
0.0
 10
224.6349966469731
 20
5.818871912300411
 30
0.0
 10
224.1274322378071
 20
12.12724592555202
 30
0.0
 10
222.556487246517
 20
21.60457450050097
 30
0.0
 10
221.9041956831653
 20
24.72420942752493
 30
0.0
 10
220.3579862267938
 20
30.87813175484324
 30
0.0
 10
219.463733658002
 20
33.91423249542388
 30
0.0
 10
216.4307898219064
 20
42.90442486605289
 30
0.0
 10
213.9422478678217
 20
48.74051978229546
 30
0.0
 10
209.5375862979144
 20
57.26806282572608
 30
0.0
 10
207.9721304052526
 20
60.043790237347
 30
0.0
 10
204.6638949632364
 20
65.46492071539731
 30
0.0
 10
202.9205310838351
 20
68.1114008993807
 30
0.0
 10
197.4394214766283
 20
75.87059279245719
 30
0.0
 10
193.4512449675685
 20
80.80347748501757
 30
0.0
 10
188.0908546784912
 20
86.7001850003635
 30
0.0
 10
186.9983560672636
 20
87.86761661685372
 30
0.0
 10
184.7868471641293
 20
90.16526619327192
 30
0.0
 10
183.6674965391631
 20
91.29597400382112
 30
0.0
 10
180.2702905621622
 20
94.63592437381043
 30
0.0
 10
177.9533431192926
 20
96.79307650195452
 30
0.0
 10
166.1253839348455
 20
107.2547424971241
 30
0.0
 10
155.8882379348872
 20
114.5916783735693
 30
0.0
 10
142.2973402729106
 20
122.7042189144376
 30
0.0
 10
139.5392279483623
 20
124.2735163520726
 30
0.0
 10
135.344085276236
 20
126.5502115799613
 30
0.0
 10
133.9364113280369
 20
127.2959726067985
 30
0.0
 10
131.1141200014649
 20
128.7559662330897
 30
0.0
 10
129.6980074080062
 20
129.4710199100743
 30
0.0
 10
122.5932990684049
 20
132.9736463263135
 30
0.0
 10
116.8325725115564
 20
135.5442116810641
 30
0.0
 10
105.1694579489968
 20
140.2591503070179
 30
0.0
 10
99.26692576481206
 20
142.4030898136044
 30
0.0
 10
87.3276685497497
 20
146.287246223426
 30
0.0
 10
81.29092436896428
 20
148.0274055136762
 30
0.0
 10
69.08813407553404
 20
151.1187159328981
 30
0.0
 10
62.92206921812127
 20
152.469810667758
 30
0.0
 10
55.13527312036557
 20
153.9203586593862
 30
0.0
 10
53.57395063838944
 20
154.1985446815796
 30
0.0
 10
50.44340082570574
 20
154.7311347868566
 30
0.0
 10
48.874214609057
 20
154.9855055281831
 30
0.0
 10
44.16986453146301
 20
155.7107982882021
 30
0.0
 10
41.03289104273691
 20
156.144810901888
 30
0.0
 10
31.61979909444364
 20
157.3015679108148
 30
0.0
 10
25.34151543761056
 20
157.8794519555102
 30
0.0
 10
12.77926706864313
 20
158.6551347401644
 30
0.0
 10
6.495302071566249
 20
158.8529144163512
 30
0.0
 10
-6.07841202491111
 20
158.8614942063648
 30
0.0
 10
-12.36816320768623
 20
158.6721549341338
 30
0.0
 10
-24.953378365507
 20
157.9112677548316
 30
0.0
 10
-31.24884186792266
 20
157.3397514686187
 30
0.0
 10
-39.12181968832551
 20
156.3812607339575
 30
0.0
 10
-40.69775472204821
 20
156.1771615396597
 30
0.0
 10
-43.84431944999713
 20
155.7449990952086
 30
0.0
 10
-45.41374781759193
 20
155.5171215303818
 30
0.0
 10
-50.11049248150242
 20
154.7981657693184
 30
0.0
 10
-53.2262773303257
 20
154.2717920273903
 30
0.0
 10
-62.52734707271734
 20
152.5510019072028
 30
0.0
 10
-68.66634880829847
 20
151.2149216729053
 30
0.0
 10
-80.81832523805295
 20
148.1570166391781
 30
0.0
 10
-86.83131999214162
 20
146.4352532392945
 30
0.0
 10
-98.72647157617628
 20
142.5912566864703
 30
0.0
 10
-104.6086470822974
 20
140.4690806977124
 30
0.0
 10
-116.234605347125
 20
135.8011351043153
 30
0.0
 10
-121.9785181034819
 20
133.2557633975123
 30
0.0
 10
-130.4818957064984
 20
129.0933908678992
 30
0.0
 10
-133.2975532171515
 20
127.6483849954874
 30
0.0
 10
-138.8889794466233
 20
124.6362813211238
 30
0.0
 10
-141.6703659259716
 20
123.0656397110636
 30
0.0
 10
-155.3516660755539
 20
114.9568386676604
 30
0.0
 10
-165.6433130750933
 20
107.6260698035353
 30
0.0
 10
-177.5207309282702
 20
97.18791142786274
 30
0.0
 10
-179.8466724831262
 20
95.0363060345203
 30
0.0
 10
-183.256188241267
 20
91.70637296684775
 30
0.0
 10
-184.3794455380932
 20
90.57928816190623
 30
0.0
 10
-186.598407303228
 20
88.28953952158528
 30
0.0
 10
-187.6956602513777
 20
87.12513620726264
 30
0.0
 10
-193.0826459944309
 20
81.24057756103477
 30
0.0
 10
-197.086078111424
 20
76.32452754371252
 30
0.0
 10
-204.4183320731903
 20
66.0332150389531
 30
0.0
 10
-207.7477551505361
 20
60.65836181521348
 30
0.0
 10
-211.4318845328291
 20
53.61465557239793
 30
0.0
 10
-212.1447336927937
 20
52.18959318604613
 30
0.0
 10
-213.520640798795
 20
49.30557514595639
 30
0.0
 10
-214.1845221568206
 20
47.84444420988477
 30
0.0
 10
-216.0834826674084
 20
43.44432926434062
 30
0.0
 10
-217.2309565719194
 20
40.47887320918908
 30
0.0
 10
-220.3146223574865
 20
31.48548607607049
 30
0.0
 10
-221.894768460845
 20
25.36126894092374
 30
0.0
 10
-223.2383509860291
 20
17.53519284590868
 30
0.0
 10
-223.4753086747561
 20
15.96138903691296
 30
0.0
 10
-223.8840104158939
 20
12.79614558581151
 30
0.0
 10
-224.0559225685427
 20
11.20262889859506
 30
0.0
 10
-224.3316519806352
 20
8.00746837037712
 30
0.0
 10
-224.4353560524538
 20
6.408266587839702
 30
0.0
 10
-224.5392696441085
 20
4.007012575134532
 30
0.0
 10
-224.5652980884784
 20
3.206185903651065
 30
0.0
 10
-224.6000408596386
 20
1.603710703555993
 30
0.0
 10
-224.6087551954227
 20
0.8004803877002897
 30
0.0
 10
-224.6087551954226
 20
0.0000000000000577
 30
0.0
  0
LWPOLYLINE
  5
100
330
F7
100
AcDbEntity
  8
0
  6
Continuous
 62
     7
370
    25
100
AcDbPolyline
 90
      101
 70
   128
 43
0.0
 10
-342.5
 20
0.0
 10
-341.9493675834
 20
11.9764013228
 10
-340.3103399436
 20
23.9069101261
 10
-337.6022214956
 20
35.7456338905
 10
-333.8443166545
 20
47.4466800963
 10
-329.0558820612
 20
58.96433258
 10
-323.2533079067
 20
70.2634565319
 10
-316.4485413849
 20
81.3253182406
 10
-308.6531474961
 20
92.1325948419
 10
-299.8786912409
 20
102.6679634718
 10
-290.1380752964
 20
112.9129359722
 10
-279.45975283
 20
122.8354776437
 10
-267.8822095836
 20
132.3948140827
 10
-255.4440985086
 20
141.550025224
 10
-242.1840725564
 20
150.2601910021
 10
-226.4111830379
 20
159.4406614887
 10
-209.7484297026
 20
167.9778442984
 10
-192.2884724931
 20
175.8380467876
 10
-174.1239713522
 20
182.9875763127
 10
-155.342432498
 20
189.3950176002
 10
-135.9971001867
 20
195.0440953321
 10
-116.1272417732
 20
199.9247104179
 10
-93.7113862505
 20
204.3937811358
 10
-70.7675465743
 20
207.906664634
 10
-47.4088927722
 20
210.4435863753
 10
-23.773604903
 20
211.9821637839
 10
-0.0000000003
 20
212.5
 10
25.2113760009
 20
211.9177481801
 10
50.2577314714
 20
210.1888065865
 10
74.9740458804
 20
207.3398960183
 10
99.1966464789
 20
203.3975967282
 10
122.806387223
 20
198.3838457372
 10
145.7377837378
 20
192.3149842425
 10
166.6815412876
 20
185.6409025335
 10
186.9088832362
 20
178.0590593216
 10
206.3172494524
 20
169.6051213865
 10
224.7834226871
 20
160.3238836438
 10
242.1840725564
 20
150.2601910021
 10
257.5752383114
 20
140.0539575341
 10
271.8389181011
 20
129.25125067
 10
284.9137324702
 20
117.917049958
 10
296.7383019634
 20
106.1163349462
 10
307.2584162359
 20
93.9078399359
 10
316.4485413849
 20
81.3253182406
 10
323.2533079067
 20
70.2634565319
 10
329.0558820612
 20
58.96433258
 10
333.8443166545
 20
47.4466800963
 10
337.6022214956
 20
35.7456338905
 10
340.3103399436
 20
23.9069101261
 10
341.9493675834
 20
11.9764013228
 10
342.5
 20
0.0
 10
341.9493675834
 20
-11.9764013228
 10
340.3103399436
 20
-23.9069101261
 10
337.6022214956
 20
-35.7456338905
 10
333.8443166545
 20
-47.4466800963
 10
329.0558820612
 20
-58.96433258
 10
323.2533079067
 20
-70.2634565319
 10
316.4485413849
 20
-81.3253182406
 10
308.6531474961
 20
-92.1325948419
 10
299.8786912409
 20
-102.6679634718
 10
290.1380752964
 20
-112.9129359722
 10
279.45975283
 20
-122.8354776437
 10
267.8822095836
 20
-132.3948140827
 10
255.4440985086
 20
-141.550025224
 10
242.1840725564
 20
-150.2601910021
 10
226.4111830379
 20
-159.4406614887
 10
209.7484297026
 20
-167.9778442984
 10
192.2884724931
 20
-175.8380467876
 10
174.1239713522
 20
-182.9875763127
 10
155.342432498
 20
-189.3950176002
 10
135.9971001867
 20
-195.0440953321
 10
116.1272417732
 20
-199.9247104179
 10
93.7113862505
 20
-204.3937811358
 10
70.7675465743
 20
-207.906664634
 10
47.4088927722
 20
-210.4435863753
 10
23.773604903
 20
-211.9821637839
 10
0.0000000002
 20
-212.5
 10
-25.2113760009
 20
-211.9177481801
 10
-50.2577314714
 20
-210.1888065865
 10
-74.9740458805
 20
-207.3398960183
 10
-99.1966464789
 20
-203.3975967282
 10
-122.806387223
 20
-198.3838457372
 10
-145.7377837378
 20
-192.3149842425
 10
-166.6815412876
 20
-185.6409025335
 10
-186.9088832362
 20
-178.0590593216
 10
-206.3172494524
 20
-169.6051213865
 10
-224.7834226871
 20
-160.3238836438
 10
-242.1840725564
 20
-150.2601910021
 10
-257.5752383114
 20
-140.0539575341
 10
-271.8389181011
 20
-129.25125067
 10
-284.9137324702
 20
-117.917049958
 10
-296.7383019634
 20
-106.1163349462
 10
-307.2584162359
 20
-93.9078399359
 10
-316.4485413849
 20
-81.3253182406
 10
-323.2533079067
 20
-70.2634565319
 10
-329.0558820612
 20
-58.96433258
 10
-333.8443166545
 20
-47.4466800963
 10
-337.6022214956
 20
-35.7456338905
 10
-340.3103399436
 20
-23.9069101261
 10
-341.9493675834
 20
-11.9764013228
 10
-342.5
 20
0.0
  0
VIEWPORT
  5
13A
330
F7
100
AcDbEntity
  8
0
100
AcDbViewport
 10
0.0
 20
0.0
 30
0.0
 40
205.6
 41
156.0
 68
     1
 69
     1
 12
0.0
 22
-10.7677612968
 13
0.0
 23
0.0
 14
10.0
 24
10.0
 15
10.0
 25
10.0
 16
0.0
 26
0.0
 36
1.0
 17
0.0
 27
0.0
 37
0.0
 42
50.0
 43
0.0
 44
0.0
 45
441.1402376099
 50
0.0
 51
0.0
 72
   100
 90
   557152
  1

281
     0
 71
     1
 74
     0
110
0.0
120
0.0
130
0.0
111
1.0
121
0.0
131
0.0
112
0.0
122
1.0
132
0.0
 79
     0
146
0.0
170
     0
 61
     5
348
2F
292
     1
282
     1
141
0.0
142
0.0
 63
   256
361
13B
  0
ENDBLK
  5
FA
330
F7
100
AcDbEntity
  8
0
100
AcDbBlockEnd
  0
BLOCK
  5
103
330
101
100
AcDbEntity
  8
0
100
AcDbBlockBegin
  2
*Paper_Space6
 70
     0
 10
0.0
 20
0.0
 30
0.0
  3
*Paper_Space6
  1

  0
SPLINE
  5
105
330
101
100
AcDbEntity
  8
0
  6
Continuous
 62
     7
370
    25
100
AcDbSpline
210
0.0
220
0.0
230
1.0
 70
     8
 71
     3
 72
    63
 73
    59
 74
     0
 42
0.000000001
 43
0.00000001
 40
0.0
 40
0.0
 40
0.0
 40
0.0
 40
0.0128123403494745
 40
0.036768025352015
 40
0.0570717350089095
 40
0.0737972218114077
 40
0.0869488396878744
 40
0.0987778327970376
 40
0.1108437703423327
 40
0.1232925924755832
 40
0.1424939592799929
 40
0.1640907379551534
 40
0.1852006532460848
 40
0.2047230892608218
 40
0.2223073604360102
 40
0.2377852169441065
 40
0.2522134300243822
 40
0.2674960839132043
 40
0.2854719332444773
 40
0.3066325028391454
 40
0.3292179178477943
 40
0.3571654844193861
 40
0.3823617988835596
 40
0.4054783671445564
 40
0.4264658933548729
 40
0.4357676569368046
 40
0.4452122392127789
 40
0.4577301668227037
 40
0.4723949107879682
 40
0.4847084926594813
 40
0.4944937777184057
 40
0.5103846621056751
 40
0.5360105605205209
 40
0.5539791374143747
 40
0.5776137680030082
 40
0.5996656899240311
 40
0.6199876666647521
 40
0.6470563804420106
 40
0.6611132174479987
 40
0.6745864928502866
 40
0.6944915538190873
 40
0.7152118118895047
 40
0.7317450314786319
 40
0.7466824075874345
 40
0.7619256312205147
 40
0.780462416201612
 40
0.8008642666018347
 40
0.8243860557058037
 40
0.8496934329679501
 40
0.8710882908710824
 40
0.8876313650530838
 40
0.9020758746056906
 40
0.9194737151141432
 40
0.9391797622676169
 40
0.9509239102922281
 40
0.9639627884472854
 40
0.9803211961225667
 40
1.0
 40
1.0
 40
1.0
 40
1.0
 10
15.23688008214838
 20
-181.8481776622757
 30
0.0
 10
16.18360732549999
 20
-181.9896811116975
 30
0.0
 10
18.90046391340848
 20
-182.3957585553047
 30
0.0
 10
23.33024838664938
 20
-182.969380910661
 30
0.0
 10
28.21602866702814
 20
-183.555835347785
 30
0.0
 10
32.3999183336036
 20
-184.0114183300662
 30
0.0
 10
36.00900101930745
 20
-184.3759988067642
 30
0.0
 10
39.22011212111276
 20
-184.6683730985787
 30
0.0
 10
42.34331774312962
 20
-184.9209824278238
 30
0.0
 10
46.0365101588454
 20
-185.1869906930658
 30
0.0
 10
50.43010212267744
 20
-185.4563084069551
 30
0.0
 10
55.41886648256379
 20
-185.6974717552717
 30
0.0
 10
60.4565097799796
 20
-185.8730690336901
 30
0.0
 10
65.20263483294198
 20
-185.9769473837413
 30
0.0
 10
69.50254483327923
 20
-186.0198583385557
 30
0.0
 10
73.38597204433361
 20
-186.0172648149547
 30
0.0
 10
77.07643514279947
 20
-185.9792015133556
 30
0.0
 10
80.96979553865289
 20
-185.9016024486439
 30
0.0
 10
85.41056284705815
 20
-185.7651068422316
 30
0.0
 10
90.4628389709336
 20
-185.5449252122541
 30
0.0
 10
96.31578763235993
 20
-185.2047674180492
 30
0.0
 10
102.4914186820332
 20
-184.7413533654585
 30
0.0
 10
108.7166897963716
 20
-184.1616101085813
 30
0.0
 10
114.3507870800396
 20
-183.5425897842919
 30
0.0
 10
118.6430051299588
 20
-183.0054677127235
 30
0.0
 10
121.8923496513152
 20
-182.5641637416448
 30
0.0
 10
124.4568749137113
 20
-182.1984015871126
 30
0.0
 10
127.4167129055435
 20
-181.7527391544385
 30
0.0
 10
130.5987973011351
 20
-181.2425408473909
 30
0.0
 10
133.5739577783314
 20
-180.7362718170968
 30
0.0
 10
136.6646456417755
 20
-180.1849018003877
 30
0.0
 10
140.7887551440185
 20
-179.4095810692858
 30
0.0
 10
145.573658170943
 20
-178.4354507114228
 30
0.0
 10
150.9569165946
 20
-177.2491067512076
 30
0.0
 10
156.0294193932171
 20
-176.0490102441027
 30
0.0
 10
161.2774461640274
 20
-174.7118741007609
 30
0.0
 10
166.7662275516049
 20
-173.2188336878783
 30
0.0
 10
171.5977586323599
 20
-171.8097650088773
 30
0.0
 10
175.8722753326745
 20
-170.4883326992228
 30
0.0
 10
179.5543453987722
 20
-169.3062526491436
 30
0.0
 10
183.7417985919461
 20
-167.9013383749555
 30
0.0
 10
188.2180576743104
 20
-166.3169190485955
 30
0.0
 10
192.1940370675361
 20
-164.8405753107835
 30
0.0
 10
195.643759660176
 20
-163.5102425678979
 30
0.0
 10
199.3258967676545
 20
-162.038654009585
 30
0.0
 10
203.4581418201061
 20
-160.317896424674
 30
0.0
 10
208.0790547016775
 20
-158.303322194626
 30
0.0
 10
213.1829358927317
 20
-155.9641615532742
 30
0.0
 10
218.283095310857
 20
-153.4945014675493
 30
0.0
 10
222.8343526908859
 20
-151.1740529286524
 30
0.0
 10
226.553888265012
 20
-149.1974521403198
 30
0.0
 10
229.9525574226001
 20
-147.3301763397345
 30
0.0
 10
233.5401860814639
 20
-145.2910889307321
 30
0.0
 10
236.9068747469806
 20
-143.3007555743647
 30
0.0
 10
239.9403257718297
 20
-141.4474828103264
 30
0.0
 10
242.7204679078069
 20
-139.7034490019009
 30
0.0
 10
246.008025072434
 20
-137.5831471284341
 30
0.0
 10
248.391191379766
 20
-135.9703853110203
 30
0.0
 10
249.6925646089542
 20
-135.0897060870057
 30
0.0
  0
SPLINE
  5
106
330
101
100
AcDbEntity
  8
0
  6
Continuous
 62
     7
370
    25
100
AcDbSpline
210
0.0
220
0.0
230
1.0
 70
     8
 71
     3
 72
    61
 73
    57
 74
     0
 42
0.000000001
 43
0.00000001
 40
0.0
 40
0.0
 40
0.0
 40
0.0
 40
0.0174567896166564
 40
0.0317034383362633
 40
0.0427673930424089
 40
0.0506843926869092
 40
0.0572244353262283
 40
0.0944154580877403
 40
0.1308049614748963
 40
0.1695399261286493
 40
0.2165678263002736
 40
0.2540999138327424
 40
0.2913274139979294
 40
0.3367267390977716
 40
0.345507613378356
 40
0.3536500499973452
 40
0.3619434387194202
 40
0.3707687268716888
 40
0.3811213285323731
 40
0.393678647292137
 40
0.4060423972405061
 40
0.4167411162550716
 40
0.4257640687198788
 40
0.4343639121293703
 40
0.4445814155964289
 40
0.4573695199954551
 40
0.4730761690640221
 40
0.486547486486163
 40
0.49783965875395
 40
0.5124750723934154
 40
0.5287096868327171
 40
0.5419160069763747
 40
0.5526734849972583
 40
0.5717155655826381
 40
0.5912108589135953
 40
0.6043442122508987
 40
0.6221153003499514
 40
0.6462040939955925
 40
0.6637158336144019
 40
0.6842805876413525
 40
0.7050929438787452
 40
0.7199740996389842
 40
0.7327584956622215
 40
0.751309231442485
 40
0.7666521044267489
 40
0.7843352259579389
 40
0.8025806652677892
 40
0.8159020512590928
 40
0.8396993464611956
 40
0.8647443642129237
 40
0.890549644284586
 40
0.917263707941661
 40
0.9437165383979842
 40
0.9669730073076083
 40
0.9927665226747874
 40
1.0
 40
1.0
 40
1.0
 40
1.0
 10
-269.0134497499685
 20
20.29260574303956
 30
0.0
 10
-268.2494172606462
 20
18.97659375910173
 30
0.0
 10
-266.8618507352972
 20
16.58657212862119
 30
0.0
 10
-264.9524373849973
 20
13.38075153669065
 30
0.0
 10
-263.4528044473264
 20
10.89872189283044
 30
0.0
 10
-262.2915150509346
 20
8.999704791133539
 30
0.0
 10
-259.9282556430275
 20
5.169132539484387
 30
0.0
 10
-256.1928996079859
 20
-0.7254961761399281
 30
0.0
 10
-250.7948172799199
 20
-8.871425775537595
 30
0.0
 10
-244.7453893180196
 20
-17.59587314384827
 30
0.0
 10
-238.432503746818
 20
-26.24378513795721
 30
0.0
 10
-231.9940915794566
 20
-34.62761872212797
 30
0.0
 10
-225.4661374785433
 20
-42.7556767456904
 30
0.0
 10
-220.3522737642095
 20
-48.81495467563078
 30
0.0
 10
-216.8006037318865
 20
-52.88764241504096
 30
0.0
 10
-215.3552864526357
 20
-54.52811642614738
 30
0.0
 10
-213.8999383852305
 20
-56.16363102096483
 30
0.0
 10
-212.3077229856439
 20
-57.93448998490487
 30
0.0
 10
-210.4580982211456
 20
-59.96783142352966
 30
0.0
 10
-208.3868888846205
 20
-62.21329197949248
 30
0.0
 10
-206.2762861164311
 20
-64.46694530113749
 30
0.0
 10
-204.3611256741229
 20
-66.48323368534076
 30
0.0
 10
-202.6613712028922
 20
-68.25122893193969
 30
0.0
 10
-200.9806626544367
 20
-69.98057296393304
 30
0.0
 10
-199.0634179730573
 20
-71.9305625561221
 30
0.0
 10
-196.6966170365811
 20
-74.30384976507504
 30
0.0
 10
-194.1074839344003
 20
-76.85459843109254
 30
0.0
 10
-191.589726553229
 20
-79.29037000890011
 30
0.0
 10
-189.1198600535155
 20
-81.64307754300741
 30
0.0
 10
-186.4602104760286
 20
-84.13569904861848
 30
0.0
 10
-183.6499936632237
 20
-86.71863888793507
 30
0.0
 10
-181.068322135169
 20
-89.04757573293365
 30
0.0
 10
-178.28539662795
 20
-91.51994241695785
 30
0.0
 10
-175.0812755858899
 20
-94.3127040213145
 30
0.0
 10
-171.6752380842437
 20
-97.20863661512276
 30
0.0
 10
-168.3228228769009
 20
-99.99883298442974
 30
0.0
 10
-164.645439244031
 20
-102.9980904904015
 30
0.0
 10
-160.6301234857137
 20
-106.1837402812124
 30
0.0
 10
-156.3749090515699
 20
-109.4667940171911
 30
0.0
 10
-152.3209444291287
 20
-112.5149547404117
 30
0.0
 10
-148.4006862219425
 20
-115.3801558249699
 30
0.0
 10
-144.9934918414107
 20
-117.8090711153332
 30
0.0
 10
-141.7270349334325
 20
-120.0926238040317
 30
0.0
 10
-138.4046674791989
 20
-122.3638862314502
 30
0.0
 10
-134.7034508043293
 20
-124.8326004304312
 30
0.0
 10
-131.0024367550209
 20
-127.2418631652777
 30
0.0
 10
-127.4069647744754
 20
-129.5199444447485
 30
0.0
 10
-123.3583187126469
 20
-132.0238727410002
 30
0.0
 10
-118.7488842464203
 20
-134.7931798361983
 30
0.0
 10
-113.2007206309949
 20
-137.997303572244
 30
0.0
 10
-107.3655450443513
 20
-141.2302127125547
 30
0.0
 10
-101.2723151716008
 20
-144.4567573590478
 30
0.0
 10
-95.55163999007806
 20
-147.3525183809215
 30
0.0
 10
-89.97039355151782
 20
-150.0498806915022
 30
0.0
 10
-85.77153782405514
 20
-152.0218811274149
 30
0.0
 10
-83.27547486125603
 20
-153.1195855830607
 30
0.0
 10
-82.72879430175507
 20
-153.3600016682808
 30
0.0
  0
SPLINE
  5
107
330
101
100
AcDbEntity
  8
0
  6
Continuous
 62
     7
370
    25
100
AcDbSpline
210
0.0
220
0.0
230
1.0
 70
     8
 71
     3
 72
    81
 73
    77
 74
     0
 42
0.000000001
 43
0.00000001
 40
0.0
 40
0.0
 40
0.0
 40
0.0
 40
0.0101160736796547
 40
0.0183437790532312
 40
0.0246591602996094
 40
0.0291119774708254
 40
0.0331994189714975
 40
0.0375230623431847
 40
0.0420874193665053
 40
0.0510965666078985
 40
0.0609651946759733
 40
0.07169505400938
 40
0.0841454838398917
 40
0.096582370225525
 40
0.1090097483673183
 40
0.1214293127302335
 40
0.1338380019308714
 40
0.1456584587097035
 40
0.1530533285798255
 40
0.1590422398830839
 40
0.163590102449259
 40
0.1666718943390546
 40
0.1693178535297474
 40
0.1758994678780977
 40
0.1843514339890741
 40
0.1935202403232316
 40
0.2042646159905482
 40
0.2166341183635799
 40
0.2306784352769344
 40
0.2581640468159985
 40
0.2868525684994342
 40
0.3167217290292967
 40
0.3477359835501858
 40
0.3798473674109556
 40
0.4034273550896257
 40
0.4275380554827645
 40
0.4521832205750396
 40
0.4773655673910798
 40
0.5028665743458396
 40
0.5272043657359395
 40
0.5500604209247273
 40
0.5713756512503986
 40
0.5910936764964501
 40
0.6091706541025251
 40
0.6255736029540293
 40
0.6402786063773742
 40
0.6532691585532603
 40
0.6643287249940262
 40
0.6712809407834981
 40
0.6767050706799882
 40
0.6824385055844908
 40
0.6901575544986609
 40
0.6998565056911834
 40
0.7113005888283644
 40
0.7246325349055485
 40
0.7395858420063589
 40
0.7556858495355322
 40
0.7680946426921533
 40
0.781079374107078
 40
0.7946263327429008
 40
0.8087198569500057
 40
0.8231507710076907
 40
0.8356692716847727
 40
0.8457280397224262
 40
0.8642113406217892
 40
0.8849907257942201
 40
0.9060887289848533
 40
0.9238070838737082
 40
0.9407812772661318
 40
0.9565783415715492
 40
0.9717120481603269
 40
0.9861867590749487
 40
0.9930627605871957
 40
0.9963351190284588
 40
0.9991958948832581
 40
1.0
 40
1.0
 40
1.0
 40
1.0
 10
179.5875088628404
 20
-151.0255380156362
 30
0.0
 10
178.1623506347297
 20
-151.3880974361923
 30
0.0
 10
175.5780685822043
 20
-152.0455372804398
 30
0.0
 10
171.9858992824879
 20
-152.8461084888316
 30
0.0
 10
169.170257992956
 20
-153.4267895394132
 30
0.0
 10
166.9307409798529
 20
-153.8585024279759
 30
0.0
 10
164.9629905741061
 20
-154.2179772002877
 30
0.0
 10
162.9552221757516
 20
-154.56501186695
 30
0.0
 10
160.1553589947665
 20
-155.0205747739586
 30
0.0
 10
156.4335694297876
 20
-155.5700386868703
 30
0.0
 10
151.6564114503571
 20
-156.1793859300685
 30
0.0
 10
146.2471903675649
 20
-156.7567752246206
 30
0.0
 10
140.3534753605999
 20
-157.2550676284997
 30
0.0
 10
134.1214964951865
 20
-157.6423087766902
 30
0.0
 10
127.850110051311
 20
-157.8996963062822
 30
0.0
 10
121.5504740552576
 20
-158.0327703544144
 30
0.0
 10
115.3310458563543
 20
-158.0469943738978
 30
0.0
 10
109.9528897954612
 20
-157.9654703284039
 30
0.0
 10
105.6632468014281
 20
-157.8437087007396
 30
0.0
 10
102.610651271454
 20
-157.7296660811785
 30
0.0
 10
100.2924160643527
 20
-157.626996394112
 30
0.0
 10
98.54356153160202
 20
-157.5408852299472
 30
0.0
 10
96.44986908639453
 20
-157.4300805335822
 30
0.0
 10
93.44538364602826
 20
-157.2533842795476
 30
0.0
 10
89.33932143879261
 20
-156.9733231642084
 30
0.0
 10
84.53763745633931
 20
-156.5941669821585
 30
0.0
 10
79.08807167182623
 20
-156.0990936511892
 30
0.0
 10
72.83834633357593
 20
-155.4471294355509
 30
0.0
 10
63.81495953473777
 20
-154.3703456015223
 30
0.0
 10
52.15535626956611
 20
-152.7085576501196
 30
0.0
 10
38.05585315971606
 20
-150.2830752517417
 30
0.0
 10
23.59798106370992
 20
-147.3770928360467
 30
0.0
 10
8.840684230885131
 20
-143.984997067494
 30
0.0
 10
-4.662056000230605
 20
-140.4889763090414
 30
0.0
 10
-16.87072690797461
 20
-137.0202296791616
 30
0.0
 10
-27.7634088216779
 20
-133.6906990467004
 30
0.0
 10
-38.71152000677433
 20
-130.1038092167023
 30
0.0
 10
-49.66846993556145
 20
-126.2679969950047
 30
0.0
 10
-60.37762999356923
 20
-122.2734561875607
 30
0.0
 10
-70.56110688868058
 20
-118.2437922512696
 30
0.0
 10
-79.98185109496295
 20
-114.3113779924539
 30
0.0
 10
-88.61068016966928
 20
-110.5322366667274
 30
0.0
 10
-96.45634538387934
 20
-106.9440330361277
 30
0.0
 10
-103.5303066642932
 20
-103.5799444606029
 30
0.0
 10
-109.8471540516952
 20
-100.4685456495702
 30
0.0
 10
-115.4236701008144
 20
-97.63416931369787
 30
0.0
 10
-120.251747460227
 20
-95.11093880209955
 30
0.0
 10
-124.0595223515412
 20
-93.07237378097658
 30
0.0
 10
-126.9103756634899
 20
-91.51829303626518
 30
0.0
 10
-129.0962664567204
 20
-90.31178614605578
 30
0.0
 10
-131.3535746235986
 20
-89.0518214528981
 30
0.0
 10
-134.0983828524488
 20
-87.49892846969715
 30
0.0
 10
-137.4856148943721
 20
-85.54864352192781
 30
0.0
 10
-141.4830843436974
 20
-83.19730318975883
 30
0.0
 10
-146.0260145031319
 20
-80.45756946281736
 30
0.0
 10
-151.0175330746769
 20
-77.36019823034835
 30
0.0
 10
-155.8087817489672
 20
-74.29233011759072
 30
0.0
 10
-160.2999637858869
 20
-71.33203910694988
 30
0.0
 10
-164.4446410144785
 20
-68.52804118044654
 30
0.0
 10
-168.6917145466611
 20
-65.57455499509716
 30
0.0
 10
-173.005182991783
 20
-62.48627835877997
 30
0.0
 10
-177.128861252179
 20
-59.44198638587317
 30
0.0
 10
-180.7618530410726
 20
-56.67928140819042
 30
0.0
 10
-184.6916013824296
 20
-53.61440085115571
 30
0.0
 10
-189.2667104640402
 20
-49.92810219728312
 30
0.0
 10
-194.6507408504864
 20
-45.38391751695045
 30
0.0
 10
-199.7266857014986
 20
-40.87034390602375
 30
0.0
 10
-204.2635658294598
 20
-36.62416511143096
 30
0.0
 10
-208.1771506403722
 20
-32.77852363056118
 30
0.0
 10
-211.6685355843777
 20
-29.17836024350924
 30
0.0
 10
-214.8403083881605
 20
-25.74620850657726
 30
0.0
 10
-217.2262709346013
 20
-23.03063663011967
 30
0.0
 10
-218.6351157601449
 20
-21.36800556686694
 30
0.0
 10
-219.3247496481283
 20
-20.54591295967392
 30
0.0
 10
-219.5792939736582
 20
-20.2385142312833
 30
0.0
 10
-219.5516243727255
 20
-20.29338521004548
 30
0.0
 10
-219.5455534340345
 20
-20.30542435541634
 30
0.0
  0
SPLINE
  5
108
330
101
100
AcDbEntity
  8
0
  6
Continuous
 62
     7
370
    25
100
AcDbSpline
210
0.0
220
0.0
230
1.0
 70
     8
 71
     3
 72
    15
 73
    11
 74
     0
 42
0.000000001
 43
0.00000001
 40
0.0
 40
0.0
 40
0.0
 40
0.0
 40
0.0066967923931315
 40
0.0757833385945027
 40
0.1525294049371177
 40
0.2402755439574904
 40
0.3401077396834178
 40
0.4502823562374214
 40
0.7026746952507306
 40
1.0
 40
1.0
 40
1.0
 40
1.0
 10
194.1071251429387
 20
-146.4766227995641
 30
0.0
 10
194.1127363109997
 20
-146.4738146369048
 30
0.0
 10
194.1762343297691
 20
-146.4420364468186
 30
0.0
 10
193.8918482726596
 20
-146.5342014389251
 30
0.0
 10
193.2551303337571
 20
-146.7528521099073
 30
0.0
 10
192.1601839585931
 20
-147.149595886381
 30
0.0
 10
190.7347487473603
 20
-147.6529264313894
 30
0.0
 10
188.390322276982
 20
-148.4499615227144
 30
0.0
 10
184.7441706500089
 20
-149.617466528474
 30
0.0
 10
181.3975776911713
 20
-150.5312829312101
 30
0.0
 10
179.5875088628404
 20
-151.0255380156362
 30
0.0
  0
SPLINE
  5
109
330
101
100
AcDbEntity
  8
0
  6
Continuous
 62
     7
370
    25
100
AcDbSpline
210
0.0
220
0.0
230
1.0
 70
     8
 71
     3
 72
    17
 73
    13
 74
     0
 42
0.000000001
 43
0.00000001
 40
0.0
 40
0.0
 40
0.0
 40
0.0
 40
0.0829933716374803
 40
0.1838009001457516
 40
0.2849437125461773
 40
0.3862756942414965
 40
0.4881088675444638
 40
0.5901126097119606
 40
0.6926024569048516
 40
0.7952481604322108
 40
0.8981776312228231
 40
1.0
 40
1.0
 40
1.0
 40
1.0
 10
15.24260739395888
 20
-181.8130876191718
 30
0.0
 10
12.28660160917069
 20
-181.3671629289762
 30
0.0
 10
5.74009658882578
 20
-180.3795978037373
 30
0.0
 10
-4.211535399241906
 20
-178.4562144071321
 30
0.0
 10
-14.6598276339078
 20
-176.1854818738342
 30
0.0
 10
-24.95772201344265
 20
-173.6371950108932
 30
0.0
 10
-35.09255243388169
 20
-170.8383585982442
 30
0.0
 10
-45.05847770826683
 20
-167.7912330695931
 30
0.0
 10
-54.83431769441806
 20
-164.5107874579345
 30
0.0
 10
-64.40592144601429
 20
-160.9996113883504
 30
0.0
 10
-73.73867659585453
 20
-157.3034786081237
 30
0.0
 10
-79.74616720492631
 20
-154.6761434724885
 30
0.0
 10
-82.73367112925521
 20
-153.3695789617784
 30
0.0
  0
LWPOLYLINE
  5
10A
330
101
100
AcDbEntity
  8
0
  6
Continuous
 62
     7
370
    25
100
AcDbPolyline
 90
      101
 70
   128
 43
0.0
 10
-242.1840725564
 20
139.8098891496
 10
-250.2633112302
 20
134.6963031687
 10
-257.5404873494
 20
129.1571633557
 10
-263.9968002849
 20
123.219083364
 10
-269.6134494079
 20
116.9086768465
 10
-274.3717250103
 20
110.2524659656
 10
-278.2583726451
 20
103.2714834356
 10
-281.2685935199
 20
95.9782533265
 10
-283.3983162101
 20
88.3845677816
 10
-284.6434692913
 20
80.5022189446
 10
-285.0001032322
 20
72.3440206816
 10
-284.465685507
 20
63.9346643852
 10
-283.0385977876
 20
55.3065043683
 10
-280.7172369825
 20
46.492022659
 10
-277.5
 20
37.5237012856
 10
-272.8384557981
 20
27.3376385229
 10
-267.0928097784
 20
17.0509223798
 10
-260.304758118
 20
6.7151304945
 10
-252.5159969939
 20
-3.6181594949
 10
-243.7661886934
 20
-13.900403353
 10
-234.0814742034
 20
-24.1032229077
 10
-223.4824786016
 20
-34.2064665759
 10
-210.7921853656
 20
-45.1810025102
 10
-197.0524244872
 20
-55.980744216
 10
-182.329236551
 20
-66.5514231831
 10
-166.7045027423
 20
-76.8274970924
 10
-150.2601910023
 20
-86.743361881
 10
-132.0213418587
 20
-96.7970702654
 10
-113.0883477364
 20
-106.3153331833
 10
-93.59679023
 20
-115.2416961234
 10
-73.6811985274
 20
-123.5201973726
 10
-53.4413334202
 20
-131.1111558135
 10
-32.9350543255
 20
-137.9945110016
 10
-13.4062929039
 20
-143.8194505564
 10
6.2577705023
 20
-148.9813944297
 10
25.9593947072
 20
-153.4530364843
 10
45.5797771697
 20
-157.2023644054
 10
65.0
 20
-160.1973401037
 10
83.1000945714
 20
-162.3138504929
 10
100.8247065541
 20
-163.7266336785
 10
118.08448664
 20
-164.4371592331
 10
134.790085521
 20
-164.4468967292
 10
150.8616392718
 20
-163.7576928641
 10
166.2572254998
 20
-162.3729028346
 10
178.8908394785
 20
-160.635139313
 10
190.9835661793
 20
-158.3914253921
 10
202.5137109261
 20
-155.6445313562
 10
213.4448400414
 20
-152.4021088344
 10
223.7310108146
 20
-148.6749587113
 10
233.3261220511
 20
-144.4739343591
 10
242.1840725564
 20
-139.8098891496
 10
250.2633112302
 20
-134.6963031687
 10
257.5404873494
 20
-129.1571633557
 10
263.9968002849
 20
-123.219083364
 10
269.6134494079
 20
-116.9086768465
 10
274.3717250103
 20
-110.2524659656
 10
278.2583726451
 20
-103.2714834356
 10
281.2685935199
 20
-95.9782533265
 10
283.3983162101
 20
-88.3845677816
 10
284.6434692913
 20
-80.5022189446
 10
285.0001032322
 20
-72.3440206816
 10
284.465685507
 20
-63.9346643852
 10
283.0385977876
 20
-55.3065043683
 10
280.7172369825
 20
-46.492022659
 10
277.5
 20
-37.5237012856
 10
272.8384557981
 20
-27.3376385229
 10
267.0928097784
 20
-17.0509223798
 10
260.304758118
 20
-6.7151304945
 10
252.5159969939
 20
3.6181594949
 10
243.7661886934
 20
13.900403353
 10
234.0814742034
 20
24.1032229077
 10
223.4824786015
 20
34.2064665759
 10
210.7921853656
 20
45.1810025102
 10
197.0524244872
 20
55.9807442161
 10
182.3292365509
 20
66.5514231831
 10
166.7045027423
 20
76.8274970924
 10
150.2601910023
 20
86.7433618811
 10
132.0213418587
 20
96.7970702654
 10
113.0883477364
 20
106.3153331833
 10
93.59679023
 20
115.2416961234
 10
73.6811985274
 20
123.5201973726
 10
53.4413334202
 20
131.1111558135
 10
32.9350543255
 20
137.9945110016
 10
13.4062929039
 20
143.8194505564
 10
-6.2577705023
 20
148.9813944297
 10
-25.9593947072
 20
153.4530364843
 10
-45.5797771697
 20
157.2023644054
 10
-65.0
 20
160.1973401037
 10
-83.1000945714
 20
162.3138504929
 10
-100.8247065541
 20
163.7266336785
 10
-118.08448664
 20
164.4371592331
 10
-134.790085521
 20
164.4468967292
 10
-150.8616392718
 20
163.7576928641
 10
-166.2572254998
 20
162.3729028346
 10
-178.8908394785
 20
160.635139313
 10
-190.9835661793
 20
158.3914253921
 10
-202.5137109261
 20
155.6445313562
 10
-213.4448400414
 20
152.4021088344
 10
-223.7310108146
 20
148.6749587113
 10
-233.3261220511
 20
144.4739343591
 10
-242.1840725564
 20
139.8098891496
  0
SPLINE
  5
10B
330
101
100
AcDbEntity
  8
0
  6
Continuous
 62
     7
370
    25
100
AcDbSpline
210
0.0
220
0.0
230
1.0
 70
    11
 71
     3
 72
    35
 73
    31
 74
     0
 42
0.000000001
 43
0.00000001
 40
0.0
 40
0.0
 40
0.0
 40
0.0
 40
0.0062500000000001
 40
0.0083333333333333
 40
0.0416666666666666
 40
0.0833333333333334
 40
0.1250000000000001
 40
0.1666666666666666
 40
0.2083333333333334
 40
0.2499999999996537
 40
0.2916666666666666
 40
0.3333333333333334
 40
0.375
 40
0.4166666666666666
 40
0.4583333333333334
 40
0.4999999999999999
 40
0.5416666666666667
 40
0.5833333333333333
 40
0.625
 40
0.6666666666666667
 40
0.7083333333333333
 40
0.7499999999996151
 40
0.7916666666666666
 40
0.8333333333333334
 40
0.875
 40
0.9166666666666666
 40
0.9583333333333334
 40
0.9916666666666667
 40
0.99375
 40
1.0
 40
1.0
 40
1.0
 40
1.0
 10
-23.33452377915602
 20
-84.51416358121527
 30
0.0
 10
-23.02420512370817
 20
-84.33502043459431
 30
0.0
 10
-22.60165605361347
 20
-84.10123776285731
 30
0.0
 10
-20.43393413010216
 20
-82.9668292206256
 30
0.0
 10
-16.00090673983254
 20
-81.14122987914475
 30
0.0
 10
-8.42429702353653
 20
-79.34370581917823
 30
0.0
 10
0.0000000000000798
 20
-78.70173294061878
 30
0.0
 10
8.42429702353668
 20
-79.34370581917827
 30
0.0
 10
16.54209314813952
 20
-81.26962445485671
 30
0.0
 10
23.62755254018597
 20
-84.34500167818514
 30
0.0
 10
28.95483936605334
 20
-88.43535031969466
 30
0.0
 10
32.29098977313673
 20
-93.12165427164354
 30
0.0
 10
33.40303990883118
 20
-97.98489742629003
 30
0.0
 10
32.29098977313669
 20
-102.8481405809365
 30
0.0
 10
28.95483936605327
 20
-107.5344445328854
 30
0.0
 10
23.62755254018586
 20
-111.6247931743949
 30
0.0
 10
16.54209314813939
 20
-114.7001703977233
 30
0.0
 10
8.424297023536534
 20
-116.6260890334017
 30
0.0
 10
-0.0000000000000729
 20
-117.2680619119612
 30
0.0
 10
-8.424297023536674
 20
-116.6260890334017
 30
0.0
 10
-16.54209314813952
 20
-114.7001703977233
 30
0.0
 10
-23.62755254018596
 20
-111.6247931743949
 30
0.0
 10
-28.95483936605334
 20
-107.5344445328853
 30
0.0
 10
-32.29098977313674
 20
-102.8481405809365
 30
0.0
 10
-33.40303990883118
 20
-97.98489742628999
 30
0.0
 10
-32.29098977313669
 20
-93.12165427164346
 30
0.0
 10
-29.17724939319217
 20
-88.74777058315784
 30
0.0
 10
-26.01487592973228
 20
-86.18863834341659
 30
0.0
 10
-24.04980977903677
 20
-84.93723911375507
 30
0.0
 10
-23.64484243460387
 20
-84.69330672783622
 30
0.0
 10
-23.33452377915602
 20
-84.51416358121527
 30
0.0
  0
SPLINE
  5
10C
330
101
100
AcDbEntity
  8
0
  6
Continuous
 62
     7
370
    25
100
AcDbSpline
210
0.0
220
0.0
230
1.0
 70
     8
 71
     3
 72
    22
 73
    18
 74
     0
 42
0.000000001
 43
0.00000001
 40
0.0
 40
0.0
 40
0.0
 40
0.0
 40
0.0680236770683007
 40
0.135730679497472
 40
0.2023757326563272
 40
0.2678910686488473
 40
0.3334064046413843
 40
0.4000514578003468
 40
0.4677584602296259
 40
0.5357821372979467
 40
0.6038058143662272
 40
0.6715128167952908
 40
0.7381578699540386
 40
0.8036732059465419
 40
0.8691885419390619
 40
0.9358335950979172
 40
1.0
 40
1.0
 40
1.0
 40
1.0
 10
-16.26345596729056
 20
-96.76161225918634
 30
0.0
 10
-15.11636065293938
 20
-96.17588213046788
 30
0.0
 10
-12.8275101647642
 20
-95.00714865707337
 30
0.0
 10
-8.74979030500097
 20
-93.79810110425178
 30
0.0
 10
-4.444819364652163
 20
-93.02982818448791
 30
0.0
 10
0.000558744377625
 20
-92.77503849407893
 30
0.0
 10
4.442565117670112
 20
-93.03095322295773
 30
0.0
 10
8.757880985011113
 20
-93.79347973860898
 30
0.0
 10
12.79688394782514
 20
-95.02481214293311
 30
0.0
 10
16.37824495996249
 20
-96.69536278548912
 30
0.0
 10
19.27194078407977
 20
-98.76279344009485
 30
0.0
 10
21.40520638601064
 20
-101.0945835845254
 30
0.0
 10
22.72498703347878
 20
-103.5853233022622
 30
0.0
 10
23.17230304029741
 20
-106.1512426282858
 30
0.0
 10
22.71594543539368
 20
-108.711507138197
 30
0.0
 10
21.46490837904987
 20
-111.1751664373265
 30
0.0
 10
19.98766771243043
 20
-112.6450610280649
 30
0.0
 10
19.26304294211429
 20
-113.366082358083
 30
0.0
  0
SPLINE
  5
10D
330
101
100
AcDbEntity
  8
0
  6
Continuous
 62
     7
370
    25
100
AcDbSpline
210
0.0
220
0.0
230
1.0
 70
     8
 71
     3
 72
    14
 73
    10
 74
     0
 42
0.000000001
 43
0.00000001
 40
0.0
 40
0.0
 40
0.0
 40
0.0
 40
0.1382247648308239
 40
0.2817889369864783
 40
0.4229195165189233
 40
0.5640500960514089
 40
0.7076142682073202
 40
0.8534660500302407
 40
1.0
 40
1.0
 40
1.0
 40
1.0
 10
-19.26304294211219
 20
-113.366082358086
 30
0.0
 10
-19.98765566022383
 20
-112.6450679838921
 30
0.0
 10
-21.46487175687243
 20
-111.1751875734987
 30
0.0
 10
-22.71609746427274
 20
-108.7114193960436
 30
0.0
 10
-23.17174441023815
 20
-106.1515650367894
 30
0.0
 10
-22.72708879037087
 20
-103.5841102914587
 30
0.0
 10
-21.397157385692
 20
-101.099228995395
 30
0.0
 10
-19.30255645534076
 20
-98.74512387037076
 30
0.0
 10
-17.27806391806833
 20
-97.42381038625746
 30
0.0
 10
-16.26345596729056
 20
-96.76161225918634
 30
0.0
  0
SPLINE
  5
10E
330
101
100
AcDbEntity
  8
0
  6
Continuous
 62
     7
370
    25
100
AcDbSpline
210
0.0
220
0.0
230
1.0
 70
     8
 71
     3
 72
    17
 73
    13
 74
     0
 42
0.000000001
 43
0.00000001
 40
0.0
 40
0.0
 40
0.0
 40
0.0
 40
0.1064324833930139
 40
0.212369485363636
 40
0.3166449203189427
 40
0.4191527559804913
 40
0.5216605916420665
 40
0.6259360265975411
 40
0.7318730285683318
 40
0.8383055119613773
 40
0.9447379953543595
 40
1.0
 40
1.0
 40
1.0
 40
1.0
 10
-16.26345596729056
 20
-109.0097244374725
 30
0.0
 10
-15.11635989997567
 20
-108.4239940807291
 30
0.0
 10
-12.82750790937838
 20
-107.2552601523461
 30
0.0
 10
-8.749799218957552
 20
-106.0462159820106
 30
0.0
 10
-4.44478675188165
 20
-105.2779304864326
 30
0.0
 10
0.0004392223151919
 20
-105.023186868024
 30
0.0
 10
4.443014715119372
 20
-105.2789292466672
 30
0.0
 10
8.756159206365064
 20
-106.0421133345397
 30
0.0
 10
12.8034330042092
 20
-107.2709410270478
 30
0.0
 10
16.35369023027274
 20
-108.9509110353896
 30
0.0
 10
18.88497806648088
 20
-110.6601702468641
 30
0.0
 10
19.91196795475376
 20
-111.8632033838633
 30
0.0
 10
20.26296025303919
 20
-112.2743616342907
 30
0.0
  0
SPLINE
  5
10F
330
101
100
AcDbEntity
  8
0
  6
Continuous
 62
     7
370
    25
100
AcDbSpline
210
0.0
220
0.0
230
1.0
 70
     8
 71
     3
 72
     9
 73
     5
 74
     0
 42
0.000000001
 43
0.00000001
 40
0.0
 40
0.0
 40
0.0
 40
0.0
 40
0.3417680176745931
 40
0.9999999999999999
 40
0.9999999999999999
 40
0.9999999999999999
 40
0.9999999999999999
 10
-20.26296025303918
 20
-112.2743616342905
 30
0.0
 10
-19.91463668134762
 20
-111.8614639460327
 30
0.0
 10
-18.89545538386529
 20
-110.6533412812287
 30
0.0
 10
-17.30822305170163
 20
-109.6621549687736
 30
0.0
 10
-16.26345596729056
 20
-109.0097244374725
 30
0.0
  0
VIEWPORT
  5
13C
330
101
100
AcDbEntity
  8
0
100
AcDbViewport
 10
0.0
 20
0.0
 30
0.0
 40
205.6
 41
156.0
 68
     1
 69
     1
 12
0.0
 22
-10.7677612968
 13
0.0
 23
0.0
 14
10.0
 24
10.0
 15
10.0
 25
10.0
 16
0.0
 26
0.0
 36
1.0
 17
0.0
 27
0.0
 37
0.0
 42
50.0
 43
0.0
 44
0.0
 45
441.1402376099
 50
0.0
 51
0.0
 72
   100
 90
   557152
  1

281
     0
 71
     1
 74
     0
110
0.0
120
0.0
130
0.0
111
1.0
121
0.0
131
0.0
112
0.0
122
1.0
132
0.0
 79
     0
146
0.0
170
     0
 61
     5
348
2F
292
     1
282
     1
141
0.0
142
0.0
 63
   256
361
13D
  0
ENDBLK
  5
104
330
101
100
AcDbEntity
  8
0
100
AcDbBlockEnd
  0
BLOCK
  5
112
330
110
100
AcDbEntity
  8
0
100
AcDbBlockBegin
  2
*Paper_Space7
 70
     0
 10
0.0
 20
0.0
 30
0.0
  3
*Paper_Space7
  1

  0
SPLINE
  5
114
330
110
100
AcDbEntity
  8
0
  6
Continuous
 62
     7
370
    25
100
AcDbSpline
210
0.0
220
0.0
230
1.0
 70
     8
 71
     3
 72
    45
 73
    41
 74
     0
 42
0.000000001
 43
0.00000001
 40
0.0
 40
0.0
 40
0.0
 40
0.0
 40
0.0113140388650464
 40
0.0250324158202237
 40
0.0379287750739817
 40
0.0503600189294387
 40
0.0624223922861594
 40
0.0741234517130127
 40
0.1052186088400658
 40
0.1366855574225283
 40
0.1941855630012895
 40
0.2547620240278987
 40
0.2855416095731676
 40
0.3171801500573336
 40
0.3504939239801289
 40
0.3852806337771641
 40
0.4208502010932412
 40
0.4548371919712301
 40
0.4850276114191587
 40
0.5184598916121081
 40
0.5537098926056047
 40
0.5985192360632706
 40
0.6421904086668555
 40
0.6740055291824611
 40
0.7149263011462859
 40
0.7578164977689895
 40
0.7731727471983882
 40
0.7862914538712023
 40
0.8011755467056836
 40
0.8205431803036365
 40
0.8420031311049222
 40
0.8590285686192287
 40
0.8715710508336376
 40
0.8811012875951941
 40
0.8912473420157545
 40
0.9024866304164698
 40
0.9185294929923846
 40
0.9401464201564468
 40
0.9673141931920034
 40
1.0
 40
1.0
 40
1.0
 40
1.0
 10
123.0768074960577
 20
-162.3360335743415
 30
0.0
 10
123.7920434271359
 20
-162.2131500034103
 30
0.0
 10
125.3745095517332
 20
-161.9412689641355
 30
0.0
 10
127.8434985445563
 20
-161.4953648310902
 30
0.0
 10
130.3489252841816
 20
-161.0290036797047
 30
0.0
 10
132.7036250862299
 20
-160.5769128611768
 30
0.0
 10
134.9579311038357
 20
-160.131890052383
 30
0.0
 10
138.3983036851809
 20
-159.43418009941
 30
0.0
 10
143.0730672873341
 20
-158.4403952584796
 30
0.0
 10
150.595286518833
 20
-156.731709684349
 30
0.0
 10
159.9203483850314
 20
-154.4176514522874
 30
0.0
 10
169.131993908614
 20
-151.8675900810179
 30
0.0
 10
176.6905786962084
 20
-149.6024086511807
 30
0.0
 10
182.5436441262165
 20
-147.7551594467534
 30
0.0
 10
188.6088328220793
 20
-145.7386270178374
 30
0.0
 10
194.8739770704394
 20
-143.5425181397701
 30
0.0
 10
201.1360255250511
 20
-141.22818541506
 30
0.0
 10
207.0819823763219
 20
-138.9160715968917
 30
0.0
 10
212.8608404121747
 20
-136.5637096535021
 30
0.0
 10
218.6665852360722
 20
-134.0933701392212
 30
0.0
 10
225.2757447363311
 20
-131.1464348616157
 30
0.0
 10
232.398902590933
 20
-127.7966425690499
 30
0.0
 10
239.2518059888363
 20
-124.3832275160712
 30
0.0
 10
245.7991863123248
 20
-120.9611733204701
 30
0.0
 10
252.2161520018951
 20
-117.4514692180699
 30
0.0
 10
257.6517472659102
 20
-114.3211493440173
 30
0.0
 10
261.519611439945
 20
-112.0131554220499
 30
0.0
 10
263.8570477162066
 20
-110.5941702573623
 30
0.0
 10
266.3912891604859
 20
-109.0295852810437
 30
0.0
 10
269.3524951327118
 20
-107.163600199156
 30
0.0
 10
272.4068684116164
 20
-105.1915261531196
 30
0.0
 10
275.0832940096286
 20
-103.4234662202166
 30
0.0
 10
277.118915964974
 20
-102.0549432773087
 30
0.0
 10
278.7861210161817
 20
-100.9194023032037
 30
0.0
 10
280.3785734466375
 20
-99.82214681797903
 30
0.0
 10
282.2969481368966
 20
-98.48354115355518
 30
0.0
 10
284.7815839467972
 20
-96.72210151235893
 30
0.0
 10
288.0496641992285
 20
-94.35228000653714
 30
0.0
 10
292.1207576153571
 20
-91.32258644505724
 30
0.0
 10
295.0663933907322
 20
-89.0287457282106
 30
0.0
 10
296.6749936136812
 20
-87.77608824782031
 30
0.0
  0
SPLINE
  5
115
330
110
100
AcDbEntity
  8
0
  6
Continuous
 62
     7
370
    25
100
AcDbSpline
210
0.0
220
0.0
230
1.0
 70
     8
 71
     3
 72
    50
 73
    46
 74
     0
 42
0.000000001
 43
0.00000001
 40
0.0
 40
0.0
 40
0.0
 40
0.0
 40
0.0223966889582401
 40
0.0401067882939482
 40
0.0531496696630457
 40
0.0628967175727437
 40
0.0752624080569456
 40
0.0909247008760666
 40
0.1119627256882337
 40
0.1294499586213166
 40
0.1427448960923284
 40
0.1545316702442788
 40
0.1673427296237076
 40
0.1814782353921421
 40
0.1994208016284792
 40
0.2212168902068712
 40
0.2409463958894622
 40
0.2560962004857122
 40
0.268189501542647
 40
0.2860712814936562
 40
0.307424598091949
 40
0.3379000048784246
 40
0.3669650165078814
 40
0.3906168224421706
 40
0.4111660440407014
 40
0.4298943712108154
 40
0.4498285367688106
 40
0.4740513060441821
 40
0.5017612708917669
 40
0.5291632530040445
 40
0.5585433583772855
 40
0.5832960015603269
 40
0.6073559432105012
 40
0.6313783201522581
 40
0.6556108580106503
 40
0.6803085617825905
 40
0.7409517423562713
 40
0.8038743668702445
 40
0.8454884221816004
 40
0.8905348558822384
 40
0.9390461925705529
 40
0.9556374909997343
 40
0.9721970433012121
 40
0.9879597632536776
 40
1.0
 40
1.0
 40
1.0
 40
1.0
 10
-303.6922959794543
 20
10.16741057895411
 30
0.0
 10
-302.7469860949306
 20
8.936508035806105
 30
0.0
 10
-301.0541758995727
 20
6.732273838484862
 30
0.0
 10
-298.7777541400254
 20
3.835472810091181
 30
0.0
 10
-297.0298955477943
 20
1.638445761300525
 30
0.0
 10
-295.5045169770185
 20
-0.2593162784011796
 30
0.0
 10
-293.8570151173453
 20
-2.289392217731452
 30
0.0
 10
-291.7012158388158
 20
-4.913403687488126
 30
0.0
 10
-289.297022902533
 20
-7.793265102497656
 30
0.0
 10
-286.9749088854616
 20
-10.5284521558872
 30
0.0
 10
-285.053588034139
 20
-12.76140100893456
 30
0.0
 10
-283.3341703420344
 20
-14.73801581846257
 30
0.0
 10
-281.5660394984227
 20
-16.74901618224536
 30
0.0
 10
-279.5037450625829
 20
-19.06727282476627
 30
0.0
 10
-277.0105279510922
 20
-21.83114939932455
 30
0.0
 10
-274.2311581328198
 20
-24.85949197727929
 30
0.0
 10
-271.5559183847319
 20
-27.72214847516975
 30
0.0
 10
-269.3220414150718
 20
-30.07645134436613
 30
0.0
 10
-267.1664389747515
 20
-32.32148150393527
 30
0.0
 10
-264.6959002682536
 20
-34.86114284207129
 30
0.0
 10
-261.3132236972404
 20
-38.279423503617
 30
0.0
 10
-257.3432177893698
 20
-42.20139365239968
 30
0.0
 10
-253.2053182853817
 20
-46.18374368135083
 30
0.0
 10
-249.5237006428796
 20
-49.64551157825518
 30
0.0
 10
-246.3330140070614
 20
-52.58755269095331
 30
0.0
 10
-243.309935996414
 20
-55.32696082261263
 30
0.0
 10
-240.0763567352518
 20
-58.20728090567726
 30
0.0
 10
-236.3531292735882
 20
-61.4593083236153
 30
0.0
 10
-232.2003765833956
 20
-65.00344473794165
 30
0.0
 10
-227.7354468062278
 20
-68.72111391759908
 30
0.0
 10
-223.3814225996905
 20
-72.25504870554961
 30
0.0
 10
-219.1689514372999
 20
-75.59141469482257
 30
0.0
 10
-215.2139404831925
 20
-78.65514087043373
 30
0.0
 10
-211.2566278824687
 20
-81.65397920636438
 30
0.0
 10
-207.2337487496885
 20
-84.6355130767702
 30
0.0
 10
-201.1450283093775
 20
-89.04680477141333
 30
0.0
 10
-192.7976819540039
 20
-94.85692995942068
 30
0.0
 10
-183.3245255375697
 20
-101.0703306496346
 30
0.0
 10
-174.6148062232139
 20
-106.4944778610404
 30
0.0
 10
-166.6466867226058
 20
-111.2422898009587
 30
0.0
 10
-160.0705345518267
 20
-114.9723743795678
 30
0.0
 10
-155.1552051966062
 20
-117.6640934660748
 30
0.0
 10
-152.1970300064001
 20
-119.2539315872123
 30
0.0
 10
-149.5108968047272
 20
-120.6742312321751
 30
0.0
 10
-147.8341230107619
 20
-121.5418059074991
 30
0.0
 10
-147.1079860869773
 20
-121.9175143114356
 30
0.0
  0
SPLINE
  5
116
330
110
100
AcDbEntity
  8
0
  6
Continuous
 62
     7
370
    25
100
AcDbSpline
210
0.0
220
0.0
230
1.0
 70
     8
 71
     3
 72
    74
 73
    70
 74
     0
 42
0.000000001
 43
0.00000001
 40
0.0
 40
0.0
 40
0.0
 40
0.0
 40
0.0089275024352273
 40
0.0159533326741747
 40
0.0210304754493625
 40
0.0245373845652184
 40
0.0280119989335397
 40
0.0427267851624774
 40
0.0563989459616212
 40
0.0703699072970838
 40
0.0836663051688894
 40
0.0972834389709487
 40
0.1097304099411249
 40
0.1206987965979807
 40
0.1299777047899421
 40
0.1409120723199688
 40
0.1523362401444102
 40
0.1646734971898888
 40
0.1779526332698378
 40
0.1922134323885166
 40
0.2075376927093214
 40
0.2239585513156496
 40
0.244532117780271
 40
0.2666586134245913
 40
0.2903584656962387
 40
0.3156419750367083
 40
0.3425304410822968
 40
0.3710658664984903
 40
0.3968681028858695
 40
0.4239369528430118
 40
0.4515835923290515
 40
0.4782783077897552
 40
0.5038841205347848
 40
0.5283251006602335
 40
0.5515406378130713
 40
0.5760296172139547
 40
0.5988750088966261
 40
0.6200447671792073
 40
0.6395196857608815
 40
0.6572912749690029
 40
0.6733597766144894
 40
0.6878836843079333
 40
0.7017313006839404
 40
0.7145516185923295
 40
0.7263533115731323
 40
0.7339761057953498
 40
0.7434399285443537
 40
0.7546589662937631
 40
0.7669640327933123
 40
0.7822936327915725
 40
0.7987189669720235
 40
0.8146473459301513
 40
0.8292708718809839
 40
0.8426625349880901
 40
0.8688151381409077
 40
0.896044002453578
 40
0.9051308841075291
 40
0.9143242610667128
 40
0.924114890099191
 40
0.9348451621219378
 40
0.9447330226045482
 40
0.9529303658600062
 40
0.9604706666146585
 40
0.9692499342182787
 40
0.9786200268520169
 40
0.9889068159576905
 40
0.9976065217884701
 40
0.9995999600015835
 40
1.0
 40
1.0
 40
1.0
 40
1.0
 10
228.9252813808602
 20
-109.1863027102781
 30
0.0
 10
227.6988899239063
 20
-109.5855864799034
 30
0.0
 10
225.5073440751648
 20
-110.2991014696161
 30
0.0
 10
222.4708805895949
 20
-111.1997639395028
 30
0.0
 10
220.156335622374
 20
-111.8535414607034
 30
0.0
 10
218.3020823198624
 20
-112.3567312907037
 30
0.0
 10
214.9199252876127
 20
-113.2457511929867
 30
0.0
 10
209.7760410136713
 20
-114.4887631186852
 30
0.0
 10
202.6385058695336
 20
-115.9987771572075
 30
0.0
 10
195.5003084934764
 20
-117.3204841270632
 30
0.0
 10
188.203072376603
 20
-118.4994445718968
 30
0.0
 10
181.0416823214541
 20
-119.5043507543437
 30
0.0
 10
174.2043271363704
 20
-120.3340656770651
 30
0.0
 10
168.0945095663039
 20
-120.9780589601761
 30
0.0
 10
162.2229384458379
 20
-121.5201467511105
 30
0.0
 10
156.218300170299
 20
-121.9994255188968
 30
0.0
 10
149.5930975032106
 20
-122.4405283940627
 30
0.0
 10
142.4846168522098
 20
-122.8181039470537
 30
0.0
 10
134.8012192222896
 20
-123.1193261551326
 30
0.0
 10
126.5177152341032
 20
-123.3251642268253
 30
0.0
 10
117.6099829857018
 20
-123.4168835327906
 30
0.0
 10
107.4712088205611
 20
-123.3714577640573
 30
0.0
 10
96.01610730181923
 20
-123.1328602498758
 30
0.0
 10
83.1717271310876
 20
-122.6359555843484
 30
0.0
 10
69.45852524163155
 20
-121.8549615840433
 30
0.0
 10
54.89392686905271
 20
-120.7520107078259
 30
0.0
 10
39.49638452537859
 20
-119.2876761403757
 30
0.0
 10
24.12033309862881
 20
-117.5183944961831
 30
0.0
 10
8.845660426465784
 20
-115.4696822663545
 30
0.0
 10
-6.119755111629487
 20
-113.1899833276918
 30
0.0
 10
-21.09002166053307
 20
-110.6316264889391
 30
0.0
 10
-35.62473213595188
 20
-107.8828542490213
 30
0.0
 10
-49.4124067212866
 20
-105.0344248869005
 30
0.0
 10
-62.41542151889027
 20
-102.1289127126444
 30
0.0
 10
-75.06078113015283
 20
-99.0967961259689
 30
0.0
 10
-87.2604906544255
 20
-95.96705187882934
 30
0.0
 10
-98.9337455326915
 20
-92.77082874392504
 30
0.0
 10
-109.594653593379
 20
-89.67614707606548
 30
0.0
 10
-119.2621134182353
 20
-86.71965707934685
 30
0.0
 10
-127.9595245331509
 20
-83.932479291038
 30
0.0
 10
-135.7383497169598
 20
-81.33297815805876
 30
0.0
 10
-142.7858342513416
 20
-78.88764607843898
 30
0.0
 10
-149.2345125113022
 20
-76.57084150767311
 30
0.0
 10
-155.1770635209993
 20
-74.36473565585646
 30
0.0
 10
-160.0940874602404
 20
-72.48295286964066
 30
0.0
 10
-164.4446566011009
 20
-70.77722302886164
 30
0.0
 10
-168.661332678446
 20
-69.08835004884556
 30
0.0
 10
-173.5172965604037
 20
-67.09216954988665
 30
0.0
 10
-179.1500586422504
 20
-64.70640069720154
 30
0.0
 10
-185.4214044426056
 20
-61.95404339305085
 30
0.0
 10
-192.0621627713964
 20
-58.91560764080216
 30
0.0
 10
-198.4485709232517
 20
-55.86362008331225
 30
0.0
 10
-204.2714176362484
 20
-52.96104567095696
 30
0.0
 10
-211.2663799897954
 20
-49.33264276341836
 30
0.0
 10
-219.5205000859619
 20
-44.79544771663981
 30
0.0
 10
-226.7404790100742
 20
-40.48393380402629
 30
0.0
 10
-231.7096250029186
 20
-37.3320545792568
 30
0.0
 10
-234.6843975664263
 20
-35.38411103956572
 30
0.0
 10
-237.7090936769929
 20
-33.33414736222875
 30
0.0
 10
-240.6580343097683
 20
-31.25698384674853
 30
0.0
 10
-243.3287462160989
 20
-29.29722594797544
 30
0.0
 10
-245.589462062833
 20
-27.57368226208952
 30
0.0
 10
-247.6276373466095
 20
-25.96414306457224
 30
0.0
 10
-249.5943652406087
 20
-24.35187208620434
 30
0.0
 10
-251.6719256264876
 20
-22.57076584565722
 30
0.0
 10
-253.5172175749189
 20
-20.89855036700403
 30
0.0
 10
-254.7222043059878
 20
-19.75120451322374
 30
0.0
 10
-255.3744039340384
 20
-19.10333107841478
 30
0.0
 10
-255.3680687319479
 20
-19.11043999866935
 30
0.0
 10
-255.367009882019
 20
-19.1116281659289
 30
0.0
  0
SPLINE
  5
117
330
110
100
AcDbEntity
  8
0
  6
Continuous
 62
     7
370
    25
100
AcDbSpline
210
0.0
220
0.0
230
1.0
 70
     8
 71
     3
 72
    15
 73
    11
 74
     0
 42
0.000000001
 43
0.00000001
 40
0.0
 40
0.0
 40
0.0
 40
0.0
 40
0.0432070994856424
 40
0.1035263723975816
 40
0.1676627059324318
 40
0.2837201551586678
 40
0.4173262587870207
 40
0.5728690474694086
 40
0.7661046220913228
 40
1.0
 40
1.0
 40
1.0
 40
1.0
 10
244.5413893523108
 20
-102.8462994236242
 30
0.0
 10
244.5350268628679
 20
-102.8443528449611
 30
0.0
 10
244.5197820197918
 20
-102.8396887450799
 30
0.0
 10
244.08689912983
 20
-103.0577510232044
 30
0.0
 10
243.0654448817303
 20
-103.5597739159037
 30
0.0
 10
241.5781156588468
 20
-104.2632544964442
 30
0.0
 10
239.5050011854627
 20
-105.1904697410645
 30
0.0
 10
236.8255608924622
 20
-106.3117906449
 30
0.0
 10
233.3025429678822
 20
-107.6837102394792
 30
0.0
 10
230.4741171926217
 20
-108.6546303432081
 30
0.0
 10
228.9252813808602
 20
-109.1863027102781
 30
0.0
  0
SPLINE
  5
118
330
110
100
AcDbEntity
  8
0
  6
Continuous
 62
     7
370
    25
100
AcDbSpline
210
0.0
220
0.0
230
1.0
 70
     8
 71
     3
 72
    46
 73
    42
 74
     0
 42
0.000000001
 43
0.00000001
 40
0.0
 40
0.0
 40
0.0
 40
0.0
 40
0.0069280851011811
 40
0.0244229481319629
 40
0.0370510727712137
 40
0.0449076644264617
 40
0.051762749555677
 40
0.0586660466966945
 40
0.0656399937004593
 40
0.0727437189908414
 40
0.1082950273145355
 40
0.1401816617973709
 40
0.1703847356612877
 40
0.2027269742628068
 40
0.2365710281783003
 40
0.2739952080302167
 40
0.3455837094371021
 40
0.421654897071548
 40
0.4971985845395172
 40
0.5687671588721502
 40
0.6385056194691368
 40
0.6566512338075867
 40
0.6747804816509977
 40
0.6929077577377667
 40
0.7110421904705629
 40
0.7272327475133734
 40
0.7398773096886373
 40
0.7524191433502646
 40
0.769470354325379
 40
0.7914164435706876
 40
0.8163267507752978
 40
0.8396850760672171
 40
0.8613133315664117
 40
0.884224001430415
 40
0.9086369264618894
 40
0.931848723846107
 40
0.9415284963234083
 40
0.9522263750698226
 40
0.9673025874883726
 40
0.9868550941852445
 40
1.0
 40
1.0
 40
1.0
 40
1.0
 10
-111.9887868659072
 20
-138.1177380256627
 30
0.0
 10
-111.5420043440771
 20
-138.3018900636389
 30
0.0
 10
-109.9670025654382
 20
-138.9510644900789
 30
0.0
 10
-107.5509411194992
 20
-139.9092190574055
 30
0.0
 10
-105.0660061919757
 20
-140.8814728916149
 30
0.0
 10
-103.2576755659193
 20
-141.5768174534851
 30
0.0
 10
-101.8348103971068
 20
-142.1181890195913
 30
0.0
 10
-100.4817224267209
 20
-142.6278809003906
 30
0.0
 10
-99.13002387299818
 20
-143.1320350163751
 30
0.0
 10
-95.9462525950419
 20
-144.3071717894925
 30
0.0
 10
-91.16539870348603
 20
-146.0153752529114
 30
0.0
 10
-84.74412421045186
 20
-148.1904410650521
 30
0.0
 10
-78.4195651873204
 20
-150.2226231989003
 30
0.0
 10
-71.98334587434053
 20
-152.1763351237801
 30
0.0
 10
-65.08654928007597
 20
-154.1419664434668
 30
0.0
 10
-55.59129683264561
 20
-156.657037462014
 30
0.0
 10
-43.17681726803076
 20
-159.5732765686058
 30
0.0
 10
-27.99225117133439
 20
-162.5464324359752
 30
0.0
 10
-12.65329801505943
 20
-164.947866088865
 30
0.0
 10
2.341180112542612
 20
-166.7319831746055
 30
0.0
 10
13.41110508484183
 20
-167.6587012562739
 30
0.0
 10
20.77711219202896
 20
-168.1180790953934
 30
0.0
 10
24.55841327645667
 20
-168.3208958195554
 30
0.0
 10
28.34005936995527
 20
-168.4909884645101
 30
0.0
 10
31.98698626257475
 20
-168.6237000477328
 30
0.0
 10
35.25501472440099
 20
-168.7162744109802
 30
0.0
 10
38.13475438603739
 20
-168.7784230078483
 30
0.0
 10
41.05993158314121
 20
-168.8244471527394
 30
0.0
 10
44.62369431542692
 20
-168.8562424802012
 30
0.0
 10
49.05027865191717
 20
-168.8561585771644
 30
0.0
 10
53.92592444906252
 20
-168.8037199687234
 30
0.0
 10
58.77766351324622
 20
-168.6979132577226
 30
0.0
 10
63.48601125519203
 20
-168.5466713353858
 30
0.0
 10
68.25451011339129
 20
-168.3451341663937
 30
0.0
 10
73.2325853838568
 20
-168.0806455651815
 30
0.0
 10
77.27266134204203
 20
-167.8194487255132
 30
0.0
 10
80.27000835925891
 20
-167.6033424445633
 30
0.0
 10
82.67903604366114
 20
-167.4187017777917
 30
0.0
 10
85.7996508236365
 20
-167.1593162054977
 30
0.0
 10
89.0958645134117
 20
-166.8649595938524
 30
0.0
 10
91.36497708948784
 20
-166.6315355603041
 30
0.0
 10
92.27719823496818
 20
-166.5376952010769
 30
0.0
  0
SPLINE
  5
119
330
110
100
AcDbEntity
  8
0
  6
Continuous
 62
     7
370
    25
100
AcDbSpline
210
0.0
220
0.0
230
1.0
 70
     8
 71
     3
 72
    32
 73
    28
 74
     0
 42
0.000000001
 43
0.00000001
 40
0.0
 40
0.0
 40
0.0
 40
0.0
 40
0.0377108077793282
 40
0.0809388809926588
 40
0.1251394477436969
 40
0.1695209714101135
 40
0.2145463153641642
 40
0.2523240289626568
 40
0.2901776265251753
 40
0.3281871914501422
 40
0.3662638908892396
 40
0.404525296378864
 40
0.4428476599898192
 40
0.4813141191095981
 40
0.5198364877527121
 40
0.5585791927007437
 40
0.5973746860154273
 40
0.6362914919409027
 40
0.675261216348691
 40
0.7143832158807434
 40
0.753560217779277
 40
0.7928610152938956
 40
0.8322160915203133
 40
0.8762424962689548
 40
0.9203489612330935
 40
0.9646650308179009
 40
1.0
 40
1.0
 40
1.0
 40
1.0
 10
123.0728709127222
 20
-162.3121805131062
 30
0.0
 10
119.538567027302
 20
-162.8891238896822
 30
0.0
 10
111.952874266546
 20
-164.1274201247944
 30
0.0
 10
99.92613373128513
 20
-165.489925886812
 30
0.0
 10
87.12535143311953
 20
-166.5333386360196
 30
0.0
 10
74.04087203732205
 20
-167.1533844811416
 30
0.0
 10
61.54203924723145
 20
-167.3695731495861
 30
0.0
 10
49.68207964288609
 20
-167.2630661086668
 30
0.0
 10
38.53155605545387
 20
-166.9078356017046
 30
0.0
 10
27.39190970568618
 20
-166.3047453957686
 30
0.0
 10
16.27140296596456
 20
-165.4595881132001
 30
0.0
 10
5.196778691461304
 20
-164.3792251692357
 30
0.0
 10
-5.823060968219259
 20
-163.068941078943
 30
0.0
 10
-16.76063772402075
 20
-161.536170292809
 30
0.0
 10
-27.61673947845297
 20
-159.7844433380099
 30
0.0
 10
-38.3693113008783
 20
-157.8205126008164
 30
0.0
 10
-49.01048691527638
 20
-155.6470361550898
 30
0.0
 10
-59.51034403270867
 20
-153.2696028261331
 30
0.0
 10
-69.86218118218895
 20
-150.6875710263347
 30
0.0
 10
-80.04142148694207
 20
-147.9012375024301
 30
0.0
 10
-90.03874432094975
 20
-144.9119157885517
 30
0.0
 10
-99.8338133673223
 20
-141.7277466578636
 30
0.0
 10
-109.7853520977418
 20
-138.2195804469797
 30
0.0
 10
-119.8425126598447
 20
-134.3674163592932
 30
0.0
 10
-129.9366244651738
 20
-130.1324600015054
 30
0.0
 10
-139.0665899908822
 20
-125.9883757341657
 30
0.0
 10
-144.6269660678212
 20
-123.1497431556779
 30
0.0
 10
-147.0936723451177
 20
-121.8904627215118
 30
0.0
  0
LWPOLYLINE
  5
11A
330
110
100
AcDbEntity
  8
0
  6
Continuous
 62
     7
370
    25
100
AcDbPolyline
 90
      101
 70
   128
 43
0.0
 10
-302.9132066745
 20
82.3253189292
 10
-308.0155486602
 20
76.7376070041
 10
-312.1338763597
 20
70.9091864434
 10
-315.2638451203
 20
64.865601826
 10
-317.4011102893
 20
58.632397731
 10
-318.5413672659
 20
52.2350269223
 10
-318.6827145786
 20
45.6934332651
 10
-317.8269756053
 20
39.0190218316
 10
-315.9762941412
 20
32.2224631742
 10
-313.1328139815
 20
25.3144278451
 10
-309.2993181495
 20
18.3064387304
 10
-304.4860206957
 20
11.2199270953
 10
-298.7079298814
 20
4.0827167076
 10
-291.9801338715
 20
-3.0772621232
 10
-284.317720831
 20
-10.2320790874
 10
-274.6523747539
 20
-18.2051307816
 10
-263.8997975988
 20
-26.0990520575
 10
-252.1262152968
 20
-33.8762233224
 10
-239.397853779
 20
-41.4990249837
 10
-225.777443767
 20
-48.932113591
 10
-211.3044798302
 20
-56.155277487
 10
-196.0089775298
 20
-63.1544779121
 10
-178.2696833895
 20
-70.578187044
 10
-159.6171823295
 20
-77.6932536685
 10
-140.1423352876
 20
-84.463468091
 10
-119.9569053672
 20
-90.845421073
 10
-99.1727701479
 20
-96.7956639458
 10
-76.6036381005
 20
-102.5903979464
 10
-53.645298371
 20
-107.8231391195
 10
-30.4561685808
 20
-112.4663937223
 10
-7.1934087569
 20
-116.4929279526
 10
16.027368274
 20
-119.8840956755
 10
39.1406205827
 20
-122.6316002432
 10
60.7784224547
 20
-124.6256609342
 10
82.206261494
 20
-126.0340262075
 10
103.3167861404
 20
-126.848290645
 10
123.9801152452
 20
-127.0592415099
 10
144.0662442701
 20
-126.6576616438
 10
162.4416722754
 20
-125.7081417005
 10
180.0983026447
 20
-124.2159135802
 10
196.9515246198
 20
-122.1958225246
 10
212.9167274427
 20
-119.6627137755
 10
227.9185554745
 20
-116.630311018
 10
241.918673553
 20
-113.1078517112
 10
253.0994522312
 20
-109.704707864
 10
263.5046030131
 20
-105.952596063
 10
273.1148166473
 20
-101.8571779846
 10
281.8992000982
 20
-97.4305182081
 10
289.8193869209
 20
-92.688812218
 10
296.8368861135
 20
-87.6483243474
 10
302.9132066745
 20
-82.3253189292
 10
308.0155486602
 20
-76.7376070041
 10
312.1338763597
 20
-70.9091864434
 10
315.2638451203
 20
-64.865601826
 10
317.4011102893
 20
-58.632397731
 10
318.5413672659
 20
-52.2350269223
 10
318.6827145786
 20
-45.6934332651
 10
317.8269756053
 20
-39.0190218316
 10
315.9762941412
 20
-32.2224631742
 10
313.1328139815
 20
-25.3144278451
 10
309.2993181495
 20
-18.3064387304
 10
304.4860206957
 20
-11.2199270953
 10
298.7079298814
 20
-4.0827167076
 10
291.9801338715
 20
3.0772621232
 10
284.317720831
 20
10.2320790874
 10
274.6523747539
 20
18.2051307816
 10
263.8997975988
 20
26.0990520575
 10
252.1262152968
 20
33.8762233224
 10
239.397853779
 20
41.4990249837
 10
225.777443767
 20
48.932113591
 10
211.3044798302
 20
56.155277487
 10
196.0089775298
 20
63.1544779121
 10
178.2696833895
 20
70.578187044
 10
159.6171823295
 20
77.6932536685
 10
140.1423352876
 20
84.463468091
 10
119.9569053671
 20
90.8454210731
 10
99.1727701479
 20
96.7956639458
 10
76.6036381005
 20
102.5903979464
 10
53.6452983709
 20
107.8231391195
 10
30.4561685808
 20
112.4663937223
 10
7.1934087569
 20
116.4929279526
 10
-16.027368274
 20
119.8840956755
 10
-39.1406205827
 20
122.6316002433
 10
-60.7784224547
 20
124.6256609342
 10
-82.206261494
 20
126.0340262075
 10
-103.3167861404
 20
126.848290645
 10
-123.9801152452
 20
127.0592415099
 10
-144.0662442701
 20
126.6576616438
 10
-162.4416722754
 20
125.7081417005
 10
-180.0983026447
 20
124.2159135802
 10
-196.9515246198
 20
122.1958225246
 10
-212.9167274427
 20
119.6627137755
 10
-227.9185554745
 20
116.630311018
 10
-241.918673553
 20
113.1078517112
 10
-253.0994522312
 20
109.704707864
 10
-263.5046030131
 20
105.952596063
 10
-273.1148166473
 20
101.8571779846
 10
-281.8992000982
 20
97.4305182081
 10
-289.8193869209
 20
92.688812218
 10
-296.8368861135
 20
87.6483243474
 10
-302.9132066745
 20
82.3253189292
  0
SPLINE
  5
11B
330
110
100
AcDbEntity
  8
0
  6
Continuous
 62
     7
370
    25
100
AcDbSpline
210
0.0
220
0.0
230
1.0
 70
     8
 71
     3
 72
    26
 73
    22
 74
     0
 42
0.000000001
 43
0.00000001
 40
0.0
 40
0.0
 40
0.0
 40
0.0
 40
0.055096719621438
 40
0.1099369442317962
 40
0.1639170283187297
 40
0.2169820823360215
 40
0.2700471363533271
 40
0.3240272204403474
 40
0.3788674450507929
 40
0.4339641646722473
 40
0.489060884293669
 40
0.5439011089039398
 40
0.5978811929907863
 40
0.6509462470080645
 40
0.7040113010253563
 40
0.7579913851122898
 40
0.812831609722648
 40
0.867928329344086
 40
0.9230250489655241
 40
0.9778652735758823
 40
1.0
 40
1.0
 40
1.0
 40
1.0
 10
-29.18579801535491
 20
-94.92800155968666
 30
0.0
 10
-28.0433961892278
 20
-93.96130172289438
 30
0.0
 10
-25.76391082762796
 20
-92.032402384122
 30
0.0
 10
-21.06190167761914
 20
-89.66374022960515
 30
0.0
 10
-15.72480333712398
 20
-87.78452238027873
 30
0.0
 10
-9.81828179776793
 20
-86.50262365974358
 30
0.0
 10
-3.541463244583692
 20
-85.84602877180797
 30
0.0
 10
2.933603575638976
 20
-85.8366492583335
 30
0.0
 10
9.374079810571523
 20
-86.46091030268086
 30
0.0
 10
15.50963854934765
 20
-87.7222005566992
 30
0.0
 10
20.99406498890538
 20
-89.61897296367323
 30
0.0
 10
25.62968290727263
 20
-92.00495858434111
 30
0.0
 10
29.26875583592726
 20
-94.76313859025775
 30
0.0
 10
31.76026049335513
 20
-97.8027977212282
 30
0.0
 10
33.03426320170084
 20
-101.0361272334645
 30
0.0
 10
33.05331131203926
 20
-104.3713431614406
 30
0.0
 10
31.83870684655646
 20
-107.6866178455996
 30
0.0
 10
29.39914435801513
 20
-110.85366451817
 30
0.0
 10
25.68149022115706
 20
-113.6522004733396
 30
0.0
 10
22.05269872445425
 20
-115.6537629240395
 30
0.0
 10
19.47430613923474
 20
-116.5068313392751
 30
0.0
 10
18.73286994835953
 20
-116.7521375816114
 30
0.0
  0
SPLINE
  5
11C
330
110
100
AcDbEntity
  8
0
  6
Continuous
 62
     7
370
    25
100
AcDbSpline
210
0.0
220
0.0
230
1.0
 70
     8
 71
     3
 72
    12
 73
     8
 74
     0
 42
0.000000001
 43
0.00000001
 40
0.0
 40
0.0
 40
0.0
 40
0.0
 40
0.0651556064917677
 40
0.2937807892958198
 40
0.5263482825491339
 40
0.7626216004368873
 40
1.0
 40
1.0
 40
1.0
 40
1.0
 10
-30.85814475985918
 20
-108.7411290209032
 30
0.0
 10
-31.10254504927267
 20
-108.4578614896975
 30
0.0
 10
-32.20452404684513
 20
-107.1806335828407
 30
0.0
 10
-32.98260103980519
 20
-104.6713586014788
 30
0.0
 10
-33.05353984915329
 20
-101.356276564112
 30
0.0
 10
-31.89176608262536
 20
-98.01632971956981
 30
0.0
 10
-30.08918924127807
 20
-95.95904423759384
 30
0.0
 10
-29.18579801535491
 20
-94.92800155968666
 30
0.0
  0
SPLINE
  5
11D
330
110
100
AcDbEntity
  8
0
  6
Continuous
 62
     7
370
    25
100
AcDbSpline
210
0.0
220
0.0
230
1.0
 70
     8
 71
     3
 72
    32
 73
    28
 74
     0
 42
0.000000001
 43
0.00000001
 40
0.0
 40
0.0
 40
0.0
 40
0.0
 40
0.0335405188916943
 40
0.0736213548607095
 40
0.1137556569598859
 40
0.1536085128087604
 40
0.1935103528885379
 40
0.2335577820899127
 40
0.27365307635111
 40
0.3135055785258447
 40
0.35340492109624
 40
0.3934467366463298
 40
0.4335368665381407
 40
0.4733896710487062
 40
0.5132925307808089
 40
0.5533521228570843
 40
0.5934668777685591
 40
0.6333208830162819
 40
0.6732357082244491
 40
0.7133467519497093
 40
0.7535295573413584
 40
0.7872805702448912
 40
0.8210822957004317
 40
0.8549392652883956
 40
0.8888572704187065
 40
0.9450585362617574
 40
1.0
 40
1.0
 40
1.0
 40
1.0
 10
-131.3106395512227
 20
-129.4448384011795
 30
0.0
 10
-129.1462401561127
 20
-130.4977272989334
 30
0.0
 10
-124.3953889113171
 20
-132.8088157892679
 30
0.0
 10
-116.742923641667
 20
-136.1799495360466
 30
0.0
 10
-108.4551880426705
 20
-139.5865781360149
 30
0.0
 10
-99.9501083576167
 20
-142.8145443951013
 30
0.0
 10
-91.24540628242961
 20
-145.87039223787
 30
0.0
 10
-82.32666285300724
 20
-148.7560978084409
 30
0.0
 10
-73.22749817027066
 20
-151.4589756782327
 30
0.0
 10
-63.96737583544963
 20
-153.9691169041471
 30
0.0
 10
-54.55056603483636
 20
-156.2866905794118
 30
0.0
 10
-44.96404306495177
 20
-158.4187660630186
 30
0.0
 10
-35.24023282476305
 20
-160.3587668042459
 30
0.0
 10
-25.39743388512633
 20
-162.1038313109166
 30
0.0
 10
-15.43749384860653
 20
-163.6521994620256
 30
0.0
 10
-5.346202281237618
 20
-165.0009741070541
 30
0.0
 10
4.83961189336174
 20
-166.1404238817638
 30
0.0
 10
15.09948967119001
 20
-167.0650144844241
 30
0.0
 10
25.43246094046438
 20
-167.7710378281031
 30
0.0
 10
35.85345783229829
 20
-168.2532529135963
 30
0.0
 10
45.78194607807929
 20
-168.4900398622096
 30
0.0
 10
55.18212771801272
 20
-168.5154840592869
 30
0.0
 10
64.03613233497238
 20
-168.3622300727108
 30
0.0
 10
72.89760181859062
 20
-168.0252939428461
 30
0.0
 10
83.67908448616515
 20
-167.3698568246381
 30
0.0
 10
96.23935956769164
 20
-166.2540498589705
 30
0.0
 10
105.6551620853883
 20
-164.8879683226133
 30
0.0
 10
110.3096993146012
 20
-164.2126698170249
 30
0.0
  0
SPLINE
  5
11E
330
110
100
AcDbEntity
  8
0
  6
Continuous
 62
     7
370
    25
100
AcDbSpline
210
0.0
220
0.0
230
1.0
 70
     8
 71
     3
 72
    23
 73
    19
 74
     0
 42
0.000000001
 43
0.00000001
 40
0.0
 40
0.0
 40
0.0
 40
0.0
 40
0.0656249186444287
 40
0.1309443297314117
 40
0.1952392396818414
 40
0.258444270338367
 40
0.321649300994909
 40
0.3859442109454423
 40
0.4512636220325292
 40
0.5168885406769774
 40
0.5825134593213867
 40
0.6478328704082658
 40
0.7121277803585919
 40
0.7753328110151012
 40
0.8385378416716269
 40
0.9028327516220566
 40
0.9681521627090397
 40
1.0
 40
1.0
 40
1.0
 40
1.0
 10
-20.34161679858069
 20
-105.9033335135472
 30
0.0
 10
-19.54539734367532
 20
-105.2295730213088
 30
0.0
 10
-17.95666512129189
 20
-103.885188633822
 30
0.0
 10
-14.67950723378538
 20
-102.234302888706
 30
0.0
 10
-10.95971140240641
 20
-100.9245449976573
 30
0.0
 10
-6.843044942043349
 20
-100.0311004204391
 30
0.0
 10
-2.468292366206888
 20
-99.57347373430999
 30
0.0
 10
2.044632036115764
 20
-99.56693629181976
 30
0.0
 10
6.533452452020851
 20
-100.0020281067267
 30
0.0
 10
10.80973725517491
 20
-100.8811062445112
 30
0.0
 10
14.63226742431076
 20
-102.2031101295588
 30
0.0
 10
17.86296366046029
 20
-103.8660291694856
 30
0.0
 10
20.39997722953296
 20
-105.7885454213925
 30
0.0
 10
22.13395584218327
 20
-107.9065528691273
 30
0.0
 10
23.03134062553315
 20
-110.1621161348435
 30
0.0
 10
23.00858678716239
 20
-112.478913314912
 30
0.0
 10
22.42199486988375
 20
-114.4142136061179
 30
0.0
 10
21.51794246472057
 20
-115.4835959621234
 30
0.0
 10
21.22162745752649
 20
-115.8341000243915
 30
0.0
  0
SPLINE
  5
11F
330
110
100
AcDbEntity
  8
0
  6
Continuous
 62
     7
370
    25
100
AcDbSpline
210
0.0
220
0.0
230
1.0
 70
     8
 71
     3
 72
     9
 73
     5
 74
     0
 42
0.000000001
 43
0.00000001
 40
0.0
 40
0.0
 40
0.0
 40
0.0
 40
0.482974187569384
 40
1.0
 40
1.0
 40
1.0
 40
1.0
 10
-22.8446284118363
 20
-110.2559872262006
 30
0.0
 10
-22.64492082533901
 20
-109.524623612221
 30
0.0
 10
-22.23142546339774
 20
-108.0103323047283
 30
0.0
 10
-20.98569276107202
 20
-106.6214312234704
 30
0.0
 10
-20.34161679858069
 20
-105.9033335135472
 30
0.0
  0
SPLINE
  5
120
330
110
100
AcDbEntity
  8
0
  6
Continuous
 62
     7
370
    25
100
AcDbSpline
210
0.0
220
0.0
230
1.0
 70
     8
 71
     3
 72
    14
 73
    10
 74
     0
 42
0.000000001
 43
0.00000001
 40
0.0
 40
0.0
 40
0.0
 40
0.0
 40
0.0067670249533697
 40
0.1715311241538789
 40
0.3391363418262319
 40
0.5094122489222074
 40
0.6804845590412447
 40
0.8515568691601804
 40
1.0
 40
1.0
 40
1.0
 40
1.0
 10
-6.96718899498102
 20
-112.9970621899295
 30
0.0
 10
-6.91162321991118
 20
-112.984881269979
 30
0.0
 10
-5.503137226747334
 20
-112.6761182749065
 30
0.0
 10
-2.444956027437139
 20
-112.4616248586313
 30
0.0
 10
2.037536747203231
 20
-112.4163482045136
 30
0.0
 10
6.537988519952461
 20
-112.8605250827029
 30
0.0
 10
10.79872859864779
 20
-113.7428787707363
 30
0.0
 10
14.50664878162429
 20
-114.987241547575
 30
0.0
 10
16.45129815957856
 20
-116.0661851371772
 30
0.0
 10
17.35475947957938
 20
-116.5674496893989
 30
0.0
  0
VIEWPORT
  5
13E
330
110
100
AcDbEntity
  8
0
100
AcDbViewport
 10
0.0
 20
0.0
 30
0.0
 40
205.6
 41
156.0
 68
     1
 69
     1
 12
0.0
 22
-10.7677612968
 13
0.0
 23
0.0
 14
10.0
 24
10.0
 15
10.0
 25
10.0
 16
0.0
 26
0.0
 36
1.0
 17
0.0
 27
0.0
 37
0.0
 42
50.0
 43
0.0
 44
0.0
 45
441.1402376099
 50
0.0
 51
0.0
 72
   100
 90
   557152
  1

281
     0
 71
     1
 74
     0
110
0.0
120
0.0
130
0.0
111
1.0
121
0.0
131
0.0
112
0.0
122
1.0
132
0.0
 79
     0
146
0.0
170
     0
 61
     5
348
2F
292
     1
282
     1
141
0.0
142
0.0
 63
   256
361
13F
  0
ENDBLK
  5
113
330
110
100
AcDbEntity
  8
0
100
AcDbBlockEnd
  0
BLOCK
  5
123
330
121
100
AcDbEntity
  8
0
100
AcDbBlockBegin
  2
*Paper_Space8
 70
     0
 10
0.0
 20
0.0
 30
0.0
  3
*Paper_Space8
  1

  0
SPLINE
  5
125
330
121
100
AcDbEntity
  8
0
  6
Continuous
 62
     7
370
    25
100
AcDbSpline
210
0.0
220
0.0
230
1.0
 70
     8
 71
     3
 72
    41
 73
    37
 74
     0
 42
0.000000001
 43
0.00000001
 40
0.0
 40
0.0
 40
0.0
 40
0.0
 40
0.0184407980216931
 40
0.0409890271655055
 40
0.0571798402683861
 40
0.06860038318205
 40
0.0804700444191706
 40
0.0931950403387225
 40
0.1152908511266834
 40
0.1408759093343034
 40
0.1682348503938797
 40
0.1882358573519586
 40
0.2039452059513392
 40
0.2190598959121807
 40
0.2344501859383327
 40
0.2534469036016168
 40
0.2775520946468675
 40
0.3100402900937209
 40
0.3326785132309844
 40
0.3576050654072462
 40
0.3883637518967157
 40
0.4148896865456659
 40
0.4382991425129624
 40
0.463937486530442
 40
0.4905992614717315
 40
0.5597607832984334
 40
0.6204131580366887
 40
0.6893218581184789
 40
0.7532023665258889
 40
0.793010489453727
 40
0.8367436383620159
 40
0.8835494602858853
 40
0.9095856888189534
 40
0.9343307145225822
 40
0.9637303451139381
 40
1.0
 40
1.0
 40
1.0
 40
1.0
 10
188.8634679089014
 20
-123.0581971246544
 30
0.0
 10
189.7838221539843
 20
-122.7064404896014
 30
0.0
 10
191.8295267438407
 20
-121.9245783243699
 30
0.0
 10
194.6734962477492
 20
-120.7956981966794
 30
0.0
 10
197.163142900719
 20
-119.7905906361024
 30
0.0
 10
199.1155521924896
 20
-118.9896910741954
 30
0.0
 10
200.8925757240387
 20
-118.2516795891801
 30
0.0
 10
203.1913319193789
 20
-117.2842736624688
 30
0.0
 10
206.1560952621741
 20
-116.0133045242313
 30
0.0
 10
209.8213201280128
 20
-114.4021640307213
 30
0.0
 10
213.3685471925259
 20
-112.7994561531699
 30
0.0
 10
216.4237318617434
 20
-111.385056093922
 30
0.0
 10
218.8745793180628
 20
-110.2296306362511
 30
0.0
 10
221.0952614566712
 20
-109.1663137624188
 30
0.0
 10
223.4664012401609
 20
-108.0134632129551
 30
0.0
 10
226.2548210928317
 20
-106.6343428045325
 30
0.0
 10
229.8421350974989
 20
-104.82200818714
 30
0.0
 10
233.5836552244567
 20
-102.8787840280011
 30
0.0
 10
237.3393327763665
 20
-100.8753937596269
 30
0.0
 10
240.9850052496569
 20
-98.88587747930069
 30
0.0
 10
244.7892160261779
 20
-96.75430983805195
 30
0.0
 10
248.4983561730756
 20
-94.61916842915555
 30
0.0
 10
251.9460557766215
 20
-92.58770614883713
 30
0.0
 10
255.3762363098094
 20
-90.5201330491644
 30
0.0
 10
260.8407019257266
 20
-87.14615752950502
 30
0.0
 10
267.7824689380624
 20
-82.6687039199826
 30
0.0
 10
276.4231392652549
 20
-76.76063722283617
 30
0.0
 10
284.652052816109
 20
-70.80230089654505
 30
0.0
 10
291.8317705315337
 20
-65.29300252778731
 30
0.0
 10
297.8422954477439
 20
-60.46885714717544
 30
0.0
 10
303.0735347561631
 20
-56.11636658628642
 30
0.0
 10
307.672193934609
 20
-52.13814036384146
 30
0.0
 10
311.4659210712729
 20
-48.75236256179411
 30
0.0
 10
314.5481647049945
 20
-45.93958481997742
 30
0.0
 10
317.9854097558425
 20
-42.73550185923992
 30
0.0
 10
320.4381347103581
 20
-40.36404170267372
 30
0.0
 10
321.7927936956657
 20
-39.05426589455594
 30
0.0
  0
SPLINE
  5
126
330
121
100
AcDbEntity
  8
0
  6
Continuous
 62
     7
370
    25
100
AcDbSpline
210
0.0
220
0.0
230
1.0
 70
     8
 71
     3
 72
    51
 73
    47
 74
     0
 42
0.000000001
 43
0.00000001
 40
0.0
 40
0.0
 40
0.0
 40
0.0
 40
0.0329390177524463
 40
0.059062981208083
 40
0.0783897791363578
 40
0.0912187812506139
 40
0.1028660153249666
 40
0.1153341751768961
 40
0.1479181821843061
 40
0.1847613876158636
 40
0.21076256875508
 40
0.2346004405451264
 40
0.2570030886750178
 40
0.2797797530172536
 40
0.3067333505957086
 40
0.3452929547739716
 40
0.3777374854717228
 40
0.4115960278134411
 40
0.4424092060758574
 40
0.4781185257535003
 40
0.5070645846043771
 40
0.527530438221133
 40
0.5535576972158514
 40
0.5788117041151272
 40
0.6005708183930448
 40
0.6189538319505384
 40
0.6352802450247179
 40
0.649973291949892
 40
0.6649658132245644
 40
0.686377783931182
 40
0.7125953785165234
 40
0.7357061625898055
 40
0.7545373415413656
 40
0.7715836009228246
 40
0.7877361874038026
 40
0.8098480694119605
 40
0.8369082395747289
 40
0.8654891662397958
 40
0.8937174827159007
 40
0.9175623375692613
 40
0.9289930218381749
 40
0.9401260884976237
 40
0.9510965370572084
 40
0.9625261445795268
 40
0.9789941907203038
 40
1.0
 40
1.0
 40
1.0
 40
1.0
 10
-323.0046374963169
 20
9.61199490118457
 30
0.0
 10
-321.8154995072449
 20
8.17090002737389
 30
0.0
 10
-319.6832551510161
 20
5.586871563300372
 30
0.0
 10
-316.8026672498345
 20
2.197743747456876
 30
0.0
 10
-314.6412007218347
 20
-0.3052921874897446
 30
0.0
 10
-313.0056124578914
 20
-2.175456805003279
 30
0.0
 10
-311.6196662926468
 20
-3.745521659056492
 30
0.0
 10
-309.4819476188365
 20
-6.144969793117412
 30
0.0
 10
-306.3656740208261
 20
-9.583173553135413
 30
0.0
 10
-302.6837354634764
 20
-13.53950211608038
 30
0.0
 10
-299.2973722848625
 20
-17.09233329517887
 30
0.0
 10
-296.4492125161906
 20
-20.02447803794834
 30
0.0
 10
-293.7039770144739
 20
-22.80148820608997
 30
0.0
 10
-290.8113356135364
 20
-25.67784009413528
 30
0.0
 10
-287.2402939078445
 20
-29.16240896879448
 30
0.0
 10
-283.2293862836401
 20
-32.98004206048685
 30
0.0
 10
-278.8852008156246
 20
-37.00476326863125
 30
0.0
 10
-274.8173534427869
 20
-40.67952506174259
 30
0.0
 10
-270.5690578816474
 20
-44.42370867321496
 30
0.0
 10
-266.486526292606
 20
-47.93132888662691
 30
0.0
 10
-262.8101932951753
 20
-51.01240817161911
 30
0.0
 10
-259.5328356953582
 20
-53.70731204629577
 30
0.0
 10
-256.3912160327245
 20
-56.24465905874426
 30
0.0
 10
-253.1667550608384
 20
-58.79765400120492
 30
0.0
 10
-250.259430882947
 20
-61.05782723989454
 30
0.0
 10
-247.7363316696329
 20
-62.98880944948962
 30
0.0
 10
-245.5193766709402
 20
-64.66260990512302
 30
0.0
 10
-243.4474550505269
 20
-66.20799104426264
 30
0.0
 10
-241.1403078040173
 20
-67.9088686723375
 30
0.0
 10
-238.2955266669889
 20
-69.97624513227548
 30
0.0
 10
-235.0566086577067
 20
-72.2860139882926
 30
0.0
 10
-231.9149593850977
 20
-74.48269756758921
 30
0.0
 10
-229.1845395840057
 20
-76.35996189479744
 30
0.0
 10
-226.7682819616945
 20
-77.99736683984166
 30
0.0
 10
-224.1946975795172
 20
-79.71812256887527
 30
0.0
 10
-221.1380483376693
 20
-81.73038815421238
 30
0.0
 10
-217.4663299190653
 20
-84.09937288579889
 30
0.0
 10
-213.4814992777694
 20
-86.61181773083341
 30
0.0
 10
-209.6247588933452
 20
-88.98652082858855
 30
0.0
 10
-206.5725863780816
 20
-90.82499497417258
 30
0.0
 10
-204.3402418078603
 20
-92.14970810919147
 30
0.0
 10
-202.7218371982875
 20
-93.10089261509744
 30
0.0
 10
-201.0987954931964
 20
-94.04588293240661
 30
0.0
 10
-199.2117395246083
 20
-95.1337120568262
 30
0.0
 10
-196.8350824847766
 20
-96.4891841886791
 30
0.0
 10
-195.0011273481671
 20
-97.51212652426882
 30
0.0
 10
-193.9731116450887
 20
-98.08553247261398
 30
0.0
  0
SPLINE
  5
127
330
121
100
AcDbEntity
  8
0
  6
Continuous
 62
     7
370
    25
100
AcDbSpline
210
0.0
220
0.0
230
1.0
 70
     8
 71
     3
 72
    87
 73
    83
 74
     0
 42
0.000000001
 43
0.00000001
 40
0.0
 40
0.0
 40
0.0
 40
0.0
 40
0.0128216218582797
 40
0.024317552180751
 40
0.0344216007292293
 40
0.0429644046088182
 40
0.0497282769680435
 40
0.0548259827188704
 40
0.0599266712429107
 40
0.065462231220836
 40
0.0778633769656894
 40
0.0909391235722831
 40
0.1039740603624199
 40
0.1169489148317003
 40
0.1341208758318642
 40
0.1511607085190159
 40
0.1691863720886956
 40
0.18868546498566
 40
0.2096954810838244
 40
0.2322451903160178
 40
0.252813346874389
 40
0.2745301358075972
 40
0.2974005167880729
 40
0.3214494862119681
 40
0.3467055066010911
 40
0.3731961519728226
 40
0.4009478111159203
 40
0.429612740834348
 40
0.457339324384673
 40
0.4837809141787706
 40
0.5088539783612405
 40
0.532495181853367
 40
0.5546588382917862
 40
0.5753138892200104
 40
0.5962257742411387
 40
0.6152862976535223
 40
0.6324962519274233
 40
0.6478656630506135
 40
0.6565917427841087
 40
0.6653828228568995
 40
0.675160451063456
 40
0.6859089311144699
 40
0.6976097700830043
 40
0.708073358282148
 40
0.7191713868861127
 40
0.7308901434378461
 40
0.7428317432779951
 40
0.7530686005014035
 40
0.7613651311257864
 40
0.7653572324674894
 40
0.7686902118850729
 40
0.7713687609048905
 40
0.7745825708468472
 40
0.7794024101390853
 40
0.7858120911618776
 40
0.79378992874879
 40
0.8032917800137989
 40
0.8189530734532099
 40
0.8328784797369921
 40
0.8451120885324755
 40
0.8556980059918812
 40
0.8647254028270498
 40
0.8725051735376667
 40
0.8791102412858633
 40
0.8831164990993411
 40
0.888115511223283
 40
0.8944589076208929
 40
0.9021430692134307
 40
0.9111765845114514
 40
0.9206896210194943
 40
0.9275776551662537
 40
0.9329301648816867
 40
0.9369854237982292
 40
0.9413954793132709
 40
0.9473139945361996
 40
0.9543978496633665
 40
0.9607781194604683
 40
0.9663124060508519
 40
0.9763057168969521
 40
0.9869748404285379
 40
0.9979049162481562
 40
1.0
 40
1.0
 40
1.0
 40
1.0
 10
254.4779343277728
 20
-63.16219617048251
 30
0.0
 10
252.5192241152173
 20
-63.62337306627179
 30
0.0
 10
248.8043245239433
 20
-64.49804347473268
 30
0.0
 10
243.1505850569849
 20
-65.6684438476636
 30
0.0
 10
237.9829564101171
 20
-66.65591372617114
 30
0.0
 10
233.4655887355825
 20
-67.45498862887416
 30
0.0
 10
229.7718258015733
 20
-68.06964019695825
 30
0.0
 10
226.6402188206688
 20
-68.56648926873105
 30
0.0
 10
223.693010531291
 20
-69.01520237464761
 30
0.0
 10
219.3252769867329
 20
-69.65213759035156
 30
0.0
 10
213.3362782281157
 20
-70.46357806836598
 30
0.0
 10
205.7615100644289
 20
-71.38708150544059
 30
0.0
 10
197.9523812990046
 20
-72.23914925451501
 30
0.0
 10
189.2088749471648
 20
-73.08950758636351
 30
0.0
 10
179.5279426591316
 20
-73.9066529707642
 30
0.0
 10
168.6813363677126
 20
-74.67548916027111
 30
0.0
 10
157.247901207136
 20
-75.3370880105364
 30
0.0
 10
144.8948563909692
 20
-75.89339400961775
 30
0.0
 10
131.5148285555441
 20
-76.32484375219765
 30
0.0
 10
117.8571140805003
 20
-76.59044188851091
 30
0.0
 10
104.0229796323458
 20
-76.69493036409506
 30
0.0
 10
90.11272677312449
 20
-76.6451000944002
 30
0.0
 10
75.46973635367966
 20
-76.42715833549806
 30
0.0
 10
60.10231219836219
 20
-76.02229698453893
 30
0.0
 10
44.01737796116259
 20
-75.411305744441
 30
0.0
 10
27.22514302848041
 20
-74.57455949593393
 30
0.0
 10
9.818620668054251
 20
-73.49686772276114
 30
0.0
 10
-7.716125998661797
 20
-72.19604448814611
 30
0.0
 10
-24.83207454048069
 20
-70.71999514314176
 30
0.0
 10
-41.05537387263873
 20
-69.13354580945318
 30
0.0
 10
-56.29163892975507
 20
-67.47452645180815
 30
0.0
 10
-70.51250291870929
 20
-65.77372821107018
 30
0.0
 10
-83.70316907513693
 20
-64.05910296000793
 30
0.0
 10
-96.21416764338204
 20
-62.30969053547539
 30
0.0
 10
-107.9803072188454
 20
-60.54996880316948
 30
0.0
 10
-118.9455321869645
 20
-58.80480491286909
 30
0.0
 10
-128.7311926697027
 20
-57.15951751382907
 30
0.0
 10
-136.4678887771401
 20
-55.79420192183056
 30
0.0
 10
-142.5692183970692
 20
-54.67858987419266
 30
0.0
 10
-147.5959091794692
 20
-53.73560622050086
 30
0.0
 10
-152.9532811520659
 20
-52.70295171279813
 30
0.0
 10
-158.7908592754144
 20
-51.54350012756564
 30
0.0
 10
-164.6939169692076
 20
-50.33196115183176
 30
0.0
 10
-170.5991410960908
 20
-49.07998594578629
 30
0.0
 10
-176.4468850744558
 20
-47.80029977926267
 30
0.0
 10
-182.4848649398242
 20
-46.43371028463881
 30
0.0
 10
-188.3005876582638
 20
-45.07027535363427
 30
0.0
 10
-193.4634622260051
 20
-43.81891539928851
 30
0.0
 10
-197.2360640922789
 20
-42.87849277914764
 30
0.0
 10
-199.830293552449
 20
-42.21956078225243
 30
0.0
 10
-201.4819311701752
 20
-41.79531208055712
 30
0.0
 10
-202.997433224327
 20
-41.40241484535959
 30
0.0
 10
-204.7408864997309
 20
-40.94630493693042
 30
0.0
 10
-207.0735926235351
 20
-40.32846200901821
 30
0.0
 10
-210.1484317528385
 20
-39.49981107883965
 30
0.0
 10
-213.9310156221249
 20
-38.45732081776202
 30
0.0
 10
-219.1093472125978
 20
-36.99022021766304
 30
0.0
 10
-225.0912991890718
 20
-35.22562687096929
 30
0.0
 10
-231.3154519419183
 20
-33.29750973497206
 30
0.0
 10
-236.633475082145
 20
-31.5746955734882
 30
0.0
 10
-241.1156072618453
 20
-30.06270897528496
 30
0.0
 10
-244.8590413914338
 20
-28.75370642617704
 30
0.0
 10
-247.9809131099698
 20
-27.62675742171564
 30
0.0
 10
-250.3761113095049
 20
-26.73735826307156
 30
0.0
 10
-252.3589290885717
 20
-25.98527415320692
 30
0.0
 10
-254.3089123420125
 20
-25.23184518822411
 30
0.0
 10
-256.717485906949
 20
-24.27838772461216
 30
0.0
 10
-259.5195387820663
 20
-23.13332961916044
 30
0.0
 10
-262.4061959000315
 20
-21.90562771202746
 30
0.0
 10
-264.9868386468767
 20
-20.76111909454089
 30
0.0
 10
-267.1424191202445
 20
-19.7673230238621
 30
0.0
 10
-268.71033895998
 20
-19.02105488901407
 30
0.0
 10
-269.98211625597
 20
-18.40031773180551
 30
0.0
 10
-271.2499911686828
 20
-17.76684797853401
 30
0.0
 10
-272.6783292356348
 20
-17.03223456414375
 30
0.0
 10
-274.175897683344
 20
-16.23216125207164
 30
0.0
 10
-275.5217242473563
 20
-15.4819841381485
 30
0.0
 10
-276.9279495874941
 20
-14.66603427708966
 30
0.0
 10
-278.2650704513132
 20
-13.84296776408303
 30
0.0
 10
-279.3759979100374
 20
-13.106060194038
 30
0.0
 10
-279.8330067381895
 20
-12.7631085086458
 30
0.0
 10
-279.7967656819623
 20
-12.7931166771141
 30
0.0
 10
-279.790936344699
 20
-12.79794346068137
 30
0.0
  0
SPLINE
  5
128
330
121
100
AcDbEntity
  8
0
  6
Continuous
 62
     7
370
    25
100
AcDbSpline
210
0.0
220
0.0
230
1.0
 70
     8
 71
     3
 72
    22
 73
    18
 74
     0
 42
0.000000001
 43
0.00000001
 40
0.0
 40
0.0
 40
0.0
 40
0.0
 40
0.0516471340520758
 40
0.1351827530199799
 40
0.1858367026518811
 40
0.2345733543709879
 40
0.2932992417056372
 40
0.3647022302841709
 40
0.4370012084364041
 40
0.4991824775148241
 40
0.5454849812337399
 40
0.5954938011843587
 40
0.6518232570765822
 40
0.7169820286799976
 40
0.796274346838003
 40
0.8903893891568553
 40
1.0
 40
1.0
 40
1.0
 40
1.0
 10
278.0787353514831
 20
-55.30707226658671
 30
0.0
 10
278.0864140362944
 20
-55.30216746842247
 30
0.0
 10
278.1065124555277
 20
-55.28932950304419
 30
0.0
 10
277.792909358061
 20
-55.46588735322945
 30
0.0
 10
277.3172029458595
 20
-55.7097679766464
 30
0.0
 10
276.7499729878128
 20
-55.98753745862145
 30
0.0
 10
275.8845213876005
 20
-56.38863644997264
 30
0.0
 10
274.7019909704094
 20
-56.90163817817731
 30
0.0
 10
273.3194644283112
 20
-57.46194904893648
 30
0.0
 10
271.9520103358955
 20
-57.98398098675155
 30
0.0
 10
270.618511112364
 20
-58.4695890174687
 30
0.0
 10
269.1916596396798
 20
-58.96772511503129
 30
0.0
 10
267.4585342856237
 20
-59.54491013596826
 30
0.0
 10
265.2591912057233
 20
-60.24008532882931
 30
0.0
 10
262.4064312973972
 20
-61.08606573711846
 30
0.0
 10
258.7982619965466
 20
-62.08632181535651
 30
0.0
 10
255.9892619627034
 20
-62.78583614196728
 30
0.0
 10
254.4779343277728
 20
-63.16219617048251
 30
0.0
  0
SPLINE
  5
129
330
121
100
AcDbEntity
  8
0
  6
Continuous
 62
     7
370
    25
100
AcDbSpline
210
0.0
220
0.0
230
1.0
 70
     8
 71
     3
 72
    67
 73
    63
 74
     0
 42
0.000000001
 43
0.00000001
 40
0.0
 40
0.0
 40
0.0
 40
0.0
 40
0.0102668174066951
 40
0.0213085842995531
 40
0.0294793084132427
 40
0.0353276569522132
 40
0.0410960839036084
 40
0.0470443104486052
 40
0.0531543387234506
 40
0.0882253635710165
 40
0.1014009038006065
 40
0.1149212311610729
 40
0.1286235969289388
 40
0.1409054300218199
 40
0.1513098842943287
 40
0.1615473267440368
 40
0.1717431579749332
 40
0.1827157460052153
 40
0.1963773409912851
 40
0.2102277137443951
 40
0.2224692063148989
 40
0.2322483110176068
 40
0.2424279599614237
 40
0.2545019370133276
 40
0.2778686625358666
 40
0.2958426346216655
 40
0.3127462021474076
 40
0.3335733262559655
 40
0.350540634629089
 40
0.3678119085281482
 40
0.3820917832571222
 40
0.3955007019888031
 40
0.4120954463231664
 40
0.4318598091720754
 40
0.4547498979907218
 40
0.4794945145786932
 40
0.5026573997776002
 40
0.5286446848640745
 40
0.552287945280329
 40
0.5738266424386286
 40
0.5949251747310511
 40
0.6167787317929735
 40
0.6394308072550313
 40
0.6604798249882988
 40
0.6865293697520378
 40
0.7174512482617981
 40
0.745550923453882
 40
0.7777966067721401
 40
0.7948497146436477
 40
0.8164338811714305
 40
0.8384434351436342
 40
0.8553700503710997
 40
0.8729577032346952
 40
0.8939433437124289
 40
0.9226275209878863
 40
0.9499133537042252
 40
0.9568389057985297
 40
0.963537147330548
 40
0.9699727940837644
 40
0.9776968132306645
 40
0.9891530269271536
 40
0.9999999999999999
 40
0.9999999999999999
 40
0.9999999999999999
 40
0.9999999999999999
 10
-175.1876148398498
 20
-107.9391978714304
 30
0.0
 10
-174.1048205851205
 20
-108.4745781848677
 30
0.0
 10
-171.8575016992381
 20
-109.5857498449149
 30
0.0
 10
-168.7192095374552
 20
-111.0875532017405
 30
0.0
 10
-166.0410469921159
 20
-112.3486215951459
 30
0.0
 10
-163.924769542843
 20
-113.330297163921
 30
0.0
 10
-162.043128167442
 20
-114.1929755250946
 30
0.0
 10
-160.1296681288677
 20
-115.0596913837294
 30
0.0
 10
-155.0601186958546
 20
-117.3274960766278
 30
0.0
 10
-149.1731215077304
 20
-119.849059733869
 30
0.0
 10
-142.4326236074616
 20
-122.588987831465
 30
0.0
 10
-138.0046951204181
 20
-124.335999805876
 30
0.0
 10
-133.6579220586401
 20
-125.9985023926918
 30
0.0
 10
-129.6331104639957
 20
-127.4917777938396
 30
0.0
 10
-125.9807097033835
 20
-128.8105505426582
 30
0.0
 10
-122.5488495654552
 20
-130.0188017703909
 30
0.0
 10
-119.0397113213877
 20
-131.2230654650956
 30
0.0
 10
-115.1364651575296
 20
-132.5266899095833
 30
0.0
 10
-110.812420694991
 20
-133.9247519913431
 30
0.0
 10
-106.3278662768298
 20
-135.3213933642284
 30
0.0
 10
-102.2683743149817
 20
-136.5400070660637
 30
0.0
 10
-98.59591633480572
 20
-137.6074936868683
 30
0.0
 10
-94.94139236944133
 20
-138.6381601931438
 30
0.0
 10
-89.73063653776485
 20
-140.0577391478714
 30
0.0
 10
-83.59575157446072
 20
-141.6355244719455
 30
0.0
 10
-76.86059775444626
 20
-143.2469919969874
 30
0.0
 10
-70.40878920359856
 20
-144.6931136249155
 30
0.0
 10
-64.04362946585623
 20
-146.015765556865
 30
0.0
 10
-57.63233202872838
 20
-147.2429140474163
 30
0.0
 10
-51.94021312516717
 20
-148.2474701981563
 30
0.0
 10
-46.65366563477504
 20
-149.106446819551
 30
0.0
 10
-41.48029757210905
 20
-149.8830698809187
 30
0.0
 10
-35.68830331587417
 20
-150.6742745806298
 30
0.0
 10
-28.77480131833315
 20
-151.5029984185457
 30
0.0
 10
-20.86739884547734
 20
-152.2998842276055
 30
0.0
 10
-12.50019736199186
 20
-152.9709513014337
 30
0.0
 10
-3.72143550413781
 20
-153.4974198046391
 30
0.0
 10
4.9590709602415
 20
-153.8404068924615
 30
0.0
 10
13.46293627349059
 20
-154.0029467727956
 30
0.0
 10
21.3738985083517
 20
-154.0105087945432
 30
0.0
 10
29.06771334499164
 20
-153.8899554030081
 30
0.0
 10
36.90818093235202
 20
-153.6393390562499
 30
0.0
 10
44.75506136996527
 20
-153.2591788800438
 30
0.0
 10
53.11148081504087
 20
-152.7212082194566
 30
0.0
 10
62.42631277584297
 20
-151.9631397218614
 30
0.0
 10
72.55452067131912
 20
-150.9323443356594
 30
0.0
 10
83.44723548010361
 20
-149.5892395072928
 30
0.0
 10
92.65724084166322
 20
-148.2499395772948
 30
0.0
 10
101.0742763241848
 20
-146.8740027524447
 30
0.0
 10
108.2618226893003
 20
-145.5963016721854
 30
0.0
 10
115.4228075065733
 20
-144.2062110105378
 30
0.0
 10
122.0905944930684
 20
-142.8124985989031
 30
0.0
 10
128.6102736656017
 20
-141.3622702031963
 30
0.0
 10
136.5041582408665
 20
-139.4857610191401
 30
0.0
 10
145.4821310220207
 20
-137.1708197947693
 30
0.0
 10
152.7784672611828
 20
-135.1193463238454
 30
0.0
 10
157.50381484059
 20
-133.7214613752506
 30
0.0
 10
159.8169668539117
 20
-133.0234761990066
 30
0.0
 10
162.2184587339279
 20
-132.2852676395335
 30
0.0
 10
165.1592383873611
 20
-131.361964964133
 30
0.0
 10
168.5989112611361
 20
-130.2583363223791
 30
0.0
 10
171.1463535024392
 20
-129.4003124653929
 30
0.0
 10
172.3852812701086
 20
-128.9830195570367
 30
0.0
  0
SPLINE
  5
12A
330
121
100
AcDbEntity
  8
0
  6
Continuous
 62
     7
370
    25
100
AcDbSpline
210
0.0
220
0.0
230
1.0
 70
     8
 71
     3
 72
    45
 73
    41
 74
     0
 42
0.000000001
 43
0.00000001
 40
0.0
 40
0.0
 40
0.0
 40
0.0
 40
0.0134536449165243
 40
0.0352419589188726
 40
0.0582665704853394
 40
0.0814183159957196
 40
0.1046851382506106
 40
0.1280538406008219
 40
0.1568191513854302
 40
0.1859886970272315
 40
0.2152908097126911
 40
0.2451348671818506
 40
0.2750854948577963
 40
0.3003509668094187
 40
0.3256956224274044
 40
0.3510877216869474
 40
0.3765935591089499
 40
0.4021421147438486
 40
0.4278005395829432
 40
0.4534979448439556
 40
0.4792614369072098
 40
0.5051722883578262
 40
0.5311414955204887
 40
0.5571457332846163
 40
0.5832411529642793
 40
0.6093729349239146
 40
0.6355974926429618
 40
0.6618583410126105
 40
0.688178742112591
 40
0.7176232952194778
 40
0.7471629941899202
 40
0.7767596714187268
 40
0.8065181968296932
 40
0.8363424692450804
 40
0.8663395369341007
 40
0.896414244555959
 40
0.9266171195209773
 40
0.9535856746118038
 40
0.9805184045775784
 40
1.0
 40
1.0
 40
1.0
 40
1.0
 10
188.8507702067103
 20
-123.025070621862
 30
0.0
 10
187.5563110142206
 20
-123.5234729828645
 30
0.0
 10
184.1654620683077
 20
-124.8290430079768
 30
0.0
 10
177.938846382048
 20
-126.7953584192726
 30
0.0
 10
170.2656677000375
 20
-128.9290782238161
 30
0.0
 10
161.9426147265922
 20
-130.9030517097092
 30
0.0
 10
153.1923447078288
 20
-132.6902618616199
 30
0.0
 10
143.3797007494876
 20
-134.4106925556154
 30
0.0
 10
132.4424561473361
 20
-136.0221494938698
 30
0.0
 10
120.3733961560932
 20
-137.4722118062535
 30
0.0
 10
107.8900805079731
 20
-138.6659121828258
 30
0.0
 10
95.09433016553481
 20
-139.6025191866364
 30
0.0
 10
82.74295879511145
 20
-140.2563717096157
 30
0.0
 10
70.9683647505977
 20
-140.6770462188013
 30
0.0
 10
59.81821929155807
 20
-140.9091790701196
 30
0.0
 10
48.61339374899463
 20
-140.9817576856614
 30
0.0
 10
37.37943780948498
 20
-140.8980335457447
 30
0.0
 10
26.12610228910668
 20
-140.6612516081564
 30
0.0
 10
14.88193053912607
 20
-140.2748727576385
 30
0.0
 10
3.659999975620533
 20
-139.7420147574701
 30
0.0
 10
-7.529634930590126
 20
-139.0655048526995
 30
0.0
 10
-18.67502774932843
 20
-138.2479459158976
 30
0.0
 10
-29.75692871427273
 20
-137.2913957239241
 30
0.0
 10
-40.75224103546936
 20
-136.1975688594298
 30
0.0
 10
-51.64204576620051
 20
-134.9670305250131
 30
0.0
 10
-62.4160757081446
 20
-133.5973870072633
 30
0.0
 10
-73.05087146016965
 20
-132.090948312873
 30
0.0
 10
-83.53605980413599
 20
-130.4503221231014
 30
0.0
 10
-94.25218284934317
 20
-128.6089598631512
 30
0.0
 10
-105.1613212522702
 20
-126.5482690590436
 30
0.0
 10
-116.2048820904327
 20
-124.2489945661455
 30
0.0
 10
-126.9719746325015
 20
-121.7809530205594
 30
0.0
 10
-137.4245044624568
 20
-119.1436187473358
 30
0.0
 10
-147.5374678631442
 20
-116.3321860507854
 30
0.0
 10
-157.2597747539408
 20
-113.3483635086489
 30
0.0
 10
-166.5499131732984
 20
-110.1893026199278
 30
0.0
 10
-175.032080731179
 20
-106.9813582770625
 30
0.0
 10
-182.6728488479273
 20
-103.7420926347966
 30
0.0
 10
-188.943661417195
 20
-100.8135607075283
 30
0.0
 10
-192.4722287816701
 20
-98.86732034205403
 30
0.0
 10
-193.9532827718019
 20
-98.05042023464458
 30
0.0
  0
LWPOLYLINE
  5
12B
330
121
100
AcDbEntity
  8
0
  6
Continuous
 62
     7
370
    25
100
AcDbPolyline
 90
      101
 70
   128
 43
0.0
 10
-320.379413753
 20
40.3640120739
 10
-324.0986415846
 20
36.5648202157
 10
-326.7835434536
 20
32.6516692574
 10
-328.4359515309
 20
28.6411437533
 10
-329.0576979875
 20
24.5498282575
 10
-328.650632657
 20
20.3942467053
 10
-327.2176651279
 20
16.1872859009
 10
-324.7633476098
 20
11.9361950955
 10
-321.2923736124
 20
7.6477385893
 10
-316.809436646
 20
3.3286806826
 10
-311.3200695089
 20
-1.0136933336
 10
-304.8395617253
 20
-5.3660416487
 10
-297.3894974818
 20
-9.7111150206
 10
-288.9915658759
 20
-14.0315990832
 10
-279.6674560051
 20
-18.3101794705
 10
-268.1590553273
 20
-23.0315469261
 10
-255.5908267293
 20
-27.6572056643
 10
-242.0375335025
 20
-32.1657300786
 10
-227.5739389384
 20
-36.5356945627
 10
-212.2707906323
 20
-40.7469909774
 10
-196.1721398316
 20
-44.7882697049
 10
-179.3111472156
 20
-48.6517540984
 10
-159.9230894703
 20
-52.6869656265
 10
-139.7030845395
 20
-56.4862569361
 10
-118.7500019359
 20
-60.0301250162
 10
-97.1851838335
 20
-63.2953061966
 10
-75.1300954841
 20
-66.2585162105
 10
-51.3411555669
 20
-69.0481564628
 10
-27.3011621642
 20
-71.460805504
 10
-3.1739250772
 20
-73.4853471509
 10
20.878056318
 20
-75.1107802351
 10
44.7355751946
 20
-76.3299033285
 10
68.3315990429
 20
-77.1400942872
 10
90.2823345461
 20
-77.5273291904
 10
111.8838667748
 20
-77.5470893278
 10
133.0276494001
 20
-77.1984089442
 10
153.5825858449
 20
-76.4807340168
 10
173.4174560295
 20
-75.3935127772
 10
191.4230217365
 20
-74.0250266523
 10
208.5848060874
 20
-72.337681775
 10
224.8224201195
 20
-70.3445054407
 10
240.0554748702
 20
-68.0585249453
 10
254.2124954938
 20
-65.4916651742
 10
267.2576636129
 20
-62.6514413729
 10
277.533898556
 20
-60.0042494174
 10
286.9565532511
 20
-57.1649684568
 10
295.5078287544
 20
-54.1380317614
 10
303.159971415
 20
-50.9324629306
 10
309.87880519
 20
-47.5602470658
 10
315.6300469969
 20
-44.0334186269
 10
320.379413753
 20
-40.3640120739
 10
324.0986415846
 20
-36.5648202157
 10
326.7835434536
 20
-32.6516692574
 10
328.4359515309
 20
-28.6411437533
 10
329.0576979875
 20
-24.5498282575
 10
328.650632657
 20
-20.3942467053
 10
327.2176651279
 20
-16.1872859009
 10
324.7633476098
 20
-11.9361950955
 10
321.2923736124
 20
-7.6477385893
 10
316.809436646
 20
-3.3286806826
 10
311.3200695089
 20
1.0136933336
 10
304.8395617253
 20
5.3660416487
 10
297.3894974818
 20
9.7111150206
 10
288.9915658759
 20
14.0315990832
 10
279.6674560051
 20
18.3101794705
 10
268.1590553273
 20
23.0315469261
 10
255.5908267293
 20
27.6572056643
 10
242.0375335025
 20
32.1657300786
 10
227.5739389384
 20
36.5356945627
 10
212.2707906323
 20
40.7469909774
 10
196.1721398316
 20
44.7882697049
 10
179.3111472155
 20
48.6517540984
 10
159.9230894703
 20
52.6869656265
 10
139.7030845395
 20
56.4862569361
 10
118.7500019359
 20
60.0301250162
 10
97.1851838335
 20
63.2953061966
 10
75.1300954841
 20
66.2585162105
 10
51.3411555669
 20
69.0481564628
 10
27.3011621642
 20
71.460805504
 10
3.1739250771
 20
73.4853471509
 10
-20.878056318
 20
75.1107802351
 10
-44.7355751946
 20
76.3299033285
 10
-68.3315990429
 20
77.1400942872
 10
-90.2823345461
 20
77.5273291904
 10
-111.8838667748
 20
77.5470893278
 10
-133.0276494001
 20
77.1984089442
 10
-153.5825858449
 20
76.4807340168
 10
-173.4174560295
 20
75.3935127772
 10
-191.4230217365
 20
74.0250266523
 10
-208.5848060874
 20
72.337681775
 10
-224.8224201195
 20
70.3445054407
 10
-240.0554748702
 20
68.0585249453
 10
-254.2124954938
 20
65.4916651742
 10
-267.2576636129
 20
62.6514413729
 10
-277.533898556
 20
60.0042494174
 10
-286.9565532511
 20
57.1649684568
 10
-295.5078287544
 20
54.1380317614
 10
-303.159971415
 20
50.9324629306
 10
-309.87880519
 20
47.5602470658
 10
-315.6300469969
 20
44.0334186269
 10
-320.379413753
 20
40.3640120739
  0
SPLINE
  5
12C
330
121
100
AcDbEntity
  8
0
  6
Continuous
 62
     7
370
    25
100
AcDbSpline
210
0.0
220
0.0
230
1.0
 70
     8
 71
     3
 72
    47
 73
    43
 74
     0
 42
0.000000001
 43
0.00000001
 40
0.0
 40
0.0
 40
0.0
 40
0.0
 40
0.002142627348751
 40
0.0344740939191906
 40
0.0668198378297
 40
0.0993053862690936
 40
0.1240306372681931
 40
0.1488047406744237
 40
0.1737168048873161
 40
0.1986711054467219
 40
0.2233946183412124
 40
0.2481542248069141
 40
0.2730183733239708
 40
0.2979156895574392
 40
0.3226384105960248
 40
0.3473915190046021
 40
0.3722349436317499
 40
0.3971080613510558
 40
0.4218305629878717
 40
0.4465821220663839
 40
0.4714220642646875
 40
0.4962919782671967
 40
0.5210146674580598
 40
0.545768408408006
 40
0.570619378275182
 40
0.5955045684098216
 40
0.6202280024780379
 40
0.6449891662116349
 40
0.669872054111728
 40
0.6947994593650098
 40
0.7157369678265607
 40
0.7367058038489814
 40
0.7577090428676511
 40
0.7787500126693304
 40
0.8136144706324445
 40
0.8487043874358714
 40
0.8781129766667684
 40
0.9077137282102165
 40
0.9331209940119171
 40
0.9586968836497111
 40
0.9813558879927411
 40
1.0
 40
1.0
 40
1.0
 40
1.0
 10
-184.854259419734
 20
-102.6549434683999
 30
0.0
 10
-184.7116378280357
 20
-102.7486608601116
 30
0.0
 10
-182.416908345571
 20
-104.2565395706176
 30
0.0
 10
-177.1224351647019
 20
-107.0255241255418
 30
0.0
 10
-169.0232898066527
 20
-110.9317282470576
 30
0.0
 10
-160.8255437269162
 20
-114.3470839978931
 30
0.0
 10
-152.8889131555241
 20
-117.3407806552027
 30
0.0
 10
-145.3529667027021
 20
-119.9480733103717
 30
0.0
 10
-137.4932328436892
 20
-122.4503023687863
 30
0.0
 10
-129.3605618194219
 20
-124.8332212839801
 30
0.0
 10
-120.9906471068507
 20
-127.0914380746129
 30
0.0
 10
-112.3979818576576
 20
-129.2253910375661
 30
0.0
 10
-103.5692878964472
 20
-131.2404886007563
 30
0.0
 10
-94.54517561545657
 20
-133.1293056656316
 30
0.0
 10
-85.35088232474381
 20
-134.8904789654683
 30
0.0
 10
-75.99425430483133
 20
-136.5244601903125
 30
0.0
 10
-66.4620910364379
 20
-138.0319836452583
 30
0.0
 10
-56.78942505683824
 20
-139.4044571661333
 30
0.0
 10
-46.99674279561072
 20
-140.6338044792762
 30
0.0
 10
-37.08830687801519
 20
-141.7204930184486
 30
0.0
 10
-27.05080700155794
 20
-142.6710129107634
 30
0.0
 10
-16.918758588225
 20
-143.4839252779729
 30
0.0
 10
-6.711597079132381
 20
-144.1592689293056
 30
0.0
 10
3.56820558936273
 20
-144.6963997687487
 30
0.0
 10
13.9341633515028
 20
-145.0926615046203
 30
0.0
 10
24.34708453086589
 20
-145.3439080293847
 30
0.0
 10
34.78490077297921
 20
-145.4482574511955
 30
0.0
 10
45.24523393824371
 20
-145.4043725935232
 30
0.0
 10
55.74103717257907
 20
-145.2093917722945
 30
0.0
 10
65.68802006387024
 20
-144.8792793752701
 30
0.0
 10
75.05785261058718
 20
-144.4389452219053
 30
0.0
 10
83.84082909033677
 20
-143.9109465844116
 30
0.0
 10
92.58566765498787
 20
-143.2639149200266
 30
0.0
 10
103.1718991386929
 20
-142.3234258844982
 30
0.0
 10
115.5252998080971
 20
-140.9579751765283
 30
0.0
 10
128.6700722275945
 20
-139.1113253346739
 30
0.0
 10
140.6995269642149
 20
-137.0417942832533
 30
0.0
 10
151.0493421844339
 20
-134.9087589880896
 30
0.0
 10
160.4374560279747
 20
-132.6188903835038
 30
0.0
 10
168.4899830464755
 20
-130.3031235825348
 30
0.0
 10
175.3512243464057
 20
-128.033721846512
 30
0.0
 10
179.1349364077485
 20
-126.5049370379732
 30
0.0
 10
180.8428935235413
 20
-125.8148478213712
 30
0.0
  0
SPLINE
  5
12D
330
121
100
AcDbEntity
  8
0
  6
Continuous
 62
     7
370
    25
100
AcDbSpline
210
0.0
220
0.0
230
1.0
 70
     8
 71
     3
 72
    14
 73
    10
 74
     0
 42
0.000000001
 43
0.00000001
 40
0.0
 40
0.0
 40
0.0
 40
0.0
 40
0.1365417982394542
 40
0.2890458625050962
 40
0.4477950313824664
 40
0.6113921432423927
 40
0.7796370495450362
 40
0.9521674168691698
 40
1.0
 40
1.0
 40
1.0
 40
1.0
 10
44.4759042684984
 20
-153.250276163461
 30
0.0
 10
42.035861040327
 20
-153.5147310932126
 30
0.0
 10
36.8705240627104
 20
-154.0745567601468
 30
0.0
 10
28.53548619520674
 20
-154.5088729662179
 30
0.0
 10
19.63006774145138
 20
-154.6800259669108
 30
0.0
 10
10.4117482452825
 20
-154.5437567393727
 30
0.0
 10
1.041461293282704
 20
-154.0869435020559
 30
0.0
 10
-6.113108016424874
 20
-153.5779765845155
 30
0.0
 10
-10.03235089977404
 20
-153.1369168621336
 30
0.0
 10
-10.8830724509271
 20
-153.0411792356726
 30
0.0
  0
VIEWPORT
  5
140
330
121
100
AcDbEntity
  8
0
100
AcDbViewport
 10
0.0
 20
0.0
 30
0.0
 40
205.6
 41
156.0
 68
     1
 69
     1
 12
0.0
 22
-10.7677612968
 13
0.0
 23
0.0
 14
10.0
 24
10.0
 15
10.0
 25
10.0
 16
0.0
 26
0.0
 36
1.0
 17
0.0
 27
0.0
 37
0.0
 42
50.0
 43
0.0
 44
0.0
 45
441.1402376099
 50
0.0
 51
0.0
 72
   100
 90
   557152
  1

281
     0
 71
     1
 74
     0
110
0.0
120
0.0
130
0.0
111
1.0
121
0.0
131
0.0
112
0.0
122
1.0
132
0.0
 79
     0
146
0.0
170
     0
 61
     5
348
2F
292
     1
282
     1
141
0.0
142
0.0
 63
   256
361
141
  0
ENDBLK
  5
124
330
121
100
AcDbEntity
  8
0
100
AcDbBlockEnd
  0
ENDSEC
  0
SECTION
  2
ENTITIES
  0
SPLINE
  5
73
330
1F
100
AcDbEntity
  8
0
  6
Continuous
 62
     7
370
    25
100
AcDbSpline
210
0.0
220
0.0
230
1.0
 70
     8
 71
     3
 72
    63
 73
    59
 74
     0
 42
0.000000001
 43
0.00000001
 40
0.0
 40
0.0
 40
0.0
 40
0.0
 40
0.0129163148967417
 40
0.0368694767908557
 40
0.0571710479799535
 40
0.073894773187378
 40
0.0870450058829207
 40
0.0988727531152832
 40
0.1109374198278431
 40
0.1233849308014244
 40
0.1425842752411895
 40
0.1641787792573597
 40
0.1852864711676969
 40
0.2048068510014978
 40
0.2223892701310122
 40
0.2378654964494405
 40
0.2522921898926865
 40
0.2675732341513601
 40
0.2855471901943838
 40
0.3067055310733443
 40
0.3292885672958754
 40
0.3572331903181297
 40
0.3824268510058266
 40
0.4055409845375236
 40
0.4265263002577528
 40
0.4358270841407916
 40
0.4452706716756378
 40
0.4577872808474285
 40
0.4724504802632857
 40
0.4847627652191741
 40
0.4945470196527924
 40
0.5104362303486479
 40
0.5360594297415195
 40
0.5540261141130861
 40
0.5776582554080264
 40
0.5997078547325544
 40
0.6200276910815165
 40
0.6470935538737241
 40
0.6611489103574938
 40
0.6746207667006024
 40
0.6945237311888786
 40
0.7152418069189567
 40
0.7317732851633609
 40
0.74670908800805
 40
0.7619507061639337
 40
0.7804855387767986
 40
0.8008852403726495
 40
0.8244045520678411
 40
0.8497092638559333
 40
0.8711018683671775
 40
0.887643200166531
 40
0.9020861883656984
 40
0.9194821964640996
 40
0.9391861680979785
 40
0.9509290791820122
 40
0.9639665840303433
 40
0.9803232687727907
 40
1.0
 40
1.0
 40
1.0
 40
1.0
 10
15.21339311061701
 20
-181.8447240659478
 30
0.0
 10
16.16787557094158
 20
-181.9873983832581
 30
0.0
 10
18.89243510665667
 20
-182.3946606304838
 30
0.0
 10
23.33020718409068
 20
-182.9693918958704
 30
0.0
 10
28.21603700065126
 20
-183.5558331259182
 30
0.0
 10
32.3999167633424
 20
-184.011418748721
 30
0.0
 10
36.00900135405853
 20
-184.3759987175146
 30
0.0
 10
39.22011203372225
 20
-184.6683731218783
 30
0.0
 10
42.34331776722962
 20
-184.9209824213984
 30
0.0
 10
46.03651014829386
 20
-185.186990695879
 30
0.0
 10
50.43010212645835
 20
-185.4563084059471
 30
0.0
 10
55.4188664815244
 20
-185.6974717555489
 30
0.0
 10
60.4565097802334
 20
-185.8730690336224
 30
0.0
 10
65.20263483288323
 20
-185.976947383757
 30
0.0
 10
69.50254483329228
 20
-186.0198583385521
 30
0.0
 10
73.38597204433061
 20
-186.0172648149556
 30
0.0
 10
77.07643514280025
 20
-185.9792015133553
 30
0.0
 10
80.96979553865263
 20
-185.901602448644
 30
0.0
 10
85.41056284705822
 20
-185.7651068422315
 30
0.0
 10
90.46283897093352
 20
-185.5449252122541
 30
0.0
 10
96.31578763236003
 20
-185.2047674180492
 30
0.0
 10
102.4914186820333
 20
-184.7413533654585
 30
0.0
 10
108.7166897963716
 20
-184.1616101085813
 30
0.0
 10
114.3507870800396
 20
-183.5425897842919
 30
0.0
 10
118.6430051299587
 20
-183.0054677127235
 30
0.0
 10
121.8923496513152
 20
-182.5641637416448
 30
0.0
 10
124.4568749137113
 20
-182.1984015871126
 30
0.0
 10
127.4167129055435
 20
-181.7527391544385
 30
0.0
 10
130.5987973011351
 20
-181.2425408473909
 30
0.0
 10
133.5739577783315
 20
-180.7362718170969
 30
0.0
 10
136.6646456417755
 20
-180.1849018003876
 30
0.0
 10
140.7887551440185
 20
-179.4095810692858
 30
0.0
 10
145.573658170943
 20
-178.4354507114227
 30
0.0
 10
150.9569165946
 20
-177.2491067512076
 30
0.0
 10
156.0294193932171
 20
-176.0490102441028
 30
0.0
 10
161.2774461640273
 20
-174.7118741007608
 30
0.0
 10
166.766227551605
 20
-173.2188336878783
 30
0.0
 10
171.5977586323599
 20
-171.8097650088774
 30
0.0
 10
175.8722753326745
 20
-170.4883326992227
 30
0.0
 10
179.5543453987721
 20
-169.3062526491436
 30
0.0
 10
183.7417985919462
 20
-167.9013383749555
 30
0.0
 10
188.2180576743104
 20
-166.3169190485955
 30
0.0
 10
192.1940370675361
 20
-164.8405753107835
 30
0.0
 10
195.6437596601759
 20
-163.5102425678979
 30
0.0
 10
199.3258967676546
 20
-162.038654009585
 30
0.0
 10
203.458141820106
 20
-160.317896424674
 30
0.0
 10
208.0790547016776
 20
-158.3033221946261
 30
0.0
 10
213.1829358927316
 20
-155.9641615532742
 30
0.0
 10
218.283095310857
 20
-153.4945014675493
 30
0.0
 10
222.8343526908858
 20
-151.1740529286523
 30
0.0
 10
226.553888265012
 20
-149.1974521403198
 30
0.0
 10
229.9525574226001
 20
-147.3301763397345
 30
0.0
 10
233.5401860814639
 20
-145.2910889307321
 30
0.0
 10
236.9068747469806
 20
-143.3007555743647
 30
0.0
 10
239.9403257718296
 20
-141.4474828103264
 30
0.0
 10
242.720467907807
 20
-139.7034490019009
 30
0.0
 10
246.0080250724339
 20
-137.583147128434
 30
0.0
 10
248.391191379766
 20
-135.9703853110203
 30
0.0
 10
249.6925646089542
 20
-135.0897060870056
 30
0.0
  0
SPLINE
  5
74
330
1F
100
AcDbEntity
  8
0
  6
Continuous
 62
     7
370
    25
100
AcDbSpline
210
0.0
220
0.0
230
1.0
 70
     8
 71
     3
 72
    61
 73
    57
 74
     0
 42
0.000000001
 43
0.00000001
 40
0.0
 40
0.0
 40
0.0
 40
0.0
 40
0.0174570638204131
 40
0.0317039363202616
 40
0.0427680648142578
 40
0.0506851888155895
 40
0.0572253341830906
 40
0.0944169411252212
 40
0.1308070161030736
 40
0.1695425891890215
 40
0.2165712280547115
 40
0.2541039051250978
 40
0.2913319900438749
 40
0.3367320282568246
 40
0.3455130404636125
 40
0.3536556049805004
 40
0.3619491239715649
 40
0.3707745507476709
 40
0.3811273150225774
 40
0.3936848310273132
 40
0.4060487751801584
 40
0.4167476622456091
 40
0.4257707564390799
 40
0.4343707349312195
 40
0.4445883988904359
 40
0.4573767041595158
 40
0.473083599941383
 40
0.4865551289651945
 40
0.4978474786055755
 40
0.5124831221318351
 40
0.5287179915774906
 40
0.541924519160355
 40
0.552682166155085
 40
0.5717245458452915
 40
0.5912201453999465
 40
0.6043537050303257
 40
0.6221250722700007
 40
0.6462142442920705
 40
0.6637262589777676
 40
0.6842913360270455
 40
0.7051040191759947
 40
0.7199854086830396
 40
0.732770005518081
 40
0.7513210326853378
 40
0.7666641466688636
 40
0.7843475459589349
 40
0.8025932718603126
 40
0.8159148670982281
 40
0.8397125360980273
 40
0.8647579472461417
 40
0.8905636326560646
 40
0.9172781159261826
 40
0.9437313618922097
 40
0.966988196104463
 40
0.9927821166251077
 40
1.0
 40
1.0
 40
1.0
 40
1.0
 10
-269.0134497499685
 20
20.29260574303956
 30
0.0
 10
-268.2494172606462
 20
18.9765937591017
 30
0.0
 10
-266.8618507352973
 20
16.58657212862119
 30
0.0
 10
-264.9524373849973
 20
13.38075153669065
 30
0.0
 10
-263.4528044473265
 20
10.89872189283041
 30
0.0
 10
-262.2915150509345
 20
8.999704791133539
 30
0.0
 10
-259.9282556430275
 20
5.169132539484387
 30
0.0
 10
-256.1928996079858
 20
-0.725496176139942
 30
0.0
 10
-250.7948172799201
 20
-8.871425775537595
 30
0.0
 10
-244.7453893180195
 20
-17.59587314384827
 30
0.0
 10
-238.4325037468179
 20
-26.24378513795718
 30
0.0
 10
-231.9940915794566
 20
-34.62761872212797
 30
0.0
 10
-225.4661374785434
 20
-42.75567674569039
 30
0.0
 10
-220.3522737642093
 20
-48.81495467563073
 30
0.0
 10
-216.8006037318866
 20
-52.88764241504099
 30
0.0
 10
-215.3552864526358
 20
-54.52811642614742
 30
0.0
 10
-213.8999383852305
 20
-56.16363102096481
 30
0.0
 10
-212.3077229856439
 20
-57.9344899849049
 30
0.0
 10
-210.4580982211456
 20
-59.96783142352966
 30
0.0
 10
-208.3868888846204
 20
-62.21329197949247
 30
0.0
 10
-206.2762861164312
 20
-64.4669453011375
 30
0.0
 10
-204.3611256741229
 20
-66.48323368534079
 30
0.0
 10
-202.6613712028922
 20
-68.25122893193968
 30
0.0
 10
-200.9806626544368
 20
-69.98057296393304
 30
0.0
 10
-199.0634179730573
 20
-71.93056255612207
 30
0.0
 10
-196.6966170365812
 20
-74.30384976507511
 30
0.0
 10
-194.1074839344002
 20
-76.8545984310925
 30
0.0
 10
-191.5897265532291
 20
-79.29037000890013
 30
0.0
 10
-189.1198600535155
 20
-81.64307754300742
 30
0.0
 10
-186.4602104760285
 20
-84.13569904861842
 30
0.0
 10
-183.6499936632237
 20
-86.71863888793504
 30
0.0
 10
-181.068322135169
 20
-89.04757573293365
 30
0.0
 10
-178.28539662795
 20
-91.51994241695782
 30
0.0
 10
-175.0812755858899
 20
-94.31270402131453
 30
0.0
 10
-171.6752380842437
 20
-97.20863661512274
 30
0.0
 10
-168.322822876901
 20
-99.99883298442977
 30
0.0
 10
-164.645439244031
 20
-102.9980904904015
 30
0.0
 10
-160.6301234857137
 20
-106.1837402812124
 30
0.0
 10
-156.37490905157
 20
-109.4667940171912
 30
0.0
 10
-152.3209444291286
 20
-112.5149547404115
 30
0.0
 10
-148.4006862219426
 20
-115.3801558249702
 30
0.0
 10
-144.9934918414105
 20
-117.8090711153328
 30
0.0
 10
-141.7270349334331
 20
-120.0926238040327
 30
0.0
 10
-138.4046674791961
 20
-122.3638862314449
 30
0.0
 10
-134.7034508043385
 20
-124.8326004304481
 30
0.0
 10
-131.0024367549803
 20
-127.2418631652026
 30
0.0
 10
-127.406964774614
 20
-129.5199444450047
 30
0.0
 10
-123.358318712165
 20
-132.0238727401099
 30
0.0
 10
-118.7488842499809
 20
-134.7931798427762
 30
0.0
 10
-113.2007206170091
 20
-137.9973035464058
 30
0.0
 10
-107.3655450989526
 20
-141.230212813428
 30
0.0
 10
-101.2723149609608
 20
-144.4567569699002
 30
0.0
 10
-95.55164072705438
 20
-147.3525197424511
 30
0.0
 10
-89.97039105927065
 20
-150.049876087191
 30
0.0
 10
-85.7727168859914
 20
-152.0213442125757
 30
0.0
 10
-83.27784487508269
 20
-153.1185337195219
 30
0.0
 10
-82.73235226077404
 20
-153.358429301307
 30
0.0
  0
SPLINE
  5
75
330
1F
100
AcDbEntity
  8
0
  6
Continuous
 62
     7
370
    25
100
AcDbSpline
210
0.0
220
0.0
230
1.0
 70
     8
 71
     3
 72
    81
 73
    77
 74
     0
 42
0.000000001
 43
0.00000001
 40
0.0
 40
0.0
 40
0.0
 40
0.0
 40
0.0101160736796547
 40
0.0183437790532312
 40
0.0246591602996094
 40
0.0291119774708254
 40
0.0331994189714975
 40
0.0375230623431847
 40
0.0420874193665053
 40
0.0510965666078985
 40
0.0609651946759733
 40
0.07169505400938
 40
0.0841454838398917
 40
0.096582370225525
 40
0.1090097483673183
 40
0.1214293127302335
 40
0.1338380019308714
 40
0.1456584587097035
 40
0.1530533285798255
 40
0.1590422398830839
 40
0.163590102449259
 40
0.1666718943390546
 40
0.1693178535297474
 40
0.1758994678780977
 40
0.1843514339890741
 40
0.1935202403232316
 40
0.2042646159905482
 40
0.2166341183635799
 40
0.2306784352769344
 40
0.2581640468159985
 40
0.2868525684994342
 40
0.3167217290292967
 40
0.3477359835501858
 40
0.3798473674109556
 40
0.4034273550896257
 40
0.4275380554827645
 40
0.4521832205750396
 40
0.4773655673910798
 40
0.5028665743458396
 40
0.5272043657359395
 40
0.5500604209247273
 40
0.5713756512503986
 40
0.5910936764964501
 40
0.6091706541025251
 40
0.6255736029540293
 40
0.6402786063773742
 40
0.6532691585532603
 40
0.6643287249940262
 40
0.6712809407834981
 40
0.6767050706799882
 40
0.6824385055844908
 40
0.6901575544986609
 40
0.6998565056911834
 40
0.7113005888283644
 40
0.7246325349055485
 40
0.7395858420063589
 40
0.7556858495355322
 40
0.7680946426921533
 40
0.781079374107078
 40
0.7946263327429008
 40
0.8087198569500057
 40
0.8231507710076907
 40
0.8356692716847727
 40
0.8457280397224262
 40
0.8642113406217892
 40
0.8849907257942201
 40
0.9060887289848533
 40
0.9238070838737082
 40
0.9407812772661318
 40
0.9565783415715492
 40
0.9717120481603269
 40
0.9861867590749487
 40
0.9930627605871957
 40
0.9963351190284588
 40
0.9991958948832581
 40
1.0
 40
1.0
 40
1.0
 40
1.0
 10
179.5875088628404
 20
-151.0255380156362
 30
0.0
 10
178.1623506347297
 20
-151.3880974361923
 30
0.0
 10
175.5780685822043
 20
-152.0455372804398
 30
0.0
 10
171.9858992824879
 20
-152.8461084888316
 30
0.0
 10
169.170257992956
 20
-153.4267895394132
 30
0.0
 10
166.9307409798529
 20
-153.8585024279759
 30
0.0
 10
164.9629905741061
 20
-154.2179772002877
 30
0.0
 10
162.9552221757516
 20
-154.56501186695
 30
0.0
 10
160.1553589947665
 20
-155.0205747739586
 30
0.0
 10
156.4335694297876
 20
-155.5700386868703
 30
0.0
 10
151.6564114503571
 20
-156.1793859300685
 30
0.0
 10
146.2471903675649
 20
-156.7567752246206
 30
0.0
 10
140.3534753605999
 20
-157.2550676284997
 30
0.0
 10
134.1214964951865
 20
-157.6423087766902
 30
0.0
 10
127.850110051311
 20
-157.8996963062822
 30
0.0
 10
121.5504740552576
 20
-158.0327703544144
 30
0.0
 10
115.3310458563543
 20
-158.0469943738978
 30
0.0
 10
109.9528897954612
 20
-157.9654703284039
 30
0.0
 10
105.6632468014281
 20
-157.8437087007396
 30
0.0
 10
102.610651271454
 20
-157.7296660811785
 30
0.0
 10
100.2924160643527
 20
-157.626996394112
 30
0.0
 10
98.54356153160202
 20
-157.5408852299472
 30
0.0
 10
96.44986908639453
 20
-157.4300805335822
 30
0.0
 10
93.44538364602826
 20
-157.2533842795476
 30
0.0
 10
89.33932143879261
 20
-156.9733231642084
 30
0.0
 10
84.53763745633931
 20
-156.5941669821585
 30
0.0
 10
79.08807167182623
 20
-156.0990936511892
 30
0.0
 10
72.83834633357593
 20
-155.4471294355509
 30
0.0
 10
63.81495953473777
 20
-154.3703456015223
 30
0.0
 10
52.15535626956611
 20
-152.7085576501196
 30
0.0
 10
38.05585315971606
 20
-150.2830752517417
 30
0.0
 10
23.59798106370992
 20
-147.3770928360467
 30
0.0
 10
8.840684230885131
 20
-143.984997067494
 30
0.0
 10
-4.662056000230605
 20
-140.4889763090414
 30
0.0
 10
-16.87072690797461
 20
-137.0202296791616
 30
0.0
 10
-27.7634088216779
 20
-133.6906990467004
 30
0.0
 10
-38.71152000677433
 20
-130.1038092167023
 30
0.0
 10
-49.66846993556145
 20
-126.2679969950047
 30
0.0
 10
-60.37762999356923
 20
-122.2734561875607
 30
0.0
 10
-70.56110688868058
 20
-118.2437922512696
 30
0.0
 10
-79.98185109496295
 20
-114.3113779924539
 30
0.0
 10
-88.61068016966928
 20
-110.5322366667274
 30
0.0
 10
-96.45634538387934
 20
-106.9440330361277
 30
0.0
 10
-103.5303066642932
 20
-103.5799444606029
 30
0.0
 10
-109.8471540516952
 20
-100.4685456495702
 30
0.0
 10
-115.4236701008144
 20
-97.63416931369787
 30
0.0
 10
-120.251747460227
 20
-95.11093880209955
 30
0.0
 10
-124.0595223515412
 20
-93.07237378097658
 30
0.0
 10
-126.9103756634899
 20
-91.51829303626518
 30
0.0
 10
-129.0962664567204
 20
-90.31178614605578
 30
0.0
 10
-131.3535746235986
 20
-89.0518214528981
 30
0.0
 10
-134.0983828524488
 20
-87.49892846969715
 30
0.0
 10
-137.4856148943721
 20
-85.54864352192781
 30
0.0
 10
-141.4830843436974
 20
-83.19730318975883
 30
0.0
 10
-146.0260145031319
 20
-80.45756946281736
 30
0.0
 10
-151.0175330746769
 20
-77.36019823034835
 30
0.0
 10
-155.8087817489672
 20
-74.29233011759072
 30
0.0
 10
-160.2999637858869
 20
-71.33203910694988
 30
0.0
 10
-164.4446410144785
 20
-68.52804118044654
 30
0.0
 10
-168.6917145466611
 20
-65.57455499509716
 30
0.0
 10
-173.005182991783
 20
-62.48627835877997
 30
0.0
 10
-177.128861252179
 20
-59.44198638587317
 30
0.0
 10
-180.7618530410726
 20
-56.67928140819042
 30
0.0
 10
-184.6916013824296
 20
-53.61440085115571
 30
0.0
 10
-189.2667104640402
 20
-49.92810219728312
 30
0.0
 10
-194.6507408504864
 20
-45.38391751695045
 30
0.0
 10
-199.7266857014986
 20
-40.87034390602375
 30
0.0
 10
-204.2635658294598
 20
-36.62416511143096
 30
0.0
 10
-208.1771506403722
 20
-32.77852363056118
 30
0.0
 10
-211.6685355843777
 20
-29.17836024350924
 30
0.0
 10
-214.8403083881605
 20
-25.74620850657726
 30
0.0
 10
-217.2262709346013
 20
-23.03063663011967
 30
0.0
 10
-218.6351157601449
 20
-21.36800556686694
 30
0.0
 10
-219.3247496481283
 20
-20.54591295967392
 30
0.0
 10
-219.5792939736582
 20
-20.2385142312833
 30
0.0
 10
-219.5516243727255
 20
-20.29338521004548
 30
0.0
 10
-219.5455534340345
 20
-20.30542435541634
 30
0.0
  0
SPLINE
  5
76
330
1F
100
AcDbEntity
  8
0
  6
Continuous
 62
     7
370
    25
100
AcDbSpline
210
0.0
220
0.0
230
1.0
 70
     8
 71
     3
 72
    15
 73
    11
 74
     0
 42
0.000000001
 43
0.00000001
 40
0.0
 40
0.0
 40
0.0
 40
0.0
 40
0.0066967923931315
 40
0.0757833385945027
 40
0.1525294049371177
 40
0.2402755439574904
 40
0.3401077396834178
 40
0.4502823562374214
 40
0.7026746952507306
 40
1.0
 40
1.0
 40
1.0
 40
1.0
 10
194.1071251429387
 20
-146.4766227995641
 30
0.0
 10
194.1127363109997
 20
-146.4738146369048
 30
0.0
 10
194.1762343297691
 20
-146.4420364468186
 30
0.0
 10
193.8918482726596
 20
-146.5342014389251
 30
0.0
 10
193.2551303337571
 20
-146.7528521099073
 30
0.0
 10
192.1601839585931
 20
-147.149595886381
 30
0.0
 10
190.7347487473603
 20
-147.6529264313894
 30
0.0
 10
188.390322276982
 20
-148.4499615227144
 30
0.0
 10
184.7441706500089
 20
-149.617466528474
 30
0.0
 10
181.3975776911713
 20
-150.5312829312101
 30
0.0
 10
179.5875088628404
 20
-151.0255380156362
 30
0.0
  0
SPLINE
  5
77
330
1F
100
AcDbEntity
  8
0
  6
Continuous
 62
     7
370
    25
100
AcDbSpline
210
0.0
220
0.0
230
1.0
 70
     8
 71
     3
 72
    17
 73
    13
 74
     0
 42
0.000000001
 43
0.00000001
 40
0.0
 40
0.0
 40
0.0
 40
0.0
 40
0.0827726252813127
 40
0.1833241413812648
 40
0.2842909619222734
 40
0.3854459439515872
 40
0.4872983903999892
 40
0.589321500284108
 40
0.692027344736764
 40
0.7948900124597199
 40
0.8981185300938709
 40
1.0
 40
1.0
 40
1.0
 40
1.0
 10
15.22011895916814
 20
-181.80321252856
 30
0.0
 10
12.27141664140012
 20
-181.36099357937
 30
0.0
 10
5.740654583816715
 20
-180.3815706253769
 30
0.0
 10
-4.185164761487281
 20
-178.4607285925061
 30
0.0
 10
-14.61139193444872
 20
-176.1967332440281
 30
0.0
 10
-24.8968985392178
 20
-173.6529654332761
 30
0.0
 10
-35.02646820002922
 20
-170.8575926845931
 30
0.0
 10
-45.00008858459889
 20
-167.81004480957
 30
0.0
 10
-54.78963856482994
 20
-164.5266522316081
 30
0.0
 10
-64.38297105177091
 20
-161.008623060741
 30
0.0
 10
-73.73158715294628
 20
-157.3065097080754
 30
0.0
 10
-79.7486232633283
 20
-154.6752792246365
 30
0.0
 10
-82.7373830538948
 20
-153.368304208308
 30
0.0
  0
LWPOLYLINE
  5
78
330
1F
100
AcDbEntity
  8
0
  6
Continuous
 62
     7
370
    25
100
AcDbPolyline
 90
      101
 70
   128
 43
0.0
 10
-242.1840725564
 20
139.8098891496
 10
-250.2633112302
 20
134.6963031687
 10
-257.5404873494
 20
129.1571633557
 10
-263.9968002849
 20
123.219083364
 10
-269.6134494079
 20
116.9086768465
 10
-274.3717250103
 20
110.2524659656
 10
-278.2583726451
 20
103.2714834356
 10
-281.2685935199
 20
95.9782533265
 10
-283.3983162101
 20
88.3845677816
 10
-284.6434692913
 20
80.5022189446
 10
-285.0001032322
 20
72.3440206816
 10
-284.465685507
 20
63.9346643852
 10
-283.0385977876
 20
55.3065043683
 10
-280.7172369825
 20
46.492022659
 10
-277.5
 20
37.5237012856
 10
-272.8384557981
 20
27.3376385229
 10
-267.0928097784
 20
17.0509223798
 10
-260.304758118
 20
6.7151304945
 10
-252.5159969939
 20
-3.6181594949
 10
-243.7661886934
 20
-13.900403353
 10
-234.0814742034
 20
-24.1032229077
 10
-223.4824786016
 20
-34.2064665759
 10
-210.7921853656
 20
-45.1810025102
 10
-197.0524244872
 20
-55.980744216
 10
-182.329236551
 20
-66.5514231831
 10
-166.7045027423
 20
-76.8274970924
 10
-150.2601910023
 20
-86.743361881
 10
-132.0213418587
 20
-96.7970702654
 10
-113.0883477364
 20
-106.3153331833
 10
-93.59679023
 20
-115.2416961234
 10
-73.6811985274
 20
-123.5201973726
 10
-53.4413334202
 20
-131.1111558135
 10
-32.9350543255
 20
-137.9945110016
 10
-13.4062929039
 20
-143.8194505564
 10
6.2577705023
 20
-148.9813944297
 10
25.9593947072
 20
-153.4530364843
 10
45.5797771697
 20
-157.2023644054
 10
65.0
 20
-160.1973401037
 10
83.1000945714
 20
-162.3138504929
 10
100.8247065541
 20
-163.7266336785
 10
118.08448664
 20
-164.4371592331
 10
134.790085521
 20
-164.4468967292
 10
150.8616392718
 20
-163.7576928641
 10
166.2572254998
 20
-162.3729028346
 10
178.8908394785
 20
-160.635139313
 10
190.9835661793
 20
-158.3914253921
 10
202.5137109261
 20
-155.6445313562
 10
213.4448400414
 20
-152.4021088344
 10
223.7310108146
 20
-148.6749587113
 10
233.3261220511
 20
-144.4739343591
 10
242.1840725564
 20
-139.8098891496
 10
250.2633112302
 20
-134.6963031687
 10
257.5404873494
 20
-129.1571633557
 10
263.9968002849
 20
-123.219083364
 10
269.6134494079
 20
-116.9086768465
 10
274.3717250103
 20
-110.2524659656
 10
278.2583726451
 20
-103.2714834356
 10
281.2685935199
 20
-95.9782533265
 10
283.3983162101
 20
-88.3845677816
 10
284.6434692913
 20
-80.5022189446
 10
285.0001032322
 20
-72.3440206816
 10
284.465685507
 20
-63.9346643852
 10
283.0385977876
 20
-55.3065043683
 10
280.7172369825
 20
-46.492022659
 10
277.5
 20
-37.5237012856
 10
272.8384557981
 20
-27.3376385229
 10
267.0928097784
 20
-17.0509223798
 10
260.304758118
 20
-6.7151304945
 10
252.5159969939
 20
3.6181594949
 10
243.7661886934
 20
13.900403353
 10
234.0814742034
 20
24.1032229077
 10
223.4824786015
 20
34.2064665759
 10
210.7921853656
 20
45.1810025102
 10
197.0524244872
 20
55.9807442161
 10
182.3292365509
 20
66.5514231831
 10
166.7045027423
 20
76.8274970924
 10
150.2601910023
 20
86.7433618811
 10
132.0213418587
 20
96.7970702654
 10
113.0883477364
 20
106.3153331833
 10
93.59679023
 20
115.2416961234
 10
73.6811985274
 20
123.5201973726
 10
53.4413334202
 20
131.1111558135
 10
32.9350543255
 20
137.9945110016
 10
13.4062929039
 20
143.8194505564
 10
-6.2577705023
 20
148.9813944297
 10
-25.9593947072
 20
153.4530364843
 10
-45.5797771697
 20
157.2023644054
 10
-65.0
 20
160.1973401037
 10
-83.1000945714
 20
162.3138504929
 10
-100.8247065541
 20
163.7266336785
 10
-118.08448664
 20
164.4371592331
 10
-134.790085521
 20
164.4468967292
 10
-150.8616392718
 20
163.7576928641
 10
-166.2572254998
 20
162.3729028346
 10
-178.8908394785
 20
160.635139313
 10
-190.9835661793
 20
158.3914253921
 10
-202.5137109261
 20
155.6445313562
 10
-213.4448400414
 20
152.4021088344
 10
-223.7310108146
 20
148.6749587113
 10
-233.3261220511
 20
144.4739343591
 10
-242.1840725564
 20
139.8098891496
  0
SPLINE
  5
79
330
1F
100
AcDbEntity
  8
0
  6
Continuous
 62
     7
370
    25
100
AcDbSpline
210
0.0
220
0.0
230
1.0
 70
    11
 71
     3
 72
    35
 73
    31
 74
     0
 42
0.000000001
 43
0.00000001
 40
0.0
 40
0.0
 40
0.0
 40
0.0
 40
0.0062500000000001
 40
0.0083333333333333
 40
0.0416666666666666
 40
0.0833333333333334
 40
0.1250000000000001
 40
0.1666666666666666
 40
0.2083333333333334
 40
0.2499999999996537
 40
0.2916666666666666
 40
0.3333333333333334
 40
0.375
 40
0.4166666666666666
 40
0.4583333333333334
 40
0.4999999999999999
 40
0.5416666666666667
 40
0.5833333333333333
 40
0.625
 40
0.6666666666666667
 40
0.7083333333333333
 40
0.7499999999996151
 40
0.7916666666666666
 40
0.8333333333333334
 40
0.875
 40
0.9166666666666666
 40
0.9583333333333334
 40
0.9916666666666667
 40
0.99375
 40
1.0
 40
1.0
 40
1.0
 40
1.0
 10
-23.33452377915602
 20
-84.51416358121527
 30
0.0
 10
-23.02420512370817
 20
-84.33502043459431
 30
0.0
 10
-22.60165605361347
 20
-84.10123776285731
 30
0.0
 10
-20.43393413010216
 20
-82.9668292206256
 30
0.0
 10
-16.00090673983254
 20
-81.14122987914475
 30
0.0
 10
-8.42429702353653
 20
-79.34370581917823
 30
0.0
 10
0.0000000000000798
 20
-78.70173294061878
 30
0.0
 10
8.42429702353668
 20
-79.34370581917827
 30
0.0
 10
16.54209314813952
 20
-81.26962445485671
 30
0.0
 10
23.62755254018597
 20
-84.34500167818514
 30
0.0
 10
28.95483936605334
 20
-88.43535031969466
 30
0.0
 10
32.29098977313673
 20
-93.12165427164354
 30
0.0
 10
33.40303990883118
 20
-97.98489742629003
 30
0.0
 10
32.29098977313669
 20
-102.8481405809365
 30
0.0
 10
28.95483936605327
 20
-107.5344445328854
 30
0.0
 10
23.62755254018586
 20
-111.6247931743949
 30
0.0
 10
16.54209314813939
 20
-114.7001703977233
 30
0.0
 10
8.424297023536534
 20
-116.6260890334017
 30
0.0
 10
-0.0000000000000729
 20
-117.2680619119612
 30
0.0
 10
-8.424297023536674
 20
-116.6260890334017
 30
0.0
 10
-16.54209314813952
 20
-114.7001703977233
 30
0.0
 10
-23.62755254018596
 20
-111.6247931743949
 30
0.0
 10
-28.95483936605334
 20
-107.5344445328853
 30
0.0
 10
-32.29098977313674
 20
-102.8481405809365
 30
0.0
 10
-33.40303990883118
 20
-97.98489742628999
 30
0.0
 10
-32.29098977313669
 20
-93.12165427164346
 30
0.0
 10
-29.17724939319217
 20
-88.74777058315784
 30
0.0
 10
-26.01487592973228
 20
-86.18863834341659
 30
0.0
 10
-24.04980977903677
 20
-84.93723911375507
 30
0.0
 10
-23.64484243460387
 20
-84.69330672783622
 30
0.0
 10
-23.33452377915602
 20
-84.51416358121527
 30
0.0
  0
SPLINE
  5
7A
330
1F
100
AcDbEntity
  8
0
  6
Continuous
 62
     7
370
    25
100
AcDbSpline
210
0.0
220
0.0
230
1.0
 70
     8
 71
     3
 72
    22
 73
    18
 74
     0
 42
0.000000001
 43
0.00000001
 40
0.0
 40
0.0
 40
0.0
 40
0.0
 40
0.0680236770683007
 40
0.135730679497472
 40
0.2023757326563272
 40
0.2678910686488473
 40
0.3334064046413843
 40
0.4000514578003468
 40
0.4677584602296259
 40
0.5357821372979467
 40
0.6038058143662272
 40
0.6715128167952908
 40
0.7381578699540386
 40
0.8036732059465419
 40
0.8691885419390619
 40
0.9358335950979172
 40
1.0
 40
1.0
 40
1.0
 40
1.0
 10
-16.26345596729056
 20
-96.76161225918634
 30
0.0
 10
-15.11636065293938
 20
-96.17588213046788
 30
0.0
 10
-12.8275101647642
 20
-95.00714865707337
 30
0.0
 10
-8.74979030500097
 20
-93.79810110425178
 30
0.0
 10
-4.444819364652163
 20
-93.02982818448791
 30
0.0
 10
0.000558744377625
 20
-92.77503849407893
 30
0.0
 10
4.442565117670112
 20
-93.03095322295773
 30
0.0
 10
8.757880985011113
 20
-93.79347973860898
 30
0.0
 10
12.79688394782514
 20
-95.02481214293311
 30
0.0
 10
16.37824495996249
 20
-96.69536278548912
 30
0.0
 10
19.27194078407977
 20
-98.76279344009485
 30
0.0
 10
21.40520638601064
 20
-101.0945835845254
 30
0.0
 10
22.72498703347878
 20
-103.5853233022622
 30
0.0
 10
23.17230304029741
 20
-106.1512426282858
 30
0.0
 10
22.71594543539368
 20
-108.711507138197
 30
0.0
 10
21.46490837904987
 20
-111.1751664373265
 30
0.0
 10
19.98766771243043
 20
-112.6450610280649
 30
0.0
 10
19.26304294211429
 20
-113.366082358083
 30
0.0
  0
SPLINE
  5
7B
330
1F
100
AcDbEntity
  8
0
  6
Continuous
 62
     7
370
    25
100
AcDbSpline
210
0.0
220
0.0
230
1.0
 70
     8
 71
     3
 72
    14
 73
    10
 74
     0
 42
0.000000001
 43
0.00000001
 40
0.0
 40
0.0
 40
0.0
 40
0.0
 40
0.1382247648308239
 40
0.2817889369864783
 40
0.4229195165189233
 40
0.5640500960514089
 40
0.7076142682073202
 40
0.8534660500302407
 40
1.0
 40
1.0
 40
1.0
 40
1.0
 10
-19.26304294211219
 20
-113.366082358086
 30
0.0
 10
-19.98765566022383
 20
-112.6450679838921
 30
0.0
 10
-21.46487175687243
 20
-111.1751875734987
 30
0.0
 10
-22.71609746427274
 20
-108.7114193960436
 30
0.0
 10
-23.17174441023815
 20
-106.1515650367894
 30
0.0
 10
-22.72708879037087
 20
-103.5841102914587
 30
0.0
 10
-21.397157385692
 20
-101.099228995395
 30
0.0
 10
-19.30255645534076
 20
-98.74512387037076
 30
0.0
 10
-17.27806391806833
 20
-97.42381038625746
 30
0.0
 10
-16.26345596729056
 20
-96.76161225918634
 30
0.0
  0
SPLINE
  5
7C
330
1F
100
AcDbEntity
  8
0
  6
Continuous
 62
     7
370
    25
100
AcDbSpline
210
0.0
220
0.0
230
1.0
 70
     8
 71
     3
 72
    17
 73
    13
 74
     0
 42
0.000000001
 43
0.00000001
 40
0.0
 40
0.0
 40
0.0
 40
0.0
 40
0.1064324833930139
 40
0.212369485363636
 40
0.3166449203189427
 40
0.4191527559804913
 40
0.5216605916420665
 40
0.6259360265975411
 40
0.7318730285683318
 40
0.8383055119613773
 40
0.9447379953543595
 40
1.0
 40
1.0
 40
1.0
 40
1.0
 10
-16.26345596729056
 20
-109.0097244374725
 30
0.0
 10
-15.11635989997567
 20
-108.4239940807291
 30
0.0
 10
-12.82750790937838
 20
-107.2552601523461
 30
0.0
 10
-8.749799218957552
 20
-106.0462159820106
 30
0.0
 10
-4.44478675188165
 20
-105.2779304864326
 30
0.0
 10
0.0004392223151919
 20
-105.023186868024
 30
0.0
 10
4.443014715119372
 20
-105.2789292466672
 30
0.0
 10
8.756159206365064
 20
-106.0421133345397
 30
0.0
 10
12.8034330042092
 20
-107.2709410270478
 30
0.0
 10
16.35369023027274
 20
-108.9509110353896
 30
0.0
 10
18.88497806648088
 20
-110.6601702468641
 30
0.0
 10
19.91196795475376
 20
-111.8632033838633
 30
0.0
 10
20.26296025303919
 20
-112.2743616342907
 30
0.0
  0
SPLINE
  5
7D
330
1F
100
AcDbEntity
  8
0
  6
Continuous
 62
     7
370
    25
100
AcDbSpline
210
0.0
220
0.0
230
1.0
 70
     8
 71
     3
 72
     9
 73
     5
 74
     0
 42
0.000000001
 43
0.00000001
 40
0.0
 40
0.0
 40
0.0
 40
0.0
 40
0.3417680176745931
 40
0.9999999999999999
 40
0.9999999999999999
 40
0.9999999999999999
 40
0.9999999999999999
 10
-20.26296025303918
 20
-112.2743616342905
 30
0.0
 10
-19.91463668134762
 20
-111.8614639460327
 30
0.0
 10
-18.89545538386529
 20
-110.6533412812287
 30
0.0
 10
-17.30822305170163
 20
-109.6621549687736
 30
0.0
 10
-16.26345596729056
 20
-109.0097244374725
 30
0.0
  0
SPLINE
  5
7E
330
1B
100
AcDbEntity
 67
     1
  8
0
  6
Continuous
 62
     7
370
    25
100
AcDbSpline
210
0.0
220
0.0
230
1.0
 70
    11
 71
     3
 72
    35
 73
    31
 74
     0
 42
0.000000001
 43
0.00000001
 40
0.0
 40
0.0
 40
0.0
 40
0.0
 40
0.0062500000000001
 40
0.0083333333333333
 40
0.0416666666666666
 40
0.0833333333333334
 40
0.1250000000000001
 40
0.1666666666666666
 40
0.2083333333333334
 40
0.2499999999996537
 40
0.2916666666666666
 40
0.3333333333333334
 40
0.375
 40
0.4166666666666666
 40
0.4583333333333334
 40
0.4999999999999999
 40
0.5416666666666667
 40
0.5833333333333333
 40
0.625
 40
0.6666666666666667
 40
0.7083333333333333
 40
0.7499999999996151
 40
0.7916666666666666
 40
0.8333333333333334
 40
0.875
 40
0.9166666666666666
 40
0.9583333333333334
 40
0.9916666666666667
 40
0.99375
 40
1.0
 40
1.0
 40
1.0
 40
1.0
 10
-33.0
 20
0.0000000000000064
 30
0.0
 10
-33.0
 20
0.4388568511917402
 30
0.0
 10
-32.98756784255958
 20
1.023999319447375
 30
0.0
 10
-32.84426857135492
 20
3.946321791925901
 30
0.0
 10
-31.94578056316644
 20
9.317081241428124
 30
0.0
 10
-28.7900553918828
 20
16.87630028773806
 30
0.0
 10
-23.61951603177938
 20
23.61951603177941
 30
0.0
 10
-16.87630028773803
 20
28.79005539188281
 30
0.0
 10
-8.777137023834543
 20
32.17118950397243
 30
0.0
 10
0.0000000000000134
 20
33.41440524801379
 30
0.0
 10
8.777137023834566
 20
32.17118950397242
 30
0.0
 10
16.87630028773805
 20
28.7900553918828
 30
0.0
 10
23.61951603177941
 20
23.61951603177939
 30
0.0
 10
28.79005539188281
 20
16.87630028773804
 30
0.0
 10
32.17118950397243
 20
8.777137023834543
 30
0.0
 10
33.4144052480138
 20
-0.0000000000000213
 30
0.0
 10
32.17118950397242
 20
-8.777137023834568
 30
0.0
 10
28.7900553918828
 20
-16.87630028773805
 30
0.0
 10
23.6195160317794
 20
-23.61951603177942
 30
0.0
 10
16.87630028773804
 20
-28.79005539188282
 30
0.0
 10
8.77713702383455
 20
-32.17118950397244
 30
0.0
 10
0.0000000000000043
 20
-33.4144052480138
 30
0.0
 10
-8.777137023834559
 20
-32.17118950397242
 30
0.0
 10
-16.87630028773805
 20
-28.79005539188281
 30
0.0
 10
-23.61951603177941
 20
-23.6195160317794
 30
0.0
 10
-28.79005539188281
 20
-16.87630028773804
 30
0.0
 10
-31.94578056316646
 20
-9.317081241428106
 30
0.0
 10
-32.84426857135495
 20
-3.94632179192588
 30
0.0
 10
-32.98756784255959
 20
-1.023999319447354
 30
0.0
 10
-33.0
 20
-0.4388568511917196
 30
0.0
 10
-33.0
 20
0.0000000000000064
 30
0.0
  0
LWPOLYLINE
  5
7F
330
1B
100
AcDbEntity
 67
     1
  8
0
  6
Continuous
 62
     7
370
    25
100
AcDbPolyline
 90
      101
 70
   128
 43
0.0
 10
-342.5
 20
0.0
 10
-341.9493675834
 20
-11.9764013228
 10
-340.3103399436
 20
-23.9069101261
 10
-337.6022214956
 20
-35.7456338905
 10
-333.8443166545
 20
-47.4466800963
 10
-329.0558820612
 20
-58.96433258
 10
-323.2533079067
 20
-70.2634565319
 10
-316.4485413849
 20
-81.3253182406
 10
-308.6531474961
 20
-92.1325948419
 10
-299.8786912409
 20
-102.6679634718
 10
-290.1380752964
 20
-112.9129359722
 10
-279.45975283
 20
-122.8354776437
 10
-267.8822095836
 20
-132.3948140827
 10
-255.4440985086
 20
-141.550025224
 10
-242.1840725564
 20
-150.2601910021
 10
-226.4111830379
 20
-159.4406614887
 10
-209.7484297026
 20
-167.9778442984
 10
-192.2884724931
 20
-175.8380467876
 10
-174.1239713522
 20
-182.9875763127
 10
-155.342432498
 20
-189.3950176002
 10
-135.9971001867
 20
-195.0440953321
 10
-116.1272417732
 20
-199.9247104179
 10
-93.7113862505
 20
-204.3937811358
 10
-70.7675465743
 20
-207.906664634
 10
-47.4088927722
 20
-210.4435863753
 10
-23.773604903
 20
-211.9821637839
 10
-0.0000000003
 20
-212.5
 10
25.2113760009
 20
-211.9177481801
 10
50.2577314714
 20
-210.1888065865
 10
74.9740458804
 20
-207.3398960183
 10
99.1966464789
 20
-203.3975967282
 10
122.806387223
 20
-198.3838457372
 10
145.7377837378
 20
-192.3149842425
 10
166.6815412876
 20
-185.6409025335
 10
186.9088832362
 20
-178.0590593216
 10
206.3172494524
 20
-169.6051213865
 10
224.7834226871
 20
-160.3238836438
 10
242.1840725564
 20
-150.2601910021
 10
257.5752383114
 20
-140.0539575341
 10
271.8389181011
 20
-129.25125067
 10
284.9137324702
 20
-117.917049958
 10
296.7383019634
 20
-106.1163349462
 10
307.2584162359
 20
-93.9078399359
 10
316.4485413849
 20
-81.3253182406
 10
323.2533079067
 20
-70.2634565319
 10
329.0558820612
 20
-58.96433258
 10
333.8443166545
 20
-47.4466800963
 10
337.6022214956
 20
-35.7456338905
 10
340.3103399436
 20
-23.9069101261
 10
341.9493675834
 20
-11.9764013228
 10
342.5
 20
0.0
 10
341.9493675834
 20
11.9764013228
 10
340.3103399436
 20
23.9069101261
 10
337.6022214956
 20
35.7456338905
 10
333.8443166545
 20
47.4466800963
 10
329.0558820612
 20
58.96433258
 10
323.2533079067
 20
70.2634565319
 10
316.4485413849
 20
81.3253182406
 10
308.6531474961
 20
92.1325948419
 10
299.8786912409
 20
102.6679634718
 10
290.1380752964
 20
112.9129359722
 10
279.45975283
 20
122.8354776437
 10
267.8822095836
 20
132.3948140827
 10
255.4440985086
 20
141.550025224
 10
242.1840725564
 20
150.2601910021
 10
226.4111830379
 20
159.4406614887
 10
209.7484297026
 20
167.9778442984
 10
192.2884724931
 20
175.8380467876
 10
174.1239713522
 20
182.9875763127
 10
155.342432498
 20
189.3950176002
 10
135.9971001867
 20
195.0440953321
 10
116.1272417732
 20
199.9247104179
 10
93.7113862505
 20
204.3937811358
 10
70.7675465743
 20
207.906664634
 10
47.4088927722
 20
210.4435863753
 10
23.773604903
 20
211.9821637839
 10
0.0000000002
 20
212.5
 10
-25.2113760009
 20
211.9177481801
 10
-50.2577314714
 20
210.1888065865
 10
-74.9740458805
 20
207.3398960183
 10
-99.1966464789
 20
203.3975967282
 10
-122.806387223
 20
198.3838457372
 10
-145.7377837378
 20
192.3149842425
 10
-166.6815412876
 20
185.6409025335
 10
-186.9088832362
 20
178.0590593216
 10
-206.3172494524
 20
169.6051213865
 10
-224.7834226871
 20
160.3238836438
 10
-242.1840725564
 20
150.2601910021
 10
-257.5752383114
 20
140.0539575341
 10
-271.8389181011
 20
129.25125067
 10
-284.9137324702
 20
117.917049958
 10
-296.7383019634
 20
106.1163349462
 10
-307.2584162359
 20
93.9078399359
 10
-316.4485413849
 20
81.3253182406
 10
-323.2533079067
 20
70.2634565319
 10
-329.0558820612
 20
58.96433258
 10
-333.8443166545
 20
47.4466800963
 10
-337.6022214956
 20
35.7456338905
 10
-340.3103399436
 20
23.9069101261
 10
-341.9493675834
 20
11.9764013228
 10
-342.5
 20
0.0
  0
SPLINE
  5
80
330
1B
100
AcDbEntity
 67
     1
  8
0
  6
Continuous
 62
     7
370
    25
100
AcDbSpline
210
0.0
220
0.0
230
1.0
 70
    11
 71
     3
 72
    35
 73
    31
 74
     0
 42
0.000000001
 43
0.00000001
 40
0.0
 40
0.0
 40
0.0
 40
0.0
 40
0.0062500000000001
 40
0.0083333333333333
 40
0.0416666666666666
 40
0.0833333333333334
 40
0.1250000000000001
 40
0.1666666666666666
 40
0.2083333333333334
 40
0.2499999999996537
 40
0.2916666666666666
 40
0.3333333333333334
 40
0.375
 40
0.4166666666666666
 40
0.4583333333333334
 40
0.4999999999999999
 40
0.5416666666666667
 40
0.5833333333333333
 40
0.625
 40
0.6666666666666667
 40
0.7083333333333333
 40
0.7499999999996151
 40
0.7916666666666666
 40
0.8333333333333334
 40
0.875
 40
0.9166666666666666
 40
0.9583333333333334
 40
0.9916666666666667
 40
0.99375
 40
1.0
 40
1.0
 40
1.0
 40
1.0
 10
-23.0
 20
0.0000000000000065
 30
0.0
 10
-23.0
 20
0.3058699265881847
 30
0.0
 10
-22.99133516299608
 20
0.7136964953724152
 30
0.0
 10
-22.89145991336859
 20
2.75046670346351
 30
0.0
 10
-22.26524099857055
 20
6.493723289480213
 30
0.0
 10
-20.06579618222134
 20
11.76226989751441
 30
0.0
 10
-16.46208693124018
 20
16.4620869312402
 30
0.0
 10
-11.76226989751438
 20
20.06579618222135
 30
0.0
 10
-6.117398531763469
 20
22.42234419973835
 30
0.0
 10
0.0000000000000087
 20
23.28882790013082
 30
0.0
 10
6.117398531763485
 20
22.42234419973835
 30
0.0
 10
11.7622698975144
 20
20.06579618222134
 30
0.0
 10
16.4620869312402
 20
16.46208693124018
 30
0.0
 10
20.06579618222136
 20
11.76226989751439
 30
0.0
 10
22.42234419973837
 20
6.117398531763469
 30
0.0
 10
23.28882790013084
 20
-0.0000000000000145
 30
0.0
 10
22.42234419973837
 20
-6.117398531763485
 30
0.0
 10
20.06579618222135
 20
-11.7622698975144
 30
0.0
 10
16.46208693124019
 20
-16.4620869312402
 30
0.0
 10
11.76226989751439
 20
-20.06579618222136
 30
0.0
 10
6.117398531763475
 20
-22.42234419973836
 30
0.0
 10
0.000000000000003
 20
-23.28882790013082
 30
0.0
 10
-6.11739853176348
 20
-22.42234419973835
 30
0.0
 10
-11.7622698975144
 20
-20.06579618222135
 30
0.0
 10
-16.4620869312402
 20
-16.46208693124019
 30
0.0
 10
-20.06579618222135
 20
-11.76226989751439
 30
0.0
 10
-22.26524099857056
 20
-6.493723289480199
 30
0.0
 10
-22.89145991336859
 20
-2.750466703463492
 30
0.0
 10
-22.99133516299607
 20
-0.7136964953723968
 30
0.0
 10
-23.0
 20
-0.3058699265881663
 30
0.0
 10
-23.0
 20
0.0000000000000065
 30
0.0
  0
VIEWPORT
  5
12E
330
1B
100
AcDbEntity
 67
     1
  8
0
100
AcDbViewport
 10
0.0
 20
0.0
 30
0.0
 40
205.6
 41
156.0
 68
     1
 69
     1
 12
0.0
 22
-10.7677612968
 13
0.0
 23
0.0
 14
10.0
 24
10.0
 15
10.0
 25
10.0
 16
0.0
 26
0.0
 36
1.0
 17
0.0
 27
0.0
 37
0.0
 42
50.0
 43
0.0
 44
0.0
 45
441.1402376099
 50
0.0
 51
0.0
 72
   100
 90
   557152
  1

281
     0
 71
     1
 74
     0
110
0.0
120
0.0
130
0.0
111
1.0
121
0.0
131
0.0
112
0.0
122
1.0
132
0.0
 79
     0
146
0.0
170
     0
 61
     5
348
2F
292
     1
282
     1
141
0.0
142
0.0
 63
   256
361
12F
  0
ENDSEC
  0
SECTION
  2
OBJECTS
  0
DICTIONARY
  5
C
330
0
100
AcDbDictionary
281
     1
  3
ACAD_DETAILVIEWSTYLE
350
14A
  3
ACAD_GROUP
350
D
  3
ACAD_LAYOUT
350
1A
  3
ACAD_MATERIAL
350
43
  3
ACAD_MLEADERSTYLE
350
6B
  3
ACAD_MLINESTYLE
350
17
  3
ACAD_PLOTSETTINGS
350
19
  3
ACAD_PLOTSTYLENAME
350
E
  3
ACAD_SCALELIST
350
47
  3
ACAD_SECTIONVIEWSTYLE
350
14B
  3
ACAD_TABLESTYLE
350
69
  3
ACAD_VISUALSTYLE
350
2A
  3
ACDB_RECOMPOSE_DATA
350
147
  3
AcDbVariableDictionary
350
142
  0
SUN
  5
6D
330
29
100
AcDbSun
 90
        1
290
     0
 63
     7
421
 16777215
 40
1.0
291
     1
 91
  2455826
 92
 54000000
292
     0
 70
     2
 71
   256
280
     1
  0
SUN
  5
131
330
130
100
AcDbSun
 90
        1
290
     0
 63
     7
421
 16777215
 40
1.0
291
     1
 91
  2455826
 92
 54000000
292
     0
 70
     2
 71
   256
280
     1
  0
SUN
  5
133
330
132
100
AcDbSun
 90
        1
290
     0
 63
     7
421
 16777215
 40
1.0
291
     1
 91
  2455826
 92
 54000000
292
     0
 70
     2
 71
   256
280
     1
  0
SUN
  5
135
330
134
100
AcDbSun
 90
        1
290
     0
 63
     7
421
 16777215
 40
1.0
291
     1
 91
  2455826
 92
 54000000
292
     0
 70
     2
 71
   256
280
     1
  0
SUN
  5
137
330
136
100
AcDbSun
 90
        1
290
     0
 63
     7
421
 16777215
 40
1.0
291
     1
 91
  2455826
 92
 54000000
292
     0
 70
     2
 71
   256
280
     1
  0
SUN
  5
139
330
138
100
AcDbSun
 90
        1
290
     0
 63
     7
421
 16777215
 40
1.0
291
     1
 91
  2455826
 92
 54000000
292
     0
 70
     2
 71
   256
280
     1
  0
SUN
  5
13B
330
13A
100
AcDbSun
 90
        1
290
     0
 63
     7
421
 16777215
 40
1.0
291
     1
 91
  2455826
 92
 54000000
292
     0
 70
     2
 71
   256
280
     1
  0
SUN
  5
13D
330
13C
100
AcDbSun
 90
        1
290
     0
 63
     7
421
 16777215
 40
1.0
291
     1
 91
  2455826
 92
 54000000
292
     0
 70
     2
 71
   256
280
     1
  0
SUN
  5
13F
330
13E
100
AcDbSun
 90
        1
290
     0
 63
     7
421
 16777215
 40
1.0
291
     1
 91
  2455826
 92
 54000000
292
     0
 70
     2
 71
   256
280
     1
  0
SUN
  5
141
330
140
100
AcDbSun
 90
        1
290
     0
 63
     7
421
 16777215
 40
1.0
291
     1
 91
  2455826
 92
 54000000
292
     0
 70
     2
 71
   256
280
     1
  0
SUN
  5
12F
330
12E
100
AcDbSun
 90
        1
290
     0
 63
     7
421
 16777215
 40
1.0
291
     1
 91
  2455826
 92
 54000000
292
     0
 70
     2
 71
   256
280
     1
  0
DICTIONARY
  5
14A
102
{ACAD_REACTORS
330
C
102
}
330
C
100
AcDbDictionary
281
     1
  0
DICTIONARY
  5
D
102
{ACAD_REACTORS
330
C
102
}
330
C
100
AcDbDictionary
281
     1
  0
DICTIONARY
  5
1A
102
{ACAD_REACTORS
330
C
102
}
330
C
100
AcDbDictionary
281
     1
  3
_Dimetrisch
350
122
  3
_Isometrisch
350
102
  3
_Links
350
96
  3
_Normal auf
350
B3
  3
_Oben
350
1E
  3
_Rechts
350
E3
  3
_Rückseite
350
CB
  3
_Trimetrisch
350
111
  3
_Unten
350
F8
  3
_Vorderseite
350
26
  3
Model
350
22
  0
DICTIONARY
  5
43
102
{ACAD_REACTORS
330
C
102
}
330
C
100
AcDbDictionary
281
     1
  3
ByBlock
350
45
  3
ByLayer
350
44
  3
Global
350
46
  0
DICTIONARY
  5
6B
102
{ACAD_REACTORS
330
C
102
}
330
C
100
AcDbDictionary
281
     1
  3
Standard
350
6C
  0
DICTIONARY
  5
17
102
{ACAD_REACTORS
330
C
102
}
330
C
100
AcDbDictionary
281
     1
  3
Standard
350
18
  0
DICTIONARY
  5
19
102
{ACAD_REACTORS
330
C
102
}
330
C
100
AcDbDictionary
281
     1
  0
ACDBDICTIONARYWDFLT
  5
E
102
{ACAD_REACTORS
330
C
102
}
330
C
100
AcDbDictionary
281
     1
  3
Normal
350
F
100
AcDbDictionaryWithDefault
340
F
  0
DICTIONARY
  5
47
102
{ACAD_REACTORS
330
C
102
}
330
C
100
AcDbDictionary
281
     1
  3
A0
350
48
  3
A1
350
49
  3
A2
350
4A
  3
A3
350
4B
  3
A4
350
4C
  3
A5
350
4D
  3
A6
350
4E
  3
A7
350
4F
  3
A8
350
50
  3
A9
350
51
  3
B0
350
52
  3
B1
350
53
  3
B2
350
54
  3
B3
350
55
  3
B4
350
56
  3
B5
350
57
  3
B6
350
58
  3
B7
350
59
  3
B8
350
5A
  3
B9
350
5B
  3
C0
350
5C
  3
C1
350
5D
  3
C2
350
5E
  3
C3
350
5F
  3
C4
350
60
  3
C5
350
61
  3
C6
350
62
  3
C7
350
63
  3
C8
350
64
  3
C9
350
65
  3
D0
350
66
  3
D1
350
67
  3
D2
350
68
  0
DICTIONARY
  5
14B
102
{ACAD_REACTORS
330
C
102
}
330
C
100
AcDbDictionary
281
     1
  0
DICTIONARY
  5
69
102
{ACAD_REACTORS
330
C
102
}
330
C
100
AcDbDictionary
281
     1
  3
Standard
350
6A
  0
DICTIONARY
  5
2A
102
{ACAD_REACTORS
330
C
102
}
330
C
100
AcDbDictionary
281
     1
  3
2dWireframe
350
2F
  3
Basic
350
32
  3
Brighten
350
36
  3
ColorChange
350
3A
  3
Conceptual
350
34
  3
Dim
350
35
  3
EdgeColorOff
350
3D
  3
Facepattern
350
39
  3
Flat
350
2B
  3
FlatWithEdges
350
2C
  3
Gouraud
350
2D
  3
GouraudWithEdges
350
2E
  3
Hidden
350
31
  3
JitterOff
350
3B
  3
Linepattern
350
38
  3
OverhangOff
350
3C
  3
Realistic
350
33
  3
Shaded
350
42
  3
Shaded with edges
350
41
  3
Shades of Gray
350
3E
  3
Sketchy
350
3F
  3
Thicken
350
37
  3
Wireframe
350
30
  3
X-Ray
350
40
  0
XRECORD
  5
147
102
{ACAD_REACTORS
330
C
102
}
330
C
100
AcDbXrecord
280
     1
 90
        1
330
6A
  0
DICTIONARY
  5
142
102
{ACAD_REACTORS
330
C
102
}
330
C
100
AcDbDictionary
281
     1
  3
CANNOSCALE
350
143
  3
CMLEADERSTYLE
350
149
  3
CTABLESTYLE
350
148
  0
LAYOUT
  5
122
102
{ACAD_REACTORS
330
1A
102
}
330
1A
100
AcDbPlotSettings
  1

  2
none_device
  4
ISO_A4_(210.00_x_297.00_MM)
  6

 40
7.5
 41
20.0
 42
7.5
 43
20.0
 44
210.0
 45
297.0
 46
0.0
 47
0.0
 48
0.0
 49
0.0
140
0.0
141
0.0
142
1.0
143
2.6653696498
 70
   688
 72
     1
 73
     1
 74
     1
  7

 75
     0
 76
     0
 77
     2
 78
   300
147
0.3751824818
148
342.5
149
212.5
100
AcDbLayout
  1
_Dimetrisch
 70
     1
 71
    10
 10
0.0
 20
0.0
 11
0.0
 21
0.0
 12
0.0
 22
0.0
 32
0.0
 14
0.0
 24
0.0
 34
0.0
 15
0.0
 25
0.0
 35
0.0
146
0.0
 13
0.0
 23
0.0
 33
0.0
 16
1.0
 26
0.0
 36
0.0
 17
0.0
 27
1.0
 37
0.0
 76
     0
330
121
331
140
  0
LAYOUT
  5
102
102
{ACAD_REACTORS
330
1A
102
}
330
1A
100
AcDbPlotSettings
  1

  2
none_device
  4
ISO_A4_(210.00_x_297.00_MM)
  6

 40
7.5
 41
20.0
 42
7.5
 43
20.0
 44
210.0
 45
297.0
 46
0.0
 47
0.0
 48
0.0
 49
0.0
140
0.0
141
0.0
142
1.0
143
2.6653696498
 70
   688
 72
     1
 73
     1
 74
     1
  7

 75
     0
 76
     0
 77
     2
 78
   300
147
0.3751824818
148
342.5
149
212.5
100
AcDbLayout
  1
_Isometrisch
 70
     1
 71
     8
 10
0.0
 20
0.0
 11
0.0
 21
0.0
 12
0.0
 22
0.0
 32
0.0
 14
0.0
 24
0.0
 34
0.0
 15
0.0
 25
0.0
 35
0.0
146
0.0
 13
0.0
 23
0.0
 33
0.0
 16
1.0
 26
0.0
 36
0.0
 17
0.0
 27
1.0
 37
0.0
 76
     0
330
101
331
13C
  0
LAYOUT
  5
96
102
{ACAD_REACTORS
330
1A
102
}
330
1A
100
AcDbPlotSettings
  1

  2
none_device
  4
ISO_A4_(210.00_x_297.00_MM)
  6

 40
7.5
 41
20.0
 42
7.5
 43
20.0
 44
210.0
 45
297.0
 46
0.0
 47
0.0
 48
0.0
 49
0.0
140
0.0
141
0.0
142
1.0
143
2.6653696498
 70
   688
 72
     1
 73
     1
 74
     1
  7

 75
     0
 76
     0
 77
     2
 78
   300
147
0.3751824818
148
342.5
149
212.5
100
AcDbLayout
  1
_Links
 70
     1
 71
     3
 10
0.0
 20
0.0
 11
0.0
 21
0.0
 12
0.0
 22
0.0
 32
0.0
 14
0.0
 24
0.0
 34
0.0
 15
0.0
 25
0.0
 35
0.0
146
0.0
 13
0.0
 23
0.0
 33
0.0
 16
1.0
 26
0.0
 36
0.0
 17
0.0
 27
1.0
 37
0.0
 76
     0
330
95
331
132
  0
LAYOUT
  5
B3
102
{ACAD_REACTORS
330
1A
102
}
330
1A
100
AcDbPlotSettings
  1

  2
none_device
  4
ISO_A4_(210.00_x_297.00_MM)
  6

 40
7.5
 41
20.0
 42
7.5
 43
20.0
 44
210.0
 45
297.0
 46
0.0
 47
0.0
 48
0.0
 49
0.0
140
0.0
141
0.0
142
1.0
143
2.6653696498
 70
   688
 72
     1
 73
     1
 74
     1
  7

 75
     0
 76
     0
 77
     2
 78
   300
147
0.3751824818
148
342.5
149
212.5
100
AcDbLayout
  1
_Normal auf
 70
     1
 71
     4
 10
0.0
 20
0.0
 11
0.0
 21
0.0
 12
0.0
 22
0.0
 32
0.0
 14
0.0
 24
0.0
 34
0.0
 15
0.0
 25
0.0
 35
0.0
146
0.0
 13
0.0
 23
0.0
 33
0.0
 16
1.0
 26
0.0
 36
0.0
 17
0.0
 27
1.0
 37
0.0
 76
     0
330
B2
331
134
  0
LAYOUT
  5
1E
102
{ACAD_REACTORS
330
1A
102
}
330
1A
100
AcDbPlotSettings
  1

  2
none_device
  4
ISO_A4_(210.00_x_297.00_MM)
  6

 40
7.5
 41
20.0
 42
7.5
 43
20.0
 44
210.0
 45
297.0
 46
0.0
 47
0.0
 48
0.0
 49
0.0
140
0.0
141
0.0
142
1.0
143
2.6653696498
 70
   688
 72
     1
 73
     1
 74
     1
  7

 75
     0
 76
     0
 77
     2
 78
   300
147
0.3751824818
148
342.5
149
212.5
100
AcDbLayout
  1
_Oben
 70
     1
 71
     1
 10
-395.8073929961
 20
-232.4902723735
 11
395.8073929961
 21
327.2373540856
 12
0.0
 22
0.0
 32
0.0
 14
-342.5
 24
-212.5
 34
0.0
 15
342.5
 25
212.5
 35
0.0
146
0.0
 13
0.0
 23
0.0
 33
0.0
 16
1.0
 26
0.0
 36
0.0
 17
0.0
 27
1.0
 37
0.0
 76
     0
330
1B
331
12E
  0
LAYOUT
  5
E3
102
{ACAD_REACTORS
330
1A
102
}
330
1A
100
AcDbPlotSettings
  1

  2
none_device
  4
ISO_A4_(210.00_x_297.00_MM)
  6

 40
7.5
 41
20.0
 42
7.5
 43
20.0
 44
210.0
 45
297.0
 46
0.0
 47
0.0
 48
0.0
 49
0.0
140
0.0
141
0.0
142
1.0
143
2.6653696498
 70
   688
 72
     1
 73
     1
 74
     1
  7

 75
     0
 76
     0
 77
     2
 78
   300
147
0.3751824818
148
342.5
149
212.5
100
AcDbLayout
  1
_Rechts
 70
     1
 71
     6
 10
0.0
 20
0.0
 11
0.0
 21
0.0
 12
0.0
 22
0.0
 32
0.0
 14
0.0
 24
0.0
 34
0.0
 15
0.0
 25
0.0
 35
0.0
146
0.0
 13
0.0
 23
0.0
 33
0.0
 16
1.0
 26
0.0
 36
0.0
 17
0.0
 27
1.0
 37
0.0
 76
     0
330
E2
331
138
  0
LAYOUT
  5
CB
102
{ACAD_REACTORS
330
1A
102
}
330
1A
100
AcDbPlotSettings
  1

  2
none_device
  4
ISO_A4_(210.00_x_297.00_MM)
  6

 40
7.5
 41
20.0
 42
7.5
 43
20.0
 44
210.0
 45
297.0
 46
0.0
 47
0.0
 48
0.0
 49
0.0
140
0.0
141
0.0
142
1.0
143
2.6653696498
 70
   688
 72
     1
 73
     1
 74
     1
  7

 75
     0
 76
     0
 77
     2
 78
   300
147
0.3751824818
148
342.5
149
212.5
100
AcDbLayout
  1
_Rückseite
 70
     1
 71
     5
 10
0.0
 20
0.0
 11
0.0
 21
0.0
 12
0.0
 22
0.0
 32
0.0
 14
0.0
 24
0.0
 34
0.0
 15
0.0
 25
0.0
 35
0.0
146
0.0
 13
0.0
 23
0.0
 33
0.0
 16
1.0
 26
0.0
 36
0.0
 17
0.0
 27
1.0
 37
0.0
 76
     0
330
CA
331
136
  0
LAYOUT
  5
111
102
{ACAD_REACTORS
330
1A
102
}
330
1A
100
AcDbPlotSettings
  1

  2
none_device
  4
ISO_A4_(210.00_x_297.00_MM)
  6

 40
7.5
 41
20.0
 42
7.5
 43
20.0
 44
210.0
 45
297.0
 46
0.0
 47
0.0
 48
0.0
 49
0.0
140
0.0
141
0.0
142
1.0
143
2.6653696498
 70
   688
 72
     1
 73
     1
 74
     1
  7

 75
     0
 76
     0
 77
     2
 78
   300
147
0.3751824818
148
342.5
149
212.5
100
AcDbLayout
  1
_Trimetrisch
 70
     1
 71
     9
 10
0.0
 20
0.0
 11
0.0
 21
0.0
 12
0.0
 22
0.0
 32
0.0
 14
0.0
 24
0.0
 34
0.0
 15
0.0
 25
0.0
 35
0.0
146
0.0
 13
0.0
 23
0.0
 33
0.0
 16
1.0
 26
0.0
 36
0.0
 17
0.0
 27
1.0
 37
0.0
 76
     0
330
110
331
13E
  0
LAYOUT
  5
F8
102
{ACAD_REACTORS
330
1A
102
}
330
1A
100
AcDbPlotSettings
  1

  2
none_device
  4
ISO_A4_(210.00_x_297.00_MM)
  6

 40
7.5
 41
20.0
 42
7.5
 43
20.0
 44
210.0
 45
297.0
 46
0.0
 47
0.0
 48
0.0
 49
0.0
140
0.0
141
0.0
142
1.0
143
2.6653696498
 70
   688
 72
     1
 73
     1
 74
     1
  7

 75
     0
 76
     0
 77
     2
 78
   300
147
0.3751824818
148
342.5
149
212.5
100
AcDbLayout
  1
_Unten
 70
     1
 71
     7
 10
0.0
 20
0.0
 11
0.0
 21
0.0
 12
0.0
 22
0.0
 32
0.0
 14
0.0
 24
0.0
 34
0.0
 15
0.0
 25
0.0
 35
0.0
146
0.0
 13
0.0
 23
0.0
 33
0.0
 16
1.0
 26
0.0
 36
0.0
 17
0.0
 27
1.0
 37
0.0
 76
     0
330
F7
331
13A
  0
LAYOUT
  5
26
102
{ACAD_REACTORS
330
1A
102
}
330
1A
100
AcDbPlotSettings
  1

  2
none_device
  4
ISO_A4_(210.00_x_297.00_MM)
  6

 40
7.5
 41
20.0
 42
7.5
 43
20.0
 44
210.0
 45
297.0
 46
0.0
 47
0.0
 48
0.0
 49
0.0
140
0.0
141
0.0
142
1.0
143
2.6653696498
 70
   688
 72
     1
 73
     1
 74
     1
  7

 75
     0
 76
     0
 77
     2
 78
   300
147
0.3751824818
148
342.5
149
212.5
100
AcDbLayout
  1
_Vorderseite
 70
     1
 71
     2
 10
0.0
 20
0.0
 11
0.0
 21
0.0
 12
0.0
 22
0.0
 32
0.0
 14
0.0
 24
0.0
 34
0.0
 15
0.0
 25
0.0
 35
0.0
146
0.0
 13
0.0
 23
0.0
 33
0.0
 16
1.0
 26
0.0
 36
0.0
 17
0.0
 27
1.0
 37
0.0
 76
     0
330
23
331
130
  0
LAYOUT
  5
22
102
{ACAD_REACTORS
330
1A
102
}
330
1A
100
AcDbPlotSettings
  1

  2
none_device
  4
ANSI_A_(11.00_x_8.50_Inches)
  6

 40
6.35
 41
19.05
 42
6.35000508
 43
19.05000254
 44
279.4
 45
215.9
 46
133.34999746
 47
94.1253080325
 48
0.0
 49
0.0
140
0.0
141
0.0
142
0.0191052562
143
1.0
 70
  1696
 72
     0
 73
     0
 74
     0
  7

 75
     0
 76
     0
 77
     2
 78
   300
147
0.0179189148
148
-1300.4909072572
149
0.0
100
AcDbLayout
  1
Model
 70
     1
 71
     0
 10
0.0
 20
0.0
 11
420.0
 21
297.0
 12
0.0
 22
0.0
 32
0.0
 14
-285.0001032322
 24
-185.9824193227
 34
0.0
 15
285.0001032322
 25
164.4468967292
 35
0.0
146
0.0
 13
0.0
 23
0.0
 33
0.0
 16
1.0
 26
0.0
 36
0.0
 17
0.0
 27
1.0
 37
0.0
 76
     0
330
1F
331
29
  0
MATERIAL
  5
45
102
{ACAD_REACTORS
330
43
102
}
330
43
100
AcDbMaterial
  1
ByBlock
 72
     1
 94
      127
  0
MATERIAL
  5
44
102
{ACAD_REACTORS
330
43
102
}
330
43
100
AcDbMaterial
  1
ByLayer
 72
     1
 94
      127
  0
MATERIAL
  5
46
102
{ACAD_REACTORS
330
43
102
}
330
43
100
AcDbMaterial
  1
Global
 72
     1
 94
      127
  0
MLEADERSTYLE
  5
6C
102
{ACAD_REACTORS
330
6B
102
}
330
6B
100
AcDbMLeaderStyle
170
     2
171
     1
172
     0
 90
        2
 40
0.0
 41
0.0
173
     1
 91
-1056964608
340
14
 92
       -2
290
     1
 42
2.0
291
     1
 43
8.0
  3
Standard
341
0
 44
4.0
300

342
11
174
     1
178
     6
175
     1
176
     0
 93
-1056964608
 45
4.0
292
     0
297
     0
 46
4.0
343
0
 94
-1056964608
 47
1.0
 49
1.0
140
1.0
293
     1
141
0.0
294
     1
177
     0
142
1.0
295
     0
296
     0
143
3.75
1001
ACAD_MLEADERVER
1070
     2
  0
MLINESTYLE
  5
18
102
{ACAD_REACTORS
330
17
102
}
330
17
100
AcDbMlineStyle
  2
Standard
 70
     0
  3

 62
   256
 51
90.0
 52
90.0
 71
     2
 49
0.5
 62
   256
  6
BYLAYER
 49
-0.5
 62
   256
  6
BYLAYER
  0
ACDBPLACEHOLDER
  5
F
102
{ACAD_REACTORS
330
E
102
}
330
E
  0
SCALE
  5
48
102
{ACAD_REACTORS
330
47
102
}
330
47
100
AcDbScale
 70
     0
300
1:1
140
1.0
141
1.0
290
     1
  0
SCALE
  5
49
102
{ACAD_REACTORS
330
47
102
}
330
47
100
AcDbScale
 70
     0
300
1:2
140
1.0
141
2.0
290
     0
  0
SCALE
  5
4A
102
{ACAD_REACTORS
330
47
102
}
330
47
100
AcDbScale
 70
     0
300
1:4
140
1.0
141
4.0
290
     0
  0
SCALE
  5
4B
102
{ACAD_REACTORS
330
47
102
}
330
47
100
AcDbScale
 70
     0
300
1:5
140
1.0
141
5.0
290
     0
  0
SCALE
  5
4C
102
{ACAD_REACTORS
330
47
102
}
330
47
100
AcDbScale
 70
     0
300
1:8
140
1.0
141
8.0
290
     0
  0
SCALE
  5
4D
102
{ACAD_REACTORS
330
47
102
}
330
47
100
AcDbScale
 70
     0
300
1:10
140
1.0
141
10.0
290
     0
  0
SCALE
  5
4E
102
{ACAD_REACTORS
330
47
102
}
330
47
100
AcDbScale
 70
     0
300
1:16
140
1.0
141
16.0
290
     0
  0
SCALE
  5
4F
102
{ACAD_REACTORS
330
47
102
}
330
47
100
AcDbScale
 70
     0
300
1:20
140
1.0
141
20.0
290
     0
  0
SCALE
  5
50
102
{ACAD_REACTORS
330
47
102
}
330
47
100
AcDbScale
 70
     0
300
1:30
140
1.0
141
30.0
290
     0
  0
SCALE
  5
51
102
{ACAD_REACTORS
330
47
102
}
330
47
100
AcDbScale
 70
     0
300
1:40
140
1.0
141
40.0
290
     0
  0
SCALE
  5
52
102
{ACAD_REACTORS
330
47
102
}
330
47
100
AcDbScale
 70
     0
300
1:50
140
1.0
141
50.0
290
     0
  0
SCALE
  5
53
102
{ACAD_REACTORS
330
47
102
}
330
47
100
AcDbScale
 70
     0
300
1:100
140
1.0
141
100.0
290
     0
  0
SCALE
  5
54
102
{ACAD_REACTORS
330
47
102
}
330
47
100
AcDbScale
 70
     0
300
2:1
140
2.0
141
1.0
290
     0
  0
SCALE
  5
55
102
{ACAD_REACTORS
330
47
102
}
330
47
100
AcDbScale
 70
     0
300
4:1
140
4.0
141
1.0
290
     0
  0
SCALE
  5
56
102
{ACAD_REACTORS
330
47
102
}
330
47
100
AcDbScale
 70
     0
300
8:1
140
8.0
141
1.0
290
     0
  0
SCALE
  5
57
102
{ACAD_REACTORS
330
47
102
}
330
47
100
AcDbScale
 70
     0
300
10:1
140
10.0
141
1.0
290
     0
  0
SCALE
  5
58
102
{ACAD_REACTORS
330
47
102
}
330
47
100
AcDbScale
 70
     0
300
100:1
140
100.0
141
1.0
290
     0
  0
SCALE
  5
59
102
{ACAD_REACTORS
330
47
102
}
330
47
100
AcDbScale
 70
     0
300
1/128" = 1'-0"
140
0.0078125
141
12.0
290
     0
  0
SCALE
  5
5A
102
{ACAD_REACTORS
330
47
102
}
330
47
100
AcDbScale
 70
     0
300
1/64" = 1'-0"
140
0.015625
141
12.0
290
     0
  0
SCALE
  5
5B
102
{ACAD_REACTORS
330
47
102
}
330
47
100
AcDbScale
 70
     0
300
1/32" = 1'-0"
140
0.03125
141
12.0
290
     0
  0
SCALE
  5
5C
102
{ACAD_REACTORS
330
47
102
}
330
47
100
AcDbScale
 70
     0
300
1/16" = 1'-0"
140
0.0625
141
12.0
290
     0
  0
SCALE
  5
5D
102
{ACAD_REACTORS
330
47
102
}
330
47
100
AcDbScale
 70
     0
300
3/32" = 1'-0"
140
0.09375
141
12.0
290
     0
  0
SCALE
  5
5E
102
{ACAD_REACTORS
330
47
102
}
330
47
100
AcDbScale
 70
     0
300
1/8" = 1'-0"
140
0.125
141
12.0
290
     0
  0
SCALE
  5
5F
102
{ACAD_REACTORS
330
47
102
}
330
47
100
AcDbScale
 70
     0
300
3/16" = 1'-0"
140
0.1875
141
12.0
290
     0
  0
SCALE
  5
60
102
{ACAD_REACTORS
330
47
102
}
330
47
100
AcDbScale
 70
     0
300
1/4" = 1'-0"
140
0.25
141
12.0
290
     0
  0
SCALE
  5
61
102
{ACAD_REACTORS
330
47
102
}
330
47
100
AcDbScale
 70
     0
300
3/8" = 1'-0"
140
0.375
141
12.0
290
     0
  0
SCALE
  5
62
102
{ACAD_REACTORS
330
47
102
}
330
47
100
AcDbScale
 70
     0
300
1/2" = 1'-0"
140
0.5
141
12.0
290
     0
  0
SCALE
  5
63
102
{ACAD_REACTORS
330
47
102
}
330
47
100
AcDbScale
 70
     0
300
3/4" = 1'-0"
140
0.75
141
12.0
290
     0
  0
SCALE
  5
64
102
{ACAD_REACTORS
330
47
102
}
330
47
100
AcDbScale
 70
     0
300
1" = 1'-0"
140
1.0
141
12.0
290
     0
  0
SCALE
  5
65
102
{ACAD_REACTORS
330
47
102
}
330
47
100
AcDbScale
 70
     0
300
1-1/2" = 1'-0"
140
1.5
141
12.0
290
     0
  0
SCALE
  5
66
102
{ACAD_REACTORS
330
47
102
}
330
47
100
AcDbScale
 70
     0
300
3" = 1'-0"
140
3.0
141
12.0
290
     0
  0
SCALE
  5
67
102
{ACAD_REACTORS
330
47
102
}
330
47
100
AcDbScale
 70
     0
300
6" = 1'-0"
140
6.0
141
12.0
290
     0
  0
SCALE
  5
68
102
{ACAD_REACTORS
330
47
102
}
330
47
100
AcDbScale
 70
     0
300
1'-0" = 1'-0"
140
12.0
141
12.0
290
     0
  0
TABLESTYLE
  5
6A
102
{ACAD_REACTORS
330
69
102
}
102
{ACAD_XDICTIONARY
360
144
102
}
330
69
100
AcDbTableStyle
  3
Standard
 70
     0
 71
     0
 40
0.06
 41
0.06
280
     0
281
     0
  7
Standard
140
4.5
170
     2
 62
     0
 63
   257
283
     0
 90
        4
 91
        0
  1

274
    -2
284
     1
 64
     0
275
    -2
285
     1
 65
     0
276
    -2
286
     1
 66
     0
277
    -2
287
     1
 67
     0
278
    -2
288
     1
 68
     0
279
    -2
289
     1
 69
     0
  7
Standard
140
6.0
170
     5
 62
     0
 63
   257
283
     0
 90
        4
 91
        0
  1

274
    -2
284
     1
 64
     0
275
    -2
285
     1
 65
     0
276
    -2
286
     1
 66
     0
277
    -2
287
     1
 67
     0
278
    -2
288
     1
 68
     0
279
    -2
289
     1
 69
     0
  7
Standard
140
4.5
170
     5
 62
     0
 63
   257
283
     0
 90
        4
 91
        0
  1

274
    -2
284
     1
 64
     0
275
    -2
285
     1
 65
     0
276
    -2
286
     1
 66
     0
277
    -2
287
     1
 67
     0
278
    -2
288
     1
 68
     0
279
    -2
289
     1
 69
     0
  0
VISUALSTYLE
  5
2F
102
{ACAD_REACTORS
330
2A
102
}
330
2A
100
AcDbVisualStyle
  2
2dWireframe
 70
     4
 71
     0
 72
     2
 73
     0
 90
        0
 40
0.6
 41
30.0
 62
     5
 63
     7
421
 16777215
 74
     1
 91
        4
 64
     7
 65
   257
 75
     1
175
     1
 42
1.0
 92
        0
 66
   257
 43
1.0
 76
     1
 77
     6
 78
     2
 67
     7
 79
     5
170
     0
171
     0
290
     0
174
     0
 93
        1
 44
0.0
173
     0
291
     0
 45
0.0
  0
VISUALSTYLE
  5
32
102
{ACAD_REACTORS
330
2A
102
}
330
2A
100
AcDbVisualStyle
  2
Basic
 70
     7
 71
     1
 72
     0
 73
     1
 90
        0
 40
0.6
 41
30.0
 62
     5
 63
     7
421
 16777215
 74
     0
 91
        4
 64
     7
 65
   257
 75
     1
175
     1
 42
1.0
 92
        8
 66
     7
 43
1.0
 76
     1
 77
     6
 78
     2
 67
     7
 79
     5
170
     0
171
     0
290
     0
174
     0
 93
        1
 44
0.0
173
     0
291
     1
 45
0.0
  0
VISUALSTYLE
  5
36
102
{ACAD_REACTORS
330
2A
102
}
330
2A
100
AcDbVisualStyle
  2
Brighten
 70
    12
 71
     2
 72
     2
 73
     0
 90
        0
 40
0.6
 41
30.0
 62
     5
 63
     7
421
 16777215
 74
     1
 91
        4
 64
     7
 65
   257
 75
     1
175
     1
 42
1.0
 92
        8
 66
     7
 43
1.0
 76
     1
 77
     6
 78
     2
 67
     7
 79
     5
170
     0
171
     0
290
     0
174
     0
 93
        1
 44
50.0
173
     0
291
     1
 45
0.0
  0
VISUALSTYLE
  5
3A
102
{ACAD_REACTORS
330
2A
102
}
330
2A
100
AcDbVisualStyle
  2
ColorChange
 70
    16
 71
     2
 72
     2
 73
     3
 90
        0
 40
0.6
 41
30.0
 62
     5
 63
     8
421
  8421504
 74
     1
 91
        4
 64
     7
 65
   257
 75
     1
175
     1
 42
1.0
 92
        8
 66
     8
424
  8421504
 43
1.0
 76
     1
 77
     6
 78
     2
 67
     7
 79
     5
170
     0
171
     0
290
     0
174
     0
 93
        1
 44
0.0
173
     0
291
     1
 45
0.0
  0
VISUALSTYLE
  5
34
102
{ACAD_REACTORS
330
2A
102
}
330
2A
100
AcDbVisualStyle
  2
Conceptual
 70
     9
 71
     3
 72
     2
 73
     0
 90
        0
 40
0.6
 41
30.0
 62
     5
 63
     7
421
 16777215
 74
     2
 91
        2
 64
     7
 65
   257
 75
     1
175
     1
 42
179.0
 92
        8
 66
     7
 43
1.0
 76
     1
 77
     6
 78
     2
 67
     7
 79
     3
170
     0
171
     0
290
     0
174
     0
 93
        1
 44
0.0
173
     0
291
     0
 45
0.0
  0
VISUALSTYLE
  5
35
102
{ACAD_REACTORS
330
2A
102
}
330
2A
100
AcDbVisualStyle
  2
Dim
 70
    11
 71
     2
 72
     2
 73
     0
 90
        0
 40
0.6
 41
30.0
 62
     5
 63
     7
421
 16777215
 74
     1
 91
        4
 64
     7
 65
   257
 75
     1
175
     1
 42
1.0
 92
        8
 66
     7
 43
1.0
 76
     1
 77
     6
 78
     2
 67
     7
 79
     5
170
     0
171
     0
290
     0
174
     0
 93
        1
 44
-50.0
173
     0
291
     1
 45
0.0
  0
VISUALSTYLE
  5
3D
102
{ACAD_REACTORS
330
2A
102
}
330
2A
100
AcDbVisualStyle
  2
EdgeColorOff
 70
    22
 71
     2
 72
     2
 73
     0
 90
        0
 40
0.6
 41
30.0
 62
     5
 63
     7
421
 16777215
 74
     1
 91
        4
 64
     7
 65
   257
 75
     1
175
     1
 42
1.0
 92
        8
 66
     7
 43
1.0
 76
     1
 77
     6
 78
     2
 67
     7
 79
     5
170
     0
171
     0
290
     0
174
     0
 93
        1
 44
0.0
173
     0
291
     1
 45
0.0
  0
VISUALSTYLE
  5
39
102
{ACAD_REACTORS
330
2A
102
}
330
2A
100
AcDbVisualStyle
  2
Facepattern
 70
    15
 71
     2
 72
     2
 73
     0
 90
        0
 40
0.6
 41
30.0
 62
     5
 63
     7
421
 16777215
 74
     1
 91
        4
 64
     7
 65
   257
 75
     1
175
     1
 42
1.0
 92
        8
 66
     7
 43
1.0
 76
     1
 77
     6
 78
     2
 67
     7
 79
     5
170
     0
171
     0
290
     0
174
     0
 93
        1
 44
0.0
173
     0
291
     1
 45
0.0
  0
VISUALSTYLE
  5
2B
102
{ACAD_REACTORS
330
2A
102
}
330
2A
100
AcDbVisualStyle
  2
Flat
 70
     0
 71
     2
 72
     1
 73
     1
 90
        2
 40
0.6
 41
30.0
 62
     5
 63
     7
421
 16777215
 74
     0
 91
        0
 64
     7
 65
   257
 75
     1
175
     1
 42
1.0
 92
        8
 66
     7
 43
1.0
 76
     1
 77
     6
 78
     2
 67
     7
 79
     5
170
     0
171
     0
290
     0
174
     0
 93
       13
 44
0.0
173
     0
291
     1
 45
0.0
  0
VISUALSTYLE
  5
2C
102
{ACAD_REACTORS
330
2A
102
}
330
2A
100
AcDbVisualStyle
  2
FlatWithEdges
 70
     1
 71
     2
 72
     1
 73
     1
 90
        2
 40
0.6
 41
30.0
 62
     5
 63
     7
421
 16777215
 74
     1
 91
        0
 64
     7
 65
   257
 75
     1
175
     1
 42
1.0
 92
        0
 66
   257
 43
1.0
 76
     1
 77
     6
 78
     2
 67
     7
 79
     5
170
     0
171
     0
290
     0
174
     0
 93
       13
 44
0.0
173
     0
291
     1
 45
0.0
  0
VISUALSTYLE
  5
2D
102
{ACAD_REACTORS
330
2A
102
}
330
2A
100
AcDbVisualStyle
  2
Gouraud
 70
     2
 71
     2
 72
     2
 73
     1
 90
        2
 40
0.6
 41
30.0
 62
     5
 63
     7
421
 16777215
 74
     0
 91
        0
 64
     7
 65
   257
 75
     1
175
     1
 42
1.0
 92
        0
 66
     7
 43
1.0
 76
     1
 77
     6
 78
     2
 67
     7
 79
     5
170
     0
171
     0
290
     0
174
     0
 93
       13
 44
0.0
173
     0
291
     1
 45
0.0
  0
VISUALSTYLE
  5
2E
102
{ACAD_REACTORS
330
2A
102
}
330
2A
100
AcDbVisualStyle
  2
GouraudWithEdges
 70
     3
 71
     2
 72
     2
 73
     1
 90
        2
 40
0.6
 41
30.0
 62
     5
 63
     7
421
 16777215
 74
     1
 91
        0
 64
     7
 65
   257
 75
     1
175
     1
 42
1.0
 92
        0
 66
   257
 43
1.0
 76
     1
 77
     6
 78
     2
 67
     7
 79
     5
170
     0
171
     0
290
     0
174
     0
 93
       13
 44
0.0
173
     0
291
     1
 45
0.0
  0
VISUALSTYLE
  5
31
102
{ACAD_REACTORS
330
2A
102
}
330
2A
100
AcDbVisualStyle
  2
Hidden
 70
     6
 71
     1
 72
     2
 73
     2
 90
        0
 40
0.6
 41
30.0
 62
     5
 63
     7
421
 16777215
 74
     2
 91
        2
 64
     7
 65
   257
 75
     2
175
     1
 42
40.0
 92
        0
 66
   257
 43
1.0
 76
     1
 77
     6
 78
     2
 67
     7
 79
     3
170
     0
171
     0
290
     0
174
     0
 93
        1
 44
0.0
173
     0
291
     0
 45
0.0
  0
VISUALSTYLE
  5
3B
102
{ACAD_REACTORS
330
2A
102
}
330
2A
100
AcDbVisualStyle
  2
JitterOff
 70
    20
 71
     2
 72
     2
 73
     0
 90
        0
 40
0.6
 41
30.0
 62
     5
 63
     7
421
 16777215
 74
     1
 91
        4
 64
     7
 65
   257
 75
     1
175
     1
 42
1.0
 92
       10
 66
     7
 43
1.0
 76
     1
 77
     6
 78
     2
 67
     7
 79
     5
170
     0
171
     0
290
     0
174
     0
 93
        1
 44
0.0
173
     0
291
     1
 45
0.0
  0
VISUALSTYLE
  5
38
102
{ACAD_REACTORS
330
2A
102
}
330
2A
100
AcDbVisualStyle
  2
Linepattern
 70
    14
 71
     2
 72
     2
 73
     0
 90
        0
 40
0.6
 41
30.0
 62
     5
 63
     7
421
 16777215
 74
     1
 91
        4
 64
     7
 65
   257
 75
     7
175
     7
 42
1.0
 92
        8
 66
     7
 43
1.0
 76
     1
 77
     6
 78
     2
 67
     7
 79
     5
170
     0
171
     0
290
     0
174
     0
 93
        1
 44
0.0
173
     0
291
     1
 45
0.0
  0
VISUALSTYLE
  5
3C
102
{ACAD_REACTORS
330
2A
102
}
330
2A
100
AcDbVisualStyle
  2
OverhangOff
 70
    21
 71
     2
 72
     2
 73
     0
 90
        0
 40
0.6
 41
30.0
 62
     5
 63
     7
421
 16777215
 74
     1
 91
        4
 64
     7
 65
   257
 75
     1
175
     1
 42
1.0
 92
        9
 66
     7
 43
1.0
 76
     1
 77
     6
 78
     2
 67
     7
 79
     5
170
     0
171
     0
290
     0
174
     0
 93
        1
 44
0.0
173
     0
291
     1
 45
0.0
  0
VISUALSTYLE
  5
33
102
{ACAD_REACTORS
330
2A
102
}
330
2A
100
AcDbVisualStyle
  2
Realistic
 70
     8
 71
     2
 72
     3
 73
     0
 90
        2
 40
0.6
 41
30.0
 62
     5
 63
     7
421
 16777215
 74
     0
 91
        0
 64
     7
 65
   257
 75
     1
175
     1
 42
1.0
 92
        8
 66
   257
 43
1.0
 76
     1
 77
     6
 78
     2
 67
     7
 79
     3
170
     0
171
     0
290
     0
174
     0
 93
       13
 44
0.0
173
     0
291
     0
 45
0.0
  0
VISUALSTYLE
  5
42
102
{ACAD_REACTORS
330
2A
102
}
330
2A
100
AcDbVisualStyle
  2
Shaded
 70
    27
 71
     2
 72
     2
 73
     1
 90
        2
 40
0.6
 41
30.0
 62
     5
 63
     7
421
 16777215
 74
     0
 91
        4
 64
     7
 65
   257
 75
     1
175
     1
 42
1.0
 92
        8
 66
   257
 43
1.0
 76
     1
 77
     6
 78
     2
 67
     8
425
  7895160
 79
     3
170
     0
171
     0
290
     0
174
     0
 93
        5
 44
0.0
173
     0
291
     0
 45
0.0
  0
VISUALSTYLE
  5
41
102
{ACAD_REACTORS
330
2A
102
}
330
2A
100
AcDbVisualStyle
  2
Shaded with edges
 70
    26
 71
     2
 72
     2
 73
     1
 90
        2
 40
0.6
 41
30.0
 62
     5
 63
     7
421
 16777215
 74
     1
 91
       10
 64
     7
 65
   257
 75
     2
175
     1
 42
1.0
 92
        8
 66
   257
 43
1.0
 76
     1
 77
     6
 78
     2
 67
     7
 79
     3
170
     0
171
     0
290
     0
174
     0
 93
        5
 44
0.0
173
     0
291
     0
 45
0.0
  0
VISUALSTYLE
  5
3E
102
{ACAD_REACTORS
330
2A
102
}
330
2A
100
AcDbVisualStyle
  2
Shades of Gray
 70
    23
 71
     2
 72
     2
 73
     3
 90
        0
 40
0.6
 41
30.0
 62
     5
 63
     7
421
 16777215
 74
     2
 91
        2
 64
     7
 65
     7
 75
     1
175
     1
 42
40.0
 92
        8
 66
     7
 43
1.0
 76
     1
 77
     6
 78
     2
 67
     7
 79
     3
170
     0
171
     0
290
     0
174
     0
 93
        1
 44
0.0
173
     0
291
     0
 45
0.0
  0
VISUALSTYLE
  5
3F
102
{ACAD_REACTORS
330
2A
102
}
330
2A
100
AcDbVisualStyle
  2
Sketchy
 70
    24
 71
     1
 72
     2
 73
     2
 90
        0
 40
0.6
 41
30.0
 62
     5
 63
     7
421
 16777215
 74
     2
 91
        2
 64
     7
 65
     7
 75
     1
175
     1
 42
40.0
 92
       11
 66
     7
 43
1.0
 76
     1
 77
     6
 78
     2
 67
     7
 79
     6
170
     0
171
     0
290
     0
174
     0
 93
        1
 44
0.0
173
     0
291
     0
 45
0.0
  0
VISUALSTYLE
  5
37
102
{ACAD_REACTORS
330
2A
102
}
330
2A
100
AcDbVisualStyle
  2
Thicken
 70
    13
 71
     2
 72
     2
 73
     0
 90
        0
 40
0.6
 41
30.0
 62
     5
 63
     7
421
 16777215
 74
     1
 91
        4
 64
     7
 65
   257
 75
     1
175
     1
 42
1.0
 92
       12
 66
     7
 43
1.0
 76
     1
 77
     6
 78
     2
 67
     7
 79
     5
170
     0
171
     0
290
     0
174
     0
 93
        1
 44
0.0
173
     0
291
     1
 45
0.0
  0
VISUALSTYLE
  5
30
102
{ACAD_REACTORS
330
2A
102
}
330
2A
100
AcDbVisualStyle
  2
Wireframe
 70
     5
 71
     0
 72
     2
 73
     0
 90
        0
 40
0.6
 41
30.0
 62
     5
 63
     7
421
 16777215
 74
     1
 91
        4
 64
     7
 65
   257
 75
     1
175
     1
 42
1.0
 92
        0
 66
   257
 43
1.0
 76
     1
 77
     6
 78
     2
 67
     7
 79
     3
170
     0
171
     0
290
     0
174
     0
 93
        1
 44
0.0
173
     0
291
     0
 45
0.0
  0
VISUALSTYLE
  5
40
102
{ACAD_REACTORS
330
2A
102
}
330
2A
100
AcDbVisualStyle
  2
X-Ray
 70
    25
 71
     2
 72
     2
 73
     1
 90
        1
 40
0.5
 41
30.0
 62
     5
 63
     7
421
 16777215
 74
     1
 91
        0
 64
     7
 65
   257
 75
     1
175
     1
 42
1.0
 92
        8
 66
     7
 43
1.0
 76
     1
 77
     6
 78
     2
 67
     7
 79
     3
170
     0
171
     0
290
     0
174
     0
 93
       13
 44
0.0
173
     0
291
     0
 45
0.0
  0
DICTIONARYVAR
  5
143
102
{ACAD_REACTORS
330
142
102
}
330
142
100
DictionaryVariables
280
     0
  1
1:1
  0
DICTIONARYVAR
  5
149
102
{ACAD_REACTORS
330
142
102
}
330
142
100
DictionaryVariables
280
     0
  1
Standard
  0
DICTIONARYVAR
  5
148
102
{ACAD_REACTORS
330
142
102
}
330
142
100
DictionaryVariables
280
     0
  1
Standard
  0
DICTIONARY
  5
144
330
6A
100
AcDbDictionary
280
     1
281
     1
  3
ACAD_ROUNDTRIP_2008_TABLESTYLE_CELLSTYLEMAP
360
145
  0
CELLSTYLEMAP
  5
145
102
{ACAD_REACTORS
330
144
102
}
330
144
100
AcDbCellStyleMap
 90
        3
300
CELLSTYLE
  1
TABLEFORMAT_BEGIN
 90
        5
170
     1
 91
        0
 92
    32768
 62
   257
 93
        1
300
CONTENTFORMAT
  1
CONTENTFORMAT_BEGIN
 90
        0
 91
        0
 92
        4
 93
        0
300

 40
0.0
140
1.0
 94
        5
 62
     0
340
11
144
6.0
309
CONTENTFORMAT_END
171
     1
301
MARGIN
  1
CELLMARGIN_BEGIN
 40
1.5
 40
1.5
 40
1.5
 40
1.5
 40
1.5
 40
1.5
309
CELLMARGIN_END
 94
        6
 95
        1
302
GRIDFORMAT
  1
GRIDFORMAT_BEGIN
 90
        0
 91
        1
 62
     0
 92
       -2
340
14
 93
        0
 40
0.045
309
GRIDFORMAT_END
 95
        2
302
GRIDFORMAT
  1
GRIDFORMAT_BEGIN
 90
        0
 91
        1
 62
     0
 92
       -2
340
14
 93
        0
 40
0.045
309
GRIDFORMAT_END
 95
        4
302
GRIDFORMAT
  1
GRIDFORMAT_BEGIN
 90
        0
 91
        1
 62
     0
 92
       -2
340
14
 93
        0
 40
0.045
309
GRIDFORMAT_END
 95
        8
302
GRIDFORMAT
  1
GRIDFORMAT_BEGIN
 90
        0
 91
        1
 62
     0
 92
       -2
340
14
 93
        0
 40
0.045
309
GRIDFORMAT_END
 95
       16
302
GRIDFORMAT
  1
GRIDFORMAT_BEGIN
 90
        0
 91
        1
 62
     0
 92
       -2
340
14
 93
        0
 40
0.045
309
GRIDFORMAT_END
 95
       32
302
GRIDFORMAT
  1
GRIDFORMAT_BEGIN
 90
        0
 91
        1
 62
     0
 92
       -2
340
14
 93
        0
 40
0.045
309
GRIDFORMAT_END
309
TABLEFORMAT_END
  1
CELLSTYLE_BEGIN
 90
        1
 91
        1
300
_TITLE
309
CELLSTYLE_END
300
CELLSTYLE
  1
TABLEFORMAT_BEGIN
 90
        5
170
     1
 91
        0
 92
        0
 62
   257
 93
        1
300
CONTENTFORMAT
  1
CONTENTFORMAT_BEGIN
 90
        0
 91
        0
 92
        4
 93
        0
300

 40
0.0
140
1.0
 94
        5
 62
     0
340
11
144
4.5
309
CONTENTFORMAT_END
171
     1
301
MARGIN
  1
CELLMARGIN_BEGIN
 40
1.5
 40
1.5
 40
1.5
 40
1.5
 40
1.5
 40
1.5
309
CELLMARGIN_END
 94
        6
 95
        1
302
GRIDFORMAT
  1
GRIDFORMAT_BEGIN
 90
        0
 91
        1
 62
     0
 92
       -2
340
14
 93
        0
 40
0.045
309
GRIDFORMAT_END
 95
        2
302
GRIDFORMAT
  1
GRIDFORMAT_BEGIN
 90
        0
 91
        1
 62
     0
 92
       -2
340
14
 93
        0
 40
0.045
309
GRIDFORMAT_END
 95
        4
302
GRIDFORMAT
  1
GRIDFORMAT_BEGIN
 90
        0
 91
        1
 62
     0
 92
       -2
340
14
 93
        0
 40
0.045
309
GRIDFORMAT_END
 95
        8
302
GRIDFORMAT
  1
GRIDFORMAT_BEGIN
 90
        0
 91
        1
 62
     0
 92
       -2
340
14
 93
        0
 40
0.045
309
GRIDFORMAT_END
 95
       16
302
GRIDFORMAT
  1
GRIDFORMAT_BEGIN
 90
        0
 91
        1
 62
     0
 92
       -2
340
14
 93
        0
 40
0.045
309
GRIDFORMAT_END
 95
       32
302
GRIDFORMAT
  1
GRIDFORMAT_BEGIN
 90
        0
 91
        1
 62
     0
 92
       -2
340
14
 93
        0
 40
0.045
309
GRIDFORMAT_END
309
TABLEFORMAT_END
  1
CELLSTYLE_BEGIN
 90
        2
 91
        1
300
_HEADER
309
CELLSTYLE_END
300
CELLSTYLE
  1
TABLEFORMAT_BEGIN
 90
        5
170
     1
 91
        0
 92
        0
 62
   257
 93
        1
300
CONTENTFORMAT
  1
CONTENTFORMAT_BEGIN
 90
        0
 91
        0
 92
        4
 93
        0
300

 40
0.0
140
1.0
 94
        2
 62
     0
340
11
144
4.5
309
CONTENTFORMAT_END
171
     1
301
MARGIN
  1
CELLMARGIN_BEGIN
 40
1.5
 40
1.5
 40
1.5
 40
1.5
 40
1.5
 40
1.5
309
CELLMARGIN_END
 94
        6
 95
        1
302
GRIDFORMAT
  1
GRIDFORMAT_BEGIN
 90
        0
 91
        1
 62
     0
 92
       -2
340
14
 93
        0
 40
0.045
309
GRIDFORMAT_END
 95
        2
302
GRIDFORMAT
  1
GRIDFORMAT_BEGIN
 90
        0
 91
        1
 62
     0
 92
       -2
340
14
 93
        0
 40
0.045
309
GRIDFORMAT_END
 95
        4
302
GRIDFORMAT
  1
GRIDFORMAT_BEGIN
 90
        0
 91
        1
 62
     0
 92
       -2
340
14
 93
        0
 40
0.045
309
GRIDFORMAT_END
 95
        8
302
GRIDFORMAT
  1
GRIDFORMAT_BEGIN
 90
        0
 91
        1
 62
     0
 92
       -2
340
14
 93
        0
 40
0.045
309
GRIDFORMAT_END
 95
       16
302
GRIDFORMAT
  1
GRIDFORMAT_BEGIN
 90
        0
 91
        1
 62
     0
 92
       -2
340
14
 93
        0
 40
0.045
309
GRIDFORMAT_END
 95
       32
302
GRIDFORMAT
  1
GRIDFORMAT_BEGIN
 90
        0
 91
        1
 62
     0
 92
       -2
340
14
 93
        0
 40
0.045
309
GRIDFORMAT_END
309
TABLEFORMAT_END
  1
CELLSTYLE_BEGIN
 90
        3
 91
        2
300
_DATA
309
CELLSTYLE_END
  0
ENDSEC
  0
EOF
