  0
SECTION
  2
HEADER
  9
$ACADVER
  1
AC1021
  9
$ACADMAINTVER
 70
    25
  9
$DWGCODEPAGE
  3
ANSI_1252
  9
$INSBASE
 10
0.0
 20
0.0
 30
0.0
  9
$EXTMIN
 10
-203.9523512944
 20
-161.9517471948
 30
0.0
  9
$EXTMAX
 10
203.9523512944
 20
117.7391862532
 30
0.0
  9
$LIMMIN
 10
0.0
 20
0.0
  9
$LIMMAX
 10
420.0
 20
297.0
  9
$ORTHOMODE
 70
     0
  9
$REGENMODE
 70
     1
  9
$FILLMODE
 70
     1
  9
$QTEXTMODE
 70
     0
  9
$MIRRTEXT
 70
     1
  9
$LTSCALE
 40
1.0
  9
$ATTMODE
 70
     1
  9
$TEXTSIZE
 40
3.5
  9
$TRACEWID
 40
1.0
  9
$TEXTSTYLE
  7
Standard
  9
$CLAYER
  8
0
  9
$CELTYPE
  6
ByLayer
  9
$CECOLOR
 62
   256
  9
$CELTSCALE
 40
1.0
  9
$DISPSILH
 70
     0
  9
$DIMSCALE
 40
1.0
  9
$DIMASZ
 40
7.4083333333
  9
$DIMEXO
 40
1.0
  9
$DIMDLI
 40
3.75
  9
$DIMRND
 40
0.0
  9
$DIMDLE
 40
0.0
  9
$DIMEXE
 40
1.0
  9
$DIMTP
 40
0.0
  9
$DIMTM
 40
0.0
  9
$DIMTXT
 40
9.8777777778
  9
$DIMCEN
 40
2.5
  9
$DIMTSZ
 40
0.0
  9
$DIMTOL
 70
     0
  9
$DIMLIM
 70
     0
  9
$DIMTIH
 70
     1
  9
$DIMTOH
 70
     1
  9
$DIMSE1
 70
     0
  9
$DIMSE2
 70
     0
  9
$DIMTAD
 70
     1
  9
$DIMZIN
 70
     0
  9
$DIMBLK
  1

  9
$DIMASO
 70
     1
  9
$DIMSHO
 70
     1
  9
$DIMPOST
  1

  9
$DIMAPOST
  1

  9
$DIMALT
 70
     0
  9
$DIMALTD
 70
     3
  9
$DIMALTF
 40
0.0393700787
  9
$DIMLFAC
 40
1.0
  9
$DIMTOFL
 70
     1
  9
$DIMTVP
 40
0.0
  9
$DIMTIX
 70
     0
  9
$DIMSOXD
 70
     0
  9
$DIMSAH
 70
     0
  9
$DIMBLK1
  1

  9
$DIMBLK2
  1

  9
$DIMSTYLE
  2
ISO-25
  9
$DIMCLRD
 70
     0
  9
$DIMCLRE
 70
     0
  9
$DIMCLRT
 70
     0
  9
$DIMTFAC
 40
1.0
  9
$DIMGAP
 40
1.524
  9
$DIMJUST
 70
     0
  9
$DIMSD1
 70
     0
  9
$DIMSD2
 70
     0
  9
$DIMTOLJ
 70
     0
  9
$DIMTZIN
 70
     0
  9
$DIMALTZ
 70
     0
  9
$DIMALTTZ
 70
     0
  9
$DIMUPT
 70
     0
  9
$DIMDEC
 70
     2
  9
$DIMTDEC
 70
     2
  9
$DIMALTU
 70
     2
  9
$DIMALTTD
 70
     3
  9
$DIMTXSTY
  7
Standard
  9
$DIMAUNIT
 70
     0
  9
$DIMADEC
 70
     2
  9
$DIMALTRND
 40
0.0
  9
$DIMAZIN
 70
     0
  9
$DIMDSEP
 70
    44
  9
$DIMATFIT
 70
     3
  9
$DIMFRAC
 70
     0
  9
$DIMLDRBLK
  1

  9
$DIMLUNIT
 70
     2
  9
$DIMLWD
 70
    -2
  9
$DIMLWE
 70
    -2
  9
$DIMTMOVE
 70
     0
  9
$DIMFXL
 40
1.0
  9
$DIMFXLON
 70
     0
  9
$DIMJOGANG
 40
0.7853981634
  9
$DIMTFILL
 70
     0
  9
$DIMTFILLCLR
 70
     0
  9
$DIMARCSYM
 70
     0
  9
$DIMLTYPE
  6

  9
$DIMLTEX1
  6

  9
$DIMLTEX2
  6

  9
$LUNITS
 70
     2
  9
$LUPREC
 70
     2
  9
$SKETCHINC
 40
1.0
  9
$FILLETRAD
 40
10.0
  9
$AUNITS
 70
     0
  9
$AUPREC
 70
     2
  9
$MENU
  1
.
  9
$ELEVATION
 40
0.0
  9
$PELEVATION
 40
0.0
  9
$THICKNESS
 40
0.0
  9
$LIMCHECK
 70
     0
  9
$CHAMFERA
 40
0.0
  9
$CHAMFERB
 40
0.0
  9
$CHAMFERC
 40
0.0
  9
$CHAMFERD
 40
0.0
  9
$SKPOLY
 70
     0
  9
$TDCREATE
 40
2458221.676692859
  9
$TDUCREATE
 40
2458221.593359525
  9
$TDUPDATE
 40
2458221.676731956
  9
$TDUUPDATE
 40
2458221.593398623
  9
$TDINDWG
 40
0.0000000116
  9
$TDUSRTIMER
 40
0.0000000116
  9
$USRTIMER
 70
     1
  9
$ANGBASE
 50
0.0
  9
$ANGDIR
 70
     0
  9
$PDMODE
 70
     0
  9
$PDSIZE
 40
-1.0
  9
$PLINEWID
 40
0.0
  9
$SPLFRAME
 70
     0
  9
$SPLINETYPE
 70
     6
  9
$SPLINESEGS
 70
     8
  9
$HANDSEED
  5
110
  9
$SURFTAB1
 70
     6
  9
$SURFTAB2
 70
     6
  9
$SURFTYPE
 70
     6
  9
$SURFU
 70
     6
  9
$SURFV
 70
     6
  9
$UCSBASE
  2

  9
$UCSNAME
  2

  9
$UCSORG
 10
0.0
 20
0.0
 30
0.0
  9
$UCSXDIR
 10
1.0
 20
0.0
 30
0.0
  9
$UCSYDIR
 10
0.0
 20
1.0
 30
0.0
  9
$UCSORTHOREF
  2

  9
$UCSORTHOVIEW
 70
     0
  9
$UCSORGTOP
 10
0.0
 20
0.0
 30
0.0
  9
$UCSORGBOTTOM
 10
0.0
 20
0.0
 30
0.0
  9
$UCSORGLEFT
 10
0.0
 20
0.0
 30
0.0
  9
$UCSORGRIGHT
 10
0.0
 20
0.0
 30
0.0
  9
$UCSORGFRONT
 10
0.0
 20
0.0
 30
0.0
  9
$UCSORGBACK
 10
0.0
 20
0.0
 30
0.0
  9
$PUCSBASE
  2

  9
$PUCSNAME
  2

  9
$PUCSORG
 10
0.0
 20
0.0
 30
0.0
  9
$PUCSXDIR
 10
1.0
 20
0.0
 30
0.0
  9
$PUCSYDIR
 10
0.0
 20
1.0
 30
0.0
  9
$PUCSORTHOREF
  2

  9
$PUCSORTHOVIEW
 70
     0
  9
$PUCSORGTOP
 10
0.0
 20
0.0
 30
0.0
  9
$PUCSORGBOTTOM
 10
0.0
 20
0.0
 30
0.0
  9
$PUCSORGLEFT
 10
0.0
 20
0.0
 30
0.0
  9
$PUCSORGRIGHT
 10
0.0
 20
0.0
 30
0.0
  9
$PUCSORGFRONT
 10
0.0
 20
0.0
 30
0.0
  9
$PUCSORGBACK
 10
0.0
 20
0.0
 30
0.0
  9
$USERI1
 70
     0
  9
$USERI2
 70
     0
  9
$USERI3
 70
     0
  9
$USERI4
 70
     0
  9
$USERI5
 70
     0
  9
$USERR1
 40
0.0
  9
$USERR2
 40
0.0
  9
$USERR3
 40
0.0
  9
$USERR4
 40
0.0
  9
$USERR5
 40
0.0
  9
$WORLDVIEW
 70
     1
  9
$SHADEDGE
 70
     3
  9
$SHADEDIF
 70
    70
  9
$TILEMODE
 70
     1
  9
$MAXACTVP
 70
    64
  9
$PINSBASE
 10
0.0
 20
0.0
 30
0.0
  9
$PLIMCHECK
 70
     0
  9
$PEXTMIN
 10
-240.0
 20
-160.0
 30
0.0
  9
$PEXTMAX
 10
240.0
 20
160.0
 30
0.0
  9
$PLIMMIN
 10
-277.3540856031
 20
-174.0077821012
  9
$PLIMMAX
 10
277.3540856031
 20
218.2101167315
  9
$UNITMODE
 70
     0
  9
$VISRETAIN
 70
     1
  9
$PLINEGEN
 70
     0
  9
$PSLTSCALE
 70
     1
  9
$TREEDEPTH
 70
  3020
  9
$CMLSTYLE
  2
Standard
  9
$CMLJUST
 70
     0
  9
$CMLSCALE
 40
20.0
  9
$PROXYGRAPHICS
 70
     1
  9
$MEASUREMENT
 70
     1
  9
$CELWEIGHT
370
    -1
  9
$ENDCAPS
280
     0
  9
$JOINSTYLE
280
     0
  9
$LWDISPLAY
290
     1
  9
$INSUNITS
 70
     4
  9
$HYPERLINKBASE
  1

  9
$STYLESHEET
  1

  9
$XEDIT
290
     1
  9
$CEPSNTYPE
380
     0
  9
$PSTYLEMODE
290
     1
  9
$FINGERPRINTGUID
  2
{1DC0A621-1F90-4573-95E6-D24593ADA0A4}
  9
$VERSIONGUID
  2
{FAEB1C32-E019-11D5-929B-00C0DF256EC4}
  9
$EXTNAMES
290
     1
  9
$PSVPSCALE
 40
0.0
  9
$OLESTARTUP
290
     0
  9
$SORTENTS
280
   127
  9
$INDEXCTL
280
     0
  9
$HIDETEXT
280
     1
  9
$XCLIPFRAME
290
     0
  9
$HALOGAP
280
     0
  9
$OBSCOLOR
 70
   257
  9
$OBSLTYPE
280
     0
  9
$INTERSECTIONDISPLAY
280
     0
  9
$INTERSECTIONCOLOR
 70
   257
  9
$DIMASSOC
280
     2
  9
$PROJECTNAME
  1

  9
$CAMERADISPLAY
290
     0
  9
$LENSLENGTH
 40
50.0
  9
$CAMERAHEIGHT
 40
0.0
  9
$STEPSPERSEC
 40
2.0
  9
$STEPSIZE
 40
6.0
  9
$3DDWFPREC
 40
2.0
  9
$PSOLWIDTH
 40
5.0
  9
$PSOLHEIGHT
 40
80.0
  9
$LOFTANG1
 40
1.5707963268
  9
$LOFTANG2
 40
1.5707963268
  9
$LOFTMAG1
 40
0.0
  9
$LOFTMAG2
 40
0.0
  9
$LOFTPARAM
 70
     7
  9
$LOFTNORMALS
280
     1
  9
$LATITUDE
 40
37.795
  9
$LONGITUDE
 40
-122.394
  9
$NORTHDIRECTION
 40
0.0
  9
$TIMEZONE
 70
 -8000
  9
$LIGHTGLYPHDISPLAY
280
     1
  9
$TILEMODELIGHTSYNCH
280
     1
  9
$CMATERIAL
347
44
  9
$SOLIDHIST
280
     0
  9
$SHOWHIST
280
     1
  9
$DWFFRAME
280
     2
  9
$DGNFRAME
280
     2
  9
$REALWORLDSCALE
290
     1
  9
$INTERFERECOLOR
 62
   256
  9
$CSHADOW
280
     0
  9
$SHADOWPLANELOCATION
 40
0.0
  0
ENDSEC
  0
SECTION
  2
CLASSES
  0
CLASS
  1
ACDBDICTIONARYWDFLT
  2
AcDbDictionaryWithDefault
  3
ObjectDBX Classes
 90
        0
 91
        4
280
     0
281
     0
  0
CLASS
  1
VISUALSTYLE
  2
AcDbVisualStyle
  3
ObjectDBX Classes
 90
     4095
 91
        4
280
     0
281
     0
  0
CLASS
  1
MATERIAL
  2
AcDbMaterial
  3
ObjectDBX Classes
 90
     1153
 91
        4
280
     0
281
     0
  0
CLASS
  1
SCALE
  2
AcDbScale
  3
ObjectDBX Classes
 90
     1153
 91
        4
280
     0
281
     0
  0
CLASS
  1
TABLESTYLE
  2
AcDbTableStyle
  3
ObjectDBX Classes
 90
     4095
 91
        4
280
     0
281
     0
  0
CLASS
  1
MLEADERSTYLE
  2
AcDbMLeaderStyle
  3
ACDB_MLEADERSTYLE_CLASS
 90
     4095
 91
        4
280
     0
281
     0
  0
CLASS
  1
SUN
  2
AcDbSun
  3
SCENEOE
 90
     1153
 91
        4
280
     0
281
     0
  0
CLASS
  1
DICTIONARYVAR
  2
AcDbDictionaryVar
  3
ObjectDBX Classes
 90
        0
 91
        4
280
     0
281
     0
  0
CLASS
  1
CELLSTYLEMAP
  2
AcDbCellStyleMap
  3
ObjectDBX Classes
 90
     1152
 91
        4
280
     0
281
     0
  0
ENDSEC
  0
SECTION
  2
TABLES
  0
TABLE
  2
VPORT
  5
8
330
0
100
AcDbSymbolTable
 70
     1
  0
VPORT
  5
29
330
8
100
AcDbSymbolTableRecord
100
AcDbViewportTableRecord
  2
*Active
 70
     0
 10
0.0
 20
0.0
 11
1.0
 21
1.0
 12
0.0
 22
-22.1062804708
 13
0.0
 23
0.0
 14
10.0
 24
10.0
 15
10.0
 25
10.0
 16
0.0
 26
0.0
 36
1.0
 17
0.0
 27
0.0
 37
0.0
 40
285.284752117
 41
1.4584123181
 42
50.0
 43
0.0
 44
0.0
 50
0.0
 51
0.0
 71
     0
 72
   100
 73
     1
 74
     3
 75
     0
 76
     0
 77
     0
 78
     0
281
     0
 65
     1
110
0.0
120
0.0
130
0.0
111
1.0
121
0.0
131
0.0
112
0.0
122
1.0
132
0.0
 79
     0
146
0.0
348
2F
 60
     3
 61
     5
292
     1
282
     1
141
0.0
142
0.0
 63
   250
361
6D
  0
ENDTAB
  0
TABLE
  2
LTYPE
  5
5
330
0
100
AcDbSymbolTable
 70
     6
  0
LTYPE
  5
14
330
5
100
AcDbSymbolTableRecord
100
AcDbLinetypeTableRecord
  2
ByBlock
 70
     0
  3

 72
    65
 73
     0
 40
0.0
  0
LTYPE
  5
15
330
5
100
AcDbSymbolTableRecord
100
AcDbLinetypeTableRecord
  2
ByLayer
 70
     0
  3

 72
    65
 73
     0
 40
0.0
  0
LTYPE
  5
16
330
5
100
AcDbSymbolTableRecord
100
AcDbLinetypeTableRecord
  2
Continuous
 70
     0
  3
Solid line
 72
    65
 73
     0
 40
0.0
  0
LTYPE
  5
6E
330
5
100
AcDbSymbolTableRecord
100
AcDbLinetypeTableRecord
  2
HIDDEN
 70
     0
  3
Hidden __ __ __ __ __ __ __ __ __ __ __ __ __ __
 72
    65
 73
     2
 40
1.905
 49
1.27
 74
     0
 49
-0.635
 74
     0
  0
LTYPE
  5
6F
330
5
100
AcDbSymbolTableRecord
100
AcDbLinetypeTableRecord
  2
PHANTOM
 70
     0
  3
Phantom ______  __  __  ______  __  __  ______
 72
    65
 73
     6
 40
12.7
 49
6.35
 74
     0
 49
-1.27
 74
     0
 49
1.27
 74
     0
 49
-1.27
 74
     0
 49
1.27
 74
     0
 49
-1.27
 74
     0
  0
LTYPE
  5
70
330
5
100
AcDbSymbolTableRecord
100
AcDbLinetypeTableRecord
  2
CENTER
 70
     0
  3
Center ____ _ ____ _ ____ _ ____ _ ____ _ ____
 72
    65
 73
     4
 40
10.16
 49
6.35
 74
     0
 49
-1.27
 74
     0
 49
1.27
 74
     0
 49
-1.27
 74
     0
  0
LTYPE
  5
71
330
5
100
AcDbSymbolTableRecord
100
AcDbLinetypeTableRecord
  2
CENTERX2
 70
     0
  3
Center (2x) ________  __  ________  __  _____
 72
    65
 73
     4
 40
20.32
 49
12.7
 74
     0
 49
-2.54
 74
     0
 49
2.54
 74
     0
 49
-2.54
 74
     0
  0
LTYPE
  5
72
330
5
100
AcDbSymbolTableRecord
100
AcDbLinetypeTableRecord
  2
DOT2
 70
     0
  3
Dot (.5x) ........................................
 72
    65
 73
     2
 40
0.635
 49
0.0
 74
     0
 49
-0.635
 74
     0
  0
ENDTAB
  0
TABLE
  2
LAYER
  5
2
330
0
100
AcDbSymbolTable
 70
     1
  0
LAYER
  5
10
330
2
100
AcDbSymbolTableRecord
100
AcDbLayerTableRecord
  2
0
 70
     0
 62
     7
  6
Continuous
370
    -3
390
F
347
46
  0
ENDTAB
  0
TABLE
  2
STYLE
  5
3
330
0
100
AcDbSymbolTable
 70
     1
  0
STYLE
  5
11
330
3
100
AcDbSymbolTableRecord
100
AcDbTextStyleTableRecord
  2
Standard
 70
     0
 40
0.0
 41
1.0
 50
0.0
 71
     0
 42
3.5
  3
txt
  4

  0
ENDTAB
  0
TABLE
  2
VIEW
  5
6
330
0
100
AcDbSymbolTable
 70
     0
  0
ENDTAB
  0
TABLE
  2
UCS
  5
7
330
0
100
AcDbSymbolTable
 70
     0
  0
ENDTAB
  0
TABLE
  2
APPID
  5
9
330
0
100
AcDbSymbolTable
 70
     2
  0
APPID
  5
12
330
9
100
AcDbSymbolTableRecord
100
AcDbRegAppTableRecord
  2
ACAD
 70
     0
  0
APPID
  5
10A
330
9
100
AcDbSymbolTableRecord
100
AcDbRegAppTableRecord
  2
ACAD_MLEADERVER
 70
     0
  0
ENDTAB
  0
TABLE
  2
DIMSTYLE
  5
A
330
0
100
AcDbSymbolTable
 70
     1
100
AcDbDimStyleTable
  0
DIMSTYLE
105
27
330
A
100
AcDbSymbolTableRecord
100
AcDbDimStyleTableRecord
  2
ISO-25
 70
     0
 41
2.5
 42
0.625
 43
3.75
 44
1.25
 73
     0
 74
     0
 77
     1
 78
     8
140
2.5
141
2.5
143
0.0393700787
147
0.625
171
     3
172
     1
178
     0
271
     2
272
     2
274
     3
278
    44
283
     0
284
     8
340
11
  0
ENDTAB
  0
TABLE
  2
BLOCK_RECORD
  5
1
330
0
100
AcDbSymbolTable
 70
     9
  0
BLOCK_RECORD
  5
1F
330
1
100
AcDbSymbolTableRecord
100
AcDbBlockTableRecord
  2
*Model_Space
340
22
 70
     0
280
     1
281
     0
  0
BLOCK_RECORD
  5
1B
330
1
100
AcDbSymbolTableRecord
100
AcDbBlockTableRecord
  2
*Paper_Space
340
1E
 70
     0
280
     1
281
     0
  0
BLOCK_RECORD
  5
23
330
1
100
AcDbSymbolTableRecord
100
AcDbBlockTableRecord
  2
*Paper_Space0
340
26
 70
     0
280
     1
281
     0
  0
BLOCK_RECORD
  5
8E
330
1
100
AcDbSymbolTableRecord
100
AcDbBlockTableRecord
  2
*Paper_Space1
340
8F
 70
     0
280
     1
281
     0
  0
BLOCK_RECORD
  5
9B
330
1
100
AcDbSymbolTableRecord
100
AcDbBlockTableRecord
  2
*Paper_Space2
340
9C
 70
     0
280
     1
281
     0
  0
BLOCK_RECORD
  5
AD
330
1
100
AcDbSymbolTableRecord
100
AcDbBlockTableRecord
  2
*Paper_Space3
340
AE
 70
     0
280
     1
281
     0
  0
BLOCK_RECORD
  5
BA
330
1
100
AcDbSymbolTableRecord
100
AcDbBlockTableRecord
  2
*Paper_Space4
340
BB
 70
     0
280
     1
281
     0
  0
BLOCK_RECORD
  5
C9
330
1
100
AcDbSymbolTableRecord
100
AcDbBlockTableRecord
  2
*Paper_Space5
340
CA
 70
     0
280
     1
281
     0
  0
BLOCK_RECORD
  5
D3
330
1
100
AcDbSymbolTableRecord
100
AcDbBlockTableRecord
  2
*Paper_Space6
340
D4
 70
     0
280
     1
281
     0
  0
BLOCK_RECORD
  5
DE
330
1
100
AcDbSymbolTableRecord
100
AcDbBlockTableRecord
  2
*Paper_Space7
340
DF
 70
     0
280
     1
281
     0
  0
BLOCK_RECORD
  5
E7
330
1
100
AcDbSymbolTableRecord
100
AcDbBlockTableRecord
  2
*Paper_Space8
340
E8
 70
     0
280
     1
281
     0
  0
ENDTAB
  0
ENDSEC
  0
SECTION
  2
BLOCKS
  0
BLOCK
  5
20
330
1F
100
AcDbEntity
  8
0
100
AcDbBlockBegin
  2
*Model_Space
 70
     0
 10
0.0
 20
0.0
 30
0.0
  3
*Model_Space
  1

  0
ENDBLK
  5
21
330
1F
100
AcDbEntity
  8
0
100
AcDbBlockEnd
  0
BLOCK
  5
1C
330
1B
100
AcDbEntity
 67
     1
  8
0
100
AcDbBlockBegin
  2
*Paper_Space
 70
     0
 10
0.0
 20
0.0
 30
0.0
  3
*Paper_Space
  1

  0
ENDBLK
  5
1D
330
1B
100
AcDbEntity
 67
     1
  8
0
100
AcDbBlockEnd
  0
BLOCK
  5
24
330
23
100
AcDbEntity
  8
0
100
AcDbBlockBegin
  2
*Paper_Space0
 70
     0
 10
0.0
 20
0.0
 30
0.0
  3
*Paper_Space0
  1

  0
SPLINE
  5
80
330
23
100
AcDbEntity
  8
0
  6
Continuous
 62
     7
370
    25
100
AcDbSpline
210
0.0
220
0.0
230
1.0
 70
     8
 71
     3
 72
    30
 73
    26
 74
     0
 42
0.000000001
 43
0.00000001
 40
0.0
 40
0.0
 40
0.0
 40
0.0
 40
0.0560855584635643
 40
0.1087538255264135
 40
0.1580046378824207
 40
0.2038379952012787
 40
0.2462536507117903
 40
0.2852514994788987
 40
0.3208314931802208
 40
0.3529934853798815
 40
0.3817373784398906
 40
0.4070631393380157
 40
0.4290897857159281
 40
0.4522936795316274
 40
0.4846951878316079
 40
0.5220678763527005
 40
0.5644116070392838
 40
0.6117260790461123
 40
0.6640109869711329
 40
0.7113802777202456
 40
0.7622012790627255
 40
0.8164739539986827
 40
0.8741980535137074
 40
0.9353734293273328
 40
0.9999999999999999
 40
0.9999999999999999
 40
0.9999999999999999
 40
0.9999999999999999
 10
72.49999999999994
 20
-135.8126410968587
 30
0.0
 10
76.59181056989642
 20
-134.9080034319942
 30
0.0
 10
84.52611781397509
 20
-133.1538476481445
 30
0.0
 10
95.86362701566304
 20
-129.8438857077545
 30
0.0
 10
106.3109508249999
 20
-126.2747561965828
 30
0.0
 10
115.8691150079558
 20
-122.5044241040132
 30
0.0
 10
124.5594315323565
 20
-118.64719414776
 30
0.0
 10
132.404486614095
 20
-114.7911560905949
 30
0.0
 10
139.4315103039672
 20
-111.0199590482901
 30
0.0
 10
145.6693635868607
 20
-107.4069358532407
 30
0.0
 10
151.1474889648225
 20
-104.0166771899584
 30
0.0
 10
155.9023931227348
 20
-100.9006275947982
 30
0.0
 10
160.2443574852944
 20
-97.9122619614212
 30
0.0
 10
164.9494459689702
 20
-94.52149269320736
 30
0.0
 10
170.4749902519406
 20
-90.31150389520545
 30
0.0
 10
176.9647533160506
 20
-85.01458382843705
 30
0.0
 10
184.0835446659804
 20
-78.73621235206605
 30
0.0
 10
191.7301823553399
 20
-71.38551804560917
 30
0.0
 10
199.2757515975427
 20
-63.40441918312345
 30
0.0
 10
206.6020759642994
 20
-54.87450844181804
 30
0.0
 10
213.6103205853831
 20
-45.89153278658424
 30
0.0
 10
220.6054004800208
 20
-35.9344905023226
 30
0.0
 10
227.4540789551218
 20
-24.95439396426373
 30
0.0
 10
234.0922082426705
 20
-12.94527576408305
 30
0.0
 10
237.99504650238
 20
-4.39329566561883
 30
0.0
 10
240.0000000000001
 20
0.0
 30
0.0
  0
SPLINE
  5
81
330
23
100
AcDbEntity
  8
0
  6
Continuous
 62
     7
370
    25
100
AcDbSpline
210
0.0
220
0.0
230
1.0
 70
     8
 71
     3
 72
    30
 73
    26
 74
     0
 42
0.000000001
 43
0.00000001
 40
0.0
 40
0.0
 40
0.0
 40
0.0
 40
0.0560855584635643
 40
0.108753825526414
 40
0.1580046378824211
 40
0.2038379952012789
 40
0.2462536507117902
 40
0.2852514994788986
 40
0.3208314931802205
 40
0.3529934853798811
 40
0.3817373784398902
 40
0.4070631393380155
 40
0.4290897857159275
 40
0.4522936795316266
 40
0.4846951878316071
 40
0.5220678763526999
 40
0.5644116070392835
 40
0.6117260790461119
 40
0.6640109869711326
 40
0.711380277720245
 40
0.762201279062725
 40
0.8164739539986825
 40
0.8741980535137078
 40
0.9353734293273334
 40
0.9999999999999999
 40
0.9999999999999999
 40
0.9999999999999999
 40
0.9999999999999999
 10
-240.0000000000001
 20
0.0
 30
0.0
 10
-238.2691755877404
 20
-3.816481350476381
 30
0.0
 10
-234.9129858429234
 20
-11.2169059568242
 30
0.0
 10
-229.3311894927489
 20
-21.62548474791615
 30
0.0
 10
-223.6798106311571
 20
-31.10953331418821
 30
0.0
 10
-218.0153506158683
 20
-39.68203582931145
 30
0.0
 10
-212.4452411309313
 20
-47.38746927302519
 30
0.0
 10
-207.0510015875323
 20
-54.2661390922742
 30
0.0
 10
-201.9088468193196
 20
-60.3619764760682
 30
0.0
 10
-197.0845610415013
 20
-65.71837609902484
 30
0.0
 10
-192.6352548963959
 20
-70.37749471607667
 30
0.0
 10
-188.603716670585
 20
-74.38568360437208
 30
0.0
 10
-184.7824542760351
 20
-78.01623967699844
 30
0.0
 10
-180.492424520915
 20
-81.91890781170643
 30
0.0
 10
-175.2312875928322
 20
-86.45499461933397
 30
0.0
 10
-168.7073985617469
 20
-91.70982656070991
 30
0.0
 10
-161.0932389041597
 20
-97.37725202452664
 30
0.0
 10
-152.3208122585183
 20
-103.339491996731
 30
0.0
 10
-142.9524826294067
 20
-109.0725500116089
 30
0.0
 10
-133.0925063119127
 20
-114.4776654590371
 30
0.0
 10
-122.8549906287219
 20
-119.4779271449788
 30
0.0
 10
-111.6671620021216
 20
-124.2639823478326
 30
0.0
 10
-99.50862875252487
 20
-128.6953462528685
 30
0.0
 10
-86.38681077507263
 20
-132.7080228347441
 30
0.0
 10
-77.21282857926178
 20
-134.7590130241225
 30
0.0
 10
-72.50000000000006
 20
-135.8126410968587
 30
0.0
  0
SPLINE
  5
84
330
23
100
AcDbEntity
  8
0
  6
Continuous
 62
     7
370
    25
100
AcDbSpline
210
0.0
220
0.0
230
1.0
 70
     8
 71
     3
 72
    15
 73
    11
 74
     0
 42
0.000000001
 43
0.00000001
 40
0.0
 40
0.0
 40
0.0
 40
0.0
 40
0.0062500000000001
 40
0.0083333333333333
 40
0.0416666666666666
 40
0.0833333333333334
 40
0.1249999999999999
 40
0.1666666666666666
 40
0.2083333333333334
 40
0.2499999999999998
 40
0.2499999999999998
 40
0.2499999999999998
 40
0.2499999999999998
 10
-0.0000000000000555
 20
-137.9182254667157
 30
0.0
 10
-0.9489699283657671
 20
-137.9182254667158
 30
0.0
 10
-2.214263166186683
 20
-137.9164708130743
 30
0.0
 10
-8.533377765990169
 20
-137.8965847384702
 30
0.0
 10
-20.14667061445371
 20
-137.7739539450781
 30
0.0
 10
-36.48847927442247
 20
-137.3918293742528
 30
0.0
 10
-51.62818242408003
 20
-136.8654332817889
 30
0.0
 10
-63.29308789443452
 20
-136.3390371893246
 30
0.0
 10
-70.71646170036546
 20
-135.9296180062964
 30
0.0
 10
-72.49999999999717
 20
-135.8126410968592
 30
0.0
 10
-72.50000000000006
 20
-135.8126410968587
 30
0.0
  0
LWPOLYLINE
  5
85
330
23
100
AcDbEntity
  8
0
  6
Continuous
 62
     7
370
    25
100
AcDbPolyline
 90
       13
 70
   128
 43
0.0
 10
72.5
 20
-135.8126410969
 10
71.8437262323
 20
-135.854070419
 10
69.9251173076
 20
-135.9686103094
 10
66.8174915053
 20
-136.1416386546
 10
62.5861659504
 20
-136.3585333409
 10
57.2998782979
 20
-136.6046722545
 10
51.0490494775
 20
-136.8654332818
 10
43.9365771985
 20
-137.1261943091
 10
36.0935830149
 20
-137.3723332227
 10
27.6539452663
 20
-137.5892279089
 10
18.7343455906
 20
-137.7622562541
 10
9.4590676616
 20
-137.8767961446
 10
0.0
 20
-137.9182254667
  0
SPLINE
  5
86
330
23
100
AcDbEntity
  8
0
  6
Continuous
 62
     7
370
    25
100
AcDbSpline
210
0.0
220
0.0
230
1.0
 70
    24
 71
     3
 72
    15
 73
    11
 74
     0
 42
0.000000001
 43
0.00000001
 40
0.0
 40
0.0
 40
0.0
 40
0.0
 40
0.0062500000000001
 40
0.0083333333333333
 40
0.0416666666666666
 40
0.0833333333333334
 40
0.1249999999999999
 40
0.1666666666666666
 40
0.2083333333333334
 40
0.2499999999999998
 40
0.2499999999999998
 40
0.2499999999999998
 40
0.2499999999999998
 10
-0.0000000000003123
 20
0.0
 30
0.0
 10
-3.158149667104884
 20
0.0
 30
0.0
 10
-7.369015889910916
 20
0.0
 30
0.0
 10
-28.39700889706448
 20
0.0
 30
0.0
 10
-67.02268480654207
 20
0.0
 30
0.0
 10
-121.0583653088586
 20
0.0
 30
0.0
 10
-171.6977681166121
 20
0.0
 30
0.0
 10
-210.384327133324
 20
0.0
 30
0.0
 10
-234.3653754005958
 20
0.0
 30
0.0
 10
-240.0000000000014
 20
0.0
 30
0.0
 10
-240.0000000000001
 20
0.0
 30
0.0
  0
SPLINE
  5
88
330
23
100
AcDbEntity
  8
0
  6
Continuous
 62
     7
370
    25
100
AcDbSpline
210
0.0
220
0.0
230
1.0
 70
    24
 71
     3
 72
    15
 73
    11
 74
     0
 42
0.000000001
 43
0.00000001
 40
0.0
 40
0.0
 40
0.0
 40
0.0
 40
0.0062500000000001
 40
0.0083333333333333
 40
0.0416666666666666
 40
0.0833333333333334
 40
0.1249999999999999
 40
0.1666666666666666
 40
0.2083333333333334
 40
0.2499999999999998
 40
0.2499999999999998
 40
0.2499999999999998
 40
0.2499999999999998
 10
-0.0000000000000486
 20
-145.0
 30
0.0
 10
-0.9444923091524587
 20
-145.0
 30
0.0
 10
-2.2038153880223
 20
-145.0
 30
0.0
 10
-8.493364483311131
 20
-144.9999999999999
 30
0.0
 10
-20.05495194111297
 20
-145.0
 30
0.0
 10
-36.3664325540437
 20
-145.0
 30
0.0
 10
-51.48271120765932
 20
-145.0
 30
0.0
 10
-63.18233500959239
 20
-145.0
 30
0.0
 10
-70.68536339584956
 20
-145.0
 30
0.0
 10
-72.49999999999547
 20
-145.0
 30
0.0
 10
-72.50000000000006
 20
-145.0
 30
0.0
  0
LINE
  5
8A
330
23
100
AcDbEntity
  8
0
  6
Continuous
 62
     7
370
    25
100
AcDbLine
 10
72.5
 20
-145.0
 30
0.0
 11
72.5
 21
-135.8126410969
 31
0.0
  0
LINE
  5
8B
330
23
100
AcDbEntity
  8
0
  6
Continuous
 62
     7
370
    25
100
AcDbLine
 10
-72.5
 20
-135.8126410969
 30
0.0
 11
-72.5
 21
-145.0
 31
0.0
  0
LINE
  5
8C
330
23
100
AcDbEntity
  8
0
  6
Continuous
 62
     7
370
    25
100
AcDbLine
 10
240.0
 20
0.0
 30
0.0
 11
0.0
 21
0.0
 31
0.0
  0
LINE
  5
8D
330
23
100
AcDbEntity
  8
0
  6
Continuous
 62
     7
370
    25
100
AcDbLine
 10
72.5
 20
-145.0
 30
0.0
 11
0.0
 21
-145.0
 31
0.0
  0
VIEWPORT
  5
F4
330
23
100
AcDbEntity
  8
0
100
AcDbViewport
 10
0.0
 20
0.0
 30
0.0
 40
205.6
 41
156.0
 68
     1
 69
     1
 12
0.0
 22
-22.1062804708
 13
0.0
 23
0.0
 14
10.0
 24
10.0
 15
10.0
 25
10.0
 16
0.0
 26
0.0
 36
1.0
 17
0.0
 27
0.0
 37
0.0
 42
50.0
 43
0.0
 44
0.0
 45
315.6896706028
 50
0.0
 51
0.0
 72
   100
 90
   557152
  1

281
     0
 71
     1
 74
     0
110
0.0
120
0.0
130
0.0
111
1.0
121
0.0
131
0.0
112
0.0
122
1.0
132
0.0
 79
     0
146
0.0
170
     0
 61
     5
348
2F
292
     1
282
     1
141
0.0
142
0.0
 63
   256
361
F5
  0
ENDBLK
  5
25
330
23
100
AcDbEntity
  8
0
100
AcDbBlockEnd
  0
BLOCK
  5
90
330
8E
100
AcDbEntity
  8
0
100
AcDbBlockBegin
  2
*Paper_Space1
 70
     0
 10
0.0
 20
0.0
 30
0.0
  3
*Paper_Space1
  1

  0
SPLINE
  5
92
330
8E
100
AcDbEntity
  8
0
  6
Continuous
 62
     7
370
    25
100
AcDbSpline
210
0.0
220
0.0
230
1.0
 70
     8
 71
     3
 72
    30
 73
    26
 74
     0
 42
0.000000001
 43
0.00000001
 40
0.0
 40
0.0
 40
0.0
 40
0.0
 40
0.0560126987194619
 40
0.1086205787343425
 40
0.1578232631422096
 40
0.2036210329687117
 40
0.2460131241471243
 40
0.2849993386252497
 40
0.3205797035644781
 40
0.3527538150866331
 40
0.3815214486441413
 40
0.4068826304131321
 40
0.4289385875016229
 40
0.4521006811890943
 40
0.4844639084707497
 40
0.5218113333520366
 40
0.5641428310302584
 40
0.6114576619491598
 40
0.6637551136349801
 40
0.7111461215421616
 40
0.7619973039688116
 40
0.816308800700364
 40
0.8740798922229769
 40
0.9353102848736333
 40
1.0
 40
1.0
 40
1.0
 40
1.0
 10
47.50000000000004
 20
-137.9182254667157
 30
0.0
 10
51.00820419931016
 20
-137.1175596697037
 30
0.0
 10
57.81136096838249
 20
-135.5648977870862
 30
0.0
 10
67.44672595285859
 20
-132.3813669312167
 30
0.0
 10
76.2409938279385
 20
-128.832287554301
 30
0.0
 10
84.19081882321605
 20
-124.9926482381523
 30
0.0
 10
91.32222731000795
 20
-121.0050985482271
 30
0.0
 10
97.66526769442801
 20
-116.9775460216978
 30
0.0
 10
103.2588824964312
 20
-113.012089364134
 30
0.0
 10
108.1453066861996
 20
-109.1962818852843
 30
0.0
 10
112.3680472731074
 20
-105.6054836112878
 30
0.0
 10
115.9753234988653
 20
-102.2997275726723
 30
0.0
 10
119.215983893882
 20
-99.13064808445539
 30
0.0
 10
122.6688519606144
 20
-95.53874686951936
 30
0.0
 10
126.6369441012285
 20
-91.0844173655772
 30
0.0
 10
131.1624905070925
 20
-85.4877058813028
 30
0.0
 10
135.9390195136277
 20
-78.8730406961043
 30
0.0
 10
140.8162037545094
 20
-71.16590235691777
 30
0.0
 10
145.3116656291291
 20
-62.85641552716088
 30
0.0
 10
149.3243980373842
 20
-54.05506352501222
 30
0.0
 10
152.7824497177688
 20
-44.88187034501009
 30
0.0
 10
155.7653630899263
 20
-34.84289725494189
 30
0.0
 10
158.0947362858293
 20
-23.95195600733106
 30
0.0
 10
159.6877063120957
 20
-12.24332203349802
 30
0.0
 10
159.8940128614645
 20
-4.155174179815424
 30
0.0
 10
160.0
 20
0.0
 30
0.0
  0
SPLINE
  5
93
330
8E
100
AcDbEntity
  8
0
  6
Continuous
 62
     7
370
    25
100
AcDbSpline
210
0.0
220
0.0
230
1.0
 70
     8
 71
     3
 72
    30
 73
    26
 74
     0
 42
0.000000001
 43
0.00000001
 40
0.0
 40
0.0
 40
0.0
 40
0.0
 40
0.0560126987194619
 40
0.1086205787343426
 40
0.1578232631422096
 40
0.2036210329687113
 40
0.2460131241471243
 40
0.2849993386252503
 40
0.3205797035644794
 40
0.3527538150866346
 40
0.3815214486441426
 40
0.4068826304131331
 40
0.428938587501623
 40
0.4521006811890936
 40
0.4844639084707482
 40
0.5218113333520353
 40
0.5641428310302588
 40
0.6114576619491616
 40
0.6637551136349816
 40
0.7111461215421617
 40
0.7619973039688109
 40
0.8163088007003637
 40
0.8740798922229777
 40
0.9353102848736341
 40
1.0
 40
1.0
 40
1.0
 40
1.0
 10
-160.0
 20
0.0
 30
0.0
 10
-159.9205887137523
 20
-3.597534748988343
 30
0.0
 10
-159.7665932793693
 20
-10.57392252150338
 30
0.0
 10
-158.5840839818477
 20
-20.65245410381315
 30
0.0
 10
-156.8744750853999
 20
-29.9804951255657
 30
0.0
 10
-154.7105534472937
 20
-38.53970015160574
 30
0.0
 10
-152.2372888404145
 20
-46.32690129960949
 30
0.0
 10
-149.5664257661882
 20
-53.34985161347842
 30
0.0
 10
-146.8058055166208
 20
-59.62618405319881
 30
0.0
 10
-144.0496822220163
 20
-65.1796795707029
 30
0.0
 10
-141.3806210171312
 20
-70.03781528241701
 30
0.0
 10
-138.8671195017469
 20
-74.23576417299688
 30
0.0
 10
-136.4138406237416
 20
-78.04711135545074
 30
0.0
 10
-133.5890038873824
 20
-82.15129819781471
 30
0.0
 10
-130.0228556767595
 20
-86.93349366704878
 30
0.0
 10
-125.4496376954124
 20
-92.49131941143139
 30
0.0
 10
-119.9296592475437
 20
-98.49955232948783
 30
0.0
 10
-113.3597145748543
 20
-104.825904714288
 30
0.0
 10
-106.1230049288566
 20
-110.8993536800394
 30
0.0
 10
-98.30746429136136
 20
-116.5987521561634
 30
0.0
 10
-90.01621109575927
 20
-121.8294992336146
 30
0.0
 10
-80.78136373208
 20
-126.7687650756663
 30
0.0
 10
-70.58060490019007
 20
-131.2390111537163
 30
0.0
 10
-59.43086080621418
 20
-135.1521773496032
 30
0.0
 10
-51.54913018127877
 20
-136.9794760255995
 30
0.0
 10
-47.49999999999994
 20
-137.9182254667158
 30
0.0
  0
SPLINE
  5
96
330
8E
100
AcDbEntity
  8
0
  6
Continuous
 62
     7
370
    25
100
AcDbSpline
210
0.0
220
0.0
230
1.0
 70
     8
 71
     3
 72
    21
 73
    17
 74
     0
 42
0.000000001
 43
0.00000001
 40
0.0
 40
0.0
 40
0.0
 40
0.0
 40
0.0062500000000001
 40
0.0083333333333333
 40
0.0416666666666666
 40
0.0833333333333334
 40
0.1249999999999999
 40
0.1666666666666666
 40
0.2083333333333334
 40
0.2499999999999998
 40
0.2916666666666666
 40
0.3333333333333334
 40
0.3750000000000001
 40
0.4166666666666666
 40
0.4583333333333334
 40
0.500000000000984
 40
0.500000000000984
 40
0.500000000000984
 40
0.500000000000984
 10
47.50000000000004
 20
-137.9182254667157
 30
0.0
 10
47.50000000000003
 20
-137.9182254667158
 30
0.0
 10
47.48276466983634
 20
-137.9164708130743
 30
0.0
 10
47.28353109660992
 20
-137.8965847384702
 30
0.0
 10
46.03087510159104
 20
-137.7739539450781
 30
0.0
 10
41.54943467664048
 20
-137.3918293742528
 30
0.0
 10
33.97492757121779
 20
-136.8654332817889
 30
0.0
 10
24.08068631025891
 20
-136.3390371893246
 30
0.0
 10
12.54573128902374
 20
-135.9296180062964
 30
0.0
 10
-0.0000000000000468
 20
-135.7541526421406
 30
0.0
 10
-12.54573128902377
 20
-135.9296180062936
 30
0.0
 10
-24.08068631025881
 20
-136.3390371893195
 30
0.0
 10
-33.97492757121756
 20
-136.8654332817824
 30
0.0
 10
-41.54943467664014
 20
-137.3918293742463
 30
0.0
 10
-46.35097798907118
 20
-137.8012485572772
 30
0.0
 10
-47.50000000000169
 20
-137.9182254667157
 30
0.0
 10
-47.49999999999994
 20
-137.9182254667158
 30
0.0
  0
SPLINE
  5
97
330
8E
100
AcDbEntity
  8
0
  6
Continuous
 62
     7
370
    25
100
AcDbSpline
210
0.0
220
0.0
230
1.0
 70
    24
 71
     3
 72
    21
 73
    17
 74
     0
 42
0.000000001
 43
0.00000001
 40
0.0
 40
0.0
 40
0.0
 40
0.0
 40
0.0062500000000001
 40
0.0083333333333333
 40
0.0416666666666666
 40
0.0833333333333334
 40
0.1249999999999999
 40
0.1666666666666666
 40
0.2083333333333334
 40
0.2499999999999998
 40
0.2916666666666666
 40
0.3333333333333334
 40
0.3750000000000001
 40
0.4166666666666666
 40
0.4583333333333334
 40
0.500000000000984
 40
0.500000000000984
 40
0.500000000000984
 40
0.500000000000984
 10
160.0
 20
0.0
 30
0.0
 10
160.0
 20
0.0
 30
0.0
 10
159.943653754006
 20
0.0
 30
0.0
 10
159.2908634255088
 20
0.0
 30
0.0
 10
155.1777592329618
 20
0.0
 30
0.0
 10
140.2562180888824
 20
0.0
 30
0.0
 10
114.4651787444076
 20
0.0
 30
0.0
 10
80.70557687257187
 20
0.0
 30
0.0
 10
42.10866222806003
 20
0.0
 30
0.0
 10
-0.0000000000001995
 20
0.0
 30
0.0
 10
-42.10866222806041
 20
0.0
 30
0.0
 10
-80.70557687257218
 20
0.0
 30
0.0
 10
-114.4651787444079
 20
0.0
 30
0.0
 10
-140.2562180888825
 20
0.0
 30
0.0
 10
-156.2435836003339
 20
0.0
 30
0.0
 10
-160.0000000000006
 20
0.0
 30
0.0
 10
-160.0
 20
0.0
 30
0.0
  0
SPLINE
  5
98
330
8E
100
AcDbEntity
  8
0
  6
Continuous
 62
     7
370
    25
100
AcDbSpline
210
0.0
220
0.0
230
1.0
 70
    24
 71
     3
 72
    21
 73
    17
 74
     0
 42
0.000000001
 43
0.00000001
 40
0.0
 40
0.0
 40
0.0
 40
0.0
 40
0.0062500000000001
 40
0.0083333333333333
 40
0.0416666666666666
 40
0.0833333333333334
 40
0.1249999999999999
 40
0.1666666666666666
 40
0.2083333333333334
 40
0.2499999999999998
 40
0.2916666666666666
 40
0.3333333333333334
 40
0.3750000000000001
 40
0.4166666666666666
 40
0.4583333333333334
 40
0.500000000000984
 40
0.500000000000984
 40
0.500000000000984
 40
0.500000000000984
 10
47.5
 20
-145.0
 30
0.0
 10
47.49999999999997
 20
-145.0
 30
0.0
 10
47.48246349430878
 20
-145.0
 30
0.0
 10
47.27991307942923
 20
-144.9999999999999
 30
0.0
 10
46.00739819366559
 20
-145.0
 30
0.0
 10
41.47837821674588
 20
-145.0
 30
0.0
 10
33.88317743634639
 20
-145.0
 30
0.0
 10
24.00553325784486
 20
-145.0
 30
0.0
 10
12.4899527065679
 20
-145.0
 30
0.0
 10
-0.0000000000001076
 20
-145.0
 30
0.0
 10
-12.4899527065677
 20
-145.0
 30
0.0
 10
-24.00553325784383
 20
-145.0
 30
0.0
 10
-33.88317743634454
 20
-145.0
 30
0.0
 10
-41.47837821674358
 20
-145.0
 30
0.0
 10
-46.33089962057145
 20
-145.0
 30
0.0
 10
-47.50000000000044
 20
-145.0
 30
0.0
 10
-47.50000000000001
 20
-145.0
 30
0.0
  0
LINE
  5
99
330
8E
100
AcDbEntity
  8
0
  6
Continuous
 62
     7
370
    25
100
AcDbLine
 10
47.5
 20
-145.0
 30
0.0
 11
47.5
 21
-137.9182254667
 31
0.0
  0
LINE
  5
9A
330
8E
100
AcDbEntity
  8
0
  6
Continuous
 62
     7
370
    25
100
AcDbLine
 10
-47.5
 20
-137.9182254667
 30
0.0
 11
-47.5
 21
-145.0
 31
0.0
  0
VIEWPORT
  5
F6
330
8E
100
AcDbEntity
  8
0
100
AcDbViewport
 10
0.0
 20
0.0
 30
0.0
 40
205.6
 41
156.0
 68
     1
 69
     1
 12
0.0
 22
-22.1062804708
 13
0.0
 23
0.0
 14
10.0
 24
10.0
 15
10.0
 25
10.0
 16
0.0
 26
0.0
 36
1.0
 17
0.0
 27
0.0
 37
0.0
 42
50.0
 43
0.0
 44
0.0
 45
315.6896706028
 50
0.0
 51
0.0
 72
   100
 90
   557152
  1

281
     0
 71
     1
 74
     0
110
0.0
120
0.0
130
0.0
111
1.0
121
0.0
131
0.0
112
0.0
122
1.0
132
0.0
 79
     0
146
0.0
170
     0
 61
     5
348
2F
292
     1
282
     1
141
0.0
142
0.0
 63
   256
361
F7
  0
ENDBLK
  5
91
330
8E
100
AcDbEntity
  8
0
100
AcDbBlockEnd
  0
BLOCK
  5
9D
330
9B
100
AcDbEntity
  8
0
100
AcDbBlockBegin
  2
*Paper_Space2
 70
     0
 10
0.0
 20
0.0
 30
0.0
  3
*Paper_Space2
  1

  0
SPLINE
  5
9F
330
9B
100
AcDbEntity
  8
0
  6
Continuous
 62
     7
370
    25
100
AcDbSpline
210
0.0
220
0.0
230
1.0
 70
     8
 71
     3
 72
    30
 73
    26
 74
     0
 42
0.000000001
 43
0.00000001
 40
0.0
 40
0.0
 40
0.0
 40
0.0
 40
0.0560855584635643
 40
0.1087538255264135
 40
0.1580046378824207
 40
0.2038379952012787
 40
0.2462536507117903
 40
0.2852514994788987
 40
0.3208314931802208
 40
0.3529934853798815
 40
0.3817373784398906
 40
0.4070631393380157
 40
0.4290897857159281
 40
0.4522936795316274
 40
0.4846951878316079
 40
0.5220678763527005
 40
0.5644116070392838
 40
0.6117260790461123
 40
0.6640109869711329
 40
0.7113802777202456
 40
0.7622012790627255
 40
0.8164739539986827
 40
0.8741980535137074
 40
0.9353734293273328
 40
0.9999999999999999
 40
0.9999999999999999
 40
0.9999999999999999
 40
0.9999999999999999
 10
72.49999999999994
 20
-135.8126410968587
 30
0.0
 10
76.59181056989642
 20
-134.9080034319942
 30
0.0
 10
84.52611781397509
 20
-133.1538476481445
 30
0.0
 10
95.86362701566304
 20
-129.8438857077545
 30
0.0
 10
106.3109508249999
 20
-126.2747561965828
 30
0.0
 10
115.8691150079558
 20
-122.5044241040132
 30
0.0
 10
124.5594315323565
 20
-118.64719414776
 30
0.0
 10
132.404486614095
 20
-114.7911560905949
 30
0.0
 10
139.4315103039672
 20
-111.0199590482901
 30
0.0
 10
145.6693635868607
 20
-107.4069358532407
 30
0.0
 10
151.1474889648225
 20
-104.0166771899584
 30
0.0
 10
155.9023931227348
 20
-100.9006275947982
 30
0.0
 10
160.2443574852944
 20
-97.9122619614212
 30
0.0
 10
164.9494459689702
 20
-94.52149269320736
 30
0.0
 10
170.4749902519406
 20
-90.31150389520545
 30
0.0
 10
176.9647533160506
 20
-85.01458382843705
 30
0.0
 10
184.0835446659804
 20
-78.73621235206605
 30
0.0
 10
191.7301823553399
 20
-71.38551804560917
 30
0.0
 10
199.2757515975427
 20
-63.40441918312345
 30
0.0
 10
206.6020759642994
 20
-54.87450844181804
 30
0.0
 10
213.6103205853831
 20
-45.89153278658424
 30
0.0
 10
220.6054004800208
 20
-35.9344905023226
 30
0.0
 10
227.4540789551218
 20
-24.95439396426373
 30
0.0
 10
234.0922082426705
 20
-12.94527576408305
 30
0.0
 10
237.99504650238
 20
-4.39329566561883
 30
0.0
 10
240.0000000000001
 20
0.0
 30
0.0
  0
SPLINE
  5
A0
330
9B
100
AcDbEntity
  8
0
  6
Continuous
 62
     7
370
    25
100
AcDbSpline
210
0.0
220
0.0
230
1.0
 70
     8
 71
     3
 72
    30
 73
    26
 74
     0
 42
0.000000001
 43
0.00000001
 40
0.0
 40
0.0
 40
0.0
 40
0.0
 40
0.0560855584635643
 40
0.108753825526414
 40
0.1580046378824211
 40
0.2038379952012789
 40
0.2462536507117902
 40
0.2852514994788986
 40
0.3208314931802205
 40
0.3529934853798811
 40
0.3817373784398902
 40
0.4070631393380155
 40
0.4290897857159275
 40
0.4522936795316266
 40
0.4846951878316071
 40
0.5220678763526999
 40
0.5644116070392835
 40
0.6117260790461119
 40
0.6640109869711326
 40
0.711380277720245
 40
0.762201279062725
 40
0.8164739539986825
 40
0.8741980535137078
 40
0.9353734293273334
 40
0.9999999999999999
 40
0.9999999999999999
 40
0.9999999999999999
 40
0.9999999999999999
 10
-240.0000000000001
 20
0.0
 30
0.0
 10
-238.2691755877404
 20
-3.816481350476381
 30
0.0
 10
-234.9129858429234
 20
-11.2169059568242
 30
0.0
 10
-229.3311894927489
 20
-21.62548474791615
 30
0.0
 10
-223.6798106311571
 20
-31.10953331418821
 30
0.0
 10
-218.0153506158683
 20
-39.68203582931145
 30
0.0
 10
-212.4452411309313
 20
-47.38746927302519
 30
0.0
 10
-207.0510015875323
 20
-54.2661390922742
 30
0.0
 10
-201.9088468193196
 20
-60.3619764760682
 30
0.0
 10
-197.0845610415013
 20
-65.71837609902484
 30
0.0
 10
-192.6352548963959
 20
-70.37749471607667
 30
0.0
 10
-188.603716670585
 20
-74.38568360437208
 30
0.0
 10
-184.7824542760351
 20
-78.01623967699844
 30
0.0
 10
-180.492424520915
 20
-81.91890781170643
 30
0.0
 10
-175.2312875928322
 20
-86.45499461933397
 30
0.0
 10
-168.7073985617469
 20
-91.70982656070991
 30
0.0
 10
-161.0932389041597
 20
-97.37725202452664
 30
0.0
 10
-152.3208122585183
 20
-103.339491996731
 30
0.0
 10
-142.9524826294067
 20
-109.0725500116089
 30
0.0
 10
-133.0925063119127
 20
-114.4776654590371
 30
0.0
 10
-122.8549906287219
 20
-119.4779271449788
 30
0.0
 10
-111.6671620021216
 20
-124.2639823478326
 30
0.0
 10
-99.50862875252487
 20
-128.6953462528685
 30
0.0
 10
-86.38681077507263
 20
-132.7080228347441
 30
0.0
 10
-77.21282857926178
 20
-134.7590130241225
 30
0.0
 10
-72.50000000000006
 20
-135.8126410968587
 30
0.0
  0
SPLINE
  5
A3
330
9B
100
AcDbEntity
  8
0
  6
Continuous
 62
     7
370
    25
100
AcDbSpline
210
0.0
220
0.0
230
1.0
 70
     8
 71
     3
 72
    15
 73
    11
 74
     0
 42
0.000000001
 43
0.00000001
 40
0.0
 40
0.0
 40
0.0
 40
0.0
 40
0.0062500000000001
 40
0.0083333333333333
 40
0.0416666666666666
 40
0.0833333333333334
 40
0.1249999999999999
 40
0.1666666666666666
 40
0.2083333333333334
 40
0.2499999999999998
 40
0.2499999999999998
 40
0.2499999999999998
 40
0.2499999999999998
 10
-0.0000000000000555
 20
-137.9182254667157
 30
0.0
 10
-0.9489699283657671
 20
-137.9182254667158
 30
0.0
 10
-2.214263166186683
 20
-137.9164708130743
 30
0.0
 10
-8.533377765990169
 20
-137.8965847384702
 30
0.0
 10
-20.14667061445371
 20
-137.7739539450781
 30
0.0
 10
-36.48847927442247
 20
-137.3918293742528
 30
0.0
 10
-51.62818242408003
 20
-136.8654332817889
 30
0.0
 10
-63.29308789443452
 20
-136.3390371893246
 30
0.0
 10
-70.71646170036546
 20
-135.9296180062964
 30
0.0
 10
-72.49999999999717
 20
-135.8126410968592
 30
0.0
 10
-72.50000000000006
 20
-135.8126410968587
 30
0.0
  0
LWPOLYLINE
  5
A4
330
9B
100
AcDbEntity
  8
0
  6
Continuous
 62
     7
370
    25
100
AcDbPolyline
 90
       13
 70
   128
 43
0.0
 10
72.5
 20
-135.8126410969
 10
71.8437262323
 20
-135.854070419
 10
69.9251173076
 20
-135.9686103094
 10
66.8174915053
 20
-136.1416386546
 10
62.5861659504
 20
-136.3585333409
 10
57.2998782979
 20
-136.6046722545
 10
51.0490494775
 20
-136.8654332818
 10
43.9365771985
 20
-137.1261943091
 10
36.0935830149
 20
-137.3723332227
 10
27.6539452663
 20
-137.5892279089
 10
18.7343455906
 20
-137.7622562541
 10
9.4590676616
 20
-137.8767961446
 10
0.0
 20
-137.9182254667
  0
SPLINE
  5
A5
330
9B
100
AcDbEntity
  8
0
  6
Continuous
 62
     7
370
    25
100
AcDbSpline
210
0.0
220
0.0
230
1.0
 70
    24
 71
     3
 72
    15
 73
    11
 74
     0
 42
0.000000001
 43
0.00000001
 40
0.0
 40
0.0
 40
0.0
 40
0.0
 40
0.0062500000000001
 40
0.0083333333333333
 40
0.0416666666666666
 40
0.0833333333333334
 40
0.1249999999999999
 40
0.1666666666666666
 40
0.2083333333333334
 40
0.2499999999999998
 40
0.2499999999999998
 40
0.2499999999999998
 40
0.2499999999999998
 10
-0.0000000000003123
 20
0.0
 30
0.0
 10
-3.158149667104884
 20
0.0
 30
0.0
 10
-7.369015889910916
 20
0.0
 30
0.0
 10
-28.39700889706448
 20
0.0
 30
0.0
 10
-67.02268480654207
 20
0.0
 30
0.0
 10
-121.0583653088586
 20
0.0
 30
0.0
 10
-171.6977681166121
 20
0.0
 30
0.0
 10
-210.384327133324
 20
0.0
 30
0.0
 10
-234.3653754005958
 20
0.0
 30
0.0
 10
-240.0000000000014
 20
0.0
 30
0.0
 10
-240.0000000000001
 20
0.0
 30
0.0
  0
SPLINE
  5
A7
330
9B
100
AcDbEntity
  8
0
  6
Continuous
 62
     7
370
    25
100
AcDbSpline
210
0.0
220
0.0
230
1.0
 70
    24
 71
     3
 72
    15
 73
    11
 74
     0
 42
0.000000001
 43
0.00000001
 40
0.0
 40
0.0
 40
0.0
 40
0.0
 40
0.0062500000000001
 40
0.0083333333333333
 40
0.0416666666666666
 40
0.0833333333333334
 40
0.1249999999999999
 40
0.1666666666666666
 40
0.2083333333333334
 40
0.2499999999999998
 40
0.2499999999999998
 40
0.2499999999999998
 40
0.2499999999999998
 10
-0.0000000000000486
 20
-145.0
 30
0.0
 10
-0.9444923091524587
 20
-145.0
 30
0.0
 10
-2.2038153880223
 20
-145.0
 30
0.0
 10
-8.493364483311131
 20
-144.9999999999999
 30
0.0
 10
-20.05495194111297
 20
-145.0
 30
0.0
 10
-36.3664325540437
 20
-145.0
 30
0.0
 10
-51.48271120765932
 20
-145.0
 30
0.0
 10
-63.18233500959239
 20
-145.0
 30
0.0
 10
-70.68536339584956
 20
-145.0
 30
0.0
 10
-72.49999999999547
 20
-145.0
 30
0.0
 10
-72.50000000000006
 20
-145.0
 30
0.0
  0
LINE
  5
A9
330
9B
100
AcDbEntity
  8
0
  6
Continuous
 62
     7
370
    25
100
AcDbLine
 10
72.5
 20
-145.0
 30
0.0
 11
72.5
 21
-135.8126410969
 31
0.0
  0
LINE
  5
AA
330
9B
100
AcDbEntity
  8
0
  6
Continuous
 62
     7
370
    25
100
AcDbLine
 10
-72.5
 20
-135.8126410969
 30
0.0
 11
-72.5
 21
-145.0
 31
0.0
  0
LINE
  5
AB
330
9B
100
AcDbEntity
  8
0
  6
Continuous
 62
     7
370
    25
100
AcDbLine
 10
240.0
 20
0.0
 30
0.0
 11
0.0
 21
0.0
 31
0.0
  0
LINE
  5
AC
330
9B
100
AcDbEntity
  8
0
  6
Continuous
 62
     7
370
    25
100
AcDbLine
 10
72.5
 20
-145.0
 30
0.0
 11
0.0
 21
-145.0
 31
0.0
  0
VIEWPORT
  5
F8
330
9B
100
AcDbEntity
  8
0
100
AcDbViewport
 10
0.0
 20
0.0
 30
0.0
 40
205.6
 41
156.0
 68
     1
 69
     1
 12
0.0
 22
-22.1062804708
 13
0.0
 23
0.0
 14
10.0
 24
10.0
 15
10.0
 25
10.0
 16
0.0
 26
0.0
 36
1.0
 17
0.0
 27
0.0
 37
0.0
 42
50.0
 43
0.0
 44
0.0
 45
315.6896706028
 50
0.0
 51
0.0
 72
   100
 90
   557152
  1

281
     0
 71
     1
 74
     0
110
0.0
120
0.0
130
0.0
111
1.0
121
0.0
131
0.0
112
0.0
122
1.0
132
0.0
 79
     0
146
0.0
170
     0
 61
     5
348
2F
292
     1
282
     1
141
0.0
142
0.0
 63
   256
361
F9
  0
ENDBLK
  5
9E
330
9B
100
AcDbEntity
  8
0
100
AcDbBlockEnd
  0
BLOCK
  5
AF
330
AD
100
AcDbEntity
  8
0
100
AcDbBlockBegin
  2
*Paper_Space3
 70
     0
 10
0.0
 20
0.0
 30
0.0
  3
*Paper_Space3
  1

  0
SPLINE
  5
B1
330
AD
100
AcDbEntity
  8
0
  6
Continuous
 62
     7
370
    25
100
AcDbSpline
210
0.0
220
0.0
230
1.0
 70
     8
 71
     3
 72
    30
 73
    26
 74
     0
 42
0.000000001
 43
0.00000001
 40
0.0
 40
0.0
 40
0.0
 40
0.0
 40
0.056085558463564
 40
0.1087538255264131
 40
0.1580046378824206
 40
0.2038379952012791
 40
0.2462536507117911
 40
0.2852514994788997
 40
0.3208314931802214
 40
0.3529934853798817
 40
0.3817373784398908
 40
0.4070631393380159
 40
0.4290897857159279
 40
0.4522936795316271
 40
0.4846951878316077
 40
0.5220678763527005
 40
0.5644116070392837
 40
0.6117260790461121
 40
0.6640109869711333
 40
0.711380277720246
 40
0.7622012790627257
 40
0.8164739539986824
 40
0.8741980535137074
 40
0.9353734293273331
 40
1.0
 40
1.0
 40
1.0
 40
1.0
 10
72.50000000000006
 20
-135.8126410968587
 30
0.0
 10
76.59181056989651
 20
-134.9080034319942
 30
0.0
 10
84.52611781397518
 20
-133.1538476481446
 30
0.0
 10
95.86362701566313
 20
-129.8438857077546
 30
0.0
 10
106.310950825
 20
-126.2747561965828
 30
0.0
 10
115.869115007956
 20
-122.5044241040133
 30
0.0
 10
124.5594315323567
 20
-118.6471941477599
 30
0.0
 10
132.4044866140953
 20
-114.791156090595
 30
0.0
 10
139.4315103039674
 20
-111.0199590482902
 30
0.0
 10
145.6693635868609
 20
-107.4069358532408
 30
0.0
 10
151.1474889648227
 20
-104.0166771899585
 30
0.0
 10
155.902393122735
 20
-100.9006275947983
 30
0.0
 10
160.2443574852945
 20
-97.91226196142118
 30
0.0
 10
164.9494459689702
 20
-94.52149269320743
 30
0.0
 10
170.4749902519406
 20
-90.31150389520542
 30
0.0
 10
176.9647533160507
 20
-85.01458382843708
 30
0.0
 10
184.0835446659804
 20
-78.73621235206602
 30
0.0
 10
191.73018235534
 20
-71.38551804560916
 30
0.0
 10
199.2757515975429
 20
-63.40441918312359
 30
0.0
 10
206.6020759642997
 20
-54.87450844181812
 30
0.0
 10
213.6103205853833
 20
-45.89153278658431
 30
0.0
 10
220.6054004800209
 20
-35.93449050232267
 30
0.0
 10
227.4540789551219
 20
-24.95439396426385
 30
0.0
 10
234.0922082426706
 20
-12.9452757640831
 30
0.0
 10
237.9950465023801
 20
-4.39329566561883
 30
0.0
 10
240.0000000000001
 20
0.0
 30
0.0
  0
SPLINE
  5
B2
330
AD
100
AcDbEntity
  8
0
  6
Continuous
 62
     7
370
    25
100
AcDbSpline
210
0.0
220
0.0
230
1.0
 70
     8
 71
     3
 72
    30
 73
    26
 74
     0
 42
0.000000001
 43
0.00000001
 40
0.0
 40
0.0
 40
0.0
 40
0.0
 40
0.0560855584635644
 40
0.108753825526414
 40
0.1580046378824209
 40
0.203837995201279
 40
0.2462536507117906
 40
0.2852514994788989
 40
0.3208314931802208
 40
0.3529934853798812
 40
0.3817373784398904
 40
0.4070631393380156
 40
0.4290897857159275
 40
0.4522936795316266
 40
0.4846951878316073
 40
0.5220678763526999
 40
0.5644116070392835
 40
0.6117260790461119
 40
0.6640109869711333
 40
0.7113802777202458
 40
0.7622012790627257
 40
0.8164739539986827
 40
0.8741980535137075
 40
0.935373429327333
 40
0.9999999999999999
 40
0.9999999999999999
 40
0.9999999999999999
 40
0.9999999999999999
 10
-240.0000000000001
 20
0.0
 30
0.0
 10
-238.2691755877404
 20
-3.816481350476367
 30
0.0
 10
-234.9129858429233
 20
-11.21690595682415
 30
0.0
 10
-229.3311894927486
 20
-21.62548474791605
 30
0.0
 10
-223.679810631157
 20
-31.10953331418818
 30
0.0
 10
-218.0153506158681
 20
-39.68203582931138
 30
0.0
 10
-212.4452411309311
 20
-47.38746927302509
 30
0.0
 10
-207.0510015875321
 20
-54.26613909227418
 30
0.0
 10
-201.9088468193194
 20
-60.36197647606816
 30
0.0
 10
-197.0845610415011
 20
-65.71837609902478
 30
0.0
 10
-192.6352548963958
 20
-70.37749471607664
 30
0.0
 10
-188.603716670585
 20
-74.38568360437205
 30
0.0
 10
-184.782454276035
 20
-78.01623967699842
 30
0.0
 10
-180.492424520915
 20
-81.91890781170649
 30
0.0
 10
-175.2312875928322
 20
-86.45499461933399
 30
0.0
 10
-168.7073985617468
 20
-91.70982656070996
 30
0.0
 10
-161.0932389041597
 20
-97.37725202452661
 30
0.0
 10
-152.3208122585181
 20
-103.3394919967309
 30
0.0
 10
-142.9524826294064
 20
-109.0725500116088
 30
0.0
 10
-133.0925063119124
 20
-114.4776654590371
 30
0.0
 10
-122.8549906287217
 20
-119.4779271449788
 30
0.0
 10
-111.6671620021215
 20
-124.2639823478326
 30
0.0
 10
-99.50862875252476
 20
-128.6953462528684
 30
0.0
 10
-86.3868107750725
 20
-132.708022834744
 30
0.0
 10
-77.2128285792617
 20
-134.7590130241225
 30
0.0
 10
-72.49999999999994
 20
-135.8126410968587
 30
0.0
  0
SPLINE
  5
B5
330
AD
100
AcDbEntity
  8
0
  6
Continuous
 62
     7
370
    25
100
AcDbSpline
210
0.0
220
0.0
230
1.0
 70
     8
 71
     3
 72
    19
 73
    15
 74
     0
 42
0.000000001
 43
0.00000001
 40
0.2499999999999998
 40
0.2499999999999998
 40
0.2499999999999998
 40
0.2499999999999998
 40
0.2916666666666666
 40
0.3333333333333334
 40
0.3750000000000001
 40
0.4166666666666666
 40
0.4583333333333334
 40
0.500000000000984
 40
0.5416666666666667
 40
0.5833333333333333
 40
0.625
 40
0.6666666666666667
 40
0.7083333333333333
 40
0.7499999999999999
 40
0.7499999999999999
 40
0.7499999999999999
 40
0.7499999999999999
 10
72.50000000000006
 20
-135.8126410968587
 30
0.0
 10
72.50000000000293
 20
-135.8126410968582
 30
0.0
 10
70.7164617003827
 20
-135.9296180062936
 30
0.0
 10
63.29308789446805
 20
-136.3390371893195
 30
0.0
 10
51.62818242412792
 20
-136.8654332817824
 30
0.0
 10
36.48847927448185
 20
-137.3918293742463
 30
0.0
 10
18.97939856735839
 20
-137.8012485572786
 30
0.0
 10
0.0000000000468098
 20
-137.9767139214341
 30
0.0
 10
-18.97939856726952
 20
-137.80124855728
 30
0.0
 10
-36.48847927437058
 20
-137.3918293742567
 30
0.0
 10
-51.62818242404538
 20
-136.8654332817921
 30
0.0
 10
-63.29308789441712
 20
-136.3390371893264
 30
0.0
 10
-70.71646170036149
 20
-135.9296180062968
 30
0.0
 10
-72.49999999999707
 20
-135.8126410968592
 30
0.0
 10
-72.49999999999994
 20
-135.8126410968587
 30
0.0
  0
SPLINE
  5
B6
330
AD
100
AcDbEntity
  8
0
  6
Continuous
 62
     7
370
    25
100
AcDbSpline
210
0.0
220
0.0
230
1.0
 70
    24
 71
     3
 72
    19
 73
    15
 74
     0
 42
0.000000001
 43
0.00000001
 40
0.2499999999999998
 40
0.2499999999999998
 40
0.2499999999999998
 40
0.2499999999999998
 40
0.2916666666666666
 40
0.3333333333333334
 40
0.3750000000000001
 40
0.4166666666666666
 40
0.4583333333333334
 40
0.500000000000984
 40
0.5416666666666667
 40
0.5833333333333333
 40
0.625
 40
0.6666666666666667
 40
0.7083333333333333
 40
0.7499999999999999
 40
0.7499999999999999
 40
0.7499999999999999
 40
0.7499999999999999
 10
240.0000000000001
 20
0.0
 30
0.0
 10
239.9999999999989
 20
0.0
 30
0.0
 10
234.3653754005922
 20
0.0
 30
0.0
 10
210.3843271333237
 20
0.0
 30
0.0
 10
171.6977681166116
 20
0.0
 30
0.0
 10
121.0583653088579
 20
0.0
 30
0.0
 10
63.16299334209026
 20
0.0
 30
0.0
 10
-0.0000000000001527
 20
0.0
 30
0.0
 10
-63.16299334209051
 20
0.0
 30
0.0
 10
-121.0583653088582
 20
0.0
 30
0.0
 10
-171.6977681166117
 20
0.0
 30
0.0
 10
-210.3843271333237
 20
0.0
 30
0.0
 10
-234.3653754005957
 20
0.0
 30
0.0
 10
-240.0000000000014
 20
0.0
 30
0.0
 10
-240.0000000000001
 20
0.0
 30
0.0
  0
SPLINE
  5
B7
330
AD
100
AcDbEntity
  8
0
  6
Continuous
 62
     7
370
    25
100
AcDbSpline
210
0.0
220
0.0
230
1.0
 70
    24
 71
     3
 72
    19
 73
    15
 74
     0
 42
0.000000001
 43
0.00000001
 40
0.2499999999999998
 40
0.2499999999999998
 40
0.2499999999999998
 40
0.2499999999999998
 40
0.2916666666666666
 40
0.3333333333333334
 40
0.3750000000000001
 40
0.4166666666666666
 40
0.4583333333333334
 40
0.500000000000984
 40
0.5416666666666667
 40
0.5833333333333333
 40
0.625
 40
0.6666666666666667
 40
0.7083333333333333
 40
0.7499999999999999
 40
0.7499999999999999
 40
0.7499999999999999
 40
0.7499999999999999
 10
72.50000000000006
 20
-145.0
 30
0.0
 10
72.50000000000463
 20
-145.0
 30
0.0
 10
70.68536339587705
 20
-145.0
 30
0.0
 10
63.18233500964586
 20
-145.0
 30
0.0
 10
51.48271120773572
 20
-145.0
 30
0.0
 10
36.36643255413841
 20
-145.0
 30
0.0
 10
18.88984618311877
 20
-145.0
 30
0.0
 10
0.0000000000746417
 20
-145.0
 30
0.0
 10
-18.88984618297711
 20
-145.0
 30
0.0
 10
-36.36643255396108
 20
-145.0
 30
0.0
 10
-51.48271120760424
 20
-144.9999999999999
 30
0.0
 10
-63.18233500956482
 20
-144.9999999999999
 30
0.0
 10
-70.68536339584342
 20
-144.9999999999999
 30
0.0
 10
-72.49999999999545
 20
-144.9999999999999
 30
0.0
 10
-72.50000000000006
 20
-144.9999999999999
 30
0.0
  0
LINE
  5
B8
330
AD
100
AcDbEntity
  8
0
  6
Continuous
 62
     7
370
    25
100
AcDbLine
 10
72.5
 20
-145.0
 30
0.0
 11
72.5
 21
-135.8126410969
 31
0.0
  0
LINE
  5
B9
330
AD
100
AcDbEntity
  8
0
  6
Continuous
 62
     7
370
    25
100
AcDbLine
 10
-72.5
 20
-135.8126410969
 30
0.0
 11
-72.5
 21
-145.0
 31
0.0
  0
VIEWPORT
  5
FA
330
AD
100
AcDbEntity
  8
0
100
AcDbViewport
 10
0.0
 20
0.0
 30
0.0
 40
205.6
 41
156.0
 68
     1
 69
     1
 12
0.0
 22
-22.1062804708
 13
0.0
 23
0.0
 14
10.0
 24
10.0
 15
10.0
 25
10.0
 16
0.0
 26
0.0
 36
1.0
 17
0.0
 27
0.0
 37
0.0
 42
50.0
 43
0.0
 44
0.0
 45
315.6896706028
 50
0.0
 51
0.0
 72
   100
 90
   557152
  1

281
     0
 71
     1
 74
     0
110
0.0
120
0.0
130
0.0
111
1.0
121
0.0
131
0.0
112
0.0
122
1.0
132
0.0
 79
     0
146
0.0
170
     0
 61
     5
348
2F
292
     1
282
     1
141
0.0
142
0.0
 63
   256
361
FB
  0
ENDBLK
  5
B0
330
AD
100
AcDbEntity
  8
0
100
AcDbBlockEnd
  0
BLOCK
  5
BC
330
BA
100
AcDbEntity
  8
0
100
AcDbBlockBegin
  2
*Paper_Space4
 70
     0
 10
0.0
 20
0.0
 30
0.0
  3
*Paper_Space4
  1

  0
SPLINE
  5
BE
330
BA
100
AcDbEntity
  8
0
  6
Continuous
 62
     7
370
    25
100
AcDbSpline
210
0.0
220
0.0
230
1.0
 70
     8
 71
     3
 72
    30
 73
    26
 74
     0
 42
0.000000001
 43
0.00000001
 40
0.0
 40
0.0
 40
0.0
 40
0.0
 40
0.0560126987194618
 40
0.108620578734342
 40
0.1578232631422094
 40
0.2036210329687119
 40
0.2460131241471248
 40
0.2849993386252504
 40
0.3205797035644785
 40
0.3527538150866333
 40
0.3815214486441414
 40
0.406882630413132
 40
0.4289385875016229
 40
0.4521006811890941
 40
0.4844639084707496
 40
0.5218113333520364
 40
0.5641428310302588
 40
0.6114576619491604
 40
0.6637551136349803
 40
0.7111461215421615
 40
0.7619973039688114
 40
0.8163088007003639
 40
0.8740798922229773
 40
0.9353102848736338
 40
1.0
 40
1.0
 40
1.0
 40
1.0
 10
47.49999999999994
 20
-137.9182254667158
 30
0.0
 10
51.00820419931006
 20
-137.1175596697037
 30
0.0
 10
57.81136096838237
 20
-135.5648977870863
 30
0.0
 10
67.44672595285846
 20
-132.3813669312169
 30
0.0
 10
76.24099382793844
 20
-128.8322875543011
 30
0.0
 10
84.19081882321595
 20
-124.9926482381523
 30
0.0
 10
91.32222731000795
 20
-121.0050985482271
 30
0.0
 10
97.66526769442802
 20
-116.9775460216978
 30
0.0
 10
103.2588824964313
 20
-113.0120893641341
 30
0.0
 10
108.1453066861997
 20
-109.1962818852844
 30
0.0
 10
112.3680472731075
 20
-105.6054836112879
 30
0.0
 10
115.9753234988653
 20
-102.2997275726725
 30
0.0
 10
119.215983893882
 20
-99.13064808445554
 30
0.0
 10
122.6688519606144
 20
-95.53874686951951
 30
0.0
 10
126.6369441012284
 20
-91.08441736557732
 30
0.0
 10
131.1624905070926
 20
-85.48770588130292
 30
0.0
 10
135.9390195136276
 20
-78.8730406961043
 30
0.0
 10
140.8162037545094
 20
-71.16590235691781
 30
0.0
 10
145.3116656291291
 20
-62.85641552716088
 30
0.0
 10
149.3243980373843
 20
-54.05506352501235
 30
0.0
 10
152.7824497177689
 20
-44.88187034501023
 30
0.0
 10
155.7653630899262
 20
-34.8428972549419
 30
0.0
 10
158.0947362858292
 20
-23.95195600733107
 30
0.0
 10
159.6877063120956
 20
-12.24332203349802
 30
0.0
 10
159.8940128614645
 20
-4.15517417981541
 30
0.0
 10
160.0
 20
0.0
 30
0.0
  0
SPLINE
  5
BF
330
BA
100
AcDbEntity
  8
0
  6
Continuous
 62
     7
370
    25
100
AcDbSpline
210
0.0
220
0.0
230
1.0
 70
     8
 71
     3
 72
    30
 73
    26
 74
     0
 42
0.000000001
 43
0.00000001
 40
0.0
 40
0.0
 40
0.0
 40
0.0
 40
0.0560126987194623
 40
0.108620578734343
 40
0.1578232631422095
 40
0.2036210329687113
 40
0.2460131241471238
 40
0.2849993386252502
 40
0.3205797035644795
 40
0.352753815086635
 40
0.3815214486441431
 40
0.4068826304131332
 40
0.4289385875016232
 40
0.4521006811890936
 40
0.4844639084707481
 40
0.521811333352035
 40
0.5641428310302585
 40
0.6114576619491616
 40
0.663755113634982
 40
0.7111461215421622
 40
0.7619973039688112
 40
0.8163088007003636
 40
0.8740798922229771
 40
0.9353102848736338
 40
0.9999999999999999
 40
0.9999999999999999
 40
0.9999999999999999
 40
0.9999999999999999
 10
-160.0000000000001
 20
0.0
 30
0.0
 10
-159.9205887137523
 20
-3.597534748988371
 30
0.0
 10
-159.7665932793694
 20
-10.57392252150342
 30
0.0
 10
-158.5840839818478
 20
-20.65245410381321
 30
0.0
 10
-156.8744750853999
 20
-29.98049512556568
 30
0.0
 10
-154.7105534472936
 20
-38.53970015160567
 30
0.0
 10
-152.2372888404144
 20
-46.32690129960937
 30
0.0
 10
-149.5664257661881
 20
-53.34985161347834
 30
0.0
 10
-146.8058055166206
 20
-59.62618405319873
 30
0.0
 10
-144.0496822220163
 20
-65.17967957070294
 30
0.0
 10
-141.3806210171311
 20
-70.03781528241699
 30
0.0
 10
-138.8671195017471
 20
-74.23576417299695
 30
0.0
 10
-136.4138406237416
 20
-78.04711135545065
 30
0.0
 10
-133.5890038873825
 20
-82.15129819781468
 30
0.0
 10
-130.0228556767595
 20
-86.93349366704868
 30
0.0
 10
-125.4496376954124
 20
-92.49131941143123
 30
0.0
 10
-119.9296592475437
 20
-98.4995523294877
 30
0.0
 10
-113.3597145748542
 20
-104.8259047142879
 30
0.0
 10
-106.1230049288565
 20
-110.8993536800393
 30
0.0
 10
-98.30746429136137
 20
-116.5987521561635
 30
0.0
 10
-90.01621109575927
 20
-121.8294992336146
 30
0.0
 10
-80.78136373208011
 20
-126.7687650756662
 30
0.0
 10
-70.58060490019011
 20
-131.2390111537161
 30
0.0
 10
-59.43086080621431
 20
-135.1521773496031
 30
0.0
 10
-51.54913018127888
 20
-136.9794760255994
 30
0.0
 10
-47.50000000000004
 20
-137.9182254667157
 30
0.0
  0
LWPOLYLINE
  5
C2
330
BA
100
AcDbEntity
  8
0
  6
Continuous
 62
     7
370
    25
100
AcDbPolyline
 90
       26
 70
   128
 43
0.0
 10
47.5
 20
-137.9182254667
 10
47.0768054071
 20
-137.8767961446
 10
45.8379762731
 20
-137.7622562541
 10
43.8283110394
 20
-137.5892279089
 10
41.0872740445
 20
-137.3723332227
 10
37.65608325
 20
-137.1261943091
 10
33.588305212
 20
-136.8654332818
 10
28.9452976092
 20
-136.6046722545
 10
23.8072340169
 20
-136.3585333409
 10
18.2579694241
 20
-136.1416386547
 10
12.3772685777
 20
-135.9686103094
 10
6.2518078056
 20
-135.854070419
 10
0.0
 20
-135.8126410969
 10
-6.2518078056
 20
-135.854070419
 10
-12.3772685777
 20
-135.9686103094
 10
-18.2579694241
 20
-136.1416386546
 10
-23.8072340169
 20
-136.3585333409
 10
-28.9452976092
 20
-136.6046722545
 10
-33.588305212
 20
-136.8654332818
 10
-37.65608325
 20
-137.1261943091
 10
-41.0872740445
 20
-137.3723332227
 10
-43.8283110393
 20
-137.5892279089
 10
-45.8379762731
 20
-137.7622562541
 10
-47.0768054071
 20
-137.8767961446
 10
-47.5
 20
-137.9182254667
 10
-47.5
 20
-137.9182254667
  0
LINE
  5
C5
330
BA
100
AcDbEntity
  8
0
  6
Continuous
 62
     7
370
    25
100
AcDbLine
 10
47.5
 20
-145.0
 30
0.0
 11
47.5
 21
-137.9182254667
 31
0.0
  0
LINE
  5
C6
330
BA
100
AcDbEntity
  8
0
  6
Continuous
 62
     7
370
    25
100
AcDbLine
 10
-47.5
 20
-137.9182254667
 30
0.0
 11
-47.5
 21
-145.0
 31
0.0
  0
LINE
  5
C7
330
BA
100
AcDbEntity
  8
0
  6
Continuous
 62
     7
370
    25
100
AcDbLine
 10
160.0
 20
0.0
 30
0.0
 11
-160.0
 21
0.0
 31
0.0
  0
LINE
  5
C8
330
BA
100
AcDbEntity
  8
0
  6
Continuous
 62
     7
370
    25
100
AcDbLine
 10
47.5
 20
-145.0
 30
0.0
 11
-47.5
 21
-145.0
 31
0.0
  0
VIEWPORT
  5
FC
330
BA
100
AcDbEntity
  8
0
100
AcDbViewport
 10
0.0
 20
0.0
 30
0.0
 40
205.6
 41
156.0
 68
     1
 69
     1
 12
0.0
 22
-22.1062804708
 13
0.0
 23
0.0
 14
10.0
 24
10.0
 15
10.0
 25
10.0
 16
0.0
 26
0.0
 36
1.0
 17
0.0
 27
0.0
 37
0.0
 42
50.0
 43
0.0
 44
0.0
 45
315.6896706028
 50
0.0
 51
0.0
 72
   100
 90
   557152
  1

281
     0
 71
     1
 74
     0
110
0.0
120
0.0
130
0.0
111
1.0
121
0.0
131
0.0
112
0.0
122
1.0
132
0.0
 79
     0
146
0.0
170
     0
 61
     5
348
2F
292
     1
282
     1
141
0.0
142
0.0
 63
   256
361
FD
  0
ENDBLK
  5
BD
330
BA
100
AcDbEntity
  8
0
100
AcDbBlockEnd
  0
BLOCK
  5
CB
330
C9
100
AcDbEntity
  8
0
100
AcDbBlockBegin
  2
*Paper_Space5
 70
     0
 10
0.0
 20
0.0
 30
0.0
  3
*Paper_Space5
  1

  0
LINE
  5
CD
330
C9
100
AcDbEntity
  8
0
  6
CENTERX2
 62
     7
100
AcDbLine
 10
0.0
 20
-160.0
 30
0.0
 11
0.0
 21
160.0
 31
0.0
  0
LINE
  5
CE
330
C9
100
AcDbEntity
  8
0
  6
CENTERX2
 62
     7
100
AcDbLine
 10
-240.0
 20
0.0
 30
0.0
 11
240.0
 21
0.0
 31
0.0
  0
SPLINE
  5
CF
330
C9
100
AcDbEntity
  8
0
  6
Continuous
 62
     7
370
    25
100
AcDbSpline
210
0.0
220
0.0
230
1.0
 70
    11
 71
     3
 72
    35
 73
    31
 74
     0
 42
0.000000001
 43
0.00000001
 40
0.0
 40
0.0
 40
0.0
 40
0.0
 40
0.0062500000000001
 40
0.0083333333333333
 40
0.0416666666666666
 40
0.0833333333333334
 40
0.1249999999999999
 40
0.1666666666666666
 40
0.2083333333333334
 40
0.2499999999999998
 40
0.2916666666666666
 40
0.3333333333333334
 40
0.3750000000000001
 40
0.4166666666666666
 40
0.4583333333333334
 40
0.500000000000984
 40
0.5416666666666667
 40
0.5833333333333333
 40
0.625
 40
0.6666666666666667
 40
0.7083333333333333
 40
0.7499999999999999
 40
0.7916666666666666
 40
0.8333333333333334
 40
0.875
 40
0.9166666666666666
 40
0.9583333333333334
 40
0.9916666666666667
 40
0.99375
 40
1.0
 40
1.0
 40
1.0
 40
1.0
 10
-0.0000000000000486
 20
47.5
 30
0.0
 10
-0.9444923091524587
 20
47.49999999999997
 30
0.0
 10
-2.2038153880223
 20
47.48246349430878
 30
0.0
 10
-8.493364483311131
 20
47.27991307942923
 30
0.0
 10
-20.05495194111297
 20
46.00739819366559
 30
0.0
 10
-36.3664325540437
 20
41.47837821674588
 30
0.0
 10
-51.48271120765932
 20
33.88317743634639
 30
0.0
 10
-63.18233500959239
 20
24.00553325784486
 30
0.0
 10
-70.68536339584955
 20
12.4899527065679
 30
0.0
 10
-73.40731830206842
 20
-0.0000000000001076
 30
0.0
 10
-70.68536339587706
 20
-12.4899527065677
 30
0.0
 10
-63.18233500964586
 20
-24.00553325784383
 30
0.0
 10
-51.48271120773572
 20
-33.88317743634454
 30
0.0
 10
-36.36643255413841
 20
-41.47837821674358
 30
0.0
 10
-18.88984618311877
 20
-46.33089962059093
 30
0.0
 10
-0.0000000000746417
 20
-48.0845501897056
 30
0.0
 10
18.88984618297711
 20
-46.33089962058677
 30
0.0
 10
36.36643255396108
 20
-41.47837821674973
 30
0.0
 10
51.48271120760424
 20
-33.88317743635025
 30
0.0
 10
63.18233500956482
 20
-24.0055332578479
 30
0.0
 10
70.68536339584341
 20
-12.48995270656958
 30
0.0
 10
73.40731830207149
 20
0.0000000000000729
 30
0.0
 10
70.68536339587095
 20
12.48995270656932
 30
0.0
 10
63.18233500961837
 20
24.00553325784682
 30
0.0
 10
51.48271120768069
 20
33.88317743634836
 30
0.0
 10
36.36643255405587
 20
41.47837821674742
 30
0.0
 10
20.05495194111655
 20
46.00739819366645
 30
0.0
 10
8.493364483311575
 20
47.27991307942959
 30
0.0
 10
2.20381538802223
 20
47.48246349430888
 30
0.0
 10
0.9444923091523477
 20
47.50000000000002
 30
0.0
 10
-0.0000000000000486
 20
47.5
 30
0.0
  0
SPLINE
  5
D0
330
C9
100
AcDbEntity
  8
0
  6
Continuous
 62
     7
370
    25
100
AcDbSpline
210
0.0
220
0.0
230
1.0
 70
    11
 71
     3
 72
    35
 73
    31
 74
     0
 42
0.000000001
 43
0.00000001
 40
0.0
 40
0.0
 40
0.0
 40
0.0
 40
0.0062500000000001
 40
0.0083333333333333
 40
0.0416666666666666
 40
0.0833333333333334
 40
0.1249999999999999
 40
0.1666666666666666
 40
0.2083333333333334
 40
0.2499999999999998
 40
0.2916666666666666
 40
0.3333333333333334
 40
0.3750000000000001
 40
0.4166666666666666
 40
0.4583333333333334
 40
0.500000000000984
 40
0.5416666666666667
 40
0.5833333333333333
 40
0.625
 40
0.6666666666666667
 40
0.7083333333333333
 40
0.7499999999999999
 40
0.7916666666666666
 40
0.8333333333333334
 40
0.875
 40
0.9166666666666666
 40
0.9583333333333334
 40
0.9916666666666667
 40
0.99375
 40
1.0
 40
1.0
 40
1.0
 40
1.0
 10
-0.0000000000000555
 20
47.50000000000004
 30
0.0
 10
-0.9489699283657671
 20
47.50000000000003
 30
0.0
 10
-2.214263166186683
 20
47.48276466983634
 30
0.0
 10
-8.533377765990169
 20
47.28353109660992
 30
0.0
 10
-20.14667061445371
 20
46.03087510159104
 30
0.0
 10
-36.48847927442247
 20
41.54943467664048
 30
0.0
 10
-51.62818242408003
 20
33.97492757121779
 30
0.0
 10
-63.29308789443452
 20
24.08068631025891
 30
0.0
 10
-70.71646170036544
 20
12.54573128902374
 30
0.0
 10
-73.39176914981304
 20
-0.0000000000000468
 30
0.0
 10
-70.71646170038271
 20
-12.54573128902377
 30
0.0
 10
-63.29308789446805
 20
-24.08068631025881
 30
0.0
 10
-51.62818242412792
 20
-33.97492757121756
 30
0.0
 10
-36.48847927448185
 20
-41.54943467664014
 30
0.0
 10
-18.97939856735839
 20
-46.35097798908777
 30
0.0
 10
-0.0000000000468098
 20
-48.07451100545617
 30
0.0
 10
18.97939856726952
 20
-46.35097798908721
 30
0.0
 10
36.48847927437058
 20
-41.5494346766409
 30
0.0
 10
51.62818242404538
 20
-33.97492757121823
 30
0.0
 10
63.29308789441712
 20
-24.08068631025928
 30
0.0
 10
70.71646170036149
 20
-12.54573128902396
 30
0.0
 10
73.39176914981485
 20
0.0000000000000139
 30
0.0
 10
70.71646170037876
 20
12.54573128902395
 30
0.0
 10
63.29308789445072
 20
24.08068631025918
 30
0.0
 10
51.62818242409335
 20
33.97492757121807
 30
0.0
 10
36.48847927443004
 20
41.5494346766407
 30
0.0
 10
20.14667061445589
 20
46.03087510159116
 30
0.0
 10
8.53337776599039
 20
47.28353109660998
 30
0.0
 10
2.214263166186586
 20
47.48276466983635
 30
0.0
 10
0.9489699283656422
 20
47.50000000000004
 30
0.0
 10
-0.0000000000000555
 20
47.50000000000004
 30
0.0
  0
SPLINE
  5
D1
330
C9
100
AcDbEntity
  8
0
  6
Continuous
 62
     7
370
    25
100
AcDbSpline
210
0.0
220
0.0
230
1.0
 70
    11
 71
     3
 72
    35
 73
    31
 74
     0
 42
0.000000001
 43
0.00000001
 40
0.0
 40
0.0
 40
0.0
 40
0.0
 40
0.0062500000000001
 40
0.0083333333333333
 40
0.0416666666666666
 40
0.0833333333333334
 40
0.1249999999999999
 40
0.1666666666666666
 40
0.2083333333333334
 40
0.2499999999999998
 40
0.2916666666666666
 40
0.3333333333333334
 40
0.3750000000000001
 40
0.4166666666666666
 40
0.4583333333333334
 40
0.500000000000984
 40
0.5416666666666667
 40
0.5833333333333333
 40
0.625
 40
0.6666666666666667
 40
0.7083333333333333
 40
0.7499999999999999
 40
0.7916666666666666
 40
0.8333333333333334
 40
0.875
 40
0.9166666666666666
 40
0.9583333333333334
 40
0.9916666666666667
 40
0.99375
 40
1.0
 40
1.0
 40
1.0
 40
1.0
 10
0.0
 20
23.00000000000001
 30
0.0
 10
-0.3058699265881815
 20
23.00000000000001
 30
0.0
 10
-0.7136964953724095
 20
22.99133516299608
 30
0.0
 10
-2.750466703463503
 20
22.89145991336859
 30
0.0
 10
-6.493723289480211
 20
22.26524099857056
 30
0.0
 10
-11.76226989751439
 20
20.06579618222134
 30
0.0
 10
-16.46208693124018
 20
16.46208693124019
 30
0.0
 10
-20.06579618222134
 20
11.7622698975144
 30
0.0
 10
-22.42234419973835
 20
6.117398531763476
 30
0.0
 10
-23.28882790013082
 20
-0.0000000000000035
 30
0.0
 10
-22.42234419973835
 20
-6.117398531763483
 30
0.0
 10
-20.06579618222134
 20
-11.7622698975144
 30
0.0
 10
-16.46208693124018
 20
-16.46208693124019
 30
0.0
 10
-11.76226989751439
 20
-20.06579618222134
 30
0.0
 10
-6.117398531763476
 20
-22.42234419973835
 30
0.0
 10
0.0000000000000139
 20
-23.28882790013082
 30
0.0
 10
6.117398531763484
 20
-22.42234419973835
 30
0.0
 10
11.7622698975144
 20
-20.06579618222135
 30
0.0
 10
16.4620869312402
 20
-16.46208693124019
 30
0.0
 10
20.06579618222135
 20
-11.76226989751439
 30
0.0
 10
22.42234419973835
 20
-6.117398531763478
 30
0.0
 10
23.28882790013082
 20
-0.0000000000000052
 30
0.0
 10
22.42234419973836
 20
6.117398531763476
 30
0.0
 10
20.06579618222136
 20
11.7622698975144
 30
0.0
 10
16.4620869312402
 20
16.4620869312402
 30
0.0
 10
11.7622698975144
 20
20.06579618222136
 30
0.0
 10
6.493723289480203
 20
22.26524099857057
 30
0.0
 10
2.750466703463496
 20
22.89145991336859
 30
0.0
 10
0.7136964953724025
 20
22.99133516299608
 30
0.0
 10
0.3058699265881676
 20
23.00000000000001
 30
0.0
 10
0.0
 20
23.00000000000001
 30
0.0
  0
SPLINE
  5
D2
330
C9
100
AcDbEntity
  8
0
  6
Continuous
 62
     7
370
    25
100
AcDbSpline
210
0.0
220
0.0
230
1.0
 70
    11
 71
     3
 72
    35
 73
    31
 74
     0
 42
0.000000001
 43
0.00000001
 40
0.0
 40
0.0
 40
0.0
 40
0.0
 40
0.0062500000000001
 40
0.0083333333333333
 40
0.0416666666666666
 40
0.0833333333333334
 40
0.1249999999999999
 40
0.1666666666666666
 40
0.2083333333333334
 40
0.2499999999999998
 40
0.2916666666666666
 40
0.3333333333333334
 40
0.3750000000000001
 40
0.4166666666666666
 40
0.4583333333333334
 40
0.500000000000984
 40
0.5416666666666667
 40
0.5833333333333333
 40
0.625
 40
0.6666666666666667
 40
0.7083333333333333
 40
0.7499999999999999
 40
0.7916666666666666
 40
0.8333333333333334
 40
0.875
 40
0.9166666666666666
 40
0.9583333333333334
 40
0.9916666666666667
 40
0.99375
 40
1.0
 40
1.0
 40
1.0
 40
1.0
 10
-0.0000000000003123
 20
160.0
 30
0.0
 10
-3.158149667104884
 20
160.0
 30
0.0
 10
-7.369015889910916
 20
159.943653754006
 30
0.0
 10
-28.39700889706448
 20
159.2908634255088
 30
0.0
 10
-67.02268480654207
 20
155.1777592329618
 30
0.0
 10
-121.0583653088586
 20
140.2562180888824
 30
0.0
 10
-171.6977681166121
 20
114.4651787444076
 30
0.0
 10
-210.384327133324
 20
80.70557687257187
 30
0.0
 10
-234.3653754005941
 20
42.10866222806003
 30
0.0
 10
-242.8173122997032
 20
-0.0000000000001995
 30
0.0
 10
-234.365375400594
 20
-42.10866222806041
 30
0.0
 10
-210.3843271333237
 20
-80.70557687257218
 30
0.0
 10
-171.6977681166116
 20
-114.4651787444079
 30
0.0
 10
-121.0583653088579
 20
-140.2562180888825
 30
0.0
 10
-63.16299334209026
 20
-156.2435836003961
 30
0.0
 10
0.0000000000001527
 20
-161.878208199802
 30
0.0
 10
63.16299334209051
 20
-156.2435836003959
 30
0.0
 10
121.0583653088582
 20
-140.2562180888824
 30
0.0
 10
171.6977681166117
 20
-114.4651787444077
 30
0.0
 10
210.3843271333237
 20
-80.70557687257197
 30
0.0
 10
234.365375400594
 20
-42.10866222806018
 30
0.0
 10
242.8173122997032
 20
0.000000000000052
 30
0.0
 10
234.365375400594
 20
42.1086622280603
 30
0.0
 10
210.3843271333237
 20
80.70557687257205
 30
0.0
 10
171.6977681166116
 20
114.4651787444078
 30
0.0
 10
121.058365308858
 20
140.2562180888825
 30
0.0
 10
67.02268480654146
 20
155.1777592329617
 30
0.0
 10
28.3970088970638
 20
159.2908634255087
 30
0.0
 10
7.369015889910235
 20
159.943653754006
 30
0.0
 10
3.158149667104204
 20
160.0
 30
0.0
 10
-0.0000000000003123
 20
160.0
 30
0.0
  0
VIEWPORT
  5
FE
330
C9
100
AcDbEntity
  8
0
100
AcDbViewport
 10
0.0
 20
0.0
 30
0.0
 40
205.6
 41
156.0
 68
     1
 69
     1
 12
0.0
 22
-22.1062804708
 13
0.0
 23
0.0
 14
10.0
 24
10.0
 15
10.0
 25
10.0
 16
0.0
 26
0.0
 36
1.0
 17
0.0
 27
0.0
 37
0.0
 42
50.0
 43
0.0
 44
0.0
 45
315.6896706028
 50
0.0
 51
0.0
 72
   100
 90
   557152
  1

281
     0
 71
     1
 74
     0
110
0.0
120
0.0
130
0.0
111
1.0
121
0.0
131
0.0
112
0.0
122
1.0
132
0.0
 79
     0
146
0.0
170
     0
 61
     5
348
2F
292
     1
282
     1
141
0.0
142
0.0
 63
   256
361
FF
  0
ENDBLK
  5
CC
330
C9
100
AcDbEntity
  8
0
100
AcDbBlockEnd
  0
BLOCK
  5
D5
330
D3
100
AcDbEntity
  8
0
100
AcDbBlockBegin
  2
*Paper_Space6
 70
     0
 10
0.0
 20
0.0
 30
0.0
  3
*Paper_Space6
  1

  0
LINE
  5
D7
330
D3
100
AcDbEntity
  8
0
  6
CENTERX2
 62
     7
100
AcDbLine
 10
113.1370849898
 20
65.3126489458
 30
0.0
 11
-113.1370849898
 21
-65.3126489458
 31
0.0
  0
LINE
  5
D8
330
D3
100
AcDbEntity
  8
0
  6
CENTERX2
 62
     7
100
AcDbLine
 10
-169.7056274848
 20
97.9689734187
 30
0.0
 11
169.7056274848
 21
-97.9689734187
 31
0.0
  0
SPLINE
  5
D9
330
D3
100
AcDbEntity
  8
0
  6
Continuous
 62
     7
370
    25
100
AcDbSpline
210
0.0
220
0.0
230
1.0
 70
     8
 71
     3
 72
   107
 73
   103
 74
     0
 42
0.000000001
 43
0.00000001
 40
0.0
 40
0.0
 40
0.0
 40
0.0
 40
0.0099579046977126
 40
0.0175352214201629
 40
0.023446695187754
 40
0.0297320919846554
 40
0.0363701326477296
 40
0.041757272027033
 40
0.0462131688357918
 40
0.0511050430341971
 40
0.0567100613369022
 40
0.0640319995438945
 40
0.0716891477535887
 40
0.0781421825804639
 40
0.0843513566275201
 40
0.0898616735833464
 40
0.0952993491613948
 40
0.1013299276185388
 40
0.1092189548539352
 40
0.1177689156022317
 40
0.1260305710547168
 40
0.1329463579421652
 40
0.1545174636919374
 40
0.1793642642605619
 40
0.2060928753195296
 40
0.2317556207694627
 40
0.2565328770465094
 40
0.2803694338325277
 40
0.3037925717337286
 40
0.3316065669722086
 40
0.3569451119968862
 40
0.3821635576512011
 40
0.3909385226712648
 40
0.3995010664263342
 40
0.4098287106115175
 40
0.4211058246815035
 40
0.4304153181239717
 40
0.4377449127084067
 40
0.4437627751751023
 40
0.4486800120876969
 40
0.4543188226222774
 40
0.461707695805381
 40
0.4709357050568063
 40
0.4819628583446548
 40
0.4946757697405409
 40
0.5159357178258046
 40
0.5377849187166693
 40
0.560250754574623
 40
0.5833077911817804
 40
0.5956085556696498
 40
0.6080006336390456
 40
0.6193481468517996
 40
0.629226780196848
 40
0.6376789255981254
 40
0.6447433208194069
 40
0.6536863735947528
 40
0.6630357523269964
 40
0.6772329325994727
 40
0.6911854652050536
 40
0.7055007505341359
 40
0.7184083884644336
 40
0.7335085868102525
 40
0.7485855043934985
 40
0.7543097576223613
 40
0.7604910896752829
 40
0.7670911260733603
 40
0.773730341585691
 40
0.7791775880222243
 40
0.7841877335277141
 40
0.7895003764378271
 40
0.7959571126308908
 40
0.8020074969990852
 40
0.8072831357952001
 40
0.8120115850630553
 40
0.8163033494451114
 40
0.8253793878762538
 40
0.836355574897541
 40
0.8496084049655769
 40
0.861827957328145
 40
0.872525643211954
 40
0.880497352947257
 40
0.8879448501255333
 40
0.8950931188388861
 40
0.9036760741875918
 40
0.9139350229636215
 40
0.9227389479519447
 40
0.9298692806420148
 40
0.9343683727253553
 40
0.9401629152493577
 40
0.9468551756842395
 40
0.9519910769171593
 40
0.9558851767932428
 40
0.9597120934112795
 40
0.9631711265450982
 40
0.9677486935328594
 40
0.9730227814901588
 40
0.977164467634212
 40
0.9795116800021932
 40
0.982259039118472
 40
0.9865946517669427
 40
0.9925115484212536
 40
1.0
 40
1.0
 40
1.0
 40
1.0
 10
-201.7481517776752
 20
28.84019382839594
 30
0.0
 10
-201.2889259435502
 20
27.1211528542716
 30
0.0
 10
-200.4802591679895
 20
24.09403369349815
 30
0.0
 10
-199.3117114867192
 20
20.07190150381821
 30
0.0
 10
-198.2873540709195
 20
16.69443649817001
 30
0.0
 10
-197.2739719400076
 20
13.49153634077101
 30
0.0
 10
-196.2508002026452
 20
10.39141424672723
 30
0.0
 10
-195.2974491398217
 20
7.611891792910629
 30
0.0
 10
-194.4220289436186
 20
5.1365915533624
 30
0.0
 10
-193.5121300106607
 20
2.636046039870131
 30
0.0
 10
-192.3990436916865
 20
-0.3286956101473323
 30
0.0
 10
-191.0713614744928
 20
-3.734570291357979
 30
0.0
 10
-189.6373663630376
 20
-7.260282676814694
 30
0.0
 10
-188.2331343326111
 20
-10.58085818572182
 30
0.0
 10
-186.9415235175694
 20
-13.53264449245848
 30
0.0
 10
-185.6913660161995
 20
-16.30263991798565
 30
0.0
 10
-184.4258336009739
 20
-19.02822472596661
 30
0.0
 10
-182.9497319667431
 20
-22.11573998193582
 30
0.0
 10
-181.1881030496051
 20
-25.67434076722387
 30
0.0
 10
-179.1889678053958
 20
-29.5529370272393
 30
0.0
 10
-177.2086670764213
 20
-33.24259361320618
 30
0.0
 10
-174.0558723470481
 20
-38.9095058157255
 30
0.0
 10
-169.2564844579775
 20
-46.98508453049984
 30
0.0
 10
-162.1722196589016
 20
-57.72556055391171
 30
0.0
 10
-154.1085904395983
 20
-68.64922275960036
 30
0.0
 10
-145.4848161682589
 20
-79.08981871924713
 30
0.0
 10
-136.6692120536371
 20
-88.67609979325269
 30
0.0
 10
-127.6641582475476
 20
-97.50741008183783
 30
0.0
 10
-117.8190846026959
 20
-106.2266398830782
 30
0.0
 10
-107.406012973474
 20
-114.4764709904909
 30
0.0
 10
-96.12443575777475
 20
-122.40119321762
 30
0.0
 10
-87.31755069079253
 20
-127.8759387900731
 30
0.0
 10
-80.83788579018103
 20
-131.5668629172449
 30
0.0
 10
-76.58166872070029
 20
-133.881562465887
 30
0.0
 10
-71.918236281964
 20
-136.2916490609246
 30
0.0
 10
-67.07427156568134
 20
-138.6507779190963
 30
0.0
 10
-62.63167313918985
 20
-140.6915108963273
 30
0.0
 10
-58.99651711301966
 20
-142.2817674533196
 30
0.0
 10
-56.04683815520871
 20
-143.5213816009307
 30
0.0
 10
-53.35671416304449
 20
-144.6143878430709
 30
0.0
 10
-50.45876138763417
 20
-145.753316575803
 30
0.0
 10
-46.89691255741356
 20
-147.0959919977212
 30
0.0
 10
-42.45285410513225
 20
-148.6819012498879
 30
0.0
 10
-37.10702339300102
 20
-150.4607095970697
 30
0.0
 10
-29.70778605405507
 20
-152.7178704750128
 30
0.0
 10
-20.38734089599907
 20
-155.1982924492885
 30
0.0
 10
-9.241388237380182
 20
-157.6268030183014
 30
0.0
 10
2.407724042578108
 20
-159.5995035364861
 30
0.0
 10
12.56704563376354
 20
-160.8138661305593
 30
0.0
 10
21.04490276674542
 20
-161.4886986159073
 30
0.0
 10
27.48559163959204
 20
-161.8185271602683
 30
0.0
 10
33.52618756452359
 20
-161.9618130450948
 30
0.0
 10
38.87547774321864
 20
-161.954612308069
 30
0.0
 10
43.45819978434842
 20
-161.8472448351974
 30
0.0
 10
47.86894395796597
 20
-161.6601583920026
 30
0.0
 10
52.42809245734106
 20
-161.3757881555353
 30
0.0
 10
58.14972672086906
 20
-160.8899199660443
 30
0.0
 10
64.75883341298808
 20
-160.1363412041102
 30
0.0
 10
72.23012073663766
 20
-159.0130764528756
 30
0.0
 10
79.38119064550486
 20
-157.6714116011461
 30
0.0
 10
86.74297111830595
 20
-156.0152929464389
 30
0.0
 10
94.09056372002989
 20
-154.0705120202296
 30
0.0
 10
100.1979483432681
 20
-152.182698835076
 30
0.0
 10
104.7213316765559
 20
-150.6386624865366
 30
0.0
 10
107.8079387865139
 20
-149.5271200983411
 30
0.0
 10
111.0194576981611
 20
-148.304215179651
 30
0.0
 10
114.084654766281
 20
-147.0700131441596
 30
0.0
 10
116.8735885377834
 20
-145.8897697031167
 30
0.0
 10
119.4192409702301
 20
-144.7662175128072
 30
0.0
 10
122.1040661276607
 20
-143.5322710036064
 30
0.0
 10
124.9379547484045
 20
-142.1694003451887
 30
0.0
 10
127.7408379021456
 20
-140.7558692984778
 30
0.0
 10
130.2420370879587
 20
-139.4400737032426
 30
0.0
 10
132.4497479879556
 20
-138.2352388088892
 30
0.0
 10
135.222864317638
 20
-136.6713911445029
 30
0.0
 10
138.9021919650641
 20
-134.4946425174974
 30
0.0
 10
143.8411710869172
 20
-131.3595684417639
 30
0.0
 10
149.1114366880755
 20
-127.7254323250217
 30
0.0
 10
154.2133062779496
 20
-123.8911136349243
 30
0.0
 10
158.4008733927439
 20
-120.4958650648555
 30
0.0
 10
161.8966072317981
 20
-117.4817568247321
 30
0.0
 10
164.8443000141904
 20
-114.805256457136
 30
0.0
 10
167.7588016486945
 20
-112.028927314966
 30
0.0
 10
170.9836234319013
 20
-108.7930950370067
 30
0.0
 10
174.2873593067603
 20
-105.2603669955587
 30
0.0
 10
177.298772842784
 20
-101.8260989756539
 30
0.0
 10
179.5953666142041
 20
-99.05797895122943
 30
0.0
 10
181.4906267193138
 20
-96.67760798209873
 30
0.0
 10
183.2945984558959
 20
-94.32740840557734
 30
0.0
 10
185.1131782880672
 20
-91.8483680276077
 30
0.0
 10
186.6907214218409
 20
-89.60136681527241
 30
0.0
 10
187.9490483015429
 20
-87.74681110850837
 30
0.0
 10
189.0210108548263
 20
-86.11940450270846
 30
0.0
 10
190.1334171381297
 20
-84.3819694855
 30
0.0
 10
191.3521055389216
 20
-82.41712425781422
 30
0.0
 10
192.5971688525277
 20
-80.32832762871888
 30
0.0
 10
193.6146552944764
 20
-78.55347161660907
 30
0.0
 10
194.3974205434965
 20
-77.1498996208957
 30
0.0
 10
195.1808634292351
 20
-75.71427586118773
 30
0.0
 10
196.2338499519891
 20
-73.72224741421161
 30
0.0
 10
197.6255239821375
 20
-70.97773521386841
 30
0.0
 10
198.6113741326027
 20
-68.86743578331199
 30
0.0
 10
199.1620865040616
 20
-67.68858725005205
 30
0.0
  0
SPLINE
  5
DA
330
D3
100
AcDbEntity
  8
0
  6
Continuous
 62
     7
370
    25
100
AcDbSpline
210
0.0
220
0.0
230
1.0
 70
    11
 71
     3
 72
    35
 73
    31
 74
     0
 42
0.000000001
 43
0.00000001
 40
0.0
 40
0.0
 40
0.0
 40
0.0
 40
0.0062500000000001
 40
0.0083333333333333
 40
0.0416666666666666
 40
0.0833333333333334
 40
0.1249999999999999
 40
0.1666666666666666
 40
0.2083333333333334
 40
0.2499999999999998
 40
0.2916666666666666
 40
0.3333333333333334
 40
0.3750000000000001
 40
0.4166666666666666
 40
0.4583333333333334
 40
0.500000000000984
 40
0.5416666666666667
 40
0.5833333333333333
 40
0.625
 40
0.6666666666666667
 40
0.7083333333333333
 40
0.7499999999999999
 40
0.7916666666666666
 40
0.8333333333333334
 40
0.875
 40
0.9166666666666666
 40
0.9583333333333334
 40
0.9916666666666667
 40
0.99375
 40
1.0
 40
1.0
 40
1.0
 40
1.0
 10
-113.137084989848
 20
-65.31264894581648
 30
0.0
 10
-115.3702340354597
 20
-64.0234794425293
 30
0.0
 10
-118.3079232836385
 20
-62.28158600532961
 30
0.0
 10
-132.7153672657666
 20
-53.43140231238164
 30
0.0
 10
-157.1194407629953
 20
-35.98525893003168
 30
0.0
 10
-184.7773139434804
 20
-7.836641369594617
 30
0.0
 10
-202.3477602497526
 20
23.36257511204314
 30
0.0
 10
-205.8316450575099
 20
52.93539182195484
 30
0.0
 10
-195.4966668292458
 20
78.47997009321453
 30
0.0
 10
-171.6977681166113
 20
99.11901172623311
 30
0.0
 10
-135.9460256129352
 20
112.8578235142053
 30
0.0
 10
-91.6967236851738
 20
118.8240794500536
 30
0.0
 10
-40.46955204995001
 20
116.8128755602136
 30
0.0
 10
13.57493188497672
 20
106.6696728117435
 30
0.0
 10
65.81791656849487
 20
89.56265460154955
 30
0.0
 10
114.4651787444081
 20
66.0793411508217
 30
0.0
 10
155.1438783929603
 20
37.99587447006302
 30
0.0
 10
184.77731394348
 20
7.83664136959477
 30
0.0
 10
202.3477602497524
 20
-23.36257511204299
 30
0.0
 10
205.8316450575098
 20
-52.93539182195468
 30
0.0
 10
195.4966668292458
 20
-78.47997009321442
 30
0.0
 10
171.6977681166115
 20
-99.11901172623304
 30
0.0
 10
135.9460256129352
 20
-112.8578235142053
 30
0.0
 10
91.69672368517386
 20
-118.8240794500535
 30
0.0
 10
40.46955204995009
 20
-116.8128755602136
 30
0.0
 10
-13.57493188497667
 20
-106.6696728117436
 30
0.0
 10
-62.33505092292686
 20
-90.70312248222909
 30
0.0
 10
-92.55593215270915
 20
-76.61495072744647
 30
0.0
 10
-107.8865610707841
 20
-68.29771035400303
 30
0.0
 10
-110.9039359442364
 20
-66.60181844910363
 30
0.0
 10
-113.137084989848
 20
-65.31264894581648
 30
0.0
  0
SPLINE
  5
DB
330
D3
100
AcDbEntity
  8
0
  6
Continuous
 62
     7
370
    25
100
AcDbSpline
210
0.0
220
0.0
230
1.0
 70
    11
 71
     3
 72
    35
 73
    31
 74
     0
 42
0.000000001
 43
0.00000001
 40
0.0
 40
0.0
 40
0.0
 40
0.0
 40
0.0062500000000001
 40
0.0083333333333333
 40
0.0416666666666666
 40
0.0833333333333334
 40
0.1249999999999999
 40
0.1666666666666666
 40
0.2083333333333334
 40
0.2499999999999998
 40
0.2916666666666666
 40
0.3333333333333334
 40
0.3750000000000001
 40
0.4166666666666666
 40
0.4583333333333334
 40
0.500000000000984
 40
0.5416666666666667
 40
0.5833333333333333
 40
0.625
 40
0.6666666666666667
 40
0.7083333333333333
 40
0.7499999999999999
 40
0.7916666666666666
 40
0.8333333333333334
 40
0.875
 40
0.9166666666666666
 40
0.9583333333333334
 40
0.9916666666666667
 40
0.99375
 40
1.0
 40
1.0
 40
1.0
 40
1.0
 10
-98.99494936611704
 20
-57.14856782758939
 30
0.0
 10
-101.0203449145226
 20
-55.97933186538212
 30
0.0
 10
-103.6863154956819
 20
-54.40040135678097
 30
0.0
 10
-116.7715093849503
 20
-46.38407025517336
 30
0.0
 10
-139.0180604377578
 20
-30.62681813171944
 30
0.0
 10
-164.483890820902
 20
-5.32766908854615
 30
0.0
 10
-181.0080382461864
 20
22.58865840946746
 30
0.0
 10
-184.8904473982728
 20
48.94642635104606
 30
0.0
 10
-176.3229989643743
 20
71.61631629469395
 30
0.0
 10
-155.5987025565593
 20
89.82521900235538
 30
0.0
 10
-124.0565402578314
 20
101.7891006602041
 30
0.0
 10
-84.78688412440788
 20
106.7349833650189
 30
0.0
 10
-39.1289437425505
 20
104.4937162682299
 30
0.0
 10
9.228793506286499
 20
94.9545290069222
 30
0.0
 10
56.18325061703229
 20
79.20333869451635
 30
0.0
 10
100.1468432566149
 20
57.81354201619123
 30
0.0
 10
137.1990725532564
 20
32.43390020622879
 30
0.0
 10
164.4838908209061
 20
5.327669088538843
 30
0.0
 10
181.0080382461877
 20
-22.58865840947309
 30
0.0
 10
184.8904473982723
 20
-48.94642635104951
 30
0.0
 10
176.3229989643731
 20
-71.61631629469521
 30
0.0
 10
155.5987025565589
 20
-89.82521900235503
 30
0.0
 10
124.0565402578339
 20
-101.7891006602033
 30
0.0
 10
84.78688412441423
 20
-106.7349833650186
 30
0.0
 10
39.12894374256069
 20
-104.4937162682308
 30
0.0
 10
-9.228793506273453
 20
-94.95452900692477
 30
0.0
 10
-53.05295347630976
 20
-80.25341804868175
 30
0.0
 10
-80.34827224644
 20
-67.41075748961272
 30
0.0
 10
-94.2344696031228
 20
-59.85683584708143
 30
0.0
 10
-96.96955381771156
 20
-58.31780378979665
 30
0.0
 10
-98.99494936611704
 20
-57.14856782758939
 30
0.0
  0
SPLINE
  5
DC
330
D3
100
AcDbEntity
  8
0
  6
Continuous
 62
     7
370
    25
100
AcDbSpline
210
0.0
220
0.0
230
1.0
 70
     8
 71
     3
 72
    23
 73
    19
 74
     0
 42
0.000000001
 43
0.00000001
 40
0.0
 40
0.0
 40
0.0
 40
0.0
 40
0.0170535087093843
 40
0.0874247557876593
 40
0.1577960028659343
 40
0.2278396465238411
 40
0.2967846919038135
 40
0.3645610323671005
 40
0.4323373728303377
 40
0.5012824182099945
 40
0.5713260618675847
 40
0.6416973089458003
 40
0.7120685560241349
 40
0.7821121996823585
 40
0.8510572450626464
 40
0.9188335855259832
 40
0.9866099259892702
 40
1.0
 40
1.0
 40
1.0
 40
1.0
 10
-28.22264152412047
 20
-88.2698397771301
 30
0.0
 10
-27.98217062510292
 20
-87.99637638650628
 30
0.0
 10
-26.7493973595591
 20
-86.59446722226517
 30
0.0
 10
-23.44319589123804
 20
-84.43694613920337
 30
0.0
 10
-18.3757042383894
 20
-82.01748458997864
 30
0.0
 10
-12.56166718952143
 20
-80.25675480116449
 30
0.0
 10
-6.375359233149141
 20
-79.1612786320479
 30
0.0
 10
0.0002708664728276
 20
-78.79392068974609
 30
0.0
 10
6.374266425838269
 20
-79.16158265001874
 30
0.0
 10
12.56558936581276
 20
-80.25550597433845
 30
0.0
 10
18.3608573499487
 20
-82.02225777532519
 30
0.0
 10
23.49884296523528
 20
-84.4190436129925
 30
0.0
 10
27.65244339339654
 20
-87.38566362463926
 30
0.0
 10
30.70666487756418
 20
-90.73015189648639
 30
0.0
 10
32.6241789037959
 20
-94.30792240527717
 30
0.0
 10
33.17847769926453
 20
-97.97445652516166
 30
0.0
 10
32.93997180151642
 20
-100.6908089911147
 30
0.0
 10
32.17028770895211
 20
-102.0810313190077
 30
0.0
 10
32.04331244423081
 20
-102.3103771633756
 30
0.0
  0
SPLINE
  5
DD
330
D3
100
AcDbEntity
  8
0
  6
Continuous
 62
     7
370
    25
100
AcDbSpline
210
0.0
220
0.0
230
1.0
 70
     8
 71
     3
 72
    16
 73
    12
 74
     0
 42
0.000000001
 43
0.00000001
 40
0.0
 40
0.0
 40
0.0
 40
0.0
 40
0.0042272918621544
 40
0.1328118928058197
 40
0.2592168236295415
 40
0.3856217544531706
 40
0.5142063553962478
 40
0.6448398754514516
 40
0.7760843858233161
 40
0.9073288961954022
 40
1.0
 40
1.0
 40
1.0
 40
1.0
 10
-8.811352342298544
 20
-93.90424483651395
 30
0.0
 10
-8.767947663258422
 20
-93.89090810930169
 30
0.0
 10
-7.404271397714314
 20
-93.47189848265454
 30
0.0
 10
-4.415575477506471
 20
-93.06292404418467
 30
0.0
 10
-0.0072954400028129
 20
-92.7662628292167
 30
0.0
 10
4.44500883611681
 20
-93.03326266999329
 30
0.0
 10
8.756060322301126
 20
-93.7931747336993
 30
0.0
 10
12.80175210227292
 20
-95.0236419638021
 30
0.0
 10
16.3605421166744
 20
-96.70037280861949
 30
0.0
 10
19.05022399847715
 20
-98.54662739669584
 30
0.0
 10
20.19086533466484
 20
-99.90200488324766
 30
0.0
 10
20.66293822720666
 20
-100.4629498098107
 30
0.0
  0
VIEWPORT
  5
100
330
D3
100
AcDbEntity
  8
0
100
AcDbViewport
 10
0.0
 20
0.0
 30
0.0
 40
205.6
 41
156.0
 68
     1
 69
     1
 12
0.0
 22
-22.1062804708
 13
0.0
 23
0.0
 14
10.0
 24
10.0
 15
10.0
 25
10.0
 16
0.0
 26
0.0
 36
1.0
 17
0.0
 27
0.0
 37
0.0
 42
50.0
 43
0.0
 44
0.0
 45
315.6896706028
 50
0.0
 51
0.0
 72
   100
 90
   557152
  1

281
     0
 71
     1
 74
     0
110
0.0
120
0.0
130
0.0
111
1.0
121
0.0
131
0.0
112
0.0
122
1.0
132
0.0
 79
     0
146
0.0
170
     0
 61
     5
348
2F
292
     1
282
     1
141
0.0
142
0.0
 63
   256
361
101
  0
ENDBLK
  5
D6
330
D3
100
AcDbEntity
  8
0
100
AcDbBlockEnd
  0
BLOCK
  5
E0
330
DE
100
AcDbEntity
  8
0
100
AcDbBlockBegin
  2
*Paper_Space7
 70
     0
 10
0.0
 20
0.0
 30
0.0
  3
*Paper_Space7
  1

  0
LINE
  5
E2
330
DE
100
AcDbEntity
  8
0
  6
CENTERX2
 62
     7
100
AcDbLine
 10
74.6712622288
 20
72.8814410887
 30
0.0
 11
-74.6712622288
 21
-72.8814410887
 31
0.0
  0
LINE
  5
E3
330
DE
100
AcDbEntity
  8
0
  6
CENTERX2
 62
     7
100
AcDbLine
 10
-212.2603492026
 20
57.6878147241
 30
0.0
 11
212.2603492026
 21
-57.6878147241
 31
0.0
  0
SPLINE
  5
E4
330
DE
100
AcDbEntity
  8
0
  6
Continuous
 62
     7
370
    25
100
AcDbSpline
210
0.0
220
0.0
230
1.0
 70
     8
 71
     3
 72
   112
 73
   108
 74
     0
 42
0.000000001
 43
0.00000001
 40
0.0
 40
0.0
 40
0.0
 40
0.0
 40
0.0107474185831503
 40
0.0194881810160546
 40
0.0262115043231148
 40
0.0311651730487695
 40
0.0373967015246277
 40
0.0449274485465271
 40
0.0494055319153443
 40
0.0533814473948093
 40
0.0570116366593053
 40
0.060376886068105
 40
0.0646299472376758
 40
0.0701793084350792
 40
0.075948794663402
 40
0.0810519502291184
 40
0.0849815960933939
 40
0.089378539518252
 40
0.0943917577106241
 40
0.1002085392075672
 40
0.1064397383161246
 40
0.1112588404439722
 40
0.1150745012105021
 40
0.1189817303411389
 40
0.1232186988112727
 40
0.1283666916638082
 40
0.1459584386897071
 40
0.158827714764724
 40
0.1761403318945651
 40
0.1922507111470074
 40
0.2056615140308928
 40
0.2198664257348394
 40
0.2364920076031811
 40
0.2527578376018652
 40
0.2658641254062543
 40
0.2785336116217478
 40
0.2905602544181002
 40
0.2981364499968038
 40
0.3069151443876316
 40
0.3160439682209655
 40
0.3242656592204933
 40
0.3291071764903498
 40
0.3334780662672428
 40
0.3377066284748439
 40
0.3421200937314001
 40
0.3477681923374717
 40
0.3541919321006553
 40
0.359408339365095
 40
0.3637738268298879
 40
0.367441752842668
 40
0.3709583344193947
 40
0.3755432928722443
 40
0.3855693569217539
 40
0.3940926944697801
 40
0.401603789686538
 40
0.4098324792022514
 40
0.4179855817243436
 40
0.4252995352098
 40
0.433171171392769
 40
0.4424406117400769
 40
0.4577959536095922
 40
0.4701118979525236
 40
0.4815427227384085
 40
0.49351934392967
 40
0.5081254843617781
 40
0.5239377985958589
 40
0.5409534427309811
 40
0.5585244066937382
 40
0.5762303277510863
 40
0.5939957347434738
 40
0.6083514541535757
 40
0.6217940520455887
 40
0.6401597288508952
 40
0.6568920270183379
 40
0.67411858858616
 40
0.6919008017561912
 40
0.7086907894605745
 40
0.7281128837476847
 40
0.7445190740003913
 40
0.7598481068783581
 40
0.7761354149705705
 40
0.7926880874397646
 40
0.8069415309477712
 40
0.8207066996587319
 40
0.83882457932062
 40
0.8523377310348527
 40
0.8687344011706276
 40
0.8743910377337321
 40
0.8792500552917629
 40
0.883823022210488
 40
0.8902888821822476
 40
0.8971699494328069
 40
0.9020846006930492
 40
0.9064299779771211
 40
0.9115891964036089
 40
0.9182176801046822
 40
0.9258333992660752
 40
0.9323055936625636
 40
0.9378257706509839
 40
0.9446853156016236
 40
0.9523665443954502
 40
0.9599836385573672
 40
0.9667213287484886
 40
0.9727432790408135
 40
0.9797865712912595
 40
0.9888433864439511
 40
1.0
 40
1.0
 40
1.0
 40
1.0
 10
-222.4298702036883
 20
16.59445465556549
 30
0.0
 10
-221.7107251342123
 20
14.70743518729048
 30
0.0
 10
-220.4067069476755
 20
11.28572264357162
 30
0.0
 10
-218.5244525202027
 20
6.718819723219596
 30
0.0
 10
-217.0040439480937
 20
3.181795065219692
 30
0.0
 10
-215.6336196335224
 20
0.1028245090550495
 30
0.0
 10
-214.1651098896804
 20
-3.094296253013468
 30
0.0
 10
-212.68841385894
 20
-6.188823088076674
 30
0.0
 10
-211.3602199080023
 20
-8.883064514460997
 30
0.0
 10
-210.3381424762337
 20
-10.9101350344569
 30
0.0
 10
-209.3955880879504
 20
-12.74241675639902
 30
0.0
 10
-208.4156688380533
 20
-14.61292494031101
 30
0.0
 10
-207.2515301425431
 20
-16.79186903562938
 30
0.0
 10
-205.8481531131917
 20
-19.35390514874445
 30
0.0
 10
-204.3356435771267
 20
-22.03789555590842
 30
0.0
 10
-202.9444045572336
 20
-24.44118158102403
 30
0.0
 10
-201.6622084565897
 20
-26.60775940901303
 30
0.0
 10
-200.3702181015875
 20
-28.74738492614608
 30
0.0
 10
-198.8714430986109
 20
-31.17416492890899
 30
0.0
 10
-197.1617076423059
 20
-33.872397090719
 30
0.0
 10
-195.4373636371747
 20
-36.51792395054076
 30
0.0
 10
-193.8901730567546
 20
-38.83152779560578
 30
0.0
 10
-192.5677634802121
 20
-40.7700559049818
 30
0.0
 10
-191.2922391336749
 20
-42.60710404279372
 30
0.0
 10
-189.8571034145459
 20
-44.63605903614898
 30
0.0
 10
-186.9055818312723
 20
-48.72121934573623
 30
0.0
 10
-182.8761728994436
 20
-54.02153286916462
 30
0.0
 10
-177.2505296395881
 20
-60.94012299668167
 30
0.0
 10
-171.5896483516987
 20
-67.45863416028745
 30
0.0
 10
-165.6294579909751
 20
-73.84113530814805
 30
0.0
 10
-159.8863787482537
 20
-79.60996858202053
 30
0.0
 10
-153.915141939599
 20
-85.2617463938838
 30
0.0
 10
-147.370018365527
 20
-91.05873516977103
 30
0.0
 10
-140.7926320905036
 20
-96.4839549349355
 30
0.0
 10
-134.6371169234995
 20
-101.2453279026048
 30
0.0
 10
-128.9911650901412
 20
-105.3700589137385
 30
0.0
 10
-124.0828584846602
 20
-108.7620114256076
 30
0.0
 10
-119.7087924861377
 20
-111.6521662147435
 30
0.0
 10
-115.7356791395144
 20
-114.1793569140345
 30
0.0
 10
-111.6160037241219
 20
-116.6910020571201
 30
0.0
 10
-108.0780424342914
 20
-118.7595882496442
 30
0.0
 10
-105.2769360177408
 20
-120.345646228464
 30
0.0
 10
-103.1057901041178
 20
-121.5471359939763
 30
0.0
 10
-100.9940011176692
 20
-122.6907538446224
 30
0.0
 10
-98.6644095356167
 20
-123.9248627456178
 30
0.0
 10
-95.96527827833776
 20
-125.3181571398029
 30
0.0
 10
-93.11145291179129
 20
-126.7454987896369
 30
0.0
 10
-90.45203224297585
 20
-128.0349103209768
 30
0.0
 10
-88.24227478663009
 20
-129.0788413157816
 30
0.0
 10
-86.30881358233765
 20
-129.9723032404305
 30
0.0
 10
-84.33683121018423
 20
-130.8655517517753
 30
0.0
 10
-81.28640221602318
 20
-132.2162114177688
 30
0.0
 10
-77.35631654617356
 20
-133.8848781252339
 30
0.0
 10
-72.88745027191865
 20
-135.6805216074037
 30
0.0
 10
-68.7072454192718
 20
-137.2793240777235
 30
0.0
 10
-64.56272860954473
 20
-138.786918967091
 30
0.0
 10
-60.42226406896392
 20
-140.2130431434034
 30
0.0
 10
-56.32570241791623
 20
-141.5498655530083
 30
0.0
 10
-52.01645340560217
 20
-142.879990311865
 30
0.0
 10
-46.24751532768495
 20
-144.5463404720116
 30
0.0
 10
-39.60994694057624
 20
-146.2731067518662
 30
0.0
 10
-32.54485649060567
 20
-147.8908468799503
 30
0.0
 10
-26.08145097301854
 20
-149.2047528699114
 30
0.0
 10
-19.17373515656256
 20
-150.4386100575845
 30
0.0
 10
-11.42838973251106
 20
-151.6092074934777
 30
0.0
 10
-2.699201210300199
 20
-152.6574676865197
 30
0.0
 10
6.654116440803978
 20
-153.4703865425176
 30
0.0
 10
16.41048146009043
 20
-153.9780923173902
 30
0.0
 10
26.332870958742
 20
-154.1420268002546
 30
0.0
 10
35.67641930525818
 20
-153.9613076892492
 30
0.0
 10
44.21409830142377
 20
-153.5119098752672
 30
0.0
 10
52.80309539693271
 20
-152.8066026970324
 30
0.0
 10
61.81888691053665
 20
-151.7543363435673
 30
0.0
 10
71.52406862554496
 20
-150.2409746843447
 30
0.0
 10
81.01726679820513
 20
-148.38948804124
 30
0.0
 10
90.4435671522855
 20
-146.1572143852984
 30
0.0
 10
100.1658427066166
 20
-143.4336293869536
 30
0.0
 10
109.5126129533581
 20
-140.3708184868225
 30
0.0
 10
118.4197719837765
 20
-137.0121262209895
 30
0.0
 10
126.6573381365364
 20
-133.5272918097743
 30
0.0
 10
134.7590923734592
 20
-129.7086019341694
 30
0.0
 10
142.5033589060537
 20
-125.648046886663
 30
0.0
 10
149.6608140956611
 20
-121.5172744959975
 30
0.0
 10
156.8856951821112
 20
-116.9794872339624
 30
0.0
 10
163.7785715745029
 20
-112.2242979941707
 30
0.0
 10
170.8358121986404
 20
-106.8868889926469
 30
0.0
 10
175.8667242711933
 20
-102.7409939599255
 30
0.0
 10
179.5711957600709
 20
-99.4893349862003
 30
0.0
 10
181.6180764834308
 20
-97.63766081367595
 30
0.0
 10
183.742607503336
 20
-95.6630959238701
 30
0.0
 10
186.0998769299777
 20
-93.40179665468287
 30
0.0
 10
188.4604512594175
 20
-91.04839784909375
 30
0.0
 10
190.5081407396754
 20
-88.93584259328483
 30
0.0
 10
192.3087595626555
 20
-87.02754435328684
 30
0.0
 10
194.2933070804577
 20
-84.86518017309913
 30
0.0
 10
196.6302618766731
 20
-82.22929363907483
 30
0.0
 10
199.0669255581778
 20
-79.36281777630194
 30
0.0
 10
201.3162639210972
 20
-76.6026470621753
 30
0.0
 10
203.4280475172743
 20
-73.91537970736871
 30
0.0
 10
205.6211286575988
 20
-71.01660608841061
 30
0.0
 10
207.9676522778132
 20
-67.77114797727529
 30
0.0
 10
210.2280542700216
 20
-64.48933557490659
 30
0.0
 10
212.2567084943049
 20
-61.4024135834401
 30
0.0
 10
214.1550238048073
 20
-58.38941281950611
 30
0.0
 10
216.1998627591485
 20
-54.99351762622904
 30
0.0
 10
218.6266221942989
 20
-50.75294245005455
 30
0.0
 10
220.2990292637403
 20
-47.53713647971416
 30
0.0
 10
221.222098756354
 20
-45.76220235056224
 30
0.0
  0
SPLINE
  5
E5
330
DE
100
AcDbEntity
  8
0
  6
Continuous
 62
     7
370
    25
100
AcDbSpline
210
0.0
220
0.0
230
1.0
 70
    11
 71
     3
 72
    35
 73
    31
 74
     0
 42
0.000000001
 43
0.00000001
 40
0.0
 40
0.0
 40
0.0
 40
0.0
 40
0.0062500000000001
 40
0.0083333333333333
 40
0.0416666666666666
 40
0.0833333333333334
 40
0.1249999999999999
 40
0.1666666666666666
 40
0.2083333333333334
 40
0.2499999999999998
 40
0.2916666666666666
 40
0.3333333333333334
 40
0.3750000000000001
 40
0.4166666666666666
 40
0.4583333333333334
 40
0.500000000000984
 40
0.5416666666666667
 40
0.5833333333333333
 40
0.625
 40
0.6666666666666667
 40
0.7083333333333333
 40
0.7499999999999999
 40
0.7916666666666666
 40
0.8333333333333334
 40
0.875
 40
0.9166666666666666
 40
0.9583333333333334
 40
0.9916666666666667
 40
0.99375
 40
1.0
 40
1.0
 40
1.0
 40
1.0
 10
-74.67126222881024
 20
-72.88144108868366
 30
0.0
 10
-77.46438702536703
 20
-72.12232961840434
 30
0.0
 10
-81.1622568875871
 20
-71.08451476881537
 30
0.0
 10
-99.45514072937202
 20
-65.73275054205845
 30
0.0
 10
-131.6968217049024
 20
-54.5748993886761
 30
0.0
 10
-172.5231423106505
 20
-34.7896683133536
 30
0.0
 10
-205.2729886869699
 20
-10.86963223495679
 30
0.0
 10
-223.7326320209925
 20
13.80709985408508
 30
0.0
 10
-226.9289035938663
 20
37.15256823173665
 30
0.0
 10
-214.7520312548632
 20
58.36500051566339
 30
0.0
 10
-187.6250666021678
 20
75.51431805045726
 30
0.0
 10
-148.4027908462522
 20
87.33133418366744
 30
0.0
 10
-98.43224646082855
 20
93.4102075321207
 30
0.0
 10
-41.60928180894863
 20
92.98627288622706
 30
0.0
 10
17.05566408507861
 20
86.35258899094299
 30
0.0
 10
75.54781333510832
 20
73.73698184034714
 30
0.0
 10
128.7806559473486
 20
55.98813017977064
 30
0.0
 10
172.5231423106501
 20
34.7896683133537
 30
0.0
 10
205.2729886869696
 20
10.8696322349569
 30
0.0
 10
223.7326320209923
 20
-13.80709985408497
 30
0.0
 10
226.9289035938662
 20
-37.15256823173656
 30
0.0
 10
214.7520312548633
 20
-58.36500051566331
 30
0.0
 10
187.6250666021679
 20
-75.51431805045723
 30
0.0
 10
148.4027908462522
 20
-87.33133418366737
 30
0.0
 10
98.43224646082862
 20
-93.41020753212064
 30
0.0
 10
41.60928180894869
 20
-92.98627288622707
 30
0.0
 10
-13.14466769214336
 20
-86.79483458396184
 30
0.0
 10
-49.22548218937502
 20
-79.38409544183864
 30
0.0
 10
-68.12767450365551
 20
-74.62703496345213
 30
0.0
 10
-71.8781374322535
 20
-73.64055255896295
 30
0.0
 10
-74.67126222881024
 20
-72.88144108868366
 30
0.0
  0
SPLINE
  5
E6
330
DE
100
AcDbEntity
  8
0
  6
Continuous
 62
     7
370
    25
100
AcDbSpline
210
0.0
220
0.0
230
1.0
 70
    11
 71
     3
 72
    35
 73
    31
 74
     0
 42
0.000000001
 43
0.00000001
 40
0.0
 40
0.0
 40
0.0
 40
0.0
 40
0.0062500000000001
 40
0.0083333333333333
 40
0.0416666666666666
 40
0.0833333333333334
 40
0.1249999999999999
 40
0.1666666666666666
 40
0.2083333333333334
 40
0.2499999999999998
 40
0.2916666666666666
 40
0.3333333333333334
 40
0.3750000000000001
 40
0.4166666666666666
 40
0.4583333333333334
 40
0.500000000000984
 40
0.5416666666666667
 40
0.5833333333333333
 40
0.625
 40
0.6666666666666667
 40
0.7083333333333333
 40
0.7499999999999999
 40
0.7916666666666666
 40
0.8333333333333334
 40
0.875
 40
0.9166666666666666
 40
0.9583333333333334
 40
0.9916666666666667
 40
0.99375
 40
1.0
 40
1.0
 40
1.0
 40
1.0
 10
-65.33735445020895
 20
-63.77126095259816
 30
0.0
 10
-67.87063029232262
 20
-63.08277086024691
 30
0.0
 10
-71.22552367599033
 20
-62.14252301783085
 30
0.0
 10
-87.82850584553702
 20
-57.30034990919457
 30
0.0
 10
-117.1447929628562
 20
-47.25382270083831
 30
0.0
 10
-154.4189195552295
 20
-29.56389547470312
 30
0.0
 10
-184.4894309136932
 20
-8.28289524761451
 30
0.0
 10
-201.6848077181753
 20
13.59282564842819
 30
0.0
 10
-205.0988838323416
 20
34.21912735308026
 30
0.0
 10
-194.6160267613259
 20
52.89246595670519
 30
0.0
 10
-170.6026579113897
 20
67.88850138261719
 30
0.0
 10
-135.6157603856214
 20
78.07824128526845
 30
0.0
 10
-90.84824269129626
 20
83.11377516076195
 30
0.0
 10
-39.76734085289116
 20
82.33956014538822
 30
0.0
 10
13.15132166457774
 20
76.05699262532227
 30
0.0
 10
66.097612421902
 20
64.51329603974402
 30
0.0
 10
114.4823553491253
 20
48.51738893127531
 30
0.0
 10
154.4189195552372
 20
29.56389547469752
 30
0.0
 10
184.4894309136974
 20
8.282895247609916
 30
0.0
 10
201.6848077181765
 20
-13.59282564843119
 30
0.0
 10
205.0988838323412
 20
-34.21912735308153
 30
0.0
 10
194.6160267613255
 20
-52.89246595670495
 30
0.0
 10
170.6026579113918
 20
-67.88850138261618
 30
0.0
 10
135.6157603856273
 20
-78.0782412852672
 30
0.0
 10
90.84824269130645
 20
-83.1137751607611
 30
0.0
 10
39.76734085290494
 20
-82.33956014538845
 30
0.0
 10
-9.623410830071379
 20
-76.47583045999667
 30
0.0
 10
-42.27191972229632
 20
-69.68165385792969
 30
0.0
 10
-59.40356974612665
 20
-65.3554767821366
 30
0.0
 10
-62.80407860809534
 20
-64.45975104494941
 30
0.0
 10
-65.33735445020895
 20
-63.77126095259816
 30
0.0
  0
VIEWPORT
  5
102
330
DE
100
AcDbEntity
  8
0
100
AcDbViewport
 10
0.0
 20
0.0
 30
0.0
 40
205.6
 41
156.0
 68
     1
 69
     1
 12
0.0
 22
-22.1062804708
 13
0.0
 23
0.0
 14
10.0
 24
10.0
 15
10.0
 25
10.0
 16
0.0
 26
0.0
 36
1.0
 17
0.0
 27
0.0
 37
0.0
 42
50.0
 43
0.0
 44
0.0
 45
315.6896706028
 50
0.0
 51
0.0
 72
   100
 90
   557152
  1

281
     0
 71
     1
 74
     0
110
0.0
120
0.0
130
0.0
111
1.0
121
0.0
131
0.0
112
0.0
122
1.0
132
0.0
 79
     0
146
0.0
170
     0
 61
     5
348
2F
292
     1
282
     1
141
0.0
142
0.0
 63
   256
361
103
  0
ENDBLK
  5
E1
330
DE
100
AcDbEntity
  8
0
100
AcDbBlockEnd
  0
BLOCK
  5
E9
330
E7
100
AcDbEntity
  8
0
100
AcDbBlockBegin
  2
*Paper_Space8
 70
     0
 10
0.0
 20
0.0
 30
0.0
  3
*Paper_Space8
  1

  0
LINE
  5
EB
330
E7
100
AcDbEntity
  8
0
  6
CENTERX2
 62
     7
100
AcDbLine
 10
56.5685424819
 20
49.8887651468
 30
0.0
 11
-56.5685424819
 21
-49.8887651468
 31
0.0
  0
LINE
  5
EC
330
E7
100
AcDbEntity
  8
0
  6
CENTERX2
 62
     7
100
AcDbLine
 10
-224.4994432138
 20
28.2842712342
 30
0.0
 11
224.4994432138
 21
-28.2842712342
 31
0.0
  0
SPLINE
  5
ED
330
E7
100
AcDbEntity
  8
0
  6
Continuous
 62
     7
370
    25
100
AcDbSpline
210
0.0
220
0.0
230
1.0
 70
     8
 71
     3
 72
   121
 73
   117
 74
     0
 42
0.000000001
 43
0.00000001
 40
0.0
 40
0.0
 40
0.0
 40
0.0
 40
0.0145559473654262
 40
0.0271988589941357
 40
0.0379257339630187
 40
0.0467358830801564
 40
0.0536302210203267
 40
0.0616750367962375
 40
0.0691341972148695
 40
0.0757167586417603
 40
0.0814496454751554
 40
0.0884135954674617
 40
0.097031839026695
 40
0.1060936593520774
 40
0.1156099756875276
 40
0.1237479329130672
 40
0.1304484701666846
 40
0.137669738204872
 40
0.1472157752085093
 40
0.1558665791498401
 40
0.1640447474142881
 40
0.1735229752099413
 40
0.1808135311896953
 40
0.1866896452014305
 40
0.1924821101601803
 40
0.1999783774153377
 40
0.2079640349859547
 40
0.2143661663614324
 40
0.2203637503163565
 40
0.2282959059205186
 40
0.2338751480707935
 40
0.2384289244476935
 40
0.2418551694616007
 40
0.2447078945902532
 40
0.248706108557586
 40
0.2732812892961172
 40
0.2950207340905625
 40
0.3154696906339364
 40
0.3234201861756925
 40
0.3328619636359089
 40
0.3417270895670236
 40
0.3496492820900009
 40
0.3568070946659024
 40
0.3640709689174902
 40
0.3716842741186813
 40
0.3797645802395838
 40
0.3884372483182045
 40
0.3966366848770908
 40
0.4035171101559288
 40
0.4087758276562454
 40
0.4134475125385897
 40
0.4193186621260496
 40
0.4256655028617303
 40
0.4319126760262405
 40
0.4380639565031669
 40
0.4451664357499322
 40
0.451058230627033
 40
0.4564576768274849
 40
0.4628931409029349
 40
0.470415755213684
 40
0.4790137014354667
 40
0.4880903038862432
 40
0.5041689522748056
 40
0.5201053759801775
 40
0.5357854392520277
 40
0.5498863244983457
 40
0.5621554900389212
 40
0.5732650839782801
 40
0.5857140428555927
 40
0.598748735701216
 40
0.6112190546997596
 40
0.6237010681081644
 40
0.6374024711919192
 40
0.6516013651185303
 40
0.6646732847586545
 40
0.6766618059661047
 40
0.6827953642737198
 40
0.690793512404182
 40
0.6988637692992046
 40
0.7058257500636312
 40
0.7115066784625353
 40
0.7175063944103476
 40
0.7251553206276233
 40
0.7319944150346507
 40
0.744645153040869
 40
0.757452137204314
 40
0.769626527032703
 40
0.7846593796517258
 40
0.7968262837529265
 40
0.8040869733756201
 40
0.8120616549541059
 40
0.820169152147043
 40
0.8275193972243914
 40
0.8333084707489441
 40
0.8385053257742118
 40
0.8439386741508071
 40
0.8495408844150598
 40
0.8568871051355579
 40
0.8648071284059092
 40
0.874092214018337
 40
0.8847756350689546
 40
0.8941542234610415
 40
0.9039106342054528
 40
0.9124403873978401
 40
0.9196204517445843
 40
0.9249858369026915
 40
0.9296632870946057
 40
0.9338991695264339
 40
0.9376940384600982
 40
0.9413687661211514
 40
0.9461880048983762
 40
0.9529947088673987
 40
0.9617853043357217
 40
0.9725547048890739
 40
0.9852959951574822
 40
1.0
 40
1.0
 40
1.0
 40
1.0
 10
-230.4339338630779
 20
9.795028723809967
 30
0.0
 10
-229.3692647359947
 20
7.183735405217647
 30
0.0
 10
-227.3798521106286
 20
2.304341643914257
 30
0.0
 10
-224.3288817336347
 20
-4.37956637722664
 30
0.0
 10
-221.5990087182308
 20
-9.982542768676744
 30
0.0
 10
-219.2494159090299
 20
-14.53009465220157
 30
0.0
 10
-217.0642994130589
 20
-18.57544049214614
 30
0.0
 10
-214.9376195682395
 20
-22.35177395836768
 30
0.0
 10
-212.7750046677317
 20
-26.03326607643987
 30
0.0
 10
-210.7848563770759
 20
-29.29657304607094
 30
0.0
 10
-208.7972369784689
 20
-32.45191218002097
 30
0.0
 10
-206.5501790055677
 20
-35.90356231911311
 30
0.0
 10
-203.879842952556
 20
-39.84530623497279
 30
0.0
 10
-200.8454150290222
 20
-44.12939859760681
 30
0.0
 10
-197.7741464817568
 20
-48.27007863156836
 30
0.0
 10
-194.8957935390382
 20
-51.98646638099384
 30
0.0
 10
-192.230955569287
 20
-55.30552307296095
 30
0.0
 10
-189.3414978382785
 20
-58.78578745781322
 30
0.0
 10
-186.138725937968
 20
-62.49194093241164
 30
0.0
 10
-182.7340127133042
 20
-66.26491020975081
 30
0.0
 10
-179.2674825282703
 20
-69.95614560560097
 30
0.0
 10
-175.9099027193176
 20
-73.38539511170386
 30
0.0
 10
-172.8003223858744
 20
-76.43829036577348
 30
0.0
 10
-170.1585536740055
 20
-78.95258484935171
 30
0.0
 10
-167.4587480251453
 20
-81.45237964346191
 30
0.0
 10
-164.4188668662832
 20
-84.18016614509719
 30
0.0
 10
-161.2387276793844
 20
-86.93096258039934
 30
0.0
 10
-158.2340135175876
 20
-89.44224949227053
 30
0.0
 10
-155.208996763885
 20
-91.89645989435122
 30
0.0
 10
-152.2692918386065
 20
-94.20290390174897
 30
0.0
 10
-149.5102898688282
 20
-96.29784144268957
 30
0.0
 10
-147.4197654005139
 20
-97.84638259483857
 30
0.0
 10
-145.7379830002535
 20
-99.06793286777193
 30
0.0
 10
-144.1389805326345
 20
-100.2114849315404
 30
0.0
 10
-139.2309649314034
 20
-103.6626958347945
 30
0.0
 10
-131.1534657087398
 20
-108.9484787506788
 30
0.0
 10
-120.1400396254414
 20
-115.3343604680059
 30
0.0
 10
-111.6260845057654
 20
-119.7303626219248
 30
0.0
 10
-105.142617499373
 20
-122.8170767072655
 30
0.0
 10
-100.5972627289103
 20
-124.8730901835523
 30
0.0
 10
-96.02039170212691
 20
-126.8315427854457
 30
0.0
 10
-91.81253361945394
 20
-128.5403260239147
 30
0.0
 10
-87.86653934082433
 20
-130.0672791851242
 30
0.0
 10
-83.95385507141033
 20
-131.5112766166311
 30
0.0
 10
-79.85747531113968
 20
-132.9488956376971
 30
0.0
 10
-75.48199373746061
 20
-134.4025195782419
 30
0.0
 10
-70.9888224069969
 20
-135.8069517377717
 30
0.0
 10
-66.64623944206039
 20
-137.0822122970241
 30
0.0
 10
-62.79450379990833
 20
-138.1421239166101
 30
0.0
 10
-59.84931699079226
 20
-138.9168559953778
 30
0.0
 10
-57.06648265579628
 20
-139.6192789165474
 30
0.0
 10
-53.95844645129181
 20
-140.3688867111873
 30
0.0
 10
-50.54552571409253
 20
-141.1474109971966
 30
0.0
 10
-47.06842287053402
 20
-141.8945632548287
 30
0.0
 10
-43.44091778147926
 20
-142.6273332513485
 30
0.0
 10
-39.86257665762736
 20
-143.3014800320574
 30
0.0
 10
-36.40807277874754
 20
-143.9063530804679
 30
0.0
 10
-33.08323681329202
 20
-144.4502001973298
 30
0.0
 10
-29.46911186898146
 20
-144.9979088941069
 30
0.0
 10
-25.24998239885624
 20
-145.5774989544548
 30
0.0
 10
-20.51685818775366
 20
-146.1490418971969
 30
0.0
 10
-14.13291058302602
 20
-146.807504121056
 30
0.0
 10
-6.289691989975958
 20
-147.4275764969182
 30
0.0
 10
2.890926394582213
 20
-147.8819551044144
 30
0.0
 10
11.74469309924664
 20
-148.0642553721493
 30
0.0
 10
19.90590699797552
 20
-148.0089864116772
 30
0.0
 10
27.18128140053277
 20
-147.7814917823322
 30
0.0
 10
34.12574273328632
 20
-147.4116329031582
 30
0.0
 10
41.20880255327057
 20
-146.874584681569
 30
0.0
 10
48.54444357147608
 20
-146.1324930056468
 30
0.0
 10
55.8616426122644
 20
-145.1971895881415
 30
0.0
 10
63.27341593913041
 20
-144.0516724435039
 30
0.0
 10
70.99126295044455
 20
-142.6349117203314
 30
0.0
 10
78.75857054357854
 20
-140.9590771427166
 30
0.0
 10
86.1529123999248
 20
-139.1213001292494
 30
0.0
 10
91.97953085586987
 20
-137.4909883005623
 30
0.0
 10
96.82305025615806
 20
-136.0228326548232
 30
0.0
 10
100.9166045367904
 20
-134.7061219465319
 30
0.0
 10
105.1397652179935
 20
-133.2566314489584
 30
0.0
 10
108.9085298459953
 20
-131.885413560989
 30
0.0
 10
112.2906073629565
 20
-130.5949591302308
 30
0.0
 10
115.7692893291461
 20
-129.2095446000708
 30
0.0
 10
119.4105071671134
 20
-127.6877022734561
 30
0.0
 10
124.2130163984549
 20
-125.5777081474885
 30
0.0
 10
129.8630494284196
 20
-122.9280895789947
 30
0.0
 10
136.3378568838414
 20
-119.6315047670333
 30
0.0
 10
143.0930697320654
 20
-115.91445130217
 30
0.0
 10
149.6053031551425
 20
-112.0260050089021
 30
0.0
 10
155.1687633673012
 20
-108.429353705413
 30
0.0
 10
159.5114274537348
 20
-105.4616416117489
 30
0.0
 10
163.1593506491823
 20
-102.8591633941195
 30
0.0
 10
166.7574724584771
 20
-100.1743590273498
 30
0.0
 10
169.9685195326091
 20
-97.67380015102928
 30
0.0
 10
172.6986916442447
 20
-95.4695140319422
 30
0.0
 10
175.1106353167854
 20
-93.4628114793079
 30
0.0
 10
177.4688124014136
 20
-91.44315883826489
 30
0.0
 10
180.1025090747808
 20
-89.11868963395652
 30
0.0
 10
183.0435333108442
 20
-86.42997996553393
 30
0.0
 10
186.433538136732
 20
-83.19970369517569
 30
0.0
 10
190.1941564162612
 20
-79.44528564621544
 30
0.0
 10
194.0433085680502
 20
-75.38816959159489
 30
0.0
 10
197.832491142029
 20
-71.16915312258477
 30
0.0
 10
201.2419047551241
 20
-67.16764370693859
 30
0.0
 10
204.2884248104035
 20
-63.40501186243655
 30
0.0
 10
206.7409827804476
 20
-60.23857952121271
 30
0.0
 10
208.6970988927537
 20
-57.62105006599659
 30
0.0
 10
210.287350305807
 20
-55.43065635060852
 30
0.0
 10
211.6784813301269
 20
-53.46420147540681
 30
0.0
 10
212.9390449454574
 20
-51.63979253844619
 30
0.0
 10
214.2411517244181
 20
-49.71305254465803
 30
0.0
 10
215.8283967114004
 20
-47.30407509715623
 30
0.0
 10
217.8938781558013
 20
-44.0569059618724
 30
0.0
 10
220.4704738544579
 20
-39.808017471739
 30
0.0
 10
223.4820130315907
 20
-34.51583102405603
 30
0.0
 10
226.8579846633513
 20
-28.14724557503508
 30
0.0
 10
229.0542153442381
 20
-23.45746352414536
 30
0.0
 10
230.2308609746286
 20
-20.94488066766945
 30
0.0
  0
SPLINE
  5
EE
330
E7
100
AcDbEntity
  8
0
  6
Continuous
 62
     7
370
    25
100
AcDbSpline
210
0.0
220
0.0
230
1.0
 70
    11
 71
     3
 72
    35
 73
    31
 74
     0
 42
0.000000001
 43
0.00000001
 40
0.0
 40
0.0
 40
0.0
 40
0.0
 40
0.0062500000000001
 40
0.0083333333333333
 40
0.0416666666666666
 40
0.0833333333333334
 40
0.1249999999999999
 40
0.1666666666666666
 40
0.2083333333333334
 40
0.2499999999999998
 40
0.2916666666666666
 40
0.3333333333333334
 40
0.3750000000000001
 40
0.4166666666666666
 40
0.4583333333333334
 40
0.500000000000984
 40
0.5416666666666667
 40
0.5833333333333333
 40
0.625
 40
0.6666666666666667
 40
0.7083333333333333
 40
0.7499999999999999
 40
0.7916666666666666
 40
0.8333333333333334
 40
0.875
 40
0.9166666666666666
 40
0.9583333333333334
 40
0.9916666666666667
 40
0.99375
 40
1.0
 40
1.0
 40
1.0
 40
1.0
 10
-56.56854248194687
 20
-49.88876514675067
 30
0.0
 10
-59.52272098965856
 20
-49.51657363932266
 30
0.0
 10
-63.44170426029358
 20
-49.00274926712721
 30
0.0
 10
-82.8807943680662
 20
-46.32103338042383
 30
0.0
 10
-117.5576038329038
 20
-40.48646826517888
 30
0.0
 10
-162.8277931466166
 20
-29.46569436392358
 30
0.0
 10
-201.0781076374602
 20
-15.45601410860992
 30
0.0
 10
-225.3302482629543
 20
-0.3703540994599991
 30
0.0
 10
-234.116394825767
 20
14.49054210390167
 30
0.0
 10
-227.1347975581385
 20
28.61629467272849
 30
0.0
 10
-204.3410742244424
 20
40.74990661064601
 30
0.0
 10
-168.2627875898778
 20
49.95841553339971
 30
0.0
 10
-120.1390035561268
 20
55.92556613964751
 30
0.0
 10
-63.65167025513957
 20
57.99942469367266
 30
0.0
 10
-3.843121426541515
 20
56.16132669810293
 30
0.0
 10
57.23258935907447
 20
50.47439944535458
 30
0.0
 10
114.3240188819239
 20
41.27366640098286
 30
0.0
 10
162.8277931466162
 20
29.46569436392363
 30
0.0
 10
201.0781076374599
 20
15.45601410860997
 30
0.0
 10
225.3302482629541
 20
0.3703540994600685
 30
0.0
 10
234.116394825767
 20
-14.49054210390162
 30
0.0
 10
227.1347975581386
 20
-28.61629467272844
 30
0.0
 10
204.3410742244424
 20
-40.74990661064598
 30
0.0
 10
168.2627875898779
 20
-49.95841553339967
 30
0.0
 10
120.1390035561269
 20
-55.92556613964749
 30
0.0
 10
63.65167025513966
 20
-57.99942469367266
 30
0.0
 10
7.8303580151148
 20
-56.2838665644742
 30
0.0
 10
-29.75485531533245
 20
-53.0142725628054
 30
0.0
 10
-49.65553789097255
 20
-50.73964296845788
 30
0.0
 10
-53.61436397423524
 20
-50.26095665417866
 30
0.0
 10
-56.56854248194687
 20
-49.88876514675067
 30
0.0
  0
SPLINE
  5
EF
330
E7
100
AcDbEntity
  8
0
  6
Continuous
 62
     7
370
    25
100
AcDbSpline
210
0.0
220
0.0
230
1.0
 70
    11
 71
     3
 72
    35
 73
    31
 74
     0
 42
0.000000001
 43
0.00000001
 40
0.0
 40
0.0
 40
0.0
 40
0.0
 40
0.0062500000000001
 40
0.0083333333333333
 40
0.0416666666666666
 40
0.0833333333333334
 40
0.1249999999999999
 40
0.1666666666666666
 40
0.2083333333333334
 40
0.2499999999999998
 40
0.2916666666666666
 40
0.3333333333333334
 40
0.3750000000000001
 40
0.4166666666666666
 40
0.4583333333333334
 40
0.500000000000984
 40
0.5416666666666667
 40
0.5833333333333333
 40
0.625
 40
0.6666666666666667
 40
0.7083333333333333
 40
0.7499999999999999
 40
0.7916666666666666
 40
0.8333333333333334
 40
0.875
 40
0.9166666666666666
 40
0.9583333333333334
 40
0.9916666666666667
 40
0.99375
 40
1.0
 40
1.0
 40
1.0
 40
1.0
 10
-49.49747467170351
 20
-43.6526695034068
 30
0.0
 10
-52.17682113560048
 20
-43.3151035788303
 30
0.0
 10
-55.7320046791097
 20
-42.84977755554329
 30
0.0
 10
-73.37165225043947
 20
-40.4255569549608
 30
0.0
 10
-104.8783270816294
 20
-35.18391915459326
 30
0.0
 10
-146.1197653926065
 20
-25.36212208090075
 30
0.0
 10
-181.0767008001741
 20
-12.9366515277284
 30
0.0
 10
-203.4006791787073
 20
0.4023498064124054
 30
0.0
 10
-211.7490046086833
 20
13.50795728855596
 30
0.0
 10
-205.8377356512291
 20
25.9331170806404
 30
0.0
 10
-185.6157752614046
 20
36.55529922508224
 30
0.0
 10
-153.3488975532524
 20
44.54387209303022
 30
0.0
 10
-110.1371535646235
 20
49.62614850870625
 30
0.0
 10
-59.26342324892927
 20
51.23797162124552
 30
0.0
 10
-5.24134849645206
 20
49.38811307148576
 30
0.0
 10
50.07342161682669
 20
44.16060696512989
 30
0.0
 10
101.932510059427
 20
35.88547608842809
 30
0.0
 10
146.1197653926154
 20
25.36212208089749
 30
0.0
 10
181.0767008001794
 20
12.93665152772562
 30
0.0
 10
203.4006791787093
 20
-0.4023498064142789
 30
0.0
 10
211.7490046086832
 20
-13.50795728855678
 30
0.0
 10
205.8377356512287
 20
-25.93311708064026
 30
0.0
 10
185.6157752614064
 20
-36.55529922508148
 30
0.0
 10
153.348897553258
 20
-44.54387209302917
 30
0.0
 10
110.1371535646334
 20
-49.62614850870527
 30
0.0
 10
59.26342324894302
 20
-51.23797162124507
 30
0.0
 10
8.842820146626385
 20
-49.51143697480486
 30
0.0
 10
-25.18823854264557
 20
-46.49609647520861
 30
0.0
 10
-43.22838784759062
 20
-44.42508520356686
 30
0.0
 10
-46.81812820780659
 20
-43.99023542798329
 30
0.0
 10
-49.49747467170351
 20
-43.6526695034068
 30
0.0
  0
SPLINE
  5
F0
330
E7
100
AcDbEntity
  8
0
  6
Continuous
 62
     7
370
    25
100
AcDbSpline
210
0.0
220
0.0
230
1.0
 70
     8
 71
     3
 72
    15
 73
    11
 74
     0
 42
0.000000001
 43
0.00000001
 40
0.0
 40
0.0
 40
0.0
 40
0.0
 40
0.140330361715414
 40
0.2791491305348262
 40
0.414997341376919
 40
0.5469810046994799
 40
0.674361236445163
 40
0.796349182388371
 40
0.9123723336149714
 40
1.0
 40
1.0
 40
1.0
 40
1.0
 10
-16.79378604932793
 20
-151.5180381864067
 30
0.0
 10
-19.70397950264915
 20
-151.1215528376882
 30
0.0
 10
-25.49301875439883
 20
-150.3328529511374
 30
0.0
 10
-33.65692497730794
 20
-148.8413999544744
 30
0.0
 10
-41.26241045052376
 20
-147.1672979974279
 30
0.0
 10
-48.16722377232392
 20
-145.3160799501518
 30
0.0
 10
-54.29195689534539
 20
-143.3251290833373
 30
0.0
 10
-59.49596072132279
 20
-141.2173707608472
 30
0.0
 10
-63.55622914737984
 20
-139.1852052762613
 30
0.0
 10
-65.40385376788782
 20
-137.7936031128543
 30
0.0
 10
-66.19885688032019
 20
-137.1948191180448
 30
0.0
  0
SPLINE
  5
F1
330
E7
100
AcDbEntity
  8
0
  6
Continuous
 62
     7
370
    25
100
AcDbSpline
210
0.0
220
0.0
230
1.0
 70
     8
 71
     3
 72
    21
 73
    17
 74
     0
 42
0.000000001
 43
0.00000001
 40
0.0
 40
0.0
 40
0.0
 40
0.0
 40
0.0104329115191608
 40
0.0716283902277027
 40
0.1328238689362301
 40
0.1954366272987768
 40
0.2604821197358121
 40
0.3288134823239854
 40
0.4009804840283464
 40
0.4771556696720056
 40
0.5572470508340729
 40
0.6408787458706154
 40
0.7275328312771776
 40
0.8167241915432509
 40
0.9078658764039769
 40
1.0
 40
1.0
 40
1.0
 40
1.0
 10
69.45107660909385
 20
-142.8768010110935
 30
0.0
 10
69.43683085622735
 20
-142.9953837108035
 30
0.0
 10
69.33902495194702
 20
-143.8095272864956
 30
0.0
 10
67.9632070691502
 20
-145.2769154056229
 30
0.0
 10
65.1661503895508
 20
-147.1672058122999
 30
0.0
 10
61.09703033973768
 20
-148.8540097689141
 30
0.0
 10
56.024239052658
 20
-150.319033112671
 30
0.0
 10
50.01945773356205
 20
-151.5431008179387
 30
0.0
 10
43.20164930615449
 20
-152.5117193377742
 30
0.0
 10
35.68216919496897
 20
-153.2143656919412
 30
0.0
 10
27.58439788360539
 20
-153.6389522535414
 30
0.0
 10
19.04369963977136
 20
-153.7843219121553
 30
0.0
 10
10.19069641441867
 20
-153.6496506583948
 30
0.0
 10
1.164917809638219
 20
-153.2285755590569
 30
0.0
 10
-7.917597887701017
 20
-152.5471387032795
 30
0.0
 10
-13.82439489103016
 20
-151.8623078120792
 30
0.0
 10
-16.79378604932793
 20
-151.5180381864067
 30
0.0
  0
VIEWPORT
  5
104
330
E7
100
AcDbEntity
  8
0
100
AcDbViewport
 10
0.0
 20
0.0
 30
0.0
 40
205.6
 41
156.0
 68
     1
 69
     1
 12
0.0
 22
-22.1062804708
 13
0.0
 23
0.0
 14
10.0
 24
10.0
 15
10.0
 25
10.0
 16
0.0
 26
0.0
 36
1.0
 17
0.0
 27
0.0
 37
0.0
 42
50.0
 43
0.0
 44
0.0
 45
315.6896706028
 50
0.0
 51
0.0
 72
   100
 90
   557152
  1

281
     0
 71
     1
 74
     0
110
0.0
120
0.0
130
0.0
111
1.0
121
0.0
131
0.0
112
0.0
122
1.0
132
0.0
 79
     0
146
0.0
170
     0
 61
     5
348
2F
292
     1
282
     1
141
0.0
142
0.0
 63
   256
361
105
  0
ENDBLK
  5
EA
330
E7
100
AcDbEntity
  8
0
100
AcDbBlockEnd
  0
ENDSEC
  0
SECTION
  2
ENTITIES
  0
LINE
  5
73
330
1F
100
AcDbEntity
  8
0
  6
CENTERX2
 62
     7
100
AcDbLine
 10
113.1370849898
 20
65.3126489458
 30
0.0
 11
-113.1370849898
 21
-65.3126489458
 31
0.0
  0
LINE
  5
74
330
1F
100
AcDbEntity
  8
0
  6
CENTERX2
 62
     7
100
AcDbLine
 10
-169.7056274848
 20
97.9689734187
 30
0.0
 11
169.7056274848
 21
-97.9689734187
 31
0.0
  0
SPLINE
  5
75
330
1F
100
AcDbEntity
  8
0
  6
Continuous
 62
     7
370
    25
100
AcDbSpline
210
0.0
220
0.0
230
1.0
 70
     8
 71
     3
 72
   107
 73
   103
 74
     0
 42
0.000000001
 43
0.00000001
 40
0.0
 40
0.0
 40
0.0
 40
0.0
 40
0.0099579046977126
 40
0.0175352214201629
 40
0.023446695187754
 40
0.0297320919846554
 40
0.0363701326477296
 40
0.041757272027033
 40
0.0462131688357918
 40
0.0511050430341971
 40
0.0567100613369022
 40
0.0640319995438945
 40
0.0716891477535887
 40
0.0781421825804639
 40
0.0843513566275201
 40
0.0898616735833464
 40
0.0952993491613948
 40
0.1013299276185388
 40
0.1092189548539352
 40
0.1177689156022317
 40
0.1260305710547168
 40
0.1329463579421652
 40
0.1545174636919374
 40
0.1793642642605619
 40
0.2060928753195296
 40
0.2317556207694627
 40
0.2565328770465094
 40
0.2803694338325277
 40
0.3037925717337286
 40
0.3316065669722086
 40
0.3569451119968862
 40
0.3821635576512011
 40
0.3909385226712648
 40
0.3995010664263342
 40
0.4098287106115175
 40
0.4211058246815035
 40
0.4304153181239717
 40
0.4377449127084067
 40
0.4437627751751023
 40
0.4486800120876969
 40
0.4543188226222774
 40
0.461707695805381
 40
0.4709357050568063
 40
0.4819628583446548
 40
0.4946757697405409
 40
0.5159357178258046
 40
0.5377849187166693
 40
0.560250754574623
 40
0.5833077911817804
 40
0.5956085556696498
 40
0.6080006336390456
 40
0.6193481468517996
 40
0.629226780196848
 40
0.6376789255981254
 40
0.6447433208194069
 40
0.6536863735947528
 40
0.6630357523269964
 40
0.6772329325994727
 40
0.6911854652050536
 40
0.7055007505341359
 40
0.7184083884644336
 40
0.7335085868102525
 40
0.7485855043934985
 40
0.7543097576223613
 40
0.7604910896752829
 40
0.7670911260733603
 40
0.773730341585691
 40
0.7791775880222243
 40
0.7841877335277141
 40
0.7895003764378271
 40
0.7959571126308908
 40
0.8020074969990852
 40
0.8072831357952001
 40
0.8120115850630553
 40
0.8163033494451114
 40
0.8253793878762538
 40
0.836355574897541
 40
0.8496084049655769
 40
0.861827957328145
 40
0.872525643211954
 40
0.880497352947257
 40
0.8879448501255333
 40
0.8950931188388861
 40
0.9036760741875918
 40
0.9139350229636215
 40
0.9227389479519447
 40
0.9298692806420148
 40
0.9343683727253553
 40
0.9401629152493577
 40
0.9468551756842395
 40
0.9519910769171593
 40
0.9558851767932428
 40
0.9597120934112795
 40
0.9631711265450982
 40
0.9677486935328594
 40
0.9730227814901588
 40
0.977164467634212
 40
0.9795116800021932
 40
0.982259039118472
 40
0.9865946517669427
 40
0.9925115484212536
 40
1.0
 40
1.0
 40
1.0
 40
1.0
 10
-201.7481517776752
 20
28.84019382839594
 30
0.0
 10
-201.2889259435502
 20
27.1211528542716
 30
0.0
 10
-200.4802591679895
 20
24.09403369349815
 30
0.0
 10
-199.3117114867192
 20
20.07190150381821
 30
0.0
 10
-198.2873540709195
 20
16.69443649817001
 30
0.0
 10
-197.2739719400076
 20
13.49153634077101
 30
0.0
 10
-196.2508002026452
 20
10.39141424672723
 30
0.0
 10
-195.2974491398217
 20
7.611891792910629
 30
0.0
 10
-194.4220289436186
 20
5.1365915533624
 30
0.0
 10
-193.5121300106607
 20
2.636046039870131
 30
0.0
 10
-192.3990436916865
 20
-0.3286956101473323
 30
0.0
 10
-191.0713614744928
 20
-3.734570291357979
 30
0.0
 10
-189.6373663630376
 20
-7.260282676814694
 30
0.0
 10
-188.2331343326111
 20
-10.58085818572182
 30
0.0
 10
-186.9415235175694
 20
-13.53264449245848
 30
0.0
 10
-185.6913660161995
 20
-16.30263991798565
 30
0.0
 10
-184.4258336009739
 20
-19.02822472596661
 30
0.0
 10
-182.9497319667431
 20
-22.11573998193582
 30
0.0
 10
-181.1881030496051
 20
-25.67434076722387
 30
0.0
 10
-179.1889678053958
 20
-29.5529370272393
 30
0.0
 10
-177.2086670764213
 20
-33.24259361320618
 30
0.0
 10
-174.0558723470481
 20
-38.9095058157255
 30
0.0
 10
-169.2564844579775
 20
-46.98508453049984
 30
0.0
 10
-162.1722196589016
 20
-57.72556055391171
 30
0.0
 10
-154.1085904395983
 20
-68.64922275960036
 30
0.0
 10
-145.4848161682589
 20
-79.08981871924713
 30
0.0
 10
-136.6692120536371
 20
-88.67609979325269
 30
0.0
 10
-127.6641582475476
 20
-97.50741008183783
 30
0.0
 10
-117.8190846026959
 20
-106.2266398830782
 30
0.0
 10
-107.406012973474
 20
-114.4764709904909
 30
0.0
 10
-96.12443575777475
 20
-122.40119321762
 30
0.0
 10
-87.31755069079253
 20
-127.8759387900731
 30
0.0
 10
-80.83788579018103
 20
-131.5668629172449
 30
0.0
 10
-76.58166872070029
 20
-133.881562465887
 30
0.0
 10
-71.918236281964
 20
-136.2916490609246
 30
0.0
 10
-67.07427156568134
 20
-138.6507779190963
 30
0.0
 10
-62.63167313918985
 20
-140.6915108963273
 30
0.0
 10
-58.99651711301966
 20
-142.2817674533196
 30
0.0
 10
-56.04683815520871
 20
-143.5213816009307
 30
0.0
 10
-53.35671416304449
 20
-144.6143878430709
 30
0.0
 10
-50.45876138763417
 20
-145.753316575803
 30
0.0
 10
-46.89691255741356
 20
-147.0959919977212
 30
0.0
 10
-42.45285410513225
 20
-148.6819012498879
 30
0.0
 10
-37.10702339300102
 20
-150.4607095970697
 30
0.0
 10
-29.70778605405507
 20
-152.7178704750128
 30
0.0
 10
-20.38734089599907
 20
-155.1982924492885
 30
0.0
 10
-9.241388237380182
 20
-157.6268030183014
 30
0.0
 10
2.407724042578108
 20
-159.5995035364861
 30
0.0
 10
12.56704563376354
 20
-160.8138661305593
 30
0.0
 10
21.04490276674542
 20
-161.4886986159073
 30
0.0
 10
27.48559163959204
 20
-161.8185271602683
 30
0.0
 10
33.52618756452359
 20
-161.9618130450948
 30
0.0
 10
38.87547774321864
 20
-161.954612308069
 30
0.0
 10
43.45819978434842
 20
-161.8472448351974
 30
0.0
 10
47.86894395796597
 20
-161.6601583920026
 30
0.0
 10
52.42809245734106
 20
-161.3757881555353
 30
0.0
 10
58.14972672086906
 20
-160.8899199660443
 30
0.0
 10
64.75883341298808
 20
-160.1363412041102
 30
0.0
 10
72.23012073663766
 20
-159.0130764528756
 30
0.0
 10
79.38119064550486
 20
-157.6714116011461
 30
0.0
 10
86.74297111830595
 20
-156.0152929464389
 30
0.0
 10
94.09056372002989
 20
-154.0705120202296
 30
0.0
 10
100.1979483432681
 20
-152.182698835076
 30
0.0
 10
104.7213316765559
 20
-150.6386624865366
 30
0.0
 10
107.8079387865139
 20
-149.5271200983411
 30
0.0
 10
111.0194576981611
 20
-148.304215179651
 30
0.0
 10
114.084654766281
 20
-147.0700131441596
 30
0.0
 10
116.8735885377834
 20
-145.8897697031167
 30
0.0
 10
119.4192409702301
 20
-144.7662175128072
 30
0.0
 10
122.1040661276607
 20
-143.5322710036064
 30
0.0
 10
124.9379547484045
 20
-142.1694003451887
 30
0.0
 10
127.7408379021456
 20
-140.7558692984778
 30
0.0
 10
130.2420370879587
 20
-139.4400737032426
 30
0.0
 10
132.4497479879556
 20
-138.2352388088892
 30
0.0
 10
135.222864317638
 20
-136.6713911445029
 30
0.0
 10
138.9021919650641
 20
-134.4946425174974
 30
0.0
 10
143.8411710869172
 20
-131.3595684417639
 30
0.0
 10
149.1114366880755
 20
-127.7254323250217
 30
0.0
 10
154.2133062779496
 20
-123.8911136349243
 30
0.0
 10
158.4008733927439
 20
-120.4958650648555
 30
0.0
 10
161.8966072317981
 20
-117.4817568247321
 30
0.0
 10
164.8443000141904
 20
-114.805256457136
 30
0.0
 10
167.7588016486945
 20
-112.028927314966
 30
0.0
 10
170.9836234319013
 20
-108.7930950370067
 30
0.0
 10
174.2873593067603
 20
-105.2603669955587
 30
0.0
 10
177.298772842784
 20
-101.8260989756539
 30
0.0
 10
179.5953666142041
 20
-99.05797895122943
 30
0.0
 10
181.4906267193138
 20
-96.67760798209873
 30
0.0
 10
183.2945984558959
 20
-94.32740840557734
 30
0.0
 10
185.1131782880672
 20
-91.8483680276077
 30
0.0
 10
186.6907214218409
 20
-89.60136681527241
 30
0.0
 10
187.9490483015429
 20
-87.74681110850837
 30
0.0
 10
189.0210108548263
 20
-86.11940450270846
 30
0.0
 10
190.1334171381297
 20
-84.3819694855
 30
0.0
 10
191.3521055389216
 20
-82.41712425781422
 30
0.0
 10
192.5971688525277
 20
-80.32832762871888
 30
0.0
 10
193.6146552944764
 20
-78.55347161660907
 30
0.0
 10
194.3974205434965
 20
-77.1498996208957
 30
0.0
 10
195.1808634292351
 20
-75.71427586118773
 30
0.0
 10
196.2338499519891
 20
-73.72224741421161
 30
0.0
 10
197.6255239821375
 20
-70.97773521386841
 30
0.0
 10
198.6113741326027
 20
-68.86743578331199
 30
0.0
 10
199.1620865040616
 20
-67.68858725005205
 30
0.0
  0
SPLINE
  5
76
330
1F
100
AcDbEntity
  8
0
  6
Continuous
 62
     7
370
    25
100
AcDbSpline
210
0.0
220
0.0
230
1.0
 70
    11
 71
     3
 72
    35
 73
    31
 74
     0
 42
0.000000001
 43
0.00000001
 40
0.0
 40
0.0
 40
0.0
 40
0.0
 40
0.0062500000000001
 40
0.0083333333333333
 40
0.0416666666666666
 40
0.0833333333333334
 40
0.1249999999999999
 40
0.1666666666666666
 40
0.2083333333333334
 40
0.2499999999999998
 40
0.2916666666666666
 40
0.3333333333333334
 40
0.3750000000000001
 40
0.4166666666666666
 40
0.4583333333333334
 40
0.500000000000984
 40
0.5416666666666667
 40
0.5833333333333333
 40
0.625
 40
0.6666666666666667
 40
0.7083333333333333
 40
0.7499999999999999
 40
0.7916666666666666
 40
0.8333333333333334
 40
0.875
 40
0.9166666666666666
 40
0.9583333333333334
 40
0.9916666666666667
 40
0.99375
 40
1.0
 40
1.0
 40
1.0
 40
1.0
 10
-113.137084989848
 20
-65.31264894581648
 30
0.0
 10
-115.3702340354597
 20
-64.0234794425293
 30
0.0
 10
-118.3079232836385
 20
-62.28158600532961
 30
0.0
 10
-132.7153672657666
 20
-53.43140231238164
 30
0.0
 10
-157.1194407629953
 20
-35.98525893003168
 30
0.0
 10
-184.7773139434804
 20
-7.836641369594617
 30
0.0
 10
-202.3477602497526
 20
23.36257511204314
 30
0.0
 10
-205.8316450575099
 20
52.93539182195484
 30
0.0
 10
-195.4966668292458
 20
78.47997009321453
 30
0.0
 10
-171.6977681166113
 20
99.11901172623311
 30
0.0
 10
-135.9460256129352
 20
112.8578235142053
 30
0.0
 10
-91.6967236851738
 20
118.8240794500536
 30
0.0
 10
-40.46955204995001
 20
116.8128755602136
 30
0.0
 10
13.57493188497672
 20
106.6696728117435
 30
0.0
 10
65.81791656849487
 20
89.56265460154955
 30
0.0
 10
114.4651787444081
 20
66.0793411508217
 30
0.0
 10
155.1438783929603
 20
37.99587447006302
 30
0.0
 10
184.77731394348
 20
7.83664136959477
 30
0.0
 10
202.3477602497524
 20
-23.36257511204299
 30
0.0
 10
205.8316450575098
 20
-52.93539182195468
 30
0.0
 10
195.4966668292458
 20
-78.47997009321442
 30
0.0
 10
171.6977681166115
 20
-99.11901172623304
 30
0.0
 10
135.9460256129352
 20
-112.8578235142053
 30
0.0
 10
91.69672368517386
 20
-118.8240794500535
 30
0.0
 10
40.46955204995009
 20
-116.8128755602136
 30
0.0
 10
-13.57493188497667
 20
-106.6696728117436
 30
0.0
 10
-62.33505092292686
 20
-90.70312248222909
 30
0.0
 10
-92.55593215270915
 20
-76.61495072744647
 30
0.0
 10
-107.8865610707841
 20
-68.29771035400303
 30
0.0
 10
-110.9039359442364
 20
-66.60181844910363
 30
0.0
 10
-113.137084989848
 20
-65.31264894581648
 30
0.0
  0
SPLINE
  5
77
330
1F
100
AcDbEntity
  8
0
  6
Continuous
 62
     7
370
    25
100
AcDbSpline
210
0.0
220
0.0
230
1.0
 70
    11
 71
     3
 72
    35
 73
    31
 74
     0
 42
0.000000001
 43
0.00000001
 40
0.0
 40
0.0
 40
0.0
 40
0.0
 40
0.0062500000000001
 40
0.0083333333333333
 40
0.0416666666666666
 40
0.0833333333333334
 40
0.1249999999999999
 40
0.1666666666666666
 40
0.2083333333333334
 40
0.2499999999999998
 40
0.2916666666666666
 40
0.3333333333333334
 40
0.3750000000000001
 40
0.4166666666666666
 40
0.4583333333333334
 40
0.500000000000984
 40
0.5416666666666667
 40
0.5833333333333333
 40
0.625
 40
0.6666666666666667
 40
0.7083333333333333
 40
0.7499999999999999
 40
0.7916666666666666
 40
0.8333333333333334
 40
0.875
 40
0.9166666666666666
 40
0.9583333333333334
 40
0.9916666666666667
 40
0.99375
 40
1.0
 40
1.0
 40
1.0
 40
1.0
 10
-98.99494936611704
 20
-57.14856782758939
 30
0.0
 10
-101.0203449145226
 20
-55.97933186538212
 30
0.0
 10
-103.6863154956819
 20
-54.40040135678097
 30
0.0
 10
-116.7715093849503
 20
-46.38407025517336
 30
0.0
 10
-139.0180604377578
 20
-30.62681813171944
 30
0.0
 10
-164.483890820902
 20
-5.32766908854615
 30
0.0
 10
-181.0080382461864
 20
22.58865840946746
 30
0.0
 10
-184.8904473982728
 20
48.94642635104606
 30
0.0
 10
-176.3229989643743
 20
71.61631629469395
 30
0.0
 10
-155.5987025565593
 20
89.82521900235538
 30
0.0
 10
-124.0565402578314
 20
101.7891006602041
 30
0.0
 10
-84.78688412440788
 20
106.7349833650189
 30
0.0
 10
-39.1289437425505
 20
104.4937162682299
 30
0.0
 10
9.228793506286499
 20
94.9545290069222
 30
0.0
 10
56.18325061703229
 20
79.20333869451635
 30
0.0
 10
100.1468432566149
 20
57.81354201619123
 30
0.0
 10
137.1990725532564
 20
32.43390020622879
 30
0.0
 10
164.4838908209061
 20
5.327669088538843
 30
0.0
 10
181.0080382461877
 20
-22.58865840947309
 30
0.0
 10
184.8904473982723
 20
-48.94642635104951
 30
0.0
 10
176.3229989643731
 20
-71.61631629469521
 30
0.0
 10
155.5987025565589
 20
-89.82521900235503
 30
0.0
 10
124.0565402578339
 20
-101.7891006602033
 30
0.0
 10
84.78688412441423
 20
-106.7349833650186
 30
0.0
 10
39.12894374256069
 20
-104.4937162682308
 30
0.0
 10
-9.228793506273453
 20
-94.95452900692477
 30
0.0
 10
-53.05295347630976
 20
-80.25341804868175
 30
0.0
 10
-80.34827224644
 20
-67.41075748961272
 30
0.0
 10
-94.2344696031228
 20
-59.85683584708143
 30
0.0
 10
-96.96955381771156
 20
-58.31780378979665
 30
0.0
 10
-98.99494936611704
 20
-57.14856782758939
 30
0.0
  0
SPLINE
  5
78
330
1F
100
AcDbEntity
  8
0
  6
Continuous
 62
     7
370
    25
100
AcDbSpline
210
0.0
220
0.0
230
1.0
 70
     8
 71
     3
 72
    23
 73
    19
 74
     0
 42
0.000000001
 43
0.00000001
 40
0.0
 40
0.0
 40
0.0
 40
0.0
 40
0.0170535087093843
 40
0.0874247557876593
 40
0.1577960028659343
 40
0.2278396465238411
 40
0.2967846919038135
 40
0.3645610323671005
 40
0.4323373728303377
 40
0.5012824182099945
 40
0.5713260618675847
 40
0.6416973089458003
 40
0.7120685560241349
 40
0.7821121996823585
 40
0.8510572450626464
 40
0.9188335855259832
 40
0.9866099259892702
 40
1.0
 40
1.0
 40
1.0
 40
1.0
 10
-28.22264152412047
 20
-88.2698397771301
 30
0.0
 10
-27.98217062510292
 20
-87.99637638650628
 30
0.0
 10
-26.7493973595591
 20
-86.59446722226517
 30
0.0
 10
-23.44319589123804
 20
-84.43694613920337
 30
0.0
 10
-18.3757042383894
 20
-82.01748458997864
 30
0.0
 10
-12.56166718952143
 20
-80.25675480116449
 30
0.0
 10
-6.375359233149141
 20
-79.1612786320479
 30
0.0
 10
0.0002708664728276
 20
-78.79392068974609
 30
0.0
 10
6.374266425838269
 20
-79.16158265001874
 30
0.0
 10
12.56558936581276
 20
-80.25550597433845
 30
0.0
 10
18.3608573499487
 20
-82.02225777532519
 30
0.0
 10
23.49884296523528
 20
-84.4190436129925
 30
0.0
 10
27.65244339339654
 20
-87.38566362463926
 30
0.0
 10
30.70666487756418
 20
-90.73015189648639
 30
0.0
 10
32.6241789037959
 20
-94.30792240527717
 30
0.0
 10
33.17847769926453
 20
-97.97445652516166
 30
0.0
 10
32.93997180151642
 20
-100.6908089911147
 30
0.0
 10
32.17028770895211
 20
-102.0810313190077
 30
0.0
 10
32.04331244423081
 20
-102.3103771633756
 30
0.0
  0
SPLINE
  5
79
330
1F
100
AcDbEntity
  8
0
  6
Continuous
 62
     7
370
    25
100
AcDbSpline
210
0.0
220
0.0
230
1.0
 70
     8
 71
     3
 72
    16
 73
    12
 74
     0
 42
0.000000001
 43
0.00000001
 40
0.0
 40
0.0
 40
0.0
 40
0.0
 40
0.0042272918621544
 40
0.1328118928058197
 40
0.2592168236295415
 40
0.3856217544531706
 40
0.5142063553962478
 40
0.6448398754514516
 40
0.7760843858233161
 40
0.9073288961954022
 40
1.0
 40
1.0
 40
1.0
 40
1.0
 10
-8.811352342298544
 20
-93.90424483651395
 30
0.0
 10
-8.767947663258422
 20
-93.89090810930169
 30
0.0
 10
-7.404271397714314
 20
-93.47189848265454
 30
0.0
 10
-4.415575477506471
 20
-93.06292404418467
 30
0.0
 10
-0.0072954400028129
 20
-92.7662628292167
 30
0.0
 10
4.44500883611681
 20
-93.03326266999329
 30
0.0
 10
8.756060322301126
 20
-93.7931747336993
 30
0.0
 10
12.80175210227292
 20
-95.0236419638021
 30
0.0
 10
16.3605421166744
 20
-96.70037280861949
 30
0.0
 10
19.05022399847715
 20
-98.54662739669584
 30
0.0
 10
20.19086533466484
 20
-99.90200488324766
 30
0.0
 10
20.66293822720666
 20
-100.4629498098107
 30
0.0
  0
LINE
  5
7A
330
1B
100
AcDbEntity
 67
     1
  8
0
  6
CENTERX2
 62
     7
100
AcDbLine
 10
0.0
 20
160.0
 30
0.0
 11
0.0
 21
-160.0
 31
0.0
  0
LINE
  5
7B
330
1B
100
AcDbEntity
 67
     1
  8
0
  6
CENTERX2
 62
     7
100
AcDbLine
 10
-240.0
 20
0.0
 30
0.0
 11
240.0
 21
0.0
 31
0.0
  0
SPLINE
  5
7C
330
1B
100
AcDbEntity
 67
     1
  8
0
  6
Continuous
 62
     7
370
    25
100
AcDbSpline
210
0.0
220
0.0
230
1.0
 70
    11
 71
     3
 72
    35
 73
    31
 74
     0
 42
0.000000001
 43
0.00000001
 40
0.0
 40
0.0
 40
0.0
 40
0.0
 40
0.0062500000000001
 40
0.0083333333333333
 40
0.0416666666666666
 40
0.0833333333333334
 40
0.1249999999999999
 40
0.1666666666666666
 40
0.2083333333333334
 40
0.2499999999999998
 40
0.2916666666666666
 40
0.3333333333333334
 40
0.3750000000000001
 40
0.4166666666666666
 40
0.4583333333333334
 40
0.500000000000984
 40
0.5416666666666667
 40
0.5833333333333333
 40
0.625
 40
0.6666666666666667
 40
0.7083333333333333
 40
0.7499999999999999
 40
0.7916666666666666
 40
0.8333333333333334
 40
0.875
 40
0.9166666666666666
 40
0.9583333333333334
 40
0.9916666666666667
 40
0.99375
 40
1.0
 40
1.0
 40
1.0
 40
1.0
 10
-0.0000000000002776
 20
-140.0
 30
0.0
 10
-2.864341853725472
 20
-140.0
 30
0.0
 10
-6.683464325359004
 20
-139.9511292811298
 30
0.0
 10
-25.75511797340643
 20
-139.3847342975673
 30
0.0
 10
-60.78651007786673
 20
-135.8147164080129
 30
0.0
 10
-109.7819321249514
 20
-122.8334170658636
 30
0.0
 10
-155.6603527541846
 20
-100.3236698321202
 30
0.0
 10
-190.6906698519857
 20
-70.7839084118812
 30
0.0
 10
-212.4004091137151
 20
-36.95796738000059
 30
0.0
 10
-220.0497954431438
 20
0.000000000000085
 30
0.0
 10
-212.4004091137108
 20
36.95796738000139
 30
0.0
 10
-190.6906698519774
 20
70.78390841188327
 30
0.0
 10
-155.6603527541727
 20
100.3236698321235
 30
0.0
 10
-109.7819321249367
 20
122.8334170658674
 30
0.0
 10
-57.2868370744922
 20
136.7419520753054
 30
0.0
 10
0.0000000000112618
 20
141.6290239623457
 30
0.0
 10
57.28683707451353
 20
136.7419520753118
 30
0.0
 10
109.7819321249633
 20
122.8334170658576
 30
0.0
 10
155.6603527541924
 20
100.3236698321142
 30
0.0
 10
190.6906698519896
 20
70.7839084118766
 30
0.0
 10
212.4004091137158
 20
36.95796737999817
 30
0.0
 10
220.0497954431431
 20
0.0000000000000642
 30
0.0
 10
212.4004091137118
 20
-36.95796737999869
 30
0.0
 10
190.6906698519815
 20
-70.7839084118784
 30
0.0
 10
155.660352754181
 20
-100.3236698321173
 30
0.0
 10
109.7819321249491
 20
-122.8334170658613
 30
0.0
 10
60.78651007786566
 20
-135.8147164080114
 30
0.0
 10
25.75511797340575
 20
-139.3847342975666
 30
0.0
 10
6.683464325358386
 20
-139.9511292811296
 30
0.0
 10
2.864341853724868
 20
-140.0
 30
0.0
 10
-0.0000000000002776
 20
-140.0
 30
0.0
  0
SPLINE
  5
7D
330
1B
100
AcDbEntity
 67
     1
  8
0
  6
Continuous
 62
     7
370
    25
100
AcDbSpline
210
0.0
220
0.0
230
1.0
 70
    11
 71
     3
 72
    35
 73
    31
 74
     0
 42
0.000000001
 43
0.00000001
 40
0.0
 40
0.0
 40
0.0
 40
0.0
 40
0.0062500000000001
 40
0.0083333333333333
 40
0.0416666666666666
 40
0.0833333333333334
 40
0.1249999999999999
 40
0.1666666666666666
 40
0.2083333333333334
 40
0.2499999999999998
 40
0.2916666666666666
 40
0.3333333333333334
 40
0.3750000000000001
 40
0.4166666666666666
 40
0.4583333333333334
 40
0.500000000000984
 40
0.5416666666666667
 40
0.5833333333333333
 40
0.625
 40
0.6666666666666667
 40
0.7083333333333333
 40
0.7499999999999999
 40
0.7916666666666666
 40
0.8333333333333334
 40
0.875
 40
0.9166666666666666
 40
0.9583333333333334
 40
0.9916666666666667
 40
0.99375
 40
1.0
 40
1.0
 40
1.0
 40
1.0
 10
-0.0000000000000069
 20
-33.0
 30
0.0
 10
-0.4388568511917365
 20
-33.0
 30
0.0
 10
-1.023999319447376
 20
-32.98756784255959
 30
0.0
 10
-3.946321791925902
 20
-32.84426857135493
 30
0.0
 10
-9.317081241428118
 20
-31.94578056316644
 30
0.0
 10
-16.87630028773804
 20
-28.79005539188281
 30
0.0
 10
-23.61951603177939
 20
-23.6195160317794
 30
0.0
 10
-28.79005539188281
 20
-16.87630028773805
 30
0.0
 10
-32.17118950397242
 20
-8.77713702383455
 30
0.0
 10
-33.41440524801379
 20
0.0000000000000069
 30
0.0
 10
-32.17118950397244
 20
8.777137023834559
 30
0.0
 10
-28.79005539188281
 20
16.87630028773805
 30
0.0
 10
-23.61951603177939
 20
23.61951603177941
 30
0.0
 10
-16.87630028773804
 20
28.79005539188281
 30
0.0
 10
-8.77713702383455
 20
32.17118950397243
 30
0.0
 10
0.0000000000000139
 20
33.4144052480138
 30
0.0
 10
8.777137023834564
 20
32.17118950397244
 30
0.0
 10
16.87630028773805
 20
28.79005539188281
 30
0.0
 10
23.61951603177941
 20
23.6195160317794
 30
0.0
 10
28.79005539188282
 20
16.87630028773805
 30
0.0
 10
32.17118950397244
 20
8.777137023834559
 30
0.0
 10
33.4144052480138
 20
0.0000000000000104
 30
0.0
 10
32.17118950397243
 20
-8.777137023834557
 30
0.0
 10
28.79005539188281
 20
-16.87630028773805
 30
0.0
 10
23.6195160317794
 20
-23.61951603177941
 30
0.0
 10
16.87630028773805
 20
-28.79005539188281
 30
0.0
 10
9.317081241428118
 20
-31.94578056316646
 30
0.0
 10
3.946321791925882
 20
-32.84426857135495
 30
0.0
 10
1.023999319447355
 20
-32.98756784255959
 30
0.0
 10
0.4388568511917226
 20
-33.0
 30
0.0
 10
-0.0000000000000069
 20
-33.0
 30
0.0
  0
SPLINE
  5
7E
330
1B
100
AcDbEntity
 67
     1
  8
0
  6
Continuous
 62
     7
370
    25
100
AcDbSpline
210
0.0
220
0.0
230
1.0
 70
    11
 71
     3
 72
    35
 73
    31
 74
     0
 42
0.000000001
 43
0.00000001
 40
0.0
 40
0.0
 40
0.0
 40
0.0
 40
0.0062500000000001
 40
0.0083333333333333
 40
0.0416666666666666
 40
0.0833333333333334
 40
0.1249999999999999
 40
0.1666666666666666
 40
0.2083333333333334
 40
0.2499999999999998
 40
0.2916666666666666
 40
0.3333333333333334
 40
0.3750000000000001
 40
0.4166666666666666
 40
0.4583333333333334
 40
0.500000000000984
 40
0.5416666666666667
 40
0.5833333333333333
 40
0.625
 40
0.6666666666666667
 40
0.7083333333333333
 40
0.7499999999999999
 40
0.7916666666666666
 40
0.8333333333333334
 40
0.875
 40
0.9166666666666666
 40
0.9583333333333334
 40
0.9916666666666667
 40
0.99375
 40
1.0
 40
1.0
 40
1.0
 40
1.0
 10
-0.0000000000003123
 20
-160.0
 30
0.0
 10
-3.158149667104884
 20
-160.0
 30
0.0
 10
-7.369015889910916
 20
-159.943653754006
 30
0.0
 10
-28.39700889706448
 20
-159.2908634255088
 30
0.0
 10
-67.02268480654207
 20
-155.1777592329618
 30
0.0
 10
-121.0583653088586
 20
-140.2562180888824
 30
0.0
 10
-171.6977681166121
 20
-114.4651787444076
 30
0.0
 10
-210.384327133324
 20
-80.70557687257187
 30
0.0
 10
-234.3653754005941
 20
-42.10866222806003
 30
0.0
 10
-242.8173122997032
 20
0.0000000000001995
 30
0.0
 10
-234.365375400594
 20
42.10866222806041
 30
0.0
 10
-210.3843271333237
 20
80.70557687257218
 30
0.0
 10
-171.6977681166116
 20
114.4651787444079
 30
0.0
 10
-121.0583653088579
 20
140.2562180888825
 30
0.0
 10
-63.16299334209026
 20
156.2435836003961
 30
0.0
 10
0.0000000000001527
 20
161.878208199802
 30
0.0
 10
63.16299334209051
 20
156.2435836003959
 30
0.0
 10
121.0583653088582
 20
140.2562180888824
 30
0.0
 10
171.6977681166117
 20
114.4651787444077
 30
0.0
 10
210.3843271333237
 20
80.70557687257197
 30
0.0
 10
234.365375400594
 20
42.10866222806018
 30
0.0
 10
242.8173122997032
 20
-0.000000000000052
 30
0.0
 10
234.365375400594
 20
-42.1086622280603
 30
0.0
 10
210.3843271333237
 20
-80.70557687257205
 30
0.0
 10
171.6977681166116
 20
-114.4651787444078
 30
0.0
 10
121.058365308858
 20
-140.2562180888825
 30
0.0
 10
67.02268480654146
 20
-155.1777592329617
 30
0.0
 10
28.3970088970638
 20
-159.2908634255087
 30
0.0
 10
7.369015889910235
 20
-159.943653754006
 30
0.0
 10
3.158149667104204
 20
-160.0
 30
0.0
 10
-0.0000000000003123
 20
-160.0
 30
0.0
  0
SPLINE
  5
7F
330
1B
100
AcDbEntity
 67
     1
  8
0
  6
Continuous
 62
     7
370
    25
100
AcDbSpline
210
0.0
220
0.0
230
1.0
 70
    11
 71
     3
 72
    35
 73
    31
 74
     0
 42
0.000000001
 43
0.00000001
 40
0.0
 40
0.0
 40
0.0
 40
0.0
 40
0.0062500000000001
 40
0.0083333333333333
 40
0.0416666666666666
 40
0.0833333333333334
 40
0.1249999999999999
 40
0.1666666666666666
 40
0.2083333333333334
 40
0.2499999999999998
 40
0.2916666666666666
 40
0.3333333333333334
 40
0.3750000000000001
 40
0.4166666666666666
 40
0.4583333333333334
 40
0.500000000000984
 40
0.5416666666666667
 40
0.5833333333333333
 40
0.625
 40
0.6666666666666667
 40
0.7083333333333333
 40
0.7499999999999999
 40
0.7916666666666666
 40
0.8333333333333334
 40
0.875
 40
0.9166666666666666
 40
0.9583333333333334
 40
0.9916666666666667
 40
0.99375
 40
1.0
 40
1.0
 40
1.0
 40
1.0
 10
0.0
 20
-23.00000000000001
 30
0.0
 10
-0.3058699265881815
 20
-23.00000000000001
 30
0.0
 10
-0.7136964953724095
 20
-22.99133516299608
 30
0.0
 10
-2.750466703463503
 20
-22.89145991336859
 30
0.0
 10
-6.493723289480211
 20
-22.26524099857056
 30
0.0
 10
-11.76226989751439
 20
-20.06579618222134
 30
0.0
 10
-16.46208693124018
 20
-16.46208693124019
 30
0.0
 10
-20.06579618222134
 20
-11.7622698975144
 30
0.0
 10
-22.42234419973835
 20
-6.117398531763476
 30
0.0
 10
-23.28882790013082
 20
0.0000000000000035
 30
0.0
 10
-22.42234419973835
 20
6.117398531763483
 30
0.0
 10
-20.06579618222134
 20
11.7622698975144
 30
0.0
 10
-16.46208693124018
 20
16.46208693124019
 30
0.0
 10
-11.76226989751439
 20
20.06579618222134
 30
0.0
 10
-6.117398531763476
 20
22.42234419973835
 30
0.0
 10
0.0000000000000139
 20
23.28882790013082
 30
0.0
 10
6.117398531763484
 20
22.42234419973835
 30
0.0
 10
11.7622698975144
 20
20.06579618222135
 30
0.0
 10
16.4620869312402
 20
16.46208693124019
 30
0.0
 10
20.06579618222135
 20
11.76226989751439
 30
0.0
 10
22.42234419973835
 20
6.117398531763478
 30
0.0
 10
23.28882790013082
 20
0.0000000000000052
 30
0.0
 10
22.42234419973836
 20
-6.117398531763476
 30
0.0
 10
20.06579618222136
 20
-11.7622698975144
 30
0.0
 10
16.4620869312402
 20
-16.4620869312402
 30
0.0
 10
11.7622698975144
 20
-20.06579618222136
 30
0.0
 10
6.493723289480203
 20
-22.26524099857057
 30
0.0
 10
2.750466703463496
 20
-22.89145991336859
 30
0.0
 10
0.7136964953724025
 20
-22.99133516299608
 30
0.0
 10
0.3058699265881676
 20
-23.00000000000001
 30
0.0
 10
0.0
 20
-23.00000000000001
 30
0.0
  0
VIEWPORT
  5
F2
330
1B
100
AcDbEntity
 67
     1
  8
0
100
AcDbViewport
 10
0.0
 20
0.0
 30
0.0
 40
205.6
 41
156.0
 68
     1
 69
     1
 12
0.0
 22
-22.1062804708
 13
0.0
 23
0.0
 14
10.0
 24
10.0
 15
10.0
 25
10.0
 16
0.0
 26
0.0
 36
1.0
 17
0.0
 27
0.0
 37
0.0
 42
50.0
 43
0.0
 44
0.0
 45
315.6896706028
 50
0.0
 51
0.0
 72
   100
 90
   557152
  1

281
     0
 71
     1
 74
     0
110
0.0
120
0.0
130
0.0
111
1.0
121
0.0
131
0.0
112
0.0
122
1.0
132
0.0
 79
     0
146
0.0
170
     0
 61
     5
348
2F
292
     1
282
     1
141
0.0
142
0.0
 63
   256
361
F3
  0
ENDSEC
  0
SECTION
  2
OBJECTS
  0
DICTIONARY
  5
C
330
0
100
AcDbDictionary
281
     1
  3
ACAD_DETAILVIEWSTYLE
350
10E
  3
ACAD_GROUP
350
D
  3
ACAD_LAYOUT
350
1A
  3
ACAD_MATERIAL
350
43
  3
ACAD_MLEADERSTYLE
350
6B
  3
ACAD_MLINESTYLE
350
17
  3
ACAD_PLOTSETTINGS
350
19
  3
ACAD_PLOTSTYLENAME
350
E
  3
ACAD_SCALELIST
350
47
  3
ACAD_SECTIONVIEWSTYLE
350
10F
  3
ACAD_TABLESTYLE
350
69
  3
ACAD_VISUALSTYLE
350
2A
  3
ACDB_RECOMPOSE_DATA
350
10B
  3
AcDbVariableDictionary
350
106
  0
SUN
  5
6D
330
29
100
AcDbSun
 90
        1
290
     0
 63
     7
421
 16777215
 40
1.0
291
     1
 91
  2455826
 92
 54000000
292
     0
 70
     2
 71
   256
280
     1
  0
SUN
  5
F5
330
F4
100
AcDbSun
 90
        1
290
     0
 63
     7
421
 16777215
 40
1.0
291
     1
 91
  2455826
 92
 54000000
292
     0
 70
     2
 71
   256
280
     1
  0
SUN
  5
F7
330
F6
100
AcDbSun
 90
        1
290
     0
 63
     7
421
 16777215
 40
1.0
291
     1
 91
  2455826
 92
 54000000
292
     0
 70
     2
 71
   256
280
     1
  0
SUN
  5
F9
330
F8
100
AcDbSun
 90
        1
290
     0
 63
     7
421
 16777215
 40
1.0
291
     1
 91
  2455826
 92
 54000000
292
     0
 70
     2
 71
   256
280
     1
  0
SUN
  5
FB
330
FA
100
AcDbSun
 90
        1
290
     0
 63
     7
421
 16777215
 40
1.0
291
     1
 91
  2455826
 92
 54000000
292
     0
 70
     2
 71
   256
280
     1
  0
SUN
  5
FD
330
FC
100
AcDbSun
 90
        1
290
     0
 63
     7
421
 16777215
 40
1.0
291
     1
 91
  2455826
 92
 54000000
292
     0
 70
     2
 71
   256
280
     1
  0
SUN
  5
FF
330
FE
100
AcDbSun
 90
        1
290
     0
 63
     7
421
 16777215
 40
1.0
291
     1
 91
  2455826
 92
 54000000
292
     0
 70
     2
 71
   256
280
     1
  0
SUN
  5
101
330
100
100
AcDbSun
 90
        1
290
     0
 63
     7
421
 16777215
 40
1.0
291
     1
 91
  2455826
 92
 54000000
292
     0
 70
     2
 71
   256
280
     1
  0
SUN
  5
103
330
102
100
AcDbSun
 90
        1
290
     0
 63
     7
421
 16777215
 40
1.0
291
     1
 91
  2455826
 92
 54000000
292
     0
 70
     2
 71
   256
280
     1
  0
SUN
  5
105
330
104
100
AcDbSun
 90
        1
290
     0
 63
     7
421
 16777215
 40
1.0
291
     1
 91
  2455826
 92
 54000000
292
     0
 70
     2
 71
   256
280
     1
  0
SUN
  5
F3
330
F2
100
AcDbSun
 90
        1
290
     0
 63
     7
421
 16777215
 40
1.0
291
     1
 91
  2455826
 92
 54000000
292
     0
 70
     2
 71
   256
280
     1
  0
DICTIONARY
  5
10E
102
{ACAD_REACTORS
330
C
102
}
330
C
100
AcDbDictionary
281
     1
  0
DICTIONARY
  5
D
102
{ACAD_REACTORS
330
C
102
}
330
C
100
AcDbDictionary
281
     1
  0
DICTIONARY
  5
1A
102
{ACAD_REACTORS
330
C
102
}
330
C
100
AcDbDictionary
281
     1
  3
_Dimetrisch
350
E8
  3
_Isometrisch
350
D4
  3
_Links
350
8F
  3
_Normal auf
350
9C
  3
_Oben
350
1E
  3
_Rechts
350
BB
  3
_Rückseite
350
AE
  3
_Trimetrisch
350
DF
  3
_Unten
350
CA
  3
_Vorderseite
350
26
  3
Model
350
22
  0
DICTIONARY
  5
43
102
{ACAD_REACTORS
330
C
102
}
330
C
100
AcDbDictionary
281
     1
  3
ByBlock
350
45
  3
ByLayer
350
44
  3
Global
350
46
  0
DICTIONARY
  5
6B
102
{ACAD_REACTORS
330
C
102
}
330
C
100
AcDbDictionary
281
     1
  3
Standard
350
6C
  0
DICTIONARY
  5
17
102
{ACAD_REACTORS
330
C
102
}
330
C
100
AcDbDictionary
281
     1
  3
Standard
350
18
  0
DICTIONARY
  5
19
102
{ACAD_REACTORS
330
C
102
}
330
C
100
AcDbDictionary
281
     1
  0
ACDBDICTIONARYWDFLT
  5
E
102
{ACAD_REACTORS
330
C
102
}
330
C
100
AcDbDictionary
281
     1
  3
Normal
350
F
100
AcDbDictionaryWithDefault
340
F
  0
DICTIONARY
  5
47
102
{ACAD_REACTORS
330
C
102
}
330
C
100
AcDbDictionary
281
     1
  3
A0
350
48
  3
A1
350
49
  3
A2
350
4A
  3
A3
350
4B
  3
A4
350
4C
  3
A5
350
4D
  3
A6
350
4E
  3
A7
350
4F
  3
A8
350
50
  3
A9
350
51
  3
B0
350
52
  3
B1
350
53
  3
B2
350
54
  3
B3
350
55
  3
B4
350
56
  3
B5
350
57
  3
B6
350
58
  3
B7
350
59
  3
B8
350
5A
  3
B9
350
5B
  3
C0
350
5C
  3
C1
350
5D
  3
C2
350
5E
  3
C3
350
5F
  3
C4
350
60
  3
C5
350
61
  3
C6
350
62
  3
C7
350
63
  3
C8
350
64
  3
C9
350
65
  3
D0
350
66
  3
D1
350
67
  3
D2
350
68
  0
DICTIONARY
  5
10F
102
{ACAD_REACTORS
330
C
102
}
330
C
100
AcDbDictionary
281
     1
  0
DICTIONARY
  5
69
102
{ACAD_REACTORS
330
C
102
}
330
C
100
AcDbDictionary
281
     1
  3
Standard
350
6A
  0
DICTIONARY
  5
2A
102
{ACAD_REACTORS
330
C
102
}
330
C
100
AcDbDictionary
281
     1
  3
2dWireframe
350
2F
  3
Basic
350
32
  3
Brighten
350
36
  3
ColorChange
350
3A
  3
Conceptual
350
34
  3
Dim
350
35
  3
EdgeColorOff
350
3D
  3
Facepattern
350
39
  3
Flat
350
2B
  3
FlatWithEdges
350
2C
  3
Gouraud
350
2D
  3
GouraudWithEdges
350
2E
  3
Hidden
350
31
  3
JitterOff
350
3B
  3
Linepattern
350
38
  3
OverhangOff
350
3C
  3
Realistic
350
33
  3
Shaded
350
42
  3
Shaded with edges
350
41
  3
Shades of Gray
350
3E
  3
Sketchy
350
3F
  3
Thicken
350
37
  3
Wireframe
350
30
  3
X-Ray
350
40
  0
XRECORD
  5
10B
102
{ACAD_REACTORS
330
C
102
}
330
C
100
AcDbXrecord
280
     1
 90
        1
330
6A
  0
DICTIONARY
  5
106
102
{ACAD_REACTORS
330
C
102
}
330
C
100
AcDbDictionary
281
     1
  3
CANNOSCALE
350
107
  3
CMLEADERSTYLE
350
10D
  3
CTABLESTYLE
350
10C
  0
LAYOUT
  5
E8
102
{ACAD_REACTORS
330
1A
102
}
330
1A
100
AcDbPlotSettings
  1

  2
none_device
  4
ISO_A4_(210.00_x_297.00_MM)
  6

 40
7.5
 41
20.0
 42
7.5
 43
20.0
 44
210.0
 45
297.0
 46
0.0
 47
0.0
 48
0.0
 49
0.0
140
0.0
141
0.0
142
1.0
143
1.8677042802
 70
   688
 72
     1
 73
     1
 74
     1
  7

 75
     0
 76
     0
 77
     2
 78
   300
147
0.5354166667
148
240.0
149
160.0
100
AcDbLayout
  1
_Dimetrisch
 70
     1
 71
    10
 10
0.0
 20
0.0
 11
0.0
 21
0.0
 12
0.0
 22
0.0
 32
0.0
 14
0.0
 24
0.0
 34
0.0
 15
0.0
 25
0.0
 35
0.0
146
0.0
 13
0.0
 23
0.0
 33
0.0
 16
1.0
 26
0.0
 36
0.0
 17
0.0
 27
1.0
 37
0.0
 76
     0
330
E7
331
104
  0
LAYOUT
  5
D4
102
{ACAD_REACTORS
330
1A
102
}
330
1A
100
AcDbPlotSettings
  1

  2
none_device
  4
ISO_A4_(210.00_x_297.00_MM)
  6

 40
7.5
 41
20.0
 42
7.5
 43
20.0
 44
210.0
 45
297.0
 46
0.0
 47
0.0
 48
0.0
 49
0.0
140
0.0
141
0.0
142
1.0
143
1.8677042802
 70
   688
 72
     1
 73
     1
 74
     1
  7

 75
     0
 76
     0
 77
     2
 78
   300
147
0.5354166667
148
240.0
149
160.0
100
AcDbLayout
  1
_Isometrisch
 70
     1
 71
     8
 10
0.0
 20
0.0
 11
0.0
 21
0.0
 12
0.0
 22
0.0
 32
0.0
 14
0.0
 24
0.0
 34
0.0
 15
0.0
 25
0.0
 35
0.0
146
0.0
 13
0.0
 23
0.0
 33
0.0
 16
1.0
 26
0.0
 36
0.0
 17
0.0
 27
1.0
 37
0.0
 76
     0
330
D3
331
100
  0
LAYOUT
  5
8F
102
{ACAD_REACTORS
330
1A
102
}
330
1A
100
AcDbPlotSettings
  1

  2
none_device
  4
ISO_A4_(210.00_x_297.00_MM)
  6

 40
7.5
 41
20.0
 42
7.5
 43
20.0
 44
210.0
 45
297.0
 46
0.0
 47
0.0
 48
0.0
 49
0.0
140
0.0
141
0.0
142
1.0
143
1.8677042802
 70
   688
 72
     1
 73
     1
 74
     1
  7

 75
     0
 76
     0
 77
     2
 78
   300
147
0.5354166667
148
240.0
149
160.0
100
AcDbLayout
  1
_Links
 70
     1
 71
     3
 10
0.0
 20
0.0
 11
0.0
 21
0.0
 12
0.0
 22
0.0
 32
0.0
 14
0.0
 24
0.0
 34
0.0
 15
0.0
 25
0.0
 35
0.0
146
0.0
 13
0.0
 23
0.0
 33
0.0
 16
1.0
 26
0.0
 36
0.0
 17
0.0
 27
1.0
 37
0.0
 76
     0
330
8E
331
F6
  0
LAYOUT
  5
9C
102
{ACAD_REACTORS
330
1A
102
}
330
1A
100
AcDbPlotSettings
  1

  2
none_device
  4
ISO_A4_(210.00_x_297.00_MM)
  6

 40
7.5
 41
20.0
 42
7.5
 43
20.0
 44
210.0
 45
297.0
 46
0.0
 47
0.0
 48
0.0
 49
0.0
140
0.0
141
0.0
142
1.0
143
1.8677042802
 70
   688
 72
     1
 73
     1
 74
     1
  7

 75
     0
 76
     0
 77
     2
 78
   300
147
0.5354166667
148
240.0
149
160.0
100
AcDbLayout
  1
_Normal auf
 70
     1
 71
     4
 10
0.0
 20
0.0
 11
0.0
 21
0.0
 12
0.0
 22
0.0
 32
0.0
 14
0.0
 24
0.0
 34
0.0
 15
0.0
 25
0.0
 35
0.0
146
0.0
 13
0.0
 23
0.0
 33
0.0
 16
1.0
 26
0.0
 36
0.0
 17
0.0
 27
1.0
 37
0.0
 76
     0
330
9B
331
F8
  0
LAYOUT
  5
1E
102
{ACAD_REACTORS
330
1A
102
}
330
1A
100
AcDbPlotSettings
  1

  2
none_device
  4
ISO_A4_(210.00_x_297.00_MM)
  6

 40
7.5
 41
20.0
 42
7.5
 43
20.0
 44
210.0
 45
297.0
 46
0.0
 47
0.0
 48
0.0
 49
0.0
140
0.0
141
0.0
142
1.0
143
1.8677042802
 70
   688
 72
     1
 73
     1
 74
     1
  7

 75
     0
 76
     0
 77
     2
 78
   300
147
0.5354166667
148
240.0
149
160.0
100
AcDbLayout
  1
_Oben
 70
     1
 71
     1
 10
-277.3540856031
 20
-174.0077821012
 11
277.3540856031
 21
218.2101167315
 12
0.0
 22
0.0
 32
0.0
 14
-240.0
 24
-160.0
 34
0.0
 15
240.0
 25
160.0
 35
0.0
146
0.0
 13
0.0
 23
0.0
 33
0.0
 16
1.0
 26
0.0
 36
0.0
 17
0.0
 27
1.0
 37
0.0
 76
     0
330
1B
331
F2
  0
LAYOUT
  5
BB
102
{ACAD_REACTORS
330
1A
102
}
330
1A
100
AcDbPlotSettings
  1

  2
none_device
  4
ISO_A4_(210.00_x_297.00_MM)
  6

 40
7.5
 41
20.0
 42
7.5
 43
20.0
 44
210.0
 45
297.0
 46
0.0
 47
0.0
 48
0.0
 49
0.0
140
0.0
141
0.0
142
1.0
143
1.8677042802
 70
   688
 72
     1
 73
     1
 74
     1
  7

 75
     0
 76
     0
 77
     2
 78
   300
147
0.5354166667
148
240.0
149
160.0
100
AcDbLayout
  1
_Rechts
 70
     1
 71
     6
 10
0.0
 20
0.0
 11
0.0
 21
0.0
 12
0.0
 22
0.0
 32
0.0
 14
0.0
 24
0.0
 34
0.0
 15
0.0
 25
0.0
 35
0.0
146
0.0
 13
0.0
 23
0.0
 33
0.0
 16
1.0
 26
0.0
 36
0.0
 17
0.0
 27
1.0
 37
0.0
 76
     0
330
BA
331
FC
  0
LAYOUT
  5
AE
102
{ACAD_REACTORS
330
1A
102
}
330
1A
100
AcDbPlotSettings
  1

  2
none_device
  4
ISO_A4_(210.00_x_297.00_MM)
  6

 40
7.5
 41
20.0
 42
7.5
 43
20.0
 44
210.0
 45
297.0
 46
0.0
 47
0.0
 48
0.0
 49
0.0
140
0.0
141
0.0
142
1.0
143
1.8677042802
 70
   688
 72
     1
 73
     1
 74
     1
  7

 75
     0
 76
     0
 77
     2
 78
   300
147
0.5354166667
148
240.0
149
160.0
100
AcDbLayout
  1
_Rückseite
 70
     1
 71
     5
 10
0.0
 20
0.0
 11
0.0
 21
0.0
 12
0.0
 22
0.0
 32
0.0
 14
0.0
 24
0.0
 34
0.0
 15
0.0
 25
0.0
 35
0.0
146
0.0
 13
0.0
 23
0.0
 33
0.0
 16
1.0
 26
0.0
 36
0.0
 17
0.0
 27
1.0
 37
0.0
 76
     0
330
AD
331
FA
  0
LAYOUT
  5
DF
102
{ACAD_REACTORS
330
1A
102
}
330
1A
100
AcDbPlotSettings
  1

  2
none_device
  4
ISO_A4_(210.00_x_297.00_MM)
  6

 40
7.5
 41
20.0
 42
7.5
 43
20.0
 44
210.0
 45
297.0
 46
0.0
 47
0.0
 48
0.0
 49
0.0
140
0.0
141
0.0
142
1.0
143
1.8677042802
 70
   688
 72
     1
 73
     1
 74
     1
  7

 75
     0
 76
     0
 77
     2
 78
   300
147
0.5354166667
148
240.0
149
160.0
100
AcDbLayout
  1
_Trimetrisch
 70
     1
 71
     9
 10
0.0
 20
0.0
 11
0.0
 21
0.0
 12
0.0
 22
0.0
 32
0.0
 14
0.0
 24
0.0
 34
0.0
 15
0.0
 25
0.0
 35
0.0
146
0.0
 13
0.0
 23
0.0
 33
0.0
 16
1.0
 26
0.0
 36
0.0
 17
0.0
 27
1.0
 37
0.0
 76
     0
330
DE
331
102
  0
LAYOUT
  5
CA
102
{ACAD_REACTORS
330
1A
102
}
330
1A
100
AcDbPlotSettings
  1

  2
none_device
  4
ISO_A4_(210.00_x_297.00_MM)
  6

 40
7.5
 41
20.0
 42
7.5
 43
20.0
 44
210.0
 45
297.0
 46
0.0
 47
0.0
 48
0.0
 49
0.0
140
0.0
141
0.0
142
1.0
143
1.8677042802
 70
   688
 72
     1
 73
     1
 74
     1
  7

 75
     0
 76
     0
 77
     2
 78
   300
147
0.5354166667
148
240.0
149
160.0
100
AcDbLayout
  1
_Unten
 70
     1
 71
     7
 10
0.0
 20
0.0
 11
0.0
 21
0.0
 12
0.0
 22
0.0
 32
0.0
 14
0.0
 24
0.0
 34
0.0
 15
0.0
 25
0.0
 35
0.0
146
0.0
 13
0.0
 23
0.0
 33
0.0
 16
1.0
 26
0.0
 36
0.0
 17
0.0
 27
1.0
 37
0.0
 76
     0
330
C9
331
FE
  0
LAYOUT
  5
26
102
{ACAD_REACTORS
330
1A
102
}
330
1A
100
AcDbPlotSettings
  1

  2
none_device
  4
ISO_A4_(210.00_x_297.00_MM)
  6

 40
7.5
 41
20.0
 42
7.5
 43
20.0
 44
210.0
 45
297.0
 46
0.0
 47
0.0
 48
0.0
 49
0.0
140
0.0
141
0.0
142
1.0
143
1.8677042802
 70
   688
 72
     1
 73
     1
 74
     1
  7

 75
     0
 76
     0
 77
     2
 78
   300
147
0.5354166667
148
240.0
149
160.0
100
AcDbLayout
  1
_Vorderseite
 70
     1
 71
     2
 10
0.0
 20
0.0
 11
0.0
 21
0.0
 12
0.0
 22
0.0
 32
0.0
 14
0.0
 24
0.0
 34
0.0
 15
0.0
 25
0.0
 35
0.0
146
0.0
 13
0.0
 23
0.0
 33
0.0
 16
1.0
 26
0.0
 36
0.0
 17
0.0
 27
1.0
 37
0.0
 76
     0
330
23
331
F4
  0
LAYOUT
  5
22
102
{ACAD_REACTORS
330
1A
102
}
330
1A
100
AcDbPlotSettings
  1

  2
none_device
  4
ANSI_A_(11.00_x_8.50_Inches)
  6

 40
6.35
 41
19.05
 42
6.35000508
 43
19.05000254
 44
279.4
 45
215.9
 46
133.34999746
 47
103.8905829941
 48
0.0
 49
0.0
140
0.0
141
0.0
142
0.0266974122
143
1.0
 70
  1696
 72
     0
 73
     0
 74
     0
  7

 75
     0
 76
     0
 77
     2
 78
   300
147
0.0179189148
148
-1300.4909072572
149
0.0
100
AcDbLayout
  1
Model
 70
     1
 71
     0
 10
0.0
 20
0.0
 11
420.0
 21
297.0
 12
0.0
 22
0.0
 32
0.0
 14
-203.9523512944
 24
-161.9517471948
 34
0.0
 15
203.9523512944
 25
117.7391862532
 35
0.0
146
0.0
 13
0.0
 23
0.0
 33
0.0
 16
1.0
 26
0.0
 36
0.0
 17
0.0
 27
1.0
 37
0.0
 76
     0
330
1F
331
29
  0
MATERIAL
  5
45
102
{ACAD_REACTORS
330
43
102
}
330
43
100
AcDbMaterial
  1
ByBlock
 72
     1
 94
      127
  0
MATERIAL
  5
44
102
{ACAD_REACTORS
330
43
102
}
330
43
100
AcDbMaterial
  1
ByLayer
 72
     1
 94
      127
  0
MATERIAL
  5
46
102
{ACAD_REACTORS
330
43
102
}
330
43
100
AcDbMaterial
  1
Global
 72
     1
 94
      127
  0
MLEADERSTYLE
  5
6C
102
{ACAD_REACTORS
330
6B
102
}
330
6B
100
AcDbMLeaderStyle
170
     2
171
     1
172
     0
 90
        2
 40
0.0
 41
0.0
173
     1
 91
-1056964608
340
14
 92
       -2
290
     1
 42
2.0
291
     1
 43
8.0
  3
Standard
341
0
 44
4.0
300

342
11
174
     1
178
     6
175
     1
176
     0
 93
-1056964608
 45
4.0
292
     0
297
     0
 46
4.0
343
0
 94
-1056964608
 47
1.0
 49
1.0
140
1.0
293
     1
141
0.0
294
     1
177
     0
142
1.0
295
     0
296
     0
143
3.75
1001
ACAD_MLEADERVER
1070
     2
  0
MLINESTYLE
  5
18
102
{ACAD_REACTORS
330
17
102
}
330
17
100
AcDbMlineStyle
  2
Standard
 70
     0
  3

 62
   256
 51
90.0
 52
90.0
 71
     2
 49
0.5
 62
   256
  6
BYLAYER
 49
-0.5
 62
   256
  6
BYLAYER
  0
ACDBPLACEHOLDER
  5
F
102
{ACAD_REACTORS
330
E
102
}
330
E
  0
SCALE
  5
48
102
{ACAD_REACTORS
330
47
102
}
330
47
100
AcDbScale
 70
     0
300
1:1
140
1.0
141
1.0
290
     1
  0
SCALE
  5
49
102
{ACAD_REACTORS
330
47
102
}
330
47
100
AcDbScale
 70
     0
300
1:2
140
1.0
141
2.0
290
     0
  0
SCALE
  5
4A
102
{ACAD_REACTORS
330
47
102
}
330
47
100
AcDbScale
 70
     0
300
1:4
140
1.0
141
4.0
290
     0
  0
SCALE
  5
4B
102
{ACAD_REACTORS
330
47
102
}
330
47
100
AcDbScale
 70
     0
300
1:5
140
1.0
141
5.0
290
     0
  0
SCALE
  5
4C
102
{ACAD_REACTORS
330
47
102
}
330
47
100
AcDbScale
 70
     0
300
1:8
140
1.0
141
8.0
290
     0
  0
SCALE
  5
4D
102
{ACAD_REACTORS
330
47
102
}
330
47
100
AcDbScale
 70
     0
300
1:10
140
1.0
141
10.0
290
     0
  0
SCALE
  5
4E
102
{ACAD_REACTORS
330
47
102
}
330
47
100
AcDbScale
 70
     0
300
1:16
140
1.0
141
16.0
290
     0
  0
SCALE
  5
4F
102
{ACAD_REACTORS
330
47
102
}
330
47
100
AcDbScale
 70
     0
300
1:20
140
1.0
141
20.0
290
     0
  0
SCALE
  5
50
102
{ACAD_REACTORS
330
47
102
}
330
47
100
AcDbScale
 70
     0
300
1:30
140
1.0
141
30.0
290
     0
  0
SCALE
  5
51
102
{ACAD_REACTORS
330
47
102
}
330
47
100
AcDbScale
 70
     0
300
1:40
140
1.0
141
40.0
290
     0
  0
SCALE
  5
52
102
{ACAD_REACTORS
330
47
102
}
330
47
100
AcDbScale
 70
     0
300
1:50
140
1.0
141
50.0
290
     0
  0
SCALE
  5
53
102
{ACAD_REACTORS
330
47
102
}
330
47
100
AcDbScale
 70
     0
300
1:100
140
1.0
141
100.0
290
     0
  0
SCALE
  5
54
102
{ACAD_REACTORS
330
47
102
}
330
47
100
AcDbScale
 70
     0
300
2:1
140
2.0
141
1.0
290
     0
  0
SCALE
  5
55
102
{ACAD_REACTORS
330
47
102
}
330
47
100
AcDbScale
 70
     0
300
4:1
140
4.0
141
1.0
290
     0
  0
SCALE
  5
56
102
{ACAD_REACTORS
330
47
102
}
330
47
100
AcDbScale
 70
     0
300
8:1
140
8.0
141
1.0
290
     0
  0
SCALE
  5
57
102
{ACAD_REACTORS
330
47
102
}
330
47
100
AcDbScale
 70
     0
300
10:1
140
10.0
141
1.0
290
     0
  0
SCALE
  5
58
102
{ACAD_REACTORS
330
47
102
}
330
47
100
AcDbScale
 70
     0
300
100:1
140
100.0
141
1.0
290
     0
  0
SCALE
  5
59
102
{ACAD_REACTORS
330
47
102
}
330
47
100
AcDbScale
 70
     0
300
1/128" = 1'-0"
140
0.0078125
141
12.0
290
     0
  0
SCALE
  5
5A
102
{ACAD_REACTORS
330
47
102
}
330
47
100
AcDbScale
 70
     0
300
1/64" = 1'-0"
140
0.015625
141
12.0
290
     0
  0
SCALE
  5
5B
102
{ACAD_REACTORS
330
47
102
}
330
47
100
AcDbScale
 70
     0
300
1/32" = 1'-0"
140
0.03125
141
12.0
290
     0
  0
SCALE
  5
5C
102
{ACAD_REACTORS
330
47
102
}
330
47
100
AcDbScale
 70
     0
300
1/16" = 1'-0"
140
0.0625
141
12.0
290
     0
  0
SCALE
  5
5D
102
{ACAD_REACTORS
330
47
102
}
330
47
100
AcDbScale
 70
     0
300
3/32" = 1'-0"
140
0.09375
141
12.0
290
     0
  0
SCALE
  5
5E
102
{ACAD_REACTORS
330
47
102
}
330
47
100
AcDbScale
 70
     0
300
1/8" = 1'-0"
140
0.125
141
12.0
290
     0
  0
SCALE
  5
5F
102
{ACAD_REACTORS
330
47
102
}
330
47
100
AcDbScale
 70
     0
300
3/16" = 1'-0"
140
0.1875
141
12.0
290
     0
  0
SCALE
  5
60
102
{ACAD_REACTORS
330
47
102
}
330
47
100
AcDbScale
 70
     0
300
1/4" = 1'-0"
140
0.25
141
12.0
290
     0
  0
SCALE
  5
61
102
{ACAD_REACTORS
330
47
102
}
330
47
100
AcDbScale
 70
     0
300
3/8" = 1'-0"
140
0.375
141
12.0
290
     0
  0
SCALE
  5
62
102
{ACAD_REACTORS
330
47
102
}
330
47
100
AcDbScale
 70
     0
300
1/2" = 1'-0"
140
0.5
141
12.0
290
     0
  0
SCALE
  5
63
102
{ACAD_REACTORS
330
47
102
}
330
47
100
AcDbScale
 70
     0
300
3/4" = 1'-0"
140
0.75
141
12.0
290
     0
  0
SCALE
  5
64
102
{ACAD_REACTORS
330
47
102
}
330
47
100
AcDbScale
 70
     0
300
1" = 1'-0"
140
1.0
141
12.0
290
     0
  0
SCALE
  5
65
102
{ACAD_REACTORS
330
47
102
}
330
47
100
AcDbScale
 70
     0
300
1-1/2" = 1'-0"
140
1.5
141
12.0
290
     0
  0
SCALE
  5
66
102
{ACAD_REACTORS
330
47
102
}
330
47
100
AcDbScale
 70
     0
300
3" = 1'-0"
140
3.0
141
12.0
290
     0
  0
SCALE
  5
67
102
{ACAD_REACTORS
330
47
102
}
330
47
100
AcDbScale
 70
     0
300
6" = 1'-0"
140
6.0
141
12.0
290
     0
  0
SCALE
  5
68
102
{ACAD_REACTORS
330
47
102
}
330
47
100
AcDbScale
 70
     0
300
1'-0" = 1'-0"
140
12.0
141
12.0
290
     0
  0
TABLESTYLE
  5
6A
102
{ACAD_REACTORS
330
69
102
}
102
{ACAD_XDICTIONARY
360
108
102
}
330
69
100
AcDbTableStyle
  3
Standard
 70
     0
 71
     0
 40
0.06
 41
0.06
280
     0
281
     0
  7
Standard
140
4.5
170
     2
 62
     0
 63
   257
283
     0
 90
        4
 91
        0
  1

274
    -2
284
     1
 64
     0
275
    -2
285
     1
 65
     0
276
    -2
286
     1
 66
     0
277
    -2
287
     1
 67
     0
278
    -2
288
     1
 68
     0
279
    -2
289
     1
 69
     0
  7
Standard
140
6.0
170
     5
 62
     0
 63
   257
283
     0
 90
        4
 91
        0
  1

274
    -2
284
     1
 64
     0
275
    -2
285
     1
 65
     0
276
    -2
286
     1
 66
     0
277
    -2
287
     1
 67
     0
278
    -2
288
     1
 68
     0
279
    -2
289
     1
 69
     0
  7
Standard
140
4.5
170
     5
 62
     0
 63
   257
283
     0
 90
        4
 91
        0
  1

274
    -2
284
     1
 64
     0
275
    -2
285
     1
 65
     0
276
    -2
286
     1
 66
     0
277
    -2
287
     1
 67
     0
278
    -2
288
     1
 68
     0
279
    -2
289
     1
 69
     0
  0
VISUALSTYLE
  5
2F
102
{ACAD_REACTORS
330
2A
102
}
330
2A
100
AcDbVisualStyle
  2
2dWireframe
 70
     4
 71
     0
 72
     2
 73
     0
 90
        0
 40
0.6
 41
30.0
 62
     5
 63
     7
421
 16777215
 74
     1
 91
        4
 64
     7
 65
   257
 75
     1
175
     1
 42
1.0
 92
        0
 66
   257
 43
1.0
 76
     1
 77
     6
 78
     2
 67
     7
 79
     5
170
     0
171
     0
290
     0
174
     0
 93
        1
 44
0.0
173
     0
291
     0
 45
0.0
  0
VISUALSTYLE
  5
32
102
{ACAD_REACTORS
330
2A
102
}
330
2A
100
AcDbVisualStyle
  2
Basic
 70
     7
 71
     1
 72
     0
 73
     1
 90
        0
 40
0.6
 41
30.0
 62
     5
 63
     7
421
 16777215
 74
     0
 91
        4
 64
     7
 65
   257
 75
     1
175
     1
 42
1.0
 92
        8
 66
     7
 43
1.0
 76
     1
 77
     6
 78
     2
 67
     7
 79
     5
170
     0
171
     0
290
     0
174
     0
 93
        1
 44
0.0
173
     0
291
     1
 45
0.0
  0
VISUALSTYLE
  5
36
102
{ACAD_REACTORS
330
2A
102
}
330
2A
100
AcDbVisualStyle
  2
Brighten
 70
    12
 71
     2
 72
     2
 73
     0
 90
        0
 40
0.6
 41
30.0
 62
     5
 63
     7
421
 16777215
 74
     1
 91
        4
 64
     7
 65
   257
 75
     1
175
     1
 42
1.0
 92
        8
 66
     7
 43
1.0
 76
     1
 77
     6
 78
     2
 67
     7
 79
     5
170
     0
171
     0
290
     0
174
     0
 93
        1
 44
50.0
173
     0
291
     1
 45
0.0
  0
VISUALSTYLE
  5
3A
102
{ACAD_REACTORS
330
2A
102
}
330
2A
100
AcDbVisualStyle
  2
ColorChange
 70
    16
 71
     2
 72
     2
 73
     3
 90
        0
 40
0.6
 41
30.0
 62
     5
 63
     8
421
  8421504
 74
     1
 91
        4
 64
     7
 65
   257
 75
     1
175
     1
 42
1.0
 92
        8
 66
     8
424
  8421504
 43
1.0
 76
     1
 77
     6
 78
     2
 67
     7
 79
     5
170
     0
171
     0
290
     0
174
     0
 93
        1
 44
0.0
173
     0
291
     1
 45
0.0
  0
VISUALSTYLE
  5
34
102
{ACAD_REACTORS
330
2A
102
}
330
2A
100
AcDbVisualStyle
  2
Conceptual
 70
     9
 71
     3
 72
     2
 73
     0
 90
        0
 40
0.6
 41
30.0
 62
     5
 63
     7
421
 16777215
 74
     2
 91
        2
 64
     7
 65
   257
 75
     1
175
     1
 42
179.0
 92
        8
 66
     7
 43
1.0
 76
     1
 77
     6
 78
     2
 67
     7
 79
     3
170
     0
171
     0
290
     0
174
     0
 93
        1
 44
0.0
173
     0
291
     0
 45
0.0
  0
VISUALSTYLE
  5
35
102
{ACAD_REACTORS
330
2A
102
}
330
2A
100
AcDbVisualStyle
  2
Dim
 70
    11
 71
     2
 72
     2
 73
     0
 90
        0
 40
0.6
 41
30.0
 62
     5
 63
     7
421
 16777215
 74
     1
 91
        4
 64
     7
 65
   257
 75
     1
175
     1
 42
1.0
 92
        8
 66
     7
 43
1.0
 76
     1
 77
     6
 78
     2
 67
     7
 79
     5
170
     0
171
     0
290
     0
174
     0
 93
        1
 44
-50.0
173
     0
291
     1
 45
0.0
  0
VISUALSTYLE
  5
3D
102
{ACAD_REACTORS
330
2A
102
}
330
2A
100
AcDbVisualStyle
  2
EdgeColorOff
 70
    22
 71
     2
 72
     2
 73
     0
 90
        0
 40
0.6
 41
30.0
 62
     5
 63
     7
421
 16777215
 74
     1
 91
        4
 64
     7
 65
   257
 75
     1
175
     1
 42
1.0
 92
        8
 66
     7
 43
1.0
 76
     1
 77
     6
 78
     2
 67
     7
 79
     5
170
     0
171
     0
290
     0
174
     0
 93
        1
 44
0.0
173
     0
291
     1
 45
0.0
  0
VISUALSTYLE
  5
39
102
{ACAD_REACTORS
330
2A
102
}
330
2A
100
AcDbVisualStyle
  2
Facepattern
 70
    15
 71
     2
 72
     2
 73
     0
 90
        0
 40
0.6
 41
30.0
 62
     5
 63
     7
421
 16777215
 74
     1
 91
        4
 64
     7
 65
   257
 75
     1
175
     1
 42
1.0
 92
        8
 66
     7
 43
1.0
 76
     1
 77
     6
 78
     2
 67
     7
 79
     5
170
     0
171
     0
290
     0
174
     0
 93
        1
 44
0.0
173
     0
291
     1
 45
0.0
  0
VISUALSTYLE
  5
2B
102
{ACAD_REACTORS
330
2A
102
}
330
2A
100
AcDbVisualStyle
  2
Flat
 70
     0
 71
     2
 72
     1
 73
     1
 90
        2
 40
0.6
 41
30.0
 62
     5
 63
     7
421
 16777215
 74
     0
 91
        0
 64
     7
 65
   257
 75
     1
175
     1
 42
1.0
 92
        8
 66
     7
 43
1.0
 76
     1
 77
     6
 78
     2
 67
     7
 79
     5
170
     0
171
     0
290
     0
174
     0
 93
       13
 44
0.0
173
     0
291
     1
 45
0.0
  0
VISUALSTYLE
  5
2C
102
{ACAD_REACTORS
330
2A
102
}
330
2A
100
AcDbVisualStyle
  2
FlatWithEdges
 70
     1
 71
     2
 72
     1
 73
     1
 90
        2
 40
0.6
 41
30.0
 62
     5
 63
     7
421
 16777215
 74
     1
 91
        0
 64
     7
 65
   257
 75
     1
175
     1
 42
1.0
 92
        0
 66
   257
 43
1.0
 76
     1
 77
     6
 78
     2
 67
     7
 79
     5
170
     0
171
     0
290
     0
174
     0
 93
       13
 44
0.0
173
     0
291
     1
 45
0.0
  0
VISUALSTYLE
  5
2D
102
{ACAD_REACTORS
330
2A
102
}
330
2A
100
AcDbVisualStyle
  2
Gouraud
 70
     2
 71
     2
 72
     2
 73
     1
 90
        2
 40
0.6
 41
30.0
 62
     5
 63
     7
421
 16777215
 74
     0
 91
        0
 64
     7
 65
   257
 75
     1
175
     1
 42
1.0
 92
        0
 66
     7
 43
1.0
 76
     1
 77
     6
 78
     2
 67
     7
 79
     5
170
     0
171
     0
290
     0
174
     0
 93
       13
 44
0.0
173
     0
291
     1
 45
0.0
  0
VISUALSTYLE
  5
2E
102
{ACAD_REACTORS
330
2A
102
}
330
2A
100
AcDbVisualStyle
  2
GouraudWithEdges
 70
     3
 71
     2
 72
     2
 73
     1
 90
        2
 40
0.6
 41
30.0
 62
     5
 63
     7
421
 16777215
 74
     1
 91
        0
 64
     7
 65
   257
 75
     1
175
     1
 42
1.0
 92
        0
 66
   257
 43
1.0
 76
     1
 77
     6
 78
     2
 67
     7
 79
     5
170
     0
171
     0
290
     0
174
     0
 93
       13
 44
0.0
173
     0
291
     1
 45
0.0
  0
VISUALSTYLE
  5
31
102
{ACAD_REACTORS
330
2A
102
}
330
2A
100
AcDbVisualStyle
  2
Hidden
 70
     6
 71
     1
 72
     2
 73
     2
 90
        0
 40
0.6
 41
30.0
 62
     5
 63
     7
421
 16777215
 74
     2
 91
        2
 64
     7
 65
   257
 75
     2
175
     1
 42
40.0
 92
        0
 66
   257
 43
1.0
 76
     1
 77
     6
 78
     2
 67
     7
 79
     3
170
     0
171
     0
290
     0
174
     0
 93
        1
 44
0.0
173
     0
291
     0
 45
0.0
  0
VISUALSTYLE
  5
3B
102
{ACAD_REACTORS
330
2A
102
}
330
2A
100
AcDbVisualStyle
  2
JitterOff
 70
    20
 71
     2
 72
     2
 73
     0
 90
        0
 40
0.6
 41
30.0
 62
     5
 63
     7
421
 16777215
 74
     1
 91
        4
 64
     7
 65
   257
 75
     1
175
     1
 42
1.0
 92
       10
 66
     7
 43
1.0
 76
     1
 77
     6
 78
     2
 67
     7
 79
     5
170
     0
171
     0
290
     0
174
     0
 93
        1
 44
0.0
173
     0
291
     1
 45
0.0
  0
VISUALSTYLE
  5
38
102
{ACAD_REACTORS
330
2A
102
}
330
2A
100
AcDbVisualStyle
  2
Linepattern
 70
    14
 71
     2
 72
     2
 73
     0
 90
        0
 40
0.6
 41
30.0
 62
     5
 63
     7
421
 16777215
 74
     1
 91
        4
 64
     7
 65
   257
 75
     7
175
     7
 42
1.0
 92
        8
 66
     7
 43
1.0
 76
     1
 77
     6
 78
     2
 67
     7
 79
     5
170
     0
171
     0
290
     0
174
     0
 93
        1
 44
0.0
173
     0
291
     1
 45
0.0
  0
VISUALSTYLE
  5
3C
102
{ACAD_REACTORS
330
2A
102
}
330
2A
100
AcDbVisualStyle
  2
OverhangOff
 70
    21
 71
     2
 72
     2
 73
     0
 90
        0
 40
0.6
 41
30.0
 62
     5
 63
     7
421
 16777215
 74
     1
 91
        4
 64
     7
 65
   257
 75
     1
175
     1
 42
1.0
 92
        9
 66
     7
 43
1.0
 76
     1
 77
     6
 78
     2
 67
     7
 79
     5
170
     0
171
     0
290
     0
174
     0
 93
        1
 44
0.0
173
     0
291
     1
 45
0.0
  0
VISUALSTYLE
  5
33
102
{ACAD_REACTORS
330
2A
102
}
330
2A
100
AcDbVisualStyle
  2
Realistic
 70
     8
 71
     2
 72
     3
 73
     0
 90
        2
 40
0.6
 41
30.0
 62
     5
 63
     7
421
 16777215
 74
     0
 91
        0
 64
     7
 65
   257
 75
     1
175
     1
 42
1.0
 92
        8
 66
   257
 43
1.0
 76
     1
 77
     6
 78
     2
 67
     7
 79
     3
170
     0
171
     0
290
     0
174
     0
 93
       13
 44
0.0
173
     0
291
     0
 45
0.0
  0
VISUALSTYLE
  5
42
102
{ACAD_REACTORS
330
2A
102
}
330
2A
100
AcDbVisualStyle
  2
Shaded
 70
    27
 71
     2
 72
     2
 73
     1
 90
        2
 40
0.6
 41
30.0
 62
     5
 63
     7
421
 16777215
 74
     0
 91
        4
 64
     7
 65
   257
 75
     1
175
     1
 42
1.0
 92
        8
 66
   257
 43
1.0
 76
     1
 77
     6
 78
     2
 67
     8
425
  7895160
 79
     3
170
     0
171
     0
290
     0
174
     0
 93
        5
 44
0.0
173
     0
291
     0
 45
0.0
  0
VISUALSTYLE
  5
41
102
{ACAD_REACTORS
330
2A
102
}
330
2A
100
AcDbVisualStyle
  2
Shaded with edges
 70
    26
 71
     2
 72
     2
 73
     1
 90
        2
 40
0.6
 41
30.0
 62
     5
 63
     7
421
 16777215
 74
     1
 91
       10
 64
     7
 65
   257
 75
     2
175
     1
 42
1.0
 92
        8
 66
   257
 43
1.0
 76
     1
 77
     6
 78
     2
 67
     7
 79
     3
170
     0
171
     0
290
     0
174
     0
 93
        5
 44
0.0
173
     0
291
     0
 45
0.0
  0
VISUALSTYLE
  5
3E
102
{ACAD_REACTORS
330
2A
102
}
330
2A
100
AcDbVisualStyle
  2
Shades of Gray
 70
    23
 71
     2
 72
     2
 73
     3
 90
        0
 40
0.6
 41
30.0
 62
     5
 63
     7
421
 16777215
 74
     2
 91
        2
 64
     7
 65
     7
 75
     1
175
     1
 42
40.0
 92
        8
 66
     7
 43
1.0
 76
     1
 77
     6
 78
     2
 67
     7
 79
     3
170
     0
171
     0
290
     0
174
     0
 93
        1
 44
0.0
173
     0
291
     0
 45
0.0
  0
VISUALSTYLE
  5
3F
102
{ACAD_REACTORS
330
2A
102
}
330
2A
100
AcDbVisualStyle
  2
Sketchy
 70
    24
 71
     1
 72
     2
 73
     2
 90
        0
 40
0.6
 41
30.0
 62
     5
 63
     7
421
 16777215
 74
     2
 91
        2
 64
     7
 65
     7
 75
     1
175
     1
 42
40.0
 92
       11
 66
     7
 43
1.0
 76
     1
 77
     6
 78
     2
 67
     7
 79
     6
170
     0
171
     0
290
     0
174
     0
 93
        1
 44
0.0
173
     0
291
     0
 45
0.0
  0
VISUALSTYLE
  5
37
102
{ACAD_REACTORS
330
2A
102
}
330
2A
100
AcDbVisualStyle
  2
Thicken
 70
    13
 71
     2
 72
     2
 73
     0
 90
        0
 40
0.6
 41
30.0
 62
     5
 63
     7
421
 16777215
 74
     1
 91
        4
 64
     7
 65
   257
 75
     1
175
     1
 42
1.0
 92
       12
 66
     7
 43
1.0
 76
     1
 77
     6
 78
     2
 67
     7
 79
     5
170
     0
171
     0
290
     0
174
     0
 93
        1
 44
0.0
173
     0
291
     1
 45
0.0
  0
VISUALSTYLE
  5
30
102
{ACAD_REACTORS
330
2A
102
}
330
2A
100
AcDbVisualStyle
  2
Wireframe
 70
     5
 71
     0
 72
     2
 73
     0
 90
        0
 40
0.6
 41
30.0
 62
     5
 63
     7
421
 16777215
 74
     1
 91
        4
 64
     7
 65
   257
 75
     1
175
     1
 42
1.0
 92
        0
 66
   257
 43
1.0
 76
     1
 77
     6
 78
     2
 67
     7
 79
     3
170
     0
171
     0
290
     0
174
     0
 93
        1
 44
0.0
173
     0
291
     0
 45
0.0
  0
VISUALSTYLE
  5
40
102
{ACAD_REACTORS
330
2A
102
}
330
2A
100
AcDbVisualStyle
  2
X-Ray
 70
    25
 71
     2
 72
     2
 73
     1
 90
        1
 40
0.5
 41
30.0
 62
     5
 63
     7
421
 16777215
 74
     1
 91
        0
 64
     7
 65
   257
 75
     1
175
     1
 42
1.0
 92
        8
 66
     7
 43
1.0
 76
     1
 77
     6
 78
     2
 67
     7
 79
     3
170
     0
171
     0
290
     0
174
     0
 93
       13
 44
0.0
173
     0
291
     0
 45
0.0
  0
DICTIONARYVAR
  5
107
102
{ACAD_REACTORS
330
106
102
}
330
106
100
DictionaryVariables
280
     0
  1
1:1
  0
DICTIONARYVAR
  5
10D
102
{ACAD_REACTORS
330
106
102
}
330
106
100
DictionaryVariables
280
     0
  1
Standard
  0
DICTIONARYVAR
  5
10C
102
{ACAD_REACTORS
330
106
102
}
330
106
100
DictionaryVariables
280
     0
  1
Standard
  0
DICTIONARY
  5
108
330
6A
100
AcDbDictionary
280
     1
281
     1
  3
ACAD_ROUNDTRIP_2008_TABLESTYLE_CELLSTYLEMAP
360
109
  0
CELLSTYLEMAP
  5
109
102
{ACAD_REACTORS
330
108
102
}
330
108
100
AcDbCellStyleMap
 90
        3
300
CELLSTYLE
  1
TABLEFORMAT_BEGIN
 90
        5
170
     1
 91
        0
 92
    32768
 62
   257
 93
        1
300
CONTENTFORMAT
  1
CONTENTFORMAT_BEGIN
 90
        0
 91
        0
 92
        4
 93
        0
300

 40
0.0
140
1.0
 94
        5
 62
     0
340
11
144
6.0
309
CONTENTFORMAT_END
171
     1
301
MARGIN
  1
CELLMARGIN_BEGIN
 40
1.5
 40
1.5
 40
1.5
 40
1.5
 40
1.5
 40
1.5
309
CELLMARGIN_END
 94
        6
 95
        1
302
GRIDFORMAT
  1
GRIDFORMAT_BEGIN
 90
        0
 91
        1
 62
     0
 92
       -2
340
14
 93
        0
 40
0.045
309
GRIDFORMAT_END
 95
        2
302
GRIDFORMAT
  1
GRIDFORMAT_BEGIN
 90
        0
 91
        1
 62
     0
 92
       -2
340
14
 93
        0
 40
0.045
309
GRIDFORMAT_END
 95
        4
302
GRIDFORMAT
  1
GRIDFORMAT_BEGIN
 90
        0
 91
        1
 62
     0
 92
       -2
340
14
 93
        0
 40
0.045
309
GRIDFORMAT_END
 95
        8
302
GRIDFORMAT
  1
GRIDFORMAT_BEGIN
 90
        0
 91
        1
 62
     0
 92
       -2
340
14
 93
        0
 40
0.045
309
GRIDFORMAT_END
 95
       16
302
GRIDFORMAT
  1
GRIDFORMAT_BEGIN
 90
        0
 91
        1
 62
     0
 92
       -2
340
14
 93
        0
 40
0.045
309
GRIDFORMAT_END
 95
       32
302
GRIDFORMAT
  1
GRIDFORMAT_BEGIN
 90
        0
 91
        1
 62
     0
 92
       -2
340
14
 93
        0
 40
0.045
309
GRIDFORMAT_END
309
TABLEFORMAT_END
  1
CELLSTYLE_BEGIN
 90
        1
 91
        1
300
_TITLE
309
CELLSTYLE_END
300
CELLSTYLE
  1
TABLEFORMAT_BEGIN
 90
        5
170
     1
 91
        0
 92
        0
 62
   257
 93
        1
300
CONTENTFORMAT
  1
CONTENTFORMAT_BEGIN
 90
        0
 91
        0
 92
        4
 93
        0
300

 40
0.0
140
1.0
 94
        5
 62
     0
340
11
144
4.5
309
CONTENTFORMAT_END
171
     1
301
MARGIN
  1
CELLMARGIN_BEGIN
 40
1.5
 40
1.5
 40
1.5
 40
1.5
 40
1.5
 40
1.5
309
CELLMARGIN_END
 94
        6
 95
        1
302
GRIDFORMAT
  1
GRIDFORMAT_BEGIN
 90
        0
 91
        1
 62
     0
 92
       -2
340
14
 93
        0
 40
0.045
309
GRIDFORMAT_END
 95
        2
302
GRIDFORMAT
  1
GRIDFORMAT_BEGIN
 90
        0
 91
        1
 62
     0
 92
       -2
340
14
 93
        0
 40
0.045
309
GRIDFORMAT_END
 95
        4
302
GRIDFORMAT
  1
GRIDFORMAT_BEGIN
 90
        0
 91
        1
 62
     0
 92
       -2
340
14
 93
        0
 40
0.045
309
GRIDFORMAT_END
 95
        8
302
GRIDFORMAT
  1
GRIDFORMAT_BEGIN
 90
        0
 91
        1
 62
     0
 92
       -2
340
14
 93
        0
 40
0.045
309
GRIDFORMAT_END
 95
       16
302
GRIDFORMAT
  1
GRIDFORMAT_BEGIN
 90
        0
 91
        1
 62
     0
 92
       -2
340
14
 93
        0
 40
0.045
309
GRIDFORMAT_END
 95
       32
302
GRIDFORMAT
  1
GRIDFORMAT_BEGIN
 90
        0
 91
        1
 62
     0
 92
       -2
340
14
 93
        0
 40
0.045
309
GRIDFORMAT_END
309
TABLEFORMAT_END
  1
CELLSTYLE_BEGIN
 90
        2
 91
        1
300
_HEADER
309
CELLSTYLE_END
300
CELLSTYLE
  1
TABLEFORMAT_BEGIN
 90
        5
170
     1
 91
        0
 92
        0
 62
   257
 93
        1
300
CONTENTFORMAT
  1
CONTENTFORMAT_BEGIN
 90
        0
 91
        0
 92
        4
 93
        0
300

 40
0.0
140
1.0
 94
        2
 62
     0
340
11
144
4.5
309
CONTENTFORMAT_END
171
     1
301
MARGIN
  1
CELLMARGIN_BEGIN
 40
1.5
 40
1.5
 40
1.5
 40
1.5
 40
1.5
 40
1.5
309
CELLMARGIN_END
 94
        6
 95
        1
302
GRIDFORMAT
  1
GRIDFORMAT_BEGIN
 90
        0
 91
        1
 62
     0
 92
       -2
340
14
 93
        0
 40
0.045
309
GRIDFORMAT_END
 95
        2
302
GRIDFORMAT
  1
GRIDFORMAT_BEGIN
 90
        0
 91
        1
 62
     0
 92
       -2
340
14
 93
        0
 40
0.045
309
GRIDFORMAT_END
 95
        4
302
GRIDFORMAT
  1
GRIDFORMAT_BEGIN
 90
        0
 91
        1
 62
     0
 92
       -2
340
14
 93
        0
 40
0.045
309
GRIDFORMAT_END
 95
        8
302
GRIDFORMAT
  1
GRIDFORMAT_BEGIN
 90
        0
 91
        1
 62
     0
 92
       -2
340
14
 93
        0
 40
0.045
309
GRIDFORMAT_END
 95
       16
302
GRIDFORMAT
  1
GRIDFORMAT_BEGIN
 90
        0
 91
        1
 62
     0
 92
       -2
340
14
 93
        0
 40
0.045
309
GRIDFORMAT_END
 95
       32
302
GRIDFORMAT
  1
GRIDFORMAT_BEGIN
 90
        0
 91
        1
 62
     0
 92
       -2
340
14
 93
        0
 40
0.045
309
GRIDFORMAT_END
309
TABLEFORMAT_END
  1
CELLSTYLE_BEGIN
 90
        3
 91
        2
300
_DATA
309
CELLSTYLE_END
  0
ENDSEC
  0
EOF
