  0
SECTION
  2
HEADER
  9
$ACADVER
  1
AC1021
  9
$ACADMAINTVER
 70
    25
  9
$DWGCODEPAGE
  3
ANSI_1252
  9
$INSBASE
 10
0.0
 20
0.0
 30
0.0
  9
$EXTMIN
 10
-203.9416837896
 20
-161.9513851381
 30
0.0
  9
$EXTMAX
 10
203.9416837896
 20
117.7086899917
 30
0.0
  9
$LIMMIN
 10
0.0
 20
0.0
  9
$LIMMAX
 10
420.0
 20
297.0
  9
$ORTHOMODE
 70
     0
  9
$REGENMODE
 70
     1
  9
$FILLMODE
 70
     1
  9
$QTEXTMODE
 70
     0
  9
$MIRRTEXT
 70
     1
  9
$LTSCALE
 40
1.0
  9
$ATTMODE
 70
     1
  9
$TEXTSIZE
 40
3.5
  9
$TRACEWID
 40
1.0
  9
$TEXTSTYLE
  7
Standard
  9
$CLAYER
  8
0
  9
$CELTYPE
  6
ByLayer
  9
$CECOLOR
 62
   256
  9
$CELTSCALE
 40
1.0
  9
$DISPSILH
 70
     0
  9
$DIMSCALE
 40
1.0
  9
$DIMASZ
 40
7.4083333333
  9
$DIMEXO
 40
1.0
  9
$DIMDLI
 40
3.75
  9
$DIMRND
 40
0.0
  9
$DIMDLE
 40
0.0
  9
$DIMEXE
 40
1.0
  9
$DIMTP
 40
0.0
  9
$DIMTM
 40
0.0
  9
$DIMTXT
 40
9.8777777778
  9
$DIMCEN
 40
2.5
  9
$DIMTSZ
 40
0.0
  9
$DIMTOL
 70
     0
  9
$DIMLIM
 70
     0
  9
$DIMTIH
 70
     1
  9
$DIMTOH
 70
     1
  9
$DIMSE1
 70
     0
  9
$DIMSE2
 70
     0
  9
$DIMTAD
 70
     1
  9
$DIMZIN
 70
     0
  9
$DIMBLK
  1

  9
$DIMASO
 70
     1
  9
$DIMSHO
 70
     1
  9
$DIMPOST
  1

  9
$DIMAPOST
  1

  9
$DIMALT
 70
     0
  9
$DIMALTD
 70
     3
  9
$DIMALTF
 40
0.0393700787
  9
$DIMLFAC
 40
1.0
  9
$DIMTOFL
 70
     1
  9
$DIMTVP
 40
0.0
  9
$DIMTIX
 70
     0
  9
$DIMSOXD
 70
     0
  9
$DIMSAH
 70
     0
  9
$DIMBLK1
  1

  9
$DIMBLK2
  1

  9
$DIMSTYLE
  2
ISO-25
  9
$DIMCLRD
 70
     0
  9
$DIMCLRE
 70
     0
  9
$DIMCLRT
 70
     0
  9
$DIMTFAC
 40
1.0
  9
$DIMGAP
 40
1.524
  9
$DIMJUST
 70
     0
  9
$DIMSD1
 70
     0
  9
$DIMSD2
 70
     0
  9
$DIMTOLJ
 70
     0
  9
$DIMTZIN
 70
     0
  9
$DIMALTZ
 70
     0
  9
$DIMALTTZ
 70
     0
  9
$DIMUPT
 70
     0
  9
$DIMDEC
 70
     2
  9
$DIMTDEC
 70
     2
  9
$DIMALTU
 70
     2
  9
$DIMALTTD
 70
     3
  9
$DIMTXSTY
  7
Standard
  9
$DIMAUNIT
 70
     0
  9
$DIMADEC
 70
     2
  9
$DIMALTRND
 40
0.0
  9
$DIMAZIN
 70
     0
  9
$DIMDSEP
 70
    44
  9
$DIMATFIT
 70
     3
  9
$DIMFRAC
 70
     0
  9
$DIMLDRBLK
  1

  9
$DIMLUNIT
 70
     2
  9
$DIMLWD
 70
    -2
  9
$DIMLWE
 70
    -2
  9
$DIMTMOVE
 70
     0
  9
$DIMFXL
 40
1.0
  9
$DIMFXLON
 70
     0
  9
$DIMJOGANG
 40
0.7853981634
  9
$DIMTFILL
 70
     0
  9
$DIMTFILLCLR
 70
     0
  9
$DIMARCSYM
 70
     0
  9
$DIMLTYPE
  6

  9
$DIMLTEX1
  6

  9
$DIMLTEX2
  6

  9
$LUNITS
 70
     2
  9
$LUPREC
 70
     2
  9
$SKETCHINC
 40
1.0
  9
$FILLETRAD
 40
10.0
  9
$AUNITS
 70
     0
  9
$AUPREC
 70
     2
  9
$MENU
  1
.
  9
$ELEVATION
 40
0.0
  9
$PELEVATION
 40
0.0
  9
$THICKNESS
 40
0.0
  9
$LIMCHECK
 70
     0
  9
$CHAMFERA
 40
0.0
  9
$CHAMFERB
 40
0.0
  9
$CHAMFERC
 40
0.0
  9
$CHAMFERD
 40
0.0
  9
$SKPOLY
 70
     0
  9
$TDCREATE
 40
2458225.572370938
  9
$TDUCREATE
 40
2458225.489037604
  9
$TDUPDATE
 40
2458225.572409896
  9
$TDUUPDATE
 40
2458225.489076563
  9
$TDINDWG
 40
0.0000000116
  9
$TDUSRTIMER
 40
0.0000000116
  9
$USRTIMER
 70
     1
  9
$ANGBASE
 50
0.0
  9
$ANGDIR
 70
     0
  9
$PDMODE
 70
     0
  9
$PDSIZE
 40
-1.0
  9
$PLINEWID
 40
0.0
  9
$SPLFRAME
 70
     0
  9
$SPLINETYPE
 70
     6
  9
$SPLINESEGS
 70
     8
  9
$HANDSEED
  5
109
  9
$SURFTAB1
 70
     6
  9
$SURFTAB2
 70
     6
  9
$SURFTYPE
 70
     6
  9
$SURFU
 70
     6
  9
$SURFV
 70
     6
  9
$UCSBASE
  2

  9
$UCSNAME
  2

  9
$UCSORG
 10
0.0
 20
0.0
 30
0.0
  9
$UCSXDIR
 10
1.0
 20
0.0
 30
0.0
  9
$UCSYDIR
 10
0.0
 20
1.0
 30
0.0
  9
$UCSORTHOREF
  2

  9
$UCSORTHOVIEW
 70
     0
  9
$UCSORGTOP
 10
0.0
 20
0.0
 30
0.0
  9
$UCSORGBOTTOM
 10
0.0
 20
0.0
 30
0.0
  9
$UCSORGLEFT
 10
0.0
 20
0.0
 30
0.0
  9
$UCSORGRIGHT
 10
0.0
 20
0.0
 30
0.0
  9
$UCSORGFRONT
 10
0.0
 20
0.0
 30
0.0
  9
$UCSORGBACK
 10
0.0
 20
0.0
 30
0.0
  9
$PUCSBASE
  2

  9
$PUCSNAME
  2

  9
$PUCSORG
 10
0.0
 20
0.0
 30
0.0
  9
$PUCSXDIR
 10
1.0
 20
0.0
 30
0.0
  9
$PUCSYDIR
 10
0.0
 20
1.0
 30
0.0
  9
$PUCSORTHOREF
  2

  9
$PUCSORTHOVIEW
 70
     0
  9
$PUCSORGTOP
 10
0.0
 20
0.0
 30
0.0
  9
$PUCSORGBOTTOM
 10
0.0
 20
0.0
 30
0.0
  9
$PUCSORGLEFT
 10
0.0
 20
0.0
 30
0.0
  9
$PUCSORGRIGHT
 10
0.0
 20
0.0
 30
0.0
  9
$PUCSORGFRONT
 10
0.0
 20
0.0
 30
0.0
  9
$PUCSORGBACK
 10
0.0
 20
0.0
 30
0.0
  9
$USERI1
 70
     0
  9
$USERI2
 70
     0
  9
$USERI3
 70
     0
  9
$USERI4
 70
     0
  9
$USERI5
 70
     0
  9
$USERR1
 40
0.0
  9
$USERR2
 40
0.0
  9
$USERR3
 40
0.0
  9
$USERR4
 40
0.0
  9
$USERR5
 40
0.0
  9
$WORLDVIEW
 70
     1
  9
$SHADEDGE
 70
     3
  9
$SHADEDIF
 70
    70
  9
$TILEMODE
 70
     1
  9
$MAXACTVP
 70
    64
  9
$PINSBASE
 10
0.0
 20
0.0
 30
0.0
  9
$PLIMCHECK
 70
     0
  9
$PEXTMIN
 10
-240.0
 20
-160.0
 30
0.0
  9
$PEXTMAX
 10
240.0
 20
160.0
 30
0.0
  9
$PLIMMIN
 10
-277.3540856031
 20
-174.0077821012
  9
$PLIMMAX
 10
277.3540856031
 20
218.2101167315
  9
$UNITMODE
 70
     0
  9
$VISRETAIN
 70
     1
  9
$PLINEGEN
 70
     0
  9
$PSLTSCALE
 70
     1
  9
$TREEDEPTH
 70
  3020
  9
$CMLSTYLE
  2
Standard
  9
$CMLJUST
 70
     0
  9
$CMLSCALE
 40
20.0
  9
$PROXYGRAPHICS
 70
     1
  9
$MEASUREMENT
 70
     1
  9
$CELWEIGHT
370
    -1
  9
$ENDCAPS
280
     0
  9
$JOINSTYLE
280
     0
  9
$LWDISPLAY
290
     1
  9
$INSUNITS
 70
     4
  9
$HYPERLINKBASE
  1

  9
$STYLESHEET
  1

  9
$XEDIT
290
     1
  9
$CEPSNTYPE
380
     0
  9
$PSTYLEMODE
290
     1
  9
$FINGERPRINTGUID
  2
{ADA8D9D6-07F4-48D6-A21E-FCAA89F9B260}
  9
$VERSIONGUID
  2
{FAEB1C32-E019-11D5-929B-00C0DF256EC4}
  9
$EXTNAMES
290
     1
  9
$PSVPSCALE
 40
0.0
  9
$OLESTARTUP
290
     0
  9
$SORTENTS
280
   127
  9
$INDEXCTL
280
     0
  9
$HIDETEXT
280
     1
  9
$XCLIPFRAME
290
     0
  9
$HALOGAP
280
     0
  9
$OBSCOLOR
 70
   257
  9
$OBSLTYPE
280
     0
  9
$INTERSECTIONDISPLAY
280
     0
  9
$INTERSECTIONCOLOR
 70
   257
  9
$DIMASSOC
280
     2
  9
$PROJECTNAME
  1

  9
$CAMERADISPLAY
290
     0
  9
$LENSLENGTH
 40
50.0
  9
$CAMERAHEIGHT
 40
0.0
  9
$STEPSPERSEC
 40
2.0
  9
$STEPSIZE
 40
6.0
  9
$3DDWFPREC
 40
2.0
  9
$PSOLWIDTH
 40
5.0
  9
$PSOLHEIGHT
 40
80.0
  9
$LOFTANG1
 40
1.5707963268
  9
$LOFTANG2
 40
1.5707963268
  9
$LOFTMAG1
 40
0.0
  9
$LOFTMAG2
 40
0.0
  9
$LOFTPARAM
 70
     7
  9
$LOFTNORMALS
280
     1
  9
$LATITUDE
 40
37.795
  9
$LONGITUDE
 40
-122.394
  9
$NORTHDIRECTION
 40
0.0
  9
$TIMEZONE
 70
 -8000
  9
$LIGHTGLYPHDISPLAY
280
     1
  9
$TILEMODELIGHTSYNCH
280
     1
  9
$CMATERIAL
347
44
  9
$SOLIDHIST
280
     0
  9
$SHOWHIST
280
     1
  9
$DWFFRAME
280
     2
  9
$DGNFRAME
280
     2
  9
$REALWORLDSCALE
290
     1
  9
$INTERFERECOLOR
 62
   256
  9
$CSHADOW
280
     0
  9
$SHADOWPLANELOCATION
 40
0.0
  0
ENDSEC
  0
SECTION
  2
CLASSES
  0
CLASS
  1
ACDBDICTIONARYWDFLT
  2
AcDbDictionaryWithDefault
  3
ObjectDBX Classes
 90
        0
 91
        4
280
     0
281
     0
  0
CLASS
  1
VISUALSTYLE
  2
AcDbVisualStyle
  3
ObjectDBX Classes
 90
     4095
 91
        4
280
     0
281
     0
  0
CLASS
  1
MATERIAL
  2
AcDbMaterial
  3
ObjectDBX Classes
 90
     1153
 91
        4
280
     0
281
     0
  0
CLASS
  1
SCALE
  2
AcDbScale
  3
ObjectDBX Classes
 90
     1153
 91
        4
280
     0
281
     0
  0
CLASS
  1
TABLESTYLE
  2
AcDbTableStyle
  3
ObjectDBX Classes
 90
     4095
 91
        4
280
     0
281
     0
  0
CLASS
  1
MLEADERSTYLE
  2
AcDbMLeaderStyle
  3
ACDB_MLEADERSTYLE_CLASS
 90
     4095
 91
        4
280
     0
281
     0
  0
CLASS
  1
SUN
  2
AcDbSun
  3
SCENEOE
 90
     1153
 91
        4
280
     0
281
     0
  0
CLASS
  1
DICTIONARYVAR
  2
AcDbDictionaryVar
  3
ObjectDBX Classes
 90
        0
 91
        4
280
     0
281
     0
  0
CLASS
  1
CELLSTYLEMAP
  2
AcDbCellStyleMap
  3
ObjectDBX Classes
 90
     1152
 91
        4
280
     0
281
     0
  0
ENDSEC
  0
SECTION
  2
TABLES
  0
TABLE
  2
VPORT
  5
8
330
0
100
AcDbSymbolTable
 70
     1
  0
VPORT
  5
29
330
8
100
AcDbSymbolTableRecord
100
AcDbViewportTableRecord
  2
*Active
 70
     0
 10
0.0
 20
0.0
 11
1.0
 21
1.0
 12
0.0
 22
-22.1213475732
 13
0.0
 23
0.0
 14
10.0
 24
10.0
 15
10.0
 25
10.0
 16
0.0
 26
0.0
 36
1.0
 17
0.0
 27
0.0
 37
0.0
 40
285.2532766324
 41
1.4584969535
 42
50.0
 43
0.0
 44
0.0
 50
0.0
 51
0.0
 71
     0
 72
   100
 73
     1
 74
     3
 75
     0
 76
     0
 77
     0
 78
     0
281
     0
 65
     1
110
0.0
120
0.0
130
0.0
111
1.0
121
0.0
131
0.0
112
0.0
122
1.0
132
0.0
 79
     0
146
0.0
348
2F
 60
     3
 61
     5
292
     1
282
     1
141
0.0
142
0.0
 63
   250
361
6D
  0
ENDTAB
  0
TABLE
  2
LTYPE
  5
5
330
0
100
AcDbSymbolTable
 70
     6
  0
LTYPE
  5
14
330
5
100
AcDbSymbolTableRecord
100
AcDbLinetypeTableRecord
  2
ByBlock
 70
     0
  3

 72
    65
 73
     0
 40
0.0
  0
LTYPE
  5
15
330
5
100
AcDbSymbolTableRecord
100
AcDbLinetypeTableRecord
  2
ByLayer
 70
     0
  3

 72
    65
 73
     0
 40
0.0
  0
LTYPE
  5
16
330
5
100
AcDbSymbolTableRecord
100
AcDbLinetypeTableRecord
  2
Continuous
 70
     0
  3
Solid line
 72
    65
 73
     0
 40
0.0
  0
LTYPE
  5
6E
330
5
100
AcDbSymbolTableRecord
100
AcDbLinetypeTableRecord
  2
HIDDEN
 70
     0
  3
Hidden __ __ __ __ __ __ __ __ __ __ __ __ __ __
 72
    65
 73
     2
 40
1.905
 49
1.27
 74
     0
 49
-0.635
 74
     0
  0
LTYPE
  5
6F
330
5
100
AcDbSymbolTableRecord
100
AcDbLinetypeTableRecord
  2
PHANTOM
 70
     0
  3
Phantom ______  __  __  ______  __  __  ______
 72
    65
 73
     6
 40
12.7
 49
6.35
 74
     0
 49
-1.27
 74
     0
 49
1.27
 74
     0
 49
-1.27
 74
     0
 49
1.27
 74
     0
 49
-1.27
 74
     0
  0
LTYPE
  5
70
330
5
100
AcDbSymbolTableRecord
100
AcDbLinetypeTableRecord
  2
CENTER
 70
     0
  3
Center ____ _ ____ _ ____ _ ____ _ ____ _ ____
 72
    65
 73
     4
 40
10.16
 49
6.35
 74
     0
 49
-1.27
 74
     0
 49
1.27
 74
     0
 49
-1.27
 74
     0
  0
LTYPE
  5
71
330
5
100
AcDbSymbolTableRecord
100
AcDbLinetypeTableRecord
  2
CENTERX2
 70
     0
  3
Center (2x) ________  __  ________  __  _____
 72
    65
 73
     4
 40
20.32
 49
12.7
 74
     0
 49
-2.54
 74
     0
 49
2.54
 74
     0
 49
-2.54
 74
     0
  0
LTYPE
  5
72
330
5
100
AcDbSymbolTableRecord
100
AcDbLinetypeTableRecord
  2
DOT2
 70
     0
  3
Dot (.5x) ........................................
 72
    65
 73
     2
 40
0.635
 49
0.0
 74
     0
 49
-0.635
 74
     0
  0
ENDTAB
  0
TABLE
  2
LAYER
  5
2
330
0
100
AcDbSymbolTable
 70
     1
  0
LAYER
  5
10
330
2
100
AcDbSymbolTableRecord
100
AcDbLayerTableRecord
  2
0
 70
     0
 62
     7
  6
Continuous
370
    -3
390
F
347
46
  0
ENDTAB
  0
TABLE
  2
STYLE
  5
3
330
0
100
AcDbSymbolTable
 70
     1
  0
STYLE
  5
11
330
3
100
AcDbSymbolTableRecord
100
AcDbTextStyleTableRecord
  2
Standard
 70
     0
 40
0.0
 41
1.0
 50
0.0
 71
     0
 42
3.5
  3
txt
  4

  0
ENDTAB
  0
TABLE
  2
VIEW
  5
6
330
0
100
AcDbSymbolTable
 70
     0
  0
ENDTAB
  0
TABLE
  2
UCS
  5
7
330
0
100
AcDbSymbolTable
 70
     0
  0
ENDTAB
  0
TABLE
  2
APPID
  5
9
330
0
100
AcDbSymbolTable
 70
     2
  0
APPID
  5
12
330
9
100
AcDbSymbolTableRecord
100
AcDbRegAppTableRecord
  2
ACAD
 70
     0
  0
APPID
  5
103
330
9
100
AcDbSymbolTableRecord
100
AcDbRegAppTableRecord
  2
ACAD_MLEADERVER
 70
     0
  0
ENDTAB
  0
TABLE
  2
DIMSTYLE
  5
A
330
0
100
AcDbSymbolTable
 70
     1
100
AcDbDimStyleTable
  0
DIMSTYLE
105
27
330
A
100
AcDbSymbolTableRecord
100
AcDbDimStyleTableRecord
  2
ISO-25
 70
     0
 41
2.5
 42
0.625
 43
3.75
 44
1.25
 73
     0
 74
     0
 77
     1
 78
     8
140
2.5
141
2.5
143
0.0393700787
147
0.625
171
     3
172
     1
178
     0
271
     2
272
     2
274
     3
278
    44
283
     0
284
     8
340
11
  0
ENDTAB
  0
TABLE
  2
BLOCK_RECORD
  5
1
330
0
100
AcDbSymbolTable
 70
     9
  0
BLOCK_RECORD
  5
1F
330
1
100
AcDbSymbolTableRecord
100
AcDbBlockTableRecord
  2
*Model_Space
340
22
 70
     0
280
     1
281
     0
  0
BLOCK_RECORD
  5
1B
330
1
100
AcDbSymbolTableRecord
100
AcDbBlockTableRecord
  2
*Paper_Space
340
1E
 70
     0
280
     1
281
     0
  0
BLOCK_RECORD
  5
23
330
1
100
AcDbSymbolTableRecord
100
AcDbBlockTableRecord
  2
*Paper_Space0
340
26
 70
     0
280
     1
281
     0
  0
BLOCK_RECORD
  5
8B
330
1
100
AcDbSymbolTableRecord
100
AcDbBlockTableRecord
  2
*Paper_Space1
340
8C
 70
     0
280
     1
281
     0
  0
BLOCK_RECORD
  5
99
330
1
100
AcDbSymbolTableRecord
100
AcDbBlockTableRecord
  2
*Paper_Space2
340
9A
 70
     0
280
     1
281
     0
  0
BLOCK_RECORD
  5
AB
330
1
100
AcDbSymbolTableRecord
100
AcDbBlockTableRecord
  2
*Paper_Space3
340
AC
 70
     0
280
     1
281
     0
  0
BLOCK_RECORD
  5
B8
330
1
100
AcDbSymbolTableRecord
100
AcDbBlockTableRecord
  2
*Paper_Space4
340
B9
 70
     0
280
     1
281
     0
  0
BLOCK_RECORD
  5
C6
330
1
100
AcDbSymbolTableRecord
100
AcDbBlockTableRecord
  2
*Paper_Space5
340
C7
 70
     0
280
     1
281
     0
  0
BLOCK_RECORD
  5
CE
330
1
100
AcDbSymbolTableRecord
100
AcDbBlockTableRecord
  2
*Paper_Space6
340
CF
 70
     0
280
     1
281
     0
  0
BLOCK_RECORD
  5
D9
330
1
100
AcDbSymbolTableRecord
100
AcDbBlockTableRecord
  2
*Paper_Space7
340
DA
 70
     0
280
     1
281
     0
  0
BLOCK_RECORD
  5
E1
330
1
100
AcDbSymbolTableRecord
100
AcDbBlockTableRecord
  2
*Paper_Space8
340
E2
 70
     0
280
     1
281
     0
  0
ENDTAB
  0
ENDSEC
  0
SECTION
  2
BLOCKS
  0
BLOCK
  5
20
330
1F
100
AcDbEntity
  8
0
100
AcDbBlockBegin
  2
*Model_Space
 70
     0
 10
0.0
 20
0.0
 30
0.0
  3
*Model_Space
  1

  0
ENDBLK
  5
21
330
1F
100
AcDbEntity
  8
0
100
AcDbBlockEnd
  0
BLOCK
  5
1C
330
1B
100
AcDbEntity
 67
     1
  8
0
100
AcDbBlockBegin
  2
*Paper_Space
 70
     0
 10
0.0
 20
0.0
 30
0.0
  3
*Paper_Space
  1

  0
ENDBLK
  5
1D
330
1B
100
AcDbEntity
 67
     1
  8
0
100
AcDbBlockEnd
  0
BLOCK
  5
24
330
23
100
AcDbEntity
  8
0
100
AcDbBlockBegin
  2
*Paper_Space0
 70
     0
 10
0.0
 20
0.0
 30
0.0
  3
*Paper_Space0
  1

  0
SPLINE
  5
7D
330
23
100
AcDbEntity
  8
0
  6
Continuous
 62
     7
370
    25
100
AcDbSpline
210
0.0
220
0.0
230
1.0
 70
     8
 71
     3
 72
    30
 73
    26
 74
     0
 42
0.000000001
 43
0.00000001
 40
0.0
 40
0.0
 40
0.0
 40
0.0
 40
0.0560855584635642
 40
0.1087538255264134
 40
0.1580046378824207
 40
0.2038379952012791
 40
0.2462536507117909
 40
0.2852514994788993
 40
0.3208314931802208
 40
0.3529934853798815
 40
0.3817373784398904
 40
0.4070631393380155
 40
0.4290897857159276
 40
0.4522936795316271
 40
0.4846951878316077
 40
0.5220678763527
 40
0.5644116070392833
 40
0.611726079046112
 40
0.6640109869711328
 40
0.7113802777202457
 40
0.7622012790627258
 40
0.8164739539986828
 40
0.8741980535137075
 40
0.9353734293273329
 40
0.9999999999999999
 40
0.9999999999999999
 40
0.9999999999999999
 40
0.9999999999999999
 10
72.49999999999993
 20
-135.8126410968587
 30
0.0
 10
76.5918105698964
 20
-134.9080034319941
 30
0.0
 10
84.52611781397506
 20
-133.1538476481445
 30
0.0
 10
95.86362701566304
 20
-129.8438857077545
 30
0.0
 10
106.3109508249999
 20
-126.2747561965828
 30
0.0
 10
115.8691150079558
 20
-122.504424104013
 30
0.0
 10
124.5594315323565
 20
-118.6471941477598
 30
0.0
 10
132.404486614095
 20
-114.7911560905948
 30
0.0
 10
139.4315103039672
 20
-111.0199590482901
 30
0.0
 10
145.6693635868607
 20
-107.4069358532408
 30
0.0
 10
151.1474889648226
 20
-104.0166771899585
 30
0.0
 10
155.9023931227348
 20
-100.9006275947982
 30
0.0
 10
160.2443574852943
 20
-97.91226196142127
 30
0.0
 10
164.9494459689702
 20
-94.52149269320745
 30
0.0
 10
170.4749902519404
 20
-90.31150389520542
 30
0.0
 10
176.9647533160506
 20
-85.01458382843708
 30
0.0
 10
184.0835446659802
 20
-78.73621235206602
 30
0.0
 10
191.7301823553398
 20
-71.38551804560922
 30
0.0
 10
199.2757515975427
 20
-63.40441918312349
 30
0.0
 10
206.6020759642994
 20
-54.874508441818
 30
0.0
 10
213.6103205853832
 20
-45.89153278658419
 30
0.0
 10
220.6054004800208
 20
-35.93449050232256
 30
0.0
 10
227.4540789551219
 20
-24.95439396426376
 30
0.0
 10
234.0922082426705
 20
-12.94527576408305
 30
0.0
 10
237.99504650238
 20
-4.39329566561883
 30
0.0
 10
240.0000000000001
 20
0.0
 30
0.0
  0
SPLINE
  5
7E
330
23
100
AcDbEntity
  8
0
  6
Continuous
 62
     7
370
    25
100
AcDbSpline
210
0.0
220
0.0
230
1.0
 70
     8
 71
     3
 72
    30
 73
    26
 74
     0
 42
0.000000001
 43
0.00000001
 40
0.0
 40
0.0
 40
0.0
 40
0.0
 40
0.0560855584635641
 40
0.1087538255264138
 40
0.1580046378824205
 40
0.2038379952012784
 40
0.2462536507117898
 40
0.2852514994788988
 40
0.3208314931802216
 40
0.3529934853798824
 40
0.3817373784398915
 40
0.4070631393380162
 40
0.4290897857159279
 40
0.4522936795316264
 40
0.4846951878316063
 40
0.5220678763526991
 40
0.5644116070392836
 40
0.6117260790461133
 40
0.664010986971134
 40
0.7113802777202455
 40
0.7622012790627246
 40
0.8164739539986823
 40
0.8741980535137079
 40
0.9353734293273335
 40
1.0
 40
1.0
 40
1.0
 40
1.0
 10
-240.0000000000002
 20
0.0
 30
0.0
 10
-238.2691755877405
 20
-3.816481350476353
 30
0.0
 10
-234.9129858429234
 20
-11.21690595682414
 30
0.0
 10
-229.3311894927488
 20
-21.62548474791599
 30
0.0
 10
-223.6798106311572
 20
-31.10953331418814
 30
0.0
 10
-218.0153506158685
 20
-39.68203582931137
 30
0.0
 10
-212.4452411309313
 20
-47.38746927302508
 30
0.0
 10
-207.0510015875322
 20
-54.26613909227418
 30
0.0
 10
-201.9088468193194
 20
-60.36197647606821
 30
0.0
 10
-197.0845610415008
 20
-65.71837609902478
 30
0.0
 10
-192.6352548963957
 20
-70.37749471607671
 30
0.0
 10
-188.6037166705848
 20
-74.38568360437205
 30
0.0
 10
-184.7824542760351
 20
-78.01623967699848
 30
0.0
 10
-180.4924245209149
 20
-81.91890781170636
 30
0.0
 10
-175.2312875928326
 20
-86.45499461933407
 30
0.0
 10
-168.7073985617471
 20
-91.70982656071
 30
0.0
 10
-161.0932389041598
 20
-97.37725202452678
 30
0.0
 10
-152.3208122585182
 20
-103.339491996731
 30
0.0
 10
-142.9524826294065
 20
-109.072550011609
 30
0.0
 10
-133.0925063119124
 20
-114.4776654590369
 30
0.0
 10
-122.8549906287219
 20
-119.4779271449785
 30
0.0
 10
-111.6671620021217
 20
-124.2639823478327
 30
0.0
 10
-99.5086287525249
 20
-128.6953462528685
 30
0.0
 10
-86.38681077507263
 20
-132.7080228347442
 30
0.0
 10
-77.2128285792618
 20
-134.7590130241225
 30
0.0
 10
-72.50000000000007
 20
-135.8126410968587
 30
0.0
  0
SPLINE
  5
81
330
23
100
AcDbEntity
  8
0
  6
Continuous
 62
     7
370
    25
100
AcDbSpline
210
0.0
220
0.0
230
1.0
 70
     8
 71
     3
 72
    15
 73
    11
 74
     0
 42
0.000000001
 43
0.00000001
 40
0.0
 40
0.0
 40
0.0
 40
0.0
 40
0.0062500000000001
 40
0.0083333333333333
 40
0.0416666666666666
 40
0.0833333333333334
 40
0.1249999999999999
 40
0.1666666666666666
 40
0.2083333333333334
 40
0.2499999999999998
 40
0.2499999999999998
 40
0.2499999999999998
 40
0.2499999999999998
 10
-0.0000000000000533
 20
-137.9182254667157
 30
0.0
 10
-0.9489397031083777
 20
-137.9182254667158
 30
0.0
 10
-2.214192640586107
 20
-137.9164708130743
 30
0.0
 10
-8.533107664467389
 20
-137.8965847384702
 30
0.0
 10
-20.14605148621233
 20
-137.7739539450781
 30
0.0
 10
-36.48765542287076
 20
-137.3918293742528
 30
0.0
 10
-51.62720045023421
 20
-136.8654332817889
 30
0.0
 10
-63.29234027962151
 20
-136.3390371893246
 30
0.0
 10
-70.71625177758875
 20
-135.9296180062964
 30
0.0
 10
-72.49999999999717
 20
-135.8126410968592
 30
0.0
 10
-72.50000000000007
 20
-135.8126410968587
 30
0.0
  0
LWPOLYLINE
  5
82
330
23
100
AcDbEntity
  8
0
  6
Continuous
 62
     7
370
    25
100
AcDbPolyline
 90
       13
 70
   128
 43
0.0
 10
72.5
 20
-135.8126410969
 10
71.8436559896
 20
-135.854070419
 10
69.9248702502
 20
-135.9686103094
 10
66.8170144141
 20
-136.1416386546
 10
62.5854688911
 20
-136.3585333409
 10
57.2990279997
 20
-136.6046722545
 10
51.0481329173
 20
-136.8654332818
 10
43.935683738
 20
-137.1261943091
 10
36.0927693673
 20
-137.3723332227
 10
27.6532403876
 20
-137.5892279089
 10
18.7338052786
 20
-137.7622562541
 10
9.4587734331
 20
-137.8767961446
 10
0.0
 20
-137.9182254667
  0
SPLINE
  5
83
330
23
100
AcDbEntity
  8
0
  6
Continuous
 62
     7
370
    25
100
AcDbSpline
210
0.0
220
0.0
230
1.0
 70
    24
 71
     3
 72
    15
 73
    11
 74
     0
 42
0.000000001
 43
0.00000001
 40
0.7499999999999999
 40
0.7499999999999999
 40
0.7499999999999999
 40
0.7499999999999999
 40
0.7916666666666666
 40
0.8333333333333334
 40
0.875
 40
0.9166666666666666
 40
0.9583333333333334
 40
0.9916666666666667
 40
0.99375
 40
1.0
 40
1.0
 40
1.0
 40
1.0
 10
240.0000000000001
 20
0.0
 30
0.0
 10
239.9999999999989
 20
0.0
 30
0.0
 10
234.3653754005922
 20
0.0
 30
0.0
 10
210.3843271333237
 20
0.0
 30
0.0
 10
171.6977681166116
 20
0.0
 30
0.0
 10
121.058365308858
 20
0.0
 30
0.0
 10
67.02268480654146
 20
0.0
 30
0.0
 10
28.3970088970638
 20
0.0
 30
0.0
 10
7.369015889910234
 20
0.0
 30
0.0
 10
3.158149667104208
 20
0.0
 30
0.0
 10
-0.0000000000003118
 20
0.0
 30
0.0
  0
SPLINE
  5
85
330
23
100
AcDbEntity
  8
0
  6
Continuous
 62
     7
370
    25
100
AcDbSpline
210
0.0
220
0.0
230
1.0
 70
    24
 71
     3
 72
    15
 73
    11
 74
     0
 42
0.000000001
 43
0.00000001
 40
0.0
 40
0.0
 40
0.0
 40
0.0
 40
0.0062500000000001
 40
0.0083333333333333
 40
0.0416666666666666
 40
0.0833333333333334
 40
0.1249999999999999
 40
0.1666666666666666
 40
0.2083333333333334
 40
0.2499999999999998
 40
0.2499999999999998
 40
0.2499999999999998
 40
0.2499999999999998
 10
-0.0000000000000486
 20
-145.0
 30
0.0
 10
-0.9444624947403716
 20
-145.0
 30
0.0
 10
-2.203745821060757
 20
-145.0
 30
0.0
 10
-8.493098053219152
 20
-144.9999999999999
 30
0.0
 10
-20.05434122854609
 20
-145.0
 30
0.0
 10
-36.36561990092557
 20
-145.0
 30
0.0
 10
-51.48174258156878
 20
-145.0
 30
0.0
 10
-63.18159755694368
 20
-145.0
 30
0.0
 10
-70.68515632650714
 20
-145.0
 30
0.0
 10
-72.49999999999545
 20
-145.0
 30
0.0
 10
-72.50000000000006
 20
-145.0
 30
0.0
  0
LINE
  5
87
330
23
100
AcDbEntity
  8
0
  6
Continuous
 62
     7
370
    25
100
AcDbLine
 10
72.5
 20
-145.0
 30
0.0
 11
72.5
 21
-135.8126410969
 31
0.0
  0
LINE
  5
88
330
23
100
AcDbEntity
  8
0
  6
Continuous
 62
     7
370
    25
100
AcDbLine
 10
-72.5
 20
-135.8126410969
 30
0.0
 11
-72.5
 21
-145.0
 31
0.0
  0
LINE
  5
89
330
23
100
AcDbEntity
  8
0
  6
Continuous
 62
     7
370
    25
100
AcDbLine
 10
-240.0
 20
0.0
 30
0.0
 11
0.0
 21
0.0
 31
0.0
  0
LINE
  5
8A
330
23
100
AcDbEntity
  8
0
  6
Continuous
 62
     7
370
    25
100
AcDbLine
 10
72.5
 20
-145.0
 30
0.0
 11
0.0
 21
-145.0
 31
0.0
  0
VIEWPORT
  5
ED
330
23
100
AcDbEntity
  8
0
100
AcDbViewport
 10
0.0
 20
0.0
 30
0.0
 40
205.6
 41
156.0
 68
     1
 69
     1
 12
0.0
 22
-22.1213475732
 13
0.0
 23
0.0
 14
10.0
 24
10.0
 15
10.0
 25
10.0
 16
0.0
 26
0.0
 36
1.0
 17
0.0
 27
0.0
 37
0.0
 42
50.0
 43
0.0
 44
0.0
 45
315.6731587996
 50
0.0
 51
0.0
 72
   100
 90
   557152
  1

281
     0
 71
     1
 74
     0
110
0.0
120
0.0
130
0.0
111
1.0
121
0.0
131
0.0
112
0.0
122
1.0
132
0.0
 79
     0
146
0.0
170
     0
 61
     5
348
2F
292
     1
282
     1
141
0.0
142
0.0
 63
   256
361
EE
  0
ENDBLK
  5
25
330
23
100
AcDbEntity
  8
0
100
AcDbBlockEnd
  0
BLOCK
  5
8D
330
8B
100
AcDbEntity
  8
0
100
AcDbBlockBegin
  2
*Paper_Space1
 70
     0
 10
0.0
 20
0.0
 30
0.0
  3
*Paper_Space1
  1

  0
SPLINE
  5
8F
330
8B
100
AcDbEntity
  8
0
  6
Continuous
 62
     7
370
    25
100
AcDbSpline
210
0.0
220
0.0
230
1.0
 70
     8
 71
     3
 72
    30
 73
    26
 74
     0
 42
0.000000001
 43
0.00000001
 40
0.0
 40
0.0
 40
0.0
 40
0.0
 40
0.056012698719462
 40
0.1086205787343423
 40
0.1578232631422093
 40
0.2036210329687115
 40
0.2460131241471243
 40
0.2849993386252498
 40
0.3205797035644785
 40
0.3527538150866336
 40
0.3815214486441418
 40
0.4068826304131326
 40
0.4289385875016231
 40
0.4521006811890944
 40
0.4844639084707495
 40
0.5218113333520362
 40
0.5641428310302584
 40
0.6114576619491605
 40
0.6637551136349805
 40
0.7111461215421621
 40
0.7619973039688119
 40
0.8163088007003642
 40
0.8740798922229772
 40
0.9353102848736337
 40
0.9999999999999999
 40
0.9999999999999999
 40
0.9999999999999999
 40
0.9999999999999999
 10
47.50000000000004
 20
-137.9182254667157
 30
0.0
 10
51.00820419931016
 20
-137.1175596697036
 30
0.0
 10
57.81136096838248
 20
-135.5648977870862
 30
0.0
 10
67.44672595285856
 20
-132.3813669312167
 30
0.0
 10
76.24099382793848
 20
-128.832287554301
 30
0.0
 10
84.19081882321599
 20
-124.9926482381523
 30
0.0
 10
91.32222731000795
 20
-121.0050985482271
 30
0.0
 10
97.6652676944281
 20
-116.9775460216978
 30
0.0
 10
103.2588824964313
 20
-113.012089364134
 30
0.0
 10
108.1453066861997
 20
-109.1962818852842
 30
0.0
 10
112.3680472731075
 20
-105.6054836112878
 30
0.0
 10
115.9753234988654
 20
-102.2997275726724
 30
0.0
 10
119.2159838938821
 20
-99.13064808445543
 30
0.0
 10
122.6688519606145
 20
-95.53874686951941
 30
0.0
 10
126.6369441012286
 20
-91.08441736557735
 30
0.0
 10
131.1624905070925
 20
-85.48770588130284
 30
0.0
 10
135.9390195136277
 20
-78.87304069610423
 30
0.0
 10
140.8162037545094
 20
-71.16590235691775
 30
0.0
 10
145.3116656291293
 20
-62.85641552716084
 30
0.0
 10
149.3243980373844
 20
-54.05506352501232
 30
0.0
 10
152.7824497177691
 20
-44.88187034501018
 30
0.0
 10
155.7653630899263
 20
-34.84289725494187
 30
0.0
 10
158.094736285829
 20
-23.95195600733101
 30
0.0
 10
159.6877063120955
 20
-12.24332203349801
 30
0.0
 10
159.8940128614645
 20
-4.15517417981541
 30
0.0
 10
160.0
 20
0.0
 30
0.0
  0
SPLINE
  5
90
330
8B
100
AcDbEntity
  8
0
  6
Continuous
 62
     7
370
    25
100
AcDbSpline
210
0.0
220
0.0
230
1.0
 70
     8
 71
     3
 72
    30
 73
    26
 74
     0
 42
0.000000001
 43
0.00000001
 40
0.0
 40
0.0
 40
0.0
 40
0.0
 40
0.056012698719462
 40
0.1086205787343427
 40
0.1578232631422094
 40
0.2036210329687112
 40
0.2460131241471239
 40
0.2849993386252501
 40
0.3205797035644795
 40
0.3527538150866351
 40
0.381521448644143
 40
0.4068826304131334
 40
0.4289385875016236
 40
0.4521006811890939
 40
0.4844639084707482
 40
0.5218113333520351
 40
0.5641428310302585
 40
0.6114576619491616
 40
0.6637551136349817
 40
0.7111461215421624
 40
0.7619973039688116
 40
0.8163088007003642
 40
0.8740798922229777
 40
0.935310284873634
 40
1.0
 40
1.0
 40
1.0
 40
1.0
 10
-160.0
 20
0.0
 30
0.0
 10
-159.9205887137523
 20
-3.597534748988357
 30
0.0
 10
-159.7665932793692
 20
-10.57392252150338
 30
0.0
 10
-158.5840839818478
 20
-20.65245410381317
 30
0.0
 10
-156.8744750853998
 20
-29.98049512556568
 30
0.0
 10
-154.7105534472937
 20
-38.53970015160571
 30
0.0
 10
-152.2372888404144
 20
-46.3269012996094
 30
0.0
 10
-149.5664257661883
 20
-53.34985161347842
 30
0.0
 10
-146.8058055166207
 20
-59.62618405319885
 30
0.0
 10
-144.0496822220163
 20
-65.17967957070299
 30
0.0
 10
-141.3806210171312
 20
-70.03781528241707
 30
0.0
 10
-138.8671195017471
 20
-74.23576417299702
 30
0.0
 10
-136.4138406237415
 20
-78.04711135545075
 30
0.0
 10
-133.5890038873824
 20
-82.15129819781474
 30
0.0
 10
-130.0228556767596
 20
-86.93349366704882
 30
0.0
 10
-125.4496376954124
 20
-92.49131941143135
 30
0.0
 10
-119.9296592475437
 20
-98.49955232948783
 30
0.0
 10
-113.3597145748542
 20
-104.8259047142879
 30
0.0
 10
-106.1230049288564
 20
-110.8993536800394
 30
0.0
 10
-98.3074642913613
 20
-116.5987521561635
 30
0.0
 10
-90.01621109575916
 20
-121.8294992336147
 30
0.0
 10
-80.78136373208
 20
-126.7687650756664
 30
0.0
 10
-70.58060490019008
 20
-131.2390111537164
 30
0.0
 10
-59.43086080621418
 20
-135.1521773496032
 30
0.0
 10
-51.54913018127878
 20
-136.9794760255995
 30
0.0
 10
-47.49999999999995
 20
-137.9182254667158
 30
0.0
  0
SPLINE
  5
94
330
8B
100
AcDbEntity
  8
0
  6
Continuous
 62
     7
370
    25
100
AcDbSpline
210
0.0
220
0.0
230
1.0
 70
     8
 71
     3
 72
    21
 73
    17
 74
     0
 42
0.000000001
 43
0.00000001
 40
0.0
 40
0.0
 40
0.0
 40
0.0
 40
0.0062500000000001
 40
0.0083333333333333
 40
0.0416666666666666
 40
0.0833333333333334
 40
0.1249999999999999
 40
0.1666666666666666
 40
0.2083333333333334
 40
0.2499999999999998
 40
0.2916666666666666
 40
0.3333333333333334
 40
0.3750000000000001
 40
0.4166666666666666
 40
0.4583333333333334
 40
0.500000000000984
 40
0.500000000000984
 40
0.500000000000984
 40
0.500000000000984
 10
47.50000000000004
 20
-137.9182254667157
 30
0.0
 10
47.50000000000003
 20
-137.9182254667158
 30
0.0
 10
47.48276263681222
 20
-137.9164708130743
 30
0.0
 10
47.28350667392115
 20
-137.8965847384702
 30
0.0
 10
46.0307166255012
 20
-137.7739539450781
 30
0.0
 10
41.54895502446661
 20
-137.3918293742528
 30
0.0
 10
33.97430823060176
 20
-136.8654332817889
 30
0.0
 10
24.08017900487081
 20
-136.3390371893246
 30
0.0
 10
12.54535476705275
 20
-135.9296180062964
 30
0.0
 10
-0.0000000000000468
 20
-135.7541526421406
 30
0.0
 10
-12.54535476705278
 20
-135.9296180062936
 30
0.0
 10
-24.0801790048707
 20
-136.3390371893195
 30
0.0
 10
-33.97430823060151
 20
-136.8654332817824
 30
0.0
 10
-41.54895502446625
 20
-137.3918293742463
 30
0.0
 10
-46.35084245413019
 20
-137.8012485572771
 30
0.0
 10
-47.50000000000168
 20
-137.9182254667157
 30
0.0
 10
-47.49999999999994
 20
-137.9182254667158
 30
0.0
  0
SPLINE
  5
95
330
8B
100
AcDbEntity
  8
0
  6
Continuous
 62
     7
370
    25
100
AcDbSpline
210
0.0
220
0.0
230
1.0
 70
    24
 71
     3
 72
    21
 73
    17
 74
     0
 42
0.000000001
 43
0.00000001
 40
0.0
 40
0.0
 40
0.0
 40
0.0
 40
0.0062500000000001
 40
0.0083333333333333
 40
0.0416666666666666
 40
0.0833333333333334
 40
0.1249999999999999
 40
0.1666666666666666
 40
0.2083333333333334
 40
0.2499999999999998
 40
0.2916666666666666
 40
0.3333333333333334
 40
0.3750000000000001
 40
0.4166666666666666
 40
0.4583333333333334
 40
0.500000000000984
 40
0.500000000000984
 40
0.500000000000984
 40
0.500000000000984
 10
47.5
 20
-145.0
 30
0.0
 10
47.49999999999997
 20
-145.0
 30
0.0
 10
47.48246148891911
 20
-145.0
 30
0.0
 10
47.2798889887127
 20
-144.9999999999999
 30
0.0
 10
46.0072418717065
 20
-145.0
 30
0.0
 10
41.47790508437889
 20
-145.0
 30
0.0
 10
33.88256651429162
 20
-145.0
 30
0.0
 10
24.00503284814772
 20
-145.0
 30
0.0
 10
12.48958130257755
 20
-145.0
 30
0.0
 10
-0.0000000000001057
 20
-145.0
 30
0.0
 10
-12.48958130257735
 20
-145.0
 30
0.0
 10
-24.00503284814667
 20
-145.0
 30
0.0
 10
-33.88256651428973
 20
-145.0
 30
0.0
 10
-41.47790508437654
 20
-145.0
 30
0.0
 10
-46.33076592792719
 20
-145.0
 30
0.0
 10
-47.50000000000042
 20
-145.0
 30
0.0
 10
-47.49999999999999
 20
-145.0
 30
0.0
  0
LINE
  5
96
330
8B
100
AcDbEntity
  8
0
  6
Continuous
 62
     7
370
    25
100
AcDbLine
 10
47.5
 20
-145.0
 30
0.0
 11
47.5
 21
-137.9182254667
 31
0.0
  0
LINE
  5
97
330
8B
100
AcDbEntity
  8
0
  6
Continuous
 62
     7
370
    25
100
AcDbLine
 10
-47.5
 20
-137.9182254667
 30
0.0
 11
-47.5
 21
-145.0
 31
0.0
  0
LINE
  5
98
330
8B
100
AcDbEntity
  8
0
  6
Continuous
 62
     7
370
    25
100
AcDbLine
 10
-160.0
 20
0.0
 30
0.0
 11
160.0
 21
0.0
 31
0.0
  0
VIEWPORT
  5
EF
330
8B
100
AcDbEntity
  8
0
100
AcDbViewport
 10
0.0
 20
0.0
 30
0.0
 40
205.6
 41
156.0
 68
     1
 69
     1
 12
0.0
 22
-22.1213475732
 13
0.0
 23
0.0
 14
10.0
 24
10.0
 15
10.0
 25
10.0
 16
0.0
 26
0.0
 36
1.0
 17
0.0
 27
0.0
 37
0.0
 42
50.0
 43
0.0
 44
0.0
 45
315.6731587996
 50
0.0
 51
0.0
 72
   100
 90
   557152
  1

281
     0
 71
     1
 74
     0
110
0.0
120
0.0
130
0.0
111
1.0
121
0.0
131
0.0
112
0.0
122
1.0
132
0.0
 79
     0
146
0.0
170
     0
 61
     5
348
2F
292
     1
282
     1
141
0.0
142
0.0
 63
   256
361
F0
  0
ENDBLK
  5
8E
330
8B
100
AcDbEntity
  8
0
100
AcDbBlockEnd
  0
BLOCK
  5
9B
330
99
100
AcDbEntity
  8
0
100
AcDbBlockBegin
  2
*Paper_Space2
 70
     0
 10
0.0
 20
0.0
 30
0.0
  3
*Paper_Space2
  1

  0
SPLINE
  5
9D
330
99
100
AcDbEntity
  8
0
  6
Continuous
 62
     7
370
    25
100
AcDbSpline
210
0.0
220
0.0
230
1.0
 70
     8
 71
     3
 72
    30
 73
    26
 74
     0
 42
0.000000001
 43
0.00000001
 40
0.0
 40
0.0
 40
0.0
 40
0.0
 40
0.0560855584635642
 40
0.1087538255264134
 40
0.1580046378824207
 40
0.2038379952012791
 40
0.2462536507117909
 40
0.2852514994788993
 40
0.3208314931802208
 40
0.3529934853798815
 40
0.3817373784398904
 40
0.4070631393380155
 40
0.4290897857159276
 40
0.4522936795316271
 40
0.4846951878316077
 40
0.5220678763527
 40
0.5644116070392833
 40
0.611726079046112
 40
0.6640109869711328
 40
0.7113802777202457
 40
0.7622012790627258
 40
0.8164739539986828
 40
0.8741980535137075
 40
0.9353734293273329
 40
0.9999999999999999
 40
0.9999999999999999
 40
0.9999999999999999
 40
0.9999999999999999
 10
72.49999999999993
 20
-135.8126410968587
 30
0.0
 10
76.5918105698964
 20
-134.9080034319941
 30
0.0
 10
84.52611781397506
 20
-133.1538476481445
 30
0.0
 10
95.86362701566304
 20
-129.8438857077545
 30
0.0
 10
106.3109508249999
 20
-126.2747561965828
 30
0.0
 10
115.8691150079558
 20
-122.504424104013
 30
0.0
 10
124.5594315323565
 20
-118.6471941477598
 30
0.0
 10
132.404486614095
 20
-114.7911560905948
 30
0.0
 10
139.4315103039672
 20
-111.0199590482901
 30
0.0
 10
145.6693635868607
 20
-107.4069358532408
 30
0.0
 10
151.1474889648226
 20
-104.0166771899585
 30
0.0
 10
155.9023931227348
 20
-100.9006275947982
 30
0.0
 10
160.2443574852943
 20
-97.91226196142127
 30
0.0
 10
164.9494459689702
 20
-94.52149269320745
 30
0.0
 10
170.4749902519404
 20
-90.31150389520542
 30
0.0
 10
176.9647533160506
 20
-85.01458382843708
 30
0.0
 10
184.0835446659802
 20
-78.73621235206602
 30
0.0
 10
191.7301823553398
 20
-71.38551804560922
 30
0.0
 10
199.2757515975427
 20
-63.40441918312349
 30
0.0
 10
206.6020759642994
 20
-54.874508441818
 30
0.0
 10
213.6103205853832
 20
-45.89153278658419
 30
0.0
 10
220.6054004800208
 20
-35.93449050232256
 30
0.0
 10
227.4540789551219
 20
-24.95439396426376
 30
0.0
 10
234.0922082426705
 20
-12.94527576408305
 30
0.0
 10
237.99504650238
 20
-4.39329566561883
 30
0.0
 10
240.0000000000001
 20
0.0
 30
0.0
  0
SPLINE
  5
9E
330
99
100
AcDbEntity
  8
0
  6
Continuous
 62
     7
370
    25
100
AcDbSpline
210
0.0
220
0.0
230
1.0
 70
     8
 71
     3
 72
    30
 73
    26
 74
     0
 42
0.000000001
 43
0.00000001
 40
0.0
 40
0.0
 40
0.0
 40
0.0
 40
0.0560855584635641
 40
0.1087538255264138
 40
0.1580046378824205
 40
0.2038379952012784
 40
0.2462536507117898
 40
0.2852514994788988
 40
0.3208314931802216
 40
0.3529934853798824
 40
0.3817373784398915
 40
0.4070631393380162
 40
0.4290897857159279
 40
0.4522936795316264
 40
0.4846951878316063
 40
0.5220678763526991
 40
0.5644116070392836
 40
0.6117260790461133
 40
0.664010986971134
 40
0.7113802777202455
 40
0.7622012790627246
 40
0.8164739539986823
 40
0.8741980535137079
 40
0.9353734293273335
 40
1.0
 40
1.0
 40
1.0
 40
1.0
 10
-240.0000000000002
 20
0.0
 30
0.0
 10
-238.2691755877405
 20
-3.816481350476353
 30
0.0
 10
-234.9129858429234
 20
-11.21690595682414
 30
0.0
 10
-229.3311894927488
 20
-21.62548474791599
 30
0.0
 10
-223.6798106311572
 20
-31.10953331418814
 30
0.0
 10
-218.0153506158685
 20
-39.68203582931137
 30
0.0
 10
-212.4452411309313
 20
-47.38746927302508
 30
0.0
 10
-207.0510015875322
 20
-54.26613909227418
 30
0.0
 10
-201.9088468193194
 20
-60.36197647606821
 30
0.0
 10
-197.0845610415008
 20
-65.71837609902478
 30
0.0
 10
-192.6352548963957
 20
-70.37749471607671
 30
0.0
 10
-188.6037166705848
 20
-74.38568360437205
 30
0.0
 10
-184.7824542760351
 20
-78.01623967699848
 30
0.0
 10
-180.4924245209149
 20
-81.91890781170636
 30
0.0
 10
-175.2312875928326
 20
-86.45499461933407
 30
0.0
 10
-168.7073985617471
 20
-91.70982656071
 30
0.0
 10
-161.0932389041598
 20
-97.37725202452678
 30
0.0
 10
-152.3208122585182
 20
-103.339491996731
 30
0.0
 10
-142.9524826294065
 20
-109.072550011609
 30
0.0
 10
-133.0925063119124
 20
-114.4776654590369
 30
0.0
 10
-122.8549906287219
 20
-119.4779271449785
 30
0.0
 10
-111.6671620021217
 20
-124.2639823478327
 30
0.0
 10
-99.5086287525249
 20
-128.6953462528685
 30
0.0
 10
-86.38681077507263
 20
-132.7080228347442
 30
0.0
 10
-77.2128285792618
 20
-134.7590130241225
 30
0.0
 10
-72.50000000000007
 20
-135.8126410968587
 30
0.0
  0
SPLINE
  5
A1
330
99
100
AcDbEntity
  8
0
  6
Continuous
 62
     7
370
    25
100
AcDbSpline
210
0.0
220
0.0
230
1.0
 70
     8
 71
     3
 72
    15
 73
    11
 74
     0
 42
0.000000001
 43
0.00000001
 40
0.0
 40
0.0
 40
0.0
 40
0.0
 40
0.0062500000000001
 40
0.0083333333333333
 40
0.0416666666666666
 40
0.0833333333333334
 40
0.1249999999999999
 40
0.1666666666666666
 40
0.2083333333333334
 40
0.2499999999999998
 40
0.2499999999999998
 40
0.2499999999999998
 40
0.2499999999999998
 10
-0.0000000000000533
 20
-137.9182254667157
 30
0.0
 10
-0.9489397031083777
 20
-137.9182254667158
 30
0.0
 10
-2.214192640586107
 20
-137.9164708130743
 30
0.0
 10
-8.533107664467389
 20
-137.8965847384702
 30
0.0
 10
-20.14605148621233
 20
-137.7739539450781
 30
0.0
 10
-36.48765542287076
 20
-137.3918293742528
 30
0.0
 10
-51.62720045023421
 20
-136.8654332817889
 30
0.0
 10
-63.29234027962151
 20
-136.3390371893246
 30
0.0
 10
-70.71625177758875
 20
-135.9296180062964
 30
0.0
 10
-72.49999999999717
 20
-135.8126410968592
 30
0.0
 10
-72.50000000000007
 20
-135.8126410968587
 30
0.0
  0
LWPOLYLINE
  5
A2
330
99
100
AcDbEntity
  8
0
  6
Continuous
 62
     7
370
    25
100
AcDbPolyline
 90
       13
 70
   128
 43
0.0
 10
72.5
 20
-135.8126410969
 10
71.8436559896
 20
-135.854070419
 10
69.9248702502
 20
-135.9686103094
 10
66.8170144141
 20
-136.1416386546
 10
62.5854688911
 20
-136.3585333409
 10
57.2990279997
 20
-136.6046722545
 10
51.0481329173
 20
-136.8654332818
 10
43.935683738
 20
-137.1261943091
 10
36.0927693673
 20
-137.3723332227
 10
27.6532403876
 20
-137.5892279089
 10
18.7338052786
 20
-137.7622562541
 10
9.4587734331
 20
-137.8767961446
 10
0.0
 20
-137.9182254667
  0
SPLINE
  5
A3
330
99
100
AcDbEntity
  8
0
  6
Continuous
 62
     7
370
    25
100
AcDbSpline
210
0.0
220
0.0
230
1.0
 70
    24
 71
     3
 72
    15
 73
    11
 74
     0
 42
0.000000001
 43
0.00000001
 40
0.7499999999999999
 40
0.7499999999999999
 40
0.7499999999999999
 40
0.7499999999999999
 40
0.7916666666666666
 40
0.8333333333333334
 40
0.875
 40
0.9166666666666666
 40
0.9583333333333334
 40
0.9916666666666667
 40
0.99375
 40
1.0
 40
1.0
 40
1.0
 40
1.0
 10
240.0000000000001
 20
0.0
 30
0.0
 10
239.9999999999989
 20
0.0
 30
0.0
 10
234.3653754005922
 20
0.0
 30
0.0
 10
210.3843271333237
 20
0.0
 30
0.0
 10
171.6977681166116
 20
0.0
 30
0.0
 10
121.058365308858
 20
0.0
 30
0.0
 10
67.02268480654146
 20
0.0
 30
0.0
 10
28.3970088970638
 20
0.0
 30
0.0
 10
7.369015889910234
 20
0.0
 30
0.0
 10
3.158149667104208
 20
0.0
 30
0.0
 10
-0.0000000000003118
 20
0.0
 30
0.0
  0
SPLINE
  5
A5
330
99
100
AcDbEntity
  8
0
  6
Continuous
 62
     7
370
    25
100
AcDbSpline
210
0.0
220
0.0
230
1.0
 70
    24
 71
     3
 72
    15
 73
    11
 74
     0
 42
0.000000001
 43
0.00000001
 40
0.0
 40
0.0
 40
0.0
 40
0.0
 40
0.0062500000000001
 40
0.0083333333333333
 40
0.0416666666666666
 40
0.0833333333333334
 40
0.1249999999999999
 40
0.1666666666666666
 40
0.2083333333333334
 40
0.2499999999999998
 40
0.2499999999999998
 40
0.2499999999999998
 40
0.2499999999999998
 10
-0.0000000000000486
 20
-145.0
 30
0.0
 10
-0.9444624947403716
 20
-145.0
 30
0.0
 10
-2.203745821060757
 20
-145.0
 30
0.0
 10
-8.493098053219152
 20
-144.9999999999999
 30
0.0
 10
-20.05434122854609
 20
-145.0
 30
0.0
 10
-36.36561990092557
 20
-145.0
 30
0.0
 10
-51.48174258156878
 20
-145.0
 30
0.0
 10
-63.18159755694368
 20
-145.0
 30
0.0
 10
-70.68515632650714
 20
-145.0
 30
0.0
 10
-72.49999999999545
 20
-145.0
 30
0.0
 10
-72.50000000000006
 20
-145.0
 30
0.0
  0
LINE
  5
A7
330
99
100
AcDbEntity
  8
0
  6
Continuous
 62
     7
370
    25
100
AcDbLine
 10
72.5
 20
-145.0
 30
0.0
 11
72.5
 21
-135.8126410969
 31
0.0
  0
LINE
  5
A8
330
99
100
AcDbEntity
  8
0
  6
Continuous
 62
     7
370
    25
100
AcDbLine
 10
-72.5
 20
-135.8126410969
 30
0.0
 11
-72.5
 21
-145.0
 31
0.0
  0
LINE
  5
A9
330
99
100
AcDbEntity
  8
0
  6
Continuous
 62
     7
370
    25
100
AcDbLine
 10
-240.0
 20
0.0
 30
0.0
 11
0.0
 21
0.0
 31
0.0
  0
LINE
  5
AA
330
99
100
AcDbEntity
  8
0
  6
Continuous
 62
     7
370
    25
100
AcDbLine
 10
72.5
 20
-145.0
 30
0.0
 11
0.0
 21
-145.0
 31
0.0
  0
VIEWPORT
  5
F1
330
99
100
AcDbEntity
  8
0
100
AcDbViewport
 10
0.0
 20
0.0
 30
0.0
 40
205.6
 41
156.0
 68
     1
 69
     1
 12
0.0
 22
-22.1213475732
 13
0.0
 23
0.0
 14
10.0
 24
10.0
 15
10.0
 25
10.0
 16
0.0
 26
0.0
 36
1.0
 17
0.0
 27
0.0
 37
0.0
 42
50.0
 43
0.0
 44
0.0
 45
315.6731587996
 50
0.0
 51
0.0
 72
   100
 90
   557152
  1

281
     0
 71
     1
 74
     0
110
0.0
120
0.0
130
0.0
111
1.0
121
0.0
131
0.0
112
0.0
122
1.0
132
0.0
 79
     0
146
0.0
170
     0
 61
     5
348
2F
292
     1
282
     1
141
0.0
142
0.0
 63
   256
361
F2
  0
ENDBLK
  5
9C
330
99
100
AcDbEntity
  8
0
100
AcDbBlockEnd
  0
BLOCK
  5
AD
330
AB
100
AcDbEntity
  8
0
100
AcDbBlockBegin
  2
*Paper_Space3
 70
     0
 10
0.0
 20
0.0
 30
0.0
  3
*Paper_Space3
  1

  0
SPLINE
  5
AF
330
AB
100
AcDbEntity
  8
0
  6
Continuous
 62
     7
370
    25
100
AcDbSpline
210
0.0
220
0.0
230
1.0
 70
     8
 71
     3
 72
    30
 73
    26
 74
     0
 42
0.000000001
 43
0.00000001
 40
0.0
 40
0.0
 40
0.0
 40
0.0
 40
0.0560855584635639
 40
0.1087538255264132
 40
0.158004637882421
 40
0.2038379952012798
 40
0.2462536507117915
 40
0.2852514994788996
 40
0.3208314931802203
 40
0.3529934853798805
 40
0.3817373784398895
 40
0.4070631393380151
 40
0.4290897857159277
 40
0.452293679531628
 40
0.4846951878316091
 40
0.5220678763527015
 40
0.5644116070392838
 40
0.6117260790461114
 40
0.6640109869711323
 40
0.7113802777202457
 40
0.7622012790627262
 40
0.8164739539986833
 40
0.8741980535137077
 40
0.935373429327333
 40
0.9999999999999999
 40
0.9999999999999999
 40
0.9999999999999999
 40
0.9999999999999999
 10
72.50000000000007
 20
-135.8126410968587
 30
0.0
 10
76.59181056989651
 20
-134.9080034319942
 30
0.0
 10
84.52611781397516
 20
-133.1538476481446
 30
0.0
 10
95.86362701566318
 20
-129.8438857077547
 30
0.0
 10
106.3109508250002
 20
-126.2747561965829
 30
0.0
 10
115.8691150079561
 20
-122.5044241040131
 30
0.0
 10
124.5594315323567
 20
-118.6471941477598
 30
0.0
 10
132.4044866140951
 20
-114.7911560905947
 30
0.0
 10
139.4315103039673
 20
-111.0199590482902
 30
0.0
 10
145.6693635868606
 20
-107.4069358532408
 30
0.0
 10
151.1474889648226
 20
-104.0166771899587
 30
0.0
 10
155.9023931227348
 20
-100.9006275947983
 30
0.0
 10
160.2443574852945
 20
-97.91226196142131
 30
0.0
 10
164.9494459689705
 20
-94.52149269320753
 30
0.0
 10
170.4749902519409
 20
-90.31150389520543
 30
0.0
 10
176.9647533160509
 20
-85.01458382843707
 30
0.0
 10
184.0835446659805
 20
-78.73621235206599
 30
0.0
 10
191.7301823553397
 20
-71.38551804560906
 30
0.0
 10
199.2757515975426
 20
-63.40441918312348
 30
0.0
 10
206.6020759642996
 20
-54.87450844181811
 30
0.0
 10
213.6103205853834
 20
-45.89153278658422
 30
0.0
 10
220.6054004800211
 20
-35.93449050232265
 30
0.0
 10
227.4540789551218
 20
-24.95439396426371
 30
0.0
 10
234.0922082426706
 20
-12.94527576408305
 30
0.0
 10
237.9950465023801
 20
-4.39329566561883
 30
0.0
 10
240.0000000000002
 20
0.0
 30
0.0
  0
SPLINE
  5
B0
330
AB
100
AcDbEntity
  8
0
  6
Continuous
 62
     7
370
    25
100
AcDbSpline
210
0.0
220
0.0
230
1.0
 70
     8
 71
     3
 72
    30
 73
    26
 74
     0
 42
0.000000001
 43
0.00000001
 40
0.0
 40
0.0
 40
0.0
 40
0.0
 40
0.0560855584635642
 40
0.1087538255264138
 40
0.1580046378824207
 40
0.2038379952012785
 40
0.2462536507117902
 40
0.2852514994788989
 40
0.3208314931802209
 40
0.3529934853798818
 40
0.3817373784398908
 40
0.4070631393380161
 40
0.429089785715928
 40
0.4522936795316272
 40
0.4846951878316075
 40
0.5220678763527002
 40
0.5644116070392837
 40
0.6117260790461121
 40
0.6640109869711329
 40
0.7113802777202454
 40
0.7622012790627252
 40
0.8164739539986825
 40
0.8741980535137077
 40
0.9353734293273331
 40
1.0
 40
1.0
 40
1.0
 40
1.0
 10
-240.0000000000001
 20
0.0
 30
0.0
 10
-238.2691755877404
 20
-3.816481350476353
 30
0.0
 10
-234.9129858429234
 20
-11.21690595682413
 30
0.0
 10
-229.3311894927487
 20
-21.62548474791603
 30
0.0
 10
-223.679810631157
 20
-31.10953331418808
 30
0.0
 10
-218.0153506158682
 20
-39.6820358293114
 30
0.0
 10
-212.4452411309311
 20
-47.387469273025
 30
0.0
 10
-207.051001587532
 20
-54.26613909227414
 30
0.0
 10
-201.9088468193194
 20
-60.36197647606819
 30
0.0
 10
-197.0845610415009
 20
-65.71837609902475
 30
0.0
 10
-192.6352548963958
 20
-70.37749471607671
 30
0.0
 10
-188.6037166705848
 20
-74.38568360437209
 30
0.0
 10
-184.7824542760351
 20
-78.01623967699855
 30
0.0
 10
-180.4924245209147
 20
-81.91890781170638
 30
0.0
 10
-175.2312875928322
 20
-86.45499461933406
 30
0.0
 10
-168.7073985617467
 20
-91.70982656070991
 30
0.0
 10
-161.0932389041597
 20
-97.37725202452674
 30
0.0
 10
-152.3208122585181
 20
-103.3394919967309
 30
0.0
 10
-142.9524826294065
 20
-109.072550011609
 30
0.0
 10
-133.0925063119125
 20
-114.4776654590369
 30
0.0
 10
-122.8549906287216
 20
-119.4779271449785
 30
0.0
 10
-111.6671620021216
 20
-124.2639823478326
 30
0.0
 10
-99.50862875252474
 20
-128.6953462528684
 30
0.0
 10
-86.38681077507255
 20
-132.7080228347441
 30
0.0
 10
-77.2128285792617
 20
-134.7590130241225
 30
0.0
 10
-72.49999999999993
 20
-135.8126410968587
 30
0.0
  0
SPLINE
  5
B3
330
AB
100
AcDbEntity
  8
0
  6
Continuous
 62
     7
370
    25
100
AcDbSpline
210
0.0
220
0.0
230
1.0
 70
     8
 71
     3
 72
    19
 73
    15
 74
     0
 42
0.000000001
 43
0.00000001
 40
0.2499999999999998
 40
0.2499999999999998
 40
0.2499999999999998
 40
0.2499999999999998
 40
0.2916666666666666
 40
0.3333333333333334
 40
0.3750000000000001
 40
0.4166666666666666
 40
0.4583333333333334
 40
0.500000000000984
 40
0.5416666666666667
 40
0.5833333333333333
 40
0.625
 40
0.6666666666666667
 40
0.7083333333333333
 40
0.7499999999999999
 40
0.7499999999999999
 40
0.7499999999999999
 40
0.7499999999999999
 10
72.50000000000007
 20
-135.8126410968587
 30
0.0
 10
72.50000000000296
 20
-135.8126410968582
 30
0.0
 10
70.71625177760605
 20
-135.9296180062936
 30
0.0
 10
63.29234027965518
 20
-136.3390371893195
 30
0.0
 10
51.6272004502823
 20
-136.8654332817824
 30
0.0
 10
36.48765542293036
 20
-137.3918293742463
 30
0.0
 10
18.97879406221078
 20
-137.8012485572786
 30
0.0
 10
0.0000000000469955
 20
-137.9767139214341
 30
0.0
 10
-18.97879406212157
 20
-137.80124855728
 30
0.0
 10
-36.48765542281865
 20
-137.3918293742567
 30
0.0
 10
-51.62720045019942
 20
-136.8654332817921
 30
0.0
 10
-63.29234027960403
 20
-136.3390371893264
 30
0.0
 10
-70.71625177758476
 20
-135.9296180062968
 30
0.0
 10
-72.49999999999704
 20
-135.8126410968592
 30
0.0
 10
-72.49999999999993
 20
-135.8126410968587
 30
0.0
  0
SPLINE
  5
B4
330
AB
100
AcDbEntity
  8
0
  6
Continuous
 62
     7
370
    25
100
AcDbSpline
210
0.0
220
0.0
230
1.0
 70
    24
 71
     3
 72
    19
 73
    15
 74
     0
 42
0.000000001
 43
0.00000001
 40
0.2499999999999998
 40
0.2499999999999998
 40
0.2499999999999998
 40
0.2499999999999998
 40
0.2916666666666666
 40
0.3333333333333334
 40
0.3750000000000001
 40
0.4166666666666666
 40
0.4583333333333334
 40
0.500000000000984
 40
0.5416666666666667
 40
0.5833333333333333
 40
0.625
 40
0.6666666666666667
 40
0.7083333333333333
 40
0.7499999999999999
 40
0.7499999999999999
 40
0.7499999999999999
 40
0.7499999999999999
 10
240.0000000000001
 20
0.0
 30
0.0
 10
239.9999999999989
 20
0.0
 30
0.0
 10
234.3653754005922
 20
0.0
 30
0.0
 10
210.3843271333236
 20
0.0
 30
0.0
 10
171.6977681166116
 20
0.0
 30
0.0
 10
121.0583653088579
 20
0.0
 30
0.0
 10
63.16299334209026
 20
0.0
 30
0.0
 10
-0.0000000000001561
 20
0.0
 30
0.0
 10
-63.16299334209051
 20
0.0
 30
0.0
 10
-121.0583653088582
 20
0.0
 30
0.0
 10
-171.6977681166117
 20
0.0
 30
0.0
 10
-210.3843271333237
 20
0.0
 30
0.0
 10
-234.3653754005957
 20
0.0
 30
0.0
 10
-240.0000000000014
 20
0.0
 30
0.0
 10
-240.0000000000001
 20
0.0
 30
0.0
  0
SPLINE
  5
B5
330
AB
100
AcDbEntity
  8
0
  6
Continuous
 62
     7
370
    25
100
AcDbSpline
210
0.0
220
0.0
230
1.0
 70
    24
 71
     3
 72
    19
 73
    15
 74
     0
 42
0.000000001
 43
0.00000001
 40
0.2499999999999998
 40
0.2499999999999998
 40
0.2499999999999998
 40
0.2499999999999998
 40
0.2916666666666666
 40
0.3333333333333334
 40
0.3750000000000001
 40
0.4166666666666666
 40
0.4583333333333334
 40
0.500000000000984
 40
0.5416666666666667
 40
0.5833333333333333
 40
0.625
 40
0.6666666666666667
 40
0.7083333333333333
 40
0.7499999999999999
 40
0.7499999999999999
 40
0.7499999999999999
 40
0.7499999999999999
 10
72.50000000000006
 20
-145.0
 30
0.0
 10
72.50000000000465
 20
-145.0
 30
0.0
 10
70.68515632653467
 20
-145.0
 30
0.0
 10
63.18159755699727
 20
-145.0
 30
0.0
 10
51.48174258164538
 20
-145.0
 30
0.0
 10
36.36561990102052
 20
-145.0
 30
0.0
 10
18.88924989487716
 20
-145.0
 30
0.0
 10
0.0000000000748247
 20
-145.0
 30
0.0
 10
-18.88924989473515
 20
-145.0
 30
0.0
 10
-36.36561990084274
 20
-145.0
 30
0.0
 10
-51.48174258151357
 20
-145.0
 30
0.0
 10
-63.18159755691606
 20
-145.0
 30
0.0
 10
-70.68515632650099
 20
-144.9999999999999
 30
0.0
 10
-72.49999999999545
 20
-144.9999999999999
 30
0.0
 10
-72.50000000000007
 20
-144.9999999999999
 30
0.0
  0
LINE
  5
B6
330
AB
100
AcDbEntity
  8
0
  6
Continuous
 62
     7
370
    25
100
AcDbLine
 10
72.5
 20
-145.0
 30
0.0
 11
72.5
 21
-135.8126410969
 31
0.0
  0
LINE
  5
B7
330
AB
100
AcDbEntity
  8
0
  6
Continuous
 62
     7
370
    25
100
AcDbLine
 10
-72.5
 20
-135.8126410969
 30
0.0
 11
-72.5
 21
-145.0
 31
0.0
  0
VIEWPORT
  5
F3
330
AB
100
AcDbEntity
  8
0
100
AcDbViewport
 10
0.0
 20
0.0
 30
0.0
 40
205.6
 41
156.0
 68
     1
 69
     1
 12
0.0
 22
-22.1213475732
 13
0.0
 23
0.0
 14
10.0
 24
10.0
 15
10.0
 25
10.0
 16
0.0
 26
0.0
 36
1.0
 17
0.0
 27
0.0
 37
0.0
 42
50.0
 43
0.0
 44
0.0
 45
315.6731587996
 50
0.0
 51
0.0
 72
   100
 90
   557152
  1

281
     0
 71
     1
 74
     0
110
0.0
120
0.0
130
0.0
111
1.0
121
0.0
131
0.0
112
0.0
122
1.0
132
0.0
 79
     0
146
0.0
170
     0
 61
     5
348
2F
292
     1
282
     1
141
0.0
142
0.0
 63
   256
361
F4
  0
ENDBLK
  5
AE
330
AB
100
AcDbEntity
  8
0
100
AcDbBlockEnd
  0
BLOCK
  5
BA
330
B8
100
AcDbEntity
  8
0
100
AcDbBlockBegin
  2
*Paper_Space4
 70
     0
 10
0.0
 20
0.0
 30
0.0
  3
*Paper_Space4
  1

  0
SPLINE
  5
BC
330
B8
100
AcDbEntity
  8
0
  6
Continuous
 62
     7
370
    25
100
AcDbSpline
210
0.0
220
0.0
230
1.0
 70
     8
 71
     3
 72
    30
 73
    26
 74
     0
 42
0.000000001
 43
0.00000001
 40
0.0
 40
0.0
 40
0.0
 40
0.0
 40
0.0560126987194619
 40
0.1086205787343423
 40
0.1578232631422092
 40
0.2036210329687115
 40
0.2460131241471245
 40
0.28499933862525
 40
0.3205797035644785
 40
0.3527538150866336
 40
0.3815214486441418
 40
0.4068826304131327
 40
0.4289385875016236
 40
0.4521006811890946
 40
0.4844639084707499
 40
0.5218113333520367
 40
0.5641428310302589
 40
0.6114576619491605
 40
0.6637551136349804
 40
0.711146121542162
 40
0.7619973039688119
 40
0.8163088007003644
 40
0.874079892222977
 40
0.9353102848736335
 40
1.0
 40
1.0
 40
1.0
 40
1.0
 10
47.49999999999994
 20
-137.9182254667158
 30
0.0
 10
51.00820419931006
 20
-137.1175596697037
 30
0.0
 10
57.81136096838241
 20
-135.5648977870863
 30
0.0
 10
67.44672595285853
 20
-132.3813669312171
 30
0.0
 10
76.24099382793845
 20
-128.8322875543012
 30
0.0
 10
84.19081882321595
 20
-124.9926482381525
 30
0.0
 10
91.32222731000792
 20
-121.0050985482272
 30
0.0
 10
97.66526769442794
 20
-116.9775460216978
 30
0.0
 10
103.2588824964312
 20
-113.012089364134
 30
0.0
 10
108.1453066861996
 20
-109.1962818852843
 30
0.0
 10
112.3680472731074
 20
-105.6054836112878
 30
0.0
 10
115.9753234988654
 20
-102.2997275726724
 30
0.0
 10
119.2159838938821
 20
-99.13064808445547
 30
0.0
 10
122.6688519606144
 20
-95.5387468695194
 30
0.0
 10
126.6369441012285
 20
-91.08441736557731
 30
0.0
 10
131.1624905070925
 20
-85.48770588130286
 30
0.0
 10
135.9390195136277
 20
-78.87304069610431
 30
0.0
 10
140.8162037545095
 20
-71.16590235691784
 30
0.0
 10
145.3116656291292
 20
-62.85641552716086
 30
0.0
 10
149.3243980373843
 20
-54.0550635250123
 30
0.0
 10
152.7824497177688
 20
-44.88187034501011
 30
0.0
 10
155.7653630899263
 20
-34.84289725494191
 30
0.0
 10
158.0947362858291
 20
-23.95195600733101
 30
0.0
 10
159.6877063120956
 20
-12.24332203349804
 30
0.0
 10
159.8940128614645
 20
-4.155174179815424
 30
0.0
 10
160.0
 20
0.0
 30
0.0
  0
SPLINE
  5
BD
330
B8
100
AcDbEntity
  8
0
  6
Continuous
 62
     7
370
    25
100
AcDbSpline
210
0.0
220
0.0
230
1.0
 70
     8
 71
     3
 72
    30
 73
    26
 74
     0
 42
0.000000001
 43
0.00000001
 40
0.0
 40
0.0
 40
0.0
 40
0.0
 40
0.0560126987194619
 40
0.1086205787343426
 40
0.1578232631422093
 40
0.2036210329687113
 40
0.2460131241471239
 40
0.28499933862525
 40
0.3205797035644792
 40
0.3527538150866347
 40
0.3815214486441428
 40
0.4068826304131332
 40
0.4289385875016236
 40
0.4521006811890941
 40
0.4844639084707485
 40
0.5218113333520357
 40
0.5641428310302586
 40
0.6114576619491616
 40
0.6637551136349817
 40
0.7111461215421623
 40
0.7619973039688116
 40
0.816308800700364
 40
0.8740798922229774
 40
0.9353102848736339
 40
0.9999999999999999
 40
0.9999999999999999
 40
0.9999999999999999
 40
0.9999999999999999
 10
-160.0
 20
0.0
 30
0.0
 10
-159.9205887137523
 20
-3.597534748988343
 30
0.0
 10
-159.7665932793693
 20
-10.57392252150338
 30
0.0
 10
-158.5840839818476
 20
-20.65245410381312
 30
0.0
 10
-156.8744750853998
 20
-29.98049512556565
 30
0.0
 10
-154.7105534472938
 20
-38.53970015160572
 30
0.0
 10
-152.2372888404147
 20
-46.32690129960944
 30
0.0
 10
-149.5664257661884
 20
-53.34985161347842
 30
0.0
 10
-146.8058055166209
 20
-59.62618405319879
 30
0.0
 10
-144.0496822220163
 20
-65.17967957070287
 30
0.0
 10
-141.3806210171313
 20
-70.03781528241699
 30
0.0
 10
-138.867119501747
 20
-74.23576417299692
 30
0.0
 10
-136.4138406237415
 20
-78.04711135545068
 30
0.0
 10
-133.5890038873824
 20
-82.15129819781475
 30
0.0
 10
-130.0228556767596
 20
-86.93349366704885
 30
0.0
 10
-125.4496376954124
 20
-92.49131941143133
 30
0.0
 10
-119.9296592475438
 20
-98.49955232948783
 30
0.0
 10
-113.3597145748543
 20
-104.8259047142879
 30
0.0
 10
-106.1230049288565
 20
-110.8993536800393
 30
0.0
 10
-98.3074642913614
 20
-116.5987521561634
 30
0.0
 10
-90.01621109575926
 20
-121.8294992336146
 30
0.0
 10
-80.78136373208005
 20
-126.7687650756662
 30
0.0
 10
-70.5806049001901
 20
-131.2390111537161
 30
0.0
 10
-59.43086080621431
 20
-135.1521773496031
 30
0.0
 10
-51.54913018127888
 20
-136.9794760255994
 30
0.0
 10
-47.50000000000004
 20
-137.9182254667158
 30
0.0
  0
SPLINE
  5
C0
330
B8
100
AcDbEntity
  8
0
  6
Continuous
 62
     7
370
    25
100
AcDbSpline
210
0.0
220
0.0
230
1.0
 70
    24
 71
     3
 72
    21
 73
    17
 74
     0
 42
0.000000001
 43
0.00000001
 40
0.500000000000984
 40
0.500000000000984
 40
0.500000000000984
 40
0.500000000000984
 40
0.5416666666666667
 40
0.5833333333333333
 40
0.625
 40
0.6666666666666667
 40
0.7083333333333333
 40
0.7499999999999999
 40
0.7916666666666666
 40
0.8333333333333334
 40
0.875
 40
0.9166666666666666
 40
0.9583333333333334
 40
0.9916666666666667
 40
0.99375
 40
1.0
 40
1.0
 40
1.0
 40
1.0
 10
160.0
 20
0.0
 30
0.0
 10
159.9999999999983
 20
0.0
 30
0.0
 10
156.2435836004564
 20
0.0
 30
0.0
 10
140.2562180888824
 20
0.0
 30
0.0
 10
114.4651787444077
 20
0.0
 30
0.0
 10
80.70557687257197
 20
0.0
 30
0.0
 10
42.10866222806018
 20
0.0
 30
0.0
 10
-0.0000000000000515
 20
0.0
 30
0.0
 10
-42.1086622280603
 20
0.0
 30
0.0
 10
-80.70557687257205
 20
0.0
 30
0.0
 10
-114.4651787444078
 20
0.0
 30
0.0
 10
-140.2562180888825
 20
0.0
 30
0.0
 10
-155.1777592329617
 20
0.0
 30
0.0
 10
-159.2908634255087
 20
0.0
 30
0.0
 10
-159.943653754006
 20
0.0
 30
0.0
 10
-160.0
 20
0.0
 30
0.0
 10
-160.0
 20
0.0
 30
0.0
  0
LWPOLYLINE
  5
C1
330
B8
100
AcDbEntity
  8
0
  6
Continuous
 62
     7
370
    25
100
AcDbPolyline
 90
       26
 70
   128
 43
0.0
 10
47.5
 20
-137.9182254667
 10
47.0767601188
 20
-137.8767961446
 10
45.837817269
 20
-137.7622562541
 10
43.8280047711
 20
-137.5892279089
 10
41.0868284638
 20
-137.3723332227
 10
37.6555432568
 20
-137.1261943091
 10
33.5877278253
 20
-136.8654332818
 10
28.944739921
 20
-136.6046722545
 10
23.8067298362
 20
-136.3585333409
 10
18.2575330205
 20
-136.1416386547
 10
12.3769330122
 20
-135.9686103094
 10
6.2516246642
 20
-135.854070419
 10
0.0
 20
-135.8126410969
 10
-6.2516246642
 20
-135.854070419
 10
-12.3769330122
 20
-135.9686103094
 10
-18.2575330205
 20
-136.1416386546
 10
-23.8067298362
 20
-136.3585333409
 10
-28.944739921
 20
-136.6046722545
 10
-33.5877278253
 20
-136.8654332818
 10
-37.6555432568
 20
-137.1261943091
 10
-41.0868284638
 20
-137.3723332227
 10
-43.8280047711
 20
-137.5892279089
 10
-45.837817269
 20
-137.7622562541
 10
-47.0767601188
 20
-137.8767961446
 10
-47.5
 20
-137.9182254667
 10
-47.5
 20
-137.9182254667
  0
LINE
  5
C3
330
B8
100
AcDbEntity
  8
0
  6
Continuous
 62
     7
370
    25
100
AcDbLine
 10
47.5
 20
-145.0
 30
0.0
 11
47.5
 21
-137.9182254667
 31
0.0
  0
LINE
  5
C4
330
B8
100
AcDbEntity
  8
0
  6
Continuous
 62
     7
370
    25
100
AcDbLine
 10
-47.5
 20
-137.9182254667
 30
0.0
 11
-47.5
 21
-145.0
 31
0.0
  0
LINE
  5
C5
330
B8
100
AcDbEntity
  8
0
  6
Continuous
 62
     7
370
    25
100
AcDbLine
 10
47.5
 20
-145.0
 30
0.0
 11
-47.5
 21
-145.0
 31
0.0
  0
VIEWPORT
  5
F5
330
B8
100
AcDbEntity
  8
0
100
AcDbViewport
 10
0.0
 20
0.0
 30
0.0
 40
205.6
 41
156.0
 68
     1
 69
     1
 12
0.0
 22
-22.1213475732
 13
0.0
 23
0.0
 14
10.0
 24
10.0
 15
10.0
 25
10.0
 16
0.0
 26
0.0
 36
1.0
 17
0.0
 27
0.0
 37
0.0
 42
50.0
 43
0.0
 44
0.0
 45
315.6731587996
 50
0.0
 51
0.0
 72
   100
 90
   557152
  1

281
     0
 71
     1
 74
     0
110
0.0
120
0.0
130
0.0
111
1.0
121
0.0
131
0.0
112
0.0
122
1.0
132
0.0
 79
     0
146
0.0
170
     0
 61
     5
348
2F
292
     1
282
     1
141
0.0
142
0.0
 63
   256
361
F6
  0
ENDBLK
  5
BB
330
B8
100
AcDbEntity
  8
0
100
AcDbBlockEnd
  0
BLOCK
  5
C8
330
C6
100
AcDbEntity
  8
0
100
AcDbBlockBegin
  2
*Paper_Space5
 70
     0
 10
0.0
 20
0.0
 30
0.0
  3
*Paper_Space5
  1

  0
SPLINE
  5
CA
330
C6
100
AcDbEntity
  8
0
  6
Continuous
 62
     7
370
    25
100
AcDbSpline
210
0.0
220
0.0
230
1.0
 70
    11
 71
     3
 72
    35
 73
    31
 74
     0
 42
0.000000001
 43
0.00000001
 40
0.0
 40
0.0
 40
0.0
 40
0.0
 40
0.0062500000000001
 40
0.0083333333333333
 40
0.0416666666666666
 40
0.0833333333333334
 40
0.1249999999999999
 40
0.1666666666666666
 40
0.2083333333333334
 40
0.2499999999999998
 40
0.2916666666666666
 40
0.3333333333333334
 40
0.3750000000000001
 40
0.4166666666666666
 40
0.4583333333333334
 40
0.500000000000984
 40
0.5416666666666667
 40
0.5833333333333333
 40
0.625
 40
0.6666666666666667
 40
0.7083333333333333
 40
0.7499999999999999
 40
0.7916666666666666
 40
0.8333333333333334
 40
0.875
 40
0.9166666666666666
 40
0.9583333333333334
 40
0.9916666666666667
 40
0.99375
 40
1.0
 40
1.0
 40
1.0
 40
1.0
 10
-0.0000000000000027
 20
23.00000000000001
 30
0.0
 10
-0.3058699265881809
 20
23.00000000000001
 30
0.0
 10
-0.7136964953724115
 20
22.99133516299608
 30
0.0
 10
-2.750466703463506
 20
22.89145991336859
 30
0.0
 10
-6.493723289480209
 20
22.26524099857056
 30
0.0
 10
-11.76226989751439
 20
20.06579618222134
 30
0.0
 10
-16.46208693124019
 20
16.46208693124019
 30
0.0
 10
-20.06579618222134
 20
11.7622698975144
 30
0.0
 10
-22.42234419973835
 20
6.117398531763476
 30
0.0
 10
-23.28882790013082
 20
-0.0000000000000037
 30
0.0
 10
-22.42234419973835
 20
-6.117398531763483
 30
0.0
 10
-20.06579618222134
 20
-11.7622698975144
 30
0.0
 10
-16.46208693124019
 20
-16.46208693124019
 30
0.0
 10
-11.76226989751439
 20
-20.06579618222134
 30
0.0
 10
-6.117398531763476
 20
-22.42234419973835
 30
0.0
 10
0.0000000000000115
 20
-23.28882790013082
 30
0.0
 10
6.117398531763484
 20
-22.42234419973835
 30
0.0
 10
11.7622698975144
 20
-20.06579618222135
 30
0.0
 10
16.46208693124019
 20
-16.46208693124019
 30
0.0
 10
20.06579618222135
 20
-11.76226989751439
 30
0.0
 10
22.42234419973835
 20
-6.117398531763478
 30
0.0
 10
23.28882790013082
 20
-0.0000000000000054
 30
0.0
 10
22.42234419973836
 20
6.117398531763477
 30
0.0
 10
20.06579618222136
 20
11.7622698975144
 30
0.0
 10
16.4620869312402
 20
16.4620869312402
 30
0.0
 10
11.7622698975144
 20
20.06579618222136
 30
0.0
 10
6.493723289480202
 20
22.26524099857057
 30
0.0
 10
2.750466703463496
 20
22.8914599133686
 30
0.0
 10
0.7136964953724005
 20
22.99133516299608
 30
0.0
 10
0.3058699265881702
 20
23.00000000000001
 30
0.0
 10
-0.0000000000000027
 20
23.00000000000001
 30
0.0
  0
SPLINE
  5
CB
330
C6
100
AcDbEntity
  8
0
  6
Continuous
 62
     7
370
    25
100
AcDbSpline
210
0.0
220
0.0
230
1.0
 70
    11
 71
     3
 72
    35
 73
    31
 74
     0
 42
0.000000001
 43
0.00000001
 40
0.0
 40
0.0
 40
0.0
 40
0.0
 40
0.0062500000000001
 40
0.0083333333333333
 40
0.0416666666666666
 40
0.0833333333333334
 40
0.1249999999999999
 40
0.1666666666666666
 40
0.2083333333333334
 40
0.2499999999999998
 40
0.2916666666666666
 40
0.3333333333333334
 40
0.3750000000000001
 40
0.4166666666666666
 40
0.4583333333333334
 40
0.500000000000984
 40
0.5416666666666667
 40
0.5833333333333333
 40
0.625
 40
0.6666666666666667
 40
0.7083333333333333
 40
0.7499999999999999
 40
0.7916666666666666
 40
0.8333333333333334
 40
0.875
 40
0.9166666666666666
 40
0.9583333333333334
 40
0.9916666666666667
 40
0.99375
 40
1.0
 40
1.0
 40
1.0
 40
1.0
 10
-0.0000000000000486
 20
47.5
 30
0.0
 10
-0.9444624947403716
 20
47.49999999999997
 30
0.0
 10
-2.203745821060757
 20
47.48246148891911
 30
0.0
 10
-8.493098053219152
 20
47.2798889887127
 30
0.0
 10
-20.05434122854609
 20
46.0072418717065
 30
0.0
 10
-36.36561990092557
 20
41.47790508437889
 30
0.0
 10
-51.48174258156878
 20
33.88256651429162
 30
0.0
 10
-63.18159755694368
 20
24.00503284814772
 30
0.0
 10
-70.68515632650713
 20
12.48958130257755
 30
0.0
 10
-73.40742183673962
 20
-0.0000000000001057
 30
0.0
 10
-70.68515632653468
 20
-12.48958130257735
 30
0.0
 10
-63.18159755699727
 20
-24.00503284814667
 30
0.0
 10
-51.48174258164538
 20
-33.88256651428973
 30
0.0
 10
-36.36561990102052
 20
-41.47790508437654
 30
0.0
 10
-18.88924989487716
 20
-46.33076592794667
 30
0.0
 10
-0.0000000000748247
 20
-48.08461703602769
 30
0.0
 10
18.88924989473515
 20
-46.33076592794251
 30
0.0
 10
36.36561990084274
 20
-41.47790508438275
 30
0.0
 10
51.48174258151357
 20
-33.8825665142955
 30
0.0
 10
63.18159755691606
 20
-24.00503284815077
 30
0.0
 10
70.68515632650097
 20
-12.48958130257923
 30
0.0
 10
73.4074218367427
 20
0.0000000000000742
 30
0.0
 10
70.6851563265286
 20
12.48958130257898
 30
0.0
 10
63.18159755696973
 20
24.00503284814969
 30
0.0
 10
51.48174258159022
 20
33.88256651429359
 30
0.0
 10
36.36561990093777
 20
41.47790508438042
 30
0.0
 10
20.05434122854968
 20
46.00724187170737
 30
0.0
 10
8.4930980532196
 20
47.27988898871307
 30
0.0
 10
2.203745821060689
 20
47.48246148891922
 30
0.0
 10
0.9444624947402578
 20
47.50000000000002
 30
0.0
 10
-0.0000000000000486
 20
47.5
 30
0.0
  0
SPLINE
  5
CC
330
C6
100
AcDbEntity
  8
0
  6
Continuous
 62
     7
370
    25
100
AcDbSpline
210
0.0
220
0.0
230
1.0
 70
    11
 71
     3
 72
    35
 73
    31
 74
     0
 42
0.000000001
 43
0.00000001
 40
0.0
 40
0.0
 40
0.0
 40
0.0
 40
0.0062500000000001
 40
0.0083333333333333
 40
0.0416666666666666
 40
0.0833333333333334
 40
0.1249999999999999
 40
0.1666666666666666
 40
0.2083333333333334
 40
0.2499999999999998
 40
0.2916666666666666
 40
0.3333333333333334
 40
0.3750000000000001
 40
0.4166666666666666
 40
0.4583333333333334
 40
0.500000000000984
 40
0.5416666666666667
 40
0.5833333333333333
 40
0.625
 40
0.6666666666666667
 40
0.7083333333333333
 40
0.7499999999999999
 40
0.7916666666666666
 40
0.8333333333333334
 40
0.875
 40
0.9166666666666666
 40
0.9583333333333334
 40
0.9916666666666667
 40
0.99375
 40
1.0
 40
1.0
 40
1.0
 40
1.0
 10
-0.0000000000000533
 20
47.50000000000004
 30
0.0
 10
-0.9489397031083777
 20
47.50000000000003
 30
0.0
 10
-2.214192640586107
 20
47.48276263681222
 30
0.0
 10
-8.533107664467389
 20
47.28350667392115
 30
0.0
 10
-20.14605148621233
 20
46.0307166255012
 30
0.0
 10
-36.48765542287076
 20
41.54895502446661
 30
0.0
 10
-51.62720045023421
 20
33.97430823060176
 30
0.0
 10
-63.29234027962151
 20
24.08017900487081
 30
0.0
 10
-70.71625177758874
 20
12.54535476705275
 30
0.0
 10
-73.39187411120139
 20
-0.0000000000000468
 30
0.0
 10
-70.71625177760606
 20
-12.54535476705278
 30
0.0
 10
-63.29234027965518
 20
-24.0801790048707
 30
0.0
 10
-51.6272004502823
 20
-33.97430823060151
 30
0.0
 10
-36.48765542293036
 20
-41.54895502446625
 30
0.0
 10
-18.97879406221078
 20
-46.35084245414679
 30
0.0
 10
-0.0000000000469955
 20
-48.07457877292666
 30
0.0
 10
18.97879406212157
 20
-46.35084245414622
 30
0.0
 10
36.48765542281865
 20
-41.54895502446705
 30
0.0
 10
51.62720045019942
 20
-33.97430823060222
 30
0.0
 10
63.29234027960403
 20
-24.0801790048712
 30
0.0
 10
70.71625177758474
 20
-12.54535476705299
 30
0.0
 10
73.3918741112032
 20
0.0000000000000164
 30
0.0
 10
70.7162517776021
 20
12.54535476705298
 30
0.0
 10
63.29234027963778
 20
24.08017900487109
 30
0.0
 10
51.62720045024759
 20
33.97430823060204
 30
0.0
 10
36.48765542287835
 20
41.54895502446684
 30
0.0
 10
20.14605148621453
 20
46.03071662550132
 30
0.0
 10
8.533107664467616
 20
47.2835066739212
 30
0.0
 10
2.214192640586012
 20
47.48276263681223
 30
0.0
 10
0.9489397031082542
 20
47.50000000000004
 30
0.0
 10
-0.0000000000000533
 20
47.50000000000004
 30
0.0
  0
LWPOLYLINE
  5
CD
330
C6
100
AcDbEntity
  8
0
  6
Continuous
 62
     7
370
    25
100
AcDbPolyline
 90
       85
 70
   128
 43
0.0
 10
0.0
 20
160.0
 10
21.1894629335
 20
159.3696677479
 10
42.1791088904
 20
157.5018482985
 10
62.7691211739
 20
154.4313075804
 10
82.7819305187
 20
150.1903187074
 10
102.1228265609
 20
144.8018704884
 10
116.79874426
 20
139.7766795546
 10
130.9726481071
 20
134.0679976069
 10
144.5726711492
 20
127.7026796322
 10
157.512471372
 20
120.7144535671
 10
169.7056274848
 20
113.1370849898
 10
181.7326395727
 20
104.4990837676
 10
192.7621221624
 20
95.3050844378
 10
202.7336487087
 20
85.6238241951
 10
211.5873482377
 20
75.523520197
 10
219.2817041987
 20
65.0552091141
 10
225.7973200014
 20
54.2492224341
 10
230.8447410475
 20
43.7775818979
 10
234.8122329984
 20
33.0592918302
 10
237.6774622592
 20
22.147219981
 10
239.4151496853
 20
11.1059176188
 10
240.0
 20
0.0
 10
239.3423979446
 20
-11.77757711
 10
237.3897109683
 20
-23.4780643371
 10
234.1721178559
 20
-35.0243717983
 10
229.7196386577
 20
-46.3400392311
 10
224.0570493031
 20
-57.3694071699
 10
217.2028057326
 20
-68.0818843739
 10
209.6650193319
 20
-77.8658295067
 10
201.1019964103
 20
-87.3150987381
 10
191.5540194482
 20
-96.3817807661
 10
181.0716803506
 20
-105.008314248
 10
169.7056274848
 20
-113.1370849898
 10
156.7486256514
 20
-121.1550930485
 10
142.9576266567
 20
-128.5080814416
 10
128.4357362926
 20
-135.1557658058
 10
113.2852802953
 20
-141.0582321585
 10
97.5828136709
 20
-146.1878027992
 10
81.3738336509
 20
-150.5315466677
 10
61.6795021161
 20
-154.6257189426
 10
41.4351722595
 20
-157.5894729356
 10
20.8122373842
 20
-159.3918788075
 10
-0.0000000005
 20
-160.0
 10
-21.189462934
 20
-159.3696677479
 10
-42.1791088909
 20
-157.5018482984
 10
-62.7691211743
 20
-154.4313075803
 10
-82.781930519
 20
-150.1903187073
 10
-102.122826561
 20
-144.8018704884
 10
-116.7987442601
 20
-139.7766795546
 10
-130.9726481072
 20
-134.0679976069
 10
-144.5726711492
 20
-127.7026796322
 10
-157.512471372
 20
-120.7144535671
 10
-169.7056274848
 20
-113.1370849898
 10
-181.7326395727
 20
-104.4990837676
 10
-192.7621221624
 20
-95.3050844378
 10
-202.7336487087
 20
-85.6238241951
 10
-211.5873482377
 20
-75.523520197
 10
-219.2817041987
 20
-65.0552091141
 10
-225.7973200014
 20
-54.2492224341
 10
-230.8447410475
 20
-43.7775818979
 10
-234.8122329984
 20
-33.0592918302
 10
-237.6774622592
 20
-22.147219981
 10
-239.4151496853
 20
-11.1059176188
 10
-240.0
 20
0.0
 10
-239.3423979446
 20
11.77757711
 10
-237.3897109683
 20
23.4780643371
 10
-234.1721178559
 20
35.0243717983
 10
-229.7196386577
 20
46.3400392311
 10
-224.0570493031
 20
57.3694071699
 10
-217.2028057326
 20
68.0818843739
 10
-209.6650193319
 20
77.8658295066
 10
-201.1019964103
 20
87.3150987381
 10
-191.5540194482
 20
96.3817807661
 10
-181.0716803506
 20
105.008314248
 10
-169.7056274848
 20
113.1370849898
 10
-156.7486256514
 20
121.1550930485
 10
-142.9576266567
 20
128.5080814416
 10
-128.4357362927
 20
135.1557658058
 10
-113.2852802954
 20
141.0582321585
 10
-97.5828136711
 20
146.1878027991
 10
-81.3738336512
 20
150.5315466676
 10
-61.6795021165
 20
154.6257189425
 10
-41.43517226
 20
157.5894729356
 10
-20.8122373847
 20
159.3918788075
 10
0.0
 20
160.0
  0
VIEWPORT
  5
F7
330
C6
100
AcDbEntity
  8
0
100
AcDbViewport
 10
0.0
 20
0.0
 30
0.0
 40
205.6
 41
156.0
 68
     1
 69
     1
 12
0.0
 22
-22.1213475732
 13
0.0
 23
0.0
 14
10.0
 24
10.0
 15
10.0
 25
10.0
 16
0.0
 26
0.0
 36
1.0
 17
0.0
 27
0.0
 37
0.0
 42
50.0
 43
0.0
 44
0.0
 45
315.6731587996
 50
0.0
 51
0.0
 72
   100
 90
   557152
  1

281
     0
 71
     1
 74
     0
110
0.0
120
0.0
130
0.0
111
1.0
121
0.0
131
0.0
112
0.0
122
1.0
132
0.0
 79
     0
146
0.0
170
     0
 61
     5
348
2F
292
     1
282
     1
141
0.0
142
0.0
 63
   256
361
F8
  0
ENDBLK
  5
C9
330
C6
100
AcDbEntity
  8
0
100
AcDbBlockEnd
  0
BLOCK
  5
D0
330
CE
100
AcDbEntity
  8
0
100
AcDbBlockBegin
  2
*Paper_Space6
 70
     0
 10
0.0
 20
0.0
 30
0.0
  3
*Paper_Space6
  1

  0
SPLINE
  5
D2
330
CE
100
AcDbEntity
  8
0
  6
Continuous
 62
     7
370
    25
100
AcDbSpline
210
0.0
220
0.0
230
1.0
 70
     8
 71
     3
 72
    75
 73
    71
 74
     0
 42
0.000000001
 43
0.00000001
 40
0.0
 40
0.0
 40
0.0
 40
0.0
 40
0.0099412883204292
 40
0.0181746881829312
 40
0.0247269234245217
 40
0.029617587007621
 40
0.037463579449485
 40
0.0458954327941021
 40
0.0552608056410081
 40
0.0648180524959597
 40
0.0742021084011396
 40
0.0945185312227875
 40
0.114416584805408
 40
0.1339962176098119
 40
0.1505474451675033
 40
0.1667978859190058
 40
0.1818858150759037
 40
0.1955823570873646
 40
0.2078138871995649
 40
0.22005683771636
 40
0.2337356365594271
 40
0.2515930507496557
 40
0.2715964913514249
 40
0.2938551342931803
 40
0.3184796848135036
 40
0.3455687981114154
 40
0.3751939564759689
 40
0.406797045215733
 40
0.4373045880803239
 40
0.4661572110392701
 40
0.4932596327934931
 40
0.5185238268843678
 40
0.5418677567788034
 40
0.5624016109962657
 40
0.5810275676840795
 40
0.5976818246194392
 40
0.6129570413701376
 40
0.6294412883464402
 40
0.6474048646546545
 40
0.666831051399671
 40
0.689652937999104
 40
0.7113378392857524
 40
0.7310601865520601
 40
0.7493656754361774
 40
0.7673700271035264
 40
0.7790333977558151
 40
0.7909788574978701
 40
0.8034230878208342
 40
0.8179672540495393
 40
0.8348456997290631
 40
0.8487243628163302
 40
0.8617521581375579
 40
0.8737612246301396
 40
0.8844775243419684
 40
0.8950254626794651
 40
0.9049447023709845
 40
0.9155823574517298
 40
0.9247974343649573
 40
0.9324178964883802
 40
0.9398729928664477
 40
0.947869830008851
 40
0.9567488833610017
 40
0.9638443425295413
 40
0.9716491379451466
 40
0.9791643560940724
 40
0.9850831223373072
 40
0.9903021530733431
 40
0.998060569525155
 40
0.9999439201552774
 40
1.0
 40
1.0
 40
1.0
 40
1.0
 10
154.4163106579569
 20
-94.7535032081632
 30
0.0
 10
153.7390933718763
 20
-95.21332771167386
 30
0.0
 10
152.5010030349013
 20
-96.05398001958488
 30
0.0
 10
150.6419614088909
 20
-97.19701952562949
 30
0.0
 10
149.0630330951497
 20
-98.1109726152186
 30
0.0
 10
147.4149983919793
 20
-99.01674321976833
 30
0.0
 10
145.3602864107904
 20
-100.0791172752693
 30
0.0
 10
142.8643868488079
 20
-101.2737205435656
 30
0.0
 10
140.1141612734937
 20
-102.4881928872329
 30
0.0
 10
137.1407930007435
 20
-103.6920584141691
 30
0.0
 10
132.8258923242042
 20
-105.2918741521048
 30
0.0
 10
127.0180270563961
 20
-107.1591457123902
 30
0.0
 10
119.5423659822569
 20
-109.1123830224652
 30
0.0
 10
112.1695426911204
 20
-110.6484989243332
 30
0.0
 10
105.0278363823803
 20
-111.8237110486446
 30
0.0
 10
98.33327787965871
 20
-112.6812134275956
 30
0.0
 10
91.94380725792031
 20
-113.2937408484154
 30
0.0
 10
86.06293610269366
 20
-113.6955591095732
 30
0.0
 10
80.55262080516171
 20
-113.943353244251
 30
0.0
 10
75.01837913582553
 20
-114.0766480484939
 30
0.0
 10
68.651434249541
 20
-114.0958318465494
 30
0.0
 10
61.15115898573943
 20
-113.9351489475737
 30
0.0
 10
52.42276936991358
 20
-113.5053684151899
 30
0.0
 10
42.76471191373739
 20
-112.7444099360059
 30
0.0
 10
32.17831571620909
 20
-111.5760150370032
 30
0.0
 10
20.68211548845085
 20
-109.9260141050494
 30
0.0
 10
8.396868868392332
 20
-107.7414136421592
 30
0.0
 10
-4.119278086823372
 20
-105.069964952165
 30
0.0
 10
-16.26081049617797
 20
-102.0491110723206
 30
0.0
 10
-27.53634094371642
 20
-98.8634975408223
 30
0.0
 10
-37.87797192703518
 20
-95.61214057604089
 30
0.0
 10
-47.28761906564231
 20
-92.37076750921145
 30
0.0
 10
-55.67491705677067
 20
-89.24444477423923
 30
0.0
 10
-63.07927837286189
 20
-86.29257457220497
 30
0.0
 10
-69.540385303895
 20
-83.56489010161052
 30
0.0
 10
-75.26037980313369
 20
-81.02665420944466
 30
0.0
 10
-80.6066587844893
 20
-78.54813954763262
 30
0.0
 10
-86.00187391231081
 20
-75.93696338839044
 30
0.0
 10
-91.72745899871285
 20
-73.0342744509554
 30
0.0
 10
-97.97815588360898
 20
-69.70224940609816
 30
0.0
 10
-104.4384346846225
 20
-66.05563452543997
 30
0.0
 10
-110.6967852790322
 20
-62.3009672079274
 30
0.0
 10
-116.2973446035964
 20
-58.74668041285273
 30
0.0
 10
-121.3524760444992
 20
-55.36833445519552
 30
0.0
 10
-125.5279391429157
 20
-52.43522320209384
 30
0.0
 10
-129.0333603388997
 20
-49.86857245112669
 30
0.0
 10
-131.9903705312911
 20
-47.62952943092854
 30
0.0
 10
-135.0938063765651
 20
-45.19473076187112
 30
0.0
 10
-138.4673385181204
 20
-42.43930948434954
 30
0.0
 10
-141.8155422135943
 20
-39.56831162502102
 30
0.0
 10
-144.9149985412074
 20
-36.77441167272392
 30
0.0
 10
-147.5422440080342
 20
-34.2957618587501
 30
0.0
 10
-149.8468584185518
 20
-32.02375842190069
 30
0.0
 10
-151.9042846757485
 20
-29.9089635055965
 30
0.0
 10
-153.7412075555691
 20
-27.94233552099339
 30
0.0
 10
-155.4871552668749
 20
-25.99564636750799
 30
0.0
 10
-157.0834121728941
 20
-24.13820105624125
 30
0.0
 10
-158.4873677675477
 20
-22.43191189857573
 30
0.0
 10
-159.6691182322446
 20
-20.93905503015981
 30
0.0
 10
-160.7323011902395
 20
-19.54691927105712
 30
0.0
 10
-161.7960869847085
 20
-18.09977309040445
 30
0.0
 10
-162.7802533442458
 20
-16.7009783620102
 30
0.0
 10
-163.6949881877341
 20
-15.34332524129797
 30
0.0
 10
-164.5101146529688
 20
-14.08038442524414
 30
0.0
 10
-165.2325754052188
 20
-12.9073799953125
 30
0.0
 10
-165.8462077662533
 20
-11.86588948924523
 30
0.0
 10
-166.3799258489218
 20
-10.9199173273038
 30
0.0
 10
-166.6396203070089
 20
-10.44878160894419
 30
0.0
 10
-166.775834503096
 20
-10.20032627203726
 30
0.0
 10
-166.7657056492746
 20
-10.22917099245568
 30
0.0
 10
-166.7654127671337
 20
-10.23000505558044
 30
0.0
  0
SPLINE
  5
D3
330
CE
100
AcDbEntity
  8
0
  6
Continuous
 62
     7
370
    25
100
AcDbSpline
210
0.0
220
0.0
230
1.0
 70
     8
 71
     3
 72
    17
 73
    13
 74
     0
 42
0.000000001
 43
0.00000001
 40
0.0
 40
0.0
 40
0.0
 40
0.0
 40
0.0035618998027944
 40
0.0799129362820087
 40
0.1646120202779767
 40
0.2512412376438597
 40
0.3433505529095555
 40
0.4083134705777751
 40
0.4815130861748368
 40
0.6049204635556498
 40
0.7780024166926334
 40
0.9999999999999999
 40
0.9999999999999999
 40
0.9999999999999999
 40
0.9999999999999999
 10
162.2291338612533
 20
-88.1372552402643
 30
0.0
 10
162.2308950241548
 20
-88.13460559271522
 30
0.0
 10
162.2704075614318
 20
-88.0751594747782
 30
0.0
 10
162.0859647700016
 20
-88.27721990099718
 30
0.0
 10
161.6640741425321
 20
-88.71216512343337
 30
0.0
 10
161.0095606430299
 20
-89.36717164009522
 30
0.0
 10
160.4166700453611
 20
-89.93300069066144
 30
0.0
 10
159.815552715832
 20
-90.48726271274593
 30
0.0
 10
159.0994934420966
 20
-91.1262253615045
 30
0.0
 10
158.0456086483396
 20
-92.02347267826299
 30
0.0
 10
156.4799806554767
 20
-93.27848773566018
 30
0.0
 10
155.1587296158623
 20
-94.22285661674783
 30
0.0
 10
154.4163106579569
 20
-94.75350320816318
 30
0.0
  0
SPLINE
  5
D4
330
CE
100
AcDbEntity
  8
0
  6
Continuous
 62
     7
370
    25
100
AcDbSpline
210
0.0
220
0.0
230
1.0
 70
     8
 71
     3
 72
   107
 73
   103
 74
     0
 42
0.000000001
 43
0.00000001
 40
0.0
 40
0.0
 40
0.0
 40
0.0
 40
0.0099577304697502
 40
0.017534491447988
 40
0.0234453372402792
 40
0.0297309539303873
 40
0.0363698289236444
 40
0.041757379688016
 40
0.0462131833969542
 40
0.0511043975906424
 40
0.0567085471256373
 40
0.0640301571277823
 40
0.0716876277387564
 40
0.0781415932145599
 40
0.0843515881566919
 40
0.0898620568964594
 40
0.0952998619132483
 40
0.1013302937474479
 40
0.1092181565493852
 40
0.1177671965930468
 40
0.1260288932993051
 40
0.1329456713383391
 40
0.1545181803017284
 40
0.1793625279650032
 40
0.2060912416070653
 40
0.2317541116958772
 40
0.2565315167404079
 40
0.2803682664939523
 40
0.3037936913598736
 40
0.3316058510302303
 40
0.3569451526638013
 40
0.3821629930912811
 40
0.3909379822317585
 40
0.3995005848941015
 40
0.4098279890272918
 40
0.4211046836680485
 40
0.4304141187359672
 40
0.4377440128286639
 40
0.4437621304868638
 40
0.4486794503460075
 40
0.4543182898036683
 40
0.4617072123021627
 40
0.4709352737524006
 40
0.481962488506667
 40
0.4946754570693227
 40
0.515935453143361
 40
0.5377847231622299
 40
0.5602506378559822
 40
0.5833077659400285
 40
0.5956085843964378
 40
0.608000699537375
 40
0.6193481891041536
 40
0.6292267965785974
 40
0.6376789114394482
 40
0.6447432694831663
 40
0.6536862384332588
 40
0.6630356788222999
 40
0.6772328338046181
 40
0.6911852086358906
 40
0.7055004611809265
 40
0.7184079678244675
 40
0.7335081631120571
 40
0.748585065658285
 40
0.754309560856832
 40
0.7604913276528593
 40
0.767091368421197
 40
0.7737301765882206
 40
0.7791772329160057
 40
0.7841874349363543
 40
0.7895002199483172
 40
0.7959571525546146
 40
0.8020076234802253
 40
0.8072832140766306
 40
0.8120116115380226
 40
0.8163033799767271
 40
0.8253794488859733
 40
0.836355526355052
 40
0.849608392181795
 40
0.8618284998605494
 40
0.8725264351444042
 40
0.8804976667655917
 40
0.8879446437978235
 40
0.8950928832585353
 40
0.9036763499411873
 40
0.913935666966936
 40
0.92273877905447
 40
0.9298694039415845
 40
0.9343691113288684
 40
0.9401636522499058
 40
0.946855297766237
 40
0.9519909099380918
 40
0.9558851670666765
 40
0.9597126432763425
 40
0.9631720050087313
 40
0.9677494437065651
 40
0.973023055092767
 40
0.9771644401740788
 40
0.9795115874878546
 40
0.9822589716885256
 40
0.9865946080847551
 40
0.9925115272280891
 40
1.0
 40
1.0
 40
1.0
 40
1.0
 10
-201.7480673421724
 20
28.8398708768019
 30
0.0
 10
-201.2888427993313
 20
27.12086501768994
 30
0.0
 10
-200.4801978130452
 20
24.09388074379289
 30
0.0
 10
-199.3117055898274
 20
20.07199236058714
 30
0.0
 10
-198.2873919161842
 20
16.6947007679608
 30
0.0
 10
-197.2739827339451
 20
13.49173646216474
 30
0.0
 10
-196.2507220549674
 20
10.39137458672222
 30
0.0
 10
-195.2972950775595
 20
7.611666808705772
 30
0.0
 10
-194.4218865841055
 20
5.136432812437322
 30
0.0
 10
-193.5120794688195
 20
2.636166163354714
 30
0.0
 10
-192.39910619226
 20
-0.3282578066163763
 30
0.0
 10
-191.0714811965646
 20
-3.733980087427098
 30
0.0
 10
-189.6374257904091
 20
-7.259836668740554
 30
0.0
 10
-188.2330488364593
 20
-10.58074119229201
 30
0.0
 10
-186.9412965068824
 20
-13.53282638416247
 30
0.0
 10
-185.6910498925131
 20
-16.30299048822531
 30
0.0
 10
-184.4255047040787
 20
-19.02857397444897
 30
0.0
 10
-182.949492158562
 20
-22.11587276661079
 30
0.0
 10
-181.1880256381034
 20
-25.67412465949213
 30
0.0
 10
-179.1890547687663
 20
-29.55240045687288
 30
0.0
 10
-177.208752873033
 20
-33.24206759145498
 30
0.0
 10
-174.0557581857212
 20
-38.90934127084044
 30
0.0
 10
-169.2563694074422
 20
-46.98488792688141
 30
0.0
 10
-162.172213558039
 20
-57.72519691414371
 30
0.0
 10
-154.1088682512841
 20
-68.64854860316133
 30
0.0
 10
-145.4851091521072
 20
-79.08921008037706
 30
0.0
 10
-136.6695057255711
 20
-88.67557691371903
 30
0.0
 10
-127.66417342878
 20
-97.50724497074742
 30
0.0
 10
-117.8190361426659
 20
-106.2265754975408
 30
0.0
 10
-107.4057964551674
 20
-114.4765727087091
 30
0.0
 10
-96.12447476933181
 20
-122.4011563528002
 30
0.0
 10
-87.317544043557
 20
-127.8759415808564
 30
0.0
 10
-80.83794724491374
 20
-131.5668284148392
 30
0.0
 10
-76.58174520767544
 20
-133.8815162742673
 30
0.0
 10
-71.91839505751474
 20
-136.291553120163
 30
0.0
 10
-67.07453621261295
 20
-138.6506222453673
 30
0.0
 10
-62.63196349275344
 20
-140.6913347971305
 30
0.0
 10
-58.99672733544138
 20
-142.2816159486937
 30
0.0
 10
-56.04694323330094
 20
-143.5212624508449
 30
0.0
 10
-53.35675726178769
 20
-144.6142810995131
 30
0.0
 10
-50.45878095359711
 20
-145.7532042264834
 30
0.0
 10
-46.89691323252426
 20
-147.0958673967626
 30
0.0
 10
-42.45283128614823
 20
-148.6817595148007
 30
0.0
 10
-37.10697584655492
 20
-150.4605443085968
 30
0.0
 10
-29.70771670130445
 20
-152.7176675563708
 30
0.0
 10
-20.38724905992744
 20
-155.1980425684185
 30
0.0
 10
-9.241270520495483
 20
-157.6265047042193
 30
0.0
 10
2.40787301333377
 20
-159.5991660734908
 30
0.0
 10
12.56722186587458
 20
-160.8135062799974
 30
0.0
 10
21.04509888932398
 20
-161.4883295714646
 30
0.0
 10
27.48578920929716
 20
-161.8181563005856
 30
0.0
 10
33.52637241658048
 20
-161.9614457411595
 30
0.0
 10
38.87563882205105
 20
-161.9542530473392
 30
0.0
 10
43.45833622871768
 20
-161.8468963388475
 30
0.0
 10
47.86904659290179
 20
-161.6598237795742
 30
0.0
 10
52.42817752065044
 20
-161.3754705591342
 30
0.0
 10
58.14980804571265
 20
-160.8896253931389
 30
0.0
 10
64.75889711641041
 20
-160.1360774045541
 30
0.0
 10
72.23015139747605
 20
-159.0128544692756
 30
0.0
 10
79.3811679489565
 20
-157.6712376344408
 30
0.0
 10
86.7429221402834
 20
-156.0151649441959
 30
0.0
 10
94.09048268147974
 20
-154.0704319794262
 30
0.0
 10
100.1979012277178
 20
-152.1826383235338
 30
0.0
 10
104.7213858524276
 20
-150.6385860668196
 30
0.0
 10
107.808099145132
 20
-149.527014076147
 30
0.0
 10
111.019615956445
 20
-148.3041155300535
 30
0.0
 10
114.0847052735935
 20
-147.0699631128694
 30
0.0
 10
116.8735415734384
 20
-145.8897686050766
 30
0.0
 10
119.4191866172617
 20
-144.7662266483391
 30
0.0
 10
122.104064355831
 20
-143.5322617484799
 30
0.0
 10
124.93800898407
 20
-142.1693677363763
 30
0.0
 10
127.7409173475086
 20
-140.755825153723
 30
0.0
 10
130.2421025273091
 20
-139.4400370964206
 30
0.0
 10
132.449787563617
 20
-138.2352164090901
 30
0.0
 10
135.2228872563363
 20
-136.6713779959001
 30
0.0
 10
138.902185344393
 20
-134.4946454444437
 30
0.0
 10
143.8411337602557
 20
-131.35958824021
 30
0.0
 10
149.1114448008757
 20
-127.7254176781198
 30
0.0
 10
154.2134057424179
 20
-123.8910191689867
 30
0.0
 10
158.400985532415
 20
-120.4957427217111
 30
0.0
 10
161.8966146268558
 20
-117.4817119580353
 30
0.0
 10
164.8441675411601
 20
-114.8053360455097
 30
0.0
 10
167.7586485126037
 20
-112.0290302823453
 30
0.0
 10
170.9835703203345
 20
-108.7930984794402
 30
0.0
 10
174.2873037504931
 20
-105.2603648526522
 30
0.0
 10
177.2986905143647
 20
-101.8261267962096
 30
0.0
 10
179.5952960258871
 20
-99.05799884686412
 30
0.0
 10
181.4906504203475
 20
-96.67750811546013
 30
0.0
 10
183.2946144623036
 20
-94.32731300286254
 30
0.0
 10
185.1130927175531
 20
-91.84841220772682
 30
0.0
 10
186.6905636174187
 20
-89.60152402368345
 30
0.0
 10
187.9489424977385
 20
-87.74690148391954
 30
0.0
 10
189.0210067396368
 20
-86.11934504628202
 30
0.0
 10
190.1334823725739
 20
-84.38180121373848
 30
0.0
 10
191.352141825987
 20
-82.41700122383502
 30
0.0
 10
192.5971223143946
 20
-80.32834824902405
 30
0.0
 10
193.614538134138
 20
-78.55362629484179
 30
0.0
 10
194.3972804005155
 20
-77.15010684308848
 30
0.0
 10
195.1807287318576
 20
-75.71448532479481
 30
0.0
 10
196.2337281100777
 20
-73.72245000812357
 30
0.0
 10
197.6254172034814
 20
-70.97793351493478
 30
0.0
 10
198.6112781321511
 20
-68.86763303883828
 30
0.0
 10
199.16199628854
 20
-67.6887844265998
 30
0.0
  0
SPLINE
  5
D5
330
CE
100
AcDbEntity
  8
0
  6
Continuous
 62
     7
370
    25
100
AcDbSpline
210
0.0
220
0.0
230
1.0
 70
     8
 71
     3
 72
    27
 73
    23
 74
     0
 42
0.000000001
 43
0.00000001
 40
0.0
 40
0.0
 40
0.0
 40
0.0
 40
0.0385010160114473
 40
0.0897385970741445
 40
0.1417926185062807
 40
0.1940901035073364
 40
0.246387588508392
 40
0.2984416099405281
 40
0.3496791910032251
 40
0.4000482308592698
 40
0.4504172707152774
 40
0.50165485177774
 40
0.5537088732096407
 40
0.6060063582106523
 40
0.6583038432117521
 40
0.7103578646441236
 40
0.7615954457070552
 40
0.8119644855631369
 40
0.8623335254191815
 40
0.9135711064818788
 40
0.9656251279140149
 40
1.0
 40
1.0
 40
1.0
 40
1.0
 10
-32.88496869777942
 20
-97.1284156691946
 30
0.0
 10
-32.7833256893464
 20
-96.19694644030224
 30
0.0
 10
-32.54641503284677
 20
-94.02586758374218
 30
0.0
 10
-30.68523922388226
 20
-90.73189570658124
 30
0.0
 10
-27.65825322301684
 20
-87.38519091657315
 30
0.0
 10
-23.49728146987149
 20
-84.41917010911118
 30
0.0
 10
-18.36127896340285
 20
-82.02222567683796
 30
0.0
 10
-12.5654595475879
 20
-80.25550836405742
 30
0.0
 10
-6.374369382436053
 20
-79.16160404245701
 30
0.0
 10
0.0000092755505429
 20
-78.79383441624216
 30
0.0
 10
6.374331960328133
 20
-79.16160530894874
 30
0.0
 10
12.56559385856916
 20
-80.25550316162514
 30
0.0
 10
18.36077054647967
 20
-82.02224556119552
 30
0.0
 10
23.49918704832653
 20
-84.41909552985486
 30
0.0
 10
27.6511570681612
 20
-87.38546865470286
 30
0.0
 10
30.71141023765536
 20
-90.73087138916065
 30
0.0
 10
32.60689941120305
 20
-94.30530242402646
 30
0.0
 10
33.24178364269484
 20
-97.98405522474353
 30
0.0
 10
32.61288266460324
 20
-101.6678902798224
 30
0.0
 10
30.68683258770807
 20
-105.2267282924412
 30
0.0
 10
28.08396057876542
 20
-108.238403493285
 30
0.0
 10
25.70201971499184
 20
-109.8185411351596
 30
0.0
 10
24.75466392717962
 20
-110.4470002893462
 30
0.0
  0
LWPOLYLINE
  5
D6
330
CE
100
AcDbEntity
  8
0
  6
Continuous
 62
     7
370
    25
100
AcDbPolyline
 90
       85
 70
   128
 43
0.0
 10
-113.1370849898
 20
-65.3126489458
 10
-97.70815985
 20
-73.704969476
 10
-81.5454910604
 20
-81.5105766127
 10
-64.8149535864
 20
-88.6620959632
 10
-47.6649283971
 20
-95.1002170489
 10
-30.1786413757
 20
-100.7956628402
 10
-16.2478538645
 20
-104.7351286483
 10
-2.1887426214
 20
-108.1906665618
 10
11.9288854002
 20
-111.1439025136
 10
26.0201279241
 20
-113.5733592239
 10
40.0
 20
-115.4575424171
 10
54.612371045
 20
-116.840950398
 10
68.9125322494
 20
-117.5902021093
 10
82.8091510572
 20
-117.7086899917
 10
96.2116554818
 20
-117.1998209913
 10
109.054600513
 20
-116.0674812596
 10
121.3028230895
 20
-114.3161344661
 10
132.276456772
 20
-112.1019460701
 10
142.6608728243
 20
-109.3462428982
 10
152.4028958657
 20
-106.0614891164
 10
161.4390062018
 20
-102.2637157648
 10
169.7056274848
 20
-97.9689734187
 10
177.5686372525
 20
-92.8928828474
 10
184.4613729115
 20
-87.3196017615
 10
190.3506633061
 20
-81.2929176663
 10
195.2036702474
 20
-74.8562962573
 10
198.9985557774
 20
-68.0425715891
 10
201.726738943
 20
-60.8717649199
 10
203.3150130141
 20
-53.8009638525
 10
203.9416837896
 20
-46.4482731394
 10
203.6013568779
 20
-38.8496938402
 10
202.2891041425
 20
-31.0493745494
 10
200.0
 20
-23.0915084834
 10
196.5076040096
 20
-14.5294243727
 10
191.9552430559
 20
-5.8983629629
 10
186.387338597
 20
2.7431433031
 10
179.8480224069
 20
11.3370315952
 10
172.37185596
 20
19.8407536997
 10
163.9818670169
 20
28.230458951
 10
152.9508886167
 20
37.9410226902
 10
140.7316762407
 20
47.4146566475
 10
127.4235525569
 20
56.5687716958
 10
113.1370849895
 20
65.312648946
 10
97.7081598496
 20
73.7049694762
 10
81.5454910601
 20
81.5105766129
 10
64.8149535861
 20
88.6620959633
 10
47.6649283968
 20
95.100217049
 10
30.1786413756
 20
100.7956628402
 10
16.2478538644
 20
104.7351286483
 10
2.1887426214
 20
108.1906665618
 10
-11.9288854002
 20
111.1439025136
 10
-26.0201279241
 20
113.5733592239
 10
-40.0
 20
115.4575424171
 10
-54.612371045
 20
116.840950398
 10
-68.9125322494
 20
117.5902021093
 10
-82.8091510572
 20
117.7086899917
 10
-96.2116554818
 20
117.1998209913
 10
-109.054600513
 20
116.0674812596
 10
-121.3028230895
 20
114.3161344661
 10
-132.276456772
 20
112.1019460701
 10
-142.6608728243
 20
109.3462428982
 10
-152.4028958657
 20
106.0614891164
 10
-161.4390062018
 20
102.2637157648
 10
-169.7056274848
 20
97.9689734187
 10
-177.5686372525
 20
92.8928828474
 10
-184.4613729115
 20
87.3196017615
 10
-190.3506633061
 20
81.2929176663
 10
-195.2036702474
 20
74.8562962573
 10
-198.9985557774
 20
68.0425715891
 10
-201.726738943
 20
60.8717649199
 10
-203.3150130141
 20
53.8009638525
 10
-203.9416837896
 20
46.4482731394
 10
-203.6013568779
 20
38.8496938402
 10
-202.2891041425
 20
31.0493745494
 10
-200.0
 20
23.0915084834
 10
-196.5076040096
 20
14.5294243727
 10
-191.9552430559
 20
5.8983629629
 10
-186.387338597
 20
-2.7431433031
 10
-179.848022407
 20
-11.3370315951
 10
-172.3718559601
 20
-19.8407536996
 10
-163.9818670171
 20
-28.2304589509
 10
-152.9508886169
 20
-37.94102269
 10
-140.731676241
 20
-47.4146566473
 10
-127.4235525572
 20
-56.5687716955
 10
-113.1370849898
 20
-65.3126489458
  0
SPLINE
  5
D7
330
CE
100
AcDbEntity
  8
0
  6
Continuous
 62
     7
370
    25
100
AcDbSpline
210
0.0
220
0.0
230
1.0
 70
     8
 71
     3
 72
    23
 73
    19
 74
     0
 42
0.000000001
 43
0.00000001
 40
0.0
 40
0.0
 40
0.0
 40
0.0
 40
0.0530270198141796
 40
0.1191932410330575
 40
0.1853594622519353
 40
0.2512176559555406
 40
0.3160428979962652
 40
0.3797692709495772
 40
0.4434956439028425
 40
0.5083208859432706
 40
0.5741790796465784
 40
0.6403453008654003
 40
0.706511522084334
 40
0.7723697157882372
 40
0.8371949578292586
 40
0.9009213307826175
 40
0.9646477037359296
 40
1.0
 40
1.0
 40
1.0
 40
1.0
 10
-20.86697099638765
 20
-100.6857150325097
 30
0.0
 10
-20.33368593491888
 20
-100.0481674982644
 30
0.0
 10
-19.13497676563651
 20
-98.61509890067732
 30
0.0
 10
-16.36350353058775
 20
-96.69941181024606
 30
0.0
 10
-12.80082620287477
 20
-95.02373830480906
 30
0.0
 10
-8.756805698638944
 20
-93.79373959520096
 30
0.0
 10
-4.442987293230033
 20
-93.0309671159731
 30
0.0
 10
0.0000710253132211
 20
-92.77473558054608
 30
0.0
 10
4.442700742506505
 20
-93.03103639221466
 30
0.0
 10
8.757834152974743
 20
-93.7934550263956
 30
0.0
 10
12.79693312261855
 20
-95.02482596532201
 30
0.0
 10
16.37809504074998
 20
-96.69533238118414
 30
0.0
 10
19.27248989003304
 20
-98.76290095169686
 30
0.0
 10
21.40318367722685
 20
-101.0941885845667
 30
0.0
 10
22.73235163850457
 20
-103.5867612132396
 30
0.0
 10
23.14532193822085
 20
-106.1459747417477
 30
0.0
 10
22.8676951173145
 20
-108.3350326092549
 30
0.0
 10
22.13616648277726
 20
-109.588036979913
 30
0.0
 10
21.87514948266928
 20
-110.0351219284854
 30
0.0
  0
SPLINE
  5
D8
330
CE
100
AcDbEntity
  8
0
  6
Continuous
 62
     7
370
    25
100
AcDbSpline
210
0.0
220
0.0
230
1.0
 70
     8
 71
     3
 72
    13
 73
     9
 74
     0
 42
0.000000001
 43
0.00000001
 40
0.0
 40
0.0
 40
0.0
 40
0.0
 40
0.1349047294939427
 40
0.3444796646268511
 40
0.5576684162534522
 40
0.774254203796442
 40
0.9918529918224561
 40
1.0
 40
1.0
 40
1.0
 40
1.0
 10
-2.824963214137064
 20
-105.2697912999619
 30
0.0
 10
-1.884474672944071
 20
-105.1974747495241
 30
0.0
 10
0.5170658695623029
 20
-105.0128142032614
 30
0.0
 10
4.441771508729015
 20
-105.2938000683684
 30
0.0
 10
8.77055696010132
 20
-106.031243890777
 30
0.0
 10
12.74603906016184
 20
-107.2997097403989
 30
0.0
 10
15.34088018201538
 20
-108.3493727866178
 30
0.0
 10
16.33568900534624
 20
-109.0608488487671
 30
0.0
 10
16.37159096124118
 20
-109.0865255231236
 30
0.0
  0
VIEWPORT
  5
F9
330
CE
100
AcDbEntity
  8
0
100
AcDbViewport
 10
0.0
 20
0.0
 30
0.0
 40
205.6
 41
156.0
 68
     1
 69
     1
 12
0.0
 22
-22.1213475732
 13
0.0
 23
0.0
 14
10.0
 24
10.0
 15
10.0
 25
10.0
 16
0.0
 26
0.0
 36
1.0
 17
0.0
 27
0.0
 37
0.0
 42
50.0
 43
0.0
 44
0.0
 45
315.6731587996
 50
0.0
 51
0.0
 72
   100
 90
   557152
  1

281
     0
 71
     1
 74
     0
110
0.0
120
0.0
130
0.0
111
1.0
121
0.0
131
0.0
112
0.0
122
1.0
132
0.0
 79
     0
146
0.0
170
     0
 61
     5
348
2F
292
     1
282
     1
141
0.0
142
0.0
 63
   256
361
FA
  0
ENDBLK
  5
D1
330
CE
100
AcDbEntity
  8
0
100
AcDbBlockEnd
  0
BLOCK
  5
DB
330
D9
100
AcDbEntity
  8
0
100
AcDbBlockBegin
  2
*Paper_Space7
 70
     0
 10
0.0
 20
0.0
 30
0.0
  3
*Paper_Space7
  1

  0
SPLINE
  5
DD
330
D9
100
AcDbEntity
  8
0
  6
Continuous
 62
     7
370
    25
100
AcDbSpline
210
0.0
220
0.0
230
1.0
 70
     8
 71
     3
 72
    82
 73
    78
 74
     0
 42
0.000000001
 43
0.00000001
 40
0.0
 40
0.0
 40
0.0
 40
0.0
 40
0.0007289123928627
 40
0.0050867518062813
 40
0.0087499602417036
 40
0.0116840177485314
 40
0.0147625070607837
 40
0.0206010399078528
 40
0.0279243283222141
 40
0.0346543714175975
 40
0.0402973868437236
 40
0.0454727254291189
 40
0.0552647733292207
 40
0.0658858336225539
 40
0.0764513675809209
 40
0.0859486248935166
 40
0.0961344899453861
 40
0.1072340621308678
 40
0.124286865500302
 40
0.1395939409739382
 40
0.1532929938521576
 40
0.1659173184617405
 40
0.1732307564611613
 40
0.1812176869740824
 40
0.1898787397488927
 40
0.1989732561350988
 40
0.2084353541438414
 40
0.2182594207004179
 40
0.2267235089517554
 40
0.232019160486346
 40
0.23530246132574
 40
0.2382170286592329
 40
0.2417113392097826
 40
0.2457925043245505
 40
0.2555497261431788
 40
0.267676569210626
 40
0.2805754106677998
 40
0.295340320240434
 40
0.3105890169713311
 40
0.3259679903700243
 40
0.3613075451933092
 40
0.3970424934896838
 40
0.4330901936619241
 40
0.4694019262305379
 40
0.5055235663128514
 40
0.5407647488425993
 40
0.5748969742402144
 40
0.6077317109017063
 40
0.625854005851938
 40
0.6434847340017319
 40
0.6606433762059544
 40
0.6773211673946862
 40
0.693503015744783
 40
0.7091764780381993
 40
0.7237343363475123
 40
0.7363796965261766
 40
0.7518715254998048
 40
0.776216029767082
 40
0.7947598073556741
 40
0.8141510336740314
 40
0.834103811775996
 40
0.8507768753709531
 40
0.8706126218173998
 40
0.8888419102449472
 40
0.9021465842909187
 40
0.9214879017412613
 40
0.9342314404114106
 40
0.9534680220675915
 40
0.9609971728383984
 40
0.9673860645498537
 40
0.9737188505939628
 40
0.9807484636606654
 40
0.9863855413225964
 40
0.9921776295864899
 40
0.9969576479171227
 40
0.9999544735866256
 40
0.9999999999999999
 40
0.9999999999999999
 40
0.9999999999999999
 40
0.9999999999999999
 10
183.179182178711
 20
-66.18406650031764
 30
0.0
 10
183.1837076623583
 20
-66.17908162780338
 30
0.0
 10
183.2152889776746
 20
-66.1442944441661
 30
0.0
 10
182.7973004467424
 20
-66.53211907814169
 30
0.0
 10
182.4113775816979
 20
-66.86431079187102
 30
0.0
 10
182.0044519259232
 20
-67.20753999634884
 30
0.0
 10
181.4672507822008
 20
-67.64498105976719
 30
0.0
 10
180.6570403309591
 20
-68.27531728874764
 30
0.0
 10
179.5668373920001
 20
-69.06786872198627
 30
0.0
 10
178.37913550658
 20
-69.87371511117556
 30
0.0
 10
177.2256774082596
 20
-70.61141207981129
 30
0.0
 10
175.7503197513927
 20
-71.50795887644045
 30
0.0
 10
173.7372953673203
 20
-72.6491879620706
 30
0.0
 10
171.0301561277972
 20
-74.04563892120512
 30
0.0
 10
168.0981296073484
 20
-75.41930753063919
 30
0.0
 10
164.977615595273
 20
-76.7551104864026
 30
0.0
 10
161.5815783377476
 20
-78.0859974425312
 30
0.0
 10
157.0941615980848
 20
-79.68493888603895
 30
0.0
 10
151.638561410236
 20
-81.39782876131287
 30
0.0
 10
145.5261893172615
 20
-83.05469277569321
 30
0.0
 10
139.7567292859567
 20
-84.42302606887547
 30
0.0
 10
134.9509185045158
 20
-85.42901226438742
 30
0.0
 10
130.8754846169953
 20
-86.2031560538457
 30
0.0
 10
127.3296539791991
 20
-86.82669758647451
 30
0.0
 10
123.4706193914658
 20
-87.44893862642608
 30
0.0
 10
119.3473635229937
 20
-88.052654373309
 30
0.0
 10
115.0062115011646
 20
-88.62428087824668
 30
0.0
 10
110.7243246377838
 20
-89.12552561712003
 30
0.0
 10
107.0592017106303
 20
-89.50598423559335
 30
0.0
 10
104.3974494163315
 20
-89.75665389093967
 30
0.0
 10
102.5958453164285
 20
-89.91572164677669
 30
0.0
 10
101.0709519930289
 20
-90.04394878073072
 30
0.0
 10
99.41682023503812
 20
-90.17592756445201
 30
0.0
 10
96.67733786237753
 20
-90.38074862613269
 30
0.0
 10
92.55900765574063
 20
-90.65147361098201
 30
0.0
 10
87.01940651525216
 20
-90.93875395462857
 30
0.0
 10
80.66102322928064
 20
-91.17258543152762
 30
0.0
 10
73.78675233139897
 20
-91.31641471945608
 30
0.0
 10
66.5040654927796
 20
-91.34979091785456
 30
0.0
 10
55.9172800824491
 20
-91.22950880951541
 30
0.0
 10
42.05548349147424
 20
-90.72021832832903
 30
0.0
 10
24.99362821783103
 20
-89.52313956795238
 30
0.0
 10
7.959365370807047
 20
-87.77645562114395
 30
0.0
 10
-8.891298117512422
 20
-85.51593596160828
 30
0.0
 10
-25.32692489131688
 20
-82.8010290066855
 30
0.0
 10
-41.11442727808823
 20
-79.71501720406566
 30
0.0
 10
-56.07287456682529
 20
-76.34386674927069
 30
0.0
 10
-68.22100991723028
 20
-73.24068164597007
 30
0.0
 10
-77.79961319372892
 20
-70.5613002643351
 30
0.0
 10
-85.0678474904533
 20
-68.40091580605157
 30
0.0
 10
-92.01640575100741
 20
-66.21404947701893
 30
0.0
 10
-98.64834344502592
 20
-64.01033299317808
 30
0.0
 10
-104.9624513520115
 20
-61.80036372665141
 30
0.0
 10
-110.8820939340081
 20
-59.6222238163795
 30
0.0
 10
-116.2385715497359
 20
-57.55570010415163
 30
0.0
 10
-121.4774372312602
 20
-55.4456757680296
 30
0.0
 10
-127.7356794880284
 20
-52.80978638484558
 30
0.0
 10
-134.4906347310926
 20
-49.77706565106772
 30
0.0
 10
-141.4239961503293
 20
-46.43411888153847
 30
0.0
 10
-147.5858895057575
 20
-43.26444195215034
 30
0.0
 10
-153.2718997744304
 20
-40.12891324166055
 30
0.0
 10
-158.6877192373752
 20
-36.93346938580789
 30
0.0
 10
-163.6330053143165
 20
-33.80488227466419
 30
0.0
 10
-168.0040203787706
 20
-30.81285164898666
 30
0.0
 10
-171.9422208448993
 20
-27.92361852696803
 30
0.0
 10
-175.1856431612554
 20
-25.35363209262079
 30
0.0
 10
-178.4491820554993
 20
-22.53820560058573
 30
0.0
 10
-180.5581227274281
 20
-20.5407983353951
 30
0.0
 10
-182.1213689917965
 20
-18.92747813159136
 30
0.0
 10
-182.9722537380952
 20
-18.00459363852019
 30
0.0
 10
-183.7189888719473
 20
-17.15610735117735
 30
0.0
 10
-184.3484271560035
 20
-16.40146999645904
 30
0.0
 10
-184.8729417009405
 20
-15.74270513899348
 30
0.0
 10
-185.3154114910824
 20
-15.15131147075049
 30
0.0
 10
-185.5720504513107
 20
-14.80494416343241
 30
0.0
 10
-185.8548280174962
 20
-14.38187686890432
 30
0.0
 10
-185.8028429575937
 20
-14.46372733457964
 30
0.0
 10
-185.8020650419344
 20
-14.46495216261851
 30
0.0
  0
SPLINE
  5
DE
330
D9
100
AcDbEntity
  8
0
  6
Continuous
 62
     7
370
    25
100
AcDbSpline
210
0.0
220
0.0
230
1.0
 70
     8
 71
     3
 72
   112
 73
   108
 74
     0
 42
0.000000001
 43
0.00000001
 40
0.0
 40
0.0
 40
0.0
 40
0.0
 40
0.010747488896505
 40
0.0194882278471812
 40
0.0262115133909929
 40
0.0311651495122107
 40
0.0373963197108126
 40
0.0449266395017357
 40
0.0494048715459068
 40
0.0533811382043563
 40
0.057011351805313
 40
0.0603762810282533
 40
0.0646291698598131
 40
0.0701787132594565
 40
0.0759485839469697
 40
0.0810519797889291
 40
0.0849815829764122
 40
0.0893782272845618
 40
0.0943910540494898
 40
0.1002078814623221
 40
0.106439525856197
 40
0.1112589097561067
 40
0.1150746055532543
 40
0.118981603299771
 40
0.1232181148517118
 40
0.1283657277666754
 40
0.1459582076461819
 40
0.1588277410475127
 40
0.1761391025883041
 40
0.192251179797858
 40
0.2056622294952344
 40
0.2198666273571641
 40
0.2364906061966721
 40
0.2527564526815169
 40
0.2658627679963488
 40
0.2785323063719632
 40
0.2905602687654785
 40
0.2981380147382873
 40
0.3069168996331651
 40
0.3160457044805859
 40
0.3242658458010943
 40
0.3291063805516483
 40
0.3334771173711819
 40
0.337705713523633
 40
0.3421192485224982
 40
0.3477681468724748
 40
0.3541931515597306
 40
0.3594093888777618
 40
0.3637737288920726
 40
0.3674411777121828
 40
0.3709576795596917
 40
0.3755425534585756
 40
0.3855687040119405
 40
0.3940922161028363
 40
0.4016033543277637
 40
0.4098320655836175
 40
0.4179852414749769
 40
0.4252992412656703
 40
0.4331708811349275
 40
0.4424403387847536
 40
0.457795691014664
 40
0.4701115850638135
 40
0.4815423928524186
 40
0.4935189759272912
 40
0.5081241949405455
 40
0.5239342600488144
 40
0.540946384701741
 40
0.5585153879084132
 40
0.5762230708541289
 40
0.5939935374850769
 40
0.608351419172449
 40
0.6217941342482812
 40
0.6401598949688918
 40
0.6568914461598174
 40
0.6741183342943025
 40
0.6919007534643413
 40
0.70869012887522
 40
0.7281118364829494
 40
0.7445181737331155
 40
0.7598471272279195
 40
0.7761344083023062
 40
0.7926879475272386
 40
0.8069418655484204
 40
0.8207068047952717
 40
0.8388239864458312
 40
0.8523378148303977
 40
0.8687342100629051
 40
0.874390941075275
 40
0.8792500386706543
 40
0.8838230186518168
 40
0.8902889221574024
 40
0.8971699910191858
 40
0.9020845876250901
 40
0.9064299798932066
 40
0.9115893144977825
 40
0.9182177991361208
 40
0.9258333994018365
 40
0.9323055301838452
 40
0.937825745894328
 40
0.9446855400265248
 40
0.9523667205715928
 40
0.9599835997516959
 40
0.9667212773300828
 40
0.9727432360049829
 40
0.979786540614039
 40
0.9888433704445347
 40
1.0
 40
1.0
 40
1.0
 40
1.0
 10
-222.4298117360523
 20
16.5942981882711
 30
0.0
 10
-221.7106564993026
 20
14.70727260725499
 30
0.0
 10
-220.4066252743131
 20
11.28556314279949
 30
0.0
 10
-218.5243537989366
 20
6.718667579951848
 30
0.0
 10
-217.0039392595647
 20
3.181665614265889
 30
0.0
 10
-215.6335371977365
 20
0.102775885061919
 30
0.0
 10
-214.1650822106609
 20
-3.094197641339037
 30
0.0
 10
-212.6884312118079
 20
-6.188610112188429
 30
0.0
 10
-211.3602264237336
 20
-8.882858394258529
 30
0.0
 10
-210.3380998987769
 20
-10.91001234121827
 30
0.0
 10
-209.3955356466535
 20
-12.74229896618918
 30
0.0
 10
-208.4156526311262
 20
-14.61272499280206
 30
0.0
 10
-207.2515374354294
 20
-16.79161288560496
 30
0.0
 10
-205.8481201868766
 20
-19.35370821272513
 30
0.0
 10
-204.3355298263345
 20
-22.03782364875882
 30
0.0
 10
-202.9442287115515
 20
-24.44119707450922
 30
0.0
 10
-201.6620352974138
 20
-26.60775168119178
 30
0.0
 10
-200.3701098648841
 20
-28.74725324800841
 30
0.0
 10
-198.8713934601692
 20
-31.17392403528921
 30
0.0
 10
-197.1616439490633
 20
-33.87216501676383
 30
0.0
 10
-195.4372155677443
 20
-36.51780561498001
 30
0.0
 10
-193.8899392622186
 20
-38.83152038643765
 30
0.0
 10
-192.5675148215978
 20
-40.77005468347038
 30
0.0
 10
-191.2920550671718
 20
-42.60699607630274
 30
0.0
 10
-189.8570308324197
 20
-44.6357817647505
 30
0.0
 10
-186.9055172195553
 20
-48.72091584886931
 30
0.0
 10
-182.8760342121754
 20
-54.02130494865562
 30
0.0
 10
-177.2504098251991
 20
-60.93983251664489
 30
0.0
 10
-171.5894437038973
 20
-67.45842304088406
 30
0.0
 10
-165.6291671544579
 20
-73.8409985490214
 30
0.0
 10
-159.8858933662559
 20
-79.60999239978122
 30
0.0
 10
-153.9149064133912
 20
-85.26150832550303
 30
0.0
 10
-147.3700939768197
 20
-91.05822887685243
 30
0.0
 10
-140.7929580820764
 20
-96.4832753338461
 30
0.0
 10
-134.6374573315279
 20
-101.2446724530992
 30
0.0
 10
-128.991322024662
 20
-105.3695725757579
 30
0.0
 10
-124.0825927900798
 20
-108.7618399557634
 30
0.0
 10
-119.7080599423919
 20
-111.6523064801965
 30
0.0
 10
-115.7346823796394
 20
-114.1796596855242
 30
0.0
 10
-111.6152293789202
 20
-116.6911648335325
 30
0.0
 10
-108.0776775829519
 20
-118.7595173799301
 30
0.0
 10
-105.2770140735206
 20
-120.3453398878959
 30
0.0
 10
-103.1060548654947
 20
-121.5467419702443
 30
0.0
 10
-100.9942817858826
 20
-122.6903669791361
 30
0.0
 10
-98.66455119049759
 20
-123.9245667908268
 30
0.0
 10
-95.96508118165009
 20
-125.3180531481335
 30
0.0
 10
-93.11094821709945
 20
-126.7455592419858
 30
0.0
 10
-90.45153400095072
 20
-128.0349738304542
 30
0.0
 10
-88.24207898301084
 20
-129.0787708793666
 30
0.0
 10
-86.30891015380772
 20
-129.9721095396571
 30
0.0
 10
-84.33704087433253
 20
-130.8653202346509
 30
0.0
 10
-81.28663060604799
 20
-132.2159927631934
 30
0.0
 10
-77.35651887772173
 20
-133.8846970250663
 30
0.0
 10
-72.88760322187157
 20
-135.6803871683125
 30
0.0
 10
-68.70735783911748
 20
-137.2792271745633
 30
0.0
 10
-64.56281627780311
 20
-138.7868502858772
 30
0.0
 10
-60.42232462172333
 20
-140.212999666872
 30
0.0
 10
-56.32573817718506
 20
-141.5498421998517
 30
0.0
 10
-52.0164731073146
 20
-142.8799807694629
 30
0.0
 10
-46.24752178300637
 20
-144.5463406270337
 30
0.0
 10
-39.6099451114437
 20
-146.2731045896567
 30
0.0
 10
-32.5448575723398
 20
-147.8908273011594
 30
0.0
 10
-26.08146887226984
 20
-149.2047068810182
 30
0.0
 10
-19.1739349675838
 20
-150.4385005230648
 30
0.0
 10
-11.42916908762964
 20
-151.6089769743739
 30
0.0
 10
-2.701211033912285
 20
-152.6570755925062
 30
0.0
 10
6.650653344541575
 20
-153.4699068832072
 30
0.0
 10
16.40626902932015
 20
-153.9776721184566
 30
0.0
 10
26.32951626222122
 20
-154.1417336739933
 30
0.0
 10
35.67474941419141
 20
-153.9610375271315
 30
0.0
 10
44.21381845859466
 20
-153.5115633697922
 30
0.0
 10
52.80324938015335
 20
-152.8062064509687
 30
0.0
 10
61.81894371929953
 20
-151.7539479978153
 30
0.0
 10
71.5240642292955
 20
-150.2406119166366
 30
0.0
 10
81.01723012187766
 20
-148.3891623502857
 30
0.0
 10
90.44352992544188
 20
-146.1569206649832
 30
0.0
 10
100.1656628611018
 20
-143.4334202753329
 30
0.0
 10
109.5123435639355
 20
-140.3706951678955
 30
0.0
 10
118.4194092763469
 20
-137.0120961849224
 30
0.0
 10
126.657002619507
 20
-133.5273042528867
 30
0.0
 10
134.7588878666999
 20
-129.7086039888769
 30
0.0
 10
142.5033651492674
 20
-125.6479749697734
 30
0.0
 10
149.6609889020034
 20
-121.5171188371817
 30
0.0
 10
156.8857806652712
 20
-116.9793939370447
 30
0.0
 10
163.7786028950169
 20
-112.2242565976352
 30
0.0
 10
170.8357853755182
 20
-106.8869038332196
 30
0.0
 10
175.8667531120894
 20
-102.7409650554411
 30
0.0
 10
179.5712008998219
 20
-99.4893293146606
 30
0.0
 10
181.6181015695247
 20
-97.63763732805289
 30
0.0
 10
183.7426444898992
 20
-95.66306091752494
 30
0.0
 10
186.0999148468515
 20
-93.40175966941544
 30
0.0
 10
188.4604811842299
 20
-91.04836719938159
 30
0.0
 10
190.5081603465791
 20
-88.93582136360146
 30
0.0
 10
192.3087841102066
 20
-87.02751697159377
 30
0.0
 10
194.293342727314
 20
-84.86513883038279
 30
0.0
 10
196.6302914450702
 20
-82.2292559894944
 30
0.0
 10
199.0669281231181
 20
-79.36280955392945
 30
0.0
 10
201.3162459975742
 20
-76.60266346231751
 30
0.0
 10
203.4280517835474
 20
-73.91536779872925
 30
0.0
 10
205.621155058865
 20
-71.0165625962537
 30
0.0
 10
207.9676731009355
 20
-67.77110798663901
 30
0.0
 10
210.2280440974348
 20
-64.48933958843922
 30
0.0
 10
212.2566752508424
 20
-61.40245478488487
 30
0.0
 10
214.1549918246164
 20
-58.38945476657827
 30
0.0
 10
216.1998356853581
 20
-54.99355507247332
 30
0.0
 10
218.6266013009744
 20
-50.75297448931126
 30
0.0
 10
220.2990133629739
 20
-47.53716456252767
 30
0.0
 10
221.2220855340232
 20
-45.76222839802178
 30
0.0
  0
SPLINE
  5
DF
330
D9
100
AcDbEntity
  8
0
  6
Continuous
 62
     7
370
    25
100
AcDbSpline
210
0.0
220
0.0
230
1.0
 70
     8
 71
     3
 72
    12
 73
     8
 74
     0
 42
0.000000001
 43
0.00000001
 40
0.0
 40
0.0
 40
0.0
 40
0.0
 40
0.0342520726592738
 40
0.3088583797685447
 40
0.5878403749992551
 40
0.8681272060602839
 40
1.0
 40
1.0
 40
1.0
 40
1.0
 10
-4.343161963748779
 20
-86.03862172765128
 30
0.0
 10
-4.081306171008032
 20
-86.00979788731826
 30
0.0
 10
-1.720095604761685
 20
-85.7498870576141
 30
0.0
 10
2.954273985340363
 20
-85.87172920669626
 30
0.0
 10
9.345056791288279
 20
-86.46943616846656
 30
0.0
 10
14.49855470996641
 20
-87.44320201159579
 30
0.0
 10
17.1301502324331
 20
-88.40441782561254
 30
0.0
 10
17.97214404506407
 20
-88.71196424036191
 30
0.0
  0
LWPOLYLINE
  5
E0
330
D9
100
AcDbEntity
  8
0
  6
Continuous
 62
     7
370
    25
100
AcDbPolyline
 90
       85
 70
   128
 43
0.0
 10
-74.6712622288
 20
-72.8814410887
 10
-55.6367440663
 20
-77.6875432865
 10
-36.20141809
 20
-81.8819297337
 10
-16.5582309063
 20
-85.4324075049
 10
3.1207102955
 20
-88.3109956988
 10
22.7409131819
 20
-90.5054007835
 10
38.0657941846
 20
-91.7439711403
 10
53.2656671438
 20
-92.5505381755
 10
68.2644385253
 20
-92.9200602131
 10
82.9700052146
 20
-92.8471469565
 10
97.2901764164
 20
-92.3264061997
 10
111.9583991967
 20
-91.2826023631
 10
126.0038705647
 20
-89.7457643104
 10
139.3410688574
 20
-87.7326779723
 10
151.8852064674
 20
-85.2600259382
 10
163.5757468262
 20
-82.3410767085
 10
174.3813796724
 20
-78.9849842702
 10
183.7324766661
 20
-75.4282855656
 10
192.2435749969
 20
-71.4996576546
 10
199.8702492936
 20
-67.2178140392
 10
206.5600164433
 20
-62.6060821592
 10
212.2603492026
 20
-57.6878147241
 10
217.1752949579
 20
-52.1649571658
 10
220.9088666472
 20
-46.3659204978
 10
223.4517774417
 20
-40.3330738067
 10
224.7948939661
 20
-34.108461227
 10
224.9341524851
 20
-27.723391435
 10
223.8715989761
 20
-21.1962351953
 10
221.771166165
 20
-14.9277332931
 10
218.6078038958
 20
-8.5652473847
 10
214.3947787406
 20
-2.1402840342
 10
209.1499714835
 20
4.3087764799
 10
202.8912881799
 20
10.7435162332
 10
195.1738483452
 20
17.5102124586
 10
186.4084446962
 20
24.1744507106
 10
176.6674653371
 20
30.6930979827
 10
166.0227813315
 20
37.0233774794
 10
154.529182259
 20
43.1342805462
 10
142.2208718295
 20
49.008980986
 10
126.713579448
 20
55.6077589521
 10
110.1922975841
 20
61.8238220482
 10
92.7941747676
 20
67.6018843491
 10
74.6712622284
 20
72.8814410888
 10
55.6367440658
 20
77.6875432866
 10
36.2014180895
 20
81.8819297338
 10
16.5582309059
 20
85.432407505
 10
-3.1207102958
 20
88.3109956988
 10
-22.7409131821
 20
90.5054007836
 10
-38.0657941847
 20
91.7439711403
 10
-53.2656671439
 20
92.5505381755
 10
-68.2644385253
 20
92.9200602131
 10
-82.9700052146
 20
92.8471469565
 10
-97.2901764164
 20
92.3264061997
 10
-111.9583991967
 20
91.2826023631
 10
-126.0038705647
 20
89.7457643104
 10
-139.3410688574
 20
87.7326779723
 10
-151.8852064674
 20
85.2600259382
 10
-163.5757468262
 20
82.3410767085
 10
-174.3813796724
 20
78.9849842702
 10
-183.7324766661
 20
75.4282855656
 10
-192.2435749969
 20
71.4996576546
 10
-199.8702492936
 20
67.2178140392
 10
-206.5600164433
 20
62.6060821592
 10
-212.2603492026
 20
57.6878147241
 10
-217.1752949579
 20
52.1649571658
 10
-220.9088666472
 20
46.3659204978
 10
-223.4517774417
 20
40.3330738067
 10
-224.7948939661
 20
34.108461227
 10
-224.9341524851
 20
27.723391435
 10
-223.8715989761
 20
21.1962351953
 10
-221.771166165
 20
14.9277332931
 10
-218.6078038958
 20
8.5652473847
 10
-214.3947787406
 20
2.1402840342
 10
-209.1499714835
 20
-4.3087764799
 10
-202.8912881799
 20
-10.7435162332
 10
-195.1738483452
 20
-17.5102124586
 10
-186.4084446962
 20
-24.1744507106
 10
-176.6674653371
 20
-30.6930979827
 10
-166.0227813316
 20
-37.0233774794
 10
-154.5291822591
 20
-43.1342805461
 10
-142.2208718297
 20
-49.0089809858
 10
-126.7135794483
 20
-55.607758952
 10
-110.1922975845
 20
-61.823822048
 10
-92.794174768
 20
-67.6018843489
 10
-74.6712622288
 20
-72.8814410887
  0
VIEWPORT
  5
FB
330
D9
100
AcDbEntity
  8
0
100
AcDbViewport
 10
0.0
 20
0.0
 30
0.0
 40
205.6
 41
156.0
 68
     1
 69
     1
 12
0.0
 22
-22.1213475732
 13
0.0
 23
0.0
 14
10.0
 24
10.0
 15
10.0
 25
10.0
 16
0.0
 26
0.0
 36
1.0
 17
0.0
 27
0.0
 37
0.0
 42
50.0
 43
0.0
 44
0.0
 45
315.6731587996
 50
0.0
 51
0.0
 72
   100
 90
   557152
  1

281
     0
 71
     1
 74
     0
110
0.0
120
0.0
130
0.0
111
1.0
121
0.0
131
0.0
112
0.0
122
1.0
132
0.0
 79
     0
146
0.0
170
     0
 61
     5
348
2F
292
     1
282
     1
141
0.0
142
0.0
 63
   256
361
FC
  0
ENDBLK
  5
DC
330
D9
100
AcDbEntity
  8
0
100
AcDbBlockEnd
  0
BLOCK
  5
E3
330
E1
100
AcDbEntity
  8
0
100
AcDbBlockBegin
  2
*Paper_Space8
 70
     0
 10
0.0
 20
0.0
 30
0.0
  3
*Paper_Space8
  1

  0
SPLINE
  5
E5
330
E1
100
AcDbEntity
  8
0
  6
Continuous
 62
     7
370
    25
100
AcDbSpline
210
0.0
220
0.0
230
1.0
 70
     8
 71
     3
 72
   121
 73
   117
 74
     0
 42
0.000000001
 43
0.00000001
 40
0.0
 40
0.0
 40
0.0
 40
0.0
 40
0.0145559114053125
 40
0.0271987957354919
 40
0.0379256515986324
 40
0.0467357892600179
 40
0.0536301227352321
 40
0.061674924224816
 40
0.0691340747263913
 40
0.0757166323425177
 40
0.0814495046172485
 40
0.088413416141226
 40
0.0970316564904587
 40
0.1060937095806436
 40
0.1156104378719667
 40
0.1237484333157768
 40
0.1304485634961405
 40
0.1376695068228715
 40
0.1472154849630588
 40
0.1558663158401956
 40
0.1640444554595344
 40
0.1735226310320689
 40
0.1808132552346765
 40
0.1866894464945758
 40
0.1924818361489457
 40
0.1999780122014982
 40
0.2079637550748701
 40
0.2143660094133334
 40
0.2203635188951747
 40
0.2282955596771422
 40
0.233874887662439
 40
0.2384288305820989
 40
0.2418552422276354
 40
0.2447079189053901
 40
0.2487059883217141
 40
0.2732815062529103
 40
0.2950205851565213
 40
0.3154696039495185
 40
0.3234191100075196
 40
0.3328608704399627
 40
0.3417273949364452
 40
0.3496509384915926
 40
0.3568090479509166
 40
0.3640730706317198
 40
0.3716864974470069
 40
0.3797669173720642
 40
0.3884397059873948
 40
0.3966388915602849
 40
0.4035184350974441
 40
0.4087761978034135
 40
0.413447252917222
 40
0.4193181842451343
 40
0.425665127170475
 40
0.4319123832103239
 40
0.438063733649675
 40
0.445166335933836
 40
0.4510582163053133
 40
0.4564576652920978
 40
0.4628931093320248
 40
0.4704157018228619
 40
0.4790136292501011
 40
0.488090188251467
 40
0.5041687777839562
 40
0.5201052029244534
 40
0.5357853112404497
 40
0.5498862015470646
 40
0.5621553597091887
 40
0.5732650785690401
 40
0.5857142092064802
 40
0.5987488731645481
 40
0.6112189982167224
 40
0.6237010543272866
 40
0.637403004013667
 40
0.651602360638208
 40
0.664674406561618
 40
0.6766629617539981
 40
0.6827963029631643
 40
0.6907930743834066
 40
0.6988628837396702
 40
0.7058262120083073
 40
0.7115075897480023
 40
0.7175067276525912
 40
0.7251542185591656
 40
0.7319935491850551
 40
0.7446441093430383
 40
0.7574519890141997
 40
0.7696254524604194
 40
0.7846592403388558
 40
0.7968255375282233
 40
0.8040865214326545
 40
0.8120615821143253
 40
0.8201690401963349
 40
0.8275191524321698
 40
0.8333083202727426
 40
0.8385053183076124
 40
0.8439386869590868
 40
0.8495409257616395
 40
0.8568872505501095
 40
0.8648073898640982
 40
0.8740924349547704
 40
0.8847757249687831
 40
0.8941544344149195
 40
0.9039111073244966
 40
0.9124409751017374
 40
0.9196209891148311
 40
0.9249861881385562
 40
0.9296634456138368
 40
0.9338991979589457
 40
0.9376939993076003
 40
0.9413687217650779
 40
0.9461879699974718
 40
0.952994682486288
 40
0.9617852856196353
 40
0.9725546930780867
 40
0.9852959895742567
 40
1.0
 40
1.0
 40
1.0
 40
1.0
 10
-230.4339194007455
 20
9.794992237739677
 30
0.0
 10
-229.369246937237
 20
7.183707719090923
 30
0.0
 10
-227.3798277896595
 20
2.304329695117915
 30
0.0
 10
-224.3288481529354
 20
-4.379556888318412
 30
0.0
 10
-221.598966413325
 20
-9.982516872015088
 30
0.0
 10
-219.2493653884289
 20
-14.53005715837773
 30
0.0
 10
-217.0642413471582
 20
-18.57539263767147
 30
0.0
 10
-214.9375543962251
 20
-22.35171615293786
 30
0.0
 10
-212.7749325998323
 20
-26.03319819679249
 30
0.0
 10
-210.7847785022831
 20
-29.29649543982059
 30
0.0
 10
-208.7971563396096
 20
-32.45182047431814
 30
0.0
 10
-206.5500949257841
 20
-35.90345610205041
 30
0.0
 10
-203.8797275590909
 20
-39.84522399879868
 30
0.0
 10
-200.8452153963228
 20
-44.12940862303159
 30
0.0
 10
-197.7738527673771
 20
-48.27018317686693
 30
0.0
 10
-194.895478456457
 20
-51.98656554361249
 30
0.0
 10
-192.2307113022495
 20
-55.30550765619748
 30
0.0
 10
-189.3413407058097
 20
-58.78564565202783
 30
0.0
 10
-186.1386042803168
 20
-62.49173875374842
 30
0.0
 10
-182.7338897571414
 20
-66.26469024269366
 30
0.0
 10
-179.267358132196
 20
-69.95590859064933
 30
0.0
 10
-175.9097726280304
 20
-73.3851475508766
 30
0.0
 10
-172.8001731645784
 20
-76.43804717208553
 30
0.0
 10
-170.1583893356088
 20
-78.95234351796108
 30
0.0
 10
-167.4585914681717
 20
-81.4521188581091
 30
0.0
 10
-164.4187177658555
 20
-84.17988668870208
 30
0.0
 10
-161.2385577276749
 20
-86.93068956215646
 30
0.0
 10
-158.2338200983739
 20
-89.44198468632685
 30
0.0
 10
-155.2088102779312
 20
-91.89617844748949
 30
0.0
 10
-152.2691200113377
 20
-94.20260215595283
 30
0.0
 10
-149.5100967229752
 20
-96.29754858527356
 30
0.0
 10
-147.4195071195429
 20
-97.84613196389132
 30
0.0
 10
-145.7376796568698
 20
-99.06770943298504
 30
0.0
 10
-144.1386802748957
 20
-100.2112539355357
 30
0.0
 10
-139.2306445533157
 20
-103.6624650810224
 30
0.0
 10
-131.1531750946025
 20
-108.9482085852183
 30
0.0
 10
-120.1397738051171
 20
-115.3340658115713
 30
0.0
 10
-111.6260575706663
 20
-119.7299538147316
 30
0.0
 10
-105.1427832132027
 20
-122.816598447148
 30
0.0
 10
-100.5973836884657
 20
-124.8726566891952
 30
0.0
 10
-96.02006193219948
 20
-126.8313213143689
 30
0.0
 10
-91.81167809917562
 20
-128.5403232295819
 30
0.0
 10
-87.86537472447797
 20
-130.0673947469331
 30
0.0
 10
-83.95259822111142
 20
-131.5114249313221
 30
0.0
 10
-79.85615758874212
 20
-132.949064720861
 30
0.0
 10
-75.48061924021115
 20
-134.4027080052948
 30
0.0
 10
-70.98745862857126
 20
-135.8071377918177
 30
0.0
 10
-66.6450689300168
 20
-137.0823466613599
 30
0.0
 10
-62.79365735239803
 20
-138.1421751145041
 30
0.0
 10
-59.84896141933747
 20
-138.9167924168018
 30
0.0
 10
-57.06654406984342
 20
-139.6191279929171
 30
0.0
 10
-53.9586376486418
 20
-140.3687270968181
 30
0.0
 10
-50.54572152219453
 20
-141.1472745424634
 30
0.0
 10
-47.06856729613402
 20
-141.8944605857567
 30
0.0
 10
-43.44100628311476
 20
-142.6272631592297
 30
0.0
 10
-39.8626082091635
 20
-143.3014385445011
 30
0.0
 10
-36.40805767448092
 20
-143.9063334718903
 30
0.0
 10
-33.08320036901084
 20
-144.4501942393542
 30
0.0
 10
-29.46907861853873
 20
-144.9979100924921
 30
0.0
 10
-25.2499574845577
 20
-145.5775028706391
 30
0.0
 10
-20.51684622726964
 20
-146.1490411751204
 30
0.0
 10
-14.13291484892601
 20
-146.8074877963934
 30
0.0
 10
-6.289704323820255
 20
-147.4275279482355
 30
0.0
 10
2.890922438344743
 20
-147.8818553232448
 30
0.0
 10
11.7447029893061
 20
-148.064100249756
 30
0.0
 10
19.90592439164629
 20
-148.0087812918409
 30
0.0
 10
27.18131951438717
 20
-147.7812462072835
 30
0.0
 10
34.12583273805145
 20
-147.4113514663992
 30
0.0
 10
41.20894174357917
 20
-146.8742710728772
 30
0.0
 10
48.54457050305398
 20
-146.1321601841281
 30
0.0
 10
55.86173511572463
 20
-145.1968548072407
 30
0.0
 10
63.27358980908645
 20
-144.051330222508
 30
0.0
 10
70.99163657334722
 20
-142.6345426759092
 30
0.0
 10
78.7591706055347
 20
-140.9586672967478
 30
0.0
 10
86.15363131373174
 20
-139.1208674211623
 30
0.0
 10
91.98024100570443
 20
-137.490563647773
 30
0.0
 10
96.82347219016332
 20
-136.0225011434109
 30
0.0
 10
100.9166538439662
 20
-134.7059235077774
 30
0.0
 10
105.1397267741694
 20
-133.2564868258244
 30
0.0
 10
108.9087386555183
 20
-131.8851951932442
 30
0.0
 10
112.2910355679152
 20
-130.5946625034709
 30
0.0
 10
115.7694339084197
 20
-129.2093664613166
 30
0.0
 10
119.410335356137
 20
-127.6876719002608
 30
0.0
 10
124.2126008493644
 20
-125.5778130426786
 30
0.0
 10
129.8628069026263
 20
-122.9281444453988
 30
0.0
 10
136.337571511145
 20
-119.6316073694958
 30
0.0
 10
143.0929333399744
 20
-115.9144969993165
 30
0.0
 10
149.6050612485048
 20
-112.0261355596392
 30
0.0
 10
155.1686158836344
 20
-108.4294369354169
 30
0.0
 10
159.5112848628108
 20
-105.4617341252542
 30
0.0
 10
163.159302740465
 20
-102.8591937087105
 30
0.0
 10
166.7574498835028
 20
-100.174372647478
 30
0.0
 10
169.9684790789919
 20
-97.67383045837106
 30
0.0
 10
172.698661846138
 20
-95.46953812838714
 30
0.0
 10
175.1106393123144
 20
-93.4628081464129
 30
0.0
 10
177.4688399509115
 20
-91.4431349553013
 30
0.0
 10
180.1025535035655
 20
-89.11864995295029
 30
0.0
 10
183.043606751229
 20
-86.42991159381124
 30
0.0
 10
186.4336290064616
 20
-83.1996140456607
 30
0.0
 10
190.1942319627047
 20
-79.44520498081029
 30
0.0
 10
194.043370233445
 20
-75.38809860013114
 30
0.0
 10
197.832578329062
 20
-71.16904883117066
 30
0.0
 10
201.2420465093013
 20
-67.16746667644077
 30
0.0
 10
204.2885979267093
 20
-63.40478410914849
 30
0.0
 10
206.7411355193724
 20
-60.23836753347486
 30
0.0
 10
208.6971988628209
 20
-57.62090183281843
 30
0.0
 10
210.2873914408965
 20
-55.43058590063397
 30
0.0
 10
211.6784788110393
 20
-53.46419175900934
 30
0.0
 10
212.9390203795569
 20
-51.63981498904126
 30
0.0
 10
214.2411207166334
 20
-49.71308532908334
 30
0.0
 10
215.8283678523931
 20
-47.30410575154428
 30
0.0
 10
217.8938531758547
 20
-44.0569321638494
 30
0.0
 10
220.4704531069621
 20
-39.8080392066575
 30
0.0
 10
223.4819970625992
 20
-34.51584826598797
 30
0.0
 10
226.8579742518853
 20
-28.1472582764647
 30
0.0
 10
229.0542093725334
 20
-23.45747311187138
 30
0.0
 10
230.2308573219724
 20
-20.94488871444139
 30
0.0
  0
SPLINE
  5
E6
330
E1
100
AcDbEntity
  8
0
  6
Continuous
 62
     7
370
    25
100
AcDbSpline
210
0.0
220
0.0
230
1.0
 70
     8
 71
     3
 72
    43
 73
    39
 74
     0
 42
0.000000001
 43
0.00000001
 40
0.0
 40
0.0
 40
0.0
 40
0.0
 40
0.0097250639602284
 40
0.0250789188468722
 40
0.0414337228310954
 40
0.0677480480666715
 40
0.0961769687210577
 40
0.1223453924764872
 40
0.1425822194347235
 40
0.1679277323822367
 40
0.1980186987136359
 40
0.2276057230198467
 40
0.258289342944327
 40
0.2908364350826995
 40
0.3211449545018697
 40
0.3456849150518484
 40
0.3722793887193872
 40
0.3999376951849584
 40
0.4253267416656132
 40
0.4490429648322083
 40
0.4763797357709099
 40
0.5084204869848257
 40
0.5401979088378903
 40
0.5675569229180004
 40
0.5812112229711951
 40
0.5911071129027231
 40
0.5973210290132024
 40
0.6105925909733347
 40
0.629183275289362
 40
0.6532152078585044
 40
0.6828402866252289
 40
0.7171831898607094
 40
0.7533962326241376
 40
0.7913300780126169
 40
0.8309989251928569
 40
0.8724084366583645
 40
0.9377741560776003
 40
1.0
 40
1.0
 40
1.0
 40
1.0
 10
198.196739287351
 20
-37.87804153147182
 30
0.0
 10
198.1965346196937
 20
-37.87764266386376
 30
0.0
 10
198.1960068243407
 20
-37.87661406719705
 30
0.0
 10
198.0704509232285
 20
-37.96448448506721
 30
0.0
 10
197.7857580028897
 20
-38.151173629876
 30
0.0
 10
197.2040358786748
 20
-38.508135248968
 30
0.0
 10
196.1961313593358
 20
-39.0660938792907
 30
0.0
 10
195.0253759565089
 20
-39.65453399722017
 30
0.0
 10
193.6952171036659
 20
-40.27547445012568
 30
0.0
 10
191.9869846709784
 20
-41.0171064327261
 30
0.0
 10
189.8092107744986
 20
-41.88270376156479
 30
0.0
 10
187.1862776427877
 20
-42.83505034227376
 30
0.0
 10
184.2029433561653
 20
-43.82528062049159
 30
0.0
 10
180.9321817313496
 20
-44.8160962308615
 30
0.0
 10
177.6623977989438
 20
-45.72287560488574
 30
0.0
 10
174.4374085850463
 20
-46.5519973688518
 30
0.0
 10
171.1807488211606
 20
-47.33273420554045
 30
0.0
 10
167.7613599636641
 20
-48.09453589897023
 30
0.0
 10
164.3636033293506
 20
-48.79969472172557
 30
0.0
 10
160.885505211427
 20
-49.47600164281502
 30
0.0
 10
156.9970040723887
 20
-50.18244304863416
 30
0.0
 10
152.6228745601686
 20
-50.91658317860981
 30
0.0
 10
148.1471231163973
 20
-51.60620632730594
 30
0.0
 10
144.5145441021718
 20
-52.12279314651119
 30
0.0
 10
141.9474936609059
 20
-52.46788831399329
 30
0.0
 10
140.4374101790458
 20
-52.66434176248411
 30
0.0
 10
138.940326724289
 20
-52.85474936700479
 30
0.0
 10
136.9748716377081
 20
-53.09789122910946
 30
0.0
 10
134.0615521127255
 20
-53.4420681331776
 30
0.0
 10
130.2596209270405
 20
-53.86392174894646
 30
0.0
 10
125.5852704788672
 20
-54.34198596023594
 30
0.0
 10
120.2122950822057
 20
-54.83836108628988
 30
0.0
 10
114.3304619999058
 20
-55.32146164530238
 30
0.0
 10
108.1065977476375
 20
-55.76919091579287
 30
0.0
 10
101.5524222680252
 20
-56.1763626428414
 30
0.0
 10
93.44292380657262
 20
-56.60013317459327
 30
0.0
 10
84.03543009749242
 20
-56.99138749017347
 30
0.0
 10
76.90885355835212
 20
-57.16547058736207
 30
0.0
 10
73.43325354365366
 20
-57.25037014773643
 30
0.0
  0
SPLINE
  5
E7
330
E1
100
AcDbEntity
  8
0
  6
Continuous
 62
     7
370
    25
100
AcDbSpline
210
0.0
220
0.0
230
1.0
 70
     8
 71
     3
 72
    43
 73
    39
 74
     0
 42
0.000000001
 43
0.00000001
 40
0.0
 40
0.0
 40
0.0
 40
0.0
 40
0.0198486204532778
 40
0.05632315039173
 40
0.0915122630716502
 40
0.1252745813301605
 40
0.1550164889434283
 40
0.1795625983598815
 40
0.1975432969614003
 40
0.2113296862621989
 40
0.226446882603336
 40
0.2461008123071512
 40
0.2702234000466515
 40
0.2986586013323439
 40
0.3642446795806005
 40
0.4256089074430505
 40
0.4822670321555341
 40
0.5324123724158115
 40
0.5796530529029238
 40
0.6275447251580311
 40
0.651301988731856
 40
0.6751930616969084
 40
0.6992184085234145
 40
0.7238629453265222
 40
0.7526550119039046
 40
0.7860540672478138
 40
0.8090493290192246
 40
0.8273928407495158
 40
0.8440486669075679
 40
0.8637798898445123
 40
0.8858215429957877
 40
0.9004838605286333
 40
0.9118741555826503
 40
0.9216755088327814
 40
0.9341700852621565
 40
0.9486685338007392
 40
0.9770908440218928
 40
1.0
 40
1.0
 40
1.0
 40
1.0
 10
-71.45552528068266
 20
-47.84562107928483
 30
0.0
 10
-72.68487643894038
 20
-47.66447668232529
 30
0.0
 10
-76.1733269503392
 20
-47.15045490753307
 30
0.0
 10
-81.73029361239982
 20
-46.283871053354
 30
0.0
 10
-88.03989109220589
 20
-45.26054988352139
 30
0.0
 10
-93.80902700585055
 20
-44.27786338143765
 30
0.0
 10
-98.89065103261902
 20
-43.37347392395409
 30
0.0
 10
-103.0249538933701
 20
-42.60933924711891
 30
0.0
 10
-106.2187407002779
 20
-42.00150493558568
 30
0.0
 10
-108.8600150971483
 20
-41.4877214970122
 30
0.0
 10
-111.5638250493191
 20
-40.95120024795281
 30
0.0
 10
-114.809186718719
 20
-40.29171113133129
 30
0.0
 10
-118.7439382501888
 20
-39.46792165458221
 30
0.0
 10
-125.0977894691812
 20
-38.08924738324895
 30
0.0
 10
-133.2635929365183
 20
-36.20051462858829
 30
0.0
 10
-142.5690109484145
 20
-33.85086990817975
 30
0.0
 10
-150.7659459577349
 20
-31.60139808919464
 30
0.0
 10
-157.9657092252871
 20
-29.46637917346938
 30
0.0
 10
-164.4497074603195
 20
-27.39858075509692
 30
0.0
 10
-169.4868577270969
 20
-25.6693303383581
 30
0.0
 10
-173.3448433795576
 20
-24.26578667902731
 30
0.0
 10
-176.137637808868
 20
-23.20834043860406
 30
0.0
 10
-178.8575064248047
 20
-22.13480027409468
 30
0.0
 10
-181.6418692294303
 20
-20.98608907179315
 30
0.0
 10
-184.569372161635
 20
-19.715494271747
 30
0.0
 10
-187.2466794598339
 20
-18.47860388607191
 30
0.0
 10
-189.4419569854298
 20
-17.39927042867533
 30
0.0
 10
-191.0004355834023
 20
-16.59527930500319
 30
0.0
 10
-192.3215162160549
 20
-15.88570669252366
 30
0.0
 10
-193.6453477960388
 20
-15.14312792445346
 30
0.0
 10
-194.823944375954
 20
-14.44455779638312
 30
0.0
 10
-195.7336388849055
 20
-13.87655790606999
 30
0.0
 10
-196.3493461760663
 20
-13.47640189703118
 30
0.0
 10
-196.8380941283338
 20
-13.14817365354244
 30
0.0
 10
-197.297640666945
 20
-12.82878143407442
 30
0.0
 10
-197.8782600043831
 20
-12.40798668142872
 30
0.0
 10
-198.342220686423
 20
-12.03917421856451
 30
0.0
 10
-198.3960671218062
 20
-11.99415084730218
 30
0.0
 10
-198.4200987047394
 20
-11.97405698458443
 30
0.0
  0
LWPOLYLINE
  5
E8
330
E1
100
AcDbEntity
  8
0
  6
Continuous
 62
     7
370
    25
100
AcDbPolyline
 90
       85
 70
   128
 43
0.0
 10
-56.5685424819
 20
-49.8887651468
 10
-36.5247587497
 20
-52.18942669
 10
-16.2303688897
 20
-54.0806851508
 10
4.115424081
 20
-55.5498320883
 10
24.3351090556
 20
-56.5860036752
 10
44.3319648294
 20
-57.1852062086
 10
59.8367020891
 20
-57.3479011309
 10
75.1134989548
 20
-57.2383173866
 10
90.0856353757
 20
-56.8563588875
 10
104.6604211669
 20
-56.2023666617
 10
118.7450786783
 20
-55.2766841309
 10
133.0493129529
 20
-54.0007110083
 10
146.6170188397
 20
-52.4338150381
 10
159.3673702131
 20
-50.5903074698
 10
171.2202444979
 20
-48.4844028772
 10
182.1187623288
 20
-46.1271219661
 10
192.0340560569
 20
-43.5256363292
 10
200.4577701332
 20
-40.8553730074
 10
207.9585068185
 20
-37.9809323179
 10
214.4966833755
 20
-34.9161666385
 10
220.0258310099
 20
-31.6782241876
 10
224.4994432138
 20
-28.2842712342
 10
228.048315136
 20
-24.5344672236
 10
230.3584906535
 20
-20.6560729855
 10
231.430944045
 20
-16.6766821181
 10
231.2667237113
 20
-12.6236731937
 10
229.8693268194
 20
-8.5173209711
 10
227.2452016839
 20
-4.369338999
 10
223.6533951164
 20
-0.4303214721
 10
218.9842417988
 20
3.525167791
 10
213.258483338
 20
7.4774424813
 10
206.5030931198
 20
11.4025923837
 10
198.7450786599
 20
15.2766841496
 10
189.4597071887
 20
19.3037347151
 10
179.1590828502
 20
23.2217164766
 10
167.9254096081
 20
27.0059174429
 10
155.8402927002
 20
30.6318330397
 10
142.9655572326
 20
34.0818111337
 10
129.3391901484
 20
37.3464578582
 10
112.3643383708
 20
40.9440395813
 10
94.4753470559
 20
44.2539694021
 10
75.8216046091
 20
47.2464043543
 10
56.5685424815
 20
49.8887651468
 10
36.5247587492
 20
52.1894266901
 10
16.2303688893
 20
54.0806851508
 10
-4.1154240814
 20
55.5498320883
 10
-24.3351090559
 20
56.5860036752
 10
-44.3319648295
 20
57.1852062086
 10
-59.8367020892
 20
57.3479011309
 10
-75.1134989548
 20
57.2383173866
 10
-90.0856353757
 20
56.8563588875
 10
-104.6604211669
 20
56.2023666617
 10
-118.7450786783
 20
55.2766841309
 10
-133.0493129529
 20
54.0007110083
 10
-146.6170188397
 20
52.4338150381
 10
-159.3673702131
 20
50.5903074698
 10
-171.2202444979
 20
48.4844028772
 10
-182.1187623288
 20
46.1271219661
 10
-192.0340560569
 20
43.5256363292
 10
-200.4577701332
 20
40.8553730074
 10
-207.9585068185
 20
37.9809323179
 10
-214.4966833755
 20
34.9161666385
 10
-220.0258310099
 20
31.6782241876
 10
-224.4994432138
 20
28.2842712342
 10
-228.048315136
 20
24.5344672236
 10
-230.3584906535
 20
20.6560729855
 10
-231.430944045
 20
16.6766821181
 10
-231.2667237113
 20
12.6236731937
 10
-229.8693268194
 20
8.5173209711
 10
-227.2452016839
 20
4.369338999
 10
-223.6533951164
 20
0.4303214721
 10
-218.9842417988
 20
-3.525167791
 10
-213.258483338
 20
-7.4774424813
 10
-206.5030931198
 20
-11.4025923837
 10
-198.7450786599
 20
-15.2766841496
 10
-189.4597071887
 20
-19.3037347151
 10
-179.1590828502
 20
-23.2217164766
 10
-167.9254096082
 20
-27.0059174429
 10
-155.8402927003
 20
-30.6318330397
 10
-142.9655572328
 20
-34.0818111336
 10
-129.3391901486
 20
-37.3464578581
 10
-112.3643383711
 20
-40.9440395812
 10
-94.4753470563
 20
-44.253969402
 10
-75.8216046095
 20
-47.2464043542
 10
-56.5685424819
 20
-49.8887651468
  0
SPLINE
  5
E9
330
E1
100
AcDbEntity
  8
0
  6
Continuous
 62
     7
370
    25
100
AcDbSpline
210
0.0
220
0.0
230
1.0
 70
     8
 71
     3
 72
    15
 73
    11
 74
     0
 42
0.000000001
 43
0.00000001
 40
0.0
 40
0.0
 40
0.0
 40
0.0
 40
0.14032880337093
 40
0.2791469145691142
 40
0.4149958916222345
 40
0.5469812402089946
 40
0.6743634336725618
 40
0.7963537297409095
 40
0.9123797460492081
 40
1.0
 40
1.0
 40
1.0
 40
1.0
 10
-16.79378604932793
 20
-151.5180381864067
 30
0.0
 10
-19.70388637683066
 20
-151.1215610183407
 30
0.0
 10
-25.49275871091372
 20
-150.3328749075486
 30
0.0
 10
-33.65640378983306
 20
-148.8414086378619
 30
0.0
 10
-41.2616727970098
 20
-147.167280466482
 30
0.0
 10
-48.1663213658561
 20
-145.3160335031805
 30
0.0
 10
-54.29094578218101
 20
-143.3250615521463
 30
0.0
 10
-59.49490665914861
 20
-141.2172919587283
 30
0.0
 10
-63.55511486432561
 20
-139.1851920095494
 30
0.0
 10
-65.40275791398003
 20
-137.7936626127764
 30
0.0
 10
-66.19771945692982
 20
-137.1949472080203
 30
0.0
  0
SPLINE
  5
EA
330
E1
100
AcDbEntity
  8
0
  6
Continuous
 62
     7
370
    25
100
AcDbSpline
210
0.0
220
0.0
230
1.0
 70
     8
 71
     3
 72
    21
 73
    17
 74
     0
 42
0.000000001
 43
0.00000001
 40
0.0
 40
0.0
 40
0.0
 40
0.0
 40
0.0104426425626057
 40
0.071636414480764
 40
0.1328301863989077
 40
0.1954420385178216
 40
0.2604876966191387
 40
0.3288198093896748
 40
0.4009874879482435
 40
0.4771630451031901
 40
0.557254382082411
 40
0.6408857077751325
 40
0.7275391824421688
 40
0.8167292782949407
 40
0.9078687252929402
 40
1.0
 40
1.0
 40
1.0
 40
1.0
 10
69.45096527520367
 20
-142.8765170536684
 30
0.0
 10
69.4367220381514
 20
-142.9952107050028
 30
0.0
 10
69.33901358677937
 20
-143.8094478631033
 30
0.0
 10
67.96325045007055
 20
-145.2769201533451
 30
0.0
 10
65.16613960655778
 20
-147.1671534577377
 30
0.0
 10
61.09688838474833
 20
-148.8538885571928
 30
0.0
 10
56.02392178710403
 20
-150.3188454284323
 30
0.0
 10
50.01898159548751
 20
-151.542860395729
 30
0.0
 10
43.20106153787759
 20
-152.5114429118587
 30
0.0
 10
35.68153508998911
 20
-153.2140748475587
 30
0.0
 10
27.5837735482912
 20
-153.6386785001937
 30
0.0
 10
19.04311499795153
 20
-153.7840881623667
 30
0.0
 10
10.19017796371653
 20
-153.6494748609455
 30
0.0
 10
1.164509686902591
 20
-153.2284671632359
 30
0.0
 10
-7.91783648813754
 20
-152.5470978358347
 30
0.0
 10
-13.8244809681682
 20
-151.8622934150781
 30
0.0
 10
-16.79378604932793
 20
-151.5180381864067
 30
0.0
  0
VIEWPORT
  5
FD
330
E1
100
AcDbEntity
  8
0
100
AcDbViewport
 10
0.0
 20
0.0
 30
0.0
 40
205.6
 41
156.0
 68
     1
 69
     1
 12
0.0
 22
-22.1213475732
 13
0.0
 23
0.0
 14
10.0
 24
10.0
 15
10.0
 25
10.0
 16
0.0
 26
0.0
 36
1.0
 17
0.0
 27
0.0
 37
0.0
 42
50.0
 43
0.0
 44
0.0
 45
315.6731587996
 50
0.0
 51
0.0
 72
   100
 90
   557152
  1

281
     0
 71
     1
 74
     0
110
0.0
120
0.0
130
0.0
111
1.0
121
0.0
131
0.0
112
0.0
122
1.0
132
0.0
 79
     0
146
0.0
170
     0
 61
     5
348
2F
292
     1
282
     1
141
0.0
142
0.0
 63
   256
361
FE
  0
ENDBLK
  5
E4
330
E1
100
AcDbEntity
  8
0
100
AcDbBlockEnd
  0
ENDSEC
  0
SECTION
  2
ENTITIES
  0
SPLINE
  5
73
330
1F
100
AcDbEntity
  8
0
  6
Continuous
 62
     7
370
    25
100
AcDbSpline
210
0.0
220
0.0
230
1.0
 70
     8
 71
     3
 72
    75
 73
    71
 74
     0
 42
0.000000001
 43
0.00000001
 40
0.0
 40
0.0
 40
0.0
 40
0.0
 40
0.0099412883204292
 40
0.0181746881829312
 40
0.0247269234245217
 40
0.029617587007621
 40
0.037463579449485
 40
0.0458954327941021
 40
0.0552608056410081
 40
0.0648180524959597
 40
0.0742021084011396
 40
0.0945185312227875
 40
0.114416584805408
 40
0.1339962176098119
 40
0.1505474451675033
 40
0.1667978859190058
 40
0.1818858150759037
 40
0.1955823570873646
 40
0.2078138871995649
 40
0.22005683771636
 40
0.2337356365594271
 40
0.2515930507496557
 40
0.2715964913514249
 40
0.2938551342931803
 40
0.3184796848135036
 40
0.3455687981114154
 40
0.3751939564759689
 40
0.406797045215733
 40
0.4373045880803239
 40
0.4661572110392701
 40
0.4932596327934931
 40
0.5185238268843678
 40
0.5418677567788034
 40
0.5624016109962657
 40
0.5810275676840795
 40
0.5976818246194392
 40
0.6129570413701376
 40
0.6294412883464402
 40
0.6474048646546545
 40
0.666831051399671
 40
0.689652937999104
 40
0.7113378392857524
 40
0.7310601865520601
 40
0.7493656754361774
 40
0.7673700271035264
 40
0.7790333977558151
 40
0.7909788574978701
 40
0.8034230878208342
 40
0.8179672540495393
 40
0.8348456997290631
 40
0.8487243628163302
 40
0.8617521581375579
 40
0.8737612246301396
 40
0.8844775243419684
 40
0.8950254626794651
 40
0.9049447023709845
 40
0.9155823574517298
 40
0.9247974343649573
 40
0.9324178964883802
 40
0.9398729928664477
 40
0.947869830008851
 40
0.9567488833610017
 40
0.9638443425295413
 40
0.9716491379451466
 40
0.9791643560940724
 40
0.9850831223373072
 40
0.9903021530733431
 40
0.998060569525155
 40
0.9999439201552774
 40
1.0
 40
1.0
 40
1.0
 40
1.0
 10
154.4163106579569
 20
-94.7535032081632
 30
0.0
 10
153.7390933718763
 20
-95.21332771167386
 30
0.0
 10
152.5010030349013
 20
-96.05398001958488
 30
0.0
 10
150.6419614088909
 20
-97.19701952562949
 30
0.0
 10
149.0630330951497
 20
-98.1109726152186
 30
0.0
 10
147.4149983919793
 20
-99.01674321976833
 30
0.0
 10
145.3602864107904
 20
-100.0791172752693
 30
0.0
 10
142.8643868488079
 20
-101.2737205435656
 30
0.0
 10
140.1141612734937
 20
-102.4881928872329
 30
0.0
 10
137.1407930007435
 20
-103.6920584141691
 30
0.0
 10
132.8258923242042
 20
-105.2918741521048
 30
0.0
 10
127.0180270563961
 20
-107.1591457123902
 30
0.0
 10
119.5423659822569
 20
-109.1123830224652
 30
0.0
 10
112.1695426911204
 20
-110.6484989243332
 30
0.0
 10
105.0278363823803
 20
-111.8237110486446
 30
0.0
 10
98.33327787965871
 20
-112.6812134275956
 30
0.0
 10
91.94380725792031
 20
-113.2937408484154
 30
0.0
 10
86.06293610269366
 20
-113.6955591095732
 30
0.0
 10
80.55262080516171
 20
-113.943353244251
 30
0.0
 10
75.01837913582553
 20
-114.0766480484939
 30
0.0
 10
68.651434249541
 20
-114.0958318465494
 30
0.0
 10
61.15115898573943
 20
-113.9351489475737
 30
0.0
 10
52.42276936991358
 20
-113.5053684151899
 30
0.0
 10
42.76471191373739
 20
-112.7444099360059
 30
0.0
 10
32.17831571620909
 20
-111.5760150370032
 30
0.0
 10
20.68211548845085
 20
-109.9260141050494
 30
0.0
 10
8.396868868392332
 20
-107.7414136421592
 30
0.0
 10
-4.119278086823372
 20
-105.069964952165
 30
0.0
 10
-16.26081049617797
 20
-102.0491110723206
 30
0.0
 10
-27.53634094371642
 20
-98.8634975408223
 30
0.0
 10
-37.87797192703518
 20
-95.61214057604089
 30
0.0
 10
-47.28761906564231
 20
-92.37076750921145
 30
0.0
 10
-55.67491705677067
 20
-89.24444477423923
 30
0.0
 10
-63.07927837286189
 20
-86.29257457220497
 30
0.0
 10
-69.540385303895
 20
-83.56489010161052
 30
0.0
 10
-75.26037980313369
 20
-81.02665420944466
 30
0.0
 10
-80.6066587844893
 20
-78.54813954763262
 30
0.0
 10
-86.00187391231081
 20
-75.93696338839044
 30
0.0
 10
-91.72745899871285
 20
-73.0342744509554
 30
0.0
 10
-97.97815588360898
 20
-69.70224940609816
 30
0.0
 10
-104.4384346846225
 20
-66.05563452543997
 30
0.0
 10
-110.6967852790322
 20
-62.3009672079274
 30
0.0
 10
-116.2973446035964
 20
-58.74668041285273
 30
0.0
 10
-121.3524760444992
 20
-55.36833445519552
 30
0.0
 10
-125.5279391429157
 20
-52.43522320209384
 30
0.0
 10
-129.0333603388997
 20
-49.86857245112669
 30
0.0
 10
-131.9903705312911
 20
-47.62952943092854
 30
0.0
 10
-135.0938063765651
 20
-45.19473076187112
 30
0.0
 10
-138.4673385181204
 20
-42.43930948434954
 30
0.0
 10
-141.8155422135943
 20
-39.56831162502102
 30
0.0
 10
-144.9149985412074
 20
-36.77441167272392
 30
0.0
 10
-147.5422440080342
 20
-34.2957618587501
 30
0.0
 10
-149.8468584185518
 20
-32.02375842190069
 30
0.0
 10
-151.9042846757485
 20
-29.9089635055965
 30
0.0
 10
-153.7412075555691
 20
-27.94233552099339
 30
0.0
 10
-155.4871552668749
 20
-25.99564636750799
 30
0.0
 10
-157.0834121728941
 20
-24.13820105624125
 30
0.0
 10
-158.4873677675477
 20
-22.43191189857573
 30
0.0
 10
-159.6691182322446
 20
-20.93905503015981
 30
0.0
 10
-160.7323011902395
 20
-19.54691927105712
 30
0.0
 10
-161.7960869847085
 20
-18.09977309040445
 30
0.0
 10
-162.7802533442458
 20
-16.7009783620102
 30
0.0
 10
-163.6949881877341
 20
-15.34332524129797
 30
0.0
 10
-164.5101146529688
 20
-14.08038442524414
 30
0.0
 10
-165.2325754052188
 20
-12.9073799953125
 30
0.0
 10
-165.8462077662533
 20
-11.86588948924523
 30
0.0
 10
-166.3799258489218
 20
-10.9199173273038
 30
0.0
 10
-166.6396203070089
 20
-10.44878160894419
 30
0.0
 10
-166.775834503096
 20
-10.20032627203726
 30
0.0
 10
-166.7657056492746
 20
-10.22917099245568
 30
0.0
 10
-166.7654127671337
 20
-10.23000505558044
 30
0.0
  0
SPLINE
  5
74
330
1F
100
AcDbEntity
  8
0
  6
Continuous
 62
     7
370
    25
100
AcDbSpline
210
0.0
220
0.0
230
1.0
 70
     8
 71
     3
 72
    17
 73
    13
 74
     0
 42
0.000000001
 43
0.00000001
 40
0.0
 40
0.0
 40
0.0
 40
0.0
 40
0.0035618998027944
 40
0.0799129362820087
 40
0.1646120202779767
 40
0.2512412376438597
 40
0.3433505529095555
 40
0.4083134705777751
 40
0.4815130861748368
 40
0.6049204635556498
 40
0.7780024166926334
 40
0.9999999999999999
 40
0.9999999999999999
 40
0.9999999999999999
 40
0.9999999999999999
 10
162.2291338612533
 20
-88.1372552402643
 30
0.0
 10
162.2308950241548
 20
-88.13460559271522
 30
0.0
 10
162.2704075614318
 20
-88.0751594747782
 30
0.0
 10
162.0859647700016
 20
-88.27721990099718
 30
0.0
 10
161.6640741425321
 20
-88.71216512343337
 30
0.0
 10
161.0095606430299
 20
-89.36717164009522
 30
0.0
 10
160.4166700453611
 20
-89.93300069066144
 30
0.0
 10
159.815552715832
 20
-90.48726271274593
 30
0.0
 10
159.0994934420966
 20
-91.1262253615045
 30
0.0
 10
158.0456086483396
 20
-92.02347267826299
 30
0.0
 10
156.4799806554767
 20
-93.27848773566018
 30
0.0
 10
155.1587296158623
 20
-94.22285661674783
 30
0.0
 10
154.4163106579569
 20
-94.75350320816318
 30
0.0
  0
SPLINE
  5
75
330
1F
100
AcDbEntity
  8
0
  6
Continuous
 62
     7
370
    25
100
AcDbSpline
210
0.0
220
0.0
230
1.0
 70
     8
 71
     3
 72
   107
 73
   103
 74
     0
 42
0.000000001
 43
0.00000001
 40
0.0
 40
0.0
 40
0.0
 40
0.0
 40
0.0099577304697502
 40
0.017534491447988
 40
0.0234453372402792
 40
0.0297309539303873
 40
0.0363698289236444
 40
0.041757379688016
 40
0.0462131833969542
 40
0.0511043975906424
 40
0.0567085471256373
 40
0.0640301571277823
 40
0.0716876277387564
 40
0.0781415932145599
 40
0.0843515881566919
 40
0.0898620568964594
 40
0.0952998619132483
 40
0.1013302937474479
 40
0.1092181565493852
 40
0.1177671965930468
 40
0.1260288932993051
 40
0.1329456713383391
 40
0.1545181803017284
 40
0.1793625279650032
 40
0.2060912416070653
 40
0.2317541116958772
 40
0.2565315167404079
 40
0.2803682664939523
 40
0.3037936913598736
 40
0.3316058510302303
 40
0.3569451526638013
 40
0.3821629930912811
 40
0.3909379822317585
 40
0.3995005848941015
 40
0.4098279890272918
 40
0.4211046836680485
 40
0.4304141187359672
 40
0.4377440128286639
 40
0.4437621304868638
 40
0.4486794503460075
 40
0.4543182898036683
 40
0.4617072123021627
 40
0.4709352737524006
 40
0.481962488506667
 40
0.4946754570693227
 40
0.515935453143361
 40
0.5377847231622299
 40
0.5602506378559822
 40
0.5833077659400285
 40
0.5956085843964378
 40
0.608000699537375
 40
0.6193481891041536
 40
0.6292267965785974
 40
0.6376789114394482
 40
0.6447432694831663
 40
0.6536862384332588
 40
0.6630356788222999
 40
0.6772328338046181
 40
0.6911852086358906
 40
0.7055004611809265
 40
0.7184079678244675
 40
0.7335081631120571
 40
0.748585065658285
 40
0.754309560856832
 40
0.7604913276528593
 40
0.767091368421197
 40
0.7737301765882206
 40
0.7791772329160057
 40
0.7841874349363543
 40
0.7895002199483172
 40
0.7959571525546146
 40
0.8020076234802253
 40
0.8072832140766306
 40
0.8120116115380226
 40
0.8163033799767271
 40
0.8253794488859733
 40
0.836355526355052
 40
0.849608392181795
 40
0.8618284998605494
 40
0.8725264351444042
 40
0.8804976667655917
 40
0.8879446437978235
 40
0.8950928832585353
 40
0.9036763499411873
 40
0.913935666966936
 40
0.92273877905447
 40
0.9298694039415845
 40
0.9343691113288684
 40
0.9401636522499058
 40
0.946855297766237
 40
0.9519909099380918
 40
0.9558851670666765
 40
0.9597126432763425
 40
0.9631720050087313
 40
0.9677494437065651
 40
0.973023055092767
 40
0.9771644401740788
 40
0.9795115874878546
 40
0.9822589716885256
 40
0.9865946080847551
 40
0.9925115272280891
 40
1.0
 40
1.0
 40
1.0
 40
1.0
 10
-201.7480673421724
 20
28.8398708768019
 30
0.0
 10
-201.2888427993313
 20
27.12086501768994
 30
0.0
 10
-200.4801978130452
 20
24.09388074379289
 30
0.0
 10
-199.3117055898274
 20
20.07199236058714
 30
0.0
 10
-198.2873919161842
 20
16.6947007679608
 30
0.0
 10
-197.2739827339451
 20
13.49173646216474
 30
0.0
 10
-196.2507220549674
 20
10.39137458672222
 30
0.0
 10
-195.2972950775595
 20
7.611666808705772
 30
0.0
 10
-194.4218865841055
 20
5.136432812437322
 30
0.0
 10
-193.5120794688195
 20
2.636166163354714
 30
0.0
 10
-192.39910619226
 20
-0.3282578066163763
 30
0.0
 10
-191.0714811965646
 20
-3.733980087427098
 30
0.0
 10
-189.6374257904091
 20
-7.259836668740554
 30
0.0
 10
-188.2330488364593
 20
-10.58074119229201
 30
0.0
 10
-186.9412965068824
 20
-13.53282638416247
 30
0.0
 10
-185.6910498925131
 20
-16.30299048822531
 30
0.0
 10
-184.4255047040787
 20
-19.02857397444897
 30
0.0
 10
-182.949492158562
 20
-22.11587276661079
 30
0.0
 10
-181.1880256381034
 20
-25.67412465949213
 30
0.0
 10
-179.1890547687663
 20
-29.55240045687288
 30
0.0
 10
-177.208752873033
 20
-33.24206759145498
 30
0.0
 10
-174.0557581857212
 20
-38.90934127084044
 30
0.0
 10
-169.2563694074422
 20
-46.98488792688141
 30
0.0
 10
-162.172213558039
 20
-57.72519691414371
 30
0.0
 10
-154.1088682512841
 20
-68.64854860316133
 30
0.0
 10
-145.4851091521072
 20
-79.08921008037706
 30
0.0
 10
-136.6695057255711
 20
-88.67557691371903
 30
0.0
 10
-127.66417342878
 20
-97.50724497074742
 30
0.0
 10
-117.8190361426659
 20
-106.2265754975408
 30
0.0
 10
-107.4057964551674
 20
-114.4765727087091
 30
0.0
 10
-96.12447476933181
 20
-122.4011563528002
 30
0.0
 10
-87.317544043557
 20
-127.8759415808564
 30
0.0
 10
-80.83794724491374
 20
-131.5668284148392
 30
0.0
 10
-76.58174520767544
 20
-133.8815162742673
 30
0.0
 10
-71.91839505751474
 20
-136.291553120163
 30
0.0
 10
-67.07453621261295
 20
-138.6506222453673
 30
0.0
 10
-62.63196349275344
 20
-140.6913347971305
 30
0.0
 10
-58.99672733544138
 20
-142.2816159486937
 30
0.0
 10
-56.04694323330094
 20
-143.5212624508449
 30
0.0
 10
-53.35675726178769
 20
-144.6142810995131
 30
0.0
 10
-50.45878095359711
 20
-145.7532042264834
 30
0.0
 10
-46.89691323252426
 20
-147.0958673967626
 30
0.0
 10
-42.45283128614823
 20
-148.6817595148007
 30
0.0
 10
-37.10697584655492
 20
-150.4605443085968
 30
0.0
 10
-29.70771670130445
 20
-152.7176675563708
 30
0.0
 10
-20.38724905992744
 20
-155.1980425684185
 30
0.0
 10
-9.241270520495483
 20
-157.6265047042193
 30
0.0
 10
2.40787301333377
 20
-159.5991660734908
 30
0.0
 10
12.56722186587458
 20
-160.8135062799974
 30
0.0
 10
21.04509888932398
 20
-161.4883295714646
 30
0.0
 10
27.48578920929716
 20
-161.8181563005856
 30
0.0
 10
33.52637241658048
 20
-161.9614457411595
 30
0.0
 10
38.87563882205105
 20
-161.9542530473392
 30
0.0
 10
43.45833622871768
 20
-161.8468963388475
 30
0.0
 10
47.86904659290179
 20
-161.6598237795742
 30
0.0
 10
52.42817752065044
 20
-161.3754705591342
 30
0.0
 10
58.14980804571265
 20
-160.8896253931389
 30
0.0
 10
64.75889711641041
 20
-160.1360774045541
 30
0.0
 10
72.23015139747605
 20
-159.0128544692756
 30
0.0
 10
79.3811679489565
 20
-157.6712376344408
 30
0.0
 10
86.7429221402834
 20
-156.0151649441959
 30
0.0
 10
94.09048268147974
 20
-154.0704319794262
 30
0.0
 10
100.1979012277178
 20
-152.1826383235338
 30
0.0
 10
104.7213858524276
 20
-150.6385860668196
 30
0.0
 10
107.808099145132
 20
-149.527014076147
 30
0.0
 10
111.019615956445
 20
-148.3041155300535
 30
0.0
 10
114.0847052735935
 20
-147.0699631128694
 30
0.0
 10
116.8735415734384
 20
-145.8897686050766
 30
0.0
 10
119.4191866172617
 20
-144.7662266483391
 30
0.0
 10
122.104064355831
 20
-143.5322617484799
 30
0.0
 10
124.93800898407
 20
-142.1693677363763
 30
0.0
 10
127.7409173475086
 20
-140.755825153723
 30
0.0
 10
130.2421025273091
 20
-139.4400370964206
 30
0.0
 10
132.449787563617
 20
-138.2352164090901
 30
0.0
 10
135.2228872563363
 20
-136.6713779959001
 30
0.0
 10
138.902185344393
 20
-134.4946454444437
 30
0.0
 10
143.8411337602557
 20
-131.35958824021
 30
0.0
 10
149.1114448008757
 20
-127.7254176781198
 30
0.0
 10
154.2134057424179
 20
-123.8910191689867
 30
0.0
 10
158.400985532415
 20
-120.4957427217111
 30
0.0
 10
161.8966146268558
 20
-117.4817119580353
 30
0.0
 10
164.8441675411601
 20
-114.8053360455097
 30
0.0
 10
167.7586485126037
 20
-112.0290302823453
 30
0.0
 10
170.9835703203345
 20
-108.7930984794402
 30
0.0
 10
174.2873037504931
 20
-105.2603648526522
 30
0.0
 10
177.2986905143647
 20
-101.8261267962096
 30
0.0
 10
179.5952960258871
 20
-99.05799884686412
 30
0.0
 10
181.4906504203475
 20
-96.67750811546013
 30
0.0
 10
183.2946144623036
 20
-94.32731300286254
 30
0.0
 10
185.1130927175531
 20
-91.84841220772682
 30
0.0
 10
186.6905636174187
 20
-89.60152402368345
 30
0.0
 10
187.9489424977385
 20
-87.74690148391954
 30
0.0
 10
189.0210067396368
 20
-86.11934504628202
 30
0.0
 10
190.1334823725739
 20
-84.38180121373848
 30
0.0
 10
191.352141825987
 20
-82.41700122383502
 30
0.0
 10
192.5971223143946
 20
-80.32834824902405
 30
0.0
 10
193.614538134138
 20
-78.55362629484179
 30
0.0
 10
194.3972804005155
 20
-77.15010684308848
 30
0.0
 10
195.1807287318576
 20
-75.71448532479481
 30
0.0
 10
196.2337281100777
 20
-73.72245000812357
 30
0.0
 10
197.6254172034814
 20
-70.97793351493478
 30
0.0
 10
198.6112781321511
 20
-68.86763303883828
 30
0.0
 10
199.16199628854
 20
-67.6887844265998
 30
0.0
  0
SPLINE
  5
76
330
1F
100
AcDbEntity
  8
0
  6
Continuous
 62
     7
370
    25
100
AcDbSpline
210
0.0
220
0.0
230
1.0
 70
     8
 71
     3
 72
    27
 73
    23
 74
     0
 42
0.000000001
 43
0.00000001
 40
0.0
 40
0.0
 40
0.0
 40
0.0
 40
0.0385010160114473
 40
0.0897385970741445
 40
0.1417926185062807
 40
0.1940901035073364
 40
0.246387588508392
 40
0.2984416099405281
 40
0.3496791910032251
 40
0.4000482308592698
 40
0.4504172707152774
 40
0.50165485177774
 40
0.5537088732096407
 40
0.6060063582106523
 40
0.6583038432117521
 40
0.7103578646441236
 40
0.7615954457070552
 40
0.8119644855631369
 40
0.8623335254191815
 40
0.9135711064818788
 40
0.9656251279140149
 40
1.0
 40
1.0
 40
1.0
 40
1.0
 10
-32.88496869777942
 20
-97.1284156691946
 30
0.0
 10
-32.7833256893464
 20
-96.19694644030224
 30
0.0
 10
-32.54641503284677
 20
-94.02586758374218
 30
0.0
 10
-30.68523922388226
 20
-90.73189570658124
 30
0.0
 10
-27.65825322301684
 20
-87.38519091657315
 30
0.0
 10
-23.49728146987149
 20
-84.41917010911118
 30
0.0
 10
-18.36127896340285
 20
-82.02222567683796
 30
0.0
 10
-12.5654595475879
 20
-80.25550836405742
 30
0.0
 10
-6.374369382436053
 20
-79.16160404245701
 30
0.0
 10
0.0000092755505429
 20
-78.79383441624216
 30
0.0
 10
6.374331960328133
 20
-79.16160530894874
 30
0.0
 10
12.56559385856916
 20
-80.25550316162514
 30
0.0
 10
18.36077054647967
 20
-82.02224556119552
 30
0.0
 10
23.49918704832653
 20
-84.41909552985486
 30
0.0
 10
27.6511570681612
 20
-87.38546865470286
 30
0.0
 10
30.71141023765536
 20
-90.73087138916065
 30
0.0
 10
32.60689941120305
 20
-94.30530242402646
 30
0.0
 10
33.24178364269484
 20
-97.98405522474353
 30
0.0
 10
32.61288266460324
 20
-101.6678902798224
 30
0.0
 10
30.68683258770807
 20
-105.2267282924412
 30
0.0
 10
28.08396057876542
 20
-108.238403493285
 30
0.0
 10
25.70201971499184
 20
-109.8185411351596
 30
0.0
 10
24.75466392717962
 20
-110.4470002893462
 30
0.0
  0
LWPOLYLINE
  5
77
330
1F
100
AcDbEntity
  8
0
  6
Continuous
 62
     7
370
    25
100
AcDbPolyline
 90
       85
 70
   128
 43
0.0
 10
-113.1370849898
 20
-65.3126489458
 10
-97.70815985
 20
-73.704969476
 10
-81.5454910604
 20
-81.5105766127
 10
-64.8149535864
 20
-88.6620959632
 10
-47.6649283971
 20
-95.1002170489
 10
-30.1786413757
 20
-100.7956628402
 10
-16.2478538645
 20
-104.7351286483
 10
-2.1887426214
 20
-108.1906665618
 10
11.9288854002
 20
-111.1439025136
 10
26.0201279241
 20
-113.5733592239
 10
40.0
 20
-115.4575424171
 10
54.612371045
 20
-116.840950398
 10
68.9125322494
 20
-117.5902021093
 10
82.8091510572
 20
-117.7086899917
 10
96.2116554818
 20
-117.1998209913
 10
109.054600513
 20
-116.0674812596
 10
121.3028230895
 20
-114.3161344661
 10
132.276456772
 20
-112.1019460701
 10
142.6608728243
 20
-109.3462428982
 10
152.4028958657
 20
-106.0614891164
 10
161.4390062018
 20
-102.2637157648
 10
169.7056274848
 20
-97.9689734187
 10
177.5686372525
 20
-92.8928828474
 10
184.4613729115
 20
-87.3196017615
 10
190.3506633061
 20
-81.2929176663
 10
195.2036702474
 20
-74.8562962573
 10
198.9985557774
 20
-68.0425715891
 10
201.726738943
 20
-60.8717649199
 10
203.3150130141
 20
-53.8009638525
 10
203.9416837896
 20
-46.4482731394
 10
203.6013568779
 20
-38.8496938402
 10
202.2891041425
 20
-31.0493745494
 10
200.0
 20
-23.0915084834
 10
196.5076040096
 20
-14.5294243727
 10
191.9552430559
 20
-5.8983629629
 10
186.387338597
 20
2.7431433031
 10
179.8480224069
 20
11.3370315952
 10
172.37185596
 20
19.8407536997
 10
163.9818670169
 20
28.230458951
 10
152.9508886167
 20
37.9410226902
 10
140.7316762407
 20
47.4146566475
 10
127.4235525569
 20
56.5687716958
 10
113.1370849895
 20
65.312648946
 10
97.7081598496
 20
73.7049694762
 10
81.5454910601
 20
81.5105766129
 10
64.8149535861
 20
88.6620959633
 10
47.6649283968
 20
95.100217049
 10
30.1786413756
 20
100.7956628402
 10
16.2478538644
 20
104.7351286483
 10
2.1887426214
 20
108.1906665618
 10
-11.9288854002
 20
111.1439025136
 10
-26.0201279241
 20
113.5733592239
 10
-40.0
 20
115.4575424171
 10
-54.612371045
 20
116.840950398
 10
-68.9125322494
 20
117.5902021093
 10
-82.8091510572
 20
117.7086899917
 10
-96.2116554818
 20
117.1998209913
 10
-109.054600513
 20
116.0674812596
 10
-121.3028230895
 20
114.3161344661
 10
-132.276456772
 20
112.1019460701
 10
-142.6608728243
 20
109.3462428982
 10
-152.4028958657
 20
106.0614891164
 10
-161.4390062018
 20
102.2637157648
 10
-169.7056274848
 20
97.9689734187
 10
-177.5686372525
 20
92.8928828474
 10
-184.4613729115
 20
87.3196017615
 10
-190.3506633061
 20
81.2929176663
 10
-195.2036702474
 20
74.8562962573
 10
-198.9985557774
 20
68.0425715891
 10
-201.726738943
 20
60.8717649199
 10
-203.3150130141
 20
53.8009638525
 10
-203.9416837896
 20
46.4482731394
 10
-203.6013568779
 20
38.8496938402
 10
-202.2891041425
 20
31.0493745494
 10
-200.0
 20
23.0915084834
 10
-196.5076040096
 20
14.5294243727
 10
-191.9552430559
 20
5.8983629629
 10
-186.387338597
 20
-2.7431433031
 10
-179.848022407
 20
-11.3370315951
 10
-172.3718559601
 20
-19.8407536996
 10
-163.9818670171
 20
-28.2304589509
 10
-152.9508886169
 20
-37.94102269
 10
-140.731676241
 20
-47.4146566473
 10
-127.4235525572
 20
-56.5687716955
 10
-113.1370849898
 20
-65.3126489458
  0
SPLINE
  5
78
330
1F
100
AcDbEntity
  8
0
  6
Continuous
 62
     7
370
    25
100
AcDbSpline
210
0.0
220
0.0
230
1.0
 70
     8
 71
     3
 72
    23
 73
    19
 74
     0
 42
0.000000001
 43
0.00000001
 40
0.0
 40
0.0
 40
0.0
 40
0.0
 40
0.0530270198141796
 40
0.1191932410330575
 40
0.1853594622519353
 40
0.2512176559555406
 40
0.3160428979962652
 40
0.3797692709495772
 40
0.4434956439028425
 40
0.5083208859432706
 40
0.5741790796465784
 40
0.6403453008654003
 40
0.706511522084334
 40
0.7723697157882372
 40
0.8371949578292586
 40
0.9009213307826175
 40
0.9646477037359296
 40
1.0
 40
1.0
 40
1.0
 40
1.0
 10
-20.86697099638765
 20
-100.6857150325097
 30
0.0
 10
-20.33368593491888
 20
-100.0481674982644
 30
0.0
 10
-19.13497676563651
 20
-98.61509890067732
 30
0.0
 10
-16.36350353058775
 20
-96.69941181024606
 30
0.0
 10
-12.80082620287477
 20
-95.02373830480906
 30
0.0
 10
-8.756805698638944
 20
-93.79373959520096
 30
0.0
 10
-4.442987293230033
 20
-93.0309671159731
 30
0.0
 10
0.0000710253132211
 20
-92.77473558054608
 30
0.0
 10
4.442700742506505
 20
-93.03103639221466
 30
0.0
 10
8.757834152974743
 20
-93.7934550263956
 30
0.0
 10
12.79693312261855
 20
-95.02482596532201
 30
0.0
 10
16.37809504074998
 20
-96.69533238118414
 30
0.0
 10
19.27248989003304
 20
-98.76290095169686
 30
0.0
 10
21.40318367722685
 20
-101.0941885845667
 30
0.0
 10
22.73235163850457
 20
-103.5867612132396
 30
0.0
 10
23.14532193822085
 20
-106.1459747417477
 30
0.0
 10
22.8676951173145
 20
-108.3350326092549
 30
0.0
 10
22.13616648277726
 20
-109.588036979913
 30
0.0
 10
21.87514948266928
 20
-110.0351219284854
 30
0.0
  0
SPLINE
  5
79
330
1F
100
AcDbEntity
  8
0
  6
Continuous
 62
     7
370
    25
100
AcDbSpline
210
0.0
220
0.0
230
1.0
 70
     8
 71
     3
 72
    13
 73
     9
 74
     0
 42
0.000000001
 43
0.00000001
 40
0.0
 40
0.0
 40
0.0
 40
0.0
 40
0.1349047294939427
 40
0.3444796646268511
 40
0.5576684162534522
 40
0.774254203796442
 40
0.9918529918224561
 40
1.0
 40
1.0
 40
1.0
 40
1.0
 10
-2.824963214137064
 20
-105.2697912999619
 30
0.0
 10
-1.884474672944071
 20
-105.1974747495241
 30
0.0
 10
0.5170658695623029
 20
-105.0128142032614
 30
0.0
 10
4.441771508729015
 20
-105.2938000683684
 30
0.0
 10
8.77055696010132
 20
-106.031243890777
 30
0.0
 10
12.74603906016184
 20
-107.2997097403989
 30
0.0
 10
15.34088018201538
 20
-108.3493727866178
 30
0.0
 10
16.33568900534624
 20
-109.0608488487671
 30
0.0
 10
16.37159096124118
 20
-109.0865255231236
 30
0.0
  0
SPLINE
  5
7A
330
1B
100
AcDbEntity
 67
     1
  8
0
  6
Continuous
 62
     7
370
    25
100
AcDbSpline
210
0.0
220
0.0
230
1.0
 70
    11
 71
     3
 72
    35
 73
    31
 74
     0
 42
0.000000001
 43
0.00000001
 40
0.0
 40
0.0
 40
0.0
 40
0.0
 40
0.0062500000000001
 40
0.0083333333333333
 40
0.0416666666666666
 40
0.0833333333333334
 40
0.1249999999999999
 40
0.1666666666666666
 40
0.2083333333333334
 40
0.2499999999999998
 40
0.2916666666666666
 40
0.3333333333333334
 40
0.3750000000000001
 40
0.4166666666666666
 40
0.4583333333333334
 40
0.500000000000984
 40
0.5416666666666667
 40
0.5833333333333333
 40
0.625
 40
0.6666666666666667
 40
0.7083333333333333
 40
0.7499999999999999
 40
0.7916666666666666
 40
0.8333333333333334
 40
0.875
 40
0.9166666666666666
 40
0.9583333333333334
 40
0.9916666666666667
 40
0.99375
 40
1.0
 40
1.0
 40
1.0
 40
1.0
 10
-0.0000000000000054
 20
-33.0
 30
0.0
 10
-0.4388568511917394
 20
-33.0
 30
0.0
 10
-1.023999319447374
 20
-32.98756784255959
 30
0.0
 10
-3.946321791925901
 20
-32.84426857135493
 30
0.0
 10
-9.317081241428124
 20
-31.94578056316644
 30
0.0
 10
-16.87630028773804
 20
-28.79005539188281
 30
0.0
 10
-23.6195160317794
 20
-23.6195160317794
 30
0.0
 10
-28.79005539188281
 20
-16.87630028773805
 30
0.0
 10
-32.17118950397242
 20
-8.77713702383455
 30
0.0
 10
-33.41440524801379
 20
0.0000000000000061
 30
0.0
 10
-32.17118950397243
 20
8.777137023834559
 30
0.0
 10
-28.79005539188281
 20
16.87630028773805
 30
0.0
 10
-23.6195160317794
 20
23.61951603177941
 30
0.0
 10
-16.87630028773804
 20
28.79005539188281
 30
0.0
 10
-8.77713702383455
 20
32.17118950397243
 30
0.0
 10
0.0000000000000139
 20
33.4144052480138
 30
0.0
 10
8.777137023834563
 20
32.17118950397244
 30
0.0
 10
16.87630028773805
 20
28.79005539188281
 30
0.0
 10
23.61951603177941
 20
23.6195160317794
 30
0.0
 10
28.79005539188282
 20
16.87630028773805
 30
0.0
 10
32.17118950397244
 20
8.777137023834559
 30
0.0
 10
33.4144052480138
 20
0.0000000000000104
 30
0.0
 10
32.17118950397243
 20
-8.777137023834557
 30
0.0
 10
28.79005539188281
 20
-16.87630028773805
 30
0.0
 10
23.6195160317794
 20
-23.61951603177941
 30
0.0
 10
16.87630028773805
 20
-28.79005539188281
 30
0.0
 10
9.317081241428115
 20
-31.94578056316646
 30
0.0
 10
3.946321791925883
 20
-32.84426857135495
 30
0.0
 10
1.023999319447356
 20
-32.98756784255959
 30
0.0
 10
0.4388568511917208
 20
-33.0
 30
0.0
 10
-0.0000000000000054
 20
-33.0
 30
0.0
  0
LWPOLYLINE
  5
7B
330
1B
100
AcDbEntity
 67
     1
  8
0
  6
Continuous
 62
     7
370
    25
100
AcDbPolyline
 90
       85
 70
   128
 43
0.0
 10
0.0
 20
-160.0
 10
21.1894629335
 20
-159.3696677479
 10
42.1791088904
 20
-157.5018482985
 10
62.7691211739
 20
-154.4313075804
 10
82.7819305187
 20
-150.1903187074
 10
102.1228265609
 20
-144.8018704884
 10
116.79874426
 20
-139.7766795546
 10
130.9726481071
 20
-134.0679976069
 10
144.5726711492
 20
-127.7026796322
 10
157.512471372
 20
-120.7144535671
 10
169.7056274848
 20
-113.1370849898
 10
181.7326395727
 20
-104.4990837676
 10
192.7621221624
 20
-95.3050844378
 10
202.7336487087
 20
-85.6238241951
 10
211.5873482377
 20
-75.523520197
 10
219.2817041987
 20
-65.0552091141
 10
225.7973200014
 20
-54.2492224341
 10
230.8447410475
 20
-43.7775818979
 10
234.8122329984
 20
-33.0592918302
 10
237.6774622592
 20
-22.147219981
 10
239.4151496853
 20
-11.1059176188
 10
240.0
 20
0.0
 10
239.3423979446
 20
11.77757711
 10
237.3897109683
 20
23.4780643371
 10
234.1721178559
 20
35.0243717983
 10
229.7196386577
 20
46.3400392311
 10
224.0570493031
 20
57.3694071699
 10
217.2028057326
 20
68.0818843739
 10
209.6650193319
 20
77.8658295067
 10
201.1019964103
 20
87.3150987381
 10
191.5540194482
 20
96.3817807661
 10
181.0716803506
 20
105.008314248
 10
169.7056274848
 20
113.1370849898
 10
156.7486256514
 20
121.1550930485
 10
142.9576266567
 20
128.5080814416
 10
128.4357362926
 20
135.1557658058
 10
113.2852802953
 20
141.0582321585
 10
97.5828136709
 20
146.1878027992
 10
81.3738336509
 20
150.5315466677
 10
61.6795021161
 20
154.6257189426
 10
41.4351722595
 20
157.5894729356
 10
20.8122373842
 20
159.3918788075
 10
-0.0000000005
 20
160.0
 10
-21.189462934
 20
159.3696677479
 10
-42.1791088909
 20
157.5018482984
 10
-62.7691211743
 20
154.4313075803
 10
-82.781930519
 20
150.1903187073
 10
-102.122826561
 20
144.8018704884
 10
-116.7987442601
 20
139.7766795546
 10
-130.9726481072
 20
134.0679976069
 10
-144.5726711492
 20
127.7026796322
 10
-157.512471372
 20
120.7144535671
 10
-169.7056274848
 20
113.1370849898
 10
-181.7326395727
 20
104.4990837676
 10
-192.7621221624
 20
95.3050844378
 10
-202.7336487087
 20
85.6238241951
 10
-211.5873482377
 20
75.523520197
 10
-219.2817041987
 20
65.0552091141
 10
-225.7973200014
 20
54.2492224341
 10
-230.8447410475
 20
43.7775818979
 10
-234.8122329984
 20
33.0592918302
 10
-237.6774622592
 20
22.147219981
 10
-239.4151496853
 20
11.1059176188
 10
-240.0
 20
0.0
 10
-239.3423979446
 20
-11.77757711
 10
-237.3897109683
 20
-23.4780643371
 10
-234.1721178559
 20
-35.0243717983
 10
-229.7196386577
 20
-46.3400392311
 10
-224.0570493031
 20
-57.3694071699
 10
-217.2028057326
 20
-68.0818843739
 10
-209.6650193319
 20
-77.8658295066
 10
-201.1019964103
 20
-87.3150987381
 10
-191.5540194482
 20
-96.3817807661
 10
-181.0716803506
 20
-105.008314248
 10
-169.7056274848
 20
-113.1370849898
 10
-156.7486256514
 20
-121.1550930485
 10
-142.9576266567
 20
-128.5080814416
 10
-128.4357362927
 20
-135.1557658058
 10
-113.2852802954
 20
-141.0582321585
 10
-97.5828136711
 20
-146.1878027991
 10
-81.3738336512
 20
-150.5315466676
 10
-61.6795021165
 20
-154.6257189425
 10
-41.43517226
 20
-157.5894729356
 10
-20.8122373847
 20
-159.3918788075
 10
0.0
 20
-160.0
  0
SPLINE
  5
7C
330
1B
100
AcDbEntity
 67
     1
  8
0
  6
Continuous
 62
     7
370
    25
100
AcDbSpline
210
0.0
220
0.0
230
1.0
 70
    11
 71
     3
 72
    35
 73
    31
 74
     0
 42
0.000000001
 43
0.00000001
 40
0.0
 40
0.0
 40
0.0
 40
0.0
 40
0.0062500000000001
 40
0.0083333333333333
 40
0.0416666666666666
 40
0.0833333333333334
 40
0.1249999999999999
 40
0.1666666666666666
 40
0.2083333333333334
 40
0.2499999999999998
 40
0.2916666666666666
 40
0.3333333333333334
 40
0.3750000000000001
 40
0.4166666666666666
 40
0.4583333333333334
 40
0.500000000000984
 40
0.5416666666666667
 40
0.5833333333333333
 40
0.625
 40
0.6666666666666667
 40
0.7083333333333333
 40
0.7499999999999999
 40
0.7916666666666666
 40
0.8333333333333334
 40
0.875
 40
0.9166666666666666
 40
0.9583333333333334
 40
0.9916666666666667
 40
0.99375
 40
1.0
 40
1.0
 40
1.0
 40
1.0
 10
-0.0000000000000027
 20
-23.00000000000001
 30
0.0
 10
-0.3058699265881809
 20
-23.00000000000001
 30
0.0
 10
-0.7136964953724115
 20
-22.99133516299608
 30
0.0
 10
-2.750466703463506
 20
-22.89145991336859
 30
0.0
 10
-6.493723289480209
 20
-22.26524099857056
 30
0.0
 10
-11.76226989751439
 20
-20.06579618222134
 30
0.0
 10
-16.46208693124019
 20
-16.46208693124019
 30
0.0
 10
-20.06579618222134
 20
-11.7622698975144
 30
0.0
 10
-22.42234419973835
 20
-6.117398531763476
 30
0.0
 10
-23.28882790013082
 20
0.0000000000000037
 30
0.0
 10
-22.42234419973835
 20
6.117398531763483
 30
0.0
 10
-20.06579618222134
 20
11.7622698975144
 30
0.0
 10
-16.46208693124019
 20
16.46208693124019
 30
0.0
 10
-11.76226989751439
 20
20.06579618222134
 30
0.0
 10
-6.117398531763476
 20
22.42234419973835
 30
0.0
 10
0.0000000000000115
 20
23.28882790013082
 30
0.0
 10
6.117398531763484
 20
22.42234419973835
 30
0.0
 10
11.7622698975144
 20
20.06579618222135
 30
0.0
 10
16.46208693124019
 20
16.46208693124019
 30
0.0
 10
20.06579618222135
 20
11.76226989751439
 30
0.0
 10
22.42234419973835
 20
6.117398531763478
 30
0.0
 10
23.28882790013082
 20
0.0000000000000054
 30
0.0
 10
22.42234419973836
 20
-6.117398531763477
 30
0.0
 10
20.06579618222136
 20
-11.7622698975144
 30
0.0
 10
16.4620869312402
 20
-16.4620869312402
 30
0.0
 10
11.7622698975144
 20
-20.06579618222136
 30
0.0
 10
6.493723289480202
 20
-22.26524099857057
 30
0.0
 10
2.750466703463496
 20
-22.8914599133686
 30
0.0
 10
0.7136964953724005
 20
-22.99133516299608
 30
0.0
 10
0.3058699265881702
 20
-23.00000000000001
 30
0.0
 10
-0.0000000000000027
 20
-23.00000000000001
 30
0.0
  0
VIEWPORT
  5
EB
330
1B
100
AcDbEntity
 67
     1
  8
0
100
AcDbViewport
 10
0.0
 20
0.0
 30
0.0
 40
205.6
 41
156.0
 68
     1
 69
     1
 12
0.0
 22
-22.1213475732
 13
0.0
 23
0.0
 14
10.0
 24
10.0
 15
10.0
 25
10.0
 16
0.0
 26
0.0
 36
1.0
 17
0.0
 27
0.0
 37
0.0
 42
50.0
 43
0.0
 44
0.0
 45
315.6731587996
 50
0.0
 51
0.0
 72
   100
 90
   557152
  1

281
     0
 71
     1
 74
     0
110
0.0
120
0.0
130
0.0
111
1.0
121
0.0
131
0.0
112
0.0
122
1.0
132
0.0
 79
     0
146
0.0
170
     0
 61
     5
348
2F
292
     1
282
     1
141
0.0
142
0.0
 63
   256
361
EC
  0
ENDSEC
  0
SECTION
  2
OBJECTS
  0
DICTIONARY
  5
C
330
0
100
AcDbDictionary
281
     1
  3
ACAD_DETAILVIEWSTYLE
350
107
  3
ACAD_GROUP
350
D
  3
ACAD_LAYOUT
350
1A
  3
ACAD_MATERIAL
350
43
  3
ACAD_MLEADERSTYLE
350
6B
  3
ACAD_MLINESTYLE
350
17
  3
ACAD_PLOTSETTINGS
350
19
  3
ACAD_PLOTSTYLENAME
350
E
  3
ACAD_SCALELIST
350
47
  3
ACAD_SECTIONVIEWSTYLE
350
108
  3
ACAD_TABLESTYLE
350
69
  3
ACAD_VISUALSTYLE
350
2A
  3
ACDB_RECOMPOSE_DATA
350
104
  3
AcDbVariableDictionary
350
FF
  0
SUN
  5
6D
330
29
100
AcDbSun
 90
        1
290
     0
 63
     7
421
 16777215
 40
1.0
291
     1
 91
  2455826
 92
 54000000
292
     0
 70
     2
 71
   256
280
     1
  0
SUN
  5
EE
330
ED
100
AcDbSun
 90
        1
290
     0
 63
     7
421
 16777215
 40
1.0
291
     1
 91
  2455826
 92
 54000000
292
     0
 70
     2
 71
   256
280
     1
  0
SUN
  5
F0
330
EF
100
AcDbSun
 90
        1
290
     0
 63
     7
421
 16777215
 40
1.0
291
     1
 91
  2455826
 92
 54000000
292
     0
 70
     2
 71
   256
280
     1
  0
SUN
  5
F2
330
F1
100
AcDbSun
 90
        1
290
     0
 63
     7
421
 16777215
 40
1.0
291
     1
 91
  2455826
 92
 54000000
292
     0
 70
     2
 71
   256
280
     1
  0
SUN
  5
F4
330
F3
100
AcDbSun
 90
        1
290
     0
 63
     7
421
 16777215
 40
1.0
291
     1
 91
  2455826
 92
 54000000
292
     0
 70
     2
 71
   256
280
     1
  0
SUN
  5
F6
330
F5
100
AcDbSun
 90
        1
290
     0
 63
     7
421
 16777215
 40
1.0
291
     1
 91
  2455826
 92
 54000000
292
     0
 70
     2
 71
   256
280
     1
  0
SUN
  5
F8
330
F7
100
AcDbSun
 90
        1
290
     0
 63
     7
421
 16777215
 40
1.0
291
     1
 91
  2455826
 92
 54000000
292
     0
 70
     2
 71
   256
280
     1
  0
SUN
  5
FA
330
F9
100
AcDbSun
 90
        1
290
     0
 63
     7
421
 16777215
 40
1.0
291
     1
 91
  2455826
 92
 54000000
292
     0
 70
     2
 71
   256
280
     1
  0
SUN
  5
FC
330
FB
100
AcDbSun
 90
        1
290
     0
 63
     7
421
 16777215
 40
1.0
291
     1
 91
  2455826
 92
 54000000
292
     0
 70
     2
 71
   256
280
     1
  0
SUN
  5
FE
330
FD
100
AcDbSun
 90
        1
290
     0
 63
     7
421
 16777215
 40
1.0
291
     1
 91
  2455826
 92
 54000000
292
     0
 70
     2
 71
   256
280
     1
  0
SUN
  5
EC
330
EB
100
AcDbSun
 90
        1
290
     0
 63
     7
421
 16777215
 40
1.0
291
     1
 91
  2455826
 92
 54000000
292
     0
 70
     2
 71
   256
280
     1
  0
DICTIONARY
  5
107
102
{ACAD_REACTORS
330
C
102
}
330
C
100
AcDbDictionary
281
     1
  0
DICTIONARY
  5
D
102
{ACAD_REACTORS
330
C
102
}
330
C
100
AcDbDictionary
281
     1
  0
DICTIONARY
  5
1A
102
{ACAD_REACTORS
330
C
102
}
330
C
100
AcDbDictionary
281
     1
  3
_Dimetrisch
350
E2
  3
_Isometrisch
350
CF
  3
_Links
350
8C
  3
_Normal auf
350
9A
  3
_Oben
350
1E
  3
_Rechts
350
B9
  3
_Rückseite
350
AC
  3
_Trimetrisch
350
DA
  3
_Unten
350
C7
  3
_Vorderseite
350
26
  3
Model
350
22
  0
DICTIONARY
  5
43
102
{ACAD_REACTORS
330
C
102
}
330
C
100
AcDbDictionary
281
     1
  3
ByBlock
350
45
  3
ByLayer
350
44
  3
Global
350
46
  0
DICTIONARY
  5
6B
102
{ACAD_REACTORS
330
C
102
}
330
C
100
AcDbDictionary
281
     1
  3
Standard
350
6C
  0
DICTIONARY
  5
17
102
{ACAD_REACTORS
330
C
102
}
330
C
100
AcDbDictionary
281
     1
  3
Standard
350
18
  0
DICTIONARY
  5
19
102
{ACAD_REACTORS
330
C
102
}
330
C
100
AcDbDictionary
281
     1
  0
ACDBDICTIONARYWDFLT
  5
E
102
{ACAD_REACTORS
330
C
102
}
330
C
100
AcDbDictionary
281
     1
  3
Normal
350
F
100
AcDbDictionaryWithDefault
340
F
  0
DICTIONARY
  5
47
102
{ACAD_REACTORS
330
C
102
}
330
C
100
AcDbDictionary
281
     1
  3
A0
350
48
  3
A1
350
49
  3
A2
350
4A
  3
A3
350
4B
  3
A4
350
4C
  3
A5
350
4D
  3
A6
350
4E
  3
A7
350
4F
  3
A8
350
50
  3
A9
350
51
  3
B0
350
52
  3
B1
350
53
  3
B2
350
54
  3
B3
350
55
  3
B4
350
56
  3
B5
350
57
  3
B6
350
58
  3
B7
350
59
  3
B8
350
5A
  3
B9
350
5B
  3
C0
350
5C
  3
C1
350
5D
  3
C2
350
5E
  3
C3
350
5F
  3
C4
350
60
  3
C5
350
61
  3
C6
350
62
  3
C7
350
63
  3
C8
350
64
  3
C9
350
65
  3
D0
350
66
  3
D1
350
67
  3
D2
350
68
  0
DICTIONARY
  5
108
102
{ACAD_REACTORS
330
C
102
}
330
C
100
AcDbDictionary
281
     1
  0
DICTIONARY
  5
69
102
{ACAD_REACTORS
330
C
102
}
330
C
100
AcDbDictionary
281
     1
  3
Standard
350
6A
  0
DICTIONARY
  5
2A
102
{ACAD_REACTORS
330
C
102
}
330
C
100
AcDbDictionary
281
     1
  3
2dWireframe
350
2F
  3
Basic
350
32
  3
Brighten
350
36
  3
ColorChange
350
3A
  3
Conceptual
350
34
  3
Dim
350
35
  3
EdgeColorOff
350
3D
  3
Facepattern
350
39
  3
Flat
350
2B
  3
FlatWithEdges
350
2C
  3
Gouraud
350
2D
  3
GouraudWithEdges
350
2E
  3
Hidden
350
31
  3
JitterOff
350
3B
  3
Linepattern
350
38
  3
OverhangOff
350
3C
  3
Realistic
350
33
  3
Shaded
350
42
  3
Shaded with edges
350
41
  3
Shades of Gray
350
3E
  3
Sketchy
350
3F
  3
Thicken
350
37
  3
Wireframe
350
30
  3
X-Ray
350
40
  0
XRECORD
  5
104
102
{ACAD_REACTORS
330
C
102
}
330
C
100
AcDbXrecord
280
     1
 90
        1
330
6A
  0
DICTIONARY
  5
FF
102
{ACAD_REACTORS
330
C
102
}
330
C
100
AcDbDictionary
281
     1
  3
CANNOSCALE
350
100
  3
CMLEADERSTYLE
350
106
  3
CTABLESTYLE
350
105
  0
LAYOUT
  5
E2
102
{ACAD_REACTORS
330
1A
102
}
330
1A
100
AcDbPlotSettings
  1

  2
none_device
  4
ISO_A4_(210.00_x_297.00_MM)
  6

 40
7.5
 41
20.0
 42
7.5
 43
20.0
 44
210.0
 45
297.0
 46
0.0
 47
0.0
 48
0.0
 49
0.0
140
0.0
141
0.0
142
1.0
143
1.8677042802
 70
   688
 72
     1
 73
     1
 74
     1
  7

 75
     0
 76
     0
 77
     2
 78
   300
147
0.5354166667
148
240.0
149
160.0
100
AcDbLayout
  1
_Dimetrisch
 70
     1
 71
    10
 10
0.0
 20
0.0
 11
0.0
 21
0.0
 12
0.0
 22
0.0
 32
0.0
 14
0.0
 24
0.0
 34
0.0
 15
0.0
 25
0.0
 35
0.0
146
0.0
 13
0.0
 23
0.0
 33
0.0
 16
1.0
 26
0.0
 36
0.0
 17
0.0
 27
1.0
 37
0.0
 76
     0
330
E1
331
FD
  0
LAYOUT
  5
CF
102
{ACAD_REACTORS
330
1A
102
}
330
1A
100
AcDbPlotSettings
  1

  2
none_device
  4
ISO_A4_(210.00_x_297.00_MM)
  6

 40
7.5
 41
20.0
 42
7.5
 43
20.0
 44
210.0
 45
297.0
 46
0.0
 47
0.0
 48
0.0
 49
0.0
140
0.0
141
0.0
142
1.0
143
1.8677042802
 70
   688
 72
     1
 73
     1
 74
     1
  7

 75
     0
 76
     0
 77
     2
 78
   300
147
0.5354166667
148
240.0
149
160.0
100
AcDbLayout
  1
_Isometrisch
 70
     1
 71
     8
 10
0.0
 20
0.0
 11
0.0
 21
0.0
 12
0.0
 22
0.0
 32
0.0
 14
0.0
 24
0.0
 34
0.0
 15
0.0
 25
0.0
 35
0.0
146
0.0
 13
0.0
 23
0.0
 33
0.0
 16
1.0
 26
0.0
 36
0.0
 17
0.0
 27
1.0
 37
0.0
 76
     0
330
CE
331
F9
  0
LAYOUT
  5
8C
102
{ACAD_REACTORS
330
1A
102
}
330
1A
100
AcDbPlotSettings
  1

  2
none_device
  4
ISO_A4_(210.00_x_297.00_MM)
  6

 40
7.5
 41
20.0
 42
7.5
 43
20.0
 44
210.0
 45
297.0
 46
0.0
 47
0.0
 48
0.0
 49
0.0
140
0.0
141
0.0
142
1.0
143
1.8677042802
 70
   688
 72
     1
 73
     1
 74
     1
  7

 75
     0
 76
     0
 77
     2
 78
   300
147
0.5354166667
148
240.0
149
160.0
100
AcDbLayout
  1
_Links
 70
     1
 71
     3
 10
0.0
 20
0.0
 11
0.0
 21
0.0
 12
0.0
 22
0.0
 32
0.0
 14
0.0
 24
0.0
 34
0.0
 15
0.0
 25
0.0
 35
0.0
146
0.0
 13
0.0
 23
0.0
 33
0.0
 16
1.0
 26
0.0
 36
0.0
 17
0.0
 27
1.0
 37
0.0
 76
     0
330
8B
331
EF
  0
LAYOUT
  5
9A
102
{ACAD_REACTORS
330
1A
102
}
330
1A
100
AcDbPlotSettings
  1

  2
none_device
  4
ISO_A4_(210.00_x_297.00_MM)
  6

 40
7.5
 41
20.0
 42
7.5
 43
20.0
 44
210.0
 45
297.0
 46
0.0
 47
0.0
 48
0.0
 49
0.0
140
0.0
141
0.0
142
1.0
143
1.8677042802
 70
   688
 72
     1
 73
     1
 74
     1
  7

 75
     0
 76
     0
 77
     2
 78
   300
147
0.5354166667
148
240.0
149
160.0
100
AcDbLayout
  1
_Normal auf
 70
     1
 71
     4
 10
0.0
 20
0.0
 11
0.0
 21
0.0
 12
0.0
 22
0.0
 32
0.0
 14
0.0
 24
0.0
 34
0.0
 15
0.0
 25
0.0
 35
0.0
146
0.0
 13
0.0
 23
0.0
 33
0.0
 16
1.0
 26
0.0
 36
0.0
 17
0.0
 27
1.0
 37
0.0
 76
     0
330
99
331
F1
  0
LAYOUT
  5
1E
102
{ACAD_REACTORS
330
1A
102
}
330
1A
100
AcDbPlotSettings
  1

  2
none_device
  4
ISO_A4_(210.00_x_297.00_MM)
  6

 40
7.5
 41
20.0
 42
7.5
 43
20.0
 44
210.0
 45
297.0
 46
0.0
 47
0.0
 48
0.0
 49
0.0
140
0.0
141
0.0
142
1.0
143
1.8677042802
 70
   688
 72
     1
 73
     1
 74
     1
  7

 75
     0
 76
     0
 77
     2
 78
   300
147
0.5354166667
148
240.0
149
160.0
100
AcDbLayout
  1
_Oben
 70
     1
 71
     1
 10
-277.3540856031
 20
-174.0077821012
 11
277.3540856031
 21
218.2101167315
 12
0.0
 22
0.0
 32
0.0
 14
-240.0
 24
-160.0
 34
0.0
 15
240.0
 25
160.0
 35
0.0
146
0.0
 13
0.0
 23
0.0
 33
0.0
 16
1.0
 26
0.0
 36
0.0
 17
0.0
 27
1.0
 37
0.0
 76
     0
330
1B
331
EB
  0
LAYOUT
  5
B9
102
{ACAD_REACTORS
330
1A
102
}
330
1A
100
AcDbPlotSettings
  1

  2
none_device
  4
ISO_A4_(210.00_x_297.00_MM)
  6

 40
7.5
 41
20.0
 42
7.5
 43
20.0
 44
210.0
 45
297.0
 46
0.0
 47
0.0
 48
0.0
 49
0.0
140
0.0
141
0.0
142
1.0
143
1.8677042802
 70
   688
 72
     1
 73
     1
 74
     1
  7

 75
     0
 76
     0
 77
     2
 78
   300
147
0.5354166667
148
240.0
149
160.0
100
AcDbLayout
  1
_Rechts
 70
     1
 71
     6
 10
0.0
 20
0.0
 11
0.0
 21
0.0
 12
0.0
 22
0.0
 32
0.0
 14
0.0
 24
0.0
 34
0.0
 15
0.0
 25
0.0
 35
0.0
146
0.0
 13
0.0
 23
0.0
 33
0.0
 16
1.0
 26
0.0
 36
0.0
 17
0.0
 27
1.0
 37
0.0
 76
     0
330
B8
331
F5
  0
LAYOUT
  5
AC
102
{ACAD_REACTORS
330
1A
102
}
330
1A
100
AcDbPlotSettings
  1

  2
none_device
  4
ISO_A4_(210.00_x_297.00_MM)
  6

 40
7.5
 41
20.0
 42
7.5
 43
20.0
 44
210.0
 45
297.0
 46
0.0
 47
0.0
 48
0.0
 49
0.0
140
0.0
141
0.0
142
1.0
143
1.8677042802
 70
   688
 72
     1
 73
     1
 74
     1
  7

 75
     0
 76
     0
 77
     2
 78
   300
147
0.5354166667
148
240.0
149
160.0
100
AcDbLayout
  1
_Rückseite
 70
     1
 71
     5
 10
0.0
 20
0.0
 11
0.0
 21
0.0
 12
0.0
 22
0.0
 32
0.0
 14
0.0
 24
0.0
 34
0.0
 15
0.0
 25
0.0
 35
0.0
146
0.0
 13
0.0
 23
0.0
 33
0.0
 16
1.0
 26
0.0
 36
0.0
 17
0.0
 27
1.0
 37
0.0
 76
     0
330
AB
331
F3
  0
LAYOUT
  5
DA
102
{ACAD_REACTORS
330
1A
102
}
330
1A
100
AcDbPlotSettings
  1

  2
none_device
  4
ISO_A4_(210.00_x_297.00_MM)
  6

 40
7.5
 41
20.0
 42
7.5
 43
20.0
 44
210.0
 45
297.0
 46
0.0
 47
0.0
 48
0.0
 49
0.0
140
0.0
141
0.0
142
1.0
143
1.8677042802
 70
   688
 72
     1
 73
     1
 74
     1
  7

 75
     0
 76
     0
 77
     2
 78
   300
147
0.5354166667
148
240.0
149
160.0
100
AcDbLayout
  1
_Trimetrisch
 70
     1
 71
     9
 10
0.0
 20
0.0
 11
0.0
 21
0.0
 12
0.0
 22
0.0
 32
0.0
 14
0.0
 24
0.0
 34
0.0
 15
0.0
 25
0.0
 35
0.0
146
0.0
 13
0.0
 23
0.0
 33
0.0
 16
1.0
 26
0.0
 36
0.0
 17
0.0
 27
1.0
 37
0.0
 76
     0
330
D9
331
FB
  0
LAYOUT
  5
C7
102
{ACAD_REACTORS
330
1A
102
}
330
1A
100
AcDbPlotSettings
  1

  2
none_device
  4
ISO_A4_(210.00_x_297.00_MM)
  6

 40
7.5
 41
20.0
 42
7.5
 43
20.0
 44
210.0
 45
297.0
 46
0.0
 47
0.0
 48
0.0
 49
0.0
140
0.0
141
0.0
142
1.0
143
1.8677042802
 70
   688
 72
     1
 73
     1
 74
     1
  7

 75
     0
 76
     0
 77
     2
 78
   300
147
0.5354166667
148
240.0
149
160.0
100
AcDbLayout
  1
_Unten
 70
     1
 71
     7
 10
0.0
 20
0.0
 11
0.0
 21
0.0
 12
0.0
 22
0.0
 32
0.0
 14
0.0
 24
0.0
 34
0.0
 15
0.0
 25
0.0
 35
0.0
146
0.0
 13
0.0
 23
0.0
 33
0.0
 16
1.0
 26
0.0
 36
0.0
 17
0.0
 27
1.0
 37
0.0
 76
     0
330
C6
331
F7
  0
LAYOUT
  5
26
102
{ACAD_REACTORS
330
1A
102
}
330
1A
100
AcDbPlotSettings
  1

  2
none_device
  4
ISO_A4_(210.00_x_297.00_MM)
  6

 40
7.5
 41
20.0
 42
7.5
 43
20.0
 44
210.0
 45
297.0
 46
0.0
 47
0.0
 48
0.0
 49
0.0
140
0.0
141
0.0
142
1.0
143
1.8677042802
 70
   688
 72
     1
 73
     1
 74
     1
  7

 75
     0
 76
     0
 77
     2
 78
   300
147
0.5354166667
148
240.0
149
160.0
100
AcDbLayout
  1
_Vorderseite
 70
     1
 71
     2
 10
0.0
 20
0.0
 11
0.0
 21
0.0
 12
0.0
 22
0.0
 32
0.0
 14
0.0
 24
0.0
 34
0.0
 15
0.0
 25
0.0
 35
0.0
146
0.0
 13
0.0
 23
0.0
 33
0.0
 16
1.0
 26
0.0
 36
0.0
 17
0.0
 27
1.0
 37
0.0
 76
     0
330
23
331
ED
  0
LAYOUT
  5
22
102
{ACAD_REACTORS
330
1A
102
}
330
1A
100
AcDbPlotSettings
  1

  2
none_device
  4
ANSI_A_(11.00_x_8.50_Inches)
  6

 40
6.35
 41
19.05
 42
6.35000508
 43
19.05000254
 44
279.4
 45
215.9
 46
133.34999746
 47
103.9015848529
 48
0.0
 49
0.0
140
0.0
141
0.0
142
0.0266988087
143
1.0
 70
  1696
 72
     0
 73
     0
 74
     0
  7

 75
     0
 76
     0
 77
     2
 78
   300
147
0.0179189148
148
-1300.4909072572
149
0.0
100
AcDbLayout
  1
Model
 70
     1
 71
     0
 10
0.0
 20
0.0
 11
420.0
 21
297.0
 12
0.0
 22
0.0
 32
0.0
 14
-203.9416837896
 24
-161.9513851381
 34
0.0
 15
203.9416837896
 25
117.7086899917
 35
0.0
146
0.0
 13
0.0
 23
0.0
 33
0.0
 16
1.0
 26
0.0
 36
0.0
 17
0.0
 27
1.0
 37
0.0
 76
     0
330
1F
331
29
  0
MATERIAL
  5
45
102
{ACAD_REACTORS
330
43
102
}
330
43
100
AcDbMaterial
  1
ByBlock
 72
     1
 94
      127
  0
MATERIAL
  5
44
102
{ACAD_REACTORS
330
43
102
}
330
43
100
AcDbMaterial
  1
ByLayer
 72
     1
 94
      127
  0
MATERIAL
  5
46
102
{ACAD_REACTORS
330
43
102
}
330
43
100
AcDbMaterial
  1
Global
 72
     1
 94
      127
  0
MLEADERSTYLE
  5
6C
102
{ACAD_REACTORS
330
6B
102
}
330
6B
100
AcDbMLeaderStyle
170
     2
171
     1
172
     0
 90
        2
 40
0.0
 41
0.0
173
     1
 91
-1056964608
340
14
 92
       -2
290
     1
 42
2.0
291
     1
 43
8.0
  3
Standard
341
0
 44
4.0
300

342
11
174
     1
178
     6
175
     1
176
     0
 93
-1056964608
 45
4.0
292
     0
297
     0
 46
4.0
343
0
 94
-1056964608
 47
1.0
 49
1.0
140
1.0
293
     1
141
0.0
294
     1
177
     0
142
1.0
295
     0
296
     0
143
3.75
1001
ACAD_MLEADERVER
1070
     2
  0
MLINESTYLE
  5
18
102
{ACAD_REACTORS
330
17
102
}
330
17
100
AcDbMlineStyle
  2
Standard
 70
     0
  3

 62
   256
 51
90.0
 52
90.0
 71
     2
 49
0.5
 62
   256
  6
BYLAYER
 49
-0.5
 62
   256
  6
BYLAYER
  0
ACDBPLACEHOLDER
  5
F
102
{ACAD_REACTORS
330
E
102
}
330
E
  0
SCALE
  5
48
102
{ACAD_REACTORS
330
47
102
}
330
47
100
AcDbScale
 70
     0
300
1:1
140
1.0
141
1.0
290
     1
  0
SCALE
  5
49
102
{ACAD_REACTORS
330
47
102
}
330
47
100
AcDbScale
 70
     0
300
1:2
140
1.0
141
2.0
290
     0
  0
SCALE
  5
4A
102
{ACAD_REACTORS
330
47
102
}
330
47
100
AcDbScale
 70
     0
300
1:4
140
1.0
141
4.0
290
     0
  0
SCALE
  5
4B
102
{ACAD_REACTORS
330
47
102
}
330
47
100
AcDbScale
 70
     0
300
1:5
140
1.0
141
5.0
290
     0
  0
SCALE
  5
4C
102
{ACAD_REACTORS
330
47
102
}
330
47
100
AcDbScale
 70
     0
300
1:8
140
1.0
141
8.0
290
     0
  0
SCALE
  5
4D
102
{ACAD_REACTORS
330
47
102
}
330
47
100
AcDbScale
 70
     0
300
1:10
140
1.0
141
10.0
290
     0
  0
SCALE
  5
4E
102
{ACAD_REACTORS
330
47
102
}
330
47
100
AcDbScale
 70
     0
300
1:16
140
1.0
141
16.0
290
     0
  0
SCALE
  5
4F
102
{ACAD_REACTORS
330
47
102
}
330
47
100
AcDbScale
 70
     0
300
1:20
140
1.0
141
20.0
290
     0
  0
SCALE
  5
50
102
{ACAD_REACTORS
330
47
102
}
330
47
100
AcDbScale
 70
     0
300
1:30
140
1.0
141
30.0
290
     0
  0
SCALE
  5
51
102
{ACAD_REACTORS
330
47
102
}
330
47
100
AcDbScale
 70
     0
300
1:40
140
1.0
141
40.0
290
     0
  0
SCALE
  5
52
102
{ACAD_REACTORS
330
47
102
}
330
47
100
AcDbScale
 70
     0
300
1:50
140
1.0
141
50.0
290
     0
  0
SCALE
  5
53
102
{ACAD_REACTORS
330
47
102
}
330
47
100
AcDbScale
 70
     0
300
1:100
140
1.0
141
100.0
290
     0
  0
SCALE
  5
54
102
{ACAD_REACTORS
330
47
102
}
330
47
100
AcDbScale
 70
     0
300
2:1
140
2.0
141
1.0
290
     0
  0
SCALE
  5
55
102
{ACAD_REACTORS
330
47
102
}
330
47
100
AcDbScale
 70
     0
300
4:1
140
4.0
141
1.0
290
     0
  0
SCALE
  5
56
102
{ACAD_REACTORS
330
47
102
}
330
47
100
AcDbScale
 70
     0
300
8:1
140
8.0
141
1.0
290
     0
  0
SCALE
  5
57
102
{ACAD_REACTORS
330
47
102
}
330
47
100
AcDbScale
 70
     0
300
10:1
140
10.0
141
1.0
290
     0
  0
SCALE
  5
58
102
{ACAD_REACTORS
330
47
102
}
330
47
100
AcDbScale
 70
     0
300
100:1
140
100.0
141
1.0
290
     0
  0
SCALE
  5
59
102
{ACAD_REACTORS
330
47
102
}
330
47
100
AcDbScale
 70
     0
300
1/128" = 1'-0"
140
0.0078125
141
12.0
290
     0
  0
SCALE
  5
5A
102
{ACAD_REACTORS
330
47
102
}
330
47
100
AcDbScale
 70
     0
300
1/64" = 1'-0"
140
0.015625
141
12.0
290
     0
  0
SCALE
  5
5B
102
{ACAD_REACTORS
330
47
102
}
330
47
100
AcDbScale
 70
     0
300
1/32" = 1'-0"
140
0.03125
141
12.0
290
     0
  0
SCALE
  5
5C
102
{ACAD_REACTORS
330
47
102
}
330
47
100
AcDbScale
 70
     0
300
1/16" = 1'-0"
140
0.0625
141
12.0
290
     0
  0
SCALE
  5
5D
102
{ACAD_REACTORS
330
47
102
}
330
47
100
AcDbScale
 70
     0
300
3/32" = 1'-0"
140
0.09375
141
12.0
290
     0
  0
SCALE
  5
5E
102
{ACAD_REACTORS
330
47
102
}
330
47
100
AcDbScale
 70
     0
300
1/8" = 1'-0"
140
0.125
141
12.0
290
     0
  0
SCALE
  5
5F
102
{ACAD_REACTORS
330
47
102
}
330
47
100
AcDbScale
 70
     0
300
3/16" = 1'-0"
140
0.1875
141
12.0
290
     0
  0
SCALE
  5
60
102
{ACAD_REACTORS
330
47
102
}
330
47
100
AcDbScale
 70
     0
300
1/4" = 1'-0"
140
0.25
141
12.0
290
     0
  0
SCALE
  5
61
102
{ACAD_REACTORS
330
47
102
}
330
47
100
AcDbScale
 70
     0
300
3/8" = 1'-0"
140
0.375
141
12.0
290
     0
  0
SCALE
  5
62
102
{ACAD_REACTORS
330
47
102
}
330
47
100
AcDbScale
 70
     0
300
1/2" = 1'-0"
140
0.5
141
12.0
290
     0
  0
SCALE
  5
63
102
{ACAD_REACTORS
330
47
102
}
330
47
100
AcDbScale
 70
     0
300
3/4" = 1'-0"
140
0.75
141
12.0
290
     0
  0
SCALE
  5
64
102
{ACAD_REACTORS
330
47
102
}
330
47
100
AcDbScale
 70
     0
300
1" = 1'-0"
140
1.0
141
12.0
290
     0
  0
SCALE
  5
65
102
{ACAD_REACTORS
330
47
102
}
330
47
100
AcDbScale
 70
     0
300
1-1/2" = 1'-0"
140
1.5
141
12.0
290
     0
  0
SCALE
  5
66
102
{ACAD_REACTORS
330
47
102
}
330
47
100
AcDbScale
 70
     0
300
3" = 1'-0"
140
3.0
141
12.0
290
     0
  0
SCALE
  5
67
102
{ACAD_REACTORS
330
47
102
}
330
47
100
AcDbScale
 70
     0
300
6" = 1'-0"
140
6.0
141
12.0
290
     0
  0
SCALE
  5
68
102
{ACAD_REACTORS
330
47
102
}
330
47
100
AcDbScale
 70
     0
300
1'-0" = 1'-0"
140
12.0
141
12.0
290
     0
  0
TABLESTYLE
  5
6A
102
{ACAD_REACTORS
330
69
102
}
102
{ACAD_XDICTIONARY
360
101
102
}
330
69
100
AcDbTableStyle
  3
Standard
 70
     0
 71
     0
 40
0.06
 41
0.06
280
     0
281
     0
  7
Standard
140
4.5
170
     2
 62
     0
 63
   257
283
     0
 90
        4
 91
        0
  1

274
    -2
284
     1
 64
     0
275
    -2
285
     1
 65
     0
276
    -2
286
     1
 66
     0
277
    -2
287
     1
 67
     0
278
    -2
288
     1
 68
     0
279
    -2
289
     1
 69
     0
  7
Standard
140
6.0
170
     5
 62
     0
 63
   257
283
     0
 90
        4
 91
        0
  1

274
    -2
284
     1
 64
     0
275
    -2
285
     1
 65
     0
276
    -2
286
     1
 66
     0
277
    -2
287
     1
 67
     0
278
    -2
288
     1
 68
     0
279
    -2
289
     1
 69
     0
  7
Standard
140
4.5
170
     5
 62
     0
 63
   257
283
     0
 90
        4
 91
        0
  1

274
    -2
284
     1
 64
     0
275
    -2
285
     1
 65
     0
276
    -2
286
     1
 66
     0
277
    -2
287
     1
 67
     0
278
    -2
288
     1
 68
     0
279
    -2
289
     1
 69
     0
  0
VISUALSTYLE
  5
2F
102
{ACAD_REACTORS
330
2A
102
}
330
2A
100
AcDbVisualStyle
  2
2dWireframe
 70
     4
 71
     0
 72
     2
 73
     0
 90
        0
 40
0.6
 41
30.0
 62
     5
 63
     7
421
 16777215
 74
     1
 91
        4
 64
     7
 65
   257
 75
     1
175
     1
 42
1.0
 92
        0
 66
   257
 43
1.0
 76
     1
 77
     6
 78
     2
 67
     7
 79
     5
170
     0
171
     0
290
     0
174
     0
 93
        1
 44
0.0
173
     0
291
     0
 45
0.0
  0
VISUALSTYLE
  5
32
102
{ACAD_REACTORS
330
2A
102
}
330
2A
100
AcDbVisualStyle
  2
Basic
 70
     7
 71
     1
 72
     0
 73
     1
 90
        0
 40
0.6
 41
30.0
 62
     5
 63
     7
421
 16777215
 74
     0
 91
        4
 64
     7
 65
   257
 75
     1
175
     1
 42
1.0
 92
        8
 66
     7
 43
1.0
 76
     1
 77
     6
 78
     2
 67
     7
 79
     5
170
     0
171
     0
290
     0
174
     0
 93
        1
 44
0.0
173
     0
291
     1
 45
0.0
  0
VISUALSTYLE
  5
36
102
{ACAD_REACTORS
330
2A
102
}
330
2A
100
AcDbVisualStyle
  2
Brighten
 70
    12
 71
     2
 72
     2
 73
     0
 90
        0
 40
0.6
 41
30.0
 62
     5
 63
     7
421
 16777215
 74
     1
 91
        4
 64
     7
 65
   257
 75
     1
175
     1
 42
1.0
 92
        8
 66
     7
 43
1.0
 76
     1
 77
     6
 78
     2
 67
     7
 79
     5
170
     0
171
     0
290
     0
174
     0
 93
        1
 44
50.0
173
     0
291
     1
 45
0.0
  0
VISUALSTYLE
  5
3A
102
{ACAD_REACTORS
330
2A
102
}
330
2A
100
AcDbVisualStyle
  2
ColorChange
 70
    16
 71
     2
 72
     2
 73
     3
 90
        0
 40
0.6
 41
30.0
 62
     5
 63
     8
421
  8421504
 74
     1
 91
        4
 64
     7
 65
   257
 75
     1
175
     1
 42
1.0
 92
        8
 66
     8
424
  8421504
 43
1.0
 76
     1
 77
     6
 78
     2
 67
     7
 79
     5
170
     0
171
     0
290
     0
174
     0
 93
        1
 44
0.0
173
     0
291
     1
 45
0.0
  0
VISUALSTYLE
  5
34
102
{ACAD_REACTORS
330
2A
102
}
330
2A
100
AcDbVisualStyle
  2
Conceptual
 70
     9
 71
     3
 72
     2
 73
     0
 90
        0
 40
0.6
 41
30.0
 62
     5
 63
     7
421
 16777215
 74
     2
 91
        2
 64
     7
 65
   257
 75
     1
175
     1
 42
179.0
 92
        8
 66
     7
 43
1.0
 76
     1
 77
     6
 78
     2
 67
     7
 79
     3
170
     0
171
     0
290
     0
174
     0
 93
        1
 44
0.0
173
     0
291
     0
 45
0.0
  0
VISUALSTYLE
  5
35
102
{ACAD_REACTORS
330
2A
102
}
330
2A
100
AcDbVisualStyle
  2
Dim
 70
    11
 71
     2
 72
     2
 73
     0
 90
        0
 40
0.6
 41
30.0
 62
     5
 63
     7
421
 16777215
 74
     1
 91
        4
 64
     7
 65
   257
 75
     1
175
     1
 42
1.0
 92
        8
 66
     7
 43
1.0
 76
     1
 77
     6
 78
     2
 67
     7
 79
     5
170
     0
171
     0
290
     0
174
     0
 93
        1
 44
-50.0
173
     0
291
     1
 45
0.0
  0
VISUALSTYLE
  5
3D
102
{ACAD_REACTORS
330
2A
102
}
330
2A
100
AcDbVisualStyle
  2
EdgeColorOff
 70
    22
 71
     2
 72
     2
 73
     0
 90
        0
 40
0.6
 41
30.0
 62
     5
 63
     7
421
 16777215
 74
     1
 91
        4
 64
     7
 65
   257
 75
     1
175
     1
 42
1.0
 92
        8
 66
     7
 43
1.0
 76
     1
 77
     6
 78
     2
 67
     7
 79
     5
170
     0
171
     0
290
     0
174
     0
 93
        1
 44
0.0
173
     0
291
     1
 45
0.0
  0
VISUALSTYLE
  5
39
102
{ACAD_REACTORS
330
2A
102
}
330
2A
100
AcDbVisualStyle
  2
Facepattern
 70
    15
 71
     2
 72
     2
 73
     0
 90
        0
 40
0.6
 41
30.0
 62
     5
 63
     7
421
 16777215
 74
     1
 91
        4
 64
     7
 65
   257
 75
     1
175
     1
 42
1.0
 92
        8
 66
     7
 43
1.0
 76
     1
 77
     6
 78
     2
 67
     7
 79
     5
170
     0
171
     0
290
     0
174
     0
 93
        1
 44
0.0
173
     0
291
     1
 45
0.0
  0
VISUALSTYLE
  5
2B
102
{ACAD_REACTORS
330
2A
102
}
330
2A
100
AcDbVisualStyle
  2
Flat
 70
     0
 71
     2
 72
     1
 73
     1
 90
        2
 40
0.6
 41
30.0
 62
     5
 63
     7
421
 16777215
 74
     0
 91
        0
 64
     7
 65
   257
 75
     1
175
     1
 42
1.0
 92
        8
 66
     7
 43
1.0
 76
     1
 77
     6
 78
     2
 67
     7
 79
     5
170
     0
171
     0
290
     0
174
     0
 93
       13
 44
0.0
173
     0
291
     1
 45
0.0
  0
VISUALSTYLE
  5
2C
102
{ACAD_REACTORS
330
2A
102
}
330
2A
100
AcDbVisualStyle
  2
FlatWithEdges
 70
     1
 71
     2
 72
     1
 73
     1
 90
        2
 40
0.6
 41
30.0
 62
     5
 63
     7
421
 16777215
 74
     1
 91
        0
 64
     7
 65
   257
 75
     1
175
     1
 42
1.0
 92
        0
 66
   257
 43
1.0
 76
     1
 77
     6
 78
     2
 67
     7
 79
     5
170
     0
171
     0
290
     0
174
     0
 93
       13
 44
0.0
173
     0
291
     1
 45
0.0
  0
VISUALSTYLE
  5
2D
102
{ACAD_REACTORS
330
2A
102
}
330
2A
100
AcDbVisualStyle
  2
Gouraud
 70
     2
 71
     2
 72
     2
 73
     1
 90
        2
 40
0.6
 41
30.0
 62
     5
 63
     7
421
 16777215
 74
     0
 91
        0
 64
     7
 65
   257
 75
     1
175
     1
 42
1.0
 92
        0
 66
     7
 43
1.0
 76
     1
 77
     6
 78
     2
 67
     7
 79
     5
170
     0
171
     0
290
     0
174
     0
 93
       13
 44
0.0
173
     0
291
     1
 45
0.0
  0
VISUALSTYLE
  5
2E
102
{ACAD_REACTORS
330
2A
102
}
330
2A
100
AcDbVisualStyle
  2
GouraudWithEdges
 70
     3
 71
     2
 72
     2
 73
     1
 90
        2
 40
0.6
 41
30.0
 62
     5
 63
     7
421
 16777215
 74
     1
 91
        0
 64
     7
 65
   257
 75
     1
175
     1
 42
1.0
 92
        0
 66
   257
 43
1.0
 76
     1
 77
     6
 78
     2
 67
     7
 79
     5
170
     0
171
     0
290
     0
174
     0
 93
       13
 44
0.0
173
     0
291
     1
 45
0.0
  0
VISUALSTYLE
  5
31
102
{ACAD_REACTORS
330
2A
102
}
330
2A
100
AcDbVisualStyle
  2
Hidden
 70
     6
 71
     1
 72
     2
 73
     2
 90
        0
 40
0.6
 41
30.0
 62
     5
 63
     7
421
 16777215
 74
     2
 91
        2
 64
     7
 65
   257
 75
     2
175
     1
 42
40.0
 92
        0
 66
   257
 43
1.0
 76
     1
 77
     6
 78
     2
 67
     7
 79
     3
170
     0
171
     0
290
     0
174
     0
 93
        1
 44
0.0
173
     0
291
     0
 45
0.0
  0
VISUALSTYLE
  5
3B
102
{ACAD_REACTORS
330
2A
102
}
330
2A
100
AcDbVisualStyle
  2
JitterOff
 70
    20
 71
     2
 72
     2
 73
     0
 90
        0
 40
0.6
 41
30.0
 62
     5
 63
     7
421
 16777215
 74
     1
 91
        4
 64
     7
 65
   257
 75
     1
175
     1
 42
1.0
 92
       10
 66
     7
 43
1.0
 76
     1
 77
     6
 78
     2
 67
     7
 79
     5
170
     0
171
     0
290
     0
174
     0
 93
        1
 44
0.0
173
     0
291
     1
 45
0.0
  0
VISUALSTYLE
  5
38
102
{ACAD_REACTORS
330
2A
102
}
330
2A
100
AcDbVisualStyle
  2
Linepattern
 70
    14
 71
     2
 72
     2
 73
     0
 90
        0
 40
0.6
 41
30.0
 62
     5
 63
     7
421
 16777215
 74
     1
 91
        4
 64
     7
 65
   257
 75
     7
175
     7
 42
1.0
 92
        8
 66
     7
 43
1.0
 76
     1
 77
     6
 78
     2
 67
     7
 79
     5
170
     0
171
     0
290
     0
174
     0
 93
        1
 44
0.0
173
     0
291
     1
 45
0.0
  0
VISUALSTYLE
  5
3C
102
{ACAD_REACTORS
330
2A
102
}
330
2A
100
AcDbVisualStyle
  2
OverhangOff
 70
    21
 71
     2
 72
     2
 73
     0
 90
        0
 40
0.6
 41
30.0
 62
     5
 63
     7
421
 16777215
 74
     1
 91
        4
 64
     7
 65
   257
 75
     1
175
     1
 42
1.0
 92
        9
 66
     7
 43
1.0
 76
     1
 77
     6
 78
     2
 67
     7
 79
     5
170
     0
171
     0
290
     0
174
     0
 93
        1
 44
0.0
173
     0
291
     1
 45
0.0
  0
VISUALSTYLE
  5
33
102
{ACAD_REACTORS
330
2A
102
}
330
2A
100
AcDbVisualStyle
  2
Realistic
 70
     8
 71
     2
 72
     3
 73
     0
 90
        2
 40
0.6
 41
30.0
 62
     5
 63
     7
421
 16777215
 74
     0
 91
        0
 64
     7
 65
   257
 75
     1
175
     1
 42
1.0
 92
        8
 66
   257
 43
1.0
 76
     1
 77
     6
 78
     2
 67
     7
 79
     3
170
     0
171
     0
290
     0
174
     0
 93
       13
 44
0.0
173
     0
291
     0
 45
0.0
  0
VISUALSTYLE
  5
42
102
{ACAD_REACTORS
330
2A
102
}
330
2A
100
AcDbVisualStyle
  2
Shaded
 70
    27
 71
     2
 72
     2
 73
     1
 90
        2
 40
0.6
 41
30.0
 62
     5
 63
     7
421
 16777215
 74
     0
 91
        4
 64
     7
 65
   257
 75
     1
175
     1
 42
1.0
 92
        8
 66
   257
 43
1.0
 76
     1
 77
     6
 78
     2
 67
     8
425
  7895160
 79
     3
170
     0
171
     0
290
     0
174
     0
 93
        5
 44
0.0
173
     0
291
     0
 45
0.0
  0
VISUALSTYLE
  5
41
102
{ACAD_REACTORS
330
2A
102
}
330
2A
100
AcDbVisualStyle
  2
Shaded with edges
 70
    26
 71
     2
 72
     2
 73
     1
 90
        2
 40
0.6
 41
30.0
 62
     5
 63
     7
421
 16777215
 74
     1
 91
       10
 64
     7
 65
   257
 75
     2
175
     1
 42
1.0
 92
        8
 66
   257
 43
1.0
 76
     1
 77
     6
 78
     2
 67
     7
 79
     3
170
     0
171
     0
290
     0
174
     0
 93
        5
 44
0.0
173
     0
291
     0
 45
0.0
  0
VISUALSTYLE
  5
3E
102
{ACAD_REACTORS
330
2A
102
}
330
2A
100
AcDbVisualStyle
  2
Shades of Gray
 70
    23
 71
     2
 72
     2
 73
     3
 90
        0
 40
0.6
 41
30.0
 62
     5
 63
     7
421
 16777215
 74
     2
 91
        2
 64
     7
 65
     7
 75
     1
175
     1
 42
40.0
 92
        8
 66
     7
 43
1.0
 76
     1
 77
     6
 78
     2
 67
     7
 79
     3
170
     0
171
     0
290
     0
174
     0
 93
        1
 44
0.0
173
     0
291
     0
 45
0.0
  0
VISUALSTYLE
  5
3F
102
{ACAD_REACTORS
330
2A
102
}
330
2A
100
AcDbVisualStyle
  2
Sketchy
 70
    24
 71
     1
 72
     2
 73
     2
 90
        0
 40
0.6
 41
30.0
 62
     5
 63
     7
421
 16777215
 74
     2
 91
        2
 64
     7
 65
     7
 75
     1
175
     1
 42
40.0
 92
       11
 66
     7
 43
1.0
 76
     1
 77
     6
 78
     2
 67
     7
 79
     6
170
     0
171
     0
290
     0
174
     0
 93
        1
 44
0.0
173
     0
291
     0
 45
0.0
  0
VISUALSTYLE
  5
37
102
{ACAD_REACTORS
330
2A
102
}
330
2A
100
AcDbVisualStyle
  2
Thicken
 70
    13
 71
     2
 72
     2
 73
     0
 90
        0
 40
0.6
 41
30.0
 62
     5
 63
     7
421
 16777215
 74
     1
 91
        4
 64
     7
 65
   257
 75
     1
175
     1
 42
1.0
 92
       12
 66
     7
 43
1.0
 76
     1
 77
     6
 78
     2
 67
     7
 79
     5
170
     0
171
     0
290
     0
174
     0
 93
        1
 44
0.0
173
     0
291
     1
 45
0.0
  0
VISUALSTYLE
  5
30
102
{ACAD_REACTORS
330
2A
102
}
330
2A
100
AcDbVisualStyle
  2
Wireframe
 70
     5
 71
     0
 72
     2
 73
     0
 90
        0
 40
0.6
 41
30.0
 62
     5
 63
     7
421
 16777215
 74
     1
 91
        4
 64
     7
 65
   257
 75
     1
175
     1
 42
1.0
 92
        0
 66
   257
 43
1.0
 76
     1
 77
     6
 78
     2
 67
     7
 79
     3
170
     0
171
     0
290
     0
174
     0
 93
        1
 44
0.0
173
     0
291
     0
 45
0.0
  0
VISUALSTYLE
  5
40
102
{ACAD_REACTORS
330
2A
102
}
330
2A
100
AcDbVisualStyle
  2
X-Ray
 70
    25
 71
     2
 72
     2
 73
     1
 90
        1
 40
0.5
 41
30.0
 62
     5
 63
     7
421
 16777215
 74
     1
 91
        0
 64
     7
 65
   257
 75
     1
175
     1
 42
1.0
 92
        8
 66
     7
 43
1.0
 76
     1
 77
     6
 78
     2
 67
     7
 79
     3
170
     0
171
     0
290
     0
174
     0
 93
       13
 44
0.0
173
     0
291
     0
 45
0.0
  0
DICTIONARYVAR
  5
100
102
{ACAD_REACTORS
330
FF
102
}
330
FF
100
DictionaryVariables
280
     0
  1
1:1
  0
DICTIONARYVAR
  5
106
102
{ACAD_REACTORS
330
FF
102
}
330
FF
100
DictionaryVariables
280
     0
  1
Standard
  0
DICTIONARYVAR
  5
105
102
{ACAD_REACTORS
330
FF
102
}
330
FF
100
DictionaryVariables
280
     0
  1
Standard
  0
DICTIONARY
  5
101
330
6A
100
AcDbDictionary
280
     1
281
     1
  3
ACAD_ROUNDTRIP_2008_TABLESTYLE_CELLSTYLEMAP
360
102
  0
CELLSTYLEMAP
  5
102
102
{ACAD_REACTORS
330
101
102
}
330
101
100
AcDbCellStyleMap
 90
        3
300
CELLSTYLE
  1
TABLEFORMAT_BEGIN
 90
        5
170
     1
 91
        0
 92
    32768
 62
   257
 93
        1
300
CONTENTFORMAT
  1
CONTENTFORMAT_BEGIN
 90
        0
 91
        0
 92
        4
 93
        0
300

 40
0.0
140
1.0
 94
        5
 62
     0
340
11
144
6.0
309
CONTENTFORMAT_END
171
     1
301
MARGIN
  1
CELLMARGIN_BEGIN
 40
1.5
 40
1.5
 40
1.5
 40
1.5
 40
1.5
 40
1.5
309
CELLMARGIN_END
 94
        6
 95
        1
302
GRIDFORMAT
  1
GRIDFORMAT_BEGIN
 90
        0
 91
        1
 62
     0
 92
       -2
340
14
 93
        0
 40
0.045
309
GRIDFORMAT_END
 95
        2
302
GRIDFORMAT
  1
GRIDFORMAT_BEGIN
 90
        0
 91
        1
 62
     0
 92
       -2
340
14
 93
        0
 40
0.045
309
GRIDFORMAT_END
 95
        4
302
GRIDFORMAT
  1
GRIDFORMAT_BEGIN
 90
        0
 91
        1
 62
     0
 92
       -2
340
14
 93
        0
 40
0.045
309
GRIDFORMAT_END
 95
        8
302
GRIDFORMAT
  1
GRIDFORMAT_BEGIN
 90
        0
 91
        1
 62
     0
 92
       -2
340
14
 93
        0
 40
0.045
309
GRIDFORMAT_END
 95
       16
302
GRIDFORMAT
  1
GRIDFORMAT_BEGIN
 90
        0
 91
        1
 62
     0
 92
       -2
340
14
 93
        0
 40
0.045
309
GRIDFORMAT_END
 95
       32
302
GRIDFORMAT
  1
GRIDFORMAT_BEGIN
 90
        0
 91
        1
 62
     0
 92
       -2
340
14
 93
        0
 40
0.045
309
GRIDFORMAT_END
309
TABLEFORMAT_END
  1
CELLSTYLE_BEGIN
 90
        1
 91
        1
300
_TITLE
309
CELLSTYLE_END
300
CELLSTYLE
  1
TABLEFORMAT_BEGIN
 90
        5
170
     1
 91
        0
 92
        0
 62
   257
 93
        1
300
CONTENTFORMAT
  1
CONTENTFORMAT_BEGIN
 90
        0
 91
        0
 92
        4
 93
        0
300

 40
0.0
140
1.0
 94
        5
 62
     0
340
11
144
4.5
309
CONTENTFORMAT_END
171
     1
301
MARGIN
  1
CELLMARGIN_BEGIN
 40
1.5
 40
1.5
 40
1.5
 40
1.5
 40
1.5
 40
1.5
309
CELLMARGIN_END
 94
        6
 95
        1
302
GRIDFORMAT
  1
GRIDFORMAT_BEGIN
 90
        0
 91
        1
 62
     0
 92
       -2
340
14
 93
        0
 40
0.045
309
GRIDFORMAT_END
 95
        2
302
GRIDFORMAT
  1
GRIDFORMAT_BEGIN
 90
        0
 91
        1
 62
     0
 92
       -2
340
14
 93
        0
 40
0.045
309
GRIDFORMAT_END
 95
        4
302
GRIDFORMAT
  1
GRIDFORMAT_BEGIN
 90
        0
 91
        1
 62
     0
 92
       -2
340
14
 93
        0
 40
0.045
309
GRIDFORMAT_END
 95
        8
302
GRIDFORMAT
  1
GRIDFORMAT_BEGIN
 90
        0
 91
        1
 62
     0
 92
       -2
340
14
 93
        0
 40
0.045
309
GRIDFORMAT_END
 95
       16
302
GRIDFORMAT
  1
GRIDFORMAT_BEGIN
 90
        0
 91
        1
 62
     0
 92
       -2
340
14
 93
        0
 40
0.045
309
GRIDFORMAT_END
 95
       32
302
GRIDFORMAT
  1
GRIDFORMAT_BEGIN
 90
        0
 91
        1
 62
     0
 92
       -2
340
14
 93
        0
 40
0.045
309
GRIDFORMAT_END
309
TABLEFORMAT_END
  1
CELLSTYLE_BEGIN
 90
        2
 91
        1
300
_HEADER
309
CELLSTYLE_END
300
CELLSTYLE
  1
TABLEFORMAT_BEGIN
 90
        5
170
     1
 91
        0
 92
        0
 62
   257
 93
        1
300
CONTENTFORMAT
  1
CONTENTFORMAT_BEGIN
 90
        0
 91
        0
 92
        4
 93
        0
300

 40
0.0
140
1.0
 94
        2
 62
     0
340
11
144
4.5
309
CONTENTFORMAT_END
171
     1
301
MARGIN
  1
CELLMARGIN_BEGIN
 40
1.5
 40
1.5
 40
1.5
 40
1.5
 40
1.5
 40
1.5
309
CELLMARGIN_END
 94
        6
 95
        1
302
GRIDFORMAT
  1
GRIDFORMAT_BEGIN
 90
        0
 91
        1
 62
     0
 92
       -2
340
14
 93
        0
 40
0.045
309
GRIDFORMAT_END
 95
        2
302
GRIDFORMAT
  1
GRIDFORMAT_BEGIN
 90
        0
 91
        1
 62
     0
 92
       -2
340
14
 93
        0
 40
0.045
309
GRIDFORMAT_END
 95
        4
302
GRIDFORMAT
  1
GRIDFORMAT_BEGIN
 90
        0
 91
        1
 62
     0
 92
       -2
340
14
 93
        0
 40
0.045
309
GRIDFORMAT_END
 95
        8
302
GRIDFORMAT
  1
GRIDFORMAT_BEGIN
 90
        0
 91
        1
 62
     0
 92
       -2
340
14
 93
        0
 40
0.045
309
GRIDFORMAT_END
 95
       16
302
GRIDFORMAT
  1
GRIDFORMAT_BEGIN
 90
        0
 91
        1
 62
     0
 92
       -2
340
14
 93
        0
 40
0.045
309
GRIDFORMAT_END
 95
       32
302
GRIDFORMAT
  1
GRIDFORMAT_BEGIN
 90
        0
 91
        1
 62
     0
 92
       -2
340
14
 93
        0
 40
0.045
309
GRIDFORMAT_END
309
TABLEFORMAT_END
  1
CELLSTYLE_BEGIN
 90
        3
 91
        2
300
_DATA
309
CELLSTYLE_END
  0
ENDSEC
  0
EOF
