  0
SECTION
  2
HEADER
  9
$ACADVER
  1
AC1015
  9
$ACADMAINTVER
 70
     6
  9
$DWGCODEPAGE
  3
ANSI_1252
  9
$INSBASE
 10
0.0
 20
0.0
 30
0.0
  9
$EXTMIN
 10
-240.0
 20
-160.0
 30
0.0
  9
$EXTMAX
 10
240.0
 20
160.0
 30
0.0
  9
$LIMMIN
 10
0.0
 20
0.0
  9
$LIMMAX
 10
420.0
 20
297.0
  9
$ORTHOMODE
 70
     0
  9
$REGENMODE
 70
     1
  9
$FILLMODE
 70
     1
  9
$QTEXTMODE
 70
     0
  9
$MIRRTEXT
 70
     1
  9
$LTSCALE
 40
1.0
  9
$ATTMODE
 70
     1
  9
$TEXTSIZE
 40
3.5
  9
$TRACEWID
 40
1.0
  9
$TEXTSTYLE
  7
STANDARD
  9
$CLAYER
  8
0
  9
$CELTYPE
  6
ByLayer
  9
$CECOLOR
 62
   256
  9
$CELTSCALE
 40
1.0
  9
$DISPSILH
 70
     0
  9
$DIMSCALE
 40
1.0
  9
$DIMASZ
 40
7.4083333333
  9
$DIMEXO
 40
1.0
  9
$DIMDLI
 40
3.75
  9
$DIMRND
 40
0.0
  9
$DIMDLE
 40
0.0
  9
$DIMEXE
 40
1.0
  9
$DIMTP
 40
0.0
  9
$DIMTM
 40
0.0
  9
$DIMTXT
 40
9.8777777778
  9
$DIMCEN
 40
2.5
  9
$DIMTSZ
 40
0.0
  9
$DIMTOL
 70
     0
  9
$DIMLIM
 70
     0
  9
$DIMTIH
 70
     1
  9
$DIMTOH
 70
     1
  9
$DIMSE1
 70
     0
  9
$DIMSE2
 70
     0
  9
$DIMTAD
 70
     1
  9
$DIMZIN
 70
     0
  9
$DIMBLK
  1

  9
$DIMASO
 70
     1
  9
$DIMSHO
 70
     1
  9
$DIMPOST
  1

  9
$DIMAPOST
  1

  9
$DIMALT
 70
     0
  9
$DIMALTD
 70
     3
  9
$DIMALTF
 40
0.0393700787
  9
$DIMLFAC
 40
1.0
  9
$DIMTOFL
 70
     1
  9
$DIMTVP
 40
0.0
  9
$DIMTIX
 70
     0
  9
$DIMSOXD
 70
     0
  9
$DIMSAH
 70
     0
  9
$DIMBLK1
  1

  9
$DIMBLK2
  1

  9
$DIMSTYLE
  2
ISO-25
  9
$DIMCLRD
 70
     0
  9
$DIMCLRE
 70
     0
  9
$DIMCLRT
 70
     0
  9
$DIMTFAC
 40
1.0
  9
$DIMGAP
 40
1.524
  9
$DIMJUST
 70
     0
  9
$DIMSD1
 70
     0
  9
$DIMSD2
 70
     0
  9
$DIMTOLJ
 70
     0
  9
$DIMTZIN
 70
     0
  9
$DIMALTZ
 70
     0
  9
$DIMALTTZ
 70
     0
  9
$DIMUPT
 70
     0
  9
$DIMDEC
 70
     2
  9
$DIMTDEC
 70
     2
  9
$DIMALTU
 70
     2
  9
$DIMALTTD
 70
     3
  9
$DIMTXSTY
  7
STANDARD
  9
$DIMAUNIT
 70
     0
  9
$DIMADEC
 70
     2
  9
$DIMALTRND
 40
0.0
  9
$DIMAZIN
 70
     0
  9
$DIMDSEP
 70
    44
  9
$DIMATFIT
 70
     3
  9
$DIMFRAC
 70
     0
  9
$DIMLDRBLK
  1

  9
$DIMLUNIT
 70
     2
  9
$DIMLWD
 70
    -2
  9
$DIMLWE
 70
    -2
  9
$DIMTMOVE
 70
     0
  9
$LUNITS
 70
     2
  9
$LUPREC
 70
     2
  9
$SKETCHINC
 40
1.0
  9
$FILLETRAD
 40
10.0
  9
$AUNITS
 70
     0
  9
$AUPREC
 70
     2
  9
$MENU
  1
.
  9
$ELEVATION
 40
0.0
  9
$PELEVATION
 40
0.0
  9
$THICKNESS
 40
0.0
  9
$LIMCHECK
 70
     0
  9
$CHAMFERA
 40
0.0
  9
$CHAMFERB
 40
0.0
  9
$CHAMFERC
 40
0.0
  9
$CHAMFERD
 40
0.0
  9
$SKPOLY
 70
     0
  9
$TDCREATE
 40
2458369.413680729
  9
$TDUCREATE
 40
2458369.330347396
  9
$TDUPDATE
 40
2458369.413732211
  9
$TDUUPDATE
 40
2458369.330398877
  9
$TDINDWG
 40
0.0000000116
  9
$TDUSRTIMER
 40
0.0000000116
  9
$USRTIMER
 70
     1
  9
$ANGBASE
 50
0.0
  9
$ANGDIR
 70
     0
  9
$PDMODE
 70
     0
  9
$PDSIZE
 40
-1.0
  9
$PLINEWID
 40
0.0
  9
$SPLFRAME
 70
     0
  9
$SPLINETYPE
 70
     6
  9
$SPLINESEGS
 70
     8
  9
$HANDSEED
  5
138
  9
$SURFTAB1
 70
     6
  9
$SURFTAB2
 70
     6
  9
$SURFTYPE
 70
     6
  9
$SURFU
 70
     6
  9
$SURFV
 70
     6
  9
$UCSBASE
  2

  9
$UCSNAME
  2

  9
$UCSORG
 10
0.0
 20
0.0
 30
0.0
  9
$UCSXDIR
 10
1.0
 20
0.0
 30
0.0
  9
$UCSYDIR
 10
0.0
 20
1.0
 30
0.0
  9
$UCSORTHOREF
  2

  9
$UCSORTHOVIEW
 70
     0
  9
$UCSORGTOP
 10
0.0
 20
0.0
 30
0.0
  9
$UCSORGBOTTOM
 10
0.0
 20
0.0
 30
0.0
  9
$UCSORGLEFT
 10
0.0
 20
0.0
 30
0.0
  9
$UCSORGRIGHT
 10
0.0
 20
0.0
 30
0.0
  9
$UCSORGFRONT
 10
0.0
 20
0.0
 30
0.0
  9
$UCSORGBACK
 10
0.0
 20
0.0
 30
0.0
  9
$PUCSBASE
  2

  9
$PUCSNAME
  2

  9
$PUCSORG
 10
0.0
 20
0.0
 30
0.0
  9
$PUCSXDIR
 10
1.0
 20
0.0
 30
0.0
  9
$PUCSYDIR
 10
0.0
 20
1.0
 30
0.0
  9
$PUCSORTHOREF
  2

  9
$PUCSORTHOVIEW
 70
     0
  9
$PUCSORGTOP
 10
0.0
 20
0.0
 30
0.0
  9
$PUCSORGBOTTOM
 10
0.0
 20
0.0
 30
0.0
  9
$PUCSORGLEFT
 10
0.0
 20
0.0
 30
0.0
  9
$PUCSORGRIGHT
 10
0.0
 20
0.0
 30
0.0
  9
$PUCSORGFRONT
 10
0.0
 20
0.0
 30
0.0
  9
$PUCSORGBACK
 10
0.0
 20
0.0
 30
0.0
  9
$USERI1
 70
     0
  9
$USERI2
 70
     0
  9
$USERI3
 70
     0
  9
$USERI4
 70
     0
  9
$USERI5
 70
     0
  9
$USERR1
 40
0.0
  9
$USERR2
 40
0.0
  9
$USERR3
 40
0.0
  9
$USERR4
 40
0.0
  9
$USERR5
 40
0.0
  9
$WORLDVIEW
 70
     1
  9
$SHADEDGE
 70
     3
  9
$SHADEDIF
 70
    70
  9
$TILEMODE
 70
     1
  9
$MAXACTVP
 70
    64
  9
$PINSBASE
 10
0.0
 20
0.0
 30
0.0
  9
$PLIMCHECK
 70
     0
  9
$PEXTMIN
 10
-240.0
 20
-145.0
 30
0.0
  9
$PEXTMAX
 10
240.0
 20
0.0
 30
0.0
  9
$PLIMMIN
 10
-277.3540856031
 20
-159.0077821012
  9
$PLIMMAX
 10
277.3540856031
 20
233.2101167315
  9
$UNITMODE
 70
     0
  9
$VISRETAIN
 70
     1
  9
$PLINEGEN
 70
     0
  9
$PSLTSCALE
 70
     1
  9
$TREEDEPTH
 70
  3020
  9
$CMLSTYLE
  2
Standard
  9
$CMLJUST
 70
     0
  9
$CMLSCALE
 40
20.0
  9
$PROXYGRAPHICS
 70
     1
  9
$MEASUREMENT
 70
     1
  9
$CELWEIGHT
370
    -1
  9
$ENDCAPS
280
     0
  9
$JOINSTYLE
280
     0
  9
$LWDISPLAY
290
     1
  9
$INSUNITS
 70
     4
  9
$HYPERLINKBASE
  1

  9
$STYLESHEET
  1

  9
$XEDIT
290
     1
  9
$CEPSNTYPE
380
     0
  9
$PSTYLEMODE
290
     1
  9
$FINGERPRINTGUID
  2
{72A09995-1E0A-43DA-AD4E-1CD10BD8FB1D}
  9
$VERSIONGUID
  2
{FAEB1C32-E019-11D5-929B-00C0DF256EC4}
  9
$EXTNAMES
290
     1
  9
$PSVPSCALE
 40
0.0
  9
$OLESTARTUP
290
     0
  0
ENDSEC
  0
SECTION
  2
CLASSES
  0
CLASS
  1
ACDBDICTIONARYWDFLT
  2
AcDbDictionaryWithDefault
  3
ObjectDBX Classes
 90
        0
280
     0
281
     0
  0
CLASS
  1
VISUALSTYLE
  2
AcDbVisualStyle
  3
ObjectDBX Classes
 90
     4095
280
     0
281
     0
  0
CLASS
  1
MATERIAL
  2
AcDbMaterial
  3
ObjectDBX Classes
 90
     1153
280
     0
281
     0
  0
CLASS
  1
SCALE
  2
AcDbScale
  3
ObjectDBX Classes
 90
     1153
280
     0
281
     0
  0
CLASS
  1
TABLESTYLE
  2
AcDbTableStyle
  3
ObjectDBX Classes
 90
     4095
280
     0
281
     0
  0
CLASS
  1
MLEADERSTYLE
  2
AcDbMLeaderStyle
  3
ACDB_MLEADERSTYLE_CLASS
 90
     4095
280
     0
281
     0
  0
CLASS
  1
SUN
  2
AcDbSun
  3
SCENEOE
 90
     1153
280
     0
281
     0
  0
CLASS
  1
ACDBPLACEHOLDER
  2
AcDbPlaceHolder
  3
ObjectDBX Classes
 90
        0
280
     0
281
     0
  0
CLASS
  1
LAYOUT
  2
AcDbLayout
  3
ObjectDBX Classes
 90
        0
280
     0
281
     0
  0
ENDSEC
  0
SECTION
  2
TABLES
  0
TABLE
  2
VPORT
  5
8
330
0
100
AcDbSymbolTable
 70
     1
  0
VPORT
  5
29
330
8
100
AcDbSymbolTableRecord
100
AcDbViewportTableRecord
  2
*Active
 70
     0
 10
0.0
 20
0.0
 11
1.0
 21
1.0
 12
0.0
 22
0.0
 13
0.0
 23
0.0
 14
10.0
 24
10.0
 15
10.0
 25
10.0
 16
0.0
 26
0.0
 36
1.0
 17
0.0
 27
0.0
 37
0.0
 40
326.4
 41
1.5
 42
50.0
 43
0.0
 44
0.0
 50
0.0
 51
0.0
 71
     0
 72
   100
 73
     1
 74
     3
 75
     0
 76
     0
 77
     0
 78
     0
281
     0
 65
     1
110
0.0
120
0.0
130
0.0
111
1.0
121
0.0
131
0.0
112
0.0
122
1.0
132
0.0
 79
     0
146
0.0
  0
ENDTAB
  0
TABLE
  2
LTYPE
  5
5
330
0
100
AcDbSymbolTable
 70
     6
  0
LTYPE
  5
14
330
5
100
AcDbSymbolTableRecord
100
AcDbLinetypeTableRecord
  2
ByBlock
 70
     0
  3

 72
    65
 73
     0
 40
0.0
  0
LTYPE
  5
15
330
5
100
AcDbSymbolTableRecord
100
AcDbLinetypeTableRecord
  2
ByLayer
 70
     0
  3

 72
    65
 73
     0
 40
0.0
  0
LTYPE
  5
16
330
5
100
AcDbSymbolTableRecord
100
AcDbLinetypeTableRecord
  2
Continuous
 70
     0
  3
Solid line
 72
    65
 73
     0
 40
0.0
  0
LTYPE
  5
6E
330
5
100
AcDbSymbolTableRecord
100
AcDbLinetypeTableRecord
  2
HIDDEN
 70
     0
  3
Hidden __ __ __ __ __ __ __ __ __ __ __ __ __ __
 72
    65
 73
     2
 40
1.905
 49
1.27
 74
     0
 49
-0.635
 74
     0
  0
LTYPE
  5
6F
330
5
100
AcDbSymbolTableRecord
100
AcDbLinetypeTableRecord
  2
PHANTOM
 70
     0
  3
Phantom ______  __  __  ______  __  __  ______
 72
    65
 73
     6
 40
12.7
 49
6.35
 74
     0
 49
-1.27
 74
     0
 49
1.27
 74
     0
 49
-1.27
 74
     0
 49
1.27
 74
     0
 49
-1.27
 74
     0
  0
LTYPE
  5
70
330
5
100
AcDbSymbolTableRecord
100
AcDbLinetypeTableRecord
  2
CENTER
 70
     0
  3
Center ____ _ ____ _ ____ _ ____ _ ____ _ ____
 72
    65
 73
     4
 40
10.16
 49
6.35
 74
     0
 49
-1.27
 74
     0
 49
1.27
 74
     0
 49
-1.27
 74
     0
  0
LTYPE
  5
71
330
5
100
AcDbSymbolTableRecord
100
AcDbLinetypeTableRecord
  2
CENTERX2
 70
     0
  3
Center (2x) ________  __  ________  __  _____
 72
    65
 73
     4
 40
20.32
 49
12.7
 74
     0
 49
-2.54
 74
     0
 49
2.54
 74
     0
 49
-2.54
 74
     0
  0
LTYPE
  5
72
330
5
100
AcDbSymbolTableRecord
100
AcDbLinetypeTableRecord
  2
DOT2
 70
     0
  3
Dot (.5x) ........................................
 72
    65
 73
     2
 40
0.635
 49
0.0
 74
     0
 49
-0.635
 74
     0
  0
ENDTAB
  0
TABLE
  2
LAYER
  5
2
330
0
100
AcDbSymbolTable
 70
     1
  0
LAYER
  5
10
330
2
100
AcDbSymbolTableRecord
100
AcDbLayerTableRecord
  2
0
 70
     0
 62
     7
  6
Continuous
370
    -3
390
F
  0
ENDTAB
  0
TABLE
  2
STYLE
  5
3
330
0
100
AcDbSymbolTable
 70
     1
  0
STYLE
  5
11
330
3
100
AcDbSymbolTableRecord
100
AcDbTextStyleTableRecord
  2
STANDARD
 70
     0
 40
0.0
 41
1.0
 50
0.0
 71
     0
 42
3.5
  3
GOTHIC.TTF
  4

1001
ACAD
1000
CENTURY GOTHIC
1071
       34
  0
ENDTAB
  0
TABLE
  2
VIEW
  5
6
330
0
100
AcDbSymbolTable
 70
     0
  0
ENDTAB
  0
TABLE
  2
UCS
  5
7
330
0
100
AcDbSymbolTable
 70
     0
  0
ENDTAB
  0
TABLE
  2
APPID
  5
9
330
0
100
AcDbSymbolTable
 70
     1
  0
APPID
  5
12
330
9
100
AcDbSymbolTableRecord
100
AcDbRegAppTableRecord
  2
ACAD
 70
     0
  0
ENDTAB
  0
TABLE
  2
DIMSTYLE
  5
A
330
0
100
AcDbSymbolTable
 70
     1
100
AcDbDimStyleTable
  0
DIMSTYLE
105
27
330
A
100
AcDbSymbolTableRecord
100
AcDbDimStyleTableRecord
  2
ISO-25
 70
     0
 41
2.5
 42
0.625
 43
3.75
 44
1.25
 73
     0
 74
     0
 77
     1
 78
     8
140
2.5
141
2.5
143
0.0393700787
147
0.625
171
     3
172
     1
178
     0
271
     2
272
     2
274
     3
278
    44
283
     0
284
     8
340
11
  0
ENDTAB
  0
TABLE
  2
BLOCK_RECORD
  5
1
330
0
100
AcDbSymbolTable
 70
     8
  0
BLOCK_RECORD
  5
1F
330
1
100
AcDbSymbolTableRecord
100
AcDbBlockTableRecord
  2
*Model_Space
340
22
  0
BLOCK_RECORD
  5
1B
330
1
100
AcDbSymbolTableRecord
100
AcDbBlockTableRecord
  2
*Paper_Space
340
1E
  0
BLOCK_RECORD
  5
23
330
1
100
AcDbSymbolTableRecord
100
AcDbBlockTableRecord
  2
*Paper_Space0
340
26
  0
BLOCK_RECORD
  5
A1
330
1
100
AcDbSymbolTableRecord
100
AcDbBlockTableRecord
  2
*Paper_Space1
340
A2
  0
BLOCK_RECORD
  5
BD
330
1
100
AcDbSymbolTableRecord
100
AcDbBlockTableRecord
  2
*Paper_Space2
340
BE
  0
BLOCK_RECORD
  5
D2
330
1
100
AcDbSymbolTableRecord
100
AcDbBlockTableRecord
  2
*Paper_Space3
340
D3
  0
BLOCK_RECORD
  5
E8
330
1
100
AcDbSymbolTableRecord
100
AcDbBlockTableRecord
  2
*Paper_Space4
340
E9
  0
BLOCK_RECORD
  5
F2
330
1
100
AcDbSymbolTableRecord
100
AcDbBlockTableRecord
  2
*Paper_Space5
340
F3
  0
BLOCK_RECORD
  5
103
330
1
100
AcDbSymbolTableRecord
100
AcDbBlockTableRecord
  2
*Paper_Space6
340
104
  0
BLOCK_RECORD
  5
113
330
1
100
AcDbSymbolTableRecord
100
AcDbBlockTableRecord
  2
*Paper_Space7
340
114
  0
ENDTAB
  0
ENDSEC
  0
SECTION
  2
BLOCKS
  0
BLOCK
  5
20
330
1F
100
AcDbEntity
  8
0
100
AcDbBlockBegin
  2
*Model_Space
 70
     0
 10
0.0
 20
0.0
 30
0.0
  3
*Model_Space
  1

  0
ENDBLK
  5
21
330
1F
100
AcDbEntity
  8
0
100
AcDbBlockEnd
  0
BLOCK
  5
1C
330
1B
100
AcDbEntity
 67
     1
  8
0
100
AcDbBlockBegin
  2
*Paper_Space
 70
     0
 10
0.0
 20
0.0
 30
0.0
  3
*Paper_Space
  1

  0
ENDBLK
  5
1D
330
1B
100
AcDbEntity
 67
     1
  8
0
100
AcDbBlockEnd
  0
BLOCK
  5
24
330
23
100
AcDbEntity
  8
0
100
AcDbBlockBegin
  2
*Paper_Space0
 70
     0
 10
0.0
 20
0.0
 30
0.0
  3
*Paper_Space0
  1

  0
SPLINE
  5
8E
330
23
100
AcDbEntity
  8
0
  6
Continuous
 62
     7
370
    25
100
AcDbSpline
210
0.0
220
0.0
230
1.0
 70
     8
 71
     3
 72
    15
 73
    11
 74
     0
 42
0.000000001
 43
0.00000001
 40
0.0
 40
0.0
 40
0.0
 40
0.0
 40
0.111191899382766
 40
0.2381646974315929
 40
0.3651369948692633
 40
0.4921097223873366
 40
0.6190824089594429
 40
0.7460550913152076
 40
0.8730273129040071
 40
1.0
 40
1.0
 40
1.0
 40
1.0
 10
127.430493417324
 20
-89.96351984143344
 30
0.0
 10
129.7006795764009
 20
-87.14386680444692
 30
0.0
 10
134.5632478272475
 20
-81.10438176872269
 30
0.0
 10
140.9456276937774
 20
-71.05479137771249
 30
0.0
 10
146.740510105447
 20
-60.0858984175492
 30
0.0
 10
151.5253858495015
 20
-48.63427124895255
 30
0.0
 10
155.2948039118173
 20
-36.80995485150501
 30
0.0
 10
157.9887754842708
 20
-24.69956779028251
 30
0.0
 10
159.6841875219503
 20
-12.39777223761606
 30
0.0
 10
159.8947290453354
 20
-4.132595796178807
 30
0.0
 10
160.0
 20
0.0
 30
0.0
  0
SPLINE
  5
8F
330
23
100
AcDbEntity
  8
0
  6
Continuous
 62
     7
370
    25
100
AcDbSpline
210
0.0
220
0.0
230
1.0
 70
     8
 71
     3
 72
    15
 73
    11
 74
     0
 42
0.000000001
 43
0.00000001
 40
0.0
 40
0.0
 40
0.0
 40
0.0
 40
0.1268443377723443
 40
0.2536882105080493
 40
0.3805325435449556
 40
0.5073768807939413
 40
0.6342212589475064
 40
0.7610652074554117
 40
0.8879096560684334
 40
1.0
 40
1.0
 40
1.0
 40
1.0
 10
-160.0
 20
0.0
 30
0.0
 10
-159.8947289416322
 20
-4.132595719768081
 30
0.0
 10
-159.6841872108413
 20
-12.39777200838417
 30
0.0
 10
-157.9887767287032
 20
-24.69956870720777
 30
0.0
 10
-155.2947992451764
 20
-36.80995141302107
 30
0.0
 10
-151.5254032716288
 20
-48.63428408596005
 30
0.0
 10
-146.7404450836505
 20
-60.08585050805545
 30
0.0
 10
-140.9458703583419
 20
-71.05497017831564
 30
0.0
 10
-134.5446999070404
 20
-81.13159662515831
 30
0.0
 10
-129.6609801211567
 20
-87.19637811648877
 30
0.0
 10
-127.3699038629221
 20
-90.04152024080356
 30
0.0
  0
SPLINE
  5
92
330
23
100
AcDbEntity
  8
0
  6
Continuous
 62
     7
370
    25
100
AcDbSpline
210
0.0
220
0.0
230
1.0
 70
     8
 71
     3
 72
    13
 73
     9
 74
     0
 42
0.000000001
 43
0.00000001
 40
0.0
 40
0.0
 40
0.0
 40
0.0
 40
0.178509148291967
 40
0.3570176144333883
 40
0.5355268062111721
 40
0.7140358892822826
 40
0.8925451385060738
 40
1.0
 40
1.0
 40
1.0
 40
1.0
 10
47.50000000000004
 20
-137.9182254667157
 30
0.0
 10
51.56970443504
 20
-136.9738584914164
 30
0.0
 10
59.70909775324974
 20
-135.0851281495988
 30
0.0
 10
71.53605382999712
 20
-130.8892943247853
 30
0.0
 10
82.97262990863388
 20
-125.7442096770496
 30
0.0
 10
93.86964353426526
 20
-119.5469217632412
 30
0.0
 10
102.9102553548639
 20
-113.4764884243215
 30
0.0
 10
108.0015739076546
 20
-109.1344616315151
 30
0.0
 10
109.9147053441083
 20
-107.5028866536168
 30
0.0
  0
SPLINE
  5
93
330
23
100
AcDbEntity
  8
0
  6
Continuous
 62
     7
370
    25
100
AcDbSpline
210
0.0
220
0.0
230
1.0
 70
     8
 71
     3
 72
    13
 73
     9
 74
     0
 42
0.000000001
 43
0.00000001
 40
0.0
 40
0.0
 40
0.0
 40
0.0
 40
0.1071954209837799
 40
0.2857565583739902
 40
0.4643175295632253
 40
0.642878609490732
 40
0.8214389635709509
 40
1.0
 40
1.0
 40
1.0
 40
1.0
 10
-109.8990030037153
 20
-107.5158926027625
 30
0.0
 10
-107.9910096624031
 20
-109.1430099805498
 30
0.0
 10
-102.9047699181107
 20
-113.4805036689917
 30
0.0
 10
-93.86958850583275
 20
-119.5468516820137
 30
0.0
 10
-82.97264464839857
 20
-125.7442284488147
 30
0.0
 10
-71.53604989941049
 20
-130.8892893190035
 30
0.0
 10
-59.70909873589899
 20
-135.0851294010478
 30
0.0
 10
-51.56970476259011
 20
-136.9738589085667
 30
0.0
 10
-47.49999999999994
 20
-137.9182254667158
 30
0.0
  0
SPLINE
  5
98
330
23
100
AcDbEntity
  8
0
  6
Continuous
 62
     7
370
    25
100
AcDbSpline
210
0.0
220
0.0
230
1.0
 70
     8
 71
     3
 72
    49
 73
    45
 74
     0
 42
0.000000001
 43
0.00000001
 40
0.0
 40
0.0
 40
0.0
 40
0.0
 40
0.0206065548907179
 40
0.0412477282802989
 40
0.0619948538958938
 40
0.0827781823574551
 40
0.1214186049829596
 40
0.1408564608216743
 40
0.1603292224690125
 40
0.194274331437457
 40
0.228443970599803
 40
0.2574099926829146
 40
0.2865655273523277
 40
0.3112059536616415
 40
0.3360078579249496
 40
0.3572616825819813
 40
0.3786562257541056
 40
0.4005536098418404
 40
0.4226548093624607
 40
0.439042960755976
 40
0.4555359373206067
 40
0.472376710524903
 40
0.4893451436841635
 40
0.5057358603302368
 40
0.5222483895268726
 40
0.5385546157535652
 40
0.5549750709634826
 40
0.5717375345540746
 40
0.588609505989626
 40
0.6054369980414982
 40
0.6223566157185132
 40
0.6395376783945518
 40
0.6567976235305577
 40
0.6824241036980513
 40
0.7082508175332275
 40
0.7338697387471579
 40
0.7596332919075526
 40
0.7942155820787535
 40
0.8290605797280497
 40
0.8636339502675369
 40
0.8984082036946067
 40
0.9329772291565364
 40
0.9677181063844389
 40
1.0
 40
1.0
 40
1.0
 40
1.0
 10
110.0
 20
-107.6058209720354
 30
0.0
 10
109.9667029114121
 20
-107.6005370777243
 30
0.0
 10
109.900052795957
 20
-107.5899604122911
 30
0.0
 10
109.3592189867799
 20
-107.512479904589
 30
0.0
 10
108.4904116418114
 20
-107.3984149652394
 30
0.0
 10
106.9038955158617
 20
-107.2047928974569
 30
0.0
 10
104.6940280284942
 20
-106.956384086752
 30
0.0
 10
101.879713977388
 20
-106.6663620648314
 30
0.0
 10
98.82555064225109
 20
-106.3701670841688
 30
0.0
 10
94.46327353128913
 20
-105.9832009613017
 30
0.0
 10
88.61848510361868
 20
-105.537724942973
 30
0.0
 10
82.13890508694894
 20
-105.1181781315188
 30
0.0
 10
75.54102087798601
 20
-104.7446800545625
 30
0.0
 10
68.56703471179719
 20
-104.4018274554129
 30
0.0
 10
61.69970543667833
 20
-104.1171968946226
 30
0.0
 10
54.62234496855551
 20
-103.8721693525992
 30
0.0
 10
47.39269939786155
 20
-103.6621384818146
 30
0.0
 10
39.61997984115933
 20
-103.4781670326826
 30
0.0
 10
32.05595779598679
 20
-103.3391918617292
 30
0.0
 10
24.9080608158681
 20
-103.2408751064239
 30
0.0
 10
18.2733552624946
 20
-103.1761615096949
 30
0.0
 10
11.42731072268551
 20
-103.1356641956766
 30
0.0
 10
4.507723003111935
 20
-103.1181565868996
 30
0.0
 10
-2.399993624115934
 20
-103.1165387483768
 30
0.0
 10
-9.198465582305333
 20
-103.1278612235782
 30
0.0
 10
-15.93344459320543
 20
-103.1596992935688
 30
0.0
 10
-22.58889299334789
 20
-103.215176667106
 30
0.0
 10
-29.16141796596697
 20
-103.2963361266929
 30
0.0
 10
-35.58741531497036
 20
-103.4016616211283
 30
0.0
 10
-41.802146566312
 20
-103.5285176069296
 30
0.0
 10
-47.79876937224544
 20
-103.675433429758
 30
0.0
 10
-53.56871857810329
 20
-103.8413539592445
 30
0.0
 10
-59.9753219291153
 20
-104.0540176669923
 30
0.0
 10
-66.80954405472328
 20
-104.3231027008184
 30
0.0
 10
-73.79948426059512
 20
-104.6542625672209
 30
0.0
 10
-80.13344491877366
 20
-105.0015874077441
 30
0.0
 10
-86.45707745236145
 20
-105.3904394590654
 30
0.0
 10
-92.53804717651916
 20
-105.8273488568098
 30
0.0
 10
-98.06490220518094
 20
-106.2961047024365
 30
0.0
 10
-102.523117317572
 20
-106.726560499111
 30
0.0
 10
-105.9364141341338
 20
-107.0927828899273
 30
0.0
 10
-108.3195956508929
 20
-107.3732842414308
 30
0.0
 10
-109.7561304653408
 20
-107.5671161025312
 30
0.0
 10
-109.90041548563
 20
-107.5902528824399
 30
0.0
 10
-109.9699111751797
 20
-107.6013968422944
 30
0.0
  0
SPLINE
  5
99
330
23
100
AcDbEntity
  8
0
  6
Continuous
 62
     7
370
    25
100
AcDbSpline
210
0.0
220
0.0
230
1.0
 70
     8
 71
     3
 72
    21
 73
    17
 74
     0
 42
0.000000001
 43
0.00000001
 40
0.0
 40
0.0
 40
0.0
 40
0.0
 40
0.0062500000000001
 40
0.0083333333333333
 40
0.0416666666666666
 40
0.0833333333333334
 40
0.1249999999999999
 40
0.1666666666666666
 40
0.2083333333333334
 40
0.2499999999999998
 40
0.2916666666666666
 40
0.3333333333333334
 40
0.3750000000000001
 40
0.4166666666666666
 40
0.4583333333333334
 40
0.500000000000984
 40
0.500000000000984
 40
0.500000000000984
 40
0.500000000000984
 10
47.50000000000004
 20
-137.9182254667157
 30
0.0
 10
47.50000000000003
 20
-137.9182254667158
 30
0.0
 10
47.48276307583742
 20
-137.9164708130743
 30
0.0
 10
47.28351194792439
 20
-137.8965847384702
 30
0.0
 10
46.03075084791712
 20
-137.7739539450781
 30
0.0
 10
41.54905860385331
 20
-137.3918293742528
 30
0.0
 10
33.97444197527062
 20
-136.8654332817889
 30
0.0
 10
24.08028855588263
 20
-136.3390371893246
 30
0.0
 10
12.54543607579471
 20
-135.9296180062964
 30
0.0
 10
-0.0000000000000479
 20
-135.7541526421406
 30
0.0
 10
-12.54543607579474
 20
-135.9296180062936
 30
0.0
 10
-24.08028855588252
 20
-136.3390371893195
 30
0.0
 10
-33.97444197527038
 20
-136.8654332817824
 30
0.0
 10
-41.54905860385295
 20
-137.3918293742463
 30
0.0
 10
-46.35087172247678
 20
-137.8012485572771
 30
0.0
 10
-47.50000000000168
 20
-137.9182254667157
 30
0.0
 10
-47.49999999999994
 20
-137.9182254667158
 30
0.0
  0
SPLINE
  5
9A
330
23
100
AcDbEntity
  8
0
  6
Continuous
 62
     7
370
    25
100
AcDbSpline
210
0.0
220
0.0
230
1.0
 70
    24
 71
     3
 72
    21
 73
    17
 74
     0
 42
0.000000001
 43
0.00000001
 40
0.0
 40
0.0
 40
0.0
 40
0.0
 40
0.0062500000000001
 40
0.0083333333333333
 40
0.0416666666666666
 40
0.0833333333333334
 40
0.1249999999999999
 40
0.1666666666666666
 40
0.2083333333333334
 40
0.2499999999999998
 40
0.2916666666666666
 40
0.3333333333333334
 40
0.3750000000000001
 40
0.4166666666666666
 40
0.4583333333333334
 40
0.500000000000984
 40
0.500000000000984
 40
0.500000000000984
 40
0.500000000000984
 10
47.5
 20
-145.0
 30
0.0
 10
47.49999999999997
 20
-145.0
 30
0.0
 10
47.48246192197675
 20
-145.0
 30
0.0
 10
47.27989419102759
 20
-144.9999999999999
 30
0.0
 10
46.00727562894463
 20
-145.0
 30
0.0
 10
41.47800725583369
 20
-145.0
 30
0.0
 10
33.88269844099852
 20
-145.0
 30
0.0
 10
24.00514091005665
 20
-145.0
 30
0.0
 10
12.4896615061076
 20
-145.0
 30
0.0
 10
-0.0000000000001085
 20
-145.0
 30
0.0
 10
-12.4896615061074
 20
-145.0
 30
0.0
 10
-24.00514091005561
 20
-145.0
 30
0.0
 10
-33.88269844099665
 20
-145.0
 30
0.0
 10
-41.47800725583136
 20
-145.0
 30
0.0
 10
-46.33079479843558
 20
-145.0
 30
0.0
 10
-47.50000000000044
 20
-145.0
 30
0.0
 10
-47.50000000000001
 20
-145.0
 30
0.0
  0
LINE
  5
9B
330
23
100
AcDbEntity
  8
0
  6
Continuous
 62
     7
370
    25
100
AcDbLine
 10
-110.0
 20
-90.0
 30
0.0
 11
-110.0
 21
-107.6013968423
 31
0.0
  0
LINE
  5
9C
330
23
100
AcDbEntity
  8
0
  6
Continuous
 62
     7
370
    25
100
AcDbLine
 10
110.0
 20
-107.605820972
 30
0.0
 11
110.0
 21
-90.0
 31
0.0
  0
LINE
  5
9D
330
23
100
AcDbEntity
  8
0
  6
Continuous
 62
     7
370
    25
100
AcDbLine
 10
47.5
 20
-145.0
 30
0.0
 11
47.5
 21
-137.9182254667
 31
0.0
  0
LINE
  5
9E
330
23
100
AcDbEntity
  8
0
  6
Continuous
 62
     7
370
    25
100
AcDbLine
 10
-47.5
 20
-137.9182254667
 30
0.0
 11
-47.5
 21
-145.0
 31
0.0
  0
LINE
  5
9F
330
23
100
AcDbEntity
  8
0
  6
Continuous
 62
     7
370
    25
100
AcDbLine
 10
-127.3164524818
 20
-90.0
 30
0.0
 11
127.4774822767
 21
-90.0
 31
0.0
  0
LINE
  5
A0
330
23
100
AcDbEntity
  8
0
  6
Continuous
 62
     7
370
    25
100
AcDbLine
 10
-160.0
 20
0.0
 30
0.0
 11
160.0
 21
0.0
 31
0.0
  0
VIEWPORT
  5
128
330
23
100
AcDbEntity
  8
0
100
AcDbViewport
 10
0.0
 20
0.0
 30
0.0
 40
205.6
 41
156.0
 68
     1
 69
     1
 12
0.0
 22
0.0
 13
0.0
 23
0.0
 14
10.0
 24
10.0
 15
10.0
 25
10.0
 16
0.0
 26
0.0
 36
1.0
 17
0.0
 27
0.0
 37
0.0
 42
50.0
 43
0.0
 44
0.0
 45
371.486381323
 50
0.0
 51
0.0
 72
   100
 90
   557152
  1

281
     0
 71
     1
 74
     0
110
0.0
120
0.0
130
0.0
111
1.0
121
0.0
131
0.0
112
0.0
122
1.0
132
0.0
 79
     0
146
0.0
  0
ENDBLK
  5
25
330
23
100
AcDbEntity
  8
0
100
AcDbBlockEnd
  0
BLOCK
  5
A3
330
A1
100
AcDbEntity
  8
0
100
AcDbBlockBegin
  2
*Paper_Space1
 70
     0
 10
0.0
 20
0.0
 30
0.0
  3
*Paper_Space1
  1

  0
SPLINE
  5
A5
330
A1
100
AcDbEntity
  8
0
  6
Continuous
 62
     7
370
    25
100
AcDbSpline
210
0.0
220
0.0
230
1.0
 70
     8
 71
     3
 72
    15
 73
    11
 74
     0
 42
0.000000001
 43
0.00000001
 40
0.0
 40
0.0
 40
0.0
 40
0.0
 40
0.1202818978432742
 40
0.2459559623306844
 40
0.3716299081429204
 40
0.4973039575115005
 40
0.6229779960482712
 40
0.7486520324520177
 40
0.8743259608785274
 40
1.0
 40
1.0
 40
1.0
 40
1.0
 10
170.7239592285222
 20
-90.0357077626467
 30
0.0
 10
174.2869386173778
 20
-87.12357920571532
 30
0.0
 10
181.5726236627888
 20
-81.1687730836504
 30
0.0
 10
191.8506955543219
 20
-71.33151273211193
 30
0.0
 10
201.6896919511292
 20
-60.78090113365207
 30
0.0
 10
210.8465861781971
 20
-49.62962756924705
 30
0.0
 10
219.3058924837474
 20
-37.9404375045137
 30
0.0
 10
227.0126298343233
 20
-25.74485581712002
 30
0.0
 10
234.0115735477241
 20
-13.12210813056953
 30
0.0
 10
238.0038572631672
 20
-4.374037327755264
 30
0.0
 10
240.0000000000001
 20
0.0
 30
0.0
  0
SPLINE
  5
A6
330
A1
100
AcDbEntity
  8
0
  6
Continuous
 62
     7
370
    25
100
AcDbSpline
210
0.0
220
0.0
230
1.0
 70
     8
 71
     3
 72
    15
 73
    11
 74
     0
 42
0.000000001
 43
0.00000001
 40
0.0
 40
0.0
 40
0.0
 40
0.0
 40
0.1257038124975986
 40
0.25140751427401
 40
0.3771113240532368
 40
0.5028151359659928
 40
0.6285189587131272
 40
0.7542226778793837
 40
0.8799265157489274
 40
1.0
 40
1.0
 40
1.0
 40
1.0
 10
-240.0000000000001
 20
0.0
 30
0.0
 10
-238.0038572781206
 20
-4.374037344949927
 30
0.0
 10
-234.0115735925841
 20
-13.12210818215351
 30
0.0
 10
-227.0126296548831
 20
-25.74485561078454
 30
0.0
 10
-219.3058931566476
 20
-37.94043827827245
 30
0.0
 10
-210.8465836660365
 20
-49.62962468054786
 30
0.0
 10
-201.6897013268699
 20
-60.78091191468766
 30
0.0
 10
-191.8506605635372
 20
-71.33147249668862
 30
0.0
 10
-181.5793023713707
 20
-81.16265075406407
 30
0.0
 10
-174.3007070821716
 20
-87.11180720457244
 30
0.0
 10
-170.7447797521527
 20
-90.01824274225285
 30
0.0
  0
SPLINE
  5
A9
330
A1
100
AcDbEntity
  8
0
  6
Continuous
 62
     7
370
    25
100
AcDbSpline
210
0.0
220
0.0
230
1.0
 70
     8
 71
     3
 72
    13
 73
     9
 74
     0
 42
0.000000001
 43
0.00000001
 40
0.0
 40
0.0
 40
0.0
 40
0.0
 40
0.1677574888791683
 40
0.3355148236977269
 40
0.5032723202514912
 40
0.6710297938920046
 40
0.8387873063615915
 40
1.0
 40
1.0
 40
1.0
 40
1.0
 10
72.49999999999991
 20
-135.8126410968587
 30
0.0
 10
77.24172484978745
 20
-134.7516990883535
 30
0.0
 10
86.72517019478478
 20
-132.6298160456624
 30
0.0
 10
100.6634495594956
 20
-128.330946259041
 30
0.0
 10
114.3257134078645
 20
-123.2390786222864
 30
0.0
 10
127.6296372014992
 20
-117.2738352783764
 30
0.0
 10
140.4083689675652
 20
-110.6428347662014
 30
0.0
 10
148.4922849648973
 20
-105.599159341209
 30
0.0
 10
152.4538287426603
 20
-103.1274932571566
 30
0.0
  0
SPLINE
  5
AA
330
A1
100
AcDbEntity
  8
0
  6
Continuous
 62
     7
370
    25
100
AcDbSpline
210
0.0
220
0.0
230
1.0
 70
     8
 71
     3
 72
    13
 73
     9
 74
     0
 42
0.000000001
 43
0.00000001
 40
0.0
 40
0.0
 40
0.0
 40
0.0
 40
0.1610866170121031
 40
0.3288693448146463
 40
0.4966520337822794
 40
0.6644347456666072
 40
0.8322172957914206
 40
1.0
 40
1.0
 40
1.0
 40
1.0
 10
-152.442664782501
 20
-103.1342596685632
 30
0.0
 10
-148.4848006288841
 20
-105.6035985594241
 30
0.0
 10
-140.4045502939504
 20
-110.6449227750897
 30
0.0
 10
-127.6296242425324
 20
-117.2738129871623
 30
0.0
 10
-114.3257168790168
 20
-123.2390845931478
 30
0.0
 10
-100.6634486338562
 20
-128.3309446668129
 30
0.0
 10
-86.725170426195
 20
-132.6298164437196
 30
0.0
 10
-77.2417249269243
 20
-134.7516992210392
 30
0.0
 10
-72.50000000000007
 20
-135.8126410968587
 30
0.0
  0
SPLINE
  5
AD
330
A1
100
AcDbEntity
  8
0
  6
Continuous
 62
     7
370
    25
100
AcDbSpline
210
0.0
220
0.0
230
1.0
 70
    24
 71
     3
 72
    31
 73
    27
 74
     0
 42
0.000000001
 43
0.00000001
 40
0.0
 40
0.0
 40
0.0
 40
0.0
 40
0.0642351190457266
 40
0.1291049714265473
 40
0.1942904761065055
 40
0.260136134570139
 40
0.2986348958635075
 40
0.3372088503553372
 40
0.3760235364555337
 40
0.4149230046581029
 40
0.4541439435527009
 40
0.4934651306654766
 40
0.5330629413980639
 40
0.5727885535046513
 40
0.6068420179046076
 40
0.651791024946966
 40
0.6969965442808719
 40
0.7252528043802207
 40
0.7535904643293826
 40
0.7905347651474168
 40
0.8277064316871736
 40
0.8651307101858595
 40
0.9028410060130498
 40
0.93988759432179
 40
0.9772574073596915
 40
1.0
 40
1.0
 40
1.0
 40
1.0
 10
-0.00000000000019
 20
-90.0
 30
0.0
 10
5.031507985789703
 20
-90.0
 30
0.0
 10
15.14424233404284
 20
-89.99999999999999
 30
0.0
 10
30.28927862399545
 20
-90.00000000000003
 30
0.0
 10
45.41229782451243
 20
-90.0
 30
0.0
 10
58.30406176974599
 20
-90.00000000000004
 30
0.0
 10
68.98644338595022
 20
-89.99999999999999
 30
0.0
 10
77.52011740688201
 20
-90.00000000000003
 30
0.0
 10
85.93300693770603
 20
-89.99999999999996
 30
0.0
 10
94.21893968342127
 20
-90.0000000000001
 30
0.0
 10
102.3409165424978
 20
-89.99999999999994
 30
0.0
 10
110.2802068605492
 20
-90.0
 30
0.0
 10
117.9864401161407
 20
-90.0
 30
0.0
 10
125.0539270437919
 20
-90.00000000000003
 30
0.0
 10
132.1253710352463
 20
-89.99999999999997
 30
0.0
 10
139.1170897447017
 20
-90.0
 30
0.0
 10
145.2738954410243
 20
-90.00000000000003
 30
0.0
 10
150.1531628248342
 20
-90.0
 30
0.0
 10
154.3169835815394
 20
-90.00000000000003
 30
0.0
 10
158.4391821054746
 20
-89.99999999999999
 30
0.0
 10
162.3268328371512
 20
-89.99999999999999
 30
0.0
 10
165.5714941484062
 20
-90.00000000000001
 30
0.0
 10
168.0982629745841
 20
-90.00000000000001
 30
0.0
 10
169.8181478794804
 20
-90.00000000000003
 30
0.0
 10
170.7312439043667
 20
-89.99999999999994
 30
0.0
 10
170.7042274860881
 20
-89.99999999999999
 30
0.0
 10
170.694006244922
 20
-89.99999999999997
 30
0.0
  0
SPLINE
  5
AE
330
A1
100
AcDbEntity
  8
0
  6
Continuous
 62
     7
370
    25
100
AcDbSpline
210
0.0
220
0.0
230
1.0
 70
    24
 71
     3
 72
    29
 73
    25
 74
     0
 42
0.000000001
 43
0.00000001
 40
0.0
 40
0.0
 40
0.0
 40
0.0
 40
0.0266331212609913
 40
0.0620101382716588
 40
0.0976733865305236
 40
0.1304769874490133
 40
0.1634794143821248
 40
0.1966674433352299
 40
0.2300318346074032
 40
0.2672660036801
 40
0.3046987525570055
 40
0.341577709977182
 40
0.378606864666939
 40
0.4153150219062368
 40
0.4760798760508154
 40
0.5373198563201577
 40
0.5991910333626581
 40
0.6618788547718066
 40
0.7241619043761431
 40
0.7870789070506119
 40
0.8503037323137709
 40
0.9141457181558068
 40
0.9570269213046694
 40
1.0
 40
1.0
 40
1.0
 40
1.0
 10
-170.7294770695139
 20
-89.99999999999997
 30
0.0
 10
-170.7148532622559
 20
-89.99999999999997
 30
0.0
 10
-170.6808045189171
 20
-89.99999999999991
 30
0.0
 10
-169.7366830443393
 20
-90.00000000000009
 30
0.0
 10
-168.1129243125346
 20
-89.99999999999997
 30
0.0
 10
-165.8665492653494
 20
-90.00000000000003
 30
0.0
 10
-163.1167798234464
 20
-90.0
 30
0.0
 10
-159.8148596457417
 20
-90.0
 30
0.0
 10
-155.8545464708006
 20
-90.00000000000001
 30
0.0
 10
-151.2075592100206
 20
-89.99999999999997
 30
0.0
 10
-145.8952209615702
 20
-89.99999999999996
 30
0.0
 10
-140.1386813405256
 20
-90.0
 30
0.0
 10
-134.021198880438
 20
-90.00000000000001
 30
0.0
 10
-126.1531133810136
 20
-90.00000000000001
 30
0.0
 10
-116.2628094901141
 20
-89.99999999999994
 30
0.0
 10
-104.0910832172707
 20
-90.00000000000003
 30
0.0
 10
-91.20800393135208
 20
-90.00000000000001
 30
0.0
 10
-77.76971299965318
 20
-89.99999999999994
 30
0.0
 10
-63.86372119514798
 20
-90.00000000000004
 30
0.0
 10
-49.60850930198556
 20
-90.00000000000001
 30
0.0
 10
-35.00091898439422
 20
-89.99999999999999
 30
0.0
 10
-21.78792750319215
 20
-90.00000000000001
 30
0.0
 10
-10.08973746052032
 20
-89.99999999999996
 30
0.0
 10
-3.365644379348734
 20
-89.99999999999999
 30
0.0
 10
-0.00000000000019
 20
-90.0
 30
0.0
  0
SPLINE
  5
AF
330
A1
100
AcDbEntity
  8
0
  6
Continuous
 62
     7
370
    25
100
AcDbSpline
210
0.0
220
0.0
230
1.0
 70
    24
 71
     3
 72
    15
 73
    11
 74
     0
 42
0.000000001
 43
0.00000001
 40
0.7499999999999999
 40
0.7499999999999999
 40
0.7499999999999999
 40
0.7499999999999999
 40
0.7916666666666666
 40
0.8333333333333334
 40
0.875
 40
0.9166666666666666
 40
0.9583333333333334
 40
0.9916666666666667
 40
0.99375
 40
1.0
 40
1.0
 40
1.0
 40
1.0
 10
240.0000000000001
 20
0.0
 30
0.0
 10
239.9999999999989
 20
0.0
 30
0.0
 10
234.3653754005922
 20
0.0
 30
0.0
 10
210.3843271333237
 20
0.0
 30
0.0
 10
171.6977681166116
 20
0.0
 30
0.0
 10
121.058365308858
 20
0.0
 30
0.0
 10
67.02268480654146
 20
0.0
 30
0.0
 10
28.3970088970638
 20
0.0
 30
0.0
 10
7.369015889910234
 20
0.0
 30
0.0
 10
3.158149667104208
 20
0.0
 30
0.0
 10
-0.0000000000003118
 20
0.0
 30
0.0
  0
SPLINE
  5
B1
330
A1
100
AcDbEntity
  8
0
  6
Continuous
 62
     7
370
    25
100
AcDbSpline
210
0.0
220
0.0
230
1.0
 70
     8
 71
     3
 72
    29
 73
    25
 74
     0
 42
0.000000001
 43
0.00000001
 40
0.0
 40
0.0
 40
0.0
 40
0.0
 40
0.041212880300034
 40
0.0824949972122712
 40
0.1239890173966174
 40
0.1655554428697293
 40
0.2428358578082288
 40
0.2817113530192752
 40
0.320656659458846
 40
0.3885464993717891
 40
0.456885397172093
 40
0.5148171187631266
 40
0.5731278634162885
 40
0.62240844163099
 40
0.672011973955408
 40
0.7145193865798598
 40
0.7573082346674088
 40
0.8011027589863764
 40
0.845304911901359
 40
0.8780810321845226
 40
0.9110668016425492
 40
0.9447481605067289
 40
0.9786848378591735
 40
0.9999999999999999
 40
0.9999999999999999
 40
0.9999999999999999
 40
0.9999999999999999
 10
-0.0000000000001487
 20
-107.6058209720354
 30
0.0
 10
-2.851170239954666
 20
-107.6005370777243
 30
0.0
 10
-8.558300614838078
 20
-107.5899604122911
 30
0.0
 10
-17.12163778491833
 20
-107.5124799045891
 30
0.0
 10
-25.6805965252452
 20
-107.3984149652393
 30
0.0
 10
-36.65943290281374
 20
-107.2047928974572
 30
0.0
 10
-47.35525156622947
 20
-106.9563840867496
 30
0.0
 10
-57.70760797023059
 20
-106.6663620648354
 30
0.0
 10
-67.3119236064478
 20
-106.3701670841485
 30
0.0
 10
-78.62493507485146
 20
-105.9832009614431
 30
0.0
 10
-90.72820865879018
 20
-105.5377249424846
 30
0.0
 10
-101.7372581925453
 20
-105.1181781330376
 30
0.0
 10
-111.1058571666883
 20
-104.7446800491978
 30
0.0
 10
-119.4560932055073
 20
-104.4018274720641
 30
0.0
 10
-126.4323598543537
 20
-104.1171968354755
 30
0.0
 10
-132.5242871712895
 20
-103.872169539042
 30
0.0
 10
-137.7806691911857
 20
-103.6621377702288
 30
0.0
 10
-142.4324132181655
 20
-103.4781697690987
 30
0.0
 10
-146.0130027687935
 20
-103.339182678974
 30
0.0
 10
-148.6339104961472
 20
-103.2408997403574
 30
0.0
 10
-150.4846158748056
 20
-103.1760671598569
 30
0.0
 10
-151.7628175730097
 20
-103.1360259293945
 30
0.0
 10
-152.4416526221894
 20
-103.1190095820627
 30
0.0
 10
-152.4358845284564
 20
-103.1192808201453
 30
0.0
 10
-152.4336593020333
 20
-103.1193854589005
 30
0.0
  0
SPLINE
  5
B2
330
A1
100
AcDbEntity
  8
0
  6
Continuous
 62
     7
370
    25
100
AcDbSpline
210
0.0
220
0.0
230
1.0
 70
     8
 71
     3
 72
    30
 73
    26
 74
     0
 42
0.000000001
 43
0.00000001
 40
0.0
 40
0.0
 40
0.0
 40
0.0
 40
0.0249488059530155
 40
0.0577033994351545
 40
0.0911884379423209
 40
0.1249158819148897
 40
0.1572846671085405
 40
0.1898437739151907
 40
0.2229522466663705
 40
0.2562296689011557
 40
0.3024916103793082
 40
0.3491143305988316
 40
0.3953635345584709
 40
0.4418775594681673
 40
0.4891208029989262
 40
0.5365764499325726
 40
0.5916222429648029
 40
0.6469279006272776
 40
0.6855747372286033
 40
0.7242952920650353
 40
0.8022125650377542
 40
0.8513518404198176
 40
0.9006148613655804
 40
0.9502467003487641
 40
0.9999999999999999
 40
0.9999999999999999
 40
0.9999999999999999
 40
0.9999999999999999
 10
152.4487503406603
 20
-103.1190743291231
 30
0.0
 10
152.4366374325705
 20
-103.1192581186413
 30
0.0
 10
152.408621824323
 20
-103.1196832003067
 30
0.0
 10
151.677173136584
 20
-103.1385519627607
 30
0.0
 10
150.3622816524933
 20
-103.1801278226442
 30
0.0
 10
148.4664172530769
 20
-103.2470216538438
 30
0.0
 10
146.0717950220575
 20
-103.3371426335894
 30
0.0
 10
143.2153189070191
 20
-103.4477392547845
 30
0.0
 10
139.8844208251941
 20
-103.5788079842227
 30
0.0
 10
135.6211820028521
 20
-103.7482727711321
 30
0.0
 10
130.2721430513941
 20
-103.9624165266399
 30
0.0
 10
123.7365252375079
 20
-104.2267454396146
 30
0.0
 10
116.6427053531054
 20
-104.5174107386531
 30
0.0
 10
109.0496355993921
 20
-104.8277785065128
 30
0.0
 10
100.9856203833437
 20
-105.1462380535324
 30
0.0
 10
92.06739227313291
 20
-105.4866632709201
 30
0.0
 10
82.31552871118863
 20
-105.8482423396243
 30
0.0
 10
72.81550671399725
 20
-106.1838954426321
 30
0.0
 10
64.17799539538959
 20
-106.4680916733166
 30
0.0
 10
53.9207450751447
 20
-106.7802227624339
 30
0.0
 10
42.76396344823609
 20
-107.0711861165066
 30
0.0
 10
30.74495628258654
 20
-107.3156291716923
 30
0.0
 10
20.57764776737011
 20
-107.4730822173761
 30
0.0
 10
10.3183377500492
 20
-107.5827670095756
 30
0.0
 10
3.442247055031818
 20
-107.5981300593801
 30
0.0
 10
-0.0000000000001487
 20
-107.6058209720354
 30
0.0
  0
SPLINE
  5
B3
330
A1
100
AcDbEntity
  8
0
  6
Continuous
 62
     7
370
    25
100
AcDbSpline
210
0.0
220
0.0
230
1.0
 70
     8
 71
     3
 72
    15
 73
    11
 74
     0
 42
0.000000001
 43
0.00000001
 40
0.0
 40
0.0
 40
0.0
 40
0.0
 40
0.0062500000000001
 40
0.0083333333333333
 40
0.0416666666666666
 40
0.0833333333333334
 40
0.1249999999999999
 40
0.1666666666666666
 40
0.2083333333333334
 40
0.2499999999999998
 40
0.2499999999999998
 40
0.2499999999999998
 40
0.2499999999999998
 10
-0.0000000000000557
 20
-137.9182254667157
 30
0.0
 10
-0.948946230158175
 20
-137.9182254667158
 30
0.0
 10
-2.214207870368964
 20
-137.9164708130743
 30
0.0
 10
-8.533165992046417
 20
-137.8965847384702
 30
0.0
 10
-20.14618518501956
 20
-137.7739539450781
 30
0.0
 10
-36.48783333103652
 20
-137.3918293742528
 30
0.0
 10
-51.62741250441481
 20
-136.8654332817889
 30
0.0
 10
-63.29250172470201
 20
-136.3390371893246
 30
0.0
 10
-70.71629710975579
 20
-135.9296180062964
 30
0.0
 10
-72.49999999999717
 20
-135.8126410968592
 30
0.0
 10
-72.50000000000007
 20
-135.8126410968587
 30
0.0
  0
LWPOLYLINE
  5
B4
330
A1
100
AcDbEntity
  8
0
  6
Continuous
 62
     7
370
    25
100
AcDbPolyline
 90
       13
 70
   128
 43
0.0
 10
72.5
 20
-135.8126410969
 10
71.8436711583
 20
-135.854070419
 10
69.9249236015
 20
-135.9686103094
 10
66.8171174405
 20
-136.1416386546
 10
62.5856194188
 20
-136.3585333409
 10
57.299211619
 20
-136.6046722545
 10
51.0483308456
 20
-136.8654332818
 10
43.935876678
 20
-137.1261943091
 10
36.092945072
 20
-137.3723332227
 10
27.653392604
 20
-137.5892279089
 10
18.7339219573
 20
-137.7622562541
 10
9.4588369708
 20
-137.8767961446
 10
0.0
 20
-137.9182254667
  0
SPLINE
  5
B5
330
A1
100
AcDbEntity
  8
0
  6
Continuous
 62
     7
370
    25
100
AcDbSpline
210
0.0
220
0.0
230
1.0
 70
    24
 71
     3
 72
    15
 73
    11
 74
     0
 42
0.000000001
 43
0.00000001
 40
0.0
 40
0.0
 40
0.0
 40
0.0
 40
0.0062500000000001
 40
0.0083333333333333
 40
0.0416666666666666
 40
0.0833333333333334
 40
0.1249999999999999
 40
0.1666666666666666
 40
0.2083333333333334
 40
0.2499999999999998
 40
0.2499999999999998
 40
0.2499999999999998
 40
0.2499999999999998
 10
-0.0000000000000507
 20
-145.0
 30
0.0
 10
-0.9444689330694114
 20
-145.0
 30
0.0
 10
-2.203760843828514
 20
-145.0
 30
0.0
 10
-8.493155587964182
 20
-144.9999999999999
 30
0.0
 10
-20.05447311001473
 20
-145.0
 30
0.0
 10
-36.36579539082463
 20
-145.0
 30
0.0
 10
-51.48195175334339
 20
-145.0
 30
0.0
 10
-63.18175680753657
 20
-145.0
 30
0.0
 10
-70.68520104248397
 20
-145.0
 30
0.0
 10
-72.49999999999545
 20
-145.0
 30
0.0
 10
-72.50000000000006
 20
-145.0
 30
0.0
  0
LINE
  5
B7
330
A1
100
AcDbEntity
  8
0
  6
Continuous
 62
     7
370
    25
100
AcDbLine
 10
-152.5
 20
-90.0
 30
0.0
 11
-152.5
 21
-103.1193854589
 31
0.0
  0
LINE
  5
B8
330
A1
100
AcDbEntity
  8
0
  6
Continuous
 62
     7
370
    25
100
AcDbLine
 10
152.5
 20
-103.1190743291
 30
0.0
 11
152.5
 21
-90.0
 31
0.0
  0
LINE
  5
B9
330
A1
100
AcDbEntity
  8
0
  6
Continuous
 62
     7
370
    25
100
AcDbLine
 10
72.5
 20
-145.0
 30
0.0
 11
72.5
 21
-135.8126410969
 31
0.0
  0
LINE
  5
BA
330
A1
100
AcDbEntity
  8
0
  6
Continuous
 62
     7
370
    25
100
AcDbLine
 10
-72.5
 20
-135.8126410969
 30
0.0
 11
-72.5
 21
-145.0
 31
0.0
  0
LINE
  5
BB
330
A1
100
AcDbEntity
  8
0
  6
Continuous
 62
     7
370
    25
100
AcDbLine
 10
-240.0
 20
0.0
 30
0.0
 11
0.0
 21
0.0
 31
0.0
  0
LINE
  5
BC
330
A1
100
AcDbEntity
  8
0
  6
Continuous
 62
     7
370
    25
100
AcDbLine
 10
72.5
 20
-145.0
 30
0.0
 11
0.0
 21
-145.0
 31
0.0
  0
VIEWPORT
  5
12A
330
A1
100
AcDbEntity
  8
0
100
AcDbViewport
 10
0.0
 20
0.0
 30
0.0
 40
205.6
 41
156.0
 68
     1
 69
     1
 12
0.0
 22
0.0
 13
0.0
 23
0.0
 14
10.0
 24
10.0
 15
10.0
 25
10.0
 16
0.0
 26
0.0
 36
1.0
 17
0.0
 27
0.0
 37
0.0
 42
50.0
 43
0.0
 44
0.0
 45
371.486381323
 50
0.0
 51
0.0
 72
   100
 90
   557152
  1

281
     0
 71
     1
 74
     0
110
0.0
120
0.0
130
0.0
111
1.0
121
0.0
131
0.0
112
0.0
122
1.0
132
0.0
 79
     0
146
0.0
  0
ENDBLK
  5
A4
330
A1
100
AcDbEntity
  8
0
100
AcDbBlockEnd
  0
BLOCK
  5
BF
330
BD
100
AcDbEntity
  8
0
100
AcDbBlockBegin
  2
*Paper_Space2
 70
     0
 10
0.0
 20
0.0
 30
0.0
  3
*Paper_Space2
  1

  0
SPLINE
  5
C1
330
BD
100
AcDbEntity
  8
0
  6
Continuous
 62
     7
370
    25
100
AcDbSpline
210
0.0
220
0.0
230
1.0
 70
     8
 71
     3
 72
    15
 73
    11
 74
     0
 42
0.000000001
 43
0.00000001
 40
0.0
 40
0.0
 40
0.0
 40
0.0
 40
0.1200733771145641
 40
0.2457772302893295
 40
0.3714809647607931
 40
0.4971848028131473
 40
0.6228886300311217
 40
0.7485924551155666
 40
0.874296172197183
 40
1.0
 40
1.0
 40
1.0
 40
1.0
 10
170.7447904525565
 20
-90.01823376636088
 30
0.0
 10
174.3007141582903
 20
-87.1118011545445
 30
0.0
 10
181.5793058038102
 20
-81.1626476075992
 30
0.0
 10
191.8506605455355
 20
-71.33147247598876
 30
0.0
 10
201.6897013316934
 20
-60.78091192023417
 30
0.0
 10
210.8465836647441
 20
-49.62962467906173
 30
0.0
 10
219.3058931569938
 20
-37.94043827867053
 30
0.0
 10
227.0126296547907
 20
-25.74485561067837
 30
0.0
 10
234.0115735926073
 20
-13.12210818218006
 30
0.0
 10
238.0038572781283
 20
-4.374037344958767
 30
0.0
 10
240.0000000000001
 20
0.0
 30
0.0
  0
SPLINE
  5
C2
330
BD
100
AcDbEntity
  8
0
  6
Continuous
 62
     7
370
    25
100
AcDbSpline
210
0.0
220
0.0
230
1.0
 70
     8
 71
     3
 72
    15
 73
    11
 74
     0
 42
0.000000001
 43
0.00000001
 40
0.0
 40
0.0
 40
0.0
 40
0.0
 40
0.1256740231694542
 40
0.2513479356439595
 40
0.3770219560956878
 40
0.50269597868044
 40
0.6283700120970005
 40
0.7540439419572298
 40
0.8797179904926182
 40
1.0
 40
1.0
 40
1.0
 40
1.0
 10
-240.0000000000001
 20
0.0
 30
0.0
 10
-238.0038572631592
 20
-4.37403732774605
 30
0.0
 10
-234.0115735477002
 20
-13.12210813054191
 30
0.0
 10
-227.0126298344192
 20
-25.74485581723048
 30
0.0
 10
-219.3058924833872
 20
-37.94043750409947
 30
0.0
 10
-210.846586179542
 20
-49.62962757079355
 30
0.0
 10
-201.6896919461098
 20
-60.78090112788038
 30
0.0
 10
-191.8506955730545
 20
-71.33151275365215
 30
0.0
 10
-181.5726200836287
 20
-81.16877636467528
 30
0.0
 10
-174.2869312387613
 20
-87.12358551444937
 30
0.0
 10
-170.7239480706306
 20
-90.03571712229626
 30
0.0
  0
SPLINE
  5
C5
330
BD
100
AcDbEntity
  8
0
  6
Continuous
 62
     7
370
    25
100
AcDbSpline
210
0.0
220
0.0
230
1.0
 70
     8
 71
     3
 72
    13
 73
     9
 74
     0
 42
0.000000001
 43
0.00000001
 40
0.0
 40
0.0
 40
0.0
 40
0.0
 40
0.1677827042085791
 40
0.3355652543333923
 40
0.5033479662177205
 40
0.6711306551853534
 40
0.8389133829878967
 40
1.0
 40
1.0
 40
1.0
 40
1.0
 10
72.50000000000007
 20
-135.8126410968587
 30
0.0
 10
77.24172492692429
 20
-134.7516992210392
 30
0.0
 10
86.725170426195
 20
-132.6298164437196
 30
0.0
 10
100.6634486338562
 20
-128.3309446668129
 30
0.0
 10
114.3257168790169
 20
-123.2390845931478
 30
0.0
 10
127.6296242425325
 20
-117.2738129871624
 30
0.0
 10
140.4045502939504
 20
-110.6449227750897
 30
0.0
 10
148.4848006288841
 20
-105.6035985594241
 30
0.0
 10
152.442664782501
 20
-103.1342596685632
 30
0.0
  0
SPLINE
  5
C6
330
BD
100
AcDbEntity
  8
0
  6
Continuous
 62
     7
370
    25
100
AcDbSpline
210
0.0
220
0.0
230
1.0
 70
     8
 71
     3
 72
    13
 73
     9
 74
     0
 42
0.000000001
 43
0.00000001
 40
0.0
 40
0.0
 40
0.0
 40
0.0
 40
0.1612126936384085
 40
0.3289702061079947
 40
0.4967276797485088
 40
0.6644851763022728
 40
0.8322425111208317
 40
1.0
 40
1.0
 40
1.0
 40
1.0
 10
-152.4538287426603
 20
-103.1274932571566
 30
0.0
 10
-148.4922849648973
 20
-105.599159341209
 30
0.0
 10
-140.4083689675652
 20
-110.6428347662014
 30
0.0
 10
-127.6296372014992
 20
-117.2738352783764
 30
0.0
 10
-114.3257134078645
 20
-123.2390786222863
 30
0.0
 10
-100.6634495594956
 20
-128.3309462590411
 30
0.0
 10
-86.72517019478478
 20
-132.6298160456624
 30
0.0
 10
-77.24172484978742
 20
-134.7516990883534
 30
0.0
 10
-72.49999999999991
 20
-135.8126410968587
 30
0.0
  0
SPLINE
  5
C9
330
BD
100
AcDbEntity
  8
0
  6
Continuous
 62
     7
370
    25
100
AcDbSpline
210
0.0
220
0.0
230
1.0
 70
    24
 71
     3
 72
    53
 73
    49
 74
     0
 42
0.000000001
 43
0.00000001
 40
0.0
 40
0.0
 40
0.0
 40
0.0
 40
0.0074892614308057
 40
0.0265330895758693
 40
0.0429612290286036
 40
0.0594969177264092
 40
0.0761370128815606
 40
0.0928747781020029
 40
0.1105373597230486
 40
0.1282976358669691
 40
0.1461484070034045
 40
0.1640795947326169
 40
0.1908540802075519
 40
0.2178358621864666
 40
0.2451974829538551
 40
0.2727248263251501
 40
0.2930451942028129
 40
0.3142815245094631
 40
0.3355741408874526
 40
0.3608521394783957
 40
0.3862149939575194
 40
0.4147541506578695
 40
0.4501969371202082
 40
0.4858460257199519
 40
0.5221496082778497
 40
0.5586800261288277
 40
0.5780557013386255
 40
0.597498755627318
 40
0.6169768290524601
 40
0.6365732253723142
 40
0.6562082098531482
 40
0.6759662497339134
 40
0.6957676231562189
 40
0.7156494874609242
 40
0.7425162289254719
 40
0.7695219430652729
 40
0.7968563419707461
 40
0.8243882260231813
 40
0.8451466450528086
 40
0.8660194310130936
 40
0.8870283355592482
 40
0.9081936880802827
 40
0.9255635935674821
 40
0.9430427172107435
 40
0.9606437485623073
 40
0.9783762392956044
 40
0.9957748524622995
 40
0.9999999999999999
 40
0.9999999999999999
 40
0.9999999999999999
 40
0.9999999999999999
 10
-170.6939872358123
 20
-89.99999999999999
 30
0.0
 10
-170.720139393479
 20
-90.0
 30
0.0
 10
-170.8127917262067
 20
-89.99999999999997
 30
0.0
 10
-170.0917489603819
 20
-89.99999999999999
 30
0.0
 10
-168.6874861344571
 20
-90.0
 30
0.0
 10
-166.6937606001581
 20
-90.00000000000007
 30
0.0
 10
-164.1144399262003
 20
-89.99999999999994
 30
0.0
 10
-160.9072013721644
 20
-90.00000000000004
 30
0.0
 10
-157.0767868636195
 20
-89.99999999999996
 30
0.0
 10
-152.6326523323024
 20
-90.00000000000006
 30
0.0
 10
-147.6800799221586
 20
-89.99999999999997
 30
0.0
 10
-141.3824668113494
 20
-90.00000000000001
 30
0.0
 10
-133.5118424680632
 20
-90.00000000000001
 30
0.0
 10
-123.8584006267188
 20
-90.00000000000003
 30
0.0
 10
-113.4639241747061
 20
-89.99999999999996
 30
0.0
 10
-103.4156459957648
 20
-90.00000000000007
 30
0.0
 10
-93.85852420724906
 20
-89.99999999999996
 30
0.0
 10
-84.93650485807626
 20
-89.99999999999999
 30
0.0
 10
-75.09392233120231
 20
-90.00000000000006
 30
0.0
 10
-64.43475024738008
 20
-89.99999999999994
 30
0.0
 10
-52.48948667455941
 20
-90.00000000000006
 30
0.0
 10
-38.80703820822617
 20
-89.99999999999993
 30
0.0
 10
-23.35121577672766
 20
-90.00000000000001
 30
0.0
 10
-6.554616081208375
 20
-90.00000000000006
 30
0.0
 10
10.4535470423362
 20
-89.99999999999994
 30
0.0
 10
24.85654143465283
 20
-90.00000000000013
 30
0.0
 10
36.53354212792323
 20
-89.99999999999994
 30
0.0
 10
45.50481793646547
 20
-90.00000000000011
 30
0.0
 10
54.42872157861336
 20
-89.9999999999999
 30
0.0
 10
63.28203731877055
 20
-89.99999999999999
 30
0.0
 10
72.057396601243
 20
-90.00000000000007
 30
0.0
 10
80.72141310556846
 20
-89.99999999999996
 30
0.0
 10
89.2561492974009
 20
-90.00000000000006
 30
0.0
 10
98.59845697970451
 20
-89.99999999999994
 30
0.0
 10
108.6363038128211
 20
-90.00000000000003
 30
0.0
 10
119.2048075408107
 20
-90.00000000000003
 30
0.0
 10
129.2604087641637
 20
-90.00000000000001
 30
0.0
 10
137.8874837876378
 20
-90.0
 30
0.0
 10
145.1450337989702
 20
-89.99999999999999
 30
0.0
 10
151.1554236782065
 20
-90.00000000000003
 30
0.0
 10
156.5540715946632
 20
-89.99999999999999
 30
0.0
 10
160.9542992066235
 20
-89.99999999999999
 30
0.0
 10
164.4246976862659
 20
-90.00000000000006
 30
0.0
 10
167.0582022811213
 20
-89.99999999999996
 30
0.0
 10
169.0660251839757
 20
-90.00000000000003
 30
0.0
 10
170.3062211479378
 20
-89.99999999999999
 30
0.0
 10
170.8572671331596
 20
-89.99999999999996
 30
0.0
 10
170.7503803147351
 20
-90.0
 30
0.0
 10
170.7294952992258
 20
-89.99999999999999
 30
0.0
  0
SPLINE
  5
CA
330
BD
100
AcDbEntity
  8
0
  6
Continuous
 62
     7
370
    25
100
AcDbSpline
210
0.0
220
0.0
230
1.0
 70
    24
 71
     3
 72
    19
 73
    15
 74
     0
 42
0.000000001
 43
0.00000001
 40
0.2499999999999998
 40
0.2499999999999998
 40
0.2499999999999998
 40
0.2499999999999998
 40
0.2916666666666666
 40
0.3333333333333334
 40
0.3750000000000001
 40
0.4166666666666666
 40
0.4583333333333334
 40
0.500000000000984
 40
0.5416666666666667
 40
0.5833333333333333
 40
0.625
 40
0.6666666666666667
 40
0.7083333333333333
 40
0.7499999999999999
 40
0.7499999999999999
 40
0.7499999999999999
 40
0.7499999999999999
 10
240.0000000000001
 20
0.0
 30
0.0
 10
239.9999999999989
 20
0.0
 30
0.0
 10
234.3653754005922
 20
0.0
 30
0.0
 10
210.3843271333236
 20
0.0
 30
0.0
 10
171.6977681166116
 20
0.0
 30
0.0
 10
121.0583653088579
 20
0.0
 30
0.0
 10
63.16299334209026
 20
0.0
 30
0.0
 10
-0.0000000000001561
 20
0.0
 30
0.0
 10
-63.16299334209051
 20
0.0
 30
0.0
 10
-121.0583653088582
 20
0.0
 30
0.0
 10
-171.6977681166117
 20
0.0
 30
0.0
 10
-210.3843271333237
 20
0.0
 30
0.0
 10
-234.3653754005957
 20
0.0
 30
0.0
 10
-240.0000000000014
 20
0.0
 30
0.0
 10
-240.0000000000001
 20
0.0
 30
0.0
  0
SPLINE
  5
CB
330
BD
100
AcDbEntity
  8
0
  6
Continuous
 62
     7
370
    25
100
AcDbSpline
210
0.0
220
0.0
230
1.0
 70
     8
 71
     3
 72
    48
 73
    44
 74
     0
 42
0.000000001
 43
0.00000001
 40
0.0
 40
0.0
 40
0.0
 40
0.0
 40
0.0057331729035867
 40
0.0222459805353462
 40
0.0385524817184711
 40
0.0549732138109558
 40
0.0717359600510782
 40
0.0886082159826869
 40
0.1054359917806027
 40
0.1223558947570885
 40
0.139537247141097
 40
0.1567974833151929
 40
0.182424395597724
 40
0.2082515449242882
 40
0.2338708981257967
 40
0.2596348857125609
 40
0.2942177590121321
 40
0.3290633442195856
 40
0.3636372977370398
 40
0.3984121375293743
 40
0.432981745896004
 40
0.46772320892638
 40
0.5022913229687872
 40
0.5370237057589017
 40
0.5715921086252432
 40
0.6063307291300964
 40
0.6409016839215441
 40
0.6756694345863818
 40
0.7087991349888845
 40
0.7421510201350401
 40
0.7700585764726376
 40
0.7981482131733711
 40
0.8219615584449658
 40
0.8459312740688544
 40
0.8665648963925129
 40
0.8873355175948935
 40
0.9085927687622868
 40
0.9300455950576555
 40
0.946303282056497
 40
0.9626665284540822
 40
0.9793776895936392
 40
0.9962153716198576
 40
1.0
 40
1.0
 40
1.0
 40
1.0
 10
152.4336593020333
 20
-103.1193854589005
 30
0.0
 10
152.4515724976675
 20
-103.118975912068
 30
0.0
 10
152.5210796637876
 20
-103.1173867796592
 30
0.0
 10
152.0386827965461
 20
-103.1284466828371
 30
0.0
 10
150.9945275979895
 20
-103.1595421464417
 30
0.0
 10
149.346253188291
 20
-103.2152198697585
 30
0.0
 10
147.1438611957838
 20
-103.2963243641589
 30
0.0
 10
144.3976498325253
 20
-103.4016647715558
 30
0.0
 10
141.1576362600872
 20
-103.5285167591619
 30
0.0
 10
137.4494927615909
 20
-103.6754336607768
 30
0.0
 10
133.2956329352204
 20
-103.8413538987101
 30
0.0
 10
127.9979073581895
 20
-104.054017686587
 30
0.0
 10
121.3752178409856
 20
-104.3231027286482
 30
0.0
 10
113.3134656785042
 20
-104.6542624363813
 30
0.0
 10
104.7057293530576
 20
-105.0015878996459
 30
0.0
 10
94.62881968039407
 20
-105.3904373416892
 30
0.0
 10
82.93451814812944
 20
-105.8273598579602
 30
0.0
 10
69.64022402666484
 20
-106.2960638351088
 30
0.0
 10
55.92380508676217
 20
-106.7267119228517
 30
0.0
 10
41.94795468414235
 20
-107.0922154220287
 30
0.0
 10
27.73985499961283
 20
-107.3753921929586
 30
0.0
 10
13.42649832378449
 20
-107.5635816764243
 30
0.0
 10
-0.9726020962308216
 20
-107.6312042558768
 30
0.0
 10
-15.34335307193923
 20
-107.5444256837604
 30
0.0
 10
-29.6648572360782
 20
-107.3424765316846
 30
0.0
 10
-43.82127810028061
 20
-107.048011808922
 30
0.0
 10
-57.78394128279188
 20
-106.6721702120129
 30
0.0
 10
-71.22751412299361
 20
-106.2419042639866
 30
0.0
 10
-84.11809616218746
 20
-105.7836408135818
 30
0.0
 10
-95.67491118243622
 20
-105.3508206513902
 30
0.0
 10
-106.0983401292297
 20
-104.9469914551669
 30
0.0
 10
-114.8967244025566
 20
-104.5891604374385
 30
0.0
 10
-122.708778632806
 20
-104.2686488401881
 30
0.0
 10
-129.2149098365608
 20
-104.0049521625707
 30
0.0
 10
-134.8663207826637
 20
-103.7784307050618
 30
0.0
 10
-139.7103172539412
 20
-103.5855574762117
 30
0.0
 10
-143.9494442715006
 20
-103.4188760533351
 30
0.0
 10
-147.1808848334029
 20
-103.2947363532104
 30
0.0
 10
-149.5063186027444
 20
-103.2095875553623
 30
0.0
 10
-151.1094366112638
 20
-103.1558952917608
 30
0.0
 10
-152.1109535689667
 20
-103.1265081843757
 30
0.0
 10
-152.5491242027491
 20
-103.1167817230612
 30
0.0
 10
-152.4643146754754
 20
-103.1187188293186
 30
0.0
 10
-152.4487503406603
 20
-103.1190743291231
 30
0.0
  0
SPLINE
  5
CC
330
BD
100
AcDbEntity
  8
0
  6
Continuous
 62
     7
370
    25
100
AcDbSpline
210
0.0
220
0.0
230
1.0
 70
     8
 71
     3
 72
    19
 73
    15
 74
     0
 42
0.000000001
 43
0.00000001
 40
0.2499999999999998
 40
0.2499999999999998
 40
0.2499999999999998
 40
0.2499999999999998
 40
0.2916666666666666
 40
0.3333333333333334
 40
0.3750000000000001
 40
0.4166666666666666
 40
0.4583333333333334
 40
0.500000000000984
 40
0.5416666666666667
 40
0.5833333333333333
 40
0.625
 40
0.6666666666666667
 40
0.7083333333333333
 40
0.7499999999999999
 40
0.7499999999999999
 40
0.7499999999999999
 40
0.7499999999999999
 10
72.50000000000007
 20
-135.8126410968587
 30
0.0
 10
72.50000000000296
 20
-135.8126410968582
 30
0.0
 10
70.71629710977307
 20
-135.9296180062936
 30
0.0
 10
63.29250172473564
 20
-136.3390371893195
 30
0.0
 10
51.62741250446286
 20
-136.8654332817824
 30
0.0
 10
36.48783333109606
 20
-137.3918293742463
 30
0.0
 10
18.97892460320665
 20
-137.8012485572786
 30
0.0
 10
0.0000000000469547
 20
-137.9767139214341
 30
0.0
 10
-18.97892460311751
 20
-137.80124855728
 30
0.0
 10
-36.48783333098445
 20
-137.3918293742567
 30
0.0
 10
-51.62741250438004
 20
-136.8654332817921
 30
0.0
 10
-63.29250172468453
 20
-136.3390371893265
 30
0.0
 10
-70.71629710975179
 20
-135.9296180062968
 30
0.0
 10
-72.49999999999703
 20
-135.8126410968592
 30
0.0
 10
-72.4999999999999
 20
-135.8126410968587
 30
0.0
  0
SPLINE
  5
CD
330
BD
100
AcDbEntity
  8
0
  6
Continuous
 62
     7
370
    25
100
AcDbSpline
210
0.0
220
0.0
230
1.0
 70
    24
 71
     3
 72
    19
 73
    15
 74
     0
 42
0.000000001
 43
0.00000001
 40
0.2499999999999998
 40
0.2499999999999998
 40
0.2499999999999998
 40
0.2499999999999998
 40
0.2916666666666666
 40
0.3333333333333334
 40
0.3750000000000001
 40
0.4166666666666666
 40
0.4583333333333334
 40
0.500000000000984
 40
0.5416666666666667
 40
0.5833333333333333
 40
0.625
 40
0.6666666666666667
 40
0.7083333333333333
 40
0.7499999999999999
 40
0.7499999999999999
 40
0.7499999999999999
 40
0.7499999999999999
 10
72.50000000000006
 20
-145.0
 30
0.0
 10
72.50000000000465
 20
-145.0
 30
0.0
 10
70.68520104251148
 20
-145.0
 30
0.0
 10
63.18175680759014
 20
-145.0
 30
0.0
 10
51.48195175341993
 20
-145.0
 30
0.0
 10
36.36579539091952
 20
-145.0
 30
0.0
 10
18.88937866145787
 20
-145.0
 30
0.0
 10
0.0000000000747848
 20
-145.0
 30
0.0
 10
-18.88937866131594
 20
-145.0
 30
0.0
 10
-36.36579539074184
 20
-145.0
 30
0.0
 10
-51.48195175328819
 20
-144.9999999999999
 30
0.0
 10
-63.18175680750895
 20
-145.0
 30
0.0
 10
-70.6852010424778
 20
-144.9999999999999
 30
0.0
 10
-72.49999999999542
 20
-144.9999999999999
 30
0.0
 10
-72.50000000000003
 20
-144.9999999999999
 30
0.0
  0
LINE
  5
CE
330
BD
100
AcDbEntity
  8
0
  6
Continuous
 62
     7
370
    25
100
AcDbLine
 10
152.5
 20
-103.1193854589
 30
0.0
 11
152.5
 21
-90.0
 31
0.0
  0
LINE
  5
CF
330
BD
100
AcDbEntity
  8
0
  6
Continuous
 62
     7
370
    25
100
AcDbLine
 10
-152.5
 20
-90.0
 30
0.0
 11
-152.5
 21
-103.1190743291
 31
0.0
  0
LINE
  5
D0
330
BD
100
AcDbEntity
  8
0
  6
Continuous
 62
     7
370
    25
100
AcDbLine
 10
72.5
 20
-145.0
 30
0.0
 11
72.5
 21
-135.8126410969
 31
0.0
  0
LINE
  5
D1
330
BD
100
AcDbEntity
  8
0
  6
Continuous
 62
     7
370
    25
100
AcDbLine
 10
-72.5
 20
-135.8126410969
 30
0.0
 11
-72.5
 21
-145.0
 31
0.0
  0
VIEWPORT
  5
12C
330
BD
100
AcDbEntity
  8
0
100
AcDbViewport
 10
0.0
 20
0.0
 30
0.0
 40
205.6
 41
156.0
 68
     1
 69
     1
 12
0.0
 22
0.0
 13
0.0
 23
0.0
 14
10.0
 24
10.0
 15
10.0
 25
10.0
 16
0.0
 26
0.0
 36
1.0
 17
0.0
 27
0.0
 37
0.0
 42
50.0
 43
0.0
 44
0.0
 45
371.486381323
 50
0.0
 51
0.0
 72
   100
 90
   557152
  1

281
     0
 71
     1
 74
     0
110
0.0
120
0.0
130
0.0
111
1.0
121
0.0
131
0.0
112
0.0
122
1.0
132
0.0
 79
     0
146
0.0
  0
ENDBLK
  5
C0
330
BD
100
AcDbEntity
  8
0
100
AcDbBlockEnd
  0
BLOCK
  5
D4
330
D2
100
AcDbEntity
  8
0
100
AcDbBlockBegin
  2
*Paper_Space3
 70
     0
 10
0.0
 20
0.0
 30
0.0
  3
*Paper_Space3
  1

  0
SPLINE
  5
D6
330
D2
100
AcDbEntity
  8
0
  6
Continuous
 62
     7
370
    25
100
AcDbSpline
210
0.0
220
0.0
230
1.0
 70
     8
 71
     3
 72
    15
 73
    11
 74
     0
 42
0.000000001
 43
0.00000001
 40
0.0
 40
0.0
 40
0.0
 40
0.0
 40
0.1120903439315665
 40
0.2389347925445881
 40
0.3657787410524936
 40
0.4926231192060587
 40
0.6194674564550444
 40
0.7463117894919508
 40
0.8731556622276556
 40
1.0
 40
1.0
 40
1.0
 40
1.0
 10
127.3699038629221
 20
-90.04152024080355
 30
0.0
 10
129.6609801211567
 20
-87.19637811648876
 30
0.0
 10
134.5446999070404
 20
-81.1315966251583
 30
0.0
 10
140.9458703583419
 20
-71.05497017831564
 30
0.0
 10
146.7404450836505
 20
-60.08585050805547
 30
0.0
 10
151.5254032716288
 20
-48.63428408596004
 30
0.0
 10
155.2947992451765
 20
-36.80995141302107
 30
0.0
 10
157.9887767287031
 20
-24.69956870720777
 30
0.0
 10
159.6841872108413
 20
-12.39777200838416
 30
0.0
 10
159.8947289416323
 20
-4.132595719768081
 30
0.0
 10
160.0
 20
0.0
 30
0.0
  0
SPLINE
  5
D7
330
D2
100
AcDbEntity
  8
0
  6
Continuous
 62
     7
370
    25
100
AcDbSpline
210
0.0
220
0.0
230
1.0
 70
     8
 71
     3
 72
    15
 73
    11
 74
     0
 42
0.000000001
 43
0.00000001
 40
0.0
 40
0.0
 40
0.0
 40
0.0
 40
0.1269726618814021
 40
0.2539448582557033
 40
0.3809175153968784
 40
0.507890176754394
 40
0.6348628790578685
 40
0.7618351512810256
 40
0.8888079241152399
 40
1.0
 40
1.0
 40
1.0
 40
1.0
 10
-160.0
 20
0.0
 30
0.0
 10
-159.8947290453149
 20
-4.132595796163749
 30
0.0
 10
-159.684187521889
 20
-12.39777223757087
 30
0.0
 10
-157.9887754845161
 20
-24.69956779046328
 30
0.0
 10
-155.2948039108973
 20
-36.8099548508271
 30
0.0
 10
-151.5253858529364
 20
-48.63427125148342
 30
0.0
 10
-146.7405100926277
 20
-60.08589840810371
 30
0.0
 10
-140.9456277416192
 20
-71.05479141296343
 30
0.0
 10
-134.5632441869664
 20
-81.10438710962889
 30
0.0
 10
-129.7006717850085
 20
-87.14387710986836
 30
0.0
 10
-127.4304815263629
 20
-89.96353514934786
 30
0.0
  0
SPLINE
  5
DA
330
D2
100
AcDbEntity
  8
0
  6
Continuous
 62
     7
370
    25
100
AcDbSpline
210
0.0
220
0.0
230
1.0
 70
     8
 71
     3
 72
    13
 73
     9
 74
     0
 42
0.000000001
 43
0.00000001
 40
0.0
 40
0.0
 40
0.0
 40
0.0
 40
0.1785610364290488
 40
0.357121390509268
 40
0.5356824704367745
 40
0.7142434416260091
 40
0.8928045790162198
 40
1.0
 40
1.0
 40
1.0
 40
1.0
 10
47.49999999999994
 20
-137.9182254667158
 30
0.0
 10
51.56970476259011
 20
-136.9738589085666
 30
0.0
 10
59.70909873589902
 20
-135.0851294010478
 30
0.0
 10
71.53604989941044
 20
-130.8892893190034
 30
0.0
 10
82.97264464839857
 20
-125.7442284488147
 30
0.0
 10
93.86958850583275
 20
-119.5468516820137
 30
0.0
 10
102.9047699181107
 20
-113.4805036689917
 30
0.0
 10
107.9910096624031
 20
-109.1430099805498
 30
0.0
 10
109.8990030037153
 20
-107.5158926027625
 30
0.0
  0
SPLINE
  5
DB
330
D2
100
AcDbEntity
  8
0
  6
Continuous
 62
     7
370
    25
100
AcDbSpline
210
0.0
220
0.0
230
1.0
 70
     8
 71
     3
 72
    13
 73
     9
 74
     0
 42
0.000000001
 43
0.00000001
 40
0.0
 40
0.0
 40
0.0
 40
0.0
 40
0.1074546994381847
 40
0.2859639810731646
 40
0.4644730965554331
 40
0.6429823207443949
 40
0.8214908192968626
 40
1.0
 40
1.0
 40
1.0
 40
1.0
 10
-109.9146955330205
 20
-107.5028947799537
 30
0.0
 10
-108.0015673069
 20
-109.1344669726228
 30
0.0
 10
-102.9102519274402
 20
-113.4764909330761
 30
0.0
 10
-93.86964349992064
 20
-119.5469217195017
 30
0.0
 10
-82.97262991783336
 20
-125.7442096887655
 30
0.0
 10
-71.53605382754395
 20
-130.8892943216611
 30
0.0
 10
-59.70909775386302
 20
-135.0851281503798
 30
0.0
 10
-51.56970443524443
 20
-136.9738584916767
 30
0.0
 10
-47.50000000000004
 20
-137.9182254667157
 30
0.0
  0
SPLINE
  5
DE
330
D2
100
AcDbEntity
  8
0
  6
Continuous
 62
     7
370
    25
100
AcDbSpline
210
0.0
220
0.0
230
1.0
 70
    24
 71
     3
 72
    53
 73
    49
 74
     0
 42
0.000000001
 43
0.00000001
 40
0.0
 40
0.0
 40
0.0
 40
0.0
 40
0.0321178248939186
 40
0.0645530190776236
 40
0.0971460407149344
 40
0.1300691419713405
 40
0.1493387576093594
 40
0.1686460896426653
 40
0.1880621912156034
 40
0.2075207462497402
 40
0.2271232075292023
 40
0.2467757416999506
 40
0.2665543391650033
 40
0.2863966483895173
 40
0.3061089504188011
 40
0.3251286042637713
 40
0.3442255999472799
 40
0.3604822103411631
 40
0.3767998785870497
 40
0.3952731461444615
 40
0.4138591424413715
 40
0.4325714465993513
 40
0.4514257662082267
 40
0.469950539631527
 40
0.4886356184922101
 40
0.5074948590590967
 40
0.526538517670411
 40
0.5429665108750248
 40
0.5595028716975038
 40
0.576141999367545
 40
0.5928796155834872
 40
0.6105420399670458
 40
0.6283028722581131
 40
0.646152770198633
 40
0.6640837982991479
 40
0.6908580454197524
 40
0.7178395871989223
 40
0.7452009643851296
 40
0.7727280626999321
 40
0.7934781479879921
 40
0.8142843906220392
 40
0.8375347334165868
 40
0.8608546900525506
 40
0.8877570225420024
 40
0.9147562820523348
 40
0.9501987529925826
 40
0.9858475242336734
 40
1.0
 40
1.0
 40
1.0
 40
1.0
 10
-127.4774822767067
 20
-90.0
 30
0.0
 10
-127.374915175747
 20
-90.0
 30
0.0
 10
-127.1687674665899
 20
-90.0
 30
0.0
 10
-125.5211999692577
 20
-89.99999999999997
 30
0.0
 10
-122.8835550297532
 20
-90.00000000000001
 30
0.0
 10
-119.6520081275315
 20
-90.00000000000006
 30
0.0
 10
-116.2991937869966
 20
-89.99999999999999
 30
0.0
 10
-113.1972813771711
 20
-90.00000000000001
 30
0.0
 10
-109.6984066714937
 20
-90.00000000000001
 30
0.0
 10
-105.7889746568657
 20
-89.99999999999999
 30
0.0
 10
-101.464686750449
 20
-90.00000000000001
 30
0.0
 10
-96.70794625247895
 20
-90.0
 30
0.0
 10
-91.51201079511642
 20
-89.99999999999997
 30
0.0
 10
-85.87709243158216
 20
-90.00000000000001
 30
0.0
 10
-79.88439132545757
 20
-90.0
 30
0.0
 10
-73.55560339535296
 20
-90.00000000000001
 30
0.0
 10
-67.22540793595793
 20
-90.00000000000003
 30
0.0
 10
-60.87964763235025
 20
-89.99999999999999
 30
0.0
 10
-54.31509189339241
 20
-90.0
 30
0.0
 10
-47.13300497346348
 20
-90.00000000000004
 30
0.0
 10
-39.29959339782462
 20
-90.0
 30
0.0
 10
-31.11429250307929
 20
-89.99999999999997
 30
0.0
 10
-22.68537408695552
 20
-90.0
 30
0.0
 10
-14.06791251261721
 20
-89.99999999999999
 30
0.0
 10
-5.32334150669205
 20
-90.00000000000003
 30
0.0
 10
3.553773807080126
 20
-89.99999999999994
 30
0.0
 10
12.04397782527845
 20
-90.0
 30
0.0
 10
20.0701925066189
 20
-90.00000000000003
 30
0.0
 10
27.5903144385593
 20
-90.00000000000003
 30
0.0
 10
34.97767226231935
 20
-89.99999999999994
 30
0.0
 10
42.30866467113676
 20
-90.00000000000003
 30
0.0
 10
49.53363012478204
 20
-89.99999999999996
 30
0.0
 10
56.60416763954901
 20
-90.00000000000004
 30
0.0
 10
63.37985839625812
 20
-89.99999999999994
 30
0.0
 10
70.89406846309
 20
-90.00000000000003
 30
0.0
 10
78.92424329547515
 20
-90.0
 30
0.0
 10
87.20707486076927
 20
-90.00000000000004
 30
0.0
 10
94.73928003953964
 20
-89.99999999999999
 30
0.0
 10
100.9434603283584
 20
-90.00000000000003
 30
0.0
 10
106.0211945374588
 20
-90.0
 30
0.0
 10
110.3163020681866
 20
-89.99999999999997
 30
0.0
 10
114.2691268011441
 20
-90.00000000000003
 30
0.0
 10
117.9937150805569
 20
-89.99999999999996
 30
0.0
 10
121.2455693981132
 20
-90.00000000000004
 30
0.0
 10
124.2128652595863
 20
-89.99999999999991
 30
0.0
 10
126.3752770371841
 20
-90.00000000000003
 30
0.0
 10
127.5013551531322
 20
-90.00000000000007
 30
0.0
 10
127.3573700462739
 20
-90.00000000000001
 30
0.0
 10
127.3164524817956
 20
-90.00000000000001
 30
0.0
  0
SPLINE
  5
DF
330
D2
100
AcDbEntity
  8
0
  6
Continuous
 62
     7
370
    25
100
AcDbSpline
210
0.0
220
0.0
230
1.0
 70
    24
 71
     3
 72
    21
 73
    17
 74
     0
 42
0.000000001
 43
0.00000001
 40
0.500000000000984
 40
0.500000000000984
 40
0.500000000000984
 40
0.500000000000984
 40
0.5416666666666667
 40
0.5833333333333333
 40
0.625
 40
0.6666666666666667
 40
0.7083333333333333
 40
0.7499999999999999
 40
0.7916666666666666
 40
0.8333333333333334
 40
0.875
 40
0.9166666666666666
 40
0.9583333333333334
 40
0.9916666666666667
 40
0.99375
 40
1.0
 40
1.0
 40
1.0
 40
1.0
 10
160.0
 20
0.0
 30
0.0
 10
159.9999999999995
 20
0.0
 30
0.0
 10
156.2435836004582
 20
0.0
 30
0.0
 10
140.2562180888824
 20
0.0
 30
0.0
 10
114.4651787444077
 20
0.0
 30
0.0
 10
80.70557687257197
 20
0.0
 30
0.0
 10
42.10866222806018
 20
0.0
 30
0.0
 10
-0.0000000000000515
 20
0.0
 30
0.0
 10
-42.1086622280603
 20
0.0
 30
0.0
 10
-80.70557687257205
 20
0.0
 30
0.0
 10
-114.4651787444078
 20
0.0
 30
0.0
 10
-140.2562180888825
 20
0.0
 30
0.0
 10
-155.1777592329617
 20
0.0
 30
0.0
 10
-159.2908634255087
 20
0.0
 30
0.0
 10
-159.943653754006
 20
0.0
 30
0.0
 10
-160.0
 20
0.0
 30
0.0
 10
-160.0
 20
0.0
 30
0.0
  0
LWPOLYLINE
  5
E0
330
D2
100
AcDbEntity
  8
0
  6
Continuous
 62
     7
370
    25
100
AcDbPolyline
 90
       45
 70
   128
 43
0.0
 10
109.9699111752
 20
-107.6013968423
 10
109.9978694802
 20
-107.605484307
 10
109.4410633553
 20
-107.5250428307
 10
107.9054990949
 20
-107.3273991191
 10
105.3637871147
 20
-107.0340173411
 10
101.8204829954
 20
-106.6627487186
 10
97.2088670768
 20
-106.2292030233
 10
91.8042491637
 20
-105.7836658052
 10
85.3307835042
 20
-105.3270506816
 10
79.0908447435
 20
-104.9483175173
 10
72.0299413945
 20
-104.5739275872
 10
65.4196418412
 20
-104.2737011559
 10
58.1831383731
 20
-103.9971081542
 10
51.4910723867
 20
-103.7828847227
 10
44.3354837306
 20
-103.591698383
 10
36.6027920885
 20
-103.424896331
 10
28.4217580573
 20
-103.2902741839
 10
22.0079138426
 20
-103.2136939991
 10
15.4031025078
 20
-103.1603185522
 10
8.5458488113
 20
-103.129315037
 10
1.5715714335
 20
-103.1182540244
 10
-5.1753162253
 20
-103.1217782729
 10
-11.9336584047
 20
-103.1417855234
 10
-18.753965708
 20
-103.1842952257
 10
-25.4857711894
 20
-103.2520948045
 10
-31.7774950623
 20
-103.3404321714
 10
-37.9081129601
 20
-103.4502923876
 10
-43.9131247511
 20
-103.5815516448
 10
-49.6965423386
 20
-103.7314261128
 10
-57.292716211
 20
-103.9664687599
 10
-64.4053043573
 20
-104.2317969328
 10
-70.914675184
 20
-104.519890313
 10
-76.914446026
 20
-104.8270472323
 10
-82.454985872
 20
-105.1461879499
 10
-87.4707521861
 20
-105.4698013646
 10
-92.6165983741
 20
-105.84658865
 10
-97.0800192016
 20
-106.2178209154
 10
-99.7894074183
 20
-106.4653850738
 10
-102.173698523
 20
-106.6981584629
 10
-105.9929523448
 20
-107.104074263
 10
-107.7419591499
 20
-107.3075380531
 10
-108.9923029064
 20
-107.4646962725
 10
-109.7477135151
 20
-107.5682199261
 10
-110.0
 20
-107.605820972
 10
-110.0
 20
-107.605820972
  0
LWPOLYLINE
  5
E1
330
D2
100
AcDbEntity
  8
0
  6
Continuous
 62
     7
370
    25
100
AcDbPolyline
 90
       26
 70
   128
 43
0.0
 10
47.5
 20
-137.9182254667
 10
47.0767698987
 20
-137.8767961446
 10
45.8378516055
 20
-137.7622562541
 10
43.8280709088
 20
-137.5892279089
 10
41.0869246855
 20
-137.3723332227
 10
37.6556598666
 20
-137.1261943091
 10
33.5878525101
 20
-136.8654332818
 10
28.944860352
 20
-136.6046722545
 10
23.8068387124
 20
-136.3585333409
 10
18.2576272605
 20
-136.1416386547
 10
12.3770054765
 20
-135.9686103094
 10
6.251664213
 20
-135.854070419
 10
0.0
 20
-135.8126410969
 10
-6.251664213
 20
-135.854070419
 10
-12.3770054765
 20
-135.9686103094
 10
-18.2576272605
 20
-136.1416386546
 10
-23.8068387124
 20
-136.3585333409
 10
-28.944860352
 20
-136.6046722545
 10
-33.5878525101
 20
-136.8654332818
 10
-37.6556598666
 20
-137.1261943091
 10
-41.0869246855
 20
-137.3723332227
 10
-43.8280709088
 20
-137.5892279089
 10
-45.8378516054
 20
-137.7622562541
 10
-47.0767698986
 20
-137.8767961446
 10
-47.5
 20
-137.9182254667
 10
-47.5
 20
-137.9182254667
  0
LINE
  5
E3
330
D2
100
AcDbEntity
  8
0
  6
Continuous
 62
     7
370
    25
100
AcDbLine
 10
110.0
 20
-107.6013968423
 30
0.0
 11
110.0
 21
-90.0
 31
0.0
  0
LINE
  5
E4
330
D2
100
AcDbEntity
  8
0
  6
Continuous
 62
     7
370
    25
100
AcDbLine
 10
-110.0
 20
-90.0
 30
0.0
 11
-110.0
 21
-107.605820972
 31
0.0
  0
LINE
  5
E5
330
D2
100
AcDbEntity
  8
0
  6
Continuous
 62
     7
370
    25
100
AcDbLine
 10
47.5
 20
-145.0
 30
0.0
 11
47.5
 21
-137.9182254667
 31
0.0
  0
LINE
  5
E6
330
D2
100
AcDbEntity
  8
0
  6
Continuous
 62
     7
370
    25
100
AcDbLine
 10
-47.5
 20
-137.9182254667
 30
0.0
 11
-47.5
 21
-145.0
 31
0.0
  0
LINE
  5
E7
330
D2
100
AcDbEntity
  8
0
  6
Continuous
 62
     7
370
    25
100
AcDbLine
 10
47.5
 20
-145.0
 30
0.0
 11
-47.5
 21
-145.0
 31
0.0
  0
VIEWPORT
  5
12E
330
D2
100
AcDbEntity
  8
0
100
AcDbViewport
 10
0.0
 20
0.0
 30
0.0
 40
205.6
 41
156.0
 68
     1
 69
     1
 12
0.0
 22
0.0
 13
0.0
 23
0.0
 14
10.0
 24
10.0
 15
10.0
 25
10.0
 16
0.0
 26
0.0
 36
1.0
 17
0.0
 27
0.0
 37
0.0
 42
50.0
 43
0.0
 44
0.0
 45
371.486381323
 50
0.0
 51
0.0
 72
   100
 90
   557152
  1

281
     0
 71
     1
 74
     0
110
0.0
120
0.0
130
0.0
111
1.0
121
0.0
131
0.0
112
0.0
122
1.0
132
0.0
 79
     0
146
0.0
  0
ENDBLK
  5
D5
330
D2
100
AcDbEntity
  8
0
100
AcDbBlockEnd
  0
BLOCK
  5
EA
330
E8
100
AcDbEntity
  8
0
100
AcDbBlockBegin
  2
*Paper_Space4
 70
     0
 10
0.0
 20
0.0
 30
0.0
  3
*Paper_Space4
  1

  0
SPLINE
  5
EC
330
E8
100
AcDbEntity
  8
0
  6
Continuous
 62
     7
370
    25
100
AcDbSpline
210
0.0
220
0.0
230
1.0
 70
    11
 71
     3
 72
    35
 73
    31
 74
     0
 42
0.000000001
 43
0.00000001
 40
0.0
 40
0.0
 40
0.0
 40
0.0
 40
0.0062500000000001
 40
0.0083333333333333
 40
0.0416666666666666
 40
0.0833333333333334
 40
0.1249999999999999
 40
0.1666666666666666
 40
0.2083333333333334
 40
0.2499999999999998
 40
0.2916666666666666
 40
0.3333333333333334
 40
0.3750000000000001
 40
0.4166666666666666
 40
0.4583333333333334
 40
0.500000000000984
 40
0.5416666666666667
 40
0.5833333333333333
 40
0.625
 40
0.6666666666666667
 40
0.7083333333333333
 40
0.7499999999999999
 40
0.7916666666666666
 40
0.8333333333333334
 40
0.875
 40
0.9166666666666666
 40
0.9583333333333334
 40
0.9916666666666667
 40
0.99375
 40
1.0
 40
1.0
 40
1.0
 40
1.0
 10
-0.0000000000000027
 20
23.00000000000001
 30
0.0
 10
-0.3058699265881809
 20
23.00000000000001
 30
0.0
 10
-0.7136964953724115
 20
22.99133516299608
 30
0.0
 10
-2.750466703463506
 20
22.89145991336859
 30
0.0
 10
-6.493723289480209
 20
22.26524099857056
 30
0.0
 10
-11.76226989751439
 20
20.06579618222134
 30
0.0
 10
-16.46208693124019
 20
16.46208693124019
 30
0.0
 10
-20.06579618222134
 20
11.7622698975144
 30
0.0
 10
-22.42234419973835
 20
6.117398531763476
 30
0.0
 10
-23.28882790013082
 20
-0.0000000000000037
 30
0.0
 10
-22.42234419973835
 20
-6.117398531763483
 30
0.0
 10
-20.06579618222134
 20
-11.7622698975144
 30
0.0
 10
-16.46208693124019
 20
-16.46208693124019
 30
0.0
 10
-11.76226989751439
 20
-20.06579618222134
 30
0.0
 10
-6.117398531763476
 20
-22.42234419973835
 30
0.0
 10
0.0000000000000115
 20
-23.28882790013082
 30
0.0
 10
6.117398531763484
 20
-22.42234419973835
 30
0.0
 10
11.7622698975144
 20
-20.06579618222135
 30
0.0
 10
16.46208693124019
 20
-16.46208693124019
 30
0.0
 10
20.06579618222135
 20
-11.76226989751439
 30
0.0
 10
22.42234419973835
 20
-6.117398531763478
 30
0.0
 10
23.28882790013082
 20
-0.0000000000000054
 30
0.0
 10
22.42234419973836
 20
6.117398531763477
 30
0.0
 10
20.06579618222136
 20
11.7622698975144
 30
0.0
 10
16.4620869312402
 20
16.4620869312402
 30
0.0
 10
11.7622698975144
 20
20.06579618222136
 30
0.0
 10
6.493723289480202
 20
22.26524099857057
 30
0.0
 10
2.750466703463496
 20
22.8914599133686
 30
0.0
 10
0.7136964953724005
 20
22.99133516299608
 30
0.0
 10
0.3058699265881702
 20
23.00000000000001
 30
0.0
 10
-0.0000000000000027
 20
23.00000000000001
 30
0.0
  0
SPLINE
  5
ED
330
E8
100
AcDbEntity
  8
0
  6
Continuous
 62
     7
370
    25
100
AcDbSpline
210
0.0
220
0.0
230
1.0
 70
    11
 71
     3
 72
    35
 73
    31
 74
     0
 42
0.000000001
 43
0.00000001
 40
0.0
 40
0.0
 40
0.0
 40
0.0
 40
0.0062500000000001
 40
0.0083333333333333
 40
0.0416666666666666
 40
0.0833333333333334
 40
0.1249999999999999
 40
0.1666666666666666
 40
0.2083333333333334
 40
0.2499999999999998
 40
0.2916666666666666
 40
0.3333333333333334
 40
0.3750000000000001
 40
0.4166666666666666
 40
0.4583333333333334
 40
0.500000000000984
 40
0.5416666666666667
 40
0.5833333333333333
 40
0.625
 40
0.6666666666666667
 40
0.7083333333333333
 40
0.7499999999999999
 40
0.7916666666666666
 40
0.8333333333333334
 40
0.875
 40
0.9166666666666666
 40
0.9583333333333334
 40
0.9916666666666667
 40
0.99375
 40
1.0
 40
1.0
 40
1.0
 40
1.0
 10
-0.0000000000000507
 20
47.5
 30
0.0
 10
-0.9444689330694114
 20
47.49999999999997
 30
0.0
 10
-2.203760843828514
 20
47.48246192197675
 30
0.0
 10
-8.493155587964182
 20
47.27989419102759
 30
0.0
 10
-20.05447311001473
 20
46.00727562894463
 30
0.0
 10
-36.36579539082463
 20
41.47800725583369
 30
0.0
 10
-51.48195175334339
 20
33.88269844099852
 30
0.0
 10
-63.18175680753657
 20
24.00514091005665
 30
0.0
 10
-70.68520104248395
 20
12.4896615061076
 30
0.0
 10
-73.40739947875122
 20
-0.0000000000001085
 30
0.0
 10
-70.6852010425115
 20
-12.4896615061074
 30
0.0
 10
-63.18175680759014
 20
-24.00514091005561
 30
0.0
 10
-51.48195175341993
 20
-33.88269844099665
 30
0.0
 10
-36.36579539091952
 20
-41.47800725583136
 30
0.0
 10
-18.88937866145787
 20
-46.33079479845506
 30
0.0
 10
-0.0000000000747848
 20
-48.08460260077354
 30
0.0
 10
18.88937866131594
 20
-46.33079479845089
 30
0.0
 10
36.36579539074184
 20
-41.47800725583755
 30
0.0
 10
51.48195175328819
 20
-33.8826984410024
 30
0.0
 10
63.18175680750895
 20
-24.0051409100597
 30
0.0
 10
70.68520104247779
 20
-12.48966150610928
 30
0.0
 10
73.40739947875426
 20
0.0000000000000734
 30
0.0
 10
70.68520104250538
 20
12.48966150610902
 30
0.0
 10
63.18175680756259
 20
24.00514091005861
 30
0.0
 10
51.48195175336478
 20
33.88269844100049
 30
0.0
 10
36.36579539083681
 20
41.47800725583522
 30
0.0
 10
20.05447311001831
 20
46.00727562894549
 30
0.0
 10
8.493155587964624
 20
47.27989419102796
 30
0.0
 10
2.203760843828441
 20
47.48246192197684
 30
0.0
 10
0.9444689330692932
 20
47.50000000000002
 30
0.0
 10
-0.0000000000000507
 20
47.5
 30
0.0
  0
SPLINE
  5
EE
330
E8
100
AcDbEntity
  8
0
  6
Continuous
 62
     7
370
    25
100
AcDbSpline
210
0.0
220
0.0
230
1.0
 70
    11
 71
     3
 72
    35
 73
    31
 74
     0
 42
0.000000001
 43
0.00000001
 40
0.0
 40
0.0
 40
0.0
 40
0.0
 40
0.0062500000000001
 40
0.0083333333333333
 40
0.0416666666666666
 40
0.0833333333333334
 40
0.1249999999999999
 40
0.1666666666666666
 40
0.2083333333333334
 40
0.2499999999999998
 40
0.2916666666666666
 40
0.3333333333333334
 40
0.3750000000000001
 40
0.4166666666666666
 40
0.4583333333333334
 40
0.500000000000984
 40
0.5416666666666667
 40
0.5833333333333333
 40
0.625
 40
0.6666666666666667
 40
0.7083333333333333
 40
0.7499999999999999
 40
0.7916666666666666
 40
0.8333333333333334
 40
0.875
 40
0.9166666666666666
 40
0.9583333333333334
 40
0.9916666666666667
 40
0.99375
 40
1.0
 40
1.0
 40
1.0
 40
1.0
 10
-0.0000000000000557
 20
47.50000000000004
 30
0.0
 10
-0.948946230158175
 20
47.50000000000003
 30
0.0
 10
-2.214207870368964
 20
47.48276307583742
 30
0.0
 10
-8.533165992046417
 20
47.28351194792439
 30
0.0
 10
-20.14618518501956
 20
46.03075084791712
 30
0.0
 10
-36.48783333103652
 20
41.54905860385331
 30
0.0
 10
-51.62741250441481
 20
33.97444197527062
 30
0.0
 10
-63.29250172470201
 20
24.08028855588263
 30
0.0
 10
-70.71629710975577
 20
12.54543607579471
 30
0.0
 10
-73.39185144511788
 20
-0.0000000000000479
 30
0.0
 10
-70.71629710977308
 20
-12.54543607579474
 30
0.0
 10
-63.29250172473564
 20
-24.08028855588252
 30
0.0
 10
-51.62741250446286
 20
-33.97444197527038
 30
0.0
 10
-36.48783333109606
 20
-41.54905860385295
 30
0.0
 10
-18.97892460320665
 20
-46.35087172249337
 30
0.0
 10
-0.0000000000469547
 20
-48.07456413875337
 30
0.0
 10
18.97892460311751
 20
-46.3508717224928
 30
0.0
 10
36.48783333098445
 20
-41.54905860385374
 30
0.0
 10
51.62741250438004
 20
-33.97444197527108
 30
0.0
 10
63.29250172468453
 20
-24.08028855588302
 30
0.0
 10
70.71629710975178
 20
-12.54543607579494
 30
0.0
 10
73.39185144511964
 20
0.0000000000000149
 30
0.0
 10
70.71629710976909
 20
12.54543607579494
 30
0.0
 10
63.29250172471821
 20
24.08028855588291
 30
0.0
 10
51.62741250442815
 20
33.97444197527091
 30
0.0
 10
36.48783333104409
 20
41.54905860385354
 30
0.0
 10
20.14618518502175
 20
46.03075084791724
 30
0.0
 10
8.533165992046637
 20
47.28351194792445
 30
0.0
 10
2.214207870368865
 20
47.48276307583743
 30
0.0
 10
0.9489462301580467
 20
47.50000000000004
 30
0.0
 10
-0.0000000000000557
 20
47.50000000000004
 30
0.0
  0
SPLINE
  5
EF
330
E8
100
AcDbEntity
  8
0
  6
Continuous
 62
     7
370
    25
100
AcDbSpline
210
0.0
220
0.0
230
1.0
 70
    11
 71
     3
 72
   206
 73
   202
 74
     0
 42
0.000000001
 43
0.00000001
 40
0.0
 40
0.0
 40
0.0
 40
0.0
 40
0.0312499999999995
 40
0.0312499999999995
 40
0.0390624999999993
 40
0.0390624999999993
 40
0.0468749999999992
 40
0.0468749999999992
 40
0.0624999999999989
 40
0.0624999999999989
 40
0.0781249999999986
 40
0.0781249999999986
 40
0.0859374999999985
 40
0.0859374999999985
 40
0.0937499999999984
 40
0.0937499999999984
 40
0.1093749999999981
 40
0.1093749999999981
 40
0.1171874999999979
 40
0.1171874999999979
 40
0.1249999999999978
 40
0.1249999999999978
 40
0.1406249999999975
 40
0.1406249999999975
 40
0.1484374999999974
 40
0.1484374999999974
 40
0.1562499999999973
 40
0.1562499999999973
 40
0.1640624999999972
 40
0.1640624999999972
 40
0.1718749999999971
 40
0.1718749999999971
 40
0.187499999999997
 40
0.187499999999997
 40
0.2031249999999969
 40
0.2031249999999969
 40
0.2109374999999968
 40
0.2109374999999968
 40
0.2148437499999967
 40
0.2148437499999967
 40
0.2187499999999967
 40
0.2187499999999967
 40
0.2343749999999964
 40
0.2343749999999964
 40
0.2421874999999963
 40
0.2421874999999963
 40
0.2460937499999962
 40
0.2460937499999962
 40
0.2499999999999962
 40
0.2499999999999962
 40
0.2578124999999961
 40
0.2578124999999961
 40
0.265624999999996
 40
0.265624999999996
 40
0.2812499999999958
 40
0.2812499999999958
 40
0.2890624999999957
 40
0.2890624999999957
 40
0.2929687499999956
 40
0.2929687499999956
 40
0.2968749999999956
 40
0.2968749999999956
 40
0.3124999999999954
 40
0.3124999999999954
 40
0.3281249999999952
 40
0.3281249999999952
 40
0.3359374999999952
 40
0.3359374999999952
 40
0.3437499999999952
 40
0.3437499999999952
 40
0.3515624999999952
 40
0.3515624999999952
 40
0.3593749999999951
 40
0.3593749999999951
 40
0.3749999999999951
 40
0.3749999999999951
 40
0.3828124999999952
 40
0.3828124999999952
 40
0.3906249999999952
 40
0.3906249999999952
 40
0.4062499999999953
 40
0.4062499999999953
 40
0.4140624999999953
 40
0.4140624999999953
 40
0.4218749999999953
 40
0.4218749999999953
 40
0.4374999999999954
 40
0.4374999999999954
 40
0.4453124999999954
 40
0.4453124999999954
 40
0.4531249999999954
 40
0.4531249999999954
 40
0.4687499999999955
 40
0.4687499999999955
 40
0.4843749999999956
 40
0.4843749999999956
 40
0.4999999999999956
 40
0.4999999999999956
 40
0.5156249999999957
 40
0.5156249999999957
 40
0.5234374999999956
 40
0.5234374999999956
 40
0.5312499999999956
 40
0.5312499999999956
 40
0.5468749999999957
 40
0.5468749999999957
 40
0.5546874999999956
 40
0.5546874999999956
 40
0.5624999999999956
 40
0.5624999999999956
 40
0.5781249999999957
 40
0.5781249999999957
 40
0.5859374999999956
 40
0.5859374999999956
 40
0.5937499999999956
 40
0.5937499999999956
 40
0.6093749999999956
 40
0.6093749999999956
 40
0.6171874999999954
 40
0.6171874999999954
 40
0.6249999999999954
 40
0.6249999999999954
 40
0.6406249999999954
 40
0.6406249999999954
 40
0.6484374999999954
 40
0.6484374999999954
 40
0.6562499999999953
 40
0.6562499999999953
 40
0.6718749999999954
 40
0.6718749999999954
 40
0.6757812499999954
 40
0.6757812499999954
 40
0.6796874999999956
 40
0.6796874999999956
 40
0.6874999999999956
 40
0.6874999999999956
 40
0.7031249999999957
 40
0.7031249999999957
 40
0.7109374999999958
 40
0.7109374999999958
 40
0.7148437499999958
 40
0.7148437499999958
 40
0.7187499999999958
 40
0.7187499999999958
 40
0.734374999999996
 40
0.734374999999996
 40
0.7421874999999961
 40
0.7421874999999961
 40
0.7460937499999961
 40
0.7460937499999961
 40
0.7499999999999961
 40
0.7499999999999961
 40
0.7656249999999963
 40
0.7656249999999963
 40
0.7812499999999966
 40
0.7812499999999966
 40
0.7968749999999967
 40
0.7968749999999967
 40
0.8124999999999969
 40
0.8124999999999969
 40
0.8164062499999969
 40
0.8164062499999969
 40
0.8203124999999969
 40
0.8203124999999969
 40
0.8281249999999971
 40
0.8281249999999971
 40
0.8359374999999973
 40
0.8359374999999973
 40
0.8398437499999973
 40
0.8398437499999973
 40
0.8437499999999974
 40
0.8437499999999974
 40
0.8593749999999977
 40
0.8593749999999977
 40
0.874999999999998
 40
0.874999999999998
 40
0.8828124999999982
 40
0.8828124999999982
 40
0.8906249999999983
 40
0.8906249999999983
 40
0.9062499999999987
 40
0.9062499999999987
 40
0.9140624999999988
 40
0.9140624999999988
 40
0.9218749999999988
 40
0.9218749999999988
 40
0.9374999999999991
 40
0.9374999999999991
 40
0.9453124999999992
 40
0.9453124999999992
 40
0.9531249999999992
 40
0.9531249999999992
 40
0.9687499999999996
 40
0.9687499999999996
 40
0.9843749999999998
 40
0.9843749999999998
 40
0.9921874999999999
 40
0.9921874999999999
 40
0.99609375
 40
0.99609375
 40
1.0
 40
1.0
 40
1.0
 40
1.0
 10
-0.0000000000001481
 20
110.0
 30
0.0
 10
-8.665943880374746
 20
110.0000000000001
 30
0.0
 10
-17.2876732738886
 20
109.4710714697729
 30
0.0
 10
-28.00927293428115
 20
108.1401194423942
 30
0.0
 10
-30.15079464363811
 20
107.8402105196108
 30
0.0
 10
-34.42815092936356
 20
107.1717906397147
 30
0.0
 10
-36.56357260163946
 20
106.8032665370639
 30
0.0
 10
-42.93861878020527
 20
105.5972169410076
 30
0.0
 10
-47.15452205909785
 20
104.6583266264296
 30
0.0
 10
-55.51601688025065
 20
102.5022291949241
 30
0.0
 10
-59.66162088315262
 20
101.285072097294
 30
0.0
 10
-65.82440368285543
 20
99.23870324146067
 30
0.0
 10
-67.86843611535248
 20
98.51996429232098
 30
0.0
 10
-71.92158158506032
 20
97.01233164237695
 30
0.0
 10
-73.93259574678696
 20
96.22282474985704
 30
0.0
 10
-79.91774609342876
 20
93.7443328210666
 30
0.0
 10
-83.84414007651581
 20
91.94570795857362
 30
0.0
 10
-89.63095819394275
 20
89.01141683246709
 30
0.0
 10
-91.5448080823719
 20
87.99264053047257
 30
0.0
 10
-95.32271582942757
 20
85.88012800189975
 30
0.0
 10
-97.18734031676259
 20
84.78623253736829
 30
0.0
 10
-102.705570222614
 20
81.3875172868009
 30
0.0
 10
-106.2838149723937
 20
78.96612742823396
 30
0.0
 10
-111.4851615445234
 20
75.0772104002524
 30
0.0
 10
-113.1912283240701
 20
73.73773596401655
 30
0.0
 10
-116.5269089719334
 20
70.9829049915604
 30
0.0
 10
-118.1588085066511
 20
69.56590537133269
 30
0.0
 10
-121.3473295632651
 20
66.6489681050299
 30
0.0
 10
-122.9039573279271
 20
65.14903726357252
 30
0.0
 10
-125.937631949061
 20
62.06148285494684
 30
0.0
 10
-127.4171723208052
 20
60.47069467498675
 30
0.0
 10
-131.6900135670507
 20
55.60343729654939
 30
0.0
 10
-134.3295034177956
 20
52.22210048137886
 30
0.0
 10
-139.1588818646781
 20
45.16590965374641
 30
0.0
 10
-141.3490617372241
 20
41.49124361565381
 30
0.0
 10
-144.2572570928843
 20
35.73306221973333
 30
0.0
 10
-145.163613189679
 20
33.77250954271345
 30
0.0
 10
-146.4212724639676
 20
30.76516596254579
 30
0.0
 10
-146.8222425258544
 20
29.75441658275818
 30
0.0
 10
-147.5830623720344
 20
27.7269869821269
 30
0.0
 10
-147.9435930883001
 20
26.70869650745792
 30
0.0
 10
-149.6463456862799
 20
21.59424891159721
 30
0.0
 10
-150.6899567797912
 20
17.42935453503311
 30
0.0
 10
-151.755137115874
 20
11.06688769386171
 30
0.0
 10
-152.0266114806302
 20
8.92682941746555
 30
0.0
 10
-152.3034619575577
 20
5.686749765284809
 30
0.0
 10
-152.3740665678263
 20
4.599842528713692
 30
0.0
 10
-152.4703615343979
 20
2.425992472681673
 30
0.0
 10
-152.4961153228626
 20
1.339745776790647
 30
0.0
 10
-152.5065480111008
 20
-1.916970299549949
 30
0.0
 10
-152.4244563737405
 20
-4.085417480016537
 30
0.0
 10
-152.0826437381479
 20
-8.416930593818497
 30
0.0
 10
-151.821680198405
 20
-10.58432829043667
 30
0.0
 10
-150.7872272695147
 20
-16.99336298586483
 30
0.0
 10
-149.7625893695931
 20
-21.16861752488005
 30
0.0
 10
-147.7589601352809
 20
-27.29573565405328
 30
0.0
 10
-147.0130517621694
 20
-29.31540837198992
 30
0.0
 10
-145.7795940378066
 20
-32.31158302462829
 30
0.0
 10
-145.34932951358
 20
-33.30474844961767
 30
0.0
 10
-144.4508380816661
 20
-35.28003666605845
 30
0.0
 10
-143.9821250442886
 20
-36.26297853179883
 30
0.0
 10
-141.5620594979654
 20
-41.11569461159425
 30
0.0
 10
-139.3706673196867
 20
-44.82753078435989
 30
0.0
 10
-134.534674138873
 20
-51.94888107015667
 30
0.0
 10
-131.8897508619944
 20
-55.35818215312544
 30
0.0
 10
-127.6073885306203
 20
-60.26201250617925
 30
0.0
 10
-126.1336405814709
 20
-61.85407517114886
 30
0.0
 10
-123.1073457000376
 20
-64.94897562645363
 30
0.0
 10
-121.5534429336784
 20
-66.45335620499674
 30
0.0
 10
-118.3683246261729
 20
-69.38042621058798
 30
0.0
 10
-116.7371031477882
 20
-70.8031094316734
 30
0.0
 10
-113.4006237709498
 20
-73.5702729018706
 30
0.0
 10
-111.694835659511
 20
-74.914945062325
 30
0.0
 10
-106.4974678430448
 20
-78.8164332653623
 30
0.0
 10
-102.9175300692122
 20
-81.2485708305916
 30
0.0
 10
-97.38993049636511
 20
-84.66531350186433
 30
0.0
 10
-95.51891753841885
 20
-85.76669214971254
 30
0.0
 10
-91.73906413432822
 20
-87.88737641872127
 30
0.0
 10
-89.83005550907379
 20
-88.90693865746165
 30
0.0
 10
-84.04830456787441
 20
-91.84870626167985
 30
0.0
 10
-80.1209798340705
 20
-93.65428882929157
 30
0.0
 10
-74.12783863736011
 20
-96.14470187706921
 30
0.0
 10
-72.1130608567852
 20
-96.93843399309614
 30
0.0
 10
-68.05015315837541
 20
-98.4548108286934
 30
0.0
 10
-66.00594971676887
 20
-99.17595387539049
 30
0.0
 10
-59.84475346763374
 20
-101.2288814510277
 30
0.0
 10
-55.6956080382724
 20
-102.4517652669495
 30
0.0
 10
-49.41228005733822
 20
-104.0780928071133
 30
0.0
 10
-47.30788492804307
 20
-104.5854733873114
 30
0.0
 10
-43.07948225131548
 20
-105.5318584589442
 30
0.0
 10
-40.954117270442
 20
-105.9710810713195
 30
0.0
 10
-34.5674364376668
 20
-107.1838940951358
 30
0.0
 10
-30.29097538521248
 20
-107.8540424134164
 30
0.0
 10
-21.70176837035192
 20
-108.9258639156815
 30
0.0
 10
-17.38809457334469
 20
-109.3275747902735
 30
0.0
 10
-8.72841414101355
 20
-109.8644063085884
 30
0.0
 10
-4.399210467080453
 20
-109.9985419575698
 30
0.0
 10
4.257932898461585
 20
-110.0014344409384
 30
0.0
 10
8.5858725506826
 20
-109.8701904288236
 30
0.0
 10
15.07682907663794
 20
-109.4723056004203
 30
0.0
 10
17.24069640051944
 20
-109.3060370136698
 30
0.0
 10
21.5556597804335
 20
-108.9068896537952
 30
0.0
 10
23.70829500462941
 20
-108.6739373142076
 30
0.0
 10
30.15159670495474
 20
-107.8743653596103
 30
0.0
 10
34.42769013449034
 20
-107.2072327031145
 30
0.0
 10
40.81187719101428
 20
-105.9996130657088
 30
0.0
 10
42.93634250270789
 20
-105.5622178124271
 30
0.0
 10
47.16827107954241
 20
-104.6182903901435
 30
0.0
 10
49.27405880334579
 20
-104.1121857067429
 30
0.0
 10
55.56047222429483
 20
-102.4899490968141
 30
0.0
 10
59.71021955707663
 20
-101.2701388890103
 30
0.0
 10
65.87018289018808
 20
-99.22288974174359
 30
0.0
 10
67.9127106921333
 20
-98.50415943317805
 30
0.0
 10
71.97547163343732
 20
-96.99160635734951
 30
0.0
 10
73.9943780514521
 20
-96.19818882318594
 30
0.0
 10
79.9936454807307
 20
-93.71095716249127
 30
0.0
 10
83.92381868851739
 20
-91.90787907377315
 30
0.0
 10
89.70809554760649
 20
-88.9709771207526
 30
0.0
 10
91.61765487376938
 20
-87.95322283531787
 30
0.0
 10
95.39804482496217
 20
-85.83663684636286
 30
0.0
 10
97.2703691904933
 20
-84.73678751196205
 30
0.0
 10
102.8016268656002
 20
-81.3248460826935
 30
0.0
 10
106.3821545336752
 20
-78.89717923059058
 30
0.0
 10
111.5780125786712
 20
-75.00540397838951
 30
0.0
 10
113.2807486114514
 20
-73.66633332054433
 30
0.0
 10
116.6244219260096
 20
-70.89969744902443
 30
0.0
 10
118.2601000304754
 20
-69.4764062600533
 30
0.0
 10
123.0468943268133
 20
-65.0875195891608
 30
0.0
 10
126.0813554707083
 20
-62.00098609207073
 30
0.0
 10
129.6555821803792
 20
-57.91853722550605
 30
0.0
 10
130.3587387500277
 20
-57.09152571080311
 30
0.0
 10
131.7357448251416
 20
-55.42261808216842
 30
0.0
 10
132.4103942409681
 20
-54.57981755493516
 30
0.0
 10
134.3922015637598
 20
-52.02602644911774
 30
0.0
 10
135.6572568007858
 20
-50.2896693976227
 30
0.0
 10
139.2780405062485
 20
-44.97553438164417
 30
0.0
 10
141.460203210231
 20
-41.29318490271215
 30
0.0
 10
144.3495895679579
 20
-35.53838106419474
 30
0.0
 10
145.2485560306716
 20
-33.58145430750473
 30
0.0
 10
146.4941178132019
 20
-30.58406996796395
 30
0.0
 10
146.8921401212828
 20
-29.57459926069794
 30
0.0
 10
147.6525162167791
 20
-27.53416540787863
 30
0.0
 10
148.0127276698526
 20
-26.50887443405103
 30
0.0
 10
149.7106177858284
 20
-21.36551731509702
 30
0.0
 10
150.7431688758264
 20
-17.18809647164066
 30
0.0
 10
151.7886498164219
 20
-10.82505093789658
 30
0.0
 10
152.0530435107658
 20
-8.687843609910113
 30
0.0
 10
152.3195720795503
 20
-5.456998042769462
 30
0.0
 10
152.3867224651553
 20
-4.375874143489478
 30
0.0
 10
152.4767866107605
 20
-2.2051131560656
 30
0.0
 10
152.4996298845146
 20
-1.113343691042009
 30
0.0
 10
152.501458005112
 20
4.319889912887198
 30
0.0
 10
152.1470999412446
 20
8.612076256280554
 30
0.0
 10
150.7637937560916
 20
17.09324726153265
 30
0.0
 10
149.734692656173
 20
21.28220864164762
 30
0.0
 10
147.0095232241487
 20
29.55807533620862
 30
0.0
 10
145.346558914207
 20
33.54562413041563
 30
0.0
 10
141.4870632525403
 20
41.24666569835099
 30
0.0
 10
139.2898085785621
 20
44.96103905706679
 30
0.0
 10
136.2319078655823
 20
49.44555934718916
 30
0.0
 10
135.6042934385057
 20
50.33500851951818
 30
0.0
 10
134.3244605487348
 20
52.08986920877106
 30
0.0
 10
133.6715630256693
 20
52.95631770944185
 30
0.0
 10
131.675117038509
 20
55.52372425587529
 30
0.0
 10
130.2938542259822
 20
57.19277736407604
 30
0.0
 10
127.4360236773755
 20
60.4502496877017
 30
0.0
 10
125.9594485745547
 20
62.03866161624953
 30
0.0
 10
123.676181513155
 20
64.3634015239117
 30
0.0
 10
122.9035726123061
 20
65.12871471345075
 30
0.0
 10
121.3426061004178
 20
66.63419087692913
 30
0.0
 10
120.5534462205914
 20
67.37518690058388
 30
0.0
 10
116.5657412061448
 20
71.02346264014045
 30
0.0
 10
113.2420035498697
 20
73.76133034860337
 30
0.0
 10
106.3559317808585
 20
78.91450859916085
 30
0.0
 10
102.7934327423047
 20
81.32964818805614
 30
0.0
 10
97.28402430709399
 20
84.7284902706349
 30
0.0
 10
95.41987748430884
 20
85.82403049817718
 30
0.0
 10
91.63774813768296
 20
87.94235124469462
 30
0.0
 10
89.7226054151051
 20
88.96341764847448
 30
0.0
 10
83.92921934084552
 20
91.90551974301877
 30
0.0
 10
79.99460215297141
 20
93.71061183754618
 30
0.0
 10
73.99124994601404
 20
96.19946003449168
 30
0.0
 10
71.97133367582309
 20
96.99320269686376
 30
0.0
 10
67.90869123466587
 20
98.50559996141624
 30
0.0
 10
65.86648222910115
 20
99.22416008754882
 30
0.0
 10
59.70825241111244
 20
101.2707116931277
 30
0.0
 10
55.56069566515002
 20
102.4898093105022
 30
0.0
 10
49.27913630139851
 20
104.1109164484027
 30
0.0
 10
47.17522826770603
 20
104.6166340072762
 30
0.0
 10
42.94758893990548
 20
105.5598134455512
 30
0.0
 10
40.82173653504882
 20
105.9976529032617
 30
0.0
 10
34.43358063270329
 20
107.2063082759754
 30
0.0
 10
30.16098093940569
 20
107.8727981907922
 30
0.0
 10
21.58908187222249
 20
108.9373187883813
 30
0.0
 10
17.28977986060303
 20
109.3353238441437
 30
0.0
 10
10.82102379967647
 20
109.7338304233205
 30
0.0
 10
8.661466401347825
 20
109.8335361390213
 30
0.0
 10
5.417157232855787
 20
109.9333496412601
 30
0.0
 10
4.334891700988292
 20
109.9583271410467
 30
0.0
 10
2.168696261060424
 20
109.991652314074
 30
0.0
 10
1.083242985046696
 20
110.0
 30
0.0
 10
-0.000000000000145
 20
110.0
 30
0.0
  0
SPLINE
  5
F0
330
E8
100
AcDbEntity
  8
0
  6
Continuous
 62
     7
370
    25
100
AcDbSpline
210
0.0
220
0.0
230
1.0
 70
    11
 71
     3
 72
   192
 73
   188
 74
     0
 42
0.000000001
 43
0.00000001
 40
0.0
 40
0.0
 40
0.0
 40
0.0
 40
0.0156250000000001
 40
0.0156250000000001
 40
0.0312500000000002
 40
0.0312500000000002
 40
0.0468750000000004
 40
0.0468750000000004
 40
0.0625000000000005
 40
0.0625000000000005
 40
0.0664062500000006
 40
0.0664062500000006
 40
0.0703125000000006
 40
0.0703125000000006
 40
0.0781250000000007
 40
0.0781250000000007
 40
0.093750000000001
 40
0.093750000000001
 40
0.1093750000000012
 40
0.1093750000000012
 40
0.1250000000000015
 40
0.1250000000000015
 40
0.1406250000000017
 40
0.1406250000000017
 40
0.1445312500000017
 40
0.1445312500000017
 40
0.1484375000000017
 40
0.1484375000000017
 40
0.1562500000000017
 40
0.1562500000000017
 40
0.1718750000000016
 40
0.1718750000000016
 40
0.1875000000000015
 40
0.1875000000000015
 40
0.1914062500000014
 40
0.1914062500000014
 40
0.1953125000000014
 40
0.1953125000000014
 40
0.2031250000000013
 40
0.2031250000000013
 40
0.2187500000000012
 40
0.2187500000000012
 40
0.2265625000000011
 40
0.2265625000000011
 40
0.2343750000000011
 40
0.2343750000000011
 40
0.250000000000001
 40
0.250000000000001
 40
0.2578125000000009
 40
0.2578125000000009
 40
0.2617187500000009
 40
0.2617187500000009
 40
0.2656250000000009
 40
0.2656250000000009
 40
0.2812500000000008
 40
0.2812500000000008
 40
0.2968750000000007
 40
0.2968750000000007
 40
0.3125000000000006
 40
0.3125000000000006
 40
0.3281250000000005
 40
0.3281250000000005
 40
0.3359375000000004
 40
0.3359375000000004
 40
0.3437500000000004
 40
0.3437500000000004
 40
0.3750000000000004
 40
0.3750000000000004
 40
0.3828125000000004
 40
0.3828125000000004
 40
0.3906250000000004
 40
0.3906250000000004
 40
0.4062500000000003
 40
0.4062500000000003
 40
0.4375000000000003
 40
0.4375000000000003
 40
0.4531250000000003
 40
0.4531250000000003
 40
0.4609375000000003
 40
0.4609375000000003
 40
0.4687500000000003
 40
0.4687500000000003
 40
0.4843750000000004
 40
0.4843750000000004
 40
0.5000000000000003
 40
0.5000000000000003
 40
0.5156250000000003
 40
0.5156250000000003
 40
0.5234375000000003
 40
0.5234375000000003
 40
0.5273437500000003
 40
0.5273437500000003
 40
0.5312500000000003
 40
0.5312500000000003
 40
0.5625000000000003
 40
0.5625000000000003
 40
0.5781250000000004
 40
0.5781250000000004
 40
0.5937500000000004
 40
0.5937500000000004
 40
0.6015625000000004
 40
0.6015625000000004
 40
0.6054687500000006
 40
0.6054687500000006
 40
0.6093750000000006
 40
0.6093750000000006
 40
0.6250000000000007
 40
0.6250000000000007
 40
0.6562500000000008
 40
0.6562500000000008
 40
0.6601562500000008
 40
0.6601562500000008
 40
0.6640625000000007
 40
0.6640625000000007
 40
0.6718750000000006
 40
0.6718750000000006
 40
0.6875000000000004
 40
0.6875000000000004
 40
0.7031250000000004
 40
0.7031250000000004
 40
0.7070312500000003
 40
0.7070312500000003
 40
0.7109375000000002
 40
0.7109375000000002
 40
0.7187500000000002
 40
0.7187500000000002
 40
0.7343750000000001
 40
0.7343750000000001
 40
0.73828125
 40
0.73828125
 40
0.7421874999999999
 40
0.7421874999999999
 40
0.7499999999999999
 40
0.7499999999999999
 40
0.7656249999999997
 40
0.7656249999999997
 40
0.7734374999999997
 40
0.7734374999999997
 40
0.7773437499999996
 40
0.7773437499999996
 40
0.7812499999999994
 40
0.7812499999999994
 40
0.7968749999999993
 40
0.7968749999999993
 40
0.8046874999999993
 40
0.8046874999999993
 40
0.8085937499999992
 40
0.8085937499999992
 40
0.8124999999999991
 40
0.8124999999999991
 40
0.8281249999999991
 40
0.8281249999999991
 40
0.843749999999999
 40
0.843749999999999
 40
0.8515624999999989
 40
0.8515624999999989
 40
0.855468749999999
 40
0.855468749999999
 40
0.859374999999999
 40
0.859374999999999
 40
0.8749999999999991
 40
0.8749999999999991
 40
0.8906249999999992
 40
0.8906249999999992
 40
0.9062499999999993
 40
0.9062499999999993
 40
0.9140624999999994
 40
0.9140624999999994
 40
0.9179687499999994
 40
0.9179687499999994
 40
0.9218749999999994
 40
0.9218749999999994
 40
0.9374999999999996
 40
0.9374999999999996
 40
0.9687499999999999
 40
0.9687499999999999
 40
0.9765624999999999
 40
0.9765624999999999
 40
0.984375
 40
0.984375
 40
0.9921875
 40
0.9921875
 40
0.9960937500000001
 40
0.9960937500000001
 40
0.9980468750000001
 40
0.9980468750000001
 40
1.0
 40
1.0
 40
1.0
 40
1.0
 10
-0.0000000000001915
 20
127.477482272339
 30
0.0
 10
4.915559502171566
 20
127.477482272339
 30
0.0
 10
9.807207543370247
 20
127.3083288039099
 30
0.0
 10
19.54487028441989
 20
126.6472043707177
 30
0.0
 10
24.39088045900404
 20
126.1552013934994
 30
0.0
 10
34.03779423320846
 20
124.8521043716998
 30
0.0
 10
38.83870191940504
 20
124.0410392362072
 30
0.0
 10
48.39430807571869
 20
122.0920176396747
 30
0.0
 10
53.14897177168888
 20
120.9538151808022
 30
0.0
 10
59.06195992540195
 20
119.316421761349
 30
0.0
 10
60.2441921811261
 20
118.9778438939148
 30
0.0
 10
62.59895936812919
 20
118.2808368314479
 30
0.0
 10
63.77132166337364
 20
117.9224870782874
 30
0.0
 10
67.27336183103422
 20
116.8179328346696
 30
0.0
 10
69.58799936347383
 20
116.0422358668319
 30
0.0
 10
76.4716528970437
 20
113.5969834671451
 30
0.0
 10
80.98051750235084
 20
111.8094776642618
 30
0.0
 10
89.83477791199738
 20
107.9139214483017
 30
0.0
 10
94.1803262006852
 20
105.8061700405136
 30
0.0
 10
102.7004456064938
 20
101.2553995133779
 30
0.0
 10
106.8750997989588
 20
98.81254329578046
 30
0.0
 10
115.037457402128
 20
93.56024062985004
 30
0.0
 10
119.0251840214707
 20
90.75083969114259
 30
0.0
 10
123.8759927013836
 20
86.97662396327318
 30
0.0
 10
124.8404590336028
 20
86.2078458678618
 30
0.0
 10
126.7509951269201
 20
84.64697226137268
 30
0.0
 10
127.6952054920388
 20
83.85643752591045
 30
0.0
 10
130.4943786655022
 20
81.45427937146482
 30
0.0
 10
132.31591948185
 20
79.81213481579033
 30
0.0
 10
137.6433137660479
 20
74.76038367584334
 30
0.0
 10
141.0126942680313
 20
71.22614927027726
 30
0.0
 10
147.3526948575432
 20
63.79353037743425
 30
0.0
 10
150.3231892398536
 20
59.89503109549937
 30
0.0
 10
153.7498605036915
 20
54.76032236595637
 30
0.0
 10
154.4211763615449
 20
53.71953336328949
 30
0.0
 10
155.7250946068655
 20
51.62523108881206
 30
0.0
 10
156.3588502809841
 20
50.57004754676758
 30
0.0
 10
158.2048634686813
 20
47.38011576197498
 30
0.0
 10
159.3619108742716
 20
45.22100565528047
 30
0.0
 10
162.605527374411
 20
38.64327794865245
 30
0.0
 10
164.4654220335153
 20
34.12463859622417
 30
0.0
 10
166.7610608258334
 20
27.12860879268713
 30
0.0
 10
167.4443097279085
 20
24.7580014710142
 30
0.0
 10
168.6330348384949
 20
19.94833050362709
 30
0.0
 10
169.1315111796621
 20
17.53811216047319
 30
0.0
 10
170.3404908302455
 20
10.29137643858913
 30
0.0
 10
170.7660204532704
 20
5.438861209513922
 30
0.0
 10
170.8120059445768
 20
-1.87316266843744
 30
0.0
 10
170.7279611655262
 20
-4.316082577206165
 30
0.0
 10
170.4528931220557
 20
-7.988827050186941
 30
0.0
 10
170.3363536126293
 20
-9.214470246004597
 30
0.0
 10
170.0533246107381
 20
-11.66856072935627
 30
0.0
 10
169.8863780008618
 20
-12.89946840109346
 30
0.0
 10
168.9345087883401
 20
-19.00904155137017
 30
0.0
 10
167.7986629410329
 20
-23.7824539169228
 30
0.0
 10
164.8434545986314
 20
-33.1206796121005
 30
0.0
 10
163.0228334477812
 20
-37.68534046092342
 30
0.0
 10
158.7210852466894
 20
-46.61215832948682
 30
0.0
 10
156.2848245477353
 20
-50.88277363297681
 30
0.0
 10
150.9081313119266
 20
-59.08340969307174
 30
0.0
 10
147.9672145000625
 20
-63.01310329648219
 30
0.0
 10
143.2090648074842
 20
-68.67337933728619
 30
0.0
 10
141.5610124035171
 20
-70.525071084251
 30
0.0
 10
138.1876739272779
 20
-74.11659614648303
 30
0.0
 10
136.4596326127591
 20
-75.86019920974515
 30
0.0
 10
127.6256066471696
 20
-84.33385849468706
 30
0.0
 10
119.9432260143702
 20
-90.33722874126587
 30
0.0
 10
109.6859989573977
 20
-97.01660023510611
 30
0.0
 10
107.6017394816098
 20
-98.3111045015758
 30
0.0
 10
103.3693887913477
 20
-100.8196377523482
 30
0.0
 10
101.2178443926075
 20
-102.0353257382835
 30
0.0
 10
94.72420598960899
 20
-105.5351511676476
 30
0.0
 10
90.32833161856092
 20
-107.6822218906449
 30
0.0
 10
76.95553214663548
 20
-113.6072795837164
 30
0.0
 10
67.79421728041369
 20
-116.8713046024775
 30
0.0
 10
53.70918095609422
 20
-120.8110967805681
 30
0.0
 10
48.95665141226352
 20
-121.9640386363421
 30
0.0
 10
41.74210946561202
 20
-123.4544413013109
 30
0.0
 10
39.31877973137689
 20
-123.9120186924
 30
0.0
 10
34.47306269804094
 20
-124.7424016686698
 30
0.0
 10
32.04900685533676
 20
-125.1157140072623
 30
0.0
 10
24.77331657841862
 20
-126.112435023736
 30
0.0
 10
19.91816951261566
 20
-126.6129815745441
 30
0.0
 10
10.19860897051023
 20
-127.289961294075
 30
0.0
 10
5.334195125645207
 20
-127.4663815715032
 30
0.0
 10
-4.404114480970822
 20
-127.4875709275775
 30
0.0
 10
-9.278020332040835
 20
-127.3319871097843
 30
0.0
 10
-16.59591188363576
 20
-126.8526243865597
 30
0.0
 10
-19.03638356567137
 20
-126.6517561181369
 30
0.0
 10
-22.69886356195399
 20
-126.2884575096379
 30
0.0
 10
-23.91998580021627
 20
-126.1570196541052
 30
0.0
 10
-26.36282520283348
 20
-125.8733350755743
 30
0.0
 10
-27.58567294013601
 20
-125.7209305464516
 30
0.0
 10
-38.56208439570699
 20
-124.2592172249599
 30
0.0
 10
-48.12212966347645
 20
-122.3257091081003
 30
0.0
 10
-62.16472816500428
 20
-118.466651555603
 30
0.0
 10
-66.79576491968307
 20
-117.0196902147056
 30
0.0
 10
-75.95475290700024
 20
-113.7935050482733
 30
0.0
 10
-80.48272194094919
 20
-112.0143385994441
 30
0.0
 10
-87.19298071485473
 20
-109.0822725161314
 30
0.0
 10
-89.41610182290529
 20
-108.0609794501111
 30
0.0
 10
-92.7295561335751
 20
-106.4606204224277
 30
0.0
 10
-93.83050039103478
 20
-105.9157557275968
 30
0.0
 10
-96.02514359956315
 20
-104.8026734610641
 30
0.0
 10
-97.11984536713108
 20
-104.2339189666002
 30
0.0
 10
-102.562714398141
 20
-101.3366823426617
 30
0.0
 10
-106.7992870046518
 20
-98.859538833597
 30
0.0
 10
-119.1376376564658
 20
-90.92541033335675
 30
0.0
 10
-126.8687553070612
 20
-84.96668408634274
 30
0.0
 10
-134.9007804663011
 20
-77.36229280431273
 30
0.0
 10
-135.7839001372056
 20
-76.50473425606246
 30
0.0
 10
-137.5308659612318
 20
-74.76352772795583
 30
0.0
 10
-138.3959053454827
 20
-73.8786103092024
 30
0.0
 10
-140.9512037902382
 20
-71.1937113900407
 30
0.0
 10
-142.600275635956
 20
-69.3654290595557
 30
0.0
 10
-147.3789101935007
 20
-63.76187146460714
 30
0.0
 10
-150.3402956528518
 20
-59.86816989142431
 30
0.0
 10
-155.7704082118046
 20
-51.73384877520304
 30
0.0
 10
-158.2396515925447
 20
-47.49359278471775
 30
0.0
 10
-160.9767052003409
 20
-41.94716300773756
 30
0.0
 10
-161.5069016427388
 20
-40.82455333333235
 30
0.0
 10
-162.5232564671051
 20
-38.57118533919301
 30
0.0
 10
-163.0104495936001
 20
-37.43842480207253
 30
0.0
 10
-164.4086822244182
 20
-34.02179950910668
 30
0.0
 10
-165.2564091276734
 20
-31.71960095997297
 30
0.0
 10
-167.5416923818647
 20
-24.73832446609977
 30
0.0
 10
-168.7231696912606
 20
-19.98509224347785
 30
0.0
 10
-169.7369119177118
 20
-13.90944816301818
 30
0.0
 10
-169.9163767977608
 20
-12.68757699129792
 30
0.0
 10
-170.2272933583312
 20
-10.2299311900878
 30
0.0
 10
-170.3586333537769
 20
-8.993728221011569
 30
0.0
 10
-170.6759070297799
 20
-5.299059797457346
 30
0.0
 10
-170.7868347575804
 20
-2.842931041717387
 30
0.0
 10
-170.8190928537534
 20
4.504590671312523
 30
0.0
 10
-170.4406313327903
 20
9.375169978140002
 30
0.0
 10
-169.3007364583751
 20
16.64131263094079
 30
0.0
 10
-168.8250270301881
 20
19.056712930884
 30
0.0
 10
-167.9679646020695
 20
22.66985072580496
 30
0.0
 10
-167.6581616405699
 20
23.87273018855552
 30
0.0
 10
-166.996485872763
 20
26.25517792323086
 30
0.0
 10
-166.6440418537333
 20
27.43730773443963
 30
0.0
 10
-164.7767655677909
 20
33.30373847516735
 30
0.0
 10
-162.9478294623445
 20
37.85583260688336
 30
0.0
 10
-159.7405998064515
 20
44.4887489257052
 30
0.0
 10
-158.5940085502512
 20
46.66709497150977
 30
0.0
 10
-156.7609750483794
 20
49.88699045159325
 30
0.0
 10
-156.1300799511998
 20
50.95398153119373
 30
0.0
 10
-154.8360635201284
 20
53.06398638347088
 30
0.0
 10
-154.1738023412202
 20
54.10574399544988
 30
0.0
 10
-150.789138961352
 20
59.25083254747292
 30
0.0
 10
-147.8475372142486
 20
63.16382294963665
 30
0.0
 10
-141.5540672703052
 20
70.63355148021941
 30
0.0
 10
-138.2024131590905
 20
74.19047550853571
 30
0.0
 10
-132.8926147607879
 20
79.28071317073996
 30
0.0
 10
-131.0754384883066
 20
80.93643548747545
 30
0.0
 10
-128.2804496125845
 20
83.35990833500146
 30
0.0
 10
-127.3359993507917
 20
84.15870585737632
 30
0.0
 10
-125.4327134868559
 20
85.72944348878666
 30
0.0
 10
-124.4734765948603
 20
86.50179048340594
 30
0.0
 10
-119.6403762269865
 20
90.30022352363949
 30
0.0
 10
-115.6555877624226
 20
93.13609980368537
 30
0.0
 10
-107.4763714776386
 20
98.44837112185098
 30
0.0
 10
-103.2820304603424
 20
100.9249150061777
 30
0.0
 10
-94.6998235724793
 20
105.5461540416607
 30
0.0
 10
-90.31188033056371
 20
107.6907165195012
 30
0.0
 10
-83.5898128325611
 20
110.6672320632532
 30
0.0
 10
-81.32569027466113
 20
111.6192212613239
 30
0.0
 10
-77.89456309461552
 20
112.9872856011807
 30
0.0
 10
-76.74465676179179
 20
113.4334328270577
 30
0.0
 10
-74.44168563745511
 20
114.3026635244268
 30
0.0
 10
-73.2875982972535
 20
114.7261654138198
 30
0.0
 10
-67.50436075335867
 20
116.7889962354391
 30
0.0
 10
-62.83688546735355
 20
118.2646201026414
 30
0.0
 10
-48.71782731577466
 20
122.1932984571644
 30
0.0
 10
-39.150372680304
 20
124.1514082638457
 30
0.0
 10
-27.00503490498048
 20
125.8044658528713
 30
0.0
 10
-24.56658656151038
 20
126.0950074612791
 30
0.0
 10
-19.67073390501046
 20
126.5951205133311
 30
0.0
 10
-17.21437777492537
 20
126.8044829424952
 30
0.0
 10
-12.30265700111154
 20
127.139819446971
 30
0.0
 10
-9.844864142557904
 20
127.26605999145
 30
0.0
 10
-6.155248346123058
 20
127.3926832547127
 30
0.0
 10
-4.924888397686649
 20
127.4244290722972
 30
0.0
 10
-3.078610563631023
 20
127.4562286905776
 30
0.0
 10
-2.463061616802738
 20
127.464191682817
 30
0.0
 10
-1.231716532578258
 20
127.4748184751364
 30
0.0
 10
-0.6144449377716213
 20
127.477482272339
 30
0.0
 10
-0.000000000000195
 20
127.477482272339
 30
0.0
  0
LWPOLYLINE
  5
F1
330
E8
100
AcDbEntity
  8
0
  6
Continuous
 62
     7
370
    25
100
AcDbPolyline
 90
       85
 70
   128
 43
0.0
 10
0.0
 20
160.0
 10
21.1894629335
 20
159.3696677479
 10
42.1791088904
 20
157.5018482985
 10
62.7691211739
 20
154.4313075804
 10
82.7819305187
 20
150.1903187074
 10
102.1228265609
 20
144.8018704884
 10
116.79874426
 20
139.7766795546
 10
130.9726481071
 20
134.0679976069
 10
144.5726711492
 20
127.7026796322
 10
157.512471372
 20
120.7144535671
 10
169.7056274848
 20
113.1370849898
 10
181.7326395727
 20
104.4990837676
 10
192.7621221624
 20
95.3050844378
 10
202.7336487087
 20
85.6238241951
 10
211.5873482377
 20
75.523520197
 10
219.2817041987
 20
65.0552091141
 10
225.7973200014
 20
54.2492224341
 10
230.8447410475
 20
43.7775818979
 10
234.8122329984
 20
33.0592918302
 10
237.6774622592
 20
22.147219981
 10
239.4151496853
 20
11.1059176188
 10
240.0
 20
0.0
 10
239.3423979446
 20
-11.77757711
 10
237.3897109683
 20
-23.4780643371
 10
234.1721178559
 20
-35.0243717983
 10
229.7196386577
 20
-46.3400392311
 10
224.0570493031
 20
-57.3694071699
 10
217.2028057326
 20
-68.0818843739
 10
209.6650193319
 20
-77.8658295067
 10
201.1019964103
 20
-87.3150987381
 10
191.5540194482
 20
-96.3817807661
 10
181.0716803506
 20
-105.008314248
 10
169.7056274848
 20
-113.1370849898
 10
156.7486256514
 20
-121.1550930485
 10
142.9576266567
 20
-128.5080814416
 10
128.4357362926
 20
-135.1557658058
 10
113.2852802953
 20
-141.0582321585
 10
97.5828136709
 20
-146.1878027992
 10
81.3738336509
 20
-150.5315466677
 10
61.6795021161
 20
-154.6257189426
 10
41.4351722595
 20
-157.5894729356
 10
20.8122373842
 20
-159.3918788075
 10
-0.0000000005
 20
-160.0
 10
-21.189462934
 20
-159.3696677479
 10
-42.1791088909
 20
-157.5018482984
 10
-62.7691211743
 20
-154.4313075803
 10
-82.781930519
 20
-150.1903187073
 10
-102.122826561
 20
-144.8018704884
 10
-116.7987442601
 20
-139.7766795546
 10
-130.9726481072
 20
-134.0679976069
 10
-144.5726711492
 20
-127.7026796322
 10
-157.512471372
 20
-120.7144535671
 10
-169.7056274848
 20
-113.1370849898
 10
-181.7326395727
 20
-104.4990837676
 10
-192.7621221624
 20
-95.3050844378
 10
-202.7336487087
 20
-85.6238241951
 10
-211.5873482377
 20
-75.523520197
 10
-219.2817041987
 20
-65.0552091141
 10
-225.7973200014
 20
-54.2492224341
 10
-230.8447410475
 20
-43.7775818979
 10
-234.8122329984
 20
-33.0592918302
 10
-237.6774622592
 20
-22.147219981
 10
-239.4151496853
 20
-11.1059176188
 10
-240.0
 20
0.0
 10
-239.3423979446
 20
11.77757711
 10
-237.3897109683
 20
23.4780643371
 10
-234.1721178559
 20
35.0243717983
 10
-229.7196386577
 20
46.3400392311
 10
-224.0570493031
 20
57.3694071699
 10
-217.2028057326
 20
68.0818843739
 10
-209.6650193319
 20
77.8658295066
 10
-201.1019964103
 20
87.3150987381
 10
-191.5540194482
 20
96.3817807661
 10
-181.0716803506
 20
105.008314248
 10
-169.7056274848
 20
113.1370849898
 10
-156.7486256514
 20
121.1550930485
 10
-142.9576266567
 20
128.5080814416
 10
-128.4357362927
 20
135.1557658058
 10
-113.2852802954
 20
141.0582321585
 10
-97.5828136711
 20
146.1878027991
 10
-81.3738336512
 20
150.5315466676
 10
-61.6795021165
 20
154.6257189425
 10
-41.43517226
 20
157.5894729356
 10
-20.8122373847
 20
159.3918788075
 10
0.0
 20
160.0
  0
VIEWPORT
  5
130
330
E8
100
AcDbEntity
  8
0
100
AcDbViewport
 10
0.0
 20
0.0
 30
0.0
 40
205.6
 41
156.0
 68
     1
 69
     1
 12
0.0
 22
0.0
 13
0.0
 23
0.0
 14
10.0
 24
10.0
 15
10.0
 25
10.0
 16
0.0
 26
0.0
 36
1.0
 17
0.0
 27
0.0
 37
0.0
 42
50.0
 43
0.0
 44
0.0
 45
371.486381323
 50
0.0
 51
0.0
 72
   100
 90
   557152
  1

281
     0
 71
     1
 74
     0
110
0.0
120
0.0
130
0.0
111
1.0
121
0.0
131
0.0
112
0.0
122
1.0
132
0.0
 79
     0
146
0.0
  0
ENDBLK
  5
EB
330
E8
100
AcDbEntity
  8
0
100
AcDbBlockEnd
  0
BLOCK
  5
F4
330
F2
100
AcDbEntity
  8
0
100
AcDbBlockBegin
  2
*Paper_Space5
 70
     0
 10
0.0
 20
0.0
 30
0.0
  3
*Paper_Space5
  1

  0
SPLINE
  5
F6
330
F2
100
AcDbEntity
  8
0
  6
Continuous
 62
     7
370
    25
100
AcDbSpline
210
0.0
220
0.0
230
1.0
 70
     8
 71
     3
 72
    47
 73
    43
 74
     0
 42
0.000000001
 43
0.00000001
 40
0.0
 40
0.0
 40
0.0
 40
0.0
 40
0.0373486805237308
 40
0.0755116460730859
 40
0.1074269227432366
 40
0.1330863841276756
 40
0.154289051650548
 40
0.1697635542686147
 40
0.1861872695087297
 40
0.208982505655019
 40
0.2378321940731755
 40
0.2640247505751848
 40
0.2928211928060329
 40
0.3184216579746103
 40
0.3431431358918324
 40
0.3691988124011298
 40
0.3999784441524321
 40
0.4347390776213362
 40
0.4681923306617176
 40
0.4972000323259484
 40
0.5264188460999802
 40
0.5548500643065619
 40
0.588066525072045
 40
0.6281547718059644
 40
0.6524284039332386
 40
0.6713805135456159
 40
0.6884829105523711
 40
0.7055654775602418
 40
0.7256289270563087
 40
0.7499079139437299
 40
0.7758845409001247
 40
0.7990840592809973
 40
0.817238027228498
 40
0.8356800007435251
 40
0.857172900265631
 40
0.8751723848012114
 40
0.894219665769611
 40
0.9091511601790393
 40
0.9202266293926629
 40
0.9372901984033364
 40
0.96390360664553
 40
1.0
 40
1.0
 40
1.0
 40
1.0
 10
99.94689066680593
 20
-152.2202691004789
 30
0.0
 10
101.496474005474
 20
-151.7149595422882
 30
0.0
 10
104.6294250760188
 20
-150.6933235438973
 30
0.0
 10
109.2012432621598
 20
-149.0122262330573
 30
0.0
 10
113.3105401094233
 20
-147.3931744415363
 30
0.0
 10
116.6288653035485
 20
-145.9975998970948
 30
0.0
 10
119.1917848686176
 20
-144.867221225542
 30
0.0
 10
121.3692269185944
 20
-143.8707869597892
 30
0.0
 10
123.5905573665869
 20
-142.8215900183699
 30
0.0
 10
126.3218089247056
 20
-141.4814985401985
 30
0.0
 10
129.4173311031891
 20
-139.8861869321935
 30
0.0
 10
132.7271137642742
 20
-138.0900619234757
 30
0.0
 10
135.8858854940771
 20
-136.2860383277814
 30
0.0
 10
138.9353128542057
 20
-134.4549685290467
 30
0.0
 10
141.838218011976
 20
-132.6326278195254
 30
0.0
 10
144.9904649220216
 20
-130.5596374252715
 30
0.0
 10
148.3428858633246
 20
-128.2411171537138
 30
0.0
 10
151.8113056011393
 20
-125.7095099430634
 30
0.0
 10
155.2806920330601
 20
-123.0272543666392
 30
0.0
 10
158.4599318797019
 20
-120.4343154095236
 30
0.0
 10
161.4102244491061
 20
-117.9077089377325
 30
0.0
 10
164.4359029814099
 20
-115.1873189398522
 30
0.0
 10
167.7419103079369
 20
-112.0561390747814
 30
0.0
 10
170.814479524801
 20
-108.9593865819495
 30
0.0
 10
173.3654245521783
 20
-106.2425459075982
 30
0.0
 10
175.1735851597682
 20
-104.2433821885204
 30
0.0
 10
176.7374277541784
 20
-102.4591405818865
 30
0.0
 10
178.3060962705751
 20
-100.6147477453407
 30
0.0
 10
180.0459507694133
 20
-98.50050407442468
 30
0.0
 10
181.9894409472859
 20
-96.04267620256321
 30
0.0
 10
183.9544916751377
 20
-93.44085015847725
 30
0.0
 10
185.7056948975334
 20
-91.01378750430288
 30
0.0
 10
187.2288605290758
 20
-88.81767702339651
 30
0.0
 10
188.6673642766404
 20
-86.66831182730805
 30
0.0
 10
190.0581757205069
 20
-84.50660150169489
 30
0.0
 10
191.4214750623914
 20
-82.3016170289157
 30
0.0
 10
192.5986364245632
 20
-80.32366575205258
 30
0.0
 10
193.5935713194545
 20
-78.59077082705421
 30
0.0
 10
194.5268470601515
 20
-76.91923976647679
 30
0.0
 10
195.6787977401044
 20
-74.78899276967903
 30
0.0
 10
197.3012462299738
 20
-71.65357030234101
 30
0.0
 10
198.4822297578247
 20
-69.13719361254131
 30
0.0
 10
199.1620157702353
 20
-67.68874184726158
 30
0.0
  0
SPLINE
  5
F7
330
F2
100
AcDbEntity
  8
0
  6
Continuous
 62
     7
370
    25
100
AcDbSpline
210
0.0
220
0.0
230
1.0
 70
     8
 71
     3
 72
    45
 73
    41
 74
     0
 42
0.000000001
 43
0.00000001
 40
0.0
 40
0.0
 40
0.0
 40
0.0
 40
0.0267472672067107
 40
0.0479462135198836
 40
0.0637915338992381
 40
0.0792686465607927
 40
0.0965973861223044
 40
0.1141972575405114
 40
0.1310915427361996
 40
0.1443530372170498
 40
0.1572451174248737
 40
0.1704230803630302
 40
0.1900270520888109
 40
0.2142225913262077
 40
0.2387702068688759
 40
0.261630476482018
 40
0.2799712046619056
 40
0.2961612522181044
 40
0.3215942207496857
 40
0.3506627203013608
 40
0.3852873884839037
 40
0.4215024229021969
 40
0.4544727992240139
 40
0.4832449053164772
 40
0.5107054715532684
 40
0.5600295145628063
 40
0.6110957904928188
 40
0.6661331700183208
 40
0.7213294592102607
 40
0.7733884229164913
 40
0.8046613433899275
 40
0.8384156831290447
 40
0.8735136438162392
 40
0.9082575709934515
 40
0.9346191019891747
 40
0.9574651791357848
 40
0.9662903373315567
 40
0.9792316998042737
 40
0.9971109641651361
 40
1.0
 40
1.0
 40
1.0
 40
1.0
 10
-201.7480855759145
 20
28.83994061729309
 30
0.0
 10
-201.352210017567
 20
27.35383301607747
 30
0.0
 10
-200.6425773698224
 20
24.68988862838584
 30
0.0
 10
-199.631415279318
 20
21.16489827275993
 30
0.0
 10
-198.7693403035728
 20
18.27287993752789
 30
0.0
 10
-197.9450573408822
 20
15.60418566535177
 30
0.0
 10
-197.0636551387193
 20
12.84918889957443
 30
0.0
 10
-196.1270261114876
 20
10.02734249888319
 30
0.0
 10
-195.2361539547647
 20
7.436520884367879
 30
0.0
 10
-194.4117068521217
 20
5.110137866639865
 30
0.0
 10
-193.6419287754604
 20
2.992972316228352
 30
0.0
 10
-192.7288662433491
 20
0.5439207031483553
 30
0.0
 10
-191.5601815562207
 20
-2.495386374058578
 30
0.0
 10
-190.1086640835245
 20
-6.121119019170098
 30
0.0
 10
-188.5315186004015
 20
-9.892264825011175
 30
0.0
 10
-187.0328009745391
 20
-13.33089489058587
 30
0.0
 10
-185.6861868718886
 20
-16.31408848360203
 30
0.0
 10
-184.2469999935886
 20
-19.4118005317165
 30
0.0
 10
-182.5038660941407
 20
-23.03799837507607
 30
0.0
 10
-180.2300539228364
 20
-27.56597817793005
 30
0.0
 10
-177.5812979983133
 20
-32.58422006218391
 30
0.0
 10
-174.7139738174359
 20
-37.73045892298356
 30
0.0
 10
-171.9025709049639
 20
-42.52194527412514
 30
0.0
 10
-169.2581605988877
 20
-46.82904187278599
 30
0.0
 10
-166.0383892813822
 20
-51.86438973414947
 30
0.0
 10
-161.9890625007546
 20
-57.86020765001427
 30
0.0
 10
-156.8319316300399
 20
-64.97679439018678
 30
0.0
 10
-151.2274373227248
 20
-72.16249742510489
 30
0.0
 10
-145.3295977006006
 20
-79.17242049320485
 30
0.0
 10
-140.0851760271935
 20
-84.96458997279387
 30
0.0
 10
-135.5172533304657
 20
-89.73016231956697
 30
0.0
 10
-131.5235438131492
 20
-93.71520755752
 30
0.0
 10
-127.2968055559379
 20
-97.7378303964088
 30
0.0
 10
-123.2864466754398
 20
-101.3745753372134
 30
0.0
 10
-119.7207949864325
 20
-104.4735155864709
 30
0.0
 10
-117.2201030787609
 20
-106.5727063414125
 30
0.0
 10
-115.2794621801975
 20
-108.1666131489932
 30
0.0
 10
-113.5485580838291
 20
-109.5628922553962
 30
0.0
 10
-112.0706623718481
 20
-110.743234538782
 30
0.0
 10
-111.1428930903838
 20
-111.4545686543101
 30
0.0
 10
-111.0138329999876
 20
-111.553520890697
 30
0.0
  0
SPLINE
  5
F8
330
F2
100
AcDbEntity
  8
0
  6
Continuous
 62
     7
370
    25
100
AcDbSpline
210
0.0
220
0.0
230
1.0
 70
     8
 71
     3
 72
    82
 73
    78
 74
     0
 42
0.000000001
 43
0.00000001
 40
0.0
 40
0.0
 40
0.0
 40
0.0
 40
0.0117746035103274
 40
0.0214063990492918
 40
0.0289249853589972
 40
0.0349682977941248
 40
0.0406543358202154
 40
0.0460094199332186
 40
0.0594438307673309
 40
0.0739572509070658
 40
0.0841033780355996
 40
0.0946322942101391
 40
0.1057952522791619
 40
0.1160350699851899
 40
0.1241712185954997
 40
0.1302742217731706
 40
0.1399508503943865
 40
0.1518516270038787
 40
0.1660798889860974
 40
0.1818301957740043
 40
0.2032604778838975
 40
0.2252107390824425
 40
0.2476791669226635
 40
0.2752996642659126
 40
0.3035956248850864
 40
0.3318814882663771
 40
0.3595865117640237
 40
0.3865559115378977
 40
0.4126482177304771
 40
0.4377399818502615
 40
0.4617489774481229
 40
0.4858266526527322
 40
0.5116395736834757
 40
0.5405243449722946
 40
0.5713844711583789
 40
0.6041903275033599
 40
0.624398906516831
 40
0.6448028273934057
 40
0.6629619060969317
 40
0.6784796660020107
 40
0.6861597532890163
 40
0.6929771791829353
 40
0.6989333383998425
 40
0.7040299809439339
 40
0.7082690211867243
 40
0.7117365785072332
 40
0.7164144993805791
 40
0.7224939481335169
 40
0.7302761548653901
 40
0.7394461160558528
 40
0.7485612803878119
 40
0.7574345279201447
 40
0.7660657563354356
 40
0.784198222175384
 40
0.8003318873621744
 40
0.8151225190147422
 40
0.8310787004345006
 40
0.8484033624870272
 40
0.8675607533783013
 40
0.8884116903692079
 40
0.8967502417729796
 40
0.9049368104985558
 40
0.9116115716243768
 40
0.9165445294360487
 40
0.9216970747186526
 40
0.9285096422826425
 40
0.9369210928435747
 40
0.944921525004686
 40
0.9517692520271258
 40
0.958280265071986
 40
0.9653974898947922
 40
0.9738445587666208
 40
0.9822869650263024
 40
0.9890518749803364
 40
0.995373113544128
 40
0.9991064864322898
 40
1.0
 40
1.0
 40
1.0
 40
1.0
 10
152.5672322077578
 20
-96.72040810799803
 30
0.0
 10
151.7846136942047
 20
-97.23376960889541
 30
0.0
 10
150.3618019460395
 20
-98.16706822358881
 30
0.0
 10
148.2216481871688
 20
-99.40859210151439
 30
0.0
 10
146.3825577843583
 20
-100.4019580218606
 30
0.0
 10
144.7441242698907
 20
-101.2323873379285
 30
0.0
 10
143.2321323910125
 20
-101.9583433894024
 30
0.0
 10
140.9749834003869
 20
-102.9880231184203
 30
0.0
 10
137.6867605350336
 20
-104.3624527984785
 30
0.0
 10
133.6450882719046
 20
-105.8356982040228
 30
0.0
 10
129.8167272149153
 20
-107.0746905586932
 30
0.0
 10
126.0731637211044
 20
-108.1660612303483
 30
0.0
 10
122.0872245969345
 20
-109.1949818932682
 30
0.0
 10
118.2821693297891
 20
-110.0606136568086
 30
0.0
 10
115.074047691247
 20
-110.7114081619789
 30
0.0
 10
111.9026108130315
 20
-111.2973586360969
 30
0.0
 10
108.1552951916023
 20
-111.917430744648
 30
0.0
 10
103.2094210651371
 20
-112.6112188584736
 30
0.0
 10
97.32258732013165
 20
-113.2683256526499
 30
0.0
 10
89.99297333290092
 20
-113.8621437728619
 30
0.0
 10
81.45724847267782
 20
-114.2535861970613
 30
0.0
 10
71.8807440168725
 20
-114.3356332860965
 30
0.0
 10
61.38199388637451
 20
-114.0583885761265
 30
0.0
 10
49.98681176178395
 20
-113.3387205634664
 30
0.0
 10
37.84900914163445
 20
-112.1064185037013
 30
0.0
 10
25.85202068605651
 20
-110.4435926347718
 30
0.0
 10
14.22360195270128
 20
-108.4327421221512
 30
0.0
 10
3.098205561520254
 20
-106.152954469309
 30
0.0
 10
-7.464226635313029
 20
-103.6696761460098
 30
0.0
 10
-17.42181328547497
 20
-101.0419274397461
 30
0.0
 10
-26.90427273216105
 20
-98.27825398519948
 30
0.0
 10
-36.2679741980272
 20
-95.29677069036094
 30
0.0
 10
-46.02538793714043
 20
-91.91546783159833
 30
0.0
 10
-56.34595361136373
 20
-88.01696793092948
 30
0.0
 10
-67.17722504990209
 20
-83.54995179485061
 30
0.0
 10
-76.6655565437361
 20
-79.2773186153928
 30
0.0
 10
-84.72382669495246
 20
-75.38466883693593
 30
0.0
 10
-91.01957674076449
 20
-72.17782346902689
 30
0.0
 10
-96.67391762918409
 20
-69.14968633036122
 30
0.0
 10
-100.9010187190648
 20
-66.78429728855781
 30
0.0
 10
-103.9178745575466
 20
-65.04386129848605
 30
0.0
 10
-105.9512866980973
 20
-63.84815068786038
 30
0.0
 10
-107.7100161102704
 20
-62.79645618064684
 30
0.0
 10
-109.2009955152732
 20
-61.89183626608309
 30
0.0
 10
-110.4386247938021
 20
-61.13167410995575
 30
0.0
 10
-111.6254310880884
 20
-60.39532014191402
 30
0.0
 10
-112.9731508593088
 20
-59.55016962124269
 30
0.0
 10
-114.7129460278829
 20
-58.44372152901147
 30
0.0
 10
-116.8483681396901
 20
-57.06079486157991
 30
0.0
 10
-119.2309332494688
 20
-55.48302166344307
 30
0.0
 10
-121.6739801691526
 20
-53.8254975498491
 30
0.0
 10
-124.0300862923521
 20
-52.18798691565396
 30
0.0
 10
-127.1328880636536
 20
-49.97979249983273
 30
0.0
 10
-130.7735333854518
 20
-47.2915050404356
 30
0.0
 10
-134.7730334028794
 20
-44.19108958064818
 30
0.0
 10
-138.4371530560219
 20
-41.2188567456116
 30
0.0
 10
-142.0323288110847
 20
-38.16292680347733
 30
0.0
 10
-145.7692405050617
 20
-34.81310090824411
 30
0.0
 10
-149.6015709408999
 20
-31.15990330837693
 30
0.0
 10
-152.6096695683948
 20
-28.07632942625592
 30
0.0
 10
-154.7738565953996
 20
-25.72825696513835
 30
0.0
 10
-156.0606076313015
 20
-24.28451272424532
 30
0.0
 10
-157.1224706203548
 20
-23.0550464419645
 30
0.0
 10
-157.9979296986635
 20
-22.01502459573848
 30
0.0
 10
-158.8427599227678
 20
-20.98821982242584
 30
0.0
 10
-159.819114812877
 20
-19.76853281784437
 30
0.0
 10
-160.8828196997382
 20
-18.39051099487617
 30
0.0
 10
-161.8949409535471
 20
-17.02382668419402
 30
0.0
 10
-162.7756016612508
 20
-15.78664448466841
 30
0.0
 10
-163.5721869424286
 20
-14.62460962195427
 30
0.0
 10
-164.3647053556055
 20
-13.42184611057854
 30
0.0
 10
-165.1658290468369
 20
-12.14569302661788
 30
0.0
 10
-165.8808729403987
 20
-10.94439389791332
 30
0.0
 10
-166.5385542262572
 20
-9.771352479201717
 30
0.0
 10
-166.8849988071386
 20
-9.119044928343707
 30
0.0
 10
-167.0099462048072
 20
-8.881057984370493
 30
0.0
 10
-167.0127390800164
 20
-8.891391859271229
 30
0.0
 10
-167.0132784215188
 20
-8.893387468525727
 30
0.0
  0
SPLINE
  5
F9
330
F2
100
AcDbEntity
  8
0
  6
Continuous
 62
     7
370
    25
100
AcDbSpline
210
0.0
220
0.0
230
1.0
 70
     8
 71
     3
 72
    16
 73
    12
 74
     0
 42
0.000000001
 43
0.00000001
 40
0.0
 40
0.0
 40
0.0
 40
0.0
 40
0.0671720289289913
 40
0.1490514608718112
 40
0.2412280942123833
 40
0.3276522686394244
 40
0.4082321555595122
 40
0.4980551856825135
 40
0.6283626342464077
 40
0.7957965884444269
 40
1.0
 40
1.0
 40
1.0
 40
1.0
 10
159.5400750465922
 20
-91.05354105533056
 30
0.0
 10
159.5285960298316
 20
-91.0593973885171
 30
0.0
 10
159.5031246506755
 20
-91.07239230665076
 30
0.0
 10
159.1404127942243
 20
-91.43433526205166
 30
0.0
 10
158.5785228099209
 20
-91.96985378829694
 30
0.0
 10
158.0256179547436
 20
-92.47748942562013
 30
0.0
 10
157.4395537773122
 20
-92.99744271926885
 30
0.0
 10
156.7083077861628
 20
-93.62321847510135
 30
0.0
 10
155.698399982111
 20
-94.44613762748557
 30
0.0
 10
154.311488449532
 20
-95.51218204263766
 30
0.0
 10
153.1857765853578
 20
-96.29194959272951
 30
0.0
 10
152.5672322077578
 20
-96.72040810799804
 30
0.0
  0
SPLINE
  5
FA
330
F2
100
AcDbEntity
  8
0
  6
Continuous
 62
     7
370
    25
100
AcDbSpline
210
0.0
220
0.0
230
1.0
 70
     8
 71
     3
 72
     9
 73
     5
 74
     0
 42
0.000000001
 43
0.00000001
 40
0.0
 40
0.0
 40
0.0
 40
0.0
 40
0.5197928334150543
 40
1.0
 40
1.0
 40
1.0
 40
1.0
 10
-51.67724759898773
 20
-145.2382654198141
 30
0.0
 10
-51.00085563638505
 20
-145.5122565661119
 30
0.0
 10
-49.69958343884672
 20
-146.0393726182852
 30
0.0
 10
-48.40116646179356
 20
-146.5032171039345
 30
0.0
 10
-47.77765732419707
 20
-146.7259585501241
 30
0.0
  0
SPLINE
  5
FB
330
F2
100
AcDbEntity
  8
0
  6
Continuous
 62
     7
370
    25
100
AcDbSpline
210
0.0
220
0.0
230
1.0
 70
     8
 71
     3
 72
    28
 73
    24
 74
     0
 42
0.000000001
 43
0.00000001
 40
0.0
 40
0.0
 40
0.0
 40
0.0
 40
0.0722555859852971
 40
0.1452251588013648
 40
0.2185497966065009
 40
0.2926170157158909
 40
0.3359679392057359
 40
0.3794811627028034
 40
0.4230841876314596
 40
0.4669706485045551
 40
0.5109598981242653
 40
0.5552511607666442
 40
0.5996682589103426
 40
0.6443075732180248
 40
0.6877933270980434
 40
0.7314429786349006
 40
0.771132887836979
 40
0.8109782377003713
 40
0.8476881545429488
 40
0.8892486162334277
 40
0.9310605135696989
 40
0.9731587588537428
 40
1.0
 40
1.0
 40
1.0
 40
1.0
 10
-90.14019216644758
 20
-125.5254983724368
 30
0.0
 10
-86.50985285685435
 20
-127.5375120345096
 30
0.0
 10
-79.2133013785258
 20
-131.5814208839166
 30
0.0
 10
-67.33913737636738
 20
-137.0911423662066
 30
0.0
 10
-54.78045128769527
 20
-142.1877228689236
 30
0.0
 10
-43.37738996875449
 20
-146.1323087209388
 30
0.0
 10
-33.44402067284085
 20
-149.12813848529
 30
0.0
 10
-25.21131186317636
 20
-151.3480733133192
 30
0.0
 10
-16.77761036465063
 20
-153.35754462948
 30
0.0
 10
-8.15850117820141
 20
-155.1430287435233
 30
0.0
 10
0.6465665426329814
 20
-156.6931841885223
 30
0.0
 10
9.612760744186364
 20
-157.9887425255079
 30
0.0
 10
18.7312040087319
 20
-159.010402588757
 30
0.0
 10
27.88116215155138
 20
-159.7245372406352
 30
0.0
 10
37.03536810568309
 20
-160.1201452053266
 30
0.0
 10
45.87046513572454
 20
-160.1867073895468
 30
0.0
 10
54.44149970724267
 20
-159.9424863144353
 30
0.0
 10
62.48972656352845
 20
-159.4186197355754
 30
0.0
 10
70.58928543989035
 20
-158.5819636222087
 30
0.0
 10
78.70819560553788
 20
-157.4068779007262
 30
0.0
 10
86.98365992768477
 20
-155.7830787270172
 30
0.0
 10
94.11118518182019
 20
-154.0582645818378
 30
0.0
 10
98.30145253766135
 20
-152.7042582500163
 30
0.0
 10
99.93291198694419
 20
-152.1770827175625
 30
0.0
  0
SPLINE
  5
FC
330
F2
100
AcDbEntity
  8
0
  6
Continuous
 62
     7
370
    25
100
AcDbSpline
210
0.0
220
0.0
230
1.0
 70
     8
 71
     3
 72
    10
 73
     6
 74
     0
 42
0.000000001
 43
0.00000001
 40
0.0
 40
0.0
 40
0.0
 40
0.0
 40
0.3702490903890027
 40
0.6847875864097063
 40
1.0
 40
1.0
 40
1.0
 40
1.0
 10
-110.9760732905879
 20
-111.5050790356356
 30
0.0
 10
-108.5973752957481
 20
-113.3284572666117
 30
0.0
 10
-104.1978969419388
 20
-116.7008538782827
 30
0.0
 10
-97.16934505012173
 20
-121.3471342474774
 30
0.0
 10
-92.48491411655665
 20
-124.1317170389712
 30
0.0
 10
-90.14019216644758
 20
-125.5254983724368
 30
0.0
  0
LWPOLYLINE
  5
FD
330
F2
100
AcDbEntity
  8
0
  6
Continuous
 62
     7
370
    25
100
AcDbPolyline
 90
       85
 70
   128
 43
0.0
 10
-113.1370849898
 20
-65.3126489458
 10
-97.70815985
 20
-73.704969476
 10
-81.5454910604
 20
-81.5105766127
 10
-64.8149535864
 20
-88.6620959632
 10
-47.6649283971
 20
-95.1002170489
 10
-30.1786413757
 20
-100.7956628402
 10
-16.2478538645
 20
-104.7351286483
 10
-2.1887426214
 20
-108.1906665618
 10
11.9288854002
 20
-111.1439025136
 10
26.0201279241
 20
-113.5733592239
 10
40.0
 20
-115.4575424171
 10
54.612371045
 20
-116.840950398
 10
68.9125322494
 20
-117.5902021093
 10
82.8091510572
 20
-117.7086899917
 10
96.2116554818
 20
-117.1998209913
 10
109.054600513
 20
-116.0674812596
 10
121.3028230895
 20
-114.3161344661
 10
132.276456772
 20
-112.1019460701
 10
142.6608728243
 20
-109.3462428982
 10
152.4028958657
 20
-106.0614891164
 10
161.4390062018
 20
-102.2637157648
 10
169.7056274848
 20
-97.9689734187
 10
177.5686372525
 20
-92.8928828474
 10
184.4613729115
 20
-87.3196017615
 10
190.3506633061
 20
-81.2929176663
 10
195.2036702474
 20
-74.8562962573
 10
198.9985557774
 20
-68.0425715891
 10
201.726738943
 20
-60.8717649199
 10
203.3150130141
 20
-53.8009638525
 10
203.9416837896
 20
-46.4482731394
 10
203.6013568779
 20
-38.8496938402
 10
202.2891041425
 20
-31.0493745494
 10
200.0
 20
-23.0915084834
 10
196.5076040096
 20
-14.5294243727
 10
191.9552430559
 20
-5.8983629629
 10
186.387338597
 20
2.7431433031
 10
179.8480224069
 20
11.3370315952
 10
172.37185596
 20
19.8407536997
 10
163.9818670169
 20
28.230458951
 10
152.9508886167
 20
37.9410226902
 10
140.7316762407
 20
47.4146566475
 10
127.4235525569
 20
56.5687716958
 10
113.1370849895
 20
65.312648946
 10
97.7081598496
 20
73.7049694762
 10
81.5454910601
 20
81.5105766129
 10
64.8149535861
 20
88.6620959633
 10
47.6649283968
 20
95.100217049
 10
30.1786413756
 20
100.7956628402
 10
16.2478538644
 20
104.7351286483
 10
2.1887426214
 20
108.1906665618
 10
-11.9288854002
 20
111.1439025136
 10
-26.0201279241
 20
113.5733592239
 10
-40.0
 20
115.4575424171
 10
-54.612371045
 20
116.840950398
 10
-68.9125322494
 20
117.5902021093
 10
-82.8091510572
 20
117.7086899917
 10
-96.2116554818
 20
117.1998209913
 10
-109.054600513
 20
116.0674812596
 10
-121.3028230895
 20
114.3161344661
 10
-132.276456772
 20
112.1019460701
 10
-142.6608728243
 20
109.3462428982
 10
-152.4028958657
 20
106.0614891164
 10
-161.4390062018
 20
102.2637157648
 10
-169.7056274848
 20
97.9689734187
 10
-177.5686372525
 20
92.8928828474
 10
-184.4613729115
 20
87.3196017615
 10
-190.3506633061
 20
81.2929176663
 10
-195.2036702474
 20
74.8562962573
 10
-198.9985557774
 20
68.0425715891
 10
-201.726738943
 20
60.8717649199
 10
-203.3150130141
 20
53.8009638525
 10
-203.9416837896
 20
46.4482731394
 10
-203.6013568779
 20
38.8496938402
 10
-202.2891041425
 20
31.0493745494
 10
-200.0
 20
23.0915084834
 10
-196.5076040096
 20
14.5294243727
 10
-191.9552430559
 20
5.8983629629
 10
-186.387338597
 20
-2.7431433031
 10
-179.848022407
 20
-11.3370315951
 10
-172.3718559601
 20
-19.8407536996
 10
-163.9818670171
 20
-28.2304589509
 10
-152.9508886169
 20
-37.94102269
 10
-140.731676241
 20
-47.4146566473
 10
-127.4235525572
 20
-56.5687716955
 10
-113.1370849898
 20
-65.3126489458
  0
SPLINE
  5
FE
330
F2
100
AcDbEntity
  8
0
  6
Continuous
 62
     7
370
    25
100
AcDbSpline
210
0.0
220
0.0
230
1.0
 70
     8
 71
     3
 72
    27
 73
    23
 74
     0
 42
0.000000001
 43
0.00000001
 40
0.0
 40
0.0
 40
0.0
 40
0.0
 40
0.0284531896362773
 40
0.0804269002177882
 40
0.1332287809546457
 40
0.1862776230976767
 40
0.2393264652407076
 40
0.292128345977565
 40
0.3441020565590758
 40
0.3951947476161201
 40
0.4462874386731268
 40
0.4982611492543998
 40
0.5510630299910185
 40
0.6041118721340046
 40
0.6571607142770803
 40
0.7099625950141767
 40
0.7619363055959253
 40
0.8130289966530072
 40
0.8641216877100515
 40
0.9160953982915624
 40
0.9688972790284198
 40
1.0
 40
1.0
 40
1.0
 40
1.0
 10
-32.75518094390143
 20
-96.37420928990792
 30
0.0
 10
-32.67412924176118
 20
-95.69622305924878
 30
0.0
 10
-32.44502532603691
 20
-93.77980062579567
 30
0.0
 10
-30.67317769584783
 20
-90.73300276782481
 30
0.0
 10
-27.66152364729813
 20
-87.38489074233917
 30
0.0
 10
-23.49640326239015
 20
-84.41925071492882
 30
0.0
 10
-18.36151319230466
 20
-82.02220417829928
 30
0.0
 10
-12.56539796811719
 20
-80.25551401594113
 30
0.0
 10
-6.374385460694596
 20
-79.16160256729322
 30
0.0
 10
0.000013543943047
 20
-78.79383480592244
 30
0.0
 10
6.37433081781218
 20
-79.16160521195248
 30
0.0
 10
12.56559408589105
 20
-80.25550315235473
 30
0.0
 10
18.36077081380607
 20
-82.02224570035528
 30
0.0
 10
23.49918574358522
 20
-84.41909498033634
 30
0.0
 10
27.65116200765198
 20
-87.38547070850065
 30
0.0
 10
30.71139199919194
 20
-90.73086381267036
 30
0.0
 10
32.60696582795923
 20
-94.30533001260426
 30
0.0
 10
33.24154031410566
 20
-97.98395414997113
 30
0.0
 10
32.6137979539026
 20
-101.6682704761106
 30
0.0
 10
30.68332740145217
 20
-105.2252722951163
 30
0.0
 10
28.16514761201948
 20
-108.1617483335171
 30
0.0
 10
25.89162268664767
 20
-109.6765412596583
 30
0.0
 10
25.04884636763845
 20
-110.2380620910807
 30
0.0
  0
SPLINE
  5
FF
330
F2
100
AcDbEntity
  8
0
  6
Continuous
 62
     7
370
    25
100
AcDbSpline
210
0.0
220
0.0
230
1.0
 70
     8
 71
     3
 72
     9
 73
     5
 74
     0
 42
0.000000001
 43
0.00000001
 40
0.0
 40
0.0
 40
0.0
 40
0.0
 40
0.7828581785795409
 40
0.9999999999999999
 40
0.9999999999999999
 40
0.9999999999999999
 40
0.9999999999999999
 10
-77.78174593052049
 20
-132.7669905703873
 30
0.0
 10
-79.78980023555961
 20
-131.595524932895
 30
0.0
 10
-82.35482971341816
 20
-130.0991292005061
 30
0.0
 10
-84.756715038594
 20
-128.4915450328998
 30
0.0
 10
-85.27826479294578
 20
-128.1424712786591
 30
0.0
  0
SPLINE
  5
100
330
F2
100
AcDbEntity
  8
0
  6
Continuous
 62
     7
370
    25
100
AcDbSpline
210
0.0
220
0.0
230
1.0
 70
     8
 71
     3
 72
    26
 73
    22
 74
     0
 42
0.000000001
 43
0.00000001
 40
0.0
 40
0.0
 40
0.0
 40
0.0
 40
0.0013533847059325
 40
0.0399370446209552
 40
0.0791717220500179
 40
0.1186066104202762
 40
0.1734286000897577
 40
0.2286781249598909
 40
0.2834850202324224
 40
0.3386057374269144
 40
0.3945906037347668
 40
0.4508271753707314
 40
0.5160583308419405
 40
0.5815974348258909
 40
0.627395263650619
 40
0.6732804511160424
 40
0.7656150959126046
 40
0.8238468250896755
 40
0.882225197010177
 40
0.9410406309732854
 40
1.0
 40
1.0
 40
1.0
 40
1.0
 10
80.98170065431486
 20
-156.8910463215716
 30
0.0
 10
80.90984922546546
 20
-156.9108522543241
 30
0.0
 10
78.78958459748499
 20
-157.4953057483129
 30
0.0
 10
74.39723340862791
 20
-158.4150505938616
 30
0.0
 10
67.82920898377157
 20
-159.6295903539994
 30
0.0
 10
60.19282173287335
 20
-160.685467628873
 30
0.0
 10
51.52717109090784
 20
-161.499673381434
 30
0.0
 10
41.90149034621692
 20
-161.935442837792
 30
0.0
 10
32.26182906900107
 20
-161.9464881371541
 30
0.0
 10
22.63707453592014
 20
-161.5570441872314
 30
0.0
 10
13.03288016109094
 20
-160.7779573444603
 30
0.0
 10
2.998003678034856
 20
-159.5680193930522
 30
0.0
 10
-7.372355510153035
 20
-157.8884457787182
 30
0.0
 10
-16.92203528025503
 20
-155.9195374954928
 30
0.0
 10
-25.2210840697509
 20
-153.8907999922397
 30
0.0
 10
-34.72688361058958
 20
-151.2591466400225
 30
0.0
 10
-44.52782876234667
 20
-148.0462082863956
 30
0.0
 10
-54.50624987661003
 20
-144.1938109638069
 30
0.0
 10
-62.57533187272121
 20
-140.6798865390683
 30
0.0
 10
-70.38275588656323
 20
-136.9007946745799
 30
0.0
 10
-75.31340729827316
 20
-134.146047483277
 30
0.0
 10
-77.78174593052049
 20
-132.7669905703873
 30
0.0
  0
SPLINE
  5
101
330
F2
100
AcDbEntity
  8
0
  6
Continuous
 62
     7
370
    25
100
AcDbSpline
210
0.0
220
0.0
230
1.0
 70
     8
 71
     3
 72
    23
 73
    19
 74
     0
 42
0.000000001
 43
0.00000001
 40
0.0
 40
0.0
 40
0.0
 40
0.0
 40
0.0385156579670186
 40
0.1062870702830939
 40
0.1740584825991692
 40
0.2415143946591066
 40
0.3079122956711396
 40
0.3731846690554412
 40
0.438457042439695
 40
0.5048549434514242
 40
0.5723108555110568
 40
0.6400822678270749
 40
0.7078536801432073
 40
0.7753095922034499
 40
0.8417074932157866
 40
0.9069798666001364
 40
0.9722522399844381
 40
1.0
 40
1.0
 40
1.0
 40
1.0
 10
-20.36804343635713
 20
-100.1409804319529
 30
0.0
 10
-19.98507781136488
 20
-99.69052527578165
 30
0.0
 10
-18.92825322500014
 20
-98.44745787487281
 30
0.0
 10
-16.35567249927657
 20
-96.70211239669766
 30
0.0
 10
-12.80291483466553
 20
-95.02301802474558
 30
0.0
 10
-8.756256598727235
 20
-93.79392895871361
 30
0.0
 10
-4.443130634440054
 20
-93.03091767448714
 30
0.0
 10
0.0001089782396494
 20
-92.77474870280788
 30
0.0
 10
4.442690963124224
 20
-93.0310328921046
 30
0.0
 10
8.757834615609697
 20
-93.79345567467612
 30
0.0
 10
12.79694145685975
 20
-95.02482698045361
 30
0.0
 10
16.37806109585422
 20
-96.69532764505962
 30
0.0
 10
19.2726170193235
 20
-98.76291883696666
 30
0.0
 10
21.4027146264403
 20
-101.0941225570357
 30
0.0
 10
22.7340596298247
 20
-103.5870016545168
 30
0.0
 10
23.13906445859392
 20
-106.1450938468112
 30
0.0
 10
22.89947404672859
 20
-108.2264364001438
 30
0.0
 10
22.23855860995763
 20
-109.376311446258
 30
0.0
 10
22.0414085709304
 20
-109.7193173704734
 30
0.0
  0
SPLINE
  5
102
330
F2
100
AcDbEntity
  8
0
  6
Continuous
 62
     7
370
    25
100
AcDbSpline
210
0.0
220
0.0
230
1.0
 70
     8
 71
     3
 72
    12
 73
     8
 74
     0
 42
0.000000001
 43
0.00000001
 40
0.0
 40
0.0
 40
0.0
 40
0.0
 40
0.0513421718996917
 40
0.3005730342188125
 40
0.5541015221123602
 40
0.8116698356188021
 40
1.0
 40
1.0
 40
1.0
 40
1.0
 10
-0.9040602578292162
 20
-105.1596288548438
 30
0.0
 10
-0.6029169735620801
 20
-105.1397303309201
 30
0.0
 10
1.160069424123519
 20
-105.0232381863354
 30
0.0
 10
4.449936327081735
 20
-105.3043581890543
 30
0.0
 10
8.743728792768552
 20
-106.042645888235
 30
0.0
 10
12.47143632357412
 20
-107.1324365369559
 30
0.0
 10
14.45738904429668
 20
-108.1331771423246
 30
0.0
 10
15.29617818777793
 20
-108.5558510290014
 30
0.0
  0
VIEWPORT
  5
132
330
F2
100
AcDbEntity
  8
0
100
AcDbViewport
 10
0.0
 20
0.0
 30
0.0
 40
205.6
 41
156.0
 68
     1
 69
     1
 12
0.0
 22
0.0
 13
0.0
 23
0.0
 14
10.0
 24
10.0
 15
10.0
 25
10.0
 16
0.0
 26
0.0
 36
1.0
 17
0.0
 27
0.0
 37
0.0
 42
50.0
 43
0.0
 44
0.0
 45
371.486381323
 50
0.0
 51
0.0
 72
   100
 90
   557152
  1

281
     0
 71
     1
 74
     0
110
0.0
120
0.0
130
0.0
111
1.0
121
0.0
131
0.0
112
0.0
122
1.0
132
0.0
 79
     0
146
0.0
  0
ENDBLK
  5
F5
330
F2
100
AcDbEntity
  8
0
100
AcDbBlockEnd
  0
BLOCK
  5
105
330
103
100
AcDbEntity
  8
0
100
AcDbBlockBegin
  2
*Paper_Space6
 70
     0
 10
0.0
 20
0.0
 30
0.0
  3
*Paper_Space6
  1

  0
SPLINE
  5
107
330
103
100
AcDbEntity
  8
0
  6
Continuous
 62
     7
370
    25
100
AcDbSpline
210
0.0
220
0.0
230
1.0
 70
     8
 71
     3
 72
    45
 73
    41
 74
     0
 42
0.000000001
 43
0.00000001
 40
0.0
 40
0.0
 40
0.0
 40
0.0
 40
0.023867455661725
 40
0.0484638124955827
 40
0.0657360446623936
 40
0.0781816809877657
 40
0.0905845094347125
 40
0.1030619101502749
 40
0.1340555553708367
 40
0.1682347788989249
 40
0.2017058409616237
 40
0.2356303377609969
 40
0.2658710612078129
 40
0.2904899800213203
 40
0.3119472272099145
 40
0.3360630493504614
 40
0.3638394080800619
 40
0.3940511050179817
 40
0.4221843784384156
 40
0.4436532080969827
 40
0.4655735795721521
 40
0.4909949714546382
 40
0.526559137888548
 40
0.5545350425284913
 40
0.5751408951003376
 40
0.5997417317619279
 40
0.6309262718552583
 40
0.6560810322116845
 40
0.6825940438479494
 40
0.7029443382366567
 40
0.7182113993173168
 40
0.7361195966173475
 40
0.7571263854768601
 40
0.7959126271566683
 40
0.8303188393718808
 40
0.8662622114066392
 40
0.8908295908947381
 40
0.9203532700256499
 40
0.9567583174088709
 40
1.0
 40
1.0
 40
1.0
 40
1.0
 10
131.4958924231703
 20
-131.2184593422993
 30
0.0
 10
132.4150869751471
 20
-130.7787781886549
 30
0.0
 10
134.2815478600166
 20
-129.8859882201692
 30
0.0
 10
136.7929572442876
 20
-128.6157720009591
 30
0.0
 10
138.8573823771335
 20
-127.5442997998086
 30
0.0
 10
140.446573626483
 20
-126.7004554742307
 30
0.0
 10
141.8491575400776
 20
-125.9423803333392
 30
0.0
 10
143.9389913724453
 20
-124.792406589055
 30
0.0
 10
146.8198655588259
 20
-123.1573938881584
 30
0.0
 10
150.4345070703533
 20
-121.0098541999999
 30
0.0
 10
154.106545647947
 20
-118.7235617786991
 30
0.0
 10
157.5852301803959
 20
-116.4555171937306
 30
0.0
 10
160.7061451499603
 20
-114.3303384423406
 30
0.0
 10
163.3526833348757
 20
-112.4604463053172
 30
0.0
 10
165.7585552078954
 20
-110.7074173708916
 30
0.0
 10
168.2413523283894
 20
-108.84267768665
 30
0.0
 10
170.9842266342915
 20
-106.7105791590348
 30
0.0
 10
173.8144713539709
 20
-104.4247301233223
 30
0.0
 10
176.3973716972929
 20
-102.2568776131835
 30
0.0
 10
178.6769541596244
 20
-100.2799685348697
 30
0.0
 10
180.838078429983
 20
-98.35146384570777
 30
0.0
 10
183.4024481587477
 20
-95.99060649746805
 30
0.0
 10
186.1001320284448
 20
-93.40499681465555
 30
0.0
 10
188.6017176500542
 20
-90.90372212689118
 30
0.0
 10
190.7331013141529
 20
-88.70242549826096
 30
0.0
 10
192.9247072447676
 20
-86.36952863847289
 30
0.0
 10
195.196945920932
 20
-83.85829042261796
 30
0.0
 10
197.4722955596196
 20
-81.24583659186521
 30
0.0
 10
199.4107965723435
 20
-78.94013486665918
 30
0.0
 10
201.0515677035065
 20
-76.92428823837437
 30
0.0
 10
202.4405092213961
 20
-75.1749546205065
 30
0.0
 10
203.8250075179472
 20
-73.39020280766036
 30
0.0
 10
205.776890179201
 20
-70.80371140451332
 30
0.0
 10
208.0738301542413
 20
-67.6265377453722
 30
0.0
 10
210.6447847679253
 20
-63.87436623302717
 30
0.0
 10
212.7957048765987
 20
-60.56403507774537
 30
0.0
 10
214.7579490922637
 20
-57.40124266393558
 30
0.0
 10
216.6660130123281
 20
-54.18898433456692
 30
0.0
 10
218.8855271154643
 20
-50.2664406640168
 30
0.0
 10
220.3999047607082
 20
-47.34715626113169
 30
0.0
 10
221.2220883893371
 20
-45.76222277317247
 30
0.0
  0
SPLINE
  5
108
330
103
100
AcDbEntity
  8
0
  6
Continuous
 62
     7
370
    25
100
AcDbSpline
210
0.0
220
0.0
230
1.0
 70
     8
 71
     3
 72
    51
 73
    47
 74
     0
 42
0.000000001
 43
0.00000001
 40
0.0
 40
0.0
 40
0.0
 40
0.0
 40
0.0423191451435602
 40
0.0765458553547132
 40
0.1027106358407026
 40
0.1220343623477206
 40
0.145420552600937
 40
0.1730545876011072
 40
0.1912766639547869
 40
0.208418129077682
 40
0.2232317440635551
 40
0.2364583143958847
 40
0.2534586410904133
 40
0.2752273461551126
 40
0.2965583957779077
 40
0.3137103304766139
 40
0.3276889584454496
 40
0.341014115503695
 40
0.354183814800095
 40
0.3710863119989093
 40
0.3927366988249366
 40
0.4147241207356569
 40
0.4387269432283092
 40
0.4586134123174592
 40
0.4773610786643067
 40
0.4995855270304043
 40
0.5240073797369863
 40
0.5502272200555562
 40
0.575820781086165
 40
0.5961608457348531
 40
0.6137651488751656
 40
0.6315196395731656
 40
0.6504759517000168
 40
0.6797446620830034
 40
0.7140629654072359
 40
0.7493600826564594
 40
0.7822960894038743
 40
0.8209458527999829
 40
0.8580051173354659
 40
0.8960606260384425
 40
0.9110897596916656
 40
0.9252969141679177
 40
0.9389635176791222
 40
0.9574561401825002
 40
0.9825844273722273
 40
1.0
 40
1.0
 40
1.0
 40
1.0
 10
-222.4298243620554
 20
16.59433197701745
 30
0.0
 10
-221.6778205319635
 20
14.62283550478154
 30
0.0
 10
-220.3176140294659
 20
11.05683994215469
 30
0.0
 10
-218.3526473450883
 20
6.308665548961555
 30
0.0
 10
-216.769525036682
 20
2.645882530708278
 30
0.0
 10
-215.363039442042
 20
-0.4935491388047761
 30
0.0
 10
-213.889730913983
 20
-3.679360206674538
 30
0.0
 10
-212.3945847208902
 20
-6.793650748092968
 30
0.0
 10
-210.998253025504
 20
-9.60813975736402
 30
0.0
 10
-209.8639833054437
 20
-11.8381437680009
 30
0.0
 10
-208.8247776987358
 20
-13.83635688250221
 30
0.0
 10
-207.7736110001774
 20
-15.81898334904524
 30
0.0
 10
-206.5413648116283
 20
-18.09591679911626
 30
0.0
 10
-205.088399329705
 20
-20.71182295363747
 30
0.0
 10
-203.5999001500059
 20
-23.31645077439175
 30
0.0
 10
-202.2794604825609
 20
-25.56973679210574
 30
0.0
 10
-201.1443727798263
 20
-27.46822467214354
 30
0.0
 10
-200.0979530468786
 20
-29.18813294144135
 30
0.0
 10
-198.9625878316594
 20
-31.02313095645049
 30
0.0
 10
-197.5918962072143
 20
-33.1969422444559
 30
0.0
 10
-195.9599327372585
 20
-35.72363621921581
 30
0.0
 10
-194.1015318935741
 20
-38.5243653873989
 30
0.0
 10
-192.2567095241178
 20
-41.22743472336951
 30
0.0
 10
-190.4719094934624
 20
-43.77384132079974
 30
0.0
 10
-188.7110392133063
 20
-46.2283171416083
 30
0.0
 10
-186.7903435309468
 20
-48.84082152090669
 30
0.0
 10
-184.611876872352
 20
-51.72311518486105
 30
0.0
 10
-182.2904839598004
 20
-54.70428412890115
 30
0.0
 10
-180.0517730268874
 20
-57.49344466450566
 30
0.0
 10
-178.0485122799648
 20
-59.92337626940798
 30
0.0
 10
-176.2708959008137
 20
-62.03266408913979
 30
0.0
 10
-174.5170493350292
 20
-64.07161932647732
 30
0.0
 10
-172.3618066464614
 20
-66.5246820628537
 30
0.0
 10
-169.6240691009071
 20
-69.55534996096986
 30
0.0
 10
-166.2805264387692
 20
-73.1235746982989
 30
0.0
 10
-162.7412776823704
 20
-76.75238649872136
 30
0.0
 10
-158.9815283909755
 20
-80.45951304704033
 30
0.0
 10
-155.087276066121
 20
-84.1452435823398
 30
0.0
 10
-150.9319362590205
 20
-87.91157375961747
 30
0.0
 10
-147.5798273681888
 20
-90.82196035044463
 30
0.0
 10
-145.0467552531998
 20
-92.95527474900398
 30
0.0
 10
-143.4209952763144
 20
-94.30148514701531
 30
0.0
 10
-141.6537833417527
 20
-95.74188711897892
 30
0.0
 10
-139.4578561180403
 20
-97.49631693879918
 30
0.0
 10
-137.099599775115
 20
-99.34458464016
 30
0.0
 10
-135.4241638636506
 20
-100.6007625639814
 30
0.0
 10
-134.7383145795364
 20
-101.1149861901301
 30
0.0
  0
SPLINE
  5
109
330
103
100
AcDbEntity
  8
0
  6
Continuous
 62
     7
370
    25
100
AcDbSpline
210
0.0
220
0.0
230
1.0
 70
     8
 71
     3
 72
    97
 73
    93
 74
     0
 42
0.000000001
 43
0.00000001
 40
0.0
 40
0.0
 40
0.0
 40
0.0
 40
0.0035919498657577
 40
0.007897241809973
 40
0.011653424176064
 40
0.0154979323960471
 40
0.0219332186220576
 40
0.0287663167867002
 40
0.0339325938174203
 40
0.038380870953796
 40
0.0430713104871811
 40
0.0496096638703466
 40
0.0580696091941478
 40
0.0675479299252044
 40
0.0747265064021529
 40
0.0837591699952936
 40
0.0941064092858167
 40
0.1029937224271441
 40
0.1122345829202298
 40
0.1245455451106611
 40
0.1381869445355932
 40
0.1509860411828878
 40
0.1635711749628936
 40
0.1744642530862736
 40
0.1857400869135724
 40
0.1968982685724489
 40
0.2074255505787514
 40
0.2172820965676211
 40
0.2255687334884175
 40
0.2313720968669548
 40
0.2357359922219227
 40
0.2407698735188467
 40
0.2466260546646152
 40
0.2533197510269865
 40
0.260867901996453
 40
0.2692888059988034
 40
0.2823272933148125
 40
0.2970079759402552
 40
0.3122649322074041
 40
0.3277767786418865
 40
0.3639037638848212
 40
0.4011347456135436
 40
0.4394335860158524
 40
0.478795125818484
 40
0.5037499021299506
 40
0.527086486640351
 40
0.5487036452572873
 40
0.568535826779266
 40
0.5865375833754057
 40
0.602679796940251
 40
0.6166151188461547
 40
0.6237404510149105
 40
0.6297427996148037
 40
0.6362511860115057
 40
0.6455779644584966
 40
0.6577185563784054
 40
0.6692089105811356
 40
0.6822055426399565
 40
0.6948449156607043
 40
0.7066523768771811
 40
0.7176335270110576
 40
0.7320684032724106
 40
0.7448193252890405
 40
0.7567162669671853
 40
0.7693694352323801
 40
0.7828005527402936
 40
0.7938401620867925
 40
0.8051913370379421
 40
0.8168376559070156
 40
0.8280886981316712
 40
0.8375293101990492
 40
0.8450244798679165
 40
0.8534845348520907
 40
0.8634868043978103
 40
0.8748169699342475
 40
0.8859206841738216
 40
0.8964319696385612
 40
0.9085175951539071
 40
0.9210338654343585
 40
0.9332412826505688
 40
0.9442842572806573
 40
0.953296415621769
 40
0.9576340528848528
 40
0.9631883577526535
 40
0.9692827634028717
 40
0.9742473106360683
 40
0.9783626464942702
 40
0.9834150118768085
 40
0.9895025677238122
 40
0.9951469014507498
 40
0.9999993474527205
 40
0.9999999999999999
 40
0.9999999999999999
 40
0.9999999999999999
 40
0.9999999999999999
 10
181.4879895639931
 20
-68.29556336074391
 30
0.0
 10
181.4657345482914
 20
-68.31479986590276
 30
0.0
 10
181.4168047895112
 20
-68.35709314350838
 30
0.0
 10
181.0472287697979
 20
-68.6831984786685
 30
0.0
 10
180.706290821067
 20
-68.96763319758765
 30
0.0
 10
180.2111973147284
 20
-69.36710485297482
 30
0.0
 10
179.5249953620309
 20
-69.89045107755459
 30
0.0
 10
178.6969314865036
 20
-70.48114729012778
 30
0.0
 10
177.8636069977526
 20
-71.04176005839076
 30
0.0
 10
177.0479036298107
 20
-71.56489527260973
 30
0.0
 10
176.0897546884317
 20
-72.15218043612084
 30
0.0
 10
174.7741675907359
 20
-72.91647167729474
 30
0.0
 10
172.9410901019521
 20
-73.90712457553448
 30
0.0
 10
170.8906983388
 20
-74.92489058527124
 30
0.0
 10
168.6074694901309
 20
-75.9749206960678
 30
0.0
 10
166.0018822550084
 20
-77.08678550683607
 30
0.0
 10
163.0069695259713
 20
-78.2533970169011
 30
0.0
 10
159.8183581645588
 20
-79.39004599066607
 30
0.0
 10
156.1886857670266
 20
-80.58035158256011
 30
0.0
 10
151.7501753002234
 20
-81.89619724591032
 30
0.0
 10
146.6265751834972
 20
-83.2406049401994
 30
0.0
 10
141.2277733210507
 20
-84.4894329472797
 30
0.0
 10
136.034171696856
 20
-85.54979536720958
 30
0.0
 10
130.9420651126823
 20
-86.47273158855592
 30
0.0
 10
125.9642902525156
 20
-87.27533914573837
 30
0.0
 10
120.9656470394296
 20
-87.98683409935207
 30
0.0
 10
116.1238280083416
 20
-88.59300386929553
 30
0.0
 10
111.6774830854702
 20
-89.08176656593335
 30
0.0
 10
107.9358472332864
 20
-89.44443079660984
 30
0.0
 10
105.0375588847873
 20
-89.69711208986233
 30
0.0
 10
102.6383865012462
 20
-89.88977764199451
 30
0.0
 10
100.2229738262896
 20
-90.06863675004607
 30
0.0
 10
97.43032007945942
 20
-90.25555611166374
 30
0.0
 10
94.22934657239784
 20
-90.4440807940532
 30
0.0
 10
90.61043320309828
 20
-90.62489227667237
 30
0.0
 10
85.967455956976
 20
-90.81152971329138
 30
0.0
 10
80.16864343383263
 20
-90.97132986112788
 30
0.0
 10
73.25981377152885
 20
-91.0543659889863
 30
0.0
 10
65.94673949760386
 20
-91.025523833246
 30
0.0
 10
55.18563625333088
 20
-90.81411672213363
 30
0.0
 10
40.91532439564887
 20
-90.17205098822915
 30
0.0
 10
23.12642919984563
 20
-88.76921313980652
 30
0.0
 10
5.042637304866579
 20
-86.73883593609891
 30
0.0
 10
-10.84910749777294
 20
-84.42628303599187
 30
0.0
 10
-24.20526827413879
 20
-82.12388084713857
 30
0.0
 10
-34.721501623581
 20
-80.09973248648966
 30
0.0
 10
-44.33875472329503
 20
-78.06786855137885
 30
0.0
 10
-53.04723089983074
 20
-76.07484096589843
 30
0.0
 10
-60.84932894274438
 20
-74.16114236043072
 30
0.0
 10
-67.70823471473412
 20
-72.37435771142027
 30
0.0
 10
-72.94884096945182
 20
-70.93658242036827
 30
0.0
 10
-76.72622338190787
 20
-69.86299690760981
 30
0.0
 10
-79.45037003835559
 20
-69.07184452547995
 30
0.0
 10
-82.45870884138853
 20
-68.18020952083516
 30
0.0
 10
-86.28196022309842
 20
-67.01791249972159
 30
0.0
 10
-90.74056851017592
 20
-65.6156958730627
 30
0.0
 10
-95.63914038754228
 20
-64.01729842430149
 30
0.0
 10
-100.544594283954
 20
-62.35501225466739
 30
0.0
 10
-105.4233293618148
 20
-60.63551006890292
 30
0.0
 10
-109.9743178816324
 20
-58.97043332050837
 30
0.0
 10
-114.6886715979063
 20
-57.18433980777533
 30
0.0
 10
-119.4413942186384
 20
-55.31193218449643
 30
0.0
 10
-124.2106912000299
 20
-53.35183313087096
 30
0.0
 10
-128.6701590717007
 20
-51.44673899516625
 30
0.0
 10
-133.1205274659953
 20
-49.46983906452658
 30
0.0
 10
-137.3737723117305
 20
-47.4990535720217
 30
0.0
 10
-141.3844615904162
 20
-45.56391172767915
 30
0.0
 10
-145.0970792929457
 20
-43.70376389279286
 30
0.0
 10
-148.7317250654748
 20
-41.80932928830173
 30
0.0
 10
-152.0666312271631
 20
-39.99963111309521
 30
0.0
 10
-154.8949037516474
 20
-38.4063102614187
 30
0.0
 10
-157.3741505807366
 20
-36.96501733983728
 30
0.0
 10
-159.8263081980362
 20
-35.49595685306898
 30
0.0
 10
-162.5489216871889
 20
-33.8060731693354
 30
0.0
 10
-165.4038690072952
 20
-31.95718362210827
 30
0.0
 10
-168.1733427344398
 20
-30.07769843408538
 30
0.0
 10
-170.8665595082961
 20
-28.16127220546722
 30
0.0
 10
-173.5082574622531
 20
-26.17916362723063
 30
0.0
 10
-176.0176025672637
 20
-24.17730786857536
 30
0.0
 10
-178.2178856834909
 20
-22.30141910372335
 30
0.0
 10
-179.9687644135747
 20
-20.7034075890672
 30
0.0
 10
-181.1524576842504
 20
-19.54994554536093
 30
0.0
 10
-181.9517732891535
 20
-18.73547659484768
 30
0.0
 10
-182.5764815296504
 20
-18.07683970926779
 30
0.0
 10
-183.173499965556
 20
-17.41950698996052
 30
0.0
 10
-183.6637527984872
 20
-16.85526904797072
 30
0.0
 10
-184.0561852998761
 20
-16.38572154865808
 30
0.0
 10
-184.4029278516059
 20
-15.95620195376961
 30
0.0
 10
-184.7515163166711
 20
-15.49801510041134
 30
0.0
 10
-184.9339632807024
 20
-15.25506972888713
 30
0.0
 10
-185.0742757073726
 20
-15.04283153471859
 30
0.0
 10
-185.0227927731362
 20
-15.13115271789172
 30
0.0
 10
-185.0227858507445
 20
-15.13116459355161
 30
0.0
  0
SPLINE
  5
10A
330
103
100
AcDbEntity
  8
0
  6
Continuous
 62
     7
370
    25
100
AcDbSpline
210
0.0
220
0.0
230
1.0
 70
     8
 71
     3
 72
    54
 73
    50
 74
     0
 42
0.000000001
 43
0.00000001
 40
0.0
 40
0.0
 40
0.0
 40
0.0
 40
0.0132017756700551
 40
0.0273040678342406
 40
0.0390926029645623
 40
0.0512027525049666
 40
0.0639746282339986
 40
0.0776404621432484
 40
0.0920934413482447
 40
0.1248758553320037
 40
0.159278286221861
 40
0.1800358661966637
 40
0.1960229616044054
 40
0.208189965438298
 40
0.2208769325699115
 40
0.2346183621631035
 40
0.2494225495247291
 40
0.284761889876622
 40
0.3252491306998716
 40
0.3709299364723953
 40
0.4217099728506938
 40
0.4774203276729426
 40
0.5179911804772689
 40
0.5607620681836485
 40
0.6057070895890243
 40
0.6489508268043623
 40
0.6868558384846822
 40
0.7189973782704911
 40
0.7462222192629125
 40
0.768656009749055
 40
0.7864197781523661
 40
0.7955098058001352
 40
0.8027159292609025
 40
0.8102430192505468
 40
0.8207932540632693
 40
0.8349449848082553
 40
0.8535014465447704
 40
0.87332534497871
 40
0.8863374309015637
 40
0.8977172221320681
 40
0.910908066466023
 40
0.9263487294024463
 40
0.9400396112322238
 40
0.9468933260456324
 40
0.952739371205742
 40
0.9623195681439278
 40
0.9765817119983645
 40
0.995539997859592
 40
1.0
 40
1.0
 40
1.0
 40
1.0
 10
-92.18415858416914
 20
-127.1889090223255
 30
0.0
 10
-91.41781188099459
 20
-127.5616616063999
 30
0.0
 10
-89.83284460909299
 20
-128.3325928883214
 30
0.0
 10
-87.5451659355001
 20
-129.4037091710243
 30
0.0
 10
-85.31871078985803
 20
-130.4238510051846
 30
0.0
 10
-83.16331898777449
 20
-131.3878164716958
 30
0.0
 10
-80.89003340766536
 20
-132.3799499624816
 30
0.0
 10
-78.46803270195008
 20
-133.4091336233103
 30
0.0
 10
-74.84262756957044
 20
-134.9059210632181
 30
0.0
 10
-69.94483727292904
 20
-136.829786776145
 30
0.0
 10
-64.62564932793538
 20
-138.7702234912716
 30
0.0
 10
-60.28383475899015
 20
-140.2556645255068
 30
0.0
 10
-57.28016023863882
 20
-141.2381266764834
 30
0.0
 10
-54.7695282776328
 20
-142.0304915233355
 30
0.0
 10
-52.40772899310419
 20
-142.7520974301027
 30
0.0
 10
-49.88948782778224
 20
-143.4946209183565
 30
0.0
 10
-45.99157154923913
 20
-144.5990084684727
 30
0.0
 10
-40.45553545210255
 20
-146.0547381488336
 30
0.0
 10
-32.99033217542195
 20
-147.7956767387882
 30
0.0
 10
-24.49382248948586
 20
-149.5021884027356
 30
0.0
 10
-14.93608557660743
 20
-151.0889492677219
 30
0.0
 10
-5.572956407734031
 20
-152.2928315165026
 30
0.0
 10
3.377237672212472
 20
-153.1453349338587
 30
0.0
 10
11.70340270195516
 20
-153.7006200151275
 30
0.0
 10
20.26308921479052
 20
-154.0144491227646
 30
0.0
 10
28.5461533649144
 20
-154.0665931324468
 30
0.0
 10
36.00445488333349
 20
-153.9006030496436
 30
0.0
 10
42.40852089708328
 20
-153.5949212435476
 30
0.0
 10
47.78776342218006
 20
-153.217748416712
 30
0.0
 10
52.21432638365253
 20
-152.8215134578847
 30
0.0
 10
55.44541183015034
 20
-152.4803635312664
 30
0.0
 10
57.67507459801552
 20
-152.2210714450759
 30
0.0
 10
59.22928810187837
 20
-152.0302914711493
 30
0.0
 10
60.86612771409744
 20
-151.8199788278083
 30
0.0
 10
62.95705577705657
 20
-151.5366928628202
 30
0.0
 10
65.75557269296054
 20
-151.1304598198869
 30
0.0
 10
69.1417116546516
 20
-150.5953965498689
 30
0.0
 10
72.45117022700104
 20
-150.0219730360205
 30
0.0
 10
75.29388365821352
 20
-149.4917277701838
 30
0.0
 10
77.7037912204466
 20
-149.018228005589
 30
0.0
 10
80.26068154200269
 20
-148.4900153887257
 30
0.0
 10
82.96025719196398
 20
-147.9002170615485
 30
0.0
 10
85.24972110000755
 20
-147.3718761136367
 30
0.0
 10
86.9223852248413
 20
-146.9712330957528
 30
0.0
 10
88.32317493314187
 20
-146.6279796083967
 30
0.0
 10
90.1933785810821
 20
-146.1579617313485
 30
0.0
 10
92.88875492509902
 20
-145.4483716193648
 30
0.0
 10
95.26231380560354
 20
-144.8053551011567
 30
0.0
 10
96.73297797420864
 20
-144.3677931431541
 30
0.0
 10
97.01306528628461
 20
-144.284459670224
 30
0.0
  0
SPLINE
  5
10C
330
103
100
AcDbEntity
  8
0
  6
Continuous
 62
     7
370
    25
100
AcDbSpline
210
0.0
220
0.0
230
1.0
 70
     8
 71
     3
 72
    27
 73
    23
 74
     0
 42
0.000000001
 43
0.00000001
 40
0.0
 40
0.0
 40
0.0
 40
0.0
 40
0.0744013308841844
 40
0.1495378515771391
 40
0.2250399814804659
 40
0.3013067448245547
 40
0.3459847994131208
 40
0.3907504615770095
 40
0.4357450417776768
 40
0.4808380884136399
 40
0.5262312149761655
 40
0.5717402335153675
 40
0.6175171688198222
 40
0.6634413197223925
 40
0.7082184524389388
 40
0.7510438773749781
 40
0.7940329313031904
 40
0.8333671137618485
 40
0.872861630950009
 40
0.9156562968539296
 40
0.9587109936453998
 40
1.0
 40
1.0
 40
1.0
 40
1.0
 10
-59.49315317095292
 20
-135.212198404964
 30
0.0
 10
-54.9953287230129
 20
-136.3748810865293
 30
0.0
 10
-45.95523499454095
 20
-138.7117353900881
 30
0.0
 10
-31.79177848806458
 20
-141.6016037347182
 30
0.0
 10
-17.18572877026295
 20
-144.0351908209172
 30
0.0
 10
-4.270559408072659
 20
-145.6629955770115
 30
0.0
 10
6.752489359041526
 20
-146.7052619404181
 30
0.0
 10
15.76021193043706
 20
-147.3453803302884
 30
0.0
 10
24.8431622229621
 20
-147.7748092027912
 30
0.0
 10
33.99784991780641
 20
-147.9853764927583
 30
0.0
 10
43.19668309440048
 20
-147.9669274247459
 30
0.0
 10
52.42840408969464
 20
-147.7068437108558
 30
0.0
 10
61.65617682348746
 20
-147.1907385215401
 30
0.0
 10
70.76318571259876
 20
-146.4073396698849
 30
0.0
 10
79.56895006238977
 20
-145.3687261054964
 30
0.0
 10
88.04672460612797
 20
-144.0878176576909
 30
0.0
 10
96.00834445926384
 20
-142.6026160815432
 30
0.0
 10
103.5636796219243
 20
-140.9068772376144
 30
0.0
 10
110.8830958224074
 20
-138.9686729748748
 30
0.0
 10
118.1232410833819
 20
-136.6941299773546
 30
0.0
 10
125.1359501700054
 20
-134.1201482672588
 30
0.0
 10
129.4046923480839
 20
-132.1699529805137
 30
0.0
 10
131.4943815168365
 20
-131.2152684861931
 30
0.0
  0
SPLINE
  5
10D
330
103
100
AcDbEntity
  8
0
  6
Continuous
 62
     7
370
    25
100
AcDbSpline
210
0.0
220
0.0
230
1.0
 70
     8
 71
     3
 72
    15
 73
    11
 74
     0
 42
0.000000001
 43
0.00000001
 40
0.0
 40
0.0
 40
0.0
 40
0.0
 40
0.0701136211497057
 40
0.2155508645757269
 40
0.360049027743651
 40
0.5060179771808846
 40
0.652701082378472
 40
0.8008160148644452
 40
0.9003014307007601
 40
1.0
 40
1.0
 40
1.0
 40
1.0
 10
-134.6821848702434
 20
-101.040577371353
 30
0.0
 10
-133.3685271690754
 20
-102.0549475170535
 30
0.0
 10
-129.3299388234711
 20
-105.1734337444114
 30
0.0
 10
-121.5910047838506
 20
-110.015856107859
 30
0.0
 10
-111.5947766092452
 20
-115.5805934614562
 30
0.0
 10
-100.776771583565
 20
-120.760508686448
 30
0.0
 10
-89.20797944964721
 20
-125.5878902782963
 30
0.0
 10
-78.30229456508692
 20
-129.5257331740888
 30
0.0
 10
-68.35239186665302
 20
-132.7241888983782
 30
0.0
 10
-62.44833877792837
 20
-134.3822704465437
 30
0.0
 10
-59.49315317095293
 20
-135.2121984049641
 30
0.0
  0
LWPOLYLINE
  5
10E
330
103
100
AcDbEntity
  8
0
  6
Continuous
 62
     7
370
    25
100
AcDbPolyline
 90
       85
 70
   128
 43
0.0
 10
-74.6712622288
 20
-72.8814410887
 10
-55.6367440663
 20
-77.6875432865
 10
-36.20141809
 20
-81.8819297337
 10
-16.5582309063
 20
-85.4324075049
 10
3.1207102955
 20
-88.3109956988
 10
22.7409131819
 20
-90.5054007835
 10
38.0657941846
 20
-91.7439711403
 10
53.2656671438
 20
-92.5505381755
 10
68.2644385253
 20
-92.9200602131
 10
82.9700052146
 20
-92.8471469565
 10
97.2901764164
 20
-92.3264061997
 10
111.9583991967
 20
-91.2826023631
 10
126.0038705647
 20
-89.7457643104
 10
139.3410688574
 20
-87.7326779723
 10
151.8852064674
 20
-85.2600259382
 10
163.5757468262
 20
-82.3410767085
 10
174.3813796724
 20
-78.9849842702
 10
183.7324766661
 20
-75.4282855656
 10
192.2435749969
 20
-71.4996576546
 10
199.8702492936
 20
-67.2178140392
 10
206.5600164433
 20
-62.6060821592
 10
212.2603492026
 20
-57.6878147241
 10
217.1752949579
 20
-52.1649571658
 10
220.9088666472
 20
-46.3659204978
 10
223.4517774417
 20
-40.3330738067
 10
224.7948939661
 20
-34.108461227
 10
224.9341524851
 20
-27.723391435
 10
223.8715989761
 20
-21.1962351953
 10
221.771166165
 20
-14.9277332931
 10
218.6078038958
 20
-8.5652473847
 10
214.3947787406
 20
-2.1402840342
 10
209.1499714835
 20
4.3087764799
 10
202.8912881799
 20
10.7435162332
 10
195.1738483452
 20
17.5102124586
 10
186.4084446962
 20
24.1744507106
 10
176.6674653371
 20
30.6930979827
 10
166.0227813315
 20
37.0233774794
 10
154.529182259
 20
43.1342805462
 10
142.2208718295
 20
49.008980986
 10
126.713579448
 20
55.6077589521
 10
110.1922975841
 20
61.8238220482
 10
92.7941747676
 20
67.6018843491
 10
74.6712622284
 20
72.8814410888
 10
55.6367440658
 20
77.6875432866
 10
36.2014180895
 20
81.8819297338
 10
16.5582309059
 20
85.432407505
 10
-3.1207102958
 20
88.3109956988
 10
-22.7409131821
 20
90.5054007836
 10
-38.0657941847
 20
91.7439711403
 10
-53.2656671439
 20
92.5505381755
 10
-68.2644385253
 20
92.9200602131
 10
-82.9700052146
 20
92.8471469565
 10
-97.2901764164
 20
92.3264061997
 10
-111.9583991967
 20
91.2826023631
 10
-126.0038705647
 20
89.7457643104
 10
-139.3410688574
 20
87.7326779723
 10
-151.8852064674
 20
85.2600259382
 10
-163.5757468262
 20
82.3410767085
 10
-174.3813796724
 20
78.9849842702
 10
-183.7324766661
 20
75.4282855656
 10
-192.2435749969
 20
71.4996576546
 10
-199.8702492936
 20
67.2178140392
 10
-206.5600164433
 20
62.6060821592
 10
-212.2603492026
 20
57.6878147241
 10
-217.1752949579
 20
52.1649571658
 10
-220.9088666472
 20
46.3659204978
 10
-223.4517774417
 20
40.3330738067
 10
-224.7948939661
 20
34.108461227
 10
-224.9341524851
 20
27.723391435
 10
-223.8715989761
 20
21.1962351953
 10
-221.771166165
 20
14.9277332931
 10
-218.6078038958
 20
8.5652473847
 10
-214.3947787406
 20
2.1402840342
 10
-209.1499714835
 20
-4.3087764799
 10
-202.8912881799
 20
-10.7435162332
 10
-195.1738483452
 20
-17.5102124586
 10
-186.4084446962
 20
-24.1744507106
 10
-176.6674653371
 20
-30.6930979827
 10
-166.0227813316
 20
-37.0233774794
 10
-154.5291822591
 20
-43.1342805461
 10
-142.2208718297
 20
-49.0089809858
 10
-126.7135794483
 20
-55.607758952
 10
-110.1922975845
 20
-61.823822048
 10
-92.794174768
 20
-67.6018843489
 10
-74.6712622288
 20
-72.8814410887
  0
SPLINE
  5
10F
330
103
100
AcDbEntity
  8
0
  6
Continuous
 62
     7
370
    25
100
AcDbSpline
210
0.0
220
0.0
230
1.0
 70
     8
 71
     3
 72
    10
 73
     6
 74
     0
 42
0.000000001
 43
0.00000001
 40
0.0
 40
0.0
 40
0.0
 40
0.0
 40
0.1674708752155909
 40
0.5927160193081313
 40
1.0
 40
1.0
 40
1.0
 40
1.0
 10
0.3049669668593186
 20
-85.94659127221274
 30
0.0
 10
1.163842573827446
 20
-85.93468848621802
 30
0.0
 10
4.203591008817485
 20
-85.89256192585705
 30
0.0
 10
9.30422014584587
 20
-86.44162309053152
 30
0.0
 10
13.20703830937367
 20
-87.33313936646506
 30
0.0
 10
15.1163472695494
 20
-87.76928062195304
 30
0.0
  0
SPLINE
  5
110
330
103
100
AcDbEntity
  8
0
  6
Continuous
 62
     7
370
    25
100
AcDbSpline
210
0.0
220
0.0
230
1.0
 70
     8
 71
     3
 72
    16
 73
    12
 74
     0
 42
0.000000001
 43
0.00000001
 40
0.0
 40
0.0
 40
0.0
 40
0.0
 40
0.1005390753771216
 40
0.2012470538962334
 40
0.3024719717530507
 40
0.4038735227578528
 40
0.5923995710736414
 40
0.6872365811271003
 40
0.7822438961026048
 40
0.9478615787944518
 40
1.0
 40
1.0
 40
1.0
 40
1.0
 10
-51.33649278230698
 20
-142.3421818509067
 30
0.0
 10
-53.84257775631469
 20
-141.6371606572111
 30
0.0
 10
-58.8589578646545
 20
-140.2259338517781
 30
0.0
 10
-66.18015476088591
 20
-137.8548433122573
 30
0.0
 10
-73.34426622832441
 20
-135.3039930184651
 30
0.0
 10
-82.31429893055572
 20
-131.7766390805265
 30
0.0
 10
-90.73930448429971
 20
-127.9849234607898
 30
0.0
 10
-98.58920423828364
 20
-123.9689614879879
 30
0.0
 10
-105.6294633059439
 20
-120.0041549135841
 30
0.0
 10
-111.6011918836755
 20
-116.3711239645516
 30
0.0
 10
-115.2148200511238
 20
-113.6187663833467
 30
0.0
 10
-116.0800489200396
 20
-112.95975579164
 30
0.0
  0
SPLINE
  5
111
330
103
100
AcDbEntity
  8
0
  6
Continuous
 62
     7
370
    25
100
AcDbSpline
210
0.0
220
0.0
230
1.0
 70
     8
 71
     3
 72
    26
 73
    22
 74
     0
 42
0.000000001
 43
0.00000001
 40
0.0
 40
0.0
 40
0.0
 40
0.0
 40
0.0148307566904106
 40
0.0528937055458517
 40
0.0915988860194305
 40
0.1305015754600647
 40
0.1845837074698
 40
0.2390876048204115
 40
0.2931548461416955
 40
0.3475316741582698
 40
0.402760989045653
 40
0.4582386123374663
 40
0.5225894318281606
 40
0.5872440438703233
 40
0.6324238018322462
 40
0.6776897394743806
 40
0.7687782694432151
 40
0.8262241243546554
 40
0.8838146429723255
 40
0.9418363252020283
 40
0.9999999999999999
 40
0.9999999999999999
 40
0.9999999999999999
 40
0.9999999999999999
 10
116.2590833898699
 20
-137.2166004017909
 30
0.0
 10
115.6089773162084
 20
-137.5299678549673
 30
0.0
 10
113.290382253823
 20
-138.6475889003377
 30
0.0
 10
108.9233722089294
 20
-140.3890219160925
 30
0.0
 10
103.2016216303898
 20
-142.4363491169513
 30
0.0
 10
96.37935586368557
 20
-144.5277807107003
 30
0.0
 10
88.42604171898643
 20
-146.5737127137002
 30
0.0
 10
79.34280356819279
 20
-148.4523582298413
 30
0.0
 10
70.01734923222297
 20
-149.9750258128038
 30
0.0
 10
60.49313602496624
 20
-151.1573281717018
 30
0.0
 10
50.78578138736631
 20
-152.0056664086686
 30
0.0
 10
40.43734576411335
 20
-152.5558299871911
 30
0.0
 10
29.51926179276965
 20
-152.760138559443
 30
0.0
 10
19.24803157284486
 20
-152.5888019467276
 30
0.0
 10
10.16251688574596
 20
-152.1679178517508
 30
0.0
 10
-0.3960635002427173
 20
-151.4212159752631
 30
0.0
 10
-11.52519671076641
 20
-150.2205375435374
 30
0.0
 10
-23.13163649993022
 20
-148.4943100224477
 30
0.0
 10
-32.70440258314454
 20
-146.7520966600529
 30
0.0
 10
-42.14290369889405
 20
-144.7363597014998
 30
0.0
 10
-48.26946728710055
 20
-143.1408910863538
 30
0.0
 10
-51.33649278230698
 20
-142.3421818509067
 30
0.0
  0
LINE
  5
112
330
103
100
AcDbEntity
  8
0
  6
Continuous
 62
     7
370
    25
100
AcDbLine
 10
97.5142027823
 20
-144.1362071131
 30
0.0
 11
98.7367306261
 21
-143.7745441354
 31
0.0
  0
VIEWPORT
  5
134
330
103
100
AcDbEntity
  8
0
100
AcDbViewport
 10
0.0
 20
0.0
 30
0.0
 40
205.6
 41
156.0
 68
     1
 69
     1
 12
0.0
 22
0.0
 13
0.0
 23
0.0
 14
10.0
 24
10.0
 15
10.0
 25
10.0
 16
0.0
 26
0.0
 36
1.0
 17
0.0
 27
0.0
 37
0.0
 42
50.0
 43
0.0
 44
0.0
 45
371.486381323
 50
0.0
 51
0.0
 72
   100
 90
   557152
  1

281
     0
 71
     1
 74
     0
110
0.0
120
0.0
130
0.0
111
1.0
121
0.0
131
0.0
112
0.0
122
1.0
132
0.0
 79
     0
146
0.0
  0
ENDBLK
  5
106
330
103
100
AcDbEntity
  8
0
100
AcDbBlockEnd
  0
BLOCK
  5
115
330
113
100
AcDbEntity
  8
0
100
AcDbBlockBegin
  2
*Paper_Space7
 70
     0
 10
0.0
 20
0.0
 30
0.0
  3
*Paper_Space7
  1

  0
SPLINE
  5
117
330
113
100
AcDbEntity
  8
0
  6
Continuous
 62
     7
370
    25
100
AcDbSpline
210
0.0
220
0.0
230
1.0
 70
     8
 71
     3
 72
    31
 73
    27
 74
     0
 42
0.000000001
 43
0.00000001
 40
0.0
 40
0.0
 40
0.0
 40
0.0
 40
0.0468842743133858
 40
0.087872994310404
 40
0.1173027548907305
 40
0.1394728186531468
 40
0.1566583558657563
 40
0.1777142948313584
 40
0.2043644018175579
 40
0.2348175501887546
 40
0.2963341585284373
 40
0.3639328883499034
 40
0.435130971734562
 40
0.4834252352005801
 40
0.5307534112741291
 40
0.5756760616783407
 40
0.6178773435152716
 40
0.6553482119558176
 40
0.6751976220884931
 40
0.6924898074281668
 40
0.7160547718165344
 40
0.7507313895745842
 40
0.7964997284662263
 40
0.8533303160621633
 40
0.9211821957068638
 40
1.0
 40
1.0
 40
1.0
 40
1.0
 10
156.056235159763
 20
-107.7981359191186
 30
0.0
 10
157.5656538803786
 20
-106.7748769019826
 30
0.0
 10
160.3946865270632
 20
-104.857030564214
 30
0.0
 10
164.0927011113918
 20
-102.1685341439603
 30
0.0
 10
166.9707734314484
 20
-100.0015459206558
 30
0.0
 10
169.0831164276049
 20
-98.3626664301216
 30
0.0
 10
170.9225576800116
 20
-96.90414019947839
 30
0.0
 10
172.878051565803
 20
-95.32016920634892
 30
0.0
 10
175.2100416880612
 20
-93.38065294248638
 30
0.0
 10
178.6995878603489
 20
-90.38521107253294
 30
0.0
 10
183.2873373716809
 20
-86.24213302152637
 30
0.0
 10
188.8536870861516
 20
-80.84491806982842
 30
0.0
 10
193.8511608609797
 20
-75.61425661745614
 30
0.0
 10
198.1448226064065
 20
-70.8123012287516
 30
0.0
 10
201.647616310994
 20
-66.67951634184809
 30
0.0
 10
204.8965087159696
 20
-62.64077956208658
 30
0.0
 10
207.8144782755184
 20
-58.82746744513489
 30
0.0
 10
210.0758478391639
 20
-55.73188091321059
 30
0.0
 10
211.7320366149871
 20
-53.38670556448527
 30
0.0
 10
213.0583120241516
 20
-51.4666029450471
 30
0.0
 10
214.6748048699466
 20
-49.06821269914701
 30
0.0
 10
216.8446529234185
 20
-45.73267721807342
 30
0.0
 10
219.6086548043436
 20
-41.26835218357844
 30
0.0
 10
222.8759655355769
 20
-35.62507026484226
 30
0.0
 10
226.5606188705762
 20
-28.76117865968349
 30
0.0
 10
228.9479479128924
 20
-23.67702503460638
 30
0.0
 10
230.2308581107513
 20
-20.94488697676884
 30
0.0
  0
SPLINE
  5
118
330
113
100
AcDbEntity
  8
0
  6
Continuous
 62
     7
370
    25
100
AcDbSpline
210
0.0
220
0.0
230
1.0
 70
     8
 71
     3
 72
    35
 73
    31
 74
     0
 42
0.000000001
 43
0.00000001
 40
0.0
 40
0.0
 40
0.0
 40
0.0
 40
0.0502725097368016
 40
0.0909347352780647
 40
0.1219800629881763
 40
0.1434073843483947
 40
0.156759771753865
 40
0.1703358498467676
 40
0.185371204749075
 40
0.2170818992981186
 40
0.2546866035124055
 40
0.2979224422696749
 40
0.3547062877726212
 40
0.4064105951995
 40
0.4555917075186927
 40
0.5042827046597348
 40
0.5413353493215165
 40
0.5755657275072305
 40
0.6142421970922723
 40
0.6561528214760476
 40
0.69569700601138
 40
0.7339844637894813
 40
0.7596976844467678
 40
0.7861054446613727
 40
0.8136875929945058
 40
0.8435391157607042
 40
0.8741625604058045
 40
0.9121773779070518
 40
0.9574858304459405
 40
1.0
 40
1.0
 40
1.0
 40
1.0
 10
-230.4339225238563
 20
9.795000116810893
 30
0.0
 10
-229.6362903395915
 20
7.824900126375544
 30
0.0
 10
-228.193504373561
 20
4.26131195384373
 30
0.0
 10
-226.1146296347438
 20
-0.4584394971087064
 30
0.0
 10
-224.4674698102231
 20
-4.034842208505543
 30
0.0
 10
-223.2684377420247
 20
-6.546236122422777
 30
0.0
 10
-222.3712809720632
 20
-8.383408696928537
 30
0.0
 10
-221.5822322387695
 20
-9.97122731178736
 30
0.0
 10
-220.4318481518606
 20
-12.24420527286405
 30
0.0
 10
-218.7860741544937
 20
-15.40147633120116
 30
0.0
 10
-216.5160991401144
 20
-19.5734137089939
 30
0.0
 10
-213.6353399899977
 20
-24.61564597277045
 30
0.0
 10
-210.3179905245099
 20
-30.09077158736977
 30
0.0
 10
-206.7144376588259
 20
-35.68074036148951
 30
0.0
 10
-203.161242651696
 20
-40.89084073042535
 30
0.0
 10
-199.8402168536392
 20
-45.50625638946115
 30
0.0
 10
-196.7990946997245
 20
-49.541659230402
 30
0.0
 10
-193.9477980729318
 20
-53.18430447561445
 30
0.0
 10
-190.9006776145928
 20
-56.93037516113668
 30
0.0
 10
-187.6314459725586
 20
-60.78357250864089
 30
0.0
 10
-184.2952932918438
 20
-64.55257048892571
 30
0.0
 10
-181.3475985259294
 20
-67.75122716286913
 30
0.0
 10
-178.7280294841412
 20
-70.50141864918662
 30
0.0
 10
-176.3872117845735
 20
-72.89381098211344
 30
0.0
 10
-173.8928392594736
 20
-75.37338662014554
 30
0.0
 10
-171.236246223973
 20
-77.93718660226078
 30
0.0
 10
-168.2272845389435
 20
-80.75313483357189
 30
0.0
 10
-164.6858501804865
 20
-83.94813771765818
 30
0.0
 10
-160.706031196534
 20
-87.40691584733193
 30
0.0
 10
-157.8442969518064
 20
-89.73443064004952
 30
0.0
 10
-156.4589562275197
 20
-90.86116036160632
 30
0.0
  0
SPLINE
  5
119
330
113
100
AcDbEntity
  8
0
  6
Continuous
 62
     7
370
    25
100
AcDbSpline
210
0.0
220
0.0
230
1.0
 70
     8
 71
     3
 72
    91
 73
    87
 74
     0
 42
0.000000001
 43
0.00000001
 40
0.0
 40
0.0
 40
0.0
 40
0.0
 40
0.0041281910430556
 40
0.0126307600701413
 40
0.0219624865524189
 40
0.0318161840293451
 40
0.0371387181936287
 40
0.0407893724681008
 40
0.0448448806159127
 40
0.0500235125914227
 40
0.0560549314402369
 40
0.0617173439221982
 40
0.0715286787337912
 40
0.0805348409624773
 40
0.0893920388826497
 40
0.0958282774513367
 40
0.102067115876218
 40
0.1081255068724512
 40
0.1148962729244631
 40
0.1229049900051751
 40
0.1321990571104652
 40
0.1423116989503328
 40
0.1511440889961128
 40
0.1593211018571628
 40
0.1657769331061201
 40
0.1724586991513758
 40
0.1796445798025136
 40
0.1873465942311813
 40
0.1955770525055515
 40
0.2043485036003855
 40
0.2235085436525796
 40
0.2439469063832622
 40
0.2653229509414783
 40
0.2876176220930706
 40
0.3107982105878245
 40
0.3348202280070918
 40
0.3595659920477826
 40
0.3832413082509024
 40
0.4050128429046542
 40
0.424839330484828
 40
0.4426826161359297
 40
0.4585081328946792
 40
0.4722846077405474
 40
0.4839807079237438
 40
0.491206037074198
 40
0.4977206386039772
 40
0.5053824647597585
 40
0.514421180802275
 40
0.524849967401051
 40
0.5366816767766827
 40
0.5524426225854854
 40
0.5701818638797186
 40
0.5899050201085617
 40
0.6116061532171111
 40
0.627162697055887
 40
0.6431277834523013
 40
0.6575583583681878
 40
0.6702255912099315
 40
0.6811286043828154
 40
0.690272101229615
 40
0.6972892376256113
 40
0.7029443173246981
 40
0.70862377662527
 40
0.7146069866903183
 40
0.7209965375963112
 40
0.7315896221247664
 40
0.7438025527490342
 40
0.7575969538268537
 40
0.7729292959262642
 40
0.7893315432421282
 40
0.8212333665851662
 40
0.8525004251717114
 40
0.8667583178493348
 40
0.8812870847958194
 40
0.8954429970130022
 40
0.9081085867552605
 40
0.9198161681694471
 40
0.9288350468756459
 40
0.9383906382615943
 40
0.9471730705873752
 40
0.9551366796948524
 40
0.9654029875760441
 40
0.9751443240236007
 40
0.9818635344803933
 40
0.9912053822731347
 40
1.0
 40
1.0
 40
1.0
 40
1.0
 10
197.9083527381154
 20
-39.12629675753666
 30
0.0
 10
197.9117836182663
 20
-39.12321755729837
 30
0.0
 10
197.9222808611418
 20
-39.11379632678552
 30
0.0
 10
197.6158025670245
 20
-39.29894367117851
 30
0.0
 10
196.9599882208613
 20
-39.65639572469496
 30
0.0
 10
195.9882450899543
 20
-40.13770539614656
 30
0.0
 10
195.0970176580876
 20
-40.54461928539943
 30
0.0
 10
194.3781127037918
 20
-40.85940103102696
 30
0.0
 10
193.5551196520071
 20
-41.20609182509664
 30
0.0
 10
192.5002184545797
 20
-41.63038181397097
 30
0.0
 10
191.2401121811672
 20
-42.11071729242421
 30
0.0
 10
189.5110467946714
 20
-42.73511307186241
 30
0.0
 10
187.3243464702464
 20
-43.47225501195003
 30
0.0
 10
184.5729485845278
 20
-44.32489286975321
 30
0.0
 10
181.9533453907571
 20
-45.07561700715517
 30
0.0
 10
179.5090650722228
 20
-45.73164175510269
 30
0.0
 10
177.2942889318738
 20
-46.2952884996556
 30
0.0
 10
174.955611945811
 20
-46.86081395201072
 30
0.0
 10
172.3050999550718
 20
-47.46867852593643
 30
0.0
 10
169.1428803083006
 20
-48.15119637134043
 30
0.0
 10
165.4281549838882
 20
-48.89848720991341
 30
0.0
 10
161.4901094497285
 20
-49.63108579689417
 30
0.0
 10
157.6122134435575
 20
-50.29981789688497
 30
0.0
 10
154.1846936583362
 20
-50.85204561422698
 30
0.0
 10
151.003134021842
 20
-51.33527397854738
 30
0.0
 10
147.9252761865809
 20
-51.7782994983766
 30
0.0
 10
144.6158720379611
 20
-52.22812211147055
 30
0.0
 10
141.0256349102291
 20
-52.68655736858504
 30
0.0
 10
137.1458572042854
 20
-53.14929040751799
 30
0.0
 10
131.4071325353225
 20
-53.7844341962422
 30
0.0
 10
123.617450250003
 20
-54.54194346386007
 30
0.0
 10
113.6338030105672
 20
-55.33786177462282
 30
0.0
 10
103.0038594776628
 20
-56.00483391829736
 30
0.0
 10
91.82343532815757
 20
-56.52810863400239
 30
0.0
 10
80.13908102519146
 20
-56.89826207321344
 30
0.0
 10
68.01420517782216
 20
-57.10666227301625
 30
0.0
 10
55.8114443857576
 20
-57.14859492015891
 30
0.0
 10
44.01571358245749
 20
-57.029316967294
 30
0.0
 10
33.08292882806843
 20
-56.78106800078737
 30
0.0
 10
23.16696211916416
 20
-56.44356512145976
 30
0.0
 10
14.28093515186265
 20
-56.05015851158097
 30
0.0
 10
6.432754732996399
 20
-55.63029755709677
 30
0.0
 10
-0.3728744667473444
 20
-55.20968704177943
 30
0.0
 10
-5.745126398990559
 20
-54.83736938272762
 30
0.0
 10
-9.917066770152257
 20
-54.52306983352445
 30
0.0
 10
-13.42647444407944
 20
-54.240632664741
 30
0.0
 10
-17.23231469041453
 20
-53.91417567920908
 30
0.0
 10
-21.67247196844344
 20
-53.51026851087489
 30
0.0
 10
-26.78238555373131
 20
-53.0165991086317
 30
0.0
 10
-32.96861225799193
 20
-52.3811745044913
 30
0.0
 10
-40.30912399896182
 20
-51.57324818763614
 30
0.0
 10
-48.87107898227812
 20
-50.55586261380852
 30
0.0
 10
-58.31027294355241
 20
-49.34138475242275
 30
0.0
 10
-67.3096305819201
 20
-48.0848546284376
 30
0.0
 10
-75.63164654771025
 20
-46.84068424149275
 30
0.0
 10
-82.75336038619639
 20
-45.71552908868352
 30
0.0
 10
-89.35271863039566
 20
-44.61890822542505
 30
0.0
 10
-95.11166118158174
 20
-43.6179588149441
 30
0.0
 10
-100.0136432890502
 20
-42.73198463666717
 30
0.0
 10
-104.0203245081171
 20
-41.98311437728989
 30
0.0
 10
-107.2115130723027
 20
-41.37002439348588
 30
0.0
 10
-109.84810729542
 20
-40.85231196417826
 30
0.0
 10
-112.3193434528937
 20
-40.3575261985707
 30
0.0
 10
-114.8787675325124
 20
-39.83471272965897
 30
0.0
 10
-118.1114455842199
 20
-39.16020711549269
 30
0.0
 10
-122.1768861103057
 20
-38.28692574988884
 30
0.0
 10
-127.2015742693494
 20
-37.16462613757554
 30
0.0
 10
-132.7823940241761
 20
-35.86118355448997
 30
0.0
 10
-138.8085967323608
 20
-34.38104553543008
 30
0.0
 10
-147.0379705061644
 20
-32.24421718467634
 30
0.0
 10
-156.8928697556426
 20
-29.45624125577489
 30
0.0
 10
-165.8874524930141
 20
-26.59433910856679
 30
0.0
 10
-172.4122580293796
 20
-24.3223515638574
 30
0.0
 10
-176.8248202776821
 20
-22.69134746786584
 30
0.0
 10
-180.8314949784093
 20
-21.11472010724701
 30
0.0
 10
-184.341697106204
 20
-19.64401313919826
 30
0.0
 10
-187.1695709004921
 20
-18.38371438502307
 30
0.0
 10
-189.5136906269138
 20
-17.27928815703218
 30
0.0
 10
-191.4728241152167
 20
-16.30675080250044
 30
0.0
 10
-193.1954182628564
 20
-15.40351416402835
 30
0.0
 10
-194.7855320936827
 20
-14.52298610885977
 30
0.0
 10
-196.1318276665861
 20
-13.73132753554592
 30
0.0
 10
-197.2533162630438
 20
-13.02094362342542
 30
0.0
 10
-198.0233001917568
 20
-12.50054349840198
 30
0.0
 10
-198.5211875900353
 20
-12.13550657253606
 30
0.0
 10
-198.5476588839738
 20
-12.11769417735309
 30
0.0
 10
-198.5604951728677
 20
-12.10905670572088
 30
0.0
  0
SPLINE
  5
11B
330
113
100
AcDbEntity
  8
0
  6
Continuous
 62
     7
370
    25
100
AcDbSpline
210
0.0
220
0.0
230
1.0
 70
     8
 71
     3
 72
    67
 73
    63
 74
     0
 42
0.000000001
 43
0.00000001
 40
0.0
 40
0.0
 40
0.0
 40
0.0
 40
0.0088469570246271
 40
0.0302051828936099
 40
0.052862491250516
 40
0.0687649800116523
 40
0.0923496578094774
 40
0.1089954172456909
 40
0.1250993279182892
 40
0.14062158279138
 40
0.1587478011084854
 40
0.1779664016747237
 40
0.1972321312080978
 40
0.2135817974905085
 40
0.22746891567645
 40
0.2413341252876865
 40
0.2558542165730641
 40
0.27191854581076
 40
0.2853014504388567
 40
0.2978283514273219
 40
0.3146216037388805
 40
0.329518955692598
 40
0.3448879515685026
 40
0.3588535023203758
 40
0.3713447281099336
 40
0.3814247664270107
 40
0.3911907037692728
 40
0.3998637473795047
 40
0.41050838085734
 40
0.4231114974577077
 40
0.4376500444103042
 40
0.4543548894642477
 40
0.4728032654100245
 40
0.493651968380517
 40
0.5168073477800865
 40
0.5421651702238065
 40
0.569584910761027
 40
0.5957990359534479
 40
0.6190028450607169
 40
0.6393994836818233
 40
0.65443655177282
 40
0.6671824074665085
 40
0.6805464560524805
 40
0.6959659381272703
 40
0.7104941216729368
 40
0.7265833840459868
 40
0.7405039759108174
 40
0.7516013626343467
 40
0.7739054001993183
 40
0.801018211605795
 40
0.8323403166164917
 40
0.8624957361421053
 40
0.8910327974398962
 40
0.9022670614515637
 40
0.9127245659836168
 40
0.9255117596772088
 40
0.9403163772683777
 40
0.9526857049396126
 40
0.9627561660784092
 40
0.9743396509481576
 40
0.9883105495959924
 40
1.0
 40
1.0
 40
1.0
 40
1.0
 10
-130.6062771038621
 20
-109.1189498379388
 30
0.0
 10
-129.9200623988691
 20
-109.5473297753104
 30
0.0
 10
-127.5771957373832
 20
-111.0098998228693
 30
0.0
 10
-123.39012385187
 20
-113.4280086043157
 30
0.0
 10
-118.5986730903007
 20
-116.0830113541235
 30
0.0
 10
-113.5694099762389
 20
-118.7193995352095
 30
0.0
 10
-108.9947809869566
 20
-120.9949348326434
 30
0.0
 10
-104.3443113296729
 20
-123.1820555372452
 30
0.0
 10
-100.3448175743822
 20
-124.977551181987
 30
0.0
 10
-96.19559563632971
 20
-126.756817952069
 30
0.0
 10
-91.75484936334594
 20
-128.568052067474
 30
0.0
 10
-86.96739715145443
 20
-130.4121111274106
 30
0.0
 10
-82.29768356216528
 20
-132.104646939461
 30
0.0
 10
-78.04468620830562
 20
-133.5584252788712
 30
0.0
 10
-74.2451158712981
 20
-134.7922316346396
 30
0.0
 10
-70.53227699274645
 20
-135.9402034586595
 30
0.0
 10
-66.60355462856806
 20
-137.0911850934711
 30
0.0
 10
-62.8693224169123
 20
-138.126026035869
 30
0.0
 10
-59.22941080721648
 20
-139.078934869249
 30
0.0
 10
-55.46727289719838
 20
-140.0130380967109
 30
0.0
 10
-51.56489593322468
 20
-140.9231130364077
 30
0.0
 10
-47.39590548241735
 20
-141.8287702682938
 30
0.0
 10
-43.4601233583448
 20
-142.624606625869
 30
0.0
 10
-39.71577287188165
 20
-143.3277111402878
 30
0.0
 10
-36.43546603626157
 20
-143.90119959796
 30
0.0
 10
-33.52107824921532
 20
-144.3786515127224
 30
0.0
 10
-30.94119405766623
 20
-144.776222301342
 30
0.0
 10
-28.32949510473404
 20
-145.1551580718772
 30
0.0
 10
-25.46765889461926
 20
-145.5434365537616
 30
0.0
 10
-22.07408272444335
 20
-145.9649072057055
 30
0.0
 10
-18.11920736877181
 20
-146.4040496234057
 30
0.0
 10
-13.61628043190858
 20
-146.8379427175314
 30
0.0
 10
-8.523139723058401
 20
-147.2466834200629
 30
0.0
 10
-2.809996128789964
 20
-147.6052351978539
 30
0.0
 10
3.574170903473031
 20
-147.8828928380557
 30
0.0
 10
10.60281003691607
 20
-148.0402822953748
 30
0.0
 10
17.94702578624626
 20
-148.0363221486814
 30
0.0
 10
25.09408833835597
 20
-147.8623431874064
 30
0.0
 10
31.58365045528393
 20
-147.5598175355418
 30
0.0
 10
37.02440920668815
 20
-147.1977521753789
 30
0.0
 10
41.48990445202612
 20
-146.8266828625444
 30
0.0
 10
45.29538826520455
 20
-146.459901215508
 30
0.0
 10
49.13070168433044
 20
-146.0413158573881
 30
0.0
 10
53.123124956079
 20
-145.5480522814558
 30
0.0
 10
57.3597719855151
 20
-144.9602003586157
 30
0.0
 10
61.45346093982705
 20
-144.3275465518828
 30
0.0
 10
65.22386651048697
 20
-143.6852322261958
 30
0.0
 10
69.5530905797712
 20
-142.889469007082
 30
0.0
 10
75.06622111963772
 20
-141.775516082795
 30
0.0
 10
82.37666366204334
 20
-140.0947532224855
 30
0.0
 10
90.33483221460436
 20
-137.9930603673614
 30
0.0
 10
98.33883984787911
 20
-135.5792358351491
 30
0.0
 10
104.4823666737453
 20
-133.4976659945478
 30
0.0
 10
108.864609502674
 20
-131.8983420284515
 30
0.0
 10
111.8622089144124
 20
-130.7605617641534
 30
0.0
 10
115.1373280551148
 20
-129.4657113992164
 30
0.0
 10
118.5457594195748
 20
-128.0534053307779
 30
0.0
 10
121.7087018647116
 20
-126.6820855541294
 30
0.0
 10
124.5820776265649
 20
-125.3905019372623
 30
0.0
 10
127.5668650586636
 20
-123.9992060312989
 30
0.0
 10
130.6682734128256
 20
-122.5052850480964
 30
0.0
 10
132.7818025030003
 20
-121.4207214580444
 30
0.0
 10
133.7446106638366
 20
-120.9266536544346
 30
0.0
  0
SPLINE
  5
11D
330
113
100
AcDbEntity
  8
0
  6
Continuous
 62
     7
370
    25
100
AcDbSpline
210
0.0
220
0.0
230
1.0
 70
     8
 71
     3
 72
    30
 73
    26
 74
     0
 42
0.000000001
 43
0.00000001
 40
0.0
 40
0.0
 40
0.0
 40
0.0
 40
0.0668294539921988
 40
0.1343192769981887
 40
0.2021375009025676
 40
0.27064254095315
 40
0.3107736778307327
 40
0.3510447063256631
 40
0.3913989564756186
 40
0.4319900793471067
 40
0.4726762882601594
 40
0.5136160532155052
 40
0.5546720068548036
 40
0.5959224239293522
 40
0.6351956108520684
 40
0.6746095955579532
 40
0.7115095630411057
 40
0.7485547406233456
 40
0.784029872425475
 40
0.8224697965350903
 40
0.8611422838397002
 40
0.9000786026221492
 40
0.9393083618082757
 40
0.9778560216452115
 40
1.0
 40
1.0
 40
1.0
 40
1.0
 10
-45.0700960728844
 20
-124.6009023374199
 30
0.0
 10
-40.32728836193672
 20
-125.1618903274965
 30
0.0
 10
-30.79480732819532
 20
-126.2894096581279
 30
0.0
 10
-16.04542016432293
 20
-127.5605498732734
 30
0.0
 10
-0.9665821966156757
 20
-128.5203844831956
 30
0.0
 10
12.24061031061663
 20
-129.0325451007254
 30
0.0
 10
23.43403152544823
 20
-129.2468730743064
 30
0.0
 10
32.52634985430824
 20
-129.2859532772925
 30
0.0
 10
41.649168685065
 20
-129.1865422469197
 30
0.0
 10
50.77938945910972
 20
-128.9437597525004
 30
0.0
 10
59.90750747468478
 20
-128.5517452002457
 30
0.0
 10
68.99908272038354
 20
-128.0038250361372
 30
0.0
 10
78.03154823224826
 20
-127.2912479542202
 30
0.0
 10
86.80723254629363
 20
-126.4193569419008
 30
0.0
 10
95.29717961820614
 20
-125.3907622861831
 30
0.0
 10
103.2862671901832
 20
-124.2372333133489
 30
0.0
 10
110.8974451940852
 20
-122.9474443936181
 30
0.0
 10
117.9945553740908
 20
-121.5502187473279
 30
0.0
 10
124.8955611298498
 20
-119.9782964817477
 30
0.0
 10
131.5430409400537
 20
-118.2214059011642
 30
0.0
 10
137.9467751778112
 20
-116.2366546120265
 30
0.0
 10
143.8850029463465
 20
-114.0683202293228
 30
0.0
 10
149.193612769445
 20
-111.7323497710355
 30
0.0
 10
153.291979584964
 20
-109.6219696532872
 30
0.0
 10
155.2944732860752
 20
-108.2523370453746
 30
0.0
 10
156.0251040367715
 20
-107.7526122772308
 30
0.0
  0
SPLINE
  5
11E
330
113
100
AcDbEntity
  8
0
  6
Continuous
 62
     7
370
    25
100
AcDbSpline
210
0.0
220
0.0
230
1.0
 70
     8
 71
     3
 72
    19
 73
    15
 74
     0
 42
0.000000001
 43
0.00000001
 40
0.0
 40
0.0
 40
0.0
 40
0.0
 40
0.0546670690692012
 40
0.111188713434876
 40
0.2035606576675939
 40
0.2966548668430658
 40
0.3907085924026519
 40
0.4860037432722452
 40
0.5806835786094072
 40
0.6763271203269234
 40
0.7724385998251906
 40
0.8694882585288091
 40
0.9346742967685139
 40
1.0
 40
1.0
 40
1.0
 40
1.0
 10
-156.4643903058851
 20
-90.86771193272966
 30
0.0
 10
-155.3461606844135
 20
-91.72960606077694
 30
0.0
 10
-153.0717656042822
 20
-93.48263399599224
 30
0.0
 10
-148.1806029469242
 20
-96.57800118784513
 30
0.0
 10
-141.5963556660742
 20
-100.1127560044211
 30
0.0
 10
-132.9372304882269
 20
-103.9551444150251
 30
0.0
 10
-123.2897918223255
 20
-107.5922603244714
 30
0.0
 10
-112.7780040268923
 20
-110.9917289939988
 30
0.0
 10
-101.4840714497682
 20
-114.1420439767557
 30
0.0
 10
-89.51346244442867
 20
-117.0249200662011
 30
0.0
 10
-76.87012303513602
 20
-119.6467060632699
 30
0.0
 10
-65.10206122764617
 20
-121.7255801646705
 30
0.0
 10
-54.45944643036363
 20
-123.3688352673024
 30
0.0
 10
-48.20211158667114
 20
-124.1899204237926
 30
0.0
 10
-45.0700960728844
 20
-124.6009023374199
 30
0.0
  0
LWPOLYLINE
  5
11F
330
113
100
AcDbEntity
  8
0
  6
Continuous
 62
     7
370
    25
100
AcDbPolyline
 90
       85
 70
   128
 43
0.0
 10
-56.5685424819
 20
-49.8887651468
 10
-36.5247587497
 20
-52.18942669
 10
-16.2303688897
 20
-54.0806851508
 10
4.115424081
 20
-55.5498320883
 10
24.3351090556
 20
-56.5860036752
 10
44.3319648294
 20
-57.1852062086
 10
59.8367020891
 20
-57.3479011309
 10
75.1134989548
 20
-57.2383173866
 10
90.0856353757
 20
-56.8563588875
 10
104.6604211669
 20
-56.2023666617
 10
118.7450786783
 20
-55.2766841309
 10
133.0493129529
 20
-54.0007110083
 10
146.6170188397
 20
-52.4338150381
 10
159.3673702131
 20
-50.5903074698
 10
171.2202444979
 20
-48.4844028772
 10
182.1187623288
 20
-46.1271219661
 10
192.0340560569
 20
-43.5256363292
 10
200.4577701332
 20
-40.8553730074
 10
207.9585068185
 20
-37.9809323179
 10
214.4966833755
 20
-34.9161666385
 10
220.0258310099
 20
-31.6782241876
 10
224.4994432138
 20
-28.2842712342
 10
228.048315136
 20
-24.5344672236
 10
230.3584906535
 20
-20.6560729855
 10
231.430944045
 20
-16.6766821181
 10
231.2667237113
 20
-12.6236731937
 10
229.8693268194
 20
-8.5173209711
 10
227.2452016839
 20
-4.369338999
 10
223.6533951164
 20
-0.4303214721
 10
218.9842417988
 20
3.525167791
 10
213.258483338
 20
7.4774424813
 10
206.5030931198
 20
11.4025923837
 10
198.7450786599
 20
15.2766841496
 10
189.4597071887
 20
19.3037347151
 10
179.1590828502
 20
23.2217164766
 10
167.9254096081
 20
27.0059174429
 10
155.8402927002
 20
30.6318330397
 10
142.9655572326
 20
34.0818111337
 10
129.3391901484
 20
37.3464578582
 10
112.3643383708
 20
40.9440395813
 10
94.4753470559
 20
44.2539694021
 10
75.8216046091
 20
47.2464043543
 10
56.5685424815
 20
49.8887651468
 10
36.5247587492
 20
52.1894266901
 10
16.2303688893
 20
54.0806851508
 10
-4.1154240814
 20
55.5498320883
 10
-24.3351090559
 20
56.5860036752
 10
-44.3319648295
 20
57.1852062086
 10
-59.8367020892
 20
57.3479011309
 10
-75.1134989548
 20
57.2383173866
 10
-90.0856353757
 20
56.8563588875
 10
-104.6604211669
 20
56.2023666617
 10
-118.7450786783
 20
55.2766841309
 10
-133.0493129529
 20
54.0007110083
 10
-146.6170188397
 20
52.4338150381
 10
-159.3673702131
 20
50.5903074698
 10
-171.2202444979
 20
48.4844028772
 10
-182.1187623288
 20
46.1271219661
 10
-192.0340560569
 20
43.5256363292
 10
-200.4577701332
 20
40.8553730074
 10
-207.9585068185
 20
37.9809323179
 10
-214.4966833755
 20
34.9161666385
 10
-220.0258310099
 20
31.6782241876
 10
-224.4994432138
 20
28.2842712342
 10
-228.048315136
 20
24.5344672236
 10
-230.3584906535
 20
20.6560729855
 10
-231.430944045
 20
16.6766821181
 10
-231.2667237113
 20
12.6236731937
 10
-229.8693268194
 20
8.5173209711
 10
-227.2452016839
 20
4.369338999
 10
-223.6533951164
 20
0.4303214721
 10
-218.9842417988
 20
-3.525167791
 10
-213.258483338
 20
-7.4774424813
 10
-206.5030931198
 20
-11.4025923837
 10
-198.7450786599
 20
-15.2766841496
 10
-189.4597071887
 20
-19.3037347151
 10
-179.1590828502
 20
-23.2217164766
 10
-167.9254096082
 20
-27.0059174429
 10
-155.8402927003
 20
-30.6318330397
 10
-142.9655572328
 20
-34.0818111336
 10
-129.3391901486
 20
-37.3464578581
 10
-112.3643383711
 20
-40.9440395812
 10
-94.4753470563
 20
-44.253969402
 10
-75.8216046095
 20
-47.2464043542
 10
-56.5685424819
 20
-49.8887651468
  0
SPLINE
  5
120
330
113
100
AcDbEntity
  8
0
  6
Continuous
 62
     7
370
    25
100
AcDbSpline
210
0.0
220
0.0
230
1.0
 70
     8
 71
     3
 72
    22
 73
    18
 74
     0
 42
0.000000001
 43
0.00000001
 40
0.0
 40
0.0
 40
0.0
 40
0.0
 40
0.0572971260309741
 40
0.1146905098062863
 40
0.1723784968318449
 40
0.2301671469250056
 40
0.3376079674214444
 40
0.3916554917004503
 40
0.445800072596951
 40
0.5401854367208786
 40
0.6351951135882979
 40
0.7157359816137246
 40
0.796803794904838
 40
0.8653172179000439
 40
0.9342796350493091
 40
0.9933765135169812
 40
1.0
 40
1.0
 40
1.0
 40
1.0
 10
-38.89087295633841
 20
-135.7502669807043
 30
0.0
 10
-41.54612620359872
 20
-135.3988894508128
 30
0.0
 10
-46.86109345742671
 20
-134.6955440855334
 30
0.0
 10
-54.68014829903316
 20
-133.4446612324551
 30
0.0
 10
-62.37915122420779
 20
-132.0575385253223
 30
0.0
 10
-72.08799456554272
 20
-130.0864383265852
 30
0.0
 10
-81.3117081622728
 20
-127.9026745316553
 30
0.0
 10
-90.00044637033581
 20
-125.5316860242342
 30
0.0
 10
-97.90462920276893
 20
-123.1682471679205
 30
0.0
 10
-106.9448305263612
 20
-120.1099910128235
 30
0.0
 10
-116.1993931012081
 20
-116.441139475724
 30
0.0
 10
-124.2083500469059
 20
-112.7279063788811
 30
0.0
 10
-130.6329547691544
 20
-109.214031722273
 30
0.0
 10
-135.9980798420616
 20
-105.7334130665017
 30
0.0
 10
-140.0273989504023
 20
-102.4973891727393
 30
0.0
 10
-142.4818931008851
 20
-100.2410668787962
 30
0.0
 10
-143.3304467864718
 20
-99.11665157902175
 30
0.0
 10
-143.4159664556158
 20
-99.00332978683541
 30
0.0
  0
SPLINE
  5
121
330
113
100
AcDbEntity
  8
0
  6
Continuous
 62
     7
370
    25
100
AcDbSpline
210
0.0
220
0.0
230
1.0
 70
     8
 71
     3
 72
    31
 73
    27
 74
     0
 42
0.000000001
 43
0.00000001
 40
0.0
 40
0.0
 40
0.0
 40
0.0
 40
0.0101308760101928
 40
0.0420772596255007
 40
0.0742564622559129
 40
0.1071532783863538
 40
0.140288241712673
 40
0.1720884134417087
 40
0.2040755634567975
 40
0.2366024288573606
 40
0.2692952758528474
 40
0.3147445466463778
 40
0.3605482584812739
 40
0.4059850155127431
 40
0.4516819414581486
 40
0.4980952760435156
 40
0.5447172828001503
 40
0.5987961016657173
 40
0.6531302201917017
 40
0.6910981585419865
 40
0.7291385201396041
 40
0.8056870420061782
 40
0.8539631013776158
 40
0.9023607325087845
 40
0.9511207027532865
 40
1.0
 40
1.0
 40
1.0
 40
1.0
 10
143.8193008110417
 20
-114.0224356910388
 30
0.0
 10
143.616335345024
 20
-114.2492576043313
 30
0.0
 10
142.7733450053884
 20
-115.191332556661
 30
0.0
 10
140.7181554676122
 20
-116.8039570229363
 30
0.0
 10
137.6571579482353
 20
-118.8581188744067
 30
0.0
 10
134.0016236397142
 20
-120.8589063468962
 30
0.0
 10
129.8896134760866
 20
-122.7670782191634
 30
0.0
 10
125.3862825584771
 20
-124.5643648948872
 30
0.0
 10
120.5378037545291
 20
-126.2519007514079
 30
0.0
 10
115.3057977797039
 20
-127.8491540218887
 30
0.0
 10
109.0098905149004
 20
-129.5420086826306
 30
0.0
 10
101.5636111380506
 20
-131.2677719751733
 30
0.0
 10
92.94826415465782
 20
-132.9531695915008
 30
0.0
 10
84.00073285052888
 20
-134.4300738602361
 30
0.0
 10
74.7702673588184
 20
-135.7043822347221
 30
0.0
 10
65.27602841100746
 20
-136.7749339615049
 30
0.0
 10
55.06942315706218
 20
-137.689083601517
 30
0.0
 10
44.21001437282961
 20
-138.4129368151578
 30
0.0
 10
33.90748274704449
 20
-138.8586658153397
 30
0.0
 10
24.73212773174999
 20
-139.0749873436299
 30
0.0
 10
14.01093449058892
 20
-139.153842704646
 30
0.0
 10
2.618766286758584
 20
-138.9563989801817
 30
0.0
 10
-9.363835270646764
 20
-138.4228947366731
 30
0.0
 10
-19.31433612270134
 20
-137.7610293870561
 30
0.0
 10
-29.18754006543819
 20
-136.8992183817407
 30
0.0
 10
-35.65379447753631
 20
-136.1335626890245
 30
0.0
 10
-38.89087295633841
 20
-135.7502669807043
 30
0.0
  0
SPLINE
  5
122
330
113
100
AcDbEntity
  8
0
  6
Continuous
 62
     7
370
    25
100
AcDbSpline
210
0.0
220
0.0
230
1.0
 70
     8
 71
     3
 72
    15
 73
    11
 74
     0
 42
0.000000001
 43
0.00000001
 40
0.0
 40
0.0
 40
0.0
 40
0.0
 40
0.1402934381544872
 40
0.2790763740137328
 40
0.4148906237179677
 40
0.5468420294995483
 40
0.6741913915832316
 40
0.7961501441939838
 40
0.9121460232659301
 40
1.0
 40
1.0
 40
1.0
 40
1.0
 10
-16.79378604932793
 20
-151.5180381864067
 30
0.0
 10
-19.70390644093369
 20
-151.1215592437096
 30
0.0
 10
-25.49281472856467
 20
-150.3328701420934
 30
0.0
 10
-33.65651687835981
 20
-148.8414068569655
 30
0.0
 10
-41.26183013849925
 20
-147.1672839114702
 30
0.0
 10
-48.16652319821605
 20
-145.3160447480959
 30
0.0
 10
-54.29113957892234
 20
-143.3250718504355
 30
0.0
 10
-59.49521990425084
 20
-141.2173239201616
 30
0.0
 10
-63.55825668942126
 20
-139.1835593803621
 30
0.0
 10
-65.40805045104807
 20
-137.7902484836825
 30
0.0
 10
-66.20526336765388
 20
-137.1897677886326
 30
0.0
  0
SPLINE
  5
123
330
113
100
AcDbEntity
  8
0
  6
Continuous
 62
     7
370
    25
100
AcDbSpline
210
0.0
220
0.0
230
1.0
 70
     8
 71
     3
 72
    21
 73
    17
 74
     0
 42
0.000000001
 43
0.00000001
 40
0.0
 40
0.0
 40
0.0
 40
0.0
 40
0.0101827815300515
 40
0.0713928618251794
 40
0.1326029421202926
 40
0.1952312990712843
 40
0.260293864423389
 40
0.328643614242403
 40
0.4008299447768106
 40
0.4770252638336726
 40
0.5571374724854186
 40
0.6407906621787998
 40
0.7274668401945289
 40
0.8166804413282844
 40
0.9078441116418181
 40
1.0
 40
1.0
 40
1.0
 40
1.0
 10
69.44958217340087
 20
-142.8854459774415
 30
0.0
 10
69.43560059929258
 20
-143.0011524749908
 30
0.0
 10
69.33757388768474
 20
-143.8123864160745
 30
0.0
 10
67.96272234248522
 20
-145.276900754881
 30
0.0
 10
65.16628432493926
 20
-147.1671698067776
 30
0.0
 10
61.09687891901864
 20
-148.8539133115264
 30
0.0
 10
56.02400181588349
 20
-150.3188863662287
 30
0.0
 10
50.01908107522159
 20
-151.5429121958444
 30
0.0
 10
43.2011894351597
 20
-152.5115026395486
 30
0.0
 10
35.68167174215228
 20
-153.2141376445461
 30
0.0
 10
27.58390845213161
 20
-153.638737619234
 30
0.0
 10
19.04324122675525
 20
-153.7841386391028
 30
0.0
 10
10.19028992793647
 20
-153.6495128241192
 30
0.0
 10
1.164597817869796
 20
-153.2284905709648
 30
0.0
 10
-7.917784962764753
 20
-152.5471066610526
 30
0.0
 10
-13.82446237994247
 20
-151.862296524073
 30
0.0
 10
-16.79378604932794
 20
-151.5180381864067
 30
0.0
  0
LINE
  5
124
330
113
100
AcDbEntity
  8
0
  6
Continuous
 62
     7
370
    25
100
AcDbLine
 10
-132.1378194799
 20
-108.1699845107
 30
0.0
 11
-131.3375390885
 21
-108.6658495651
 31
0.0
  0
LINE
  5
125
330
113
100
AcDbEntity
  8
0
  6
Continuous
 62
     7
370
    25
100
AcDbLine
 10
134.1327836054
 20
-120.729333347
 30
0.0
 11
134.5297488771
 21
-120.5275436263
 31
0.0
  0
VIEWPORT
  5
136
330
113
100
AcDbEntity
  8
0
100
AcDbViewport
 10
0.0
 20
0.0
 30
0.0
 40
205.6
 41
156.0
 68
     1
 69
     1
 12
0.0
 22
0.0
 13
0.0
 23
0.0
 14
10.0
 24
10.0
 15
10.0
 25
10.0
 16
0.0
 26
0.0
 36
1.0
 17
0.0
 27
0.0
 37
0.0
 42
50.0
 43
0.0
 44
0.0
 45
371.486381323
 50
0.0
 51
0.0
 72
   100
 90
   557152
  1

281
     0
 71
     1
 74
     0
110
0.0
120
0.0
130
0.0
111
1.0
121
0.0
131
0.0
112
0.0
122
1.0
132
0.0
 79
     0
146
0.0
  0
ENDBLK
  5
116
330
113
100
AcDbEntity
  8
0
100
AcDbBlockEnd
  0
ENDSEC
  0
SECTION
  2
ENTITIES
  0
SPLINE
  5
73
330
1F
100
AcDbEntity
  8
0
  6
Continuous
 62
     7
370
    25
100
AcDbSpline
210
0.0
220
0.0
230
1.0
 70
    11
 71
     3
 72
    35
 73
    31
 74
     0
 42
0.000000001
 43
0.00000001
 40
0.0
 40
0.0
 40
0.0
 40
0.0
 40
0.0062500000000001
 40
0.0083333333333333
 40
0.0416666666666666
 40
0.0833333333333334
 40
0.1249999999999999
 40
0.1666666666666666
 40
0.2083333333333334
 40
0.2499999999999998
 40
0.2916666666666666
 40
0.3333333333333334
 40
0.3750000000000001
 40
0.4166666666666666
 40
0.4583333333333334
 40
0.500000000000984
 40
0.5416666666666667
 40
0.5833333333333333
 40
0.625
 40
0.6666666666666667
 40
0.7083333333333333
 40
0.7499999999999999
 40
0.7916666666666666
 40
0.8333333333333334
 40
0.875
 40
0.9166666666666666
 40
0.9583333333333334
 40
0.9916666666666667
 40
0.99375
 40
1.0
 40
1.0
 40
1.0
 40
1.0
 10
-0.0000000000000054
 20
-33.0
 30
0.0
 10
-0.4388568511917394
 20
-33.0
 30
0.0
 10
-1.023999319447374
 20
-32.98756784255959
 30
0.0
 10
-3.946321791925901
 20
-32.84426857135493
 30
0.0
 10
-9.317081241428124
 20
-31.94578056316644
 30
0.0
 10
-16.87630028773804
 20
-28.79005539188281
 30
0.0
 10
-23.6195160317794
 20
-23.6195160317794
 30
0.0
 10
-28.79005539188281
 20
-16.87630028773805
 30
0.0
 10
-32.17118950397242
 20
-8.77713702383455
 30
0.0
 10
-33.41440524801379
 20
0.0000000000000061
 30
0.0
 10
-32.17118950397243
 20
8.777137023834559
 30
0.0
 10
-28.79005539188281
 20
16.87630028773805
 30
0.0
 10
-23.6195160317794
 20
23.61951603177941
 30
0.0
 10
-16.87630028773804
 20
28.79005539188281
 30
0.0
 10
-8.77713702383455
 20
32.17118950397243
 30
0.0
 10
0.0000000000000139
 20
33.4144052480138
 30
0.0
 10
8.777137023834563
 20
32.17118950397244
 30
0.0
 10
16.87630028773805
 20
28.79005539188281
 30
0.0
 10
23.61951603177941
 20
23.6195160317794
 30
0.0
 10
28.79005539188282
 20
16.87630028773805
 30
0.0
 10
32.17118950397244
 20
8.777137023834559
 30
0.0
 10
33.4144052480138
 20
0.0000000000000104
 30
0.0
 10
32.17118950397243
 20
-8.777137023834557
 30
0.0
 10
28.79005539188281
 20
-16.87630028773805
 30
0.0
 10
23.6195160317794
 20
-23.61951603177941
 30
0.0
 10
16.87630028773805
 20
-28.79005539188281
 30
0.0
 10
9.317081241428115
 20
-31.94578056316646
 30
0.0
 10
3.946321791925883
 20
-32.84426857135495
 30
0.0
 10
1.023999319447356
 20
-32.98756784255959
 30
0.0
 10
0.4388568511917208
 20
-33.0
 30
0.0
 10
-0.0000000000000054
 20
-33.0
 30
0.0
  0
LWPOLYLINE
  5
74
330
1F
100
AcDbEntity
  8
0
  6
Continuous
 62
     7
370
    25
100
AcDbPolyline
 90
       85
 70
   128
 43
0.0
 10
0.0
 20
-160.0
 10
21.1894629335
 20
-159.3696677479
 10
42.1791088904
 20
-157.5018482985
 10
62.7691211739
 20
-154.4313075804
 10
82.7819305187
 20
-150.1903187074
 10
102.1228265609
 20
-144.8018704884
 10
116.79874426
 20
-139.7766795546
 10
130.9726481071
 20
-134.0679976069
 10
144.5726711492
 20
-127.7026796322
 10
157.512471372
 20
-120.7144535671
 10
169.7056274848
 20
-113.1370849898
 10
181.7326395727
 20
-104.4990837676
 10
192.7621221624
 20
-95.3050844378
 10
202.7336487087
 20
-85.6238241951
 10
211.5873482377
 20
-75.523520197
 10
219.2817041987
 20
-65.0552091141
 10
225.7973200014
 20
-54.2492224341
 10
230.8447410475
 20
-43.7775818979
 10
234.8122329984
 20
-33.0592918302
 10
237.6774622592
 20
-22.147219981
 10
239.4151496853
 20
-11.1059176188
 10
240.0
 20
0.0
 10
239.3423979446
 20
11.77757711
 10
237.3897109683
 20
23.4780643371
 10
234.1721178559
 20
35.0243717983
 10
229.7196386577
 20
46.3400392311
 10
224.0570493031
 20
57.3694071699
 10
217.2028057326
 20
68.0818843739
 10
209.6650193319
 20
77.8658295067
 10
201.1019964103
 20
87.3150987381
 10
191.5540194482
 20
96.3817807661
 10
181.0716803506
 20
105.008314248
 10
169.7056274848
 20
113.1370849898
 10
156.7486256514
 20
121.1550930485
 10
142.9576266567
 20
128.5080814416
 10
128.4357362926
 20
135.1557658058
 10
113.2852802953
 20
141.0582321585
 10
97.5828136709
 20
146.1878027992
 10
81.3738336509
 20
150.5315466677
 10
61.6795021161
 20
154.6257189426
 10
41.4351722595
 20
157.5894729356
 10
20.8122373842
 20
159.3918788075
 10
-0.0000000005
 20
160.0
 10
-21.189462934
 20
159.3696677479
 10
-42.1791088909
 20
157.5018482984
 10
-62.7691211743
 20
154.4313075803
 10
-82.781930519
 20
150.1903187073
 10
-102.122826561
 20
144.8018704884
 10
-116.7987442601
 20
139.7766795546
 10
-130.9726481072
 20
134.0679976069
 10
-144.5726711492
 20
127.7026796322
 10
-157.512471372
 20
120.7144535671
 10
-169.7056274848
 20
113.1370849898
 10
-181.7326395727
 20
104.4990837676
 10
-192.7621221624
 20
95.3050844378
 10
-202.7336487087
 20
85.6238241951
 10
-211.5873482377
 20
75.523520197
 10
-219.2817041987
 20
65.0552091141
 10
-225.7973200014
 20
54.2492224341
 10
-230.8447410475
 20
43.7775818979
 10
-234.8122329984
 20
33.0592918302
 10
-237.6774622592
 20
22.147219981
 10
-239.4151496853
 20
11.1059176188
 10
-240.0
 20
0.0
 10
-239.3423979446
 20
-11.77757711
 10
-237.3897109683
 20
-23.4780643371
 10
-234.1721178559
 20
-35.0243717983
 10
-229.7196386577
 20
-46.3400392311
 10
-224.0570493031
 20
-57.3694071699
 10
-217.2028057326
 20
-68.0818843739
 10
-209.6650193319
 20
-77.8658295066
 10
-201.1019964103
 20
-87.3150987381
 10
-191.5540194482
 20
-96.3817807661
 10
-181.0716803506
 20
-105.008314248
 10
-169.7056274848
 20
-113.1370849898
 10
-156.7486256514
 20
-121.1550930485
 10
-142.9576266567
 20
-128.5080814416
 10
-128.4357362927
 20
-135.1557658058
 10
-113.2852802954
 20
-141.0582321585
 10
-97.5828136711
 20
-146.1878027991
 10
-81.3738336512
 20
-150.5315466676
 10
-61.6795021165
 20
-154.6257189425
 10
-41.43517226
 20
-157.5894729356
 10
-20.8122373847
 20
-159.3918788075
 10
0.0
 20
-160.0
  0
SPLINE
  5
75
330
1F
100
AcDbEntity
  8
0
  6
Continuous
 62
     7
370
    25
100
AcDbSpline
210
0.0
220
0.0
230
1.0
 70
    11
 71
     3
 72
    35
 73
    31
 74
     0
 42
0.000000001
 43
0.00000001
 40
0.0
 40
0.0
 40
0.0
 40
0.0
 40
0.0062500000000001
 40
0.0083333333333333
 40
0.0416666666666666
 40
0.0833333333333334
 40
0.1249999999999999
 40
0.1666666666666666
 40
0.2083333333333334
 40
0.2499999999999998
 40
0.2916666666666666
 40
0.3333333333333334
 40
0.3750000000000001
 40
0.4166666666666666
 40
0.4583333333333334
 40
0.500000000000984
 40
0.5416666666666667
 40
0.5833333333333333
 40
0.625
 40
0.6666666666666667
 40
0.7083333333333333
 40
0.7499999999999999
 40
0.7916666666666666
 40
0.8333333333333334
 40
0.875
 40
0.9166666666666666
 40
0.9583333333333334
 40
0.9916666666666667
 40
0.99375
 40
1.0
 40
1.0
 40
1.0
 40
1.0
 10
-0.0000000000000027
 20
-23.00000000000001
 30
0.0
 10
-0.3058699265881809
 20
-23.00000000000001
 30
0.0
 10
-0.7136964953724115
 20
-22.99133516299608
 30
0.0
 10
-2.750466703463506
 20
-22.89145991336859
 30
0.0
 10
-6.493723289480209
 20
-22.26524099857056
 30
0.0
 10
-11.76226989751439
 20
-20.06579618222134
 30
0.0
 10
-16.46208693124019
 20
-16.46208693124019
 30
0.0
 10
-20.06579618222134
 20
-11.7622698975144
 30
0.0
 10
-22.42234419973835
 20
-6.117398531763476
 30
0.0
 10
-23.28882790013082
 20
0.0000000000000037
 30
0.0
 10
-22.42234419973835
 20
6.117398531763483
 30
0.0
 10
-20.06579618222134
 20
11.7622698975144
 30
0.0
 10
-16.46208693124019
 20
16.46208693124019
 30
0.0
 10
-11.76226989751439
 20
20.06579618222134
 30
0.0
 10
-6.117398531763476
 20
22.42234419973835
 30
0.0
 10
0.0000000000000115
 20
23.28882790013082
 30
0.0
 10
6.117398531763484
 20
22.42234419973835
 30
0.0
 10
11.7622698975144
 20
20.06579618222135
 30
0.0
 10
16.46208693124019
 20
16.46208693124019
 30
0.0
 10
20.06579618222135
 20
11.76226989751439
 30
0.0
 10
22.42234419973835
 20
6.117398531763478
 30
0.0
 10
23.28882790013082
 20
0.0000000000000054
 30
0.0
 10
22.42234419973836
 20
-6.117398531763477
 30
0.0
 10
20.06579618222136
 20
-11.7622698975144
 30
0.0
 10
16.4620869312402
 20
-16.4620869312402
 30
0.0
 10
11.7622698975144
 20
-20.06579618222136
 30
0.0
 10
6.493723289480202
 20
-22.26524099857057
 30
0.0
 10
2.750466703463496
 20
-22.8914599133686
 30
0.0
 10
0.7136964953724005
 20
-22.99133516299608
 30
0.0
 10
0.3058699265881702
 20
-23.00000000000001
 30
0.0
 10
-0.0000000000000027
 20
-23.00000000000001
 30
0.0
  0
SPLINE
  5
76
330
1B
100
AcDbEntity
 67
     1
  8
0
  6
Continuous
 62
     7
370
    25
100
AcDbSpline
210
0.0
220
0.0
230
1.0
 70
     8
 71
     3
 72
    15
 73
    11
 74
     0
 42
0.000000001
 43
0.00000001
 40
0.0
 40
0.0
 40
0.0
 40
0.0
 40
0.1202818190421224
 40
0.2459558947868443
 40
0.3716298518563816
 40
0.4973039124822723
 40
0.6229779622763525
 40
0.7486520099374084
 40
0.8743259496212178
 40
1.0
 40
1.0
 40
1.0
 40
1.0
 10
170.7239671026238
 20
-90.03570115756094
 30
0.0
 10
174.2869438244527
 20
-87.12357475365448
 30
0.0
 10
181.5726261885948
 20
-81.16877076823774
 30
0.0
 10
191.8506955411025
 20
-71.33151271691105
 30
0.0
 10
201.6896919546713
 20
-60.78090113772515
 30
0.0
 10
210.8465861772481
 20
-49.62962756815571
 30
0.0
 10
219.3058924840017
 20
-37.94043750480603
 30
0.0
 10
227.0126298342553
 20
-25.74485581704207
 30
0.0
 10
234.0115735477411
 20
-13.12210813058902
 30
0.0
 10
238.0038572631729
 20
-4.374037327761759
 30
0.0
 10
240.0000000000001
 20
0.0
 30
0.0
  0
SPLINE
  5
77
330
1B
100
AcDbEntity
 67
     1
  8
0
  6
Continuous
 62
     7
370
    25
100
AcDbSpline
210
0.0
220
0.0
230
1.0
 70
     8
 71
     3
 72
    15
 73
    11
 74
     0
 42
0.000000001
 43
0.00000001
 40
0.0
 40
0.0
 40
0.0
 40
0.0
 40
0.1257037916645181
 40
0.2514074726078673
 40
0.377111261554014
 40
0.5028150526336896
 40
0.6285188545477419
 40
0.7542225528809333
 40
0.8799263699173923
 40
1.0
 40
1.0
 40
1.0
 40
1.0
 10
-240.0000000000001
 20
0.0
 30
0.0
 10
-238.0038572781101
 20
-4.374037344937881
 30
0.0
 10
-234.0115735925528
 20
-13.12210818211738
 30
0.0
 10
-227.0126296550087
 20
-25.74485561092903
 30
0.0
 10
-219.3058931561764
 20
-37.94043827773059
 30
0.0
 10
-210.8465836677958
 20
-49.62962468257078
 30
0.0
 10
-201.6897013203043
 20
-60.78091190713793
 30
0.0
 10
-191.8506605880405
 20
-71.33147252486465
 30
0.0
 10
-181.5792976992189
 20
-81.16265503695472
 30
0.0
 10
-174.3006974503333
 20
-87.11181543972157
 30
0.0
 10
-170.7447651870265
 20
-90.01825496001597
 30
0.0
  0
SPLINE
  5
7A
330
1B
100
AcDbEntity
 67
     1
  8
0
  6
Continuous
 62
     7
370
    25
100
AcDbSpline
210
0.0
220
0.0
230
1.0
 70
     8
 71
     3
 72
    13
 73
     9
 74
     0
 42
0.000000001
 43
0.00000001
 40
0.0
 40
0.0
 40
0.0
 40
0.0
 40
0.1677574888791683
 40
0.3355148236977269
 40
0.5032723202514912
 40
0.6710297938920046
 40
0.8387873063615915
 40
1.0
 40
1.0
 40
1.0
 40
1.0
 10
72.49999999999991
 20
-135.8126410968587
 30
0.0
 10
77.24172484978745
 20
-134.7516990883535
 30
0.0
 10
86.72517019478478
 20
-132.6298160456624
 30
0.0
 10
100.6634495594956
 20
-128.330946259041
 30
0.0
 10
114.3257134078645
 20
-123.2390786222864
 30
0.0
 10
127.6296372014992
 20
-117.2738352783764
 30
0.0
 10
140.4083689675652
 20
-110.6428347662014
 30
0.0
 10
148.4922849648973
 20
-105.599159341209
 30
0.0
 10
152.4538287426603
 20
-103.1274932571566
 30
0.0
  0
SPLINE
  5
7B
330
1B
100
AcDbEntity
 67
     1
  8
0
  6
Continuous
 62
     7
370
    25
100
AcDbSpline
210
0.0
220
0.0
230
1.0
 70
     8
 71
     3
 72
    13
 73
     9
 74
     0
 42
0.000000001
 43
0.00000001
 40
0.0
 40
0.0
 40
0.0
 40
0.0
 40
0.1610866170121031
 40
0.3288693448146463
 40
0.4966520337822794
 40
0.6644347456666072
 40
0.8322172957914206
 40
1.0
 40
1.0
 40
1.0
 40
1.0
 10
-152.442664782501
 20
-103.1342596685632
 30
0.0
 10
-148.4848006288841
 20
-105.6035985594241
 30
0.0
 10
-140.4045502939504
 20
-110.6449227750897
 30
0.0
 10
-127.6296242425324
 20
-117.2738129871623
 30
0.0
 10
-114.3257168790168
 20
-123.2390845931478
 30
0.0
 10
-100.6634486338562
 20
-128.3309446668129
 30
0.0
 10
-86.725170426195
 20
-132.6298164437196
 30
0.0
 10
-77.2417249269243
 20
-134.7516992210392
 30
0.0
 10
-72.50000000000007
 20
-135.8126410968587
 30
0.0
  0
SPLINE
  5
7E
330
1B
100
AcDbEntity
 67
     1
  8
0
  6
Continuous
 62
     7
370
    25
100
AcDbSpline
210
0.0
220
0.0
230
1.0
 70
    24
 71
     3
 72
    31
 73
    27
 74
     0
 42
0.000000001
 43
0.00000001
 40
0.0
 40
0.0
 40
0.0
 40
0.0
 40
0.0642350534367912
 40
0.129104839560368
 40
0.1942902776606789
 40
0.2601358688703926
 40
0.2985876723337935
 40
0.3371143903258074
 40
0.3759087710296792
 40
0.4147877877436212
 40
0.4540277200192963
 40
0.4933680206070107
 40
0.5330138647036341
 40
0.5727879558661618
 40
0.6068913255622919
 40
0.6409932314918066
 40
0.6755367651403416
 40
0.7100778716958086
 40
0.7535907153376199
 40
0.7905311217641912
 40
0.8277027125043661
 40
0.8651269115946902
 40
0.9028411038231304
 40
0.9398823508191195
 40
0.9772520538757603
 40
0.9999999999999999
 40
0.9999999999999999
 40
0.9999999999999999
 40
0.9999999999999999
 10
-0.00000000000019
 20
-90.0
 30
0.0
 10
5.03150797795093
 20
-90.0
 30
0.0
 10
15.14424231044906
 20
-90.0
 30
0.0
 10
30.28927871965331
 20
-90.00000000000001
 30
0.0
 10
45.41229746242177
 20
-90.0
 30
0.0
 10
58.30049501292911
 20
-90.00000000000004
 30
0.0
 10
68.97592200155982
 20
-90.0
 30
0.0
 10
77.50141833800463
 20
-89.99999999999996
 30
0.0
 10
85.90838082780998
 20
-90.00000000000001
 30
0.0
 10
94.19336903186075
 20
-89.99999999999994
 30
0.0
 10
102.3172655715274
 20
-89.99999999999997
 30
0.0
 10
110.2630215906321
 20
-90.0
 30
0.0
 10
117.9773288723441
 20
-90.00000000000001
 30
0.0
 10
125.0541140333903
 20
-90.00000000000004
 30
0.0
 10
131.4853211206662
 20
-89.99999999999997
 30
0.0
 10
137.3141846252351
 20
-89.99999999999997
 30
0.0
 10
142.8410772662587
 20
-89.99999999999997
 30
0.0
 10
148.4716690855221
 20
-89.99999999999996
 30
0.0
 10
153.7065357023606
 20
-90.00000000000003
 30
0.0
 10
158.4388042694346
 20
-89.99999999999997
 30
0.0
 10
162.3264791481261
 20
-90.0
 30
0.0
 10
165.571299441014
 20
-89.99999999999999
 30
0.0
 10
168.0980827797791
 20
-90.0
 30
0.0
 10
169.8180086889596
 20
-89.99999999999999
 30
0.0
 10
170.7311846558304
 20
-90.00000000000003
 30
0.0
 10
170.704222052156
 20
-90.0
 30
0.0
 10
170.6940196596123
 20
-90.0
 30
0.0
  0
SPLINE
  5
7F
330
1B
100
AcDbEntity
 67
     1
  8
0
  6
Continuous
 62
     7
370
    25
100
AcDbSpline
210
0.0
220
0.0
230
1.0
 70
    24
 71
     3
 72
    29
 73
    25
 74
     0
 42
0.000000001
 43
0.00000001
 40
0.0
 40
0.0
 40
0.0
 40
0.0
 40
0.0266286023858269
 40
0.062005567016733
 40
0.0976733927160291
 40
0.1304740690148285
 40
0.1634764734203293
 40
0.1966644807258559
 40
0.2300318521538339
 40
0.2675418705071088
 40
0.305254790287287
 40
0.3420296485445466
 40
0.3789532027313268
 40
0.4153149728410365
 40
0.4760798320848392
 40
0.537319817493277
 40
0.5991909997278412
 40
0.6618788263975841
 40
0.7241618812285475
 40
0.787078889182843
 40
0.8503037197516602
 40
0.914145710951145
 40
0.9570269176984835
 40
1.0
 40
1.0
 40
1.0
 40
1.0
 10
-170.729452255679
 20
-90.0
 30
0.0
 10
-170.7148521998475
 20
-90.0
 30
0.0
 10
-170.6808554948313
 20
-90.00000000000001
 30
0.0
 10
-169.7368060566448
 20
-89.99999999999994
 30
0.0
 10
-168.1130724212844
 20
-90.00000000000003
 30
0.0
 10
-165.8666878918483
 20
-89.99999999999997
 30
0.0
 10
-163.1170506261999
 20
-90.00000000000001
 30
0.0
 10
-159.8150784446915
 20
-89.99999999999997
 30
0.0
 10
-155.8441521480102
 20
-90.00000000000001
 30
0.0
 10
-151.1710411856037
 20
-90.00000000000004
 30
0.0
 10
-145.8316202199262
 20
-89.99999999999996
 30
0.0
 10
-140.0656938356381
 20
-90.00000000000001
 30
0.0
 10
-133.9749599408912
 20
-89.99999999999999
 30
0.0
 10
-126.1315426604854
 20
-90.00000000000001
 30
0.0
 10
-116.2628046714538
 20
-90.00000000000003
 30
0.0
 10
-104.0910845269913
 20
-90.0
 30
0.0
 10
-91.20800357364533
 20
-90.00000000000003
 30
0.0
 10
-77.76971309530555
 20
-89.99999999999993
 30
0.0
 10
-63.86372116930139
 20
-90.0
 30
0.0
 10
-49.60850930898278
 20
-90.00000000000001
 30
0.0
 10
-35.00091898247095
 20
-89.99999999999996
 30
0.0
 10
-21.78792750352245
 20
-90.00000000000001
 30
0.0
 10
-10.08973746045153
 20
-89.99999999999997
 30
0.0
 10
-3.365644379325792
 20
-90.0
 30
0.0
 10
-0.00000000000019
 20
-90.0
 30
0.0
  0
SPLINE
  5
80
330
1B
100
AcDbEntity
 67
     1
  8
0
  6
Continuous
 62
     7
370
    25
100
AcDbSpline
210
0.0
220
0.0
230
1.0
 70
    24
 71
     3
 72
    15
 73
    11
 74
     0
 42
0.000000001
 43
0.00000001
 40
0.7499999999999999
 40
0.7499999999999999
 40
0.7499999999999999
 40
0.7499999999999999
 40
0.7916666666666666
 40
0.8333333333333334
 40
0.875
 40
0.9166666666666666
 40
0.9583333333333334
 40
0.9916666666666667
 40
0.99375
 40
1.0
 40
1.0
 40
1.0
 40
1.0
 10
240.0000000000001
 20
0.0
 30
0.0
 10
239.9999999999989
 20
0.0
 30
0.0
 10
234.3653754005922
 20
0.0
 30
0.0
 10
210.3843271333237
 20
0.0
 30
0.0
 10
171.6977681166116
 20
0.0
 30
0.0
 10
121.058365308858
 20
0.0
 30
0.0
 10
67.02268480654146
 20
0.0
 30
0.0
 10
28.3970088970638
 20
0.0
 30
0.0
 10
7.369015889910234
 20
0.0
 30
0.0
 10
3.158149667104208
 20
0.0
 30
0.0
 10
-0.0000000000003118
 20
0.0
 30
0.0
  0
SPLINE
  5
82
330
1B
100
AcDbEntity
 67
     1
  8
0
  6
Continuous
 62
     7
370
    25
100
AcDbSpline
210
0.0
220
0.0
230
1.0
 70
     8
 71
     3
 72
    29
 73
    25
 74
     0
 42
0.000000001
 43
0.00000001
 40
0.0
 40
0.0
 40
0.0
 40
0.0
 40
0.041212880300034
 40
0.0824949972122712
 40
0.1239890173966174
 40
0.1655554428697293
 40
0.2428358578082288
 40
0.2817113530192752
 40
0.320656659458846
 40
0.3885464993717891
 40
0.456885397172093
 40
0.5148171187631266
 40
0.5731278634162885
 40
0.62240844163099
 40
0.672011973955408
 40
0.7145193865798598
 40
0.7573082346674088
 40
0.8011027589863764
 40
0.845304911901359
 40
0.8780810321845226
 40
0.9110668016425492
 40
0.9447481605067289
 40
0.9786848378591735
 40
0.9999999999999999
 40
0.9999999999999999
 40
0.9999999999999999
 40
0.9999999999999999
 10
-0.0000000000001487
 20
-107.6058209720354
 30
0.0
 10
-2.851170239954666
 20
-107.6005370777243
 30
0.0
 10
-8.558300614838078
 20
-107.5899604122911
 30
0.0
 10
-17.12163778491833
 20
-107.5124799045891
 30
0.0
 10
-25.6805965252452
 20
-107.3984149652393
 30
0.0
 10
-36.65943290281374
 20
-107.2047928974572
 30
0.0
 10
-47.35525156622947
 20
-106.9563840867496
 30
0.0
 10
-57.70760797023059
 20
-106.6663620648354
 30
0.0
 10
-67.3119236064478
 20
-106.3701670841485
 30
0.0
 10
-78.62493507485146
 20
-105.9832009614431
 30
0.0
 10
-90.72820865879018
 20
-105.5377249424846
 30
0.0
 10
-101.7372581925453
 20
-105.1181781330376
 30
0.0
 10
-111.1058571666883
 20
-104.7446800491978
 30
0.0
 10
-119.4560932055073
 20
-104.4018274720641
 30
0.0
 10
-126.4323598543537
 20
-104.1171968354755
 30
0.0
 10
-132.5242871712895
 20
-103.872169539042
 30
0.0
 10
-137.7806691911857
 20
-103.6621377702288
 30
0.0
 10
-142.4324132181655
 20
-103.4781697690987
 30
0.0
 10
-146.0130027687935
 20
-103.339182678974
 30
0.0
 10
-148.6339104961472
 20
-103.2408997403574
 30
0.0
 10
-150.4846158748056
 20
-103.1760671598569
 30
0.0
 10
-151.7628175730097
 20
-103.1360259293945
 30
0.0
 10
-152.4416526221894
 20
-103.1190095820627
 30
0.0
 10
-152.4358845284564
 20
-103.1192808201453
 30
0.0
 10
-152.4336593020333
 20
-103.1193854589005
 30
0.0
  0
SPLINE
  5
83
330
1B
100
AcDbEntity
 67
     1
  8
0
  6
Continuous
 62
     7
370
    25
100
AcDbSpline
210
0.0
220
0.0
230
1.0
 70
     8
 71
     3
 72
    30
 73
    26
 74
     0
 42
0.000000001
 43
0.00000001
 40
0.0
 40
0.0
 40
0.0
 40
0.0
 40
0.0249488059530155
 40
0.0577033994351545
 40
0.0911884379423209
 40
0.1249158819148897
 40
0.1572846671085405
 40
0.1898437739151907
 40
0.2229522466663705
 40
0.2562296689011557
 40
0.3024916103793082
 40
0.3491143305988316
 40
0.3953635345584709
 40
0.4418775594681673
 40
0.4891208029989262
 40
0.5365764499325726
 40
0.5916222429648029
 40
0.6469279006272776
 40
0.6855747372286033
 40
0.7242952920650353
 40
0.8022125650377542
 40
0.8513518404198176
 40
0.9006148613655804
 40
0.9502467003487641
 40
0.9999999999999999
 40
0.9999999999999999
 40
0.9999999999999999
 40
0.9999999999999999
 10
152.4487503406603
 20
-103.1190743291231
 30
0.0
 10
152.4366374325705
 20
-103.1192581186413
 30
0.0
 10
152.408621824323
 20
-103.1196832003067
 30
0.0
 10
151.677173136584
 20
-103.1385519627607
 30
0.0
 10
150.3622816524933
 20
-103.1801278226442
 30
0.0
 10
148.4664172530769
 20
-103.2470216538438
 30
0.0
 10
146.0717950220575
 20
-103.3371426335894
 30
0.0
 10
143.2153189070191
 20
-103.4477392547845
 30
0.0
 10
139.8844208251941
 20
-103.5788079842227
 30
0.0
 10
135.6211820028521
 20
-103.7482727711321
 30
0.0
 10
130.2721430513941
 20
-103.9624165266399
 30
0.0
 10
123.7365252375079
 20
-104.2267454396146
 30
0.0
 10
116.6427053531054
 20
-104.5174107386531
 30
0.0
 10
109.0496355993921
 20
-104.8277785065128
 30
0.0
 10
100.9856203833437
 20
-105.1462380535324
 30
0.0
 10
92.06739227313291
 20
-105.4866632709201
 30
0.0
 10
82.31552871118863
 20
-105.8482423396243
 30
0.0
 10
72.81550671399725
 20
-106.1838954426321
 30
0.0
 10
64.17799539538959
 20
-106.4680916733166
 30
0.0
 10
53.9207450751447
 20
-106.7802227624339
 30
0.0
 10
42.76396344823609
 20
-107.0711861165066
 30
0.0
 10
30.74495628258654
 20
-107.3156291716923
 30
0.0
 10
20.57764776737011
 20
-107.4730822173761
 30
0.0
 10
10.3183377500492
 20
-107.5827670095756
 30
0.0
 10
3.442247055031818
 20
-107.5981300593801
 30
0.0
 10
-0.0000000000001487
 20
-107.6058209720354
 30
0.0
  0
SPLINE
  5
84
330
1B
100
AcDbEntity
 67
     1
  8
0
  6
Continuous
 62
     7
370
    25
100
AcDbSpline
210
0.0
220
0.0
230
1.0
 70
     8
 71
     3
 72
    15
 73
    11
 74
     0
 42
0.000000001
 43
0.00000001
 40
0.0
 40
0.0
 40
0.0
 40
0.0
 40
0.0062500000000001
 40
0.0083333333333333
 40
0.0416666666666666
 40
0.0833333333333334
 40
0.1249999999999999
 40
0.1666666666666666
 40
0.2083333333333334
 40
0.2499999999999998
 40
0.2499999999999998
 40
0.2499999999999998
 40
0.2499999999999998
 10
-0.0000000000000557
 20
-137.9182254667157
 30
0.0
 10
-0.948946230158175
 20
-137.9182254667158
 30
0.0
 10
-2.214207870368964
 20
-137.9164708130743
 30
0.0
 10
-8.533165992046417
 20
-137.8965847384702
 30
0.0
 10
-20.14618518501956
 20
-137.7739539450781
 30
0.0
 10
-36.48783333103652
 20
-137.3918293742528
 30
0.0
 10
-51.62741250441481
 20
-136.8654332817889
 30
0.0
 10
-63.29250172470201
 20
-136.3390371893246
 30
0.0
 10
-70.71629710975579
 20
-135.9296180062964
 30
0.0
 10
-72.49999999999717
 20
-135.8126410968592
 30
0.0
 10
-72.50000000000007
 20
-135.8126410968587
 30
0.0
  0
LWPOLYLINE
  5
85
330
1B
100
AcDbEntity
 67
     1
  8
0
  6
Continuous
 62
     7
370
    25
100
AcDbPolyline
 90
       13
 70
   128
 43
0.0
 10
72.5
 20
-135.8126410969
 10
71.8436711583
 20
-135.854070419
 10
69.9249236015
 20
-135.9686103094
 10
66.8171174405
 20
-136.1416386546
 10
62.5856194188
 20
-136.3585333409
 10
57.299211619
 20
-136.6046722545
 10
51.0483308456
 20
-136.8654332818
 10
43.935876678
 20
-137.1261943091
 10
36.092945072
 20
-137.3723332227
 10
27.653392604
 20
-137.5892279089
 10
18.7339219573
 20
-137.7622562541
 10
9.4588369708
 20
-137.8767961446
 10
0.0
 20
-137.9182254667
  0
SPLINE
  5
86
330
1B
100
AcDbEntity
 67
     1
  8
0
  6
Continuous
 62
     7
370
    25
100
AcDbSpline
210
0.0
220
0.0
230
1.0
 70
    24
 71
     3
 72
    15
 73
    11
 74
     0
 42
0.000000001
 43
0.00000001
 40
0.0
 40
0.0
 40
0.0
 40
0.0
 40
0.0062500000000001
 40
0.0083333333333333
 40
0.0416666666666666
 40
0.0833333333333334
 40
0.1249999999999999
 40
0.1666666666666666
 40
0.2083333333333334
 40
0.2499999999999998
 40
0.2499999999999998
 40
0.2499999999999998
 40
0.2499999999999998
 10
-0.0000000000000507
 20
-145.0
 30
0.0
 10
-0.9444689330694114
 20
-145.0
 30
0.0
 10
-2.203760843828514
 20
-145.0
 30
0.0
 10
-8.493155587964182
 20
-144.9999999999999
 30
0.0
 10
-20.05447311001473
 20
-145.0
 30
0.0
 10
-36.36579539082463
 20
-145.0
 30
0.0
 10
-51.48195175334339
 20
-145.0
 30
0.0
 10
-63.18175680753657
 20
-145.0
 30
0.0
 10
-70.68520104248397
 20
-145.0
 30
0.0
 10
-72.49999999999545
 20
-145.0
 30
0.0
 10
-72.50000000000006
 20
-145.0
 30
0.0
  0
LINE
  5
88
330
1B
100
AcDbEntity
 67
     1
  8
0
  6
Continuous
 62
     7
370
    25
100
AcDbLine
 10
-152.5
 20
-90.0
 30
0.0
 11
-152.5
 21
-103.1193854589
 31
0.0
  0
LINE
  5
89
330
1B
100
AcDbEntity
 67
     1
  8
0
  6
Continuous
 62
     7
370
    25
100
AcDbLine
 10
152.5
 20
-103.1190743291
 30
0.0
 11
152.5
 21
-90.0
 31
0.0
  0
LINE
  5
8A
330
1B
100
AcDbEntity
 67
     1
  8
0
  6
Continuous
 62
     7
370
    25
100
AcDbLine
 10
72.5
 20
-145.0
 30
0.0
 11
72.5
 21
-135.8126410969
 31
0.0
  0
LINE
  5
8B
330
1B
100
AcDbEntity
 67
     1
  8
0
  6
Continuous
 62
     7
370
    25
100
AcDbLine
 10
-72.5
 20
-135.8126410969
 30
0.0
 11
-72.5
 21
-145.0
 31
0.0
  0
LINE
  5
8C
330
1B
100
AcDbEntity
 67
     1
  8
0
  6
Continuous
 62
     7
370
    25
100
AcDbLine
 10
-240.0
 20
0.0
 30
0.0
 11
0.0
 21
0.0
 31
0.0
  0
LINE
  5
8D
330
1B
100
AcDbEntity
 67
     1
  8
0
  6
Continuous
 62
     7
370
    25
100
AcDbLine
 10
72.5
 20
-145.0
 30
0.0
 11
0.0
 21
-145.0
 31
0.0
  0
VIEWPORT
  5
126
330
1B
100
AcDbEntity
 67
     1
  8
0
100
AcDbViewport
 10
0.0
 20
0.0
 30
0.0
 40
205.6
 41
156.0
 68
     1
 69
     1
 12
0.0
 22
0.0
 13
0.0
 23
0.0
 14
10.0
 24
10.0
 15
10.0
 25
10.0
 16
0.0
 26
0.0
 36
1.0
 17
0.0
 27
0.0
 37
0.0
 42
50.0
 43
0.0
 44
0.0
 45
371.486381323
 50
0.0
 51
0.0
 72
   100
 90
   557152
  1

281
     0
 71
     1
 74
     0
110
0.0
120
0.0
130
0.0
111
1.0
121
0.0
131
0.0
112
0.0
122
1.0
132
0.0
 79
     0
146
0.0
  0
ENDSEC
  0
SECTION
  2
OBJECTS
  0
DICTIONARY
  5
C
330
0
100
AcDbDictionary
281
     1
  3
ACAD_GROUP
350
D
  3
ACAD_LAYOUT
350
1A
  3
ACAD_MLINESTYLE
350
17
  3
ACAD_PLOTSETTINGS
350
19
  3
ACAD_PLOTSTYLENAME
350
E
  3
ACAD_SCALELIST
350
47
  0
DICTIONARY
  5
D
102
{ACAD_REACTORS
330
C
102
}
330
C
100
AcDbDictionary
281
     1
  0
DICTIONARY
  5
1A
102
{ACAD_REACTORS
330
C
102
}
330
C
100
AcDbDictionary
281
     1
  3
_Dimetrisch
350
114
  3
_Isometrisch
350
F3
  3
_Links
350
26
  3
_Normal auf
350
A2
  3
_Rechts
350
D3
  3
_Rückseite
350
BE
  3
_Trimetrisch
350
104
  3
_Unten
350
E9
  3
_Vorderseite
350
1E
  3
Model
350
22
  0
DICTIONARY
  5
17
102
{ACAD_REACTORS
330
C
102
}
330
C
100
AcDbDictionary
281
     1
  3
Standard
350
18
  0
DICTIONARY
  5
19
102
{ACAD_REACTORS
330
C
102
}
330
C
100
AcDbDictionary
281
     1
  0
ACDBDICTIONARYWDFLT
  5
E
102
{ACAD_REACTORS
330
C
102
}
330
C
100
AcDbDictionary
281
     1
  3
Normal
350
F
100
AcDbDictionaryWithDefault
340
F
  0
DICTIONARY
  5
47
102
{ACAD_REACTORS
330
C
102
}
330
C
100
AcDbDictionary
281
     1
  3
A0
350
48
  3
A1
350
49
  3
A2
350
4A
  3
A3
350
4B
  3
A4
350
4C
  3
A5
350
4D
  3
A6
350
4E
  3
A7
350
4F
  3
A8
350
50
  3
A9
350
51
  3
B0
350
52
  3
B1
350
53
  3
B2
350
54
  3
B3
350
55
  3
B4
350
56
  3
B5
350
57
  3
B6
350
58
  3
B7
350
59
  3
B8
350
5A
  3
B9
350
5B
  3
C0
350
5C
  3
C1
350
5D
  3
C2
350
5E
  3
C3
350
5F
  3
C4
350
60
  3
C5
350
61
  3
C6
350
62
  3
C7
350
63
  3
C8
350
64
  3
C9
350
65
  3
D0
350
66
  3
D1
350
67
  3
D2
350
68
  0
LAYOUT
  5
114
102
{ACAD_REACTORS
330
1A
102
}
330
1A
100
AcDbPlotSettings
  1

  2
none_device
  4
ISO_A4_(210.00_x_297.00_MM)
  6

 40
7.5
 41
20.0
 42
7.5
 43
20.0
 44
210.0
 45
297.0
 46
0.0
 47
0.0
 48
0.0
 49
0.0
140
0.0
141
0.0
142
1.0
143
1.8677042802
 70
   688
 72
     1
 73
     1
 74
     1
  7

 75
     0
147
0.5354166667
148
240.0
149
145.0
100
AcDbLayout
  1
_Dimetrisch
 70
     1
 71
     9
 10
0.0
 20
0.0
 11
0.0
 21
0.0
 12
0.0
 22
0.0
 32
0.0
 14
0.0
 24
0.0
 34
0.0
 15
0.0
 25
0.0
 35
0.0
146
0.0
 13
0.0
 23
0.0
 33
0.0
 16
1.0
 26
0.0
 36
0.0
 17
0.0
 27
1.0
 37
0.0
 76
     0
330
113
331
136
  0
LAYOUT
  5
F3
102
{ACAD_REACTORS
330
1A
102
}
330
1A
100
AcDbPlotSettings
  1

  2
none_device
  4
ISO_A4_(210.00_x_297.00_MM)
  6

 40
7.5
 41
20.0
 42
7.5
 43
20.0
 44
210.0
 45
297.0
 46
0.0
 47
0.0
 48
0.0
 49
0.0
140
0.0
141
0.0
142
1.0
143
1.8677042802
 70
   688
 72
     1
 73
     1
 74
     1
  7

 75
     0
147
0.5354166667
148
240.0
149
145.0
100
AcDbLayout
  1
_Isometrisch
 70
     1
 71
     7
 10
0.0
 20
0.0
 11
0.0
 21
0.0
 12
0.0
 22
0.0
 32
0.0
 14
0.0
 24
0.0
 34
0.0
 15
0.0
 25
0.0
 35
0.0
146
0.0
 13
0.0
 23
0.0
 33
0.0
 16
1.0
 26
0.0
 36
0.0
 17
0.0
 27
1.0
 37
0.0
 76
     0
330
F2
331
132
  0
LAYOUT
  5
26
102
{ACAD_REACTORS
330
1A
102
}
330
1A
100
AcDbPlotSettings
  1

  2
none_device
  4
ISO_A4_(210.00_x_297.00_MM)
  6

 40
7.5
 41
20.0
 42
7.5
 43
20.0
 44
210.0
 45
297.0
 46
0.0
 47
0.0
 48
0.0
 49
0.0
140
0.0
141
0.0
142
1.0
143
1.8677042802
 70
   688
 72
     1
 73
     1
 74
     1
  7

 75
     0
147
0.5354166667
148
240.0
149
145.0
100
AcDbLayout
  1
_Links
 70
     1
 71
     2
 10
0.0
 20
0.0
 11
0.0
 21
0.0
 12
0.0
 22
0.0
 32
0.0
 14
0.0
 24
0.0
 34
0.0
 15
0.0
 25
0.0
 35
0.0
146
0.0
 13
0.0
 23
0.0
 33
0.0
 16
1.0
 26
0.0
 36
0.0
 17
0.0
 27
1.0
 37
0.0
 76
     0
330
23
331
128
  0
LAYOUT
  5
A2
102
{ACAD_REACTORS
330
1A
102
}
330
1A
100
AcDbPlotSettings
  1

  2
none_device
  4
ISO_A4_(210.00_x_297.00_MM)
  6

 40
7.5
 41
20.0
 42
7.5
 43
20.0
 44
210.0
 45
297.0
 46
0.0
 47
0.0
 48
0.0
 49
0.0
140
0.0
141
0.0
142
1.0
143
1.8677042802
 70
   688
 72
     1
 73
     1
 74
     1
  7

 75
     0
147
0.5354166667
148
240.0
149
145.0
100
AcDbLayout
  1
_Normal auf
 70
     1
 71
     3
 10
0.0
 20
0.0
 11
0.0
 21
0.0
 12
0.0
 22
0.0
 32
0.0
 14
0.0
 24
0.0
 34
0.0
 15
0.0
 25
0.0
 35
0.0
146
0.0
 13
0.0
 23
0.0
 33
0.0
 16
1.0
 26
0.0
 36
0.0
 17
0.0
 27
1.0
 37
0.0
 76
     0
330
A1
331
12A
  0
LAYOUT
  5
D3
102
{ACAD_REACTORS
330
1A
102
}
330
1A
100
AcDbPlotSettings
  1

  2
none_device
  4
ISO_A4_(210.00_x_297.00_MM)
  6

 40
7.5
 41
20.0
 42
7.5
 43
20.0
 44
210.0
 45
297.0
 46
0.0
 47
0.0
 48
0.0
 49
0.0
140
0.0
141
0.0
142
1.0
143
1.8677042802
 70
   688
 72
     1
 73
     1
 74
     1
  7

 75
     0
147
0.5354166667
148
240.0
149
145.0
100
AcDbLayout
  1
_Rechts
 70
     1
 71
     5
 10
0.0
 20
0.0
 11
0.0
 21
0.0
 12
0.0
 22
0.0
 32
0.0
 14
0.0
 24
0.0
 34
0.0
 15
0.0
 25
0.0
 35
0.0
146
0.0
 13
0.0
 23
0.0
 33
0.0
 16
1.0
 26
0.0
 36
0.0
 17
0.0
 27
1.0
 37
0.0
 76
     0
330
D2
331
12E
  0
LAYOUT
  5
BE
102
{ACAD_REACTORS
330
1A
102
}
330
1A
100
AcDbPlotSettings
  1

  2
none_device
  4
ISO_A4_(210.00_x_297.00_MM)
  6

 40
7.5
 41
20.0
 42
7.5
 43
20.0
 44
210.0
 45
297.0
 46
0.0
 47
0.0
 48
0.0
 49
0.0
140
0.0
141
0.0
142
1.0
143
1.8677042802
 70
   688
 72
     1
 73
     1
 74
     1
  7

 75
     0
147
0.5354166667
148
240.0
149
145.0
100
AcDbLayout
  1
_Rückseite
 70
     1
 71
     4
 10
0.0
 20
0.0
 11
0.0
 21
0.0
 12
0.0
 22
0.0
 32
0.0
 14
0.0
 24
0.0
 34
0.0
 15
0.0
 25
0.0
 35
0.0
146
0.0
 13
0.0
 23
0.0
 33
0.0
 16
1.0
 26
0.0
 36
0.0
 17
0.0
 27
1.0
 37
0.0
 76
     0
330
BD
331
12C
  0
LAYOUT
  5
104
102
{ACAD_REACTORS
330
1A
102
}
330
1A
100
AcDbPlotSettings
  1

  2
none_device
  4
ISO_A4_(210.00_x_297.00_MM)
  6

 40
7.5
 41
20.0
 42
7.5
 43
20.0
 44
210.0
 45
297.0
 46
0.0
 47
0.0
 48
0.0
 49
0.0
140
0.0
141
0.0
142
1.0
143
1.8677042802
 70
   688
 72
     1
 73
     1
 74
     1
  7

 75
     0
147
0.5354166667
148
240.0
149
145.0
100
AcDbLayout
  1
_Trimetrisch
 70
     1
 71
     8
 10
0.0
 20
0.0
 11
0.0
 21
0.0
 12
0.0
 22
0.0
 32
0.0
 14
0.0
 24
0.0
 34
0.0
 15
0.0
 25
0.0
 35
0.0
146
0.0
 13
0.0
 23
0.0
 33
0.0
 16
1.0
 26
0.0
 36
0.0
 17
0.0
 27
1.0
 37
0.0
 76
     0
330
103
331
134
  0
LAYOUT
  5
E9
102
{ACAD_REACTORS
330
1A
102
}
330
1A
100
AcDbPlotSettings
  1

  2
none_device
  4
ISO_A4_(210.00_x_297.00_MM)
  6

 40
7.5
 41
20.0
 42
7.5
 43
20.0
 44
210.0
 45
297.0
 46
0.0
 47
0.0
 48
0.0
 49
0.0
140
0.0
141
0.0
142
1.0
143
1.8677042802
 70
   688
 72
     1
 73
     1
 74
     1
  7

 75
     0
147
0.5354166667
148
240.0
149
145.0
100
AcDbLayout
  1
_Unten
 70
     1
 71
     6
 10
0.0
 20
0.0
 11
0.0
 21
0.0
 12
0.0
 22
0.0
 32
0.0
 14
0.0
 24
0.0
 34
0.0
 15
0.0
 25
0.0
 35
0.0
146
0.0
 13
0.0
 23
0.0
 33
0.0
 16
1.0
 26
0.0
 36
0.0
 17
0.0
 27
1.0
 37
0.0
 76
     0
330
E8
331
130
  0
LAYOUT
  5
1E
102
{ACAD_REACTORS
330
1A
102
}
330
1A
100
AcDbPlotSettings
  1

  2
none_device
  4
ISO_A4_(210.00_x_297.00_MM)
  6

 40
7.5
 41
20.0
 42
7.5
 43
20.0
 44
210.0
 45
297.0
 46
0.0
 47
0.0
 48
0.0
 49
0.0
140
0.0
141
0.0
142
1.0
143
1.8677042802
 70
   688
 72
     1
 73
     1
 74
     1
  7

 75
     0
147
0.5354166667
148
240.0
149
145.0
100
AcDbLayout
  1
_Vorderseite
 70
     1
 71
     1
 10
-277.3540856031
 20
-159.0077821012
 11
277.3540856031
 21
233.2101167315
 12
0.0
 22
0.0
 32
0.0
 14
-240.0
 24
-145.0
 34
0.0
 15
240.0
 25
0.0
 35
0.0
146
0.0
 13
0.0
 23
0.0
 33
0.0
 16
1.0
 26
0.0
 36
0.0
 17
0.0
 27
1.0
 37
0.0
 76
     0
330
1B
331
126
  0
LAYOUT
  5
22
102
{ACAD_REACTORS
330
1A
102
}
330
1A
100
AcDbPlotSettings
  1

  2
none_device
  4
ANSI_A_(11.00_x_8.50_Inches)
  6

 40
6.35
 41
19.05
 42
6.35000508
 43
19.05000254
 44
279.4
 45
215.9
 46
133.34999746
 47
88.89999873
 48
0.0
 49
0.0
140
0.0
141
0.0
142
0.0226875
143
1.0
 70
  1696
 72
     0
 73
     0
 74
     0
  7

 75
     0
147
0.0179189148
148
-1300.4909072572
149
0.0
100
AcDbLayout
  1
Model
 70
     1
 71
     0
 10
0.0
 20
0.0
 11
420.0
 21
297.0
 12
0.0
 22
0.0
 32
0.0
 14
-240.0
 24
-160.0
 34
0.0
 15
240.0
 25
160.0
 35
0.0
146
0.0
 13
0.0
 23
0.0
 33
0.0
 16
1.0
 26
0.0
 36
0.0
 17
0.0
 27
1.0
 37
0.0
 76
     0
330
1F
331
29
  0
MLINESTYLE
  5
18
102
{ACAD_REACTORS
330
17
102
}
330
17
100
AcDbMlineStyle
  2
Standard
 70
     0
  3

 62
   256
 51
90.0
 52
90.0
 71
     2
 49
0.5
 62
   256
  6
BYLAYER
 49
-0.5
 62
   256
  6
BYLAYER
  0
ACDBPLACEHOLDER
  5
F
102
{ACAD_REACTORS
330
E
102
}
330
E
  0
SCALE
  5
48
102
{ACAD_REACTORS
330
47
102
}
330
47
100
AcDbScale
 70
     0
300
1:1
140
1.0
141
1.0
290
     1
  0
SCALE
  5
49
102
{ACAD_REACTORS
330
47
102
}
330
47
100
AcDbScale
 70
     0
300
1:2
140
1.0
141
2.0
290
     0
  0
SCALE
  5
4A
102
{ACAD_REACTORS
330
47
102
}
330
47
100
AcDbScale
 70
     0
300
1:4
140
1.0
141
4.0
290
     0
  0
SCALE
  5
4B
102
{ACAD_REACTORS
330
47
102
}
330
47
100
AcDbScale
 70
     0
300
1:5
140
1.0
141
5.0
290
     0
  0
SCALE
  5
4C
102
{ACAD_REACTORS
330
47
102
}
330
47
100
AcDbScale
 70
     0
300
1:8
140
1.0
141
8.0
290
     0
  0
SCALE
  5
4D
102
{ACAD_REACTORS
330
47
102
}
330
47
100
AcDbScale
 70
     0
300
1:10
140
1.0
141
10.0
290
     0
  0
SCALE
  5
4E
102
{ACAD_REACTORS
330
47
102
}
330
47
100
AcDbScale
 70
     0
300
1:16
140
1.0
141
16.0
290
     0
  0
SCALE
  5
4F
102
{ACAD_REACTORS
330
47
102
}
330
47
100
AcDbScale
 70
     0
300
1:20
140
1.0
141
20.0
290
     0
  0
SCALE
  5
50
102
{ACAD_REACTORS
330
47
102
}
330
47
100
AcDbScale
 70
     0
300
1:30
140
1.0
141
30.0
290
     0
  0
SCALE
  5
51
102
{ACAD_REACTORS
330
47
102
}
330
47
100
AcDbScale
 70
     0
300
1:40
140
1.0
141
40.0
290
     0
  0
SCALE
  5
52
102
{ACAD_REACTORS
330
47
102
}
330
47
100
AcDbScale
 70
     0
300
1:50
140
1.0
141
50.0
290
     0
  0
SCALE
  5
53
102
{ACAD_REACTORS
330
47
102
}
330
47
100
AcDbScale
 70
     0
300
1:100
140
1.0
141
100.0
290
     0
  0
SCALE
  5
54
102
{ACAD_REACTORS
330
47
102
}
330
47
100
AcDbScale
 70
     0
300
2:1
140
2.0
141
1.0
290
     0
  0
SCALE
  5
55
102
{ACAD_REACTORS
330
47
102
}
330
47
100
AcDbScale
 70
     0
300
4:1
140
4.0
141
1.0
290
     0
  0
SCALE
  5
56
102
{ACAD_REACTORS
330
47
102
}
330
47
100
AcDbScale
 70
     0
300
8:1
140
8.0
141
1.0
290
     0
  0
SCALE
  5
57
102
{ACAD_REACTORS
330
47
102
}
330
47
100
AcDbScale
 70
     0
300
10:1
140
10.0
141
1.0
290
     0
  0
SCALE
  5
58
102
{ACAD_REACTORS
330
47
102
}
330
47
100
AcDbScale
 70
     0
300
100:1
140
100.0
141
1.0
290
     0
  0
SCALE
  5
59
102
{ACAD_REACTORS
330
47
102
}
330
47
100
AcDbScale
 70
     0
300
1/128" = 1'-0"
140
0.0078125
141
12.0
290
     0
  0
SCALE
  5
5A
102
{ACAD_REACTORS
330
47
102
}
330
47
100
AcDbScale
 70
     0
300
1/64" = 1'-0"
140
0.015625
141
12.0
290
     0
  0
SCALE
  5
5B
102
{ACAD_REACTORS
330
47
102
}
330
47
100
AcDbScale
 70
     0
300
1/32" = 1'-0"
140
0.03125
141
12.0
290
     0
  0
SCALE
  5
5C
102
{ACAD_REACTORS
330
47
102
}
330
47
100
AcDbScale
 70
     0
300
1/16" = 1'-0"
140
0.0625
141
12.0
290
     0
  0
SCALE
  5
5D
102
{ACAD_REACTORS
330
47
102
}
330
47
100
AcDbScale
 70
     0
300
3/32" = 1'-0"
140
0.09375
141
12.0
290
     0
  0
SCALE
  5
5E
102
{ACAD_REACTORS
330
47
102
}
330
47
100
AcDbScale
 70
     0
300
1/8" = 1'-0"
140
0.125
141
12.0
290
     0
  0
SCALE
  5
5F
102
{ACAD_REACTORS
330
47
102
}
330
47
100
AcDbScale
 70
     0
300
3/16" = 1'-0"
140
0.1875
141
12.0
290
     0
  0
SCALE
  5
60
102
{ACAD_REACTORS
330
47
102
}
330
47
100
AcDbScale
 70
     0
300
1/4" = 1'-0"
140
0.25
141
12.0
290
     0
  0
SCALE
  5
61
102
{ACAD_REACTORS
330
47
102
}
330
47
100
AcDbScale
 70
     0
300
3/8" = 1'-0"
140
0.375
141
12.0
290
     0
  0
SCALE
  5
62
102
{ACAD_REACTORS
330
47
102
}
330
47
100
AcDbScale
 70
     0
300
1/2" = 1'-0"
140
0.5
141
12.0
290
     0
  0
SCALE
  5
63
102
{ACAD_REACTORS
330
47
102
}
330
47
100
AcDbScale
 70
     0
300
3/4" = 1'-0"
140
0.75
141
12.0
290
     0
  0
SCALE
  5
64
102
{ACAD_REACTORS
330
47
102
}
330
47
100
AcDbScale
 70
     0
300
1" = 1'-0"
140
1.0
141
12.0
290
     0
  0
SCALE
  5
65
102
{ACAD_REACTORS
330
47
102
}
330
47
100
AcDbScale
 70
     0
300
1-1/2" = 1'-0"
140
1.5
141
12.0
290
     0
  0
SCALE
  5
66
102
{ACAD_REACTORS
330
47
102
}
330
47
100
AcDbScale
 70
     0
300
3" = 1'-0"
140
3.0
141
12.0
290
     0
  0
SCALE
  5
67
102
{ACAD_REACTORS
330
47
102
}
330
47
100
AcDbScale
 70
     0
300
6" = 1'-0"
140
6.0
141
12.0
290
     0
  0
SCALE
  5
68
102
{ACAD_REACTORS
330
47
102
}
330
47
100
AcDbScale
 70
     0
300
1'-0" = 1'-0"
140
12.0
141
12.0
290
     0
  0
ENDSEC
  0
EOF
