  0
SECTION
  2
HEADER
  9
$ACADVER
  1
AC1015
  9
$ACADMAINTVER
 70
     6
  9
$DWGCODEPAGE
  3
ANSI_1252
  9
$INSBASE
 10
0.0
 20
0.0
 30
0.0
  9
$EXTMIN
 10
-500.0
 20
-500.0
 30
0.0
  9
$EXTMAX
 10
500.0
 20
500.0
 30
0.0
  9
$LIMMIN
 10
0.0
 20
0.0
  9
$LIMMAX
 10
420.0
 20
297.0
  9
$ORTHOMODE
 70
     0
  9
$REGENMODE
 70
     1
  9
$FILLMODE
 70
     1
  9
$QTEXTMODE
 70
     0
  9
$MIRRTEXT
 70
     1
  9
$LTSCALE
 40
1.0
  9
$ATTMODE
 70
     1
  9
$TEXTSIZE
 40
3.5
  9
$TRACEWID
 40
1.0
  9
$TEXTSTYLE
  7
STANDARD
  9
$CLAYER
  8
0
  9
$CELTYPE
  6
ByLayer
  9
$CECOLOR
 62
   256
  9
$CELTSCALE
 40
1.0
  9
$DISPSILH
 70
     0
  9
$DIMSCALE
 40
1.0
  9
$DIMASZ
 40
6.0
  9
$DIMEXO
 40
1.0
  9
$DIMDLI
 40
3.75
  9
$DIMRND
 40
0.0
  9
$DIMDLE
 40
0.0
  9
$DIMEXE
 40
1.0
  9
$DIMTP
 40
0.0
  9
$DIMTM
 40
0.0
  9
$DIMTXT
 40
3.5
  9
$DIMCEN
 40
2.5
  9
$DIMTSZ
 40
0.0
  9
$DIMTOL
 70
     0
  9
$DIMLIM
 70
     0
  9
$DIMTIH
 70
     1
  9
$DIMTOH
 70
     1
  9
$DIMSE1
 70
     0
  9
$DIMSE2
 70
     0
  9
$DIMTAD
 70
     1
  9
$DIMZIN
 70
     0
  9
$DIMBLK
  1

  9
$DIMASO
 70
     1
  9
$DIMSHO
 70
     1
  9
$DIMPOST
  1

  9
$DIMAPOST
  1

  9
$DIMALT
 70
     0
  9
$DIMALTD
 70
     3
  9
$DIMALTF
 40
0.0393700787
  9
$DIMLFAC
 40
1.0
  9
$DIMTOFL
 70
     1
  9
$DIMTVP
 40
0.0
  9
$DIMTIX
 70
     0
  9
$DIMSOXD
 70
     0
  9
$DIMSAH
 70
     0
  9
$DIMBLK1
  1

  9
$DIMBLK2
  1

  9
$DIMSTYLE
  2
ISO-25
  9
$DIMCLRD
 70
     0
  9
$DIMCLRE
 70
     0
  9
$DIMCLRT
 70
     0
  9
$DIMTFAC
 40
1.0
  9
$DIMGAP
 40
1.524
  9
$DIMJUST
 70
     0
  9
$DIMSD1
 70
     0
  9
$DIMSD2
 70
     0
  9
$DIMTOLJ
 70
     0
  9
$DIMTZIN
 70
     0
  9
$DIMALTZ
 70
     0
  9
$DIMALTTZ
 70
     0
  9
$DIMUPT
 70
     0
  9
$DIMDEC
 70
     2
  9
$DIMTDEC
 70
     2
  9
$DIMALTU
 70
     2
  9
$DIMALTTD
 70
     3
  9
$DIMTXSTY
  7
STANDARD
  9
$DIMAUNIT
 70
     0
  9
$DIMADEC
 70
     2
  9
$DIMALTRND
 40
0.0
  9
$DIMAZIN
 70
     0
  9
$DIMDSEP
 70
    44
  9
$DIMATFIT
 70
     3
  9
$DIMFRAC
 70
     0
  9
$DIMLDRBLK
  1

  9
$DIMLUNIT
 70
     2
  9
$DIMLWD
 70
    -2
  9
$DIMLWE
 70
    -2
  9
$DIMTMOVE
 70
     0
  9
$LUNITS
 70
     2
  9
$LUPREC
 70
     2
  9
$SKETCHINC
 40
1.0
  9
$FILLETRAD
 40
10.0
  9
$AUNITS
 70
     0
  9
$AUPREC
 70
     2
  9
$MENU
  1
.
  9
$ELEVATION
 40
0.0
  9
$PELEVATION
 40
0.0
  9
$THICKNESS
 40
0.0
  9
$LIMCHECK
 70
     0
  9
$CHAMFERA
 40
0.0
  9
$CHAMFERB
 40
0.0
  9
$CHAMFERC
 40
0.0
  9
$CHAMFERD
 40
0.0
  9
$SKPOLY
 70
     0
  9
$TDCREATE
 40
2458227.692274849
  9
$TDUCREATE
 40
2458227.608941516
  9
$TDUPDATE
 40
2458227.692313785
  9
$TDUUPDATE
 40
2458227.608980451
  9
$TDINDWG
 40
0.0000000116
  9
$TDUSRTIMER
 40
0.0000000116
  9
$USRTIMER
 70
     1
  9
$ANGBASE
 50
0.0
  9
$ANGDIR
 70
     0
  9
$PDMODE
 70
     0
  9
$PDSIZE
 40
-1.0
  9
$PLINEWID
 40
0.0
  9
$SPLFRAME
 70
     0
  9
$SPLINETYPE
 70
     6
  9
$SPLINESEGS
 70
     8
  9
$HANDSEED
  5
1BF
  9
$SURFTAB1
 70
     6
  9
$SURFTAB2
 70
     6
  9
$SURFTYPE
 70
     6
  9
$SURFU
 70
     6
  9
$SURFV
 70
     6
  9
$UCSBASE
  2

  9
$UCSNAME
  2

  9
$UCSORG
 10
0.0
 20
0.0
 30
0.0
  9
$UCSXDIR
 10
1.0
 20
0.0
 30
0.0
  9
$UCSYDIR
 10
0.0
 20
1.0
 30
0.0
  9
$UCSORTHOREF
  2

  9
$UCSORTHOVIEW
 70
     0
  9
$UCSORGTOP
 10
0.0
 20
0.0
 30
0.0
  9
$UCSORGBOTTOM
 10
0.0
 20
0.0
 30
0.0
  9
$UCSORGLEFT
 10
0.0
 20
0.0
 30
0.0
  9
$UCSORGRIGHT
 10
0.0
 20
0.0
 30
0.0
  9
$UCSORGFRONT
 10
0.0
 20
0.0
 30
0.0
  9
$UCSORGBACK
 10
0.0
 20
0.0
 30
0.0
  9
$PUCSBASE
  2

  9
$PUCSNAME
  2

  9
$PUCSORG
 10
0.0
 20
0.0
 30
0.0
  9
$PUCSXDIR
 10
1.0
 20
0.0
 30
0.0
  9
$PUCSYDIR
 10
0.0
 20
1.0
 30
0.0
  9
$PUCSORTHOREF
  2

  9
$PUCSORTHOVIEW
 70
     0
  9
$PUCSORGTOP
 10
0.0
 20
0.0
 30
0.0
  9
$PUCSORGBOTTOM
 10
0.0
 20
0.0
 30
0.0
  9
$PUCSORGLEFT
 10
0.0
 20
0.0
 30
0.0
  9
$PUCSORGRIGHT
 10
0.0
 20
0.0
 30
0.0
  9
$PUCSORGFRONT
 10
0.0
 20
0.0
 30
0.0
  9
$PUCSORGBACK
 10
0.0
 20
0.0
 30
0.0
  9
$USERI1
 70
     0
  9
$USERI2
 70
     0
  9
$USERI3
 70
     0
  9
$USERI4
 70
     0
  9
$USERI5
 70
     0
  9
$USERR1
 40
0.0
  9
$USERR2
 40
0.0
  9
$USERR3
 40
0.0
  9
$USERR4
 40
0.0
  9
$USERR5
 40
0.0
  9
$WORLDVIEW
 70
     1
  9
$SHADEDGE
 70
     3
  9
$SHADEDIF
 70
    70
  9
$TILEMODE
 70
     1
  9
$MAXACTVP
 70
    64
  9
$PINSBASE
 10
0.0
 20
0.0
 30
0.0
  9
$PLIMCHECK
 70
     0
  9
$PEXTMIN
 10
-500.0
 20
0.0
 30
0.0
  9
$PEXTMAX
 10
500.0
 20
50.0
 30
0.0
  9
$PLIMMIN
 10
-577.8210116732
 20
-29.1828793774
  9
$PLIMMAX
 10
577.8210116732
 20
787.9377431907
  9
$UNITMODE
 70
     0
  9
$VISRETAIN
 70
     1
  9
$PLINEGEN
 70
     0
  9
$PSLTSCALE
 70
     1
  9
$TREEDEPTH
 70
  3020
  9
$CMLSTYLE
  2
Standard
  9
$CMLJUST
 70
     0
  9
$CMLSCALE
 40
20.0
  9
$PROXYGRAPHICS
 70
     1
  9
$MEASUREMENT
 70
     1
  9
$CELWEIGHT
370
    -1
  9
$ENDCAPS
280
     0
  9
$JOINSTYLE
280
     0
  9
$LWDISPLAY
290
     1
  9
$INSUNITS
 70
     4
  9
$HYPERLINKBASE
  1

  9
$STYLESHEET
  1

  9
$XEDIT
290
     1
  9
$CEPSNTYPE
380
     0
  9
$PSTYLEMODE
290
     1
  9
$FINGERPRINTGUID
  2
{424896C9-9C91-4869-A37E-556EA531B621}
  9
$VERSIONGUID
  2
{FAEB1C32-E019-11D5-929B-00C0DF256EC4}
  9
$EXTNAMES
290
     1
  9
$PSVPSCALE
 40
0.0
  9
$OLESTARTUP
290
     0
  0
ENDSEC
  0
SECTION
  2
CLASSES
  0
CLASS
  1
ACDBDICTIONARYWDFLT
  2
AcDbDictionaryWithDefault
  3
ObjectDBX Classes
 90
        0
280
     0
281
     0
  0
CLASS
  1
VISUALSTYLE
  2
AcDbVisualStyle
  3
ObjectDBX Classes
 90
     4095
280
     0
281
     0
  0
CLASS
  1
MATERIAL
  2
AcDbMaterial
  3
ObjectDBX Classes
 90
     1153
280
     0
281
     0
  0
CLASS
  1
SCALE
  2
AcDbScale
  3
ObjectDBX Classes
 90
     1153
280
     0
281
     0
  0
CLASS
  1
TABLESTYLE
  2
AcDbTableStyle
  3
ObjectDBX Classes
 90
     4095
280
     0
281
     0
  0
CLASS
  1
MLEADERSTYLE
  2
AcDbMLeaderStyle
  3
ACDB_MLEADERSTYLE_CLASS
 90
     4095
280
     0
281
     0
  0
CLASS
  1
SUN
  2
AcDbSun
  3
SCENEOE
 90
     1153
280
     0
281
     0
  0
CLASS
  1
ACDBPLACEHOLDER
  2
AcDbPlaceHolder
  3
ObjectDBX Classes
 90
        0
280
     0
281
     0
  0
CLASS
  1
LAYOUT
  2
AcDbLayout
  3
ObjectDBX Classes
 90
        0
280
     0
281
     0
  0
ENDSEC
  0
SECTION
  2
TABLES
  0
TABLE
  2
VPORT
  5
8
330
0
100
AcDbSymbolTable
 70
     1
  0
VPORT
  5
29
330
8
100
AcDbSymbolTableRecord
100
AcDbViewportTableRecord
  2
*Active
 70
     0
 10
0.0
 20
0.0
 11
1.0
 21
1.0
 12
0.0
 22
0.0
 13
0.0
 23
0.0
 14
10.0
 24
10.0
 15
10.0
 25
10.0
 16
0.0
 26
0.0
 36
1.0
 17
0.0
 27
0.0
 37
0.0
 40
1020.0
 41
1.0
 42
50.0
 43
0.0
 44
0.0
 50
0.0
 51
0.0
 71
     0
 72
   100
 73
     1
 74
     3
 75
     0
 76
     0
 77
     0
 78
     0
281
     0
 65
     1
110
0.0
120
0.0
130
0.0
111
1.0
121
0.0
131
0.0
112
0.0
122
1.0
132
0.0
 79
     0
146
0.0
  0
ENDTAB
  0
TABLE
  2
LTYPE
  5
5
330
0
100
AcDbSymbolTable
 70
     6
  0
LTYPE
  5
14
330
5
100
AcDbSymbolTableRecord
100
AcDbLinetypeTableRecord
  2
ByBlock
 70
     0
  3

 72
    65
 73
     0
 40
0.0
  0
LTYPE
  5
15
330
5
100
AcDbSymbolTableRecord
100
AcDbLinetypeTableRecord
  2
ByLayer
 70
     0
  3

 72
    65
 73
     0
 40
0.0
  0
LTYPE
  5
16
330
5
100
AcDbSymbolTableRecord
100
AcDbLinetypeTableRecord
  2
Continuous
 70
     0
  3
Solid line
 72
    65
 73
     0
 40
0.0
  0
LTYPE
  5
6E
330
5
100
AcDbSymbolTableRecord
100
AcDbLinetypeTableRecord
  2
HIDDEN
 70
     0
  3
Hidden __ __ __ __ __ __ __ __ __ __ __ __ __ __
 72
    65
 73
     2
 40
1.905
 49
1.27
 74
     0
 49
-0.635
 74
     0
  0
LTYPE
  5
6F
330
5
100
AcDbSymbolTableRecord
100
AcDbLinetypeTableRecord
  2
PHANTOM
 70
     0
  3
Phantom ______  __  __  ______  __  __  ______
 72
    65
 73
     6
 40
12.7
 49
6.35
 74
     0
 49
-1.27
 74
     0
 49
1.27
 74
     0
 49
-1.27
 74
     0
 49
1.27
 74
     0
 49
-1.27
 74
     0
  0
LTYPE
  5
70
330
5
100
AcDbSymbolTableRecord
100
AcDbLinetypeTableRecord
  2
CENTER
 70
     0
  3
Center ____ _ ____ _ ____ _ ____ _ ____ _ ____
 72
    65
 73
     4
 40
10.16
 49
6.35
 74
     0
 49
-1.27
 74
     0
 49
1.27
 74
     0
 49
-1.27
 74
     0
  0
LTYPE
  5
71
330
5
100
AcDbSymbolTableRecord
100
AcDbLinetypeTableRecord
  2
CENTERX2
 70
     0
  3
Center (2x) ________  __  ________  __  _____
 72
    65
 73
     4
 40
20.32
 49
12.7
 74
     0
 49
-2.54
 74
     0
 49
2.54
 74
     0
 49
-2.54
 74
     0
  0
LTYPE
  5
72
330
5
100
AcDbSymbolTableRecord
100
AcDbLinetypeTableRecord
  2
DOT2
 70
     0
  3
Dot (.5x) ........................................
 72
    65
 73
     2
 40
0.635
 49
0.0
 74
     0
 49
-0.635
 74
     0
  0
ENDTAB
  0
TABLE
  2
LAYER
  5
2
330
0
100
AcDbSymbolTable
 70
     1
  0
LAYER
  5
10
330
2
100
AcDbSymbolTableRecord
100
AcDbLayerTableRecord
  2
0
 70
     0
 62
     7
  6
Continuous
370
    -3
390
F
  0
ENDTAB
  0
TABLE
  2
STYLE
  5
3
330
0
100
AcDbSymbolTable
 70
     1
  0
STYLE
  5
11
330
3
100
AcDbSymbolTableRecord
100
AcDbTextStyleTableRecord
  2
STANDARD
 70
     0
 40
0.0
 41
1.0
 50
0.0
 71
     0
 42
3.5
  3
GOTHIC.TTF
  4

1001
ACAD
1000
CENTURY GOTHIC
1071
       34
  0
ENDTAB
  0
TABLE
  2
VIEW
  5
6
330
0
100
AcDbSymbolTable
 70
     0
  0
ENDTAB
  0
TABLE
  2
UCS
  5
7
330
0
100
AcDbSymbolTable
 70
     0
  0
ENDTAB
  0
TABLE
  2
APPID
  5
9
330
0
100
AcDbSymbolTable
 70
     1
  0
APPID
  5
12
330
9
100
AcDbSymbolTableRecord
100
AcDbRegAppTableRecord
  2
ACAD
 70
     0
  0
ENDTAB
  0
TABLE
  2
DIMSTYLE
  5
A
330
0
100
AcDbSymbolTable
 70
     1
100
AcDbDimStyleTable
  0
DIMSTYLE
105
27
330
A
100
AcDbSymbolTableRecord
100
AcDbDimStyleTableRecord
  2
ISO-25
 70
     0
 41
2.5
 42
0.625
 43
3.75
 44
1.25
 73
     0
 74
     0
 77
     1
 78
     8
140
2.5
141
2.5
143
0.0393700787
147
0.625
171
     3
172
     1
178
     0
271
     2
272
     2
274
     3
278
    44
283
     0
284
     8
340
11
  0
ENDTAB
  0
TABLE
  2
BLOCK_RECORD
  5
1
330
0
100
AcDbSymbolTable
 70
     8
  0
BLOCK_RECORD
  5
1F
330
1
100
AcDbSymbolTableRecord
100
AcDbBlockTableRecord
  2
*Model_Space
340
22
  0
BLOCK_RECORD
  5
1B
330
1
100
AcDbSymbolTableRecord
100
AcDbBlockTableRecord
  2
*Paper_Space
340
1E
  0
BLOCK_RECORD
  5
23
330
1
100
AcDbSymbolTableRecord
100
AcDbBlockTableRecord
  2
*Paper_Space0
340
26
  0
BLOCK_RECORD
  5
B0
330
1
100
AcDbSymbolTableRecord
100
AcDbBlockTableRecord
  2
*Paper_Space1
340
B1
  0
BLOCK_RECORD
  5
BC
330
1
100
AcDbSymbolTableRecord
100
AcDbBlockTableRecord
  2
*Paper_Space2
340
BD
  0
BLOCK_RECORD
  5
C8
330
1
100
AcDbSymbolTableRecord
100
AcDbBlockTableRecord
  2
*Paper_Space3
340
C9
  0
BLOCK_RECORD
  5
D4
330
1
100
AcDbSymbolTableRecord
100
AcDbBlockTableRecord
  2
*Paper_Space4
340
D5
  0
BLOCK_RECORD
  5
E1
330
1
100
AcDbSymbolTableRecord
100
AcDbBlockTableRecord
  2
*Paper_Space5
340
E2
  0
BLOCK_RECORD
  5
123
330
1
100
AcDbSymbolTableRecord
100
AcDbBlockTableRecord
  2
*Paper_Space6
340
124
  0
BLOCK_RECORD
  5
168
330
1
100
AcDbSymbolTableRecord
100
AcDbBlockTableRecord
  2
*Paper_Space7
340
169
  0
ENDTAB
  0
ENDSEC
  0
SECTION
  2
BLOCKS
  0
BLOCK
  5
20
330
1F
100
AcDbEntity
  8
0
100
AcDbBlockBegin
  2
*Model_Space
 70
     0
 10
0.0
 20
0.0
 30
0.0
  3
*Model_Space
  1

  0
ENDBLK
  5
21
330
1F
100
AcDbEntity
  8
0
100
AcDbBlockEnd
  0
BLOCK
  5
1C
330
1B
100
AcDbEntity
 67
     1
  8
0
100
AcDbBlockBegin
  2
*Paper_Space
 70
     0
 10
0.0
 20
0.0
 30
0.0
  3
*Paper_Space
  1

  0
ENDBLK
  5
1D
330
1B
100
AcDbEntity
 67
     1
  8
0
100
AcDbBlockEnd
  0
BLOCK
  5
24
330
23
100
AcDbEntity
  8
0
100
AcDbBlockBegin
  2
*Paper_Space0
 70
     0
 10
0.0
 20
0.0
 30
0.0
  3
*Paper_Space0
  1

  0
LINE
  5
AC
330
23
100
AcDbEntity
  8
0
  6
Continuous
 62
     7
370
    25
100
AcDbLine
 10
-500.0
 20
50.0
 30
0.0
 11
500.0
 21
50.0
 31
0.0
  0
LINE
  5
AD
330
23
100
AcDbEntity
  8
0
  6
Continuous
 62
     7
370
    25
100
AcDbLine
 10
500.0
 20
50.0
 30
0.0
 11
500.0
 21
0.0
 31
0.0
  0
LINE
  5
AE
330
23
100
AcDbEntity
  8
0
  6
Continuous
 62
     7
370
    25
100
AcDbLine
 10
-500.0
 20
50.0
 30
0.0
 11
-500.0
 21
0.0
 31
0.0
  0
LINE
  5
AF
330
23
100
AcDbEntity
  8
0
  6
Continuous
 62
     7
370
    25
100
AcDbLine
 10
-500.0
 20
0.0
 30
0.0
 11
500.0
 21
0.0
 31
0.0
  0
VIEWPORT
  5
1AF
330
23
100
AcDbEntity
  8
0
100
AcDbViewport
 10
0.0
 20
0.0
 30
0.0
 40
205.6
 41
156.0
 68
     1
 69
     1
 12
0.0
 22
0.0
 13
0.0
 23
0.0
 14
10.0
 24
10.0
 15
10.0
 25
10.0
 16
0.0
 26
0.0
 36
1.0
 17
0.0
 27
0.0
 37
0.0
 42
50.0
 43
0.0
 44
0.0
 45
1020.0
 50
0.0
 51
0.0
 72
   100
 90
   557152
  1

281
     0
 71
     1
 74
     0
110
0.0
120
0.0
130
0.0
111
1.0
121
0.0
131
0.0
112
0.0
122
1.0
132
0.0
 79
     0
146
0.0
  0
ENDBLK
  5
25
330
23
100
AcDbEntity
  8
0
100
AcDbBlockEnd
  0
BLOCK
  5
B2
330
B0
100
AcDbEntity
  8
0
100
AcDbBlockBegin
  2
*Paper_Space1
 70
     0
 10
0.0
 20
0.0
 30
0.0
  3
*Paper_Space1
  1

  0
LINE
  5
B8
330
B0
100
AcDbEntity
  8
0
  6
Continuous
 62
     7
370
    25
100
AcDbLine
 10
-500.0
 20
50.0
 30
0.0
 11
-500.0
 21
0.0
 31
0.0
  0
LINE
  5
B9
330
B0
100
AcDbEntity
  8
0
  6
Continuous
 62
     7
370
    25
100
AcDbLine
 10
-500.0
 20
50.0
 30
0.0
 11
500.0
 21
50.0
 31
0.0
  0
LINE
  5
BA
330
B0
100
AcDbEntity
  8
0
  6
Continuous
 62
     7
370
    25
100
AcDbLine
 10
500.0
 20
50.0
 30
0.0
 11
500.0
 21
0.0
 31
0.0
  0
LINE
  5
BB
330
B0
100
AcDbEntity
  8
0
  6
Continuous
 62
     7
370
    25
100
AcDbLine
 10
-500.0
 20
0.0
 30
0.0
 11
500.0
 21
0.0
 31
0.0
  0
VIEWPORT
  5
1B1
330
B0
100
AcDbEntity
  8
0
100
AcDbViewport
 10
0.0
 20
0.0
 30
0.0
 40
205.6
 41
156.0
 68
     1
 69
     1
 12
0.0
 22
0.0
 13
0.0
 23
0.0
 14
10.0
 24
10.0
 15
10.0
 25
10.0
 16
0.0
 26
0.0
 36
1.0
 17
0.0
 27
0.0
 37
0.0
 42
50.0
 43
0.0
 44
0.0
 45
1020.0
 50
0.0
 51
0.0
 72
   100
 90
   557152
  1

281
     0
 71
     1
 74
     0
110
0.0
120
0.0
130
0.0
111
1.0
121
0.0
131
0.0
112
0.0
122
1.0
132
0.0
 79
     0
146
0.0
  0
ENDBLK
  5
B3
330
B0
100
AcDbEntity
  8
0
100
AcDbBlockEnd
  0
BLOCK
  5
BE
330
BC
100
AcDbEntity
  8
0
100
AcDbBlockBegin
  2
*Paper_Space2
 70
     0
 10
0.0
 20
0.0
 30
0.0
  3
*Paper_Space2
  1

  0
LINE
  5
C4
330
BC
100
AcDbEntity
  8
0
  6
Continuous
 62
     7
370
    25
100
AcDbLine
 10
-500.0
 20
50.0
 30
0.0
 11
-500.0
 21
0.0
 31
0.0
  0
LINE
  5
C5
330
BC
100
AcDbEntity
  8
0
  6
Continuous
 62
     7
370
    25
100
AcDbLine
 10
-500.0
 20
50.0
 30
0.0
 11
500.0
 21
50.0
 31
0.0
  0
LINE
  5
C6
330
BC
100
AcDbEntity
  8
0
  6
Continuous
 62
     7
370
    25
100
AcDbLine
 10
500.0
 20
50.0
 30
0.0
 11
500.0
 21
0.0
 31
0.0
  0
LINE
  5
C7
330
BC
100
AcDbEntity
  8
0
  6
Continuous
 62
     7
370
    25
100
AcDbLine
 10
-500.0
 20
0.0
 30
0.0
 11
500.0
 21
0.0
 31
0.0
  0
VIEWPORT
  5
1B3
330
BC
100
AcDbEntity
  8
0
100
AcDbViewport
 10
0.0
 20
0.0
 30
0.0
 40
205.6
 41
156.0
 68
     1
 69
     1
 12
0.0
 22
0.0
 13
0.0
 23
0.0
 14
10.0
 24
10.0
 15
10.0
 25
10.0
 16
0.0
 26
0.0
 36
1.0
 17
0.0
 27
0.0
 37
0.0
 42
50.0
 43
0.0
 44
0.0
 45
1020.0
 50
0.0
 51
0.0
 72
   100
 90
   557152
  1

281
     0
 71
     1
 74
     0
110
0.0
120
0.0
130
0.0
111
1.0
121
0.0
131
0.0
112
0.0
122
1.0
132
0.0
 79
     0
146
0.0
  0
ENDBLK
  5
BF
330
BC
100
AcDbEntity
  8
0
100
AcDbBlockEnd
  0
BLOCK
  5
CA
330
C8
100
AcDbEntity
  8
0
100
AcDbBlockBegin
  2
*Paper_Space3
 70
     0
 10
0.0
 20
0.0
 30
0.0
  3
*Paper_Space3
  1

  0
LINE
  5
D0
330
C8
100
AcDbEntity
  8
0
  6
Continuous
 62
     7
370
    25
100
AcDbLine
 10
500.0
 20
50.0
 30
0.0
 11
500.0
 21
0.0
 31
0.0
  0
LINE
  5
D1
330
C8
100
AcDbEntity
  8
0
  6
Continuous
 62
     7
370
    25
100
AcDbLine
 10
-500.0
 20
50.0
 30
0.0
 11
500.0
 21
50.0
 31
0.0
  0
LINE
  5
D2
330
C8
100
AcDbEntity
  8
0
  6
Continuous
 62
     7
370
    25
100
AcDbLine
 10
-500.0
 20
50.0
 30
0.0
 11
-500.0
 21
0.0
 31
0.0
  0
LINE
  5
D3
330
C8
100
AcDbEntity
  8
0
  6
Continuous
 62
     7
370
    25
100
AcDbLine
 10
-500.0
 20
0.0
 30
0.0
 11
500.0
 21
0.0
 31
0.0
  0
VIEWPORT
  5
1B5
330
C8
100
AcDbEntity
  8
0
100
AcDbViewport
 10
0.0
 20
0.0
 30
0.0
 40
205.6
 41
156.0
 68
     1
 69
     1
 12
0.0
 22
0.0
 13
0.0
 23
0.0
 14
10.0
 24
10.0
 15
10.0
 25
10.0
 16
0.0
 26
0.0
 36
1.0
 17
0.0
 27
0.0
 37
0.0
 42
50.0
 43
0.0
 44
0.0
 45
1020.0
 50
0.0
 51
0.0
 72
   100
 90
   557152
  1

281
     0
 71
     1
 74
     0
110
0.0
120
0.0
130
0.0
111
1.0
121
0.0
131
0.0
112
0.0
122
1.0
132
0.0
 79
     0
146
0.0
  0
ENDBLK
  5
CB
330
C8
100
AcDbEntity
  8
0
100
AcDbBlockEnd
  0
BLOCK
  5
D6
330
D4
100
AcDbEntity
  8
0
100
AcDbBlockBegin
  2
*Paper_Space4
 70
     0
 10
0.0
 20
0.0
 30
0.0
  3
*Paper_Space4
  1

  0
CIRCLE
  5
DC
330
D4
100
AcDbEntity
  8
0
  6
Continuous
 62
     7
370
    25
100
AcDbCircle
 10
-300.0
 20
-300.0
 30
0.0
 40
45.00000000000023
  0
LINE
  5
DD
330
D4
100
AcDbEntity
  8
0
  6
Continuous
 62
     7
370
    25
100
AcDbLine
 10
-500.0
 20
-500.0
 30
0.0
 11
-500.0
 21
500.0
 31
0.0
  0
LINE
  5
DE
330
D4
100
AcDbEntity
  8
0
  6
Continuous
 62
     7
370
    25
100
AcDbLine
 10
500.0
 20
-500.0
 30
0.0
 11
-500.0
 21
-500.0
 31
0.0
  0
LINE
  5
DF
330
D4
100
AcDbEntity
  8
0
  6
Continuous
 62
     7
370
    25
100
AcDbLine
 10
500.0
 20
500.0
 30
0.0
 11
500.0
 21
-500.0
 31
0.0
  0
LINE
  5
E0
330
D4
100
AcDbEntity
  8
0
  6
Continuous
 62
     7
370
    25
100
AcDbLine
 10
-500.0
 20
500.0
 30
0.0
 11
500.0
 21
500.0
 31
0.0
  0
VIEWPORT
  5
1B7
330
D4
100
AcDbEntity
  8
0
100
AcDbViewport
 10
0.0
 20
0.0
 30
0.0
 40
205.6
 41
156.0
 68
     1
 69
     1
 12
0.0
 22
0.0
 13
0.0
 23
0.0
 14
10.0
 24
10.0
 15
10.0
 25
10.0
 16
0.0
 26
0.0
 36
1.0
 17
0.0
 27
0.0
 37
0.0
 42
50.0
 43
0.0
 44
0.0
 45
1020.0
 50
0.0
 51
0.0
 72
   100
 90
   557152
  1

281
     0
 71
     1
 74
     0
110
0.0
120
0.0
130
0.0
111
1.0
121
0.0
131
0.0
112
0.0
122
1.0
132
0.0
 79
     0
146
0.0
  0
ENDBLK
  5
D7
330
D4
100
AcDbEntity
  8
0
100
AcDbBlockEnd
  0
BLOCK
  5
E3
330
E1
100
AcDbEntity
  8
0
100
AcDbBlockBegin
  2
*Paper_Space5
 70
     0
 10
0.0
 20
0.0
 30
0.0
  3
*Paper_Space5
  1

  0
SPLINE
  5
F9
330
E1
100
AcDbEntity
  8
0
  6
Continuous
 62
     7
370
    25
100
AcDbSpline
210
0.0
220
0.0
230
1.0
 70
     8
 71
     3
 72
    38
 73
    34
 74
     0
 42
0.000000001
 43
0.00000001
 40
0.0
 40
0.0
 40
0.0
 40
0.0
 40
0.1250000000000039
 40
0.1250000000000039
 40
0.1875000000000064
 40
0.1875000000000064
 40
0.2187500000000076
 40
0.2187500000000076
 40
0.2500000000000088
 40
0.2500000000000088
 40
0.3750000000000104
 40
0.3750000000000104
 40
0.4375000000000113
 40
0.4375000000000113
 40
0.4687500000000125
 40
0.4687500000000125
 40
0.5000000000000138
 40
0.5000000000000138
 40
0.625000000000017
 40
0.625000000000017
 40
0.6875000000000177
 40
0.6875000000000177
 40
0.7187500000000171
 40
0.7187500000000171
 40
0.7500000000000164
 40
0.7500000000000164
 40
0.8750000000000091
 40
0.8750000000000091
 40
0.9375000000000046
 40
0.9375000000000046
 40
0.9687500000000023
 40
0.9687500000000023
 40
1.0
 40
1.0
 40
1.0
 40
1.0
 10
0.0000000000005829
 20
221.7978307372229
 30
0.0
 10
3.863825082528444
 20
221.796923217376
 30
0.0
 10
7.6697068199163
 20
221.995297047315
 30
0.0
 10
13.29527938570549
 20
222.5792508986644
 30
0.0
 10
15.15650847645442
 20
222.8219314293003
 30
0.0
 10
17.92710386094962
 20
223.2590401092764
 30
0.0
 10
18.84708919235861
 20
223.416942124948
 30
0.0
 10
20.67985162250893
 20
223.7575432120058
 30
0.0
 10
21.5947464615899
 20
223.9407337621472
 30
0.0
 10
26.11077479078056
 20
224.9111162266431
 30
0.0
 10
29.55630461911316
 20
225.8626577744709
 30
0.0
 10
34.48163262493081
 20
227.5444181401897
 30
0.0
 10
36.08266356249024
 20
228.1476701092914
 30
0.0
 10
38.42184804700802
 20
229.1178076218899
 30
0.0
 10
39.19116754803631
 20
229.4520794916151
 30
0.0
 10
40.70859026949811
 20
230.1428245909425
 30
0.0
 10
41.45390741940908
 20
230.4980912742305
 30
0.0
 10
45.0929151165293
 20
232.3129529704666
 30
0.0
 10
47.74739388169868
 20
233.896926527781
 30
0.0
 10
51.35209752128503
 20
236.4665786889005
 30
0.0
 10
52.49046120444925
 20
237.3556037978905
 30
0.0
 10
54.10072251153888
 20
238.7390617817712
 30
0.0
 10
54.62247375091827
 20
239.2097479261409
 30
0.0
 10
55.62602876651862
 20
240.1616309666687
 30
0.0
 10
56.10749229264312
 20
240.642355940049
 30
0.0
 10
58.41506873197627
 20
243.0694676892558
 30
0.0
 10
59.94423486457023
 20
245.0857348474442
 30
0.0
 10
61.76787650314977
 20
248.2205534715116
 30
0.0
 10
62.29696182596303
 20
249.2840082068734
 30
0.0
 10
62.96872792908525
 20
250.9078035578253
 30
0.0
 10
63.17210077700972
 20
251.4535513341802
 30
0.0
 10
63.53527351527305
 20
252.5478405426877
 30
0.0
 10
63.69543234553326
 20
253.0972103071116
 30
0.0
 10
63.83412033113234
 20
253.6488117091716
 30
0.0
  0
SPLINE
  5
FB
330
E1
100
AcDbEntity
  8
0
  6
Continuous
 62
     7
370
    25
100
AcDbSpline
210
0.0
220
0.0
230
1.0
 70
     8
 71
     3
 72
    38
 73
    34
 74
     0
 42
0.000000001
 43
0.00000001
 40
0.0
 40
0.0
 40
0.0
 40
0.0
 40
0.124999999999993
 40
0.124999999999993
 40
0.1874999999999895
 40
0.1874999999999895
 40
0.2187499999999884
 40
0.2187499999999884
 40
0.2499999999999873
 40
0.2499999999999873
 40
0.3749999999999877
 40
0.3749999999999877
 40
0.437499999999987
 40
0.437499999999987
 40
0.4687499999999866
 40
0.4687499999999866
 40
0.4999999999999863
 40
0.4999999999999863
 40
0.6249999999999869
 40
0.6249999999999869
 40
0.6874999999999872
 40
0.6874999999999872
 40
0.7187499999999883
 40
0.7187499999999883
 40
0.7499999999999893
 40
0.7499999999999893
 40
0.8749999999999943
 40
0.8749999999999943
 40
0.9374999999999968
 40
0.9374999999999968
 40
0.9687499999999984
 40
0.9687499999999984
 40
1.0
 40
1.0
 40
1.0
 40
1.0
 10
-63.834120331131
 20
253.6488117091717
 30
0.0
 10
-63.27940821982342
 20
251.4425645204538
 30
0.0
 10
-62.3903402411714
 20
249.2977062053375
 30
0.0
 10
-60.57624226894437
 20
246.1686676174934
 30
0.0
 10
-59.8909697135818
 20
245.1404589619511
 30
0.0
 10
-58.74041365671559
 20
243.6206844144301
 30
0.0
 10
-58.3364245476061
 20
243.117855204617
 30
0.0
 10
-57.48683730770185
 20
242.119850779721
 30
0.0
 10
-57.0401663663316
 20
241.623631981953
 30
0.0
 10
-54.72270370496729
 20
239.1846922172862
 30
0.0
 10
-52.59198184736008
 20
237.3541720101576
 30
0.0
 10
-48.99409553274048
 20
234.7838366867723
 30
0.0
 10
-47.72744720499972
 20
233.9564804424559
 30
0.0
 10
-45.7243995927222
 20
232.76048582134
 30
0.0
 10
-45.03951292567107
 20
232.3693388571797
 30
0.0
 10
-43.63467351857572
 20
231.6023762632708
 30
0.0
 10
-42.91858517800951
 20
231.2287059049472
 30
0.0
 10
-39.28194032585122
 20
229.4143063745059
 30
0.0
 10
-36.18303871821671
 20
228.1280922312264
 30
0.0
 10
-31.25619960888723
 20
226.4417622777714
 30
0.0
 10
-29.56724819480294
 20
225.9203900087758
 30
0.0
 10
-26.96199076849059
 20
225.2010280215532
 30
0.0
 10
-26.07933205037091
 20
224.9711844629534
 30
0.0
 10
-24.30429329604872
 20
224.5364010218903
 30
0.0
 10
-23.41142180690423
 20
224.3312433342691
 30
0.0
 10
-18.92077299295414
 20
223.3655651732124
 30
0.0
 10
-15.24474561489228
 20
222.7839620631614
 30
0.0
 10
-9.606632404089904
 20
222.1952123232304
 30
0.0
 10
-7.706466828255376
 20
222.0465106541092
 30
0.0
 10
-4.824034250149989
 20
221.8970321587832
 30
0.0
 10
-3.859398385841456
 20
221.859605392084
 30
0.0
 10
-1.930948713302738
 20
221.8099256755768
 30
0.0
 10
-0.9658915326886119
 20
221.7976038724668
 30
0.0
 10
0.0000000000005551
 20
221.797830737223
 30
0.0
  0
SPLINE
  5
FE
330
E1
100
AcDbEntity
  8
0
  6
Continuous
 62
     7
370
    25
100
AcDbSpline
210
0.0
220
0.0
230
1.0
 70
     8
 71
     3
 72
    14
 73
    10
 74
     0
 42
0.000000001
 43
0.00000001
 40
0.0
 40
0.0
 40
0.0
 40
0.0
 40
0.25
 40
0.25
 40
0.5
 40
0.5
 40
0.75
 40
0.75
 40
1.0
 40
1.0
 40
1.0
 40
1.0
 10
63.83412033113237
 20
253.6488117091716
 30
0.0
 10
64.09584262880725
 20
254.6096780316127
 30
0.0
 10
64.29581566096468
 20
255.5751311628642
 30
0.0
 10
64.57544914827731
 20
257.5161655653712
 30
0.0
 10
64.65506773334361
 20
258.4928718430001
 30
0.0
 10
64.69685824416705
 20
260.4521265125076
 30
0.0
 10
64.65904313518652
 20
261.4346509596156
 30
0.0
 10
64.47268276683327
 20
263.4050564917073
 30
0.0
 10
64.32434172656947
 20
264.3916768946291
 30
0.0
 10
64.12617478105572
 20
265.3824150790788
 30
0.0
  0
SPLINE
  5
FF
330
E1
100
AcDbEntity
  8
0
  6
Continuous
 62
     7
370
    25
100
AcDbSpline
210
0.0
220
0.0
230
1.0
 70
     8
 71
     3
 72
    36
 73
    32
 74
     0
 42
0.000000001
 43
0.00000001
 40
0.0
 40
0.0
 40
0.0
 40
0.0
 40
0.0625000000000021
 40
0.0625000000000021
 40
0.1250000000000042
 40
0.1250000000000042
 40
0.1875000000000063
 40
0.1875000000000063
 40
0.2500000000000084
 40
0.2500000000000084
 40
0.2812500000000086
 40
0.2812500000000086
 40
0.3125000000000088
 40
0.3125000000000088
 40
0.3750000000000091
 40
0.3750000000000091
 40
0.5000000000000081
 40
0.5000000000000081
 40
0.5625000000000085
 40
0.5625000000000085
 40
0.6250000000000089
 40
0.6250000000000089
 40
0.7500000000000079
 40
0.7500000000000079
 40
0.7812500000000071
 40
0.7812500000000071
 40
0.8125000000000064
 40
0.8125000000000064
 40
0.8750000000000041
 40
0.8750000000000041
 40
1.0
 40
1.0
 40
1.0
 40
1.0
 10
64.12617478105572
 20
265.382415079079
 30
0.0
 10
63.81265362432109
 20
266.511874067193
 30
0.0
 10
63.4158997496295
 20
267.6384805645146
 30
0.0
 10
62.45729081242391
 20
269.8882438138107
 30
0.0
 10
61.89635849809149
 20
271.0093965949452
 30
0.0
 10
60.61430540241183
 20
273.2361648612229
 30
0.0
 10
59.89335712589358
 20
274.3411792153849
 30
0.0
 10
58.29922764562398
 20
276.5095818984868
 30
0.0
 10
57.4277701927336
 20
277.5705104968147
 30
0.0
 10
56.00934204103933
 20
279.1186657864334
 30
0.0
 10
55.51796550771459
 20
279.6275718880619
 30
0.0
 10
54.49781422221594
 20
280.6302601489542
 30
0.0
 10
53.96872252907994
 20
281.124216250263
 30
0.0
 10
52.33733810404673
 20
282.5718875962423
 30
0.0
 10
51.18734702553255
 20
283.4951957313538
 30
0.0
 10
47.55471876911582
 20
286.1418548714194
 30
0.0
 10
44.89080774000067
 20
287.7428624506283
 30
0.0
 10
40.5245049978982
 20
289.8997923688824
 30
0.0
 10
39.00046830856685
 20
290.5799469825783
 30
0.0
 10
35.88325956354896
 20
291.833409584879
 30
0.0
 10
34.28507837373454
 20
292.4097394587734
 30
0.0
 10
29.37430415717865
 20
293.992871279895
 30
0.0
 10
25.94638179516151
 20
294.8546795635276
 30
0.0
 10
21.46359726525268
 20
295.6929953405263
 30
0.0
 10
20.55482299622821
 20
295.8489697853679
 30
0.0
 10
18.7307864485364
 20
296.1346091842664
 30
0.0
 10
17.81537947673425
 20
296.2643876274286
 30
0.0
 10
15.05913926929003
 20
296.6157604234721
 30
0.0
 10
13.20830656248378
 20
296.7994522761269
 30
0.0
 10
7.616214421548806
 20
297.2058560925478
 30
0.0
 10
3.835676177087022
 20
297.2851273311852
 30
0.0
 10
0.0000000000008049
 20
297.1786730424194
 30
0.0
  0
SPLINE
  5
100
330
E1
100
AcDbEntity
  8
0
  6
Continuous
 62
     7
370
    25
100
AcDbSpline
210
0.0
220
0.0
230
1.0
 70
     8
 71
     3
 72
    12
 73
     8
 74
     0
 42
0.000000001
 43
0.00000001
 40
0.0
 40
0.0
 40
0.0
 40
0.0
 40
0.25
 40
0.25
 40
0.5
 40
0.5
 40
1.0
 40
1.0
 40
1.0
 40
1.0
 10
-64.12617478105432
 20
265.3824150790788
 30
0.0
 10
-64.32431798582309
 20
264.3917955867879
 30
0.0
 10
-64.47252058412897
 20
263.405898263046
 30
0.0
 10
-64.65878483250664
 20
261.4382530499311
 30
0.0
 10
-64.69679601063017
 20
260.4554333497542
 30
0.0
 10
-64.6345088716529
 20
257.5165981542301
 30
0.0
 10
-64.35753153358593
 20
255.5704217580492
 30
0.0
 10
-63.83412033113106
 20
253.6488117091717
 30
0.0
  0
SPLINE
  5
102
330
E1
100
AcDbEntity
  8
0
  6
Continuous
 62
     7
370
    25
100
AcDbSpline
210
0.0
220
0.0
230
1.0
 70
     8
 71
     3
 72
    38
 73
    34
 74
     0
 42
0.000000001
 43
0.00000001
 40
0.0
 40
0.0
 40
0.0
 40
0.0
 40
0.1249999999999969
 40
0.1249999999999969
 40
0.187499999999994
 40
0.187499999999994
 40
0.2187499999999926
 40
0.2187499999999926
 40
0.2499999999999912
 40
0.2499999999999912
 40
0.3749999999999886
 40
0.3749999999999886
 40
0.437499999999988
 40
0.437499999999988
 40
0.4687499999999878
 40
0.4687499999999878
 40
0.4999999999999877
 40
0.4999999999999877
 40
0.5624999999999892
 40
0.5624999999999892
 40
0.6249999999999908
 40
0.6249999999999908
 40
0.6874999999999923
 40
0.6874999999999923
 40
0.7499999999999938
 40
0.7499999999999938
 40
0.8124999999999953
 40
0.8124999999999953
 40
0.8749999999999969
 40
0.8749999999999969
 40
0.9374999999999984
 40
0.9374999999999984
 40
1.0
 40
1.0
 40
1.0
 40
1.0
 10
0.0000000000008049
 20
297.1786730424194
 30
0.0
 10
-3.830250621944642
 20
297.2849767518384
 30
0.0
 10
-7.602977457188076
 20
297.2060026201231
 30
0.0
 10
-13.18022403473193
 20
296.801897105344
 30
0.0
 10
-15.02558312027177
 20
296.6192820947546
 30
0.0
 10
-17.77285561709171
 20
296.2701746469623
 30
0.0
 10
-18.68514699494675
 20
296.1412600495772
 30
0.0
 10
-20.50270321345751
 20
295.8576017718268
 30
0.0
 10
-21.41019818663048
 20
295.7024250126894
 30
0.0
 10
-25.89836044589464
 20
294.8658066278532
 30
0.0
 10
-29.32514372692391
 20
294.0060013196274
 30
0.0
 10
-34.22837182680852
 20
292.4293460759772
 30
0.0
 10
-35.82305508679462
 20
291.8557544110064
 30
0.0
 10
-38.15448598263432
 20
290.9210005580753
 30
0.0
 10
-38.92151616350886
 20
290.59700530347
 30
0.0
 10
-40.43499889220897
 20
289.9235956311433
 30
0.0
 10
-41.18193248705151
 20
289.5738718819012
 30
0.0
 10
-43.37494966648386
 20
288.4938459616993
 30
0.0
 10
-44.77889174310651
 20
287.7304037215037
 30
0.0
 10
-47.47105000159873
 20
286.1158950559893
 30
0.0
 10
-48.76193460686196
 20
285.2626406840793
 30
0.0
 10
-51.20530350564703
 20
283.4817722732784
 30
0.0
 10
-52.35963921156623
 20
282.553385758493
 30
0.0
 10
-54.53382065150502
 20
280.6214408416024
 30
0.0
 10
-55.5547066009876
 20
279.6161339964684
 30
0.0
 10
-57.44230911644135
 20
277.5533674288481
 30
0.0
 10
-58.31159088388505
 20
276.4938035216313
 30
0.0
 10
-59.90112147360832
 20
274.3295659635409
 30
0.0
 10
-60.62093833814938
 20
273.2254274920766
 30
0.0
 10
-61.89999815741015
 20
271.002285418472
 30
0.0
 10
-62.46015042408723
 20
269.8820484144184
 30
0.0
 10
-63.41684080435594
 20
267.6357541114712
 30
0.0
 10
-63.81309387870402
 20
266.510288052148
 30
0.0
 10
-64.1261747810544
 20
265.3824150790789
 30
0.0
  0
LWPOLYLINE
  5
107
330
E1
100
AcDbEntity
  8
0
  6
Continuous
 62
     7
370
    25
100
AcDbPolyline
 90
       72
 70
   128
 43
0.0
 10
-31.8198051534
 20
231.4524959021
 10
-34.507526302
 20
233.1478480538
 10
-36.9251792703
 20
234.9736955352
 10
-39.0538426458
 20
236.9157486144
 10
-40.8768567514
 20
238.9588080928
 10
-42.37995403
 20
241.0868842599
 10
-43.5513707075
 20
243.2833220344
 10
-44.3819388601
 20
245.5309313126
 10
-44.8651581658
 20
247.8121215045
 10
-44.9972467785
 20
250.1090392039
 10
-44.7771709256
 20
252.4037079156
 10
-44.2066529991
 20
254.6781687456
 10
-43.2901580752
 20
256.9146209541
 10
-42.0348589695
 20
259.0955612703
 10
-40.4505800993
 20
261.2039208791
 10
-38.549720595
 20
263.2231990082
 10
-36.3471572593
 20
265.1375920681
 10
-33.8601281368
 20
266.9321173376
 10
-31.1080976024
 20
268.5927302235
 10
-28.1126040263
 20
270.1064341782
 10
-24.8970912072
 20
271.4613824159
 10
-21.4867248928
 20
272.6469706298
 10
-17.9081958232
 20
273.6539199843
 10
-14.1895108405
 20
274.4743497357
 10
-10.3597736966
 20
275.1018389087
 10
-6.4489572773
 20
275.5314765498
 10
-2.4876690234
 20
275.7599001618
 10
1.4930886135
 20
275.7853220203
 10
5.4621608075
 20
275.6075431649
 10
9.3884841874
 20
275.227954956
 10
13.2413299492
 20
274.6495281861
 10
16.9905443508
 20
273.876789829
 10
20.6067847062
 20
272.9157876099
 10
24.0617490317
 20
271.7740426743
 10
27.3283975468
 20
270.4604907242
 10
30.3811642979
 20
268.9854120847
 10
33.1961572461
 20
267.3603512461
 10
35.7513452548
 20
265.5980265129
 10
38.0267305134
 20
263.7122304654
 10
40.0045050472
 20
261.7177220146
 10
41.6691900889
 20
259.6301108935
 10
43.007757221
 20
257.4657354894
 10
44.0097303407
 20
255.2415349746
 10
44.66726765
 20
252.9749167338
 10
44.9752230277
 20
250.6836201277
 10
44.9311863056
 20
248.3855776592
 10
44.5355021307
 20
246.0987746262
 10
43.7912672682
 20
243.8411083631
 10
42.7043063649
 20
241.6302481694
 10
41.2831263637
 20
239.4834970238
 10
39.5388499249
 20
237.4176561646
 10
37.4851283767
 20
235.4488935975
 10
35.1380348748
 20
233.592617559
 10
32.515938608
 20
231.8633559259
 10
29.6393610349
 20
230.2746425151
 10
26.5308152752
 20
228.8389111631
 10
23.2146299141
 20
227.5673984143
 10
19.7167585984
 20
226.4700555801
 10
16.0645769137
 20
225.5554708558
 10
12.2866681335
 20
224.8308021071
 10
8.4125995163
 20
224.3017208493
 10
4.4726909016
 20
223.9723678608
 10
0.4977774163
 20
223.8453207752
 10
-3.4810318522
 20
223.9215739082
 10
-7.4325973266
 20
224.2005304757
 10
-11.3259926495
 20
224.6800072642
 10
-15.1307467236
 20
225.3562517178
 10
-18.8170821895
 20
226.2239713069
 10
-22.3561484742
 20
227.276374949
 10
-25.7202475855
 20
228.5052261588
 10
-28.8830508866
 20
229.9009075095
 10
-31.8198051534
 20
231.4524959021
  0
LWPOLYLINE
  5
108
330
E1
100
AcDbEntity
  8
0
  6
Continuous
 62
     7
370
    25
100
AcDbPolyline
 90
       39
 70
   128
 43
0.0
 10
-64.1261747811
 20
265.3824150791
 10
-63.1648265203
 20
268.10378591
 10
-61.8574309384
 20
270.7766529721
 10
-60.2111505778
 20
273.3863730129
 10
-58.2350045546
 20
275.9186487301
 10
-55.9398191477
 20
278.3596070986
 10
-53.3381684877
 20
280.6958753734
 10
-50.4443056688
 20
282.9146543527
 10
-47.2740846646
 20
285.0037884972
 10
-43.8448734715
 20
286.9518325245
 10
-40.1754589588
 20
288.7481141119
 10
-36.2859439454
 20
290.3827923644
 10
-32.1976370666
 20
291.8469117276
 10
-27.9329360352
 20
293.132451051
 10
-23.515204936
 20
294.2323675314
 10
-18.9686462262
 20
295.1406352971
 10
-14.3181681427
 20
295.8522784199
 10
-9.5892482428
 20
296.3633981765
 10
-4.8077938257
 20
296.6711944067
 10
0.0
 20
296.7739808546
 10
4.8077938257
 20
296.6711944067
 10
9.5892482428
 20
296.3633981765
 10
14.3181681427
 20
295.8522784199
 10
18.9686462262
 20
295.1406352971
 10
23.515204936
 20
294.2323675314
 10
27.9329360352
 20
293.132451051
 10
32.1976370666
 20
291.8469117276
 10
36.2859439454
 20
290.3827923644
 10
40.1754589588
 20
288.7481141119
 10
43.8448734715
 20
286.9518325245
 10
47.2740846646
 20
285.0037884972
 10
50.4443056688
 20
282.9146543527
 10
53.3381684877
 20
280.6958753734
 10
55.9398191477
 20
278.3596070986
 10
58.2350045546
 20
275.9186487301
 10
60.2111505778
 20
273.3863730129
 10
61.8574309384
 20
270.7766529721
 10
63.1648265203
 20
268.10378591
 10
64.1261747811
 20
265.3824150791
  0
LWPOLYLINE
  5
109
330
E1
100
AcDbEntity
  8
0
  6
Continuous
 62
     7
370
    25
100
AcDbPolyline
 90
       36
 70
   128
 43
0.0
 10
44.7994882564
 20
247.3720559825
 10
44.66726765
 20
248.0756718624
 10
44.0097303407
 20
250.3422901033
 10
43.007757221
 20
252.5664906181
 10
41.6691900889
 20
254.7308660222
 10
40.0045050472
 20
256.8184771433
 10
38.0267305134
 20
258.8129855941
 10
35.7513452548
 20
260.6987816416
 10
33.1961572461
 20
262.4611063748
 10
30.3811642979
 20
264.0861672134
 10
27.3283975468
 20
265.5612458529
 10
24.0617490317
 20
266.874797803
 10
20.6067847062
 20
268.0165427386
 10
16.9905443508
 20
268.9775449577
 10
13.2413299492
 20
269.7502833148
 10
9.3884841874
 20
270.3287100847
 10
5.4621608075
 20
270.7082982936
 10
1.4930886135
 20
270.886077149
 10
-2.4876690234
 20
270.8606552905
 10
-6.4489572773
 20
270.6322316784
 10
-10.3597736966
 20
270.2025940374
 10
-14.1895108405
 20
269.5751048644
 10
-17.9081958232
 20
268.754675113
 10
-21.4867248928
 20
267.7477257584
 10
-24.8970912072
 20
266.5621375446
 10
-28.1126040263
 20
265.2071893068
 10
-31.1080976024
 20
263.6934853521
 10
-33.8601281368
 20
262.0328724663
 10
-36.3471572593
 20
260.2383471968
 10
-38.549720595
 20
258.3239541368
 10
-40.4505800993
 20
256.3046760078
 10
-42.0348589695
 20
254.196316399
 10
-43.2901580752
 20
252.0153760828
 10
-44.2066529991
 20
249.7789238742
 10
-44.7771709256
 20
247.5044630443
 10
-44.7994882564
 20
247.3720559825
  0
LINE
  5
10A
330
E1
100
AcDbEntity
  8
0
  6
Continuous
 62
     7
370
    25
100
AcDbLine
 10
0.0
 20
-367.3770153171
 30
0.0
 11
0.0
 21
-408.2040559114
 31
0.0
  0
LINE
  5
10B
330
E1
100
AcDbEntity
  8
0
  6
Continuous
 62
     7
370
    25
100
AcDbLine
 10
0.0
 20
-367.3770153171
 30
0.0
 11
707.1067811865
 21
40.8270405943
 31
0.0
  0
LINE
  5
10C
330
E1
100
AcDbEntity
  8
0
  6
Continuous
 62
     7
370
    25
100
AcDbLine
 10
707.1067811865
 20
40.8270405943
 30
0.0
 11
707.1067811865
 21
0.0
 31
0.0
  0
LINE
  5
10D
330
E1
100
AcDbEntity
  8
0
  6
Continuous
 62
     7
370
    25
100
AcDbLine
 10
0.0
 20
-408.2040559114
 30
0.0
 11
707.1067811865
 21
0.0
 31
0.0
  0
LINE
  5
10E
330
E1
100
AcDbEntity
  8
0
  6
Continuous
 62
     7
370
    25
100
AcDbLine
 10
-707.1067811865
 20
40.8270405943
 30
0.0
 11
-707.1067811865
 21
0.0
 31
0.0
  0
LINE
  5
10F
330
E1
100
AcDbEntity
  8
0
  6
Continuous
 62
     7
370
    25
100
AcDbLine
 10
-707.1067811865
 20
40.8270405943
 30
0.0
 11
0.0
 21
-367.3770153171
 31
0.0
  0
LINE
  5
110
330
E1
100
AcDbEntity
  8
0
  6
Continuous
 62
     7
370
    25
100
AcDbLine
 10
-707.1067811865
 20
0.0
 30
0.0
 11
0.0
 21
-408.2040559114
 31
0.0
  0
LINE
  5
111
330
E1
100
AcDbEntity
  8
0
  6
Continuous
 62
     7
370
    25
100
AcDbLine
 10
707.1067811865
 20
40.8270405943
 30
0.0
 11
0.0
 21
449.0310965056
 31
0.0
  0
LINE
  5
112
330
E1
100
AcDbEntity
  8
0
  6
Continuous
 62
     7
370
    25
100
AcDbLine
 10
0.0
 20
449.0310965056
 30
0.0
 11
-707.1067811865
 21
40.8270405943
 31
0.0
  0
LINE
  5
113
330
E1
100
AcDbEntity
  8
0
  6
Continuous
 62
     7
370
    25
100
AcDbLine
 10
0.0
 20
448.9494556945
 30
0.0
 11
706.9653598303
 21
40.8270405943
 31
0.0
  0
LINE
  5
114
330
E1
100
AcDbEntity
  8
0
  6
Continuous
 62
     7
370
    25
100
AcDbLine
 10
-706.9653598303
 20
40.8270405943
 30
0.0
 11
0.0
 21
448.9494556945
 31
0.0
  0
LINE
  5
115
330
E1
100
AcDbEntity
  8
0
  6
Continuous
 62
     7
370
    25
100
AcDbLine
 10
0.0
 20
-367.2953745059
 30
0.0
 11
-706.9653598303
 21
40.8270405943
 31
0.0
  0
LINE
  5
116
330
E1
100
AcDbEntity
  8
0
  6
Continuous
 62
     7
370
    25
100
AcDbLine
 10
706.9653598303
 20
40.8270405943
 30
0.0
 11
0.0
 21
-367.2953745059
 31
0.0
  0
LINE
  5
117
330
E1
100
AcDbEntity
  8
0
  6
Continuous
 62
     7
370
    25
100
AcDbLine
 10
0.0
 20
-367.2953745059
 30
0.0
 11
0.0
 21
221.7978307372
 31
0.0
  0
LINE
  5
118
330
E1
100
AcDbEntity
  8
0
  6
Continuous
 62
     7
370
    25
100
AcDbLine
 10
0.0
 20
-327.9794699762
 30
0.0
 11
636.3961030679
 21
39.404180344
 31
0.0
  0
LINE
  5
119
330
E1
100
AcDbEntity
  8
0
  6
Continuous
 62
     7
370
    25
100
AcDbLine
 10
706.9653598303
 20
40.8270405943
 30
0.0
 11
636.3961030679
 21
39.404180344
 31
0.0
  0
LINE
  5
11A
330
E1
100
AcDbEntity
  8
0
  6
Continuous
 62
     7
370
    25
100
AcDbLine
 10
-636.3961030679
 20
39.404180344
 30
0.0
 11
0.0
 21
-327.9794699762
 31
0.0
  0
LINE
  5
11B
330
E1
100
AcDbEntity
  8
0
  6
Continuous
 62
     7
370
    25
100
AcDbLine
 10
-636.3961030679
 20
39.404180344
 30
0.0
 11
-706.9653598303
 21
40.8270405943
 31
0.0
  0
LINE
  5
11C
330
E1
100
AcDbEntity
  8
0
  6
Continuous
 62
     7
370
    25
100
AcDbLine
 10
620.3332753638
 20
30.1313072891
 30
0.0
 11
63.8341203311
 21
253.6488117092
 31
0.0
  0
LINE
  5
11D
330
E1
100
AcDbEntity
  8
0
  6
Continuous
 62
     7
370
    25
100
AcDbLine
 10
-620.3332753638
 20
30.1313072891
 30
0.0
 11
-63.8341203311
 21
253.6488117092
 31
0.0
  0
LINE
  5
11E
330
E1
100
AcDbEntity
  8
0
  6
Continuous
 62
     7
370
    25
100
AcDbLine
 10
0.0
 20
391.0633338649
 30
0.0
 11
622.7768136996
 21
31.5419319443
 31
0.0
  0
LINE
  5
11F
330
E1
100
AcDbEntity
  8
0
  6
Continuous
 62
     7
370
    25
100
AcDbLine
 10
-622.7768136996
 20
31.5419319443
 30
0.0
 11
0.0
 21
391.0633338649
 31
0.0
  0
LINE
  5
120
330
E1
100
AcDbEntity
  8
0
  6
Continuous
 62
     7
370
    25
100
AcDbLine
 10
636.3961030679
 20
39.404180344
 30
0.0
 11
0.0
 21
406.7878306642
 31
0.0
  0
LINE
  5
121
330
E1
100
AcDbEntity
  8
0
  6
Continuous
 62
     7
370
    25
100
AcDbLine
 10
0.0
 20
297.1786730424
 30
0.0
 11
0.0
 21
448.9494556945
 31
0.0
  0
LINE
  5
122
330
E1
100
AcDbEntity
  8
0
  6
Continuous
 62
     7
370
    25
100
AcDbLine
 10
0.0
 20
406.7878306642
 30
0.0
 11
-636.3961030679
 21
39.404180344
 31
0.0
  0
VIEWPORT
  5
1B9
330
E1
100
AcDbEntity
  8
0
100
AcDbViewport
 10
0.0
 20
0.0
 30
0.0
 40
205.6
 41
156.0
 68
     1
 69
     1
 12
0.0
 22
0.0
 13
0.0
 23
0.0
 14
10.0
 24
10.0
 15
10.0
 25
10.0
 16
0.0
 26
0.0
 36
1.0
 17
0.0
 27
0.0
 37
0.0
 42
50.0
 43
0.0
 44
0.0
 45
1020.0
 50
0.0
 51
0.0
 72
   100
 90
   557152
  1

281
     0
 71
     1
 74
     0
110
0.0
120
0.0
130
0.0
111
1.0
121
0.0
131
0.0
112
0.0
122
1.0
132
0.0
 79
     0
146
0.0
  0
ENDBLK
  5
E4
330
E1
100
AcDbEntity
  8
0
100
AcDbBlockEnd
  0
BLOCK
  5
125
330
123
100
AcDbEntity
  8
0
100
AcDbBlockBegin
  2
*Paper_Space6
 70
     0
 10
0.0
 20
0.0
 30
0.0
  3
*Paper_Space6
  1

  0
SPLINE
  5
13B
330
123
100
AcDbEntity
  8
0
  6
Continuous
 62
     7
370
    25
100
AcDbSpline
210
0.0
220
0.0
230
1.0
 70
     8
 71
     3
 72
    38
 73
    34
 74
     0
 42
0.000000001
 43
0.00000001
 40
0.0
 40
0.0
 40
0.0
 40
0.0
 40
0.1250000000000039
 40
0.1250000000000039
 40
0.1875000000000064
 40
0.1875000000000064
 40
0.2187500000000076
 40
0.2187500000000076
 40
0.2500000000000088
 40
0.2500000000000088
 40
0.3750000000000104
 40
0.3750000000000104
 40
0.4375000000000113
 40
0.4375000000000113
 40
0.4687500000000125
 40
0.4687500000000125
 40
0.5000000000000138
 40
0.5000000000000138
 40
0.625000000000017
 40
0.625000000000017
 40
0.6875000000000177
 40
0.6875000000000177
 40
0.7187500000000171
 40
0.7187500000000171
 40
0.7500000000000164
 40
0.7500000000000164
 40
0.8750000000000091
 40
0.8750000000000091
 40
0.9375000000000046
 40
0.9375000000000046
 40
0.9687500000000023
 40
0.9687500000000023
 40
1.0
 40
1.0
 40
1.0
 40
1.0
 10
-106.3162880174898
 20
191.8175252188224
 30
0.0
 10
-102.6223286635506
 20
192.4053499016535
 30
0.0
 10
-99.08558695360689
 20
193.1542597905601
 30
0.0
 10
-94.00635643425059
 20
194.5091433265325
 30
0.0
 10
-92.35116200610561
 20
194.9995974269353
 30
0.0
 10
-89.92602320103474
 20
195.7943601611074
 30
0.0
 10
-89.12726621023864
 20
196.0691424730829
 30
0.0
 10
-87.54931030256402
 20
196.6387528143325
 30
0.0
 10
-86.76833773438281
 20
196.9343226530454
 30
0.0
 10
-82.94714838723723
 20
198.4496797515494
 30
0.0
 10
-80.1396501177814
 20
199.7858933392911
 30
0.0
 10
-76.29069463683683
 20
201.9701426585172
 30
0.0
 10
-75.06846515644874
 20
202.7283939665542
 30
0.0
 10
-73.3281099407315
 20
203.9119013024753
 30
0.0
 10
-72.76351207945972
 20
204.3141036660273
 30
0.0
 10
-71.66595234273915
 20
205.1342017359572
 30
0.0
 10
-71.13503682515682
 20
205.5506444383735
 30
0.0
 10
-68.58389116588043
 20
207.6523562341108
 30
0.0
 10
-66.85599416052807
 20
209.4071898620829
 30
0.0
 10
-64.72383060186962
 20
212.1470323276836
 30
0.0
 10
-64.09017230565017
 20
213.0783535848556
 30
0.0
 10
-63.25830049179326
 20
214.5030357558169
 30
0.0
 10
-63.00024143946847
 20
214.9837655495896
 30
0.0
 10
-62.52771790198458
 20
215.9480870268584
 30
0.0
 10
-62.31333723728383
 20
216.4312246164401
 30
0.0
 10
-61.3488696404503
 20
218.8517091277025
 30
0.0
 10
-60.91863746033568
 20
220.8032899200986
 30
0.0
 10
-60.77966325816103
 20
223.7529723388592
 30
0.0
 10
-60.81821241350846
 20
224.7399477516863
 30
0.0
 10
-61.00729907979874
 20
226.2261845297251
 30
0.0
 10
-61.09228687324758
 20
226.7222787751807
 30
0.0
 10
-61.30538598009255
 20
227.7101945534175
 30
0.0
 10
-61.43357820191761
 20
228.2027767264882
 30
0.0
 10
-61.58345683288361
 20
228.6939824819501
 30
0.0
  0
SPLINE
  5
13D
330
123
100
AcDbEntity
  8
0
  6
Continuous
 62
     7
370
    25
100
AcDbSpline
210
0.0
220
0.0
230
1.0
 70
     8
 71
     3
 72
    38
 73
    34
 74
     0
 42
0.000000001
 43
0.00000001
 40
0.0
 40
0.0
 40
0.0
 40
0.0
 40
0.124999999999993
 40
0.124999999999993
 40
0.1874999999999895
 40
0.1874999999999895
 40
0.2187499999999884
 40
0.2187499999999884
 40
0.2499999999999873
 40
0.2499999999999873
 40
0.3749999999999877
 40
0.3749999999999877
 40
0.437499999999987
 40
0.437499999999987
 40
0.4687499999999866
 40
0.4687499999999866
 40
0.4999999999999863
 40
0.4999999999999863
 40
0.6249999999999869
 40
0.6249999999999869
 40
0.6874999999999872
 40
0.6874999999999872
 40
0.7187499999999883
 40
0.7187499999999883
 40
0.7499999999999893
 40
0.7499999999999893
 40
0.8749999999999943
 40
0.8749999999999943
 40
0.9374999999999968
 40
0.9374999999999968
 40
0.9687499999999984
 40
0.9687499999999984
 40
1.0
 40
1.0
 40
1.0
 40
1.0
 10
-183.5553353551209
 20
209.2719211004151
 30
0.0
 10
-181.8959404700586
 20
207.4760149203692
 30
0.0
 10
-179.9490440120947
 20
205.7830967369009
 30
0.0
 10
-176.6155366702939
 20
203.391751001848
 30
0.0
 10
-175.4350852936468
 20
202.6194650718978
 30
0.0
 10
-173.5589479278734
 20
201.498834849522
 30
0.0
 10
-172.9159669642036
 20
201.1316007829
 30
0.0
 10
-171.5942268114106
 20
200.4099641791927
 30
0.0
 10
-170.9139095782272
 20
200.0548350070711
 30
0.0
 10
-167.453655065182
 20
198.3278694427986
 30
0.0
 10
-164.4831691352627
 20
197.0910668513259
 30
0.0
 10
-159.7337553686823
 20
195.4463684666646
 30
0.0
 10
-158.1013880938679
 20
194.9334355860451
 30
0.0
 10
-155.577497846282
 20
194.218071755657
 30
0.0
 10
-154.7236263098354
 20
193.9886365420914
 30
0.0
 10
-152.9902528509189
 20
193.5481582367946
 30
0.0
 10
-152.1155372029906
 20
193.3383570962595
 30
0.0
 10
-147.7158934961994
 20
192.3438787931049
 30
0.0
 10
-144.0997176855276
 20
191.7180046123522
 30
0.0
 10
-138.5337603052243
 20
191.0286607841917
 30
0.0
 10
-136.6546946580693
 20
190.8407033071815
 30
0.0
 10
-133.7995490003007
 20
190.623134992164
 30
0.0
 10
-132.8393189685283
 20
190.5612535481917
 30
0.0
 10
-130.9223018249733
 20
190.4602010093717
 30
0.0
 10
-129.9649341643114
 20
190.4209188687607
 30
0.0
 10
-125.1837003708196
 20
190.2797563399542
 30
0.0
 10
-121.3765147092911
 20
190.342323087109
 30
0.0
 10
-115.6921846044084
 20
190.6968826377325
 30
0.0
 10
-113.8018406385441
 20
190.8587721181393
 30
0.0
 10
-110.9731853932012
 20
191.1692280079325
 30
0.0
 10
-110.0329832971488
 20
191.283866648033
 30
0.0
 10
-108.1662267622466
 20
191.5344830601043
 30
0.0
 10
-107.2384499228098
 20
191.6705910181027
 30
0.0
 10
-106.3162880174898
 20
191.8175252188225
 30
0.0
  0
SPLINE
  5
140
330
123
100
AcDbEntity
  8
0
  6
Continuous
 62
     7
370
    25
100
AcDbSpline
210
0.0
220
0.0
230
1.0
 70
     8
 71
     3
 72
    12
 73
     8
 74
     0
 42
0.000000001
 43
0.00000001
 40
0.0
 40
0.0
 40
0.0
 40
0.0
 40
0.25
 40
0.25
 40
0.5
 40
0.5
 40
1.0
 40
1.0
 40
1.0
 40
1.0
 10
-189.7193461460393
 20
219.2745256619755
 30
0.0
 10
-189.4198667977795
 20
218.3930420557976
 30
0.0
 10
-189.0716889722532
 20
217.524493433274
 30
0.0
 10
-188.2679761611427
 20
215.809329661882
 30
0.0
 10
-187.8118589855503
 20
214.9618030532758
 30
0.0
 10
-186.2758575776966
 20
212.4558394455557
 30
0.0
 10
-185.0282194874407
 20
210.834207115458
 30
0.0
 10
-183.555335355121
 20
209.2719211004151
 30
0.0
  0
SPLINE
  5
143
330
123
100
AcDbEntity
  8
0
  6
Continuous
 62
     7
370
    25
100
AcDbSpline
210
0.0
220
0.0
230
1.0
 70
     8
 71
     3
 72
    38
 73
    34
 74
     0
 42
0.000000001
 43
0.00000001
 40
0.0
 40
0.0
 40
0.0
 40
0.0
 40
0.1249999999999969
 40
0.1249999999999969
 40
0.187499999999994
 40
0.187499999999994
 40
0.2187499999999926
 40
0.2187499999999926
 40
0.2499999999999912
 40
0.2499999999999912
 40
0.3749999999999886
 40
0.3749999999999886
 40
0.437499999999988
 40
0.437499999999988
 40
0.4687499999999878
 40
0.4687499999999878
 40
0.4999999999999877
 40
0.4999999999999877
 40
0.5624999999999892
 40
0.5624999999999892
 40
0.6249999999999908
 40
0.6249999999999908
 40
0.6874999999999923
 40
0.6874999999999923
 40
0.7499999999999938
 40
0.7499999999999938
 40
0.8124999999999953
 40
0.8124999999999953
 40
0.8749999999999969
 40
0.8749999999999969
 40
0.9374999999999984
 40
0.9374999999999984
 40
1.0
 40
1.0
 40
1.0
 40
1.0
 10
-144.516167328001
 20
256.2117780973315
 30
0.0
 10
-148.1755180102553
 20
255.7406780979806
 30
0.0
 10
-151.6807092659328
 20
255.1221041208814
 30
0.0
 10
-156.7177280206386
 20
253.9618420050355
 30
0.0
 10
-158.3597158982212
 20
253.5361018810569
 30
0.0
 10
-160.7665062110632
 20
252.8357493124709
 30
0.0
 10
-161.5593908496276
 20
252.5919968284767
 30
0.0
 10
-163.1261215652496
 20
252.0832016730022
 30
0.0
 10
-163.9018488372858
 20
251.8174613354514
 30
0.0
 10
-167.7053626616127
 20
250.4433111691378
 30
0.0
 10
-170.504186949865
 20
249.2026867971516
 30
0.0
 10
-174.3492424922656
 20
247.1254931357453
 30
0.0
 10
-175.5717147166784
 20
246.3969102774307
 30
0.0
 10
-177.3150939073303
 20
245.2477022333711
 30
0.0
 10
-177.8811439188609
 20
244.8552320503642
 30
0.0
 10
-178.9825664895484
 20
244.0509888796187
 30
0.0
 10
-179.5182459793988
 20
243.6388768803266
 30
0.0
 10
-181.0669472695898
 20
242.3823143091322
 30
0.0
 10
-182.0258414575292
 20
241.5148352670894
 30
0.0
 10
-183.7970131644018
 20
239.7194079624772
 30
0.0
 10
-184.6107908544416
 20
238.7891617155011
 30
0.0
 10
-186.0770014404549
 20
236.8828986325804
 30
0.0
 10
-186.7308269904763
 20
235.9059343480872
 30
0.0
 10
-187.8801534825968
 20
233.9050637836119
 30
0.0
 10
-188.3758882140853
 20
232.8794570260153
 30
0.0
 10
-189.1991299722248
 20
230.8050267820016
 30
0.0
 10
-189.5281252416106
 20
229.7539755003122
 30
0.0
 10
-190.0206391983856
 20
227.6361001812944
 30
0.0
 10
-190.1837407490216
 20
226.5699053819198
 30
0.0
 10
-190.3406024561395
 20
224.4524854385228
 30
0.0
 10
-190.3346191350185
 20
223.4000633797112
 30
0.0
 10
-190.1534872715943
 20
221.3189577559258
 30
0.0
 10
-189.9785061111939
 20
220.2907685771588
 30
0.0
 10
-189.7193461460394
 20
219.2745256619756
 30
0.0
  0
SPLINE
  5
146
330
123
100
AcDbEntity
  8
0
  6
Continuous
 62
     7
370
    25
100
AcDbSpline
210
0.0
220
0.0
230
1.0
 70
     8
 71
     3
 72
    14
 73
    10
 74
     0
 42
0.000000001
 43
0.00000001
 40
0.0
 40
0.0
 40
0.0
 40
0.0
 40
0.25
 40
0.25
 40
0.5
 40
0.5
 40
0.75
 40
0.75
 40
1.0
 40
1.0
 40
1.0
 40
1.0
 10
-61.58345683288358
 20
228.69398248195
 30
0.0
 10
-61.81985658698458
 20
229.5548065084889
 30
0.0
 10
-62.11696567275033
 20
230.41038997852
 30
0.0
 10
-62.82946607691562
 20
232.1125982314529
 30
0.0
 10
-63.24546895109262
 20
232.9601771255184
 30
0.0
 10
-64.18989391695912
 20
234.6435185229313
 30
0.0
 10
-64.71831208345021
 20
235.4792545981578
 30
0.0
 10
-65.87940713963236
 20
237.1400951919229
 30
0.0
 10
-66.51125546388228
 20
237.9641517532462
 30
0.0
 10
-67.18942077200643
 20
238.7854470359995
 30
0.0
  0
SPLINE
  5
147
330
123
100
AcDbEntity
  8
0
  6
Continuous
 62
     7
370
    25
100
AcDbSpline
210
0.0
220
0.0
230
1.0
 70
     8
 71
     3
 72
    36
 73
    32
 74
     0
 42
0.000000001
 43
0.00000001
 40
0.0
 40
0.0
 40
0.0
 40
0.0
 40
0.0625000000000021
 40
0.0625000000000021
 40
0.1250000000000042
 40
0.1250000000000042
 40
0.1875000000000063
 40
0.1875000000000063
 40
0.2500000000000084
 40
0.2500000000000084
 40
0.2812500000000086
 40
0.2812500000000086
 40
0.3125000000000088
 40
0.3125000000000088
 40
0.3750000000000091
 40
0.3750000000000091
 40
0.5000000000000081
 40
0.5000000000000081
 40
0.5625000000000085
 40
0.5625000000000085
 40
0.6250000000000089
 40
0.6250000000000089
 40
0.7500000000000079
 40
0.7500000000000079
 40
0.7812500000000071
 40
0.7812500000000071
 40
0.8125000000000064
 40
0.8125000000000064
 40
0.8750000000000041
 40
0.8750000000000041
 40
1.0
 40
1.0
 40
1.0
 40
1.0
 10
-67.18942077200649
 20
238.7854470359996
 30
0.0
 10
-68.04800980991754
 20
239.7077275756728
 30
0.0
 10
-68.98117202569229
 20
240.6162596249692
 30
0.0
 10
-70.99381127777124
 20
242.4089912762693
 30
0.0
 10
-72.0712797780327
 20
243.2916623472641
 30
0.0
 10
-74.36295047139224
 20
245.0226160379848
 30
0.0
 10
-75.57672186404518
 20
245.8703964779929
 30
0.0
 10
-78.12777580144618
 20
247.5075613140479
 30
0.0
 10
-79.4625033500273
 20
248.2949761871827
 30
0.0
 10
-81.55329213340754
 20
249.4205690735686
 30
0.0
 10
-82.26502456828649
 20
249.7865735366608
 30
0.0
 10
-83.71832050471455
 20
250.4992922589792
 30
0.0
 10
-84.4602736629765
 20
250.8461073900739
 30
0.0
 10
-86.71419657105508
 20
251.8493751364152
 30
0.0
 10
-88.2594848481067
 20
252.4713779829265
 30
0.0
 10
-93.02026686727515
 20
254.1993316686989
 30
0.0
 10
-96.35973332565959
 20
255.168260776479
 30
0.0
 10
-101.6222173111245
 20
256.3473693837132
 30
0.0
 10
-103.4261892715443
 20
256.6952843707136
 30
0.0
 10
-107.0531457281229
 20
257.2865809435451
 30
0.0
 10
-108.8824169110198
 20
257.5317936408908
 30
0.0
 10
-114.4166385424768
 20
258.1215708995181
 30
0.0
 10
-118.1676339001177
 20
258.3211267812455
 30
0.0
 10
-122.9355034087591
 20
258.3320436892108
 30
0.0
 10
-123.8954123904682
 20
258.3221572006025
 30
0.0
 10
-125.8088648471223
 20
258.2786257774981
 30
0.0
 10
-126.7626038315583
 20
258.2450558715685
 30
0.0
 10
-129.6150289876797
 20
258.1100552488268
 30
0.0
 10
-131.5049397307536
 20
257.9743860421972
 30
0.0
 10
-137.1402921724038
 20
257.4373420041196
 30
0.0
 10
-140.8516331705997
 20
256.9070471240855
 30
0.0
 10
-144.516167328001
 20
256.2117780973315
 30
0.0
  0
LWPOLYLINE
  5
149
330
123
100
AcDbEntity
  8
0
  6
Continuous
 62
     7
370
    25
100
AcDbPolyline
 90
       72
 70
   128
 43
0.0
 10
-146.3181123261
 20
193.4075689445
 10
-149.7533540064
 20
194.4437412262
 10
-152.9973466745
 20
195.6322279559
 10
-156.0247016894
 20
196.9637276138
 10
-158.8117258934
 20
198.4278194095
 10
-161.3366070433
 20
200.0130448397
 10
-163.5795845208
 20
201.7069973662
 10
-165.5231039859
 20
203.4964195135
 10
-167.1519547638
 20
205.3673066273
 10
-168.4533888887
 20
207.3050164792
 10
-169.4172208738
 20
209.2943838625
 10
-170.0359074273
 20
211.3198392799
 10
-170.3046064878
 20
213.3655307967
 10
-170.2212151211
 20
215.4154481032
 10
-169.7863859774
 20
217.4535478169
 10
-169.0035221846
 20
219.4638790444
 10
-167.8787507132
 20
221.4307082179
 10
-166.420874425
 20
223.3386422326
 10
-164.6413031786
 20
225.1727489179
 10
-162.5539645318
 20
226.9186739021
 10
-160.1751947397
 20
228.5627529551
 10
-157.5236109012
 20
230.0921189292
 10
-154.6199652549
 20
231.4948024621
 10
-151.486982765
 20
232.7598256531
 10
-148.1491832672
 20
233.8772879808
 10
-144.6326895682
 20
234.8384437873
 10
-140.965022999
 20
235.6357707251
 10
-137.1748880234
 20
236.26302863
 10
-133.2919475864
 20
236.7153083584
 10
-129.3465909615
 20
236.9890702082
 10
-125.3696959137
 20
237.0821716218
 10
-121.3923870389
 20
236.9938839543
 10
-117.4457921715
 20
236.7248981764
 10
-113.5607987674
 20
236.2773194666
 10
-109.7678121675
 20
235.6546507351
 10
-106.0965176347
 20
234.861765209
 10
-102.5756480263
 20
233.9048682925
 10
-99.2327589209
 20
232.7914490015
 10
-96.0940129581
 20
231.5302213515
 10
-93.1839750808
 20
230.131056159
 10
-90.5254202809
 20
228.6049037885
 10
-88.1391553544
 20
226.9637084517
 10
-86.0438560597
 20
225.2203147273
 10
-84.2559209547
 20
223.3883670349
 10
-82.7893430557
 20
221.4822028491
 10
-81.6556003234
 20
219.5167404891
 10
-80.8635658318
 20
217.5073623627
 10
-80.4194383245
 20
215.4697945783
 10
-80.3266937017
 20
213.4199838663
 10
-80.5860578156
 20
211.3739727748
 10
-81.1955007904
 20
209.3477741147
 10
-82.1502529086
 20
207.3572456377
 10
-83.4428419403
 20
205.417965928
 10
-85.0631516237
 20
203.5451124788
 10
-86.9985008388
 20
201.7533429075
 10
-89.2337428538
 20
200.0566802404
 10
-91.7513838694
 20
198.4684031634
 10
-94.531719931
 20
197.0009420979
 10
-97.5529911392
 20
195.6657819166
 10
-100.7915519505
 20
194.4733720581
 10
-104.2220562355
 20
193.4330447462
 10
-107.817655647
 20
192.5529419528
 10
-111.5502097443
 20
191.8399516754
 10
-115.390506231
 20
191.2996540298
 10
-119.3084895802
 20
190.9362775774
 10
-123.2734962599
 20
190.7526662319
 10
-127.2544947169
 20
190.7502570008
 10
-131.2203282407
 20
190.9290687396
 10
-135.1399588069
 20
191.2877020042
 10
-138.9827099918
 20
191.8233500029
 10
-142.7185070573
 20
192.5318205639
 10
-146.3181123261
 20
193.4075689445
  0
LWPOLYLINE
  5
14A
330
123
100
AcDbEntity
  8
0
  6
Continuous
 62
     7
370
    25
100
AcDbPolyline
 90
       38
 70
   128
 43
0.0
 10
-190.3168198242
 20
223.8031896867
 10
-190.3118417128
 20
224.2175088318
 10
-190.0743031752
 20
226.6923811457
 10
-189.4819919758
 20
229.1514250782
 10
-188.5381530806
 20
231.5811688031
 10
-187.2479572932
 20
233.9683010148
 10
-185.6184729272
 20
236.2997438542
 10
-183.6586270821
 20
238.5627245553
 10
-181.3791567369
 20
240.7448454205
 10
-178.7925499271
 20
242.8341517416
 10
-175.9129773299
 20
244.8191972929
 10
-172.7562146298
 20
246.6891070394
 10
-169.3395560922
 20
248.4336367157
 10
-165.6817198172
 20
250.0432289485
 10
-161.8027451922
 20
251.5090656168
 10
-157.7238831074
 20
252.8231161619
 10
-153.4674795323
 20
253.9781815823
 10
-149.0568530943
 20
254.9679338739
 10
-144.516167328
 20
255.7869506972
 10
-139.8702982954
 20
256.4307450838
 10
-135.144698303
 20
256.8957900182
 10
-130.3652564622
 20
257.1795377605
 10
-125.5581568556
 20
257.2804338039
 10
-120.7497350887
 20
257.1979253913
 10
-115.96633401
 20
256.9324645437
 10
-111.2341593931
 20
256.4855055831
 10
-106.579136368
 20
255.859497166
 10
-102.0267673914
 20
255.0578688678
 10
-97.6019925316
 20
254.0850123941
 10
-93.3290528349
 20
252.9462575208
 10
-89.2313575215
 20
251.6478428954
 10
-85.3313557386
 20
250.196881858
 10
-81.6504135731
 20
248.6013234715
 10
-78.2086969977
 20
246.8699089728
 10
-75.0250613925
 20
245.0121238837
 10
-72.1169482455
 20
243.0381460452
 10
-69.5002896001
 20
240.958789858
 10
-67.189420772
 20
238.785447036
  0
LWPOLYLINE
  5
14B
330
123
100
AcDbEntity
  8
0
  6
Continuous
 62
     7
370
    25
100
AcDbPolyline
 90
       35
 70
   128
 43
0.0
 10
-80.5946601688
 20
211.3339723486
 10
-80.8635658318
 20
212.3643585585
 10
-81.6556003234
 20
214.3737366849
 10
-82.7893430557
 20
216.3391990449
 10
-84.2559209547
 20
218.2453632307
 10
-86.0438560597
 20
220.0773109231
 10
-88.1391553544
 20
221.8207046475
 10
-90.5254202809
 20
223.4618999843
 10
-93.1839750808
 20
224.9880523548
 10
-96.0940129581
 20
226.3872175473
 10
-99.2327589209
 20
227.6484451973
 10
-102.5756480263
 20
228.7618644883
 10
-106.0965176347
 20
229.7187614048
 10
-109.7678121675
 20
230.5116469309
 10
-113.5607987674
 20
231.1343156624
 10
-117.4457921715
 20
231.5818943722
 10
-121.3923870389
 20
231.85088015
 10
-125.3696959137
 20
231.9391678176
 10
-129.3465909615
 20
231.846066404
 10
-133.2919475864
 20
231.5723045542
 10
-137.1748880234
 20
231.1200248258
 10
-140.965022999
 20
230.4927669209
 10
-144.6326895682
 20
229.695439983
 10
-148.1491832672
 20
228.7342841766
 10
-151.486982765
 20
227.6168218489
 10
-154.6199652549
 20
226.3517986578
 10
-157.5236109012
 20
224.949115125
 10
-160.1751947397
 20
223.4197491509
 10
-162.5539645318
 20
221.7756700979
 10
-164.6413031786
 20
220.0297451136
 10
-166.420874425
 20
218.1956384284
 10
-167.8787507132
 20
216.2877044137
 10
-169.0035221846
 20
214.3208752401
 10
-169.7863859774
 20
212.3105440127
 10
-170.0389794796
 20
211.3339723486
  0
LINE
  5
14C
330
123
100
AcDbEntity
  8
0
  6
Continuous
 62
     7
370
    25
100
AcDbLine
 10
208.8613663737
 20
-305.079085709
 30
0.0
 11
208.8613663737
 21
-347.9374507441
 31
0.0
  0
LINE
  5
14D
330
123
100
AcDbEntity
  8
0
  6
Continuous
 62
     7
370
    25
100
AcDbLine
 10
208.8613663737
 20
-305.079085709
 30
0.0
 11
675.5567553037
 21
150.4299210953
 31
0.0
  0
LINE
  5
14E
330
123
100
AcDbEntity
  8
0
  6
Continuous
 62
     7
370
    25
100
AcDbLine
 10
675.5567553037
 20
150.4299210953
 30
0.0
 11
675.5567553037
 21
107.5715560602
 31
0.0
  0
LINE
  5
14F
330
123
100
AcDbEntity
  8
0
  6
Continuous
 62
     7
370
    25
100
AcDbLine
 10
208.8613663737
 20
-347.9374507441
 30
0.0
 11
675.5567553037
 21
107.5715560602
 31
0.0
  0
LINE
  5
150
330
123
100
AcDbEntity
  8
0
  6
Continuous
 62
     7
370
    25
100
AcDbLine
 10
-675.5567553037
 20
-64.7131910251
 30
0.0
 11
-675.5567553037
 21
-107.5715560602
 31
0.0
  0
LINE
  5
151
330
123
100
AcDbEntity
  8
0
  6
Continuous
 62
     7
370
    25
100
AcDbLine
 10
-675.5567553037
 20
-64.7131910251
 30
0.0
 11
208.8613663737
 21
-305.079085709
 31
0.0
  0
LINE
  5
152
330
123
100
AcDbEntity
  8
0
  6
Continuous
 62
     7
370
    25
100
AcDbLine
 10
-675.5567553037
 20
-107.5715560602
 30
0.0
 11
208.8613663737
 21
-347.9374507441
 31
0.0
  0
LINE
  5
153
330
123
100
AcDbEntity
  8
0
  6
Continuous
 62
     7
370
    25
100
AcDbLine
 10
675.5567553037
 20
150.4299210953
 30
0.0
 11
-208.8613663737
 21
390.7958157792
 31
0.0
  0
LINE
  5
154
330
123
100
AcDbEntity
  8
0
  6
Continuous
 62
     7
370
    25
100
AcDbLine
 10
-208.8613663737
 20
390.7958157792
 30
0.0
 11
-675.5567553037
 21
-64.7131910251
 31
0.0
  0
LINE
  5
155
330
123
100
AcDbEntity
  8
0
  6
Continuous
 62
     7
370
    25
100
AcDbLine
 10
-208.8195941004
 20
390.7262282891
 30
0.0
 11
675.4216439527
 21
150.4084067841
 31
0.0
  0
LINE
  5
156
330
123
100
AcDbEntity
  8
0
  6
Continuous
 62
     7
370
    25
100
AcDbLine
 10
-675.4216439527
 20
-64.6916767139
 30
0.0
 11
-208.8195941004
 21
390.7262282891
 31
0.0
  0
LINE
  5
157
330
123
100
AcDbEntity
  8
0
  6
Continuous
 62
     7
370
    25
100
AcDbLine
 10
208.8195941004
 20
-305.0094982188
 30
0.0
 11
-675.4216439527
 21
-64.6916767139
 31
0.0
  0
LINE
  5
158
330
123
100
AcDbEntity
  8
0
  6
Continuous
 62
     7
370
    25
100
AcDbLine
 10
675.4216439527
 20
150.4084067841
 30
0.0
 11
208.8195941004
 21
-305.0094982188
 31
0.0
  0
LINE
  5
159
330
123
100
AcDbEntity
  8
0
  6
Continuous
 62
     7
370
    25
100
AcDbLine
 10
208.8195941004
 20
-305.0094982188
 30
0.0
 11
187.9752297363
 21
-271.7789944266
 31
0.0
  0
LINE
  5
15A
330
123
100
AcDbEntity
  8
0
  6
Continuous
 62
     7
370
    25
100
AcDbLine
 10
187.9752297363
 20
-271.7789944266
 30
0.0
 11
608.0010797734
 21
138.1791116973
 31
0.0
  0
LINE
  5
15B
330
123
100
AcDbEntity
  8
0
  6
Continuous
 62
     7
370
    25
100
AcDbLine
 10
675.4216439527
 20
150.4084067841
 30
0.0
 11
608.0010797734
 21
138.1791116973
 31
0.0
  0
LINE
  5
15C
330
123
100
AcDbEntity
  8
0
  6
Continuous
 62
     7
370
    25
100
AcDbLine
 10
-608.0010797734
 20
-55.4496892111
 30
0.0
 11
187.9752297363
 21
-271.7789944266
 31
0.0
  0
LINE
  5
15D
330
123
100
AcDbEntity
  8
0
  6
Continuous
 62
     7
370
    25
100
AcDbLine
 10
-608.0010797734
 20
-55.4496892111
 30
0.0
 11
-675.4216439527
 21
-64.6916767139
 31
0.0
  0
LINE
  5
15E
330
123
100
AcDbEntity
  8
0
  6
Continuous
 62
     7
370
    25
100
AcDbLine
 10
593.4686498594
 20
123.995014589
 30
0.0
 11
-61.5834568329
 21
228.693982482
 31
0.0
  0
LINE
  5
15F
330
123
100
AcDbEntity
  8
0
  6
Continuous
 62
     7
370
    25
100
AcDbLine
 10
175.834338105
 20
-268.479360229
 30
0.0
 11
-106.3162880175
 21
191.8175252188
 31
0.0
  0
LINE
  5
160
330
123
100
AcDbEntity
  8
0
  6
Continuous
 62
     7
370
    25
100
AcDbLine
 10
-590.334529745
 20
-60.2510789604
 30
0.0
 11
-183.5553353551
 21
209.2719211004
 31
0.0
  0
LINE
  5
161
330
123
100
AcDbEntity
  8
0
  6
Continuous
 62
     7
370
    25
100
AcDbLine
 10
-187.9752297363
 20
354.5084169128
 30
0.0
 11
-608.0010797734
 21
-55.4496892111
 31
0.0
  0
LINE
  5
162
330
123
100
AcDbEntity
  8
0
  6
Continuous
 62
     7
370
    25
100
AcDbLine
 10
-187.9752297363
 20
354.5084169128
 30
0.0
 11
-208.8195941004
 21
390.7262282891
 31
0.0
  0
LINE
  5
163
330
123
100
AcDbEntity
  8
0
  6
Continuous
 62
     7
370
    25
100
AcDbLine
 10
-594.7724073618
 20
-59.0449589164
 30
0.0
 11
-187.9752297363
 21
338.00155739
 31
0.0
  0
LINE
  5
164
330
123
100
AcDbEntity
  8
0
  6
Continuous
 62
     7
370
    25
100
AcDbLine
 10
-144.516167328
 20
256.2117780973
 30
0.0
 11
-187.9752297363
 21
338.00155739
 31
0.0
  0
LINE
  5
165
330
123
100
AcDbEntity
  8
0
  6
Continuous
 62
     7
370
    25
100
AcDbLine
 10
-187.9752297363
 20
338.00155739
 30
0.0
 11
-187.9752297363
 21
354.5084169128
 31
0.0
  0
LINE
  5
166
330
123
100
AcDbEntity
  8
0
  6
Continuous
 62
     7
370
    25
100
AcDbLine
 10
-187.9752297363
 20
338.00155739
 30
0.0
 11
594.7724073618
 21
125.2675218798
 31
0.0
  0
LINE
  5
167
330
123
100
AcDbEntity
  8
0
  6
Continuous
 62
     7
370
    25
100
AcDbLine
 10
608.0010797734
 20
138.1791116973
 30
0.0
 11
-187.9752297363
 21
354.5084169128
 31
0.0
  0
VIEWPORT
  5
1BB
330
123
100
AcDbEntity
  8
0
100
AcDbViewport
 10
0.0
 20
0.0
 30
0.0
 40
205.6
 41
156.0
 68
     1
 69
     1
 12
0.0
 22
0.0
 13
0.0
 23
0.0
 14
10.0
 24
10.0
 15
10.0
 25
10.0
 16
0.0
 26
0.0
 36
1.0
 17
0.0
 27
0.0
 37
0.0
 42
50.0
 43
0.0
 44
0.0
 45
1020.0
 50
0.0
 51
0.0
 72
   100
 90
   557152
  1

281
     0
 71
     1
 74
     0
110
0.0
120
0.0
130
0.0
111
1.0
121
0.0
131
0.0
112
0.0
122
1.0
132
0.0
 79
     0
146
0.0
  0
ENDBLK
  5
126
330
123
100
AcDbEntity
  8
0
100
AcDbBlockEnd
  0
BLOCK
  5
16A
330
168
100
AcDbEntity
  8
0
100
AcDbBlockBegin
  2
*Paper_Space7
 70
     0
 10
0.0
 20
0.0
 30
0.0
  3
*Paper_Space7
  1

  0
SPLINE
  5
180
330
168
100
AcDbEntity
  8
0
  6
Continuous
 62
     7
370
    25
100
AcDbSpline
210
0.0
220
0.0
230
1.0
 70
     8
 71
     3
 72
    38
 73
    34
 74
     0
 42
0.000000001
 43
0.00000001
 40
0.0
 40
0.0
 40
0.0
 40
0.0
 40
0.1250000000000039
 40
0.1250000000000039
 40
0.1875000000000064
 40
0.1875000000000064
 40
0.2187500000000076
 40
0.2187500000000076
 40
0.2500000000000088
 40
0.2500000000000088
 40
0.3750000000000104
 40
0.3750000000000104
 40
0.4375000000000113
 40
0.4375000000000113
 40
0.4687500000000125
 40
0.4687500000000125
 40
0.5000000000000138
 40
0.5000000000000138
 40
0.625000000000017
 40
0.625000000000017
 40
0.6875000000000177
 40
0.6875000000000177
 40
0.7187500000000171
 40
0.7187500000000171
 40
0.7500000000000164
 40
0.7500000000000164
 40
0.8750000000000091
 40
0.8750000000000091
 40
0.9375000000000046
 40
0.9375000000000046
 40
0.9687500000000023
 40
0.9687500000000023
 40
1.0
 40
1.0
 40
1.0
 40
1.0
 10
-148.0917655591857
 20
125.5305372185074
 30
0.0
 10
-144.5666019542866
 20
126.062507120992
 30
0.0
 10
-141.2361340504373
 20
126.6915356306472
 30
0.0
 10
-136.5201607052839
 20
127.7746151046122
 30
0.0
 10
-134.9950825297483
 20
128.1590415108166
 30
0.0
 10
-132.7788615709419
 20
128.7712847475499
 30
0.0
 10
-132.0520377307854
 20
128.9813086452428
 30
0.0
 10
-130.6226104391125
 20
129.4134378245224
 30
0.0
 10
-129.9184244739016
 20
129.6360944967045
 30
0.0
 10
-126.4895373370049
 20
130.7700245719072
 30
0.0
 10
-124.0237461342872
 20
131.7464917822102
 30
0.0
 10
-120.7278212769597
 20
133.3118108953807
 30
0.0
 10
-119.6967220870456
 20
133.8504513308228
 30
0.0
 10
-118.2534497129896
 20
134.684180594287
 30
0.0
 10
-117.7896131993758
 20
134.9663917824095
 30
0.0
 10
-116.8971100795462
 20
135.5395801055553
 30
0.0
 10
-116.4701255872952
 20
135.8295377859112
 30
0.0
 10
-114.4425515426586
 20
137.28753261534
 30
0.0
 10
-113.1488504671662
 20
138.488029681343
 30
0.0
 10
-111.6905062828159
 20
140.3385317389542
 30
0.0
 10
-111.2852307039752
 20
140.9637107414499
 30
0.0
 10
-110.8017454201044
 20
141.9142494493913
 30
0.0
 10
-110.6610807062507
 20
142.2340301935655
 30
0.0
 10
-110.4237238510394
 20
142.8735812650947
 30
0.0
 10
-110.3270057832349
 20
143.1930563023668
 30
0.0
 10
-109.9512403148567
 20
144.7889563199181
 30
0.0
 10
-109.9932062185712
 20
146.0609385037251
 30
0.0
 10
-110.5643633056743
 20
147.9616329711743
 30
0.0
 10
-110.839930316262
 20
148.5939869496664
 30
0.0
 10
-111.3850192203355
 20
149.5406202194518
 30
0.0
 10
-111.5886856203072
 20
149.8556649968064
 30
0.0
 10
-112.0378145128383
 20
150.4811687103619
 30
0.0
 10
-112.2835402261397
 20
150.7921127937778
 30
0.0
 10
-112.5504699743515
 20
151.1012477366349
 30
0.0
  0
SPLINE
  5
182
330
168
100
AcDbEntity
  8
0
  6
Continuous
 62
     7
370
    25
100
AcDbSpline
210
0.0
220
0.0
230
1.0
 70
     8
 71
     3
 72
    38
 73
    34
 74
     0
 42
0.000000001
 43
0.00000001
 40
0.0
 40
0.0
 40
0.0
 40
0.0
 40
0.124999999999993
 40
0.124999999999993
 40
0.1874999999999895
 40
0.1874999999999895
 40
0.2187499999999884
 40
0.2187499999999884
 40
0.2499999999999873
 40
0.2499999999999873
 40
0.3749999999999877
 40
0.3749999999999877
 40
0.437499999999987
 40
0.437499999999987
 40
0.4687499999999866
 40
0.4687499999999866
 40
0.4999999999999863
 40
0.4999999999999863
 40
0.6249999999999869
 40
0.6249999999999869
 40
0.6874999999999872
 40
0.6874999999999872
 40
0.7187499999999883
 40
0.7187499999999883
 40
0.7499999999999893
 40
0.7499999999999893
 40
0.8749999999999943
 40
0.8749999999999943
 40
0.9374999999999968
 40
0.9374999999999968
 40
0.9687499999999984
 40
0.9687499999999984
 40
1.0
 40
1.0
 40
1.0
 40
1.0
 10
-228.9121339137359
 20
133.5920665331686
 30
0.0
 10
-226.8333203794269
 20
132.5077685758058
 30
0.0
 10
-224.4942468430372
 20
131.5009880937916
 30
0.0
 10
-220.6116221889918
 20
130.1022487021027
 30
0.0
 10
-219.2546963942099
 20
129.654694777088
 30
0.0
 10
-217.1238400561582
 20
129.0118216545391
 30
0.0
 10
-216.3976205915183
 20
128.8022809668951
 30
0.0
 10
-214.9127935221879
 20
128.3928629493327
 30
0.0
 10
-214.1524655423585
 20
128.1925824848689
 30
0.0
 10
-210.3043748463344
 20
127.2247547685048
 30
0.0
 10
-207.0601910967068
 20
126.5514435977452
 30
0.0
 10
-201.9533265275377
 20
125.6883958575236
 30
0.0
 10
-200.210709262897
 20
125.4253557836275
 30
0.0
 10
-197.5350647826968
 20
125.0685226874313
 30
0.0
 10
-196.6328819233627
 20
124.9558757335328
 30
0.0
 10
-194.8075195856668
 20
124.7434267494399
 30
0.0
 10
-193.8893865549875
 20
124.644227850314
 30
0.0
 10
-189.2859825187599
 20
124.1843046921709
 30
0.0
 10
-185.5483977892444
 20
123.9292580211361
 30
0.0
 10
-179.8614331648552
 20
123.7127142967228
 30
0.0
 10
-177.9522725681175
 20
123.668374467486
 30
0.0
 10
-175.0677456330265
 20
123.6447128479909
 30
0.0
 10
-174.1003473953487
 20
123.6440097512794
 30
0.0
 10
-172.1744232952333
 20
123.6570573797488
 30
0.0
 10
-171.2152948549417
 20
123.6707603665177
 30
0.0
 10
-166.438484590713
 20
123.7745563925703
 30
0.0
 10
-162.6768515427084
 20
123.9696706801695
 30
0.0
 10
-157.1232721976021
 20
124.4288231088331
 30
0.0
 10
-155.2869737191294
 20
124.6097850020427
 30
0.0
 10
-152.5555788849807
 20
124.9244061066906
 30
0.0
 10
-151.6504551727483
 20
125.0363384216457
 30
0.0
 10
-149.8588733318131
 20
125.2733609547847
 30
0.0
 10
-148.9712338824249
 20
125.3985845716684
 30
0.0
 10
-148.0917655591859
 20
125.5305372185075
 30
0.0
  0
SPLINE
  5
185
330
168
100
AcDbEntity
  8
0
  6
Continuous
 62
     7
370
    25
100
AcDbSpline
210
0.0
220
0.0
230
1.0
 70
     8
 71
     3
 72
    12
 73
     8
 74
     0
 42
0.000000001
 43
0.00000001
 40
0.0
 40
0.0
 40
0.0
 40
0.0
 40
0.25
 40
0.25
 40
0.5
 40
0.5
 40
1.0
 40
1.0
 40
1.0
 40
1.0
 10
-237.3757330732026
 20
139.8727994605688
 30
0.0
 10
-236.8754867408256
 20
139.3020845428927
 30
0.0
 10
-236.3283490146117
 20
138.7448822433002
 30
0.0
 10
-235.130719239976
 20
137.6529906028705
 30
0.0
 10
-234.4794374035151
 20
137.1177263923157
 30
0.0
 10
-232.3660059715496
 20
135.546240620827
 30
0.0
 10
-230.7442758924016
 20
134.5443307837534
 30
0.0
 10
-228.912133913736
 20
133.5920665331686
 30
0.0
  0
SPLINE
  5
188
330
168
100
AcDbEntity
  8
0
  6
Continuous
 62
     7
370
    25
100
AcDbSpline
210
0.0
220
0.0
230
1.0
 70
     8
 71
     3
 72
    38
 73
    34
 74
     0
 42
0.000000001
 43
0.00000001
 40
0.0
 40
0.0
 40
0.0
 40
0.0
 40
0.1249999999999969
 40
0.1249999999999969
 40
0.187499999999994
 40
0.187499999999994
 40
0.2187499999999926
 40
0.2187499999999926
 40
0.2499999999999912
 40
0.2499999999999912
 40
0.3749999999999886
 40
0.3749999999999886
 40
0.437499999999988
 40
0.437499999999988
 40
0.4687499999999878
 40
0.4687499999999878
 40
0.4999999999999877
 40
0.4999999999999877
 40
0.5624999999999892
 40
0.5624999999999892
 40
0.6249999999999908
 40
0.6249999999999908
 40
0.6874999999999923
 40
0.6874999999999923
 40
0.7499999999999938
 40
0.7499999999999938
 40
0.8124999999999953
 40
0.8124999999999953
 40
0.8749999999999969
 40
0.8749999999999969
 40
0.9374999999999984
 40
0.9374999999999984
 40
1.0
 40
1.0
 40
1.0
 40
1.0
 10
-201.301745673529
 20
165.6553415923136
 30
0.0
 10
-204.7927809800584
 20
165.2527805617898
 30
0.0
 10
-208.093204545412
 20
164.7660088734612
 30
0.0
 10
-212.7706449852492
 20
163.8923560758462
 30
0.0
 10
-214.28398232761
 20
163.5770587563042
 30
0.0
 10
-216.4844254048004
 20
163.0647927201748
 30
0.0
 10
-217.206295873992
 20
162.8874784993098
 30
0.0
 10
-218.6264638776723
 20
162.5191273122945
 30
0.0
 10
-219.3264465959352
 20
162.327590768068
 30
0.0
 10
-222.7423984257058
 20
161.3409435513846
 30
0.0
 10
-225.2039686436675
 20
160.4616267366204
 30
0.0
 10
-228.5037286732031
 20
158.9995567297742
 30
0.0
 10
-229.5378278715327
 20
158.4882879779658
 30
0.0
 10
-230.9885638952071
 20
157.6836664791072
 30
0.0
 10
-231.4553831811963
 20
157.409165624701
 30
0.0
 10
-232.3549192062148
 20
156.8471671405143
 30
0.0
 10
-232.7878617542238
 20
156.5594338420257
 30
0.0
 10
-234.0254673782949
 20
155.6827403262759
 30
0.0
 10
-234.7724060926924
 20
155.0783240031128
 30
0.0
 10
-236.1105852554356
 20
153.8284662864718
 30
0.0
 10
-236.7027963496533
 20
153.1814211416302
 30
0.0
 10
-237.7205133950789
 20
151.8562149168575
 30
0.0
 10
-238.1471828391672
 20
151.1773699396004
 30
0.0
 10
-238.8363837192624
 20
149.7879688600528
 30
0.0
 10
-239.0988045973185
 20
149.0761846401688
 30
0.0
 10
-239.453966475441
 20
147.6392548247541
 30
0.0
 10
-239.5477047917588
 20
146.9125098886054
 30
0.0
 10
-239.5671797323008
 20
145.4557343909103
 30
0.0
 10
-239.49251645212
 20
144.7263864769171
 30
0.0
 10
-239.174644436964
 20
143.292114806584
 30
0.0
 10
-238.9314117036931
 20
142.5863940654566
 30
0.0
 10
-238.27792109786
 20
141.2064537608579
 30
0.0
 10
-237.868015907988
 20
140.5324159632796
 30
0.0
 10
-237.3757330732027
 20
139.8727994605688
 30
0.0
  0
SPLINE
  5
18B
330
168
100
AcDbEntity
  8
0
  6
Continuous
 62
     7
370
    25
100
AcDbSpline
210
0.0
220
0.0
230
1.0
 70
     8
 71
     3
 72
    14
 73
    10
 74
     0
 42
0.000000001
 43
0.00000001
 40
0.0
 40
0.0
 40
0.0
 40
0.0
 40
0.25
 40
0.25
 40
0.5
 40
0.5
 40
0.75
 40
0.75
 40
1.0
 40
1.0
 40
1.0
 40
1.0
 10
-112.5504699743514
 20
151.1012477366349
 30
0.0
 10
-112.9895122027956
 20
151.6491985409027
 30
0.0
 10
-113.4872242448566
 20
152.1918703429293
 30
0.0
 10
-114.5969551308378
 20
153.2683087675449
 30
0.0
 10
-115.2098082745953
 20
153.8026667049738
 30
0.0
 10
-116.5428563751081
 20
154.8617593770036
 30
0.0
 10
-117.2630513012621
 20
155.3864578506462
 30
0.0
 10
-118.8022324717557
 20
156.4287335610724
 30
0.0
 10
-119.620150216351
 20
156.9456611162292
 30
0.0
 10
-120.4816901869839
 20
157.4620888296754
 30
0.0
  0
SPLINE
  5
18C
330
168
100
AcDbEntity
  8
0
  6
Continuous
 62
     7
370
    25
100
AcDbSpline
210
0.0
220
0.0
230
1.0
 70
     8
 71
     3
 72
    36
 73
    32
 74
     0
 42
0.000000001
 43
0.00000001
 40
0.0
 40
0.0
 40
0.0
 40
0.0
 40
0.0625000000000021
 40
0.0625000000000021
 40
0.1250000000000042
 40
0.1250000000000042
 40
0.1875000000000063
 40
0.1875000000000063
 40
0.2500000000000084
 40
0.2500000000000084
 40
0.2812500000000086
 40
0.2812500000000086
 40
0.3125000000000088
 40
0.3125000000000088
 40
0.3750000000000091
 40
0.3750000000000091
 40
0.5000000000000081
 40
0.5000000000000081
 40
0.5625000000000085
 40
0.5625000000000085
 40
0.6250000000000089
 40
0.6250000000000089
 40
0.7500000000000079
 40
0.7500000000000079
 40
0.7812500000000071
 40
0.7812500000000071
 40
0.8125000000000064
 40
0.8125000000000064
 40
0.8750000000000041
 40
0.8750000000000041
 40
1.0
 40
1.0
 40
1.0
 40
1.0
 10
-120.4816901869839
 20
157.4620888296755
 30
0.0
 10
-121.5461753540058
 20
158.0366365760336
 30
0.0
 10
-122.6796327544104
 20
158.6025496003679
 30
0.0
 10
-125.0811199689688
 20
159.7217739983995
 30
0.0
 10
-126.3467389733035
 20
160.2742820668252
 30
0.0
 10
-129.001263636084
 20
161.3594159723391
 30
0.0
 10
-130.3896415565971
 20
161.8916980410836
 30
0.0
 10
-133.2746020354123
 20
162.9142522421913
 30
0.0
 10
-134.7683484983413
 20
163.4030359768107
 30
0.0
 10
-137.0858690395836
 20
164.0926224881555
 30
0.0
 10
-137.8712092089599
 20
164.3152931025955
 30
0.0
 10
-139.4677594661602
 20
164.7452865118477
 30
0.0
 10
-140.2793794124333
 20
164.9526600114104
 30
0.0
 10
-142.734832676839
 20
165.5465347757481
 30
0.0
 10
-144.4050743911923
 20
165.9064312242244
 30
0.0
 10
-149.5132052664417
 20
166.8796418553806
 30
0.0
 10
-153.0477637607976
 20
167.3872705151586
 30
0.0
 10
-158.5470688463795
 20
167.9390811992027
 30
0.0
 10
-160.4207853048021
 20
168.0881030450226
 30
0.0
 10
-164.1657097331657
 20
168.3110628338265
 30
0.0
 10
-166.0435740872727
 20
168.385959554659
 30
0.0
 10
-171.6930696201064
 20
168.5056754882122
 30
0.0
 10
-175.480475354413
 20
168.4460303558057
 30
0.0
 10
-180.2419678940232
 20
168.2034408438495
 30
0.0
 10
-181.1979674433261
 20
168.1463056515272
 30
0.0
 10
-183.0983790701178
 20
168.0161972501934
 30
0.0
 10
-184.0430028031014
 20
167.9432649005111
 30
0.0
 10
-186.8604260296013
 20
167.7018134084902
 30
0.0
 10
-188.7168086628725
 20
167.510668500459
 30
0.0
 10
-194.2214640788493
 20
166.8534368402048
 30
0.0
 10
-197.8057653108081
 20
166.3043051830452
 30
0.0
 10
-201.301745673529
 20
165.6553415923136
 30
0.0
  0
LWPOLYLINE
  5
18E
330
168
100
AcDbEntity
  8
0
  6
Continuous
 62
     7
370
    25
100
AcDbPolyline
 90
       46
 70
   128
 43
0.0
 10
-215.8803141261
 20
128.6142109981
 10
-217.2101284931
 20
129.7714805227
 10
-218.3111643158
 20
131.0467186576
 10
-219.0697745501
 20
132.3494031125
 10
-219.4800220423
 20
133.6693386153
 10
-219.5386960496
 20
134.9961948811
 10
-219.2453373684
 20
136.3195874605
 10
-218.602241928
 20
137.6291590123
 10
-217.6144428222
 20
138.9146603635
 10
-216.2896709184
 20
140.1660307231
 10
-214.6382943528
 20
141.3734764214
 10
-212.6732373861
 20
142.5275475587
 10
-210.4098792535
 20
143.6192119635
 10
-207.865933801
 20
144.6399258818
 10
-205.061310851
 20
145.5817008432
 10
-202.0179603808
 20
146.4371661817
 10
-198.7597007342
 20
147.1996267212
 10
-195.3120322105
 20
147.8631151742
 10
-191.7019374905
 20
148.422438844
 10
-187.9576704601
 20
148.8732202644
 10
-184.1085350856
 20
149.2119314597
 10
-180.18465607
 20
149.4359215554
 10
-176.2167430868
 20
149.5434375256
 10
-172.2358504351
 20
149.5336379117
 10
-168.2731339973
 20
149.4065994093
 10
-164.3596074024
 20
149.1633162667
 10
-160.5258993021
 20
148.8056925044
 10
-156.8020136604
 20
148.3365270132
 10
-153.2170949313
 20
147.7594916493
 10
-149.7991999645
 20
147.0791024967
 10
-146.5750784224
 20
146.3006845231
 10
-143.5699634273
 20
145.4303299045
 10
-140.8073740786
 20
144.4748503458
 10
-138.3089313837
 20
143.4417237701
 10
-136.0941890441
 20
142.3390357937
 10
-134.1804804214
 20
141.175416445
 10
-132.5827828805
 20
139.9599726231
 10
-131.3136005706
 20
138.7022168239
 10
-130.3828665644
 20
137.4119926918
 10
-129.7978651172
 20
136.09939798
 10
-129.5631746587
 20
134.7747055219
 10
-129.6806319597
 20
133.448282832
 10
-130.1493177578
 20
132.1305109662
 10
-130.965563951
 20
130.8317032762
 10
-132.1229823062
 20
129.562024693
 10
-133.1617007548
 20
128.6721819905
  0
LWPOLYLINE
  5
18F
330
168
100
AcDbEntity
  8
0
  6
Continuous
 62
     7
370
    25
100
AcDbPolyline
 90
       36
 70
   128
 43
0.0
 10
-239.5582868636
 20
145.440249022
 10
-239.5155603853
 20
146.2257153821
 10
-239.163333228
 20
147.8251083058
 10
-238.4571685321
 20
149.4114358225
 10
-237.4009350078
 20
150.9760072666
 10
-236.0004192107
 20
152.5102511627
 10
-234.2632938403
 20
154.0057621842
 10
-232.1990757056
 20
155.454347202
 10
-229.819073587
 20
156.8480701702
 10
-227.1363262815
 20
158.1792956036
 10
-224.1655311702
 20
159.4407304084
 10
-220.9229636985
 20
160.6254638377
 10
-217.4263882117
 20
161.7270053516
 10
-213.6949606332
 20
162.7393201755
 10
-209.7491235193
 20
163.6568623615
 10
-205.6104940647
 20
164.4746051719
 10
-201.3017456735
 20
165.1880686181
 10
-196.8464837433
 20
165.7933440039
 10
-192.2691163433
 20
166.2871153393
 10
-187.5947204951
 20
166.6666775075
 10
-182.848904789
 20
166.929951084
 10
-178.0576690876
 20
167.0754937296
 10
-173.2472620861
 20
167.1025080917
 10
-168.4440375094
 20
167.0108461724
 10
-163.6743097334
 20
166.80101014
 10
-158.9642096227
 20
166.4741495772
 10
-154.3395413725
 20
166.0320551835
 10
-149.8256411414
 20
165.4771489648
 10
-145.4472382475
 20
164.8124709644
 10
-141.2283196891
 20
164.0416626082
 10
-137.1919987327
 20
163.1689467556
 10
-133.3603882871
 20
162.1991045639
 10
-129.7544797586
 20
161.1374492955
 10
-126.3940280495
 20
159.9897972089
 10
-123.2974433319
 20
158.7624356946
 10
-120.481690187
 20
157.4620888297
  0
LWPOLYLINE
  5
190
330
168
100
AcDbEntity
  8
0
  6
Continuous
 62
     7
370
    25
100
AcDbPolyline
 90
       34
 70
   128
 43
0.0
 10
-130.3655272761
 20
131.7252008178
 10
-130.3828665644
 20
131.7551384421
 10
-131.3136005706
 20
133.0453625742
 10
-132.5827828805
 20
134.3031183734
 10
-134.1804804214
 20
135.5185621953
 10
-136.0941890441
 20
136.682181544
 10
-138.3089313837
 20
137.7848695205
 10
-140.8073740786
 20
138.8179960961
 10
-143.5699634273
 20
139.7734756548
 10
-146.5750784224
 20
140.6438302734
 10
-149.7991999645
 20
141.4222482471
 10
-153.2170949313
 20
142.1026373997
 10
-156.8020136604
 20
142.6796727636
 10
-160.5258993021
 20
143.1488382547
 10
-164.3596074024
 20
143.506462017
 10
-168.2731339973
 20
143.7497451596
 10
-172.2358504351
 20
143.8767836621
 10
-176.2167430868
 20
143.8865832759
 10
-180.18465607
 20
143.7790673058
 10
-184.1085350856
 20
143.55507721
 10
-187.9576704601
 20
143.2163660147
 10
-191.7019374905
 20
142.7655845943
 10
-195.3120322105
 20
142.2062609246
 10
-198.7597007342
 20
141.5427724716
 10
-202.0179603808
 20
140.7803119321
 10
-205.061310851
 20
139.9248465935
 10
-207.865933801
 20
138.9830716321
 10
-210.4098792535
 20
137.9623577138
 10
-212.6732373861
 20
136.870693309
 10
-214.6382943528
 20
135.7166221718
 10
-216.2896709184
 20
134.5091764735
 10
-217.6144428222
 20
133.2578061139
 10
-218.602241928
 20
131.9723047626
 10
-218.7510464511
 20
131.7252008178
  0
LINE
  5
191
330
168
100
AcDbEntity
  8
0
  6
Continuous
 62
     7
370
    25
100
AcDbLine
 10
290.930478106
 20
-167.6875040744
 30
0.0
 11
290.930478106
 21
-214.8279561549
 31
0.0
  0
LINE
  5
192
330
168
100
AcDbEntity
  8
0
  6
Continuous
 62
     7
370
    25
100
AcDbLine
 10
290.930478106
 20
-167.6875040744
 30
0.0
 11
644.4838686182
 21
144.1172780928
 31
0.0
  0
LINE
  5
193
330
168
100
AcDbEntity
  8
0
  6
Continuous
 62
     7
370
    25
100
AcDbLine
 10
644.4838686182
 20
144.1172780928
 30
0.0
 11
644.4838686182
 21
96.9768260123
 31
0.0
  0
LINE
  5
194
330
168
100
AcDbEntity
  8
0
  6
Continuous
 62
     7
370
    25
100
AcDbLine
 10
290.930478106
 20
-214.8279561549
 30
0.0
 11
644.4838686182
 21
96.9768260123
 31
0.0
  0
LINE
  5
195
330
168
100
AcDbEntity
  8
0
  6
Continuous
 62
     7
370
    25
100
AcDbLine
 10
-644.4838686182
 20
-49.8363739318
 30
0.0
 11
-644.4838686182
 21
-96.9768260123
 31
0.0
  0
LINE
  5
196
330
168
100
AcDbEntity
  8
0
  6
Continuous
 62
     7
370
    25
100
AcDbLine
 10
-644.4838686182
 20
-49.8363739318
 30
0.0
 11
290.930478106
 21
-167.6875040744
 31
0.0
  0
LINE
  5
197
330
168
100
AcDbEntity
  8
0
  6
Continuous
 62
     7
370
    25
100
AcDbLine
 10
-644.4838686182
 20
-96.9768260123
 30
0.0
 11
290.930478106
 21
-214.8279561549
 31
0.0
  0
LINE
  5
198
330
168
100
AcDbEntity
  8
0
  6
Continuous
 62
     7
370
    25
100
AcDbLine
 10
644.4838686182
 20
144.1172780928
 30
0.0
 11
-290.930478106
 21
261.9684082354
 31
0.0
  0
LINE
  5
199
330
168
100
AcDbEntity
  8
0
  6
Continuous
 62
     7
370
    25
100
AcDbLine
 10
-290.930478106
 20
261.9684082354
 30
0.0
 11
-644.4838686182
 21
-49.8363739318
 31
0.0
  0
LINE
  5
19A
330
168
100
AcDbEntity
  8
0
  6
Continuous
 62
     7
370
    25
100
AcDbLine
 10
-290.8722920104
 20
261.9254426442
 30
0.0
 11
644.3549718444
 21
144.0978827276
 31
0.0
  0
LINE
  5
19B
330
168
100
AcDbEntity
  8
0
  6
Continuous
 62
     7
370
    25
100
AcDbLine
 10
-644.3549718444
 20
-49.8169785665
 30
0.0
 11
-290.8722920104
 21
261.9254426442
 31
0.0
  0
LINE
  5
19C
330
168
100
AcDbEntity
  8
0
  6
Continuous
 62
     7
370
    25
100
AcDbLine
 10
290.8722920104
 20
-167.6445384832
 30
0.0
 11
-644.3549718444
 21
-49.8169785665
 31
0.0
  0
LINE
  5
19D
330
168
100
AcDbEntity
  8
0
  6
Continuous
 62
     7
370
    25
100
AcDbLine
 10
644.3549718444
 20
144.0978827276
 30
0.0
 11
290.8722920104
 21
-167.6445384832
 31
0.0
  0
LINE
  5
19E
330
168
100
AcDbEntity
  8
0
  6
Continuous
 62
     7
370
    25
100
AcDbLine
 10
290.8722920104
 20
-167.6445384832
 30
0.0
 11
261.8374302954
 21
-147.8475969581
 31
0.0
  0
LINE
  5
19F
330
168
100
AcDbEntity
  8
0
  6
Continuous
 62
     7
370
    25
100
AcDbLine
 10
261.8374302954
 20
-147.8475969581
 30
0.0
 11
580.0354817563
 21
132.7767069924
 31
0.0
  0
LINE
  5
1A0
330
168
100
AcDbEntity
  8
0
  6
Continuous
 62
     7
370
    25
100
AcDbLine
 10
644.3549718444
 20
144.0978827276
 30
0.0
 11
580.0354817563
 21
132.7767069924
 31
0.0
  0
LINE
  5
1A1
330
168
100
AcDbEntity
  8
0
  6
Continuous
 62
     7
370
    25
100
AcDbLine
 10
-580.0354817563
 20
-41.7815798296
 30
0.0
 11
261.8374302954
 21
-147.8475969581
 31
0.0
  0
LINE
  5
1A2
330
168
100
AcDbEntity
  8
0
  6
Continuous
 62
     7
370
    25
100
AcDbLine
 10
-580.0354817563
 20
-41.7815798296
 30
0.0
 11
-644.3549718444
 21
-49.8169785665
 31
0.0
  0
LINE
  5
1A3
330
168
100
AcDbEntity
  8
0
  6
Continuous
 62
     7
370
    25
100
AcDbLine
 10
560.6086768334
 20
115.6438754605
 30
0.0
 11
-112.5504699744
 21
151.1012477366
 31
0.0
  0
LINE
  5
1A4
330
168
100
AcDbEntity
  8
0
  6
Continuous
 62
     7
370
    25
100
AcDbLine
 10
230.8116362491
 20
-143.9387143279
 30
0.0
 11
-148.0917655592
 21
125.5305372185
 31
0.0
  0
LINE
  5
1A5
330
168
100
AcDbEntity
  8
0
  6
Continuous
 62
     7
370
    25
100
AcDbLine
 10
-553.2234028107
 20
-45.1595842576
 30
0.0
 11
-228.9121339137
 21
133.5920665332
 31
0.0
  0
LINE
  5
1A6
330
168
100
AcDbEntity
  8
0
  6
Continuous
 62
     7
370
    25
100
AcDbLine
 10
-261.8374302954
 20
238.8427241208
 30
0.0
 11
-580.0354817563
 21
-41.7815798296
 31
0.0
  0
LINE
  5
1A7
330
168
100
AcDbEntity
  8
0
  6
Continuous
 62
     7
370
    25
100
AcDbLine
 10
-261.8374302954
 20
238.8427241208
 30
0.0
 11
-290.8722920104
 21
261.9254426442
 31
0.0
  0
LINE
  5
1A8
330
168
100
AcDbEntity
  8
0
  6
Continuous
 62
     7
370
    25
100
AcDbLine
 10
-562.0217833746
 20
-44.0510925004
 30
0.0
 11
-261.8374302954
 21
220.6866227461
 31
0.0
  0
LINE
  5
1A9
330
168
100
AcDbEntity
  8
0
  6
Continuous
 62
     7
370
    25
100
AcDbLine
 10
-201.3017456735
 20
165.6553415923
 30
0.0
 11
-261.8374302954
 21
220.6866227461
 31
0.0
  0
LINE
  5
1AA
330
168
100
AcDbEntity
  8
0
  6
Continuous
 62
     7
370
    25
100
AcDbLine
 10
-261.8374302954
 20
220.6866227461
 30
0.0
 11
-261.8374302954
 21
238.8427241208
 31
0.0
  0
LINE
  5
1AB
330
168
100
AcDbEntity
  8
0
  6
Continuous
 62
     7
370
    25
100
AcDbLine
 10
-261.8374302954
 20
220.6866227461
 30
0.0
 11
562.0217833746
 21
116.8901182885
 31
0.0
  0
LINE
  5
1AC
330
168
100
AcDbEntity
  8
0
  6
Continuous
 62
     7
370
    25
100
AcDbLine
 10
580.0354817563
 20
132.7767069924
 30
0.0
 11
-261.8374302954
 21
238.8427241208
 31
0.0
  0
VIEWPORT
  5
1BD
330
168
100
AcDbEntity
  8
0
100
AcDbViewport
 10
0.0
 20
0.0
 30
0.0
 40
205.6
 41
156.0
 68
     1
 69
     1
 12
0.0
 22
0.0
 13
0.0
 23
0.0
 14
10.0
 24
10.0
 15
10.0
 25
10.0
 16
0.0
 26
0.0
 36
1.0
 17
0.0
 27
0.0
 37
0.0
 42
50.0
 43
0.0
 44
0.0
 45
1020.0
 50
0.0
 51
0.0
 72
   100
 90
   557152
  1

281
     0
 71
     1
 74
     0
110
0.0
120
0.0
130
0.0
111
1.0
121
0.0
131
0.0
112
0.0
122
1.0
132
0.0
 79
     0
146
0.0
  0
ENDBLK
  5
16B
330
168
100
AcDbEntity
  8
0
100
AcDbBlockEnd
  0
ENDSEC
  0
SECTION
  2
ENTITIES
  0
SPLINE
  5
85
330
1F
100
AcDbEntity
  8
0
  6
Continuous
 62
     7
370
    25
100
AcDbSpline
210
0.0
220
0.0
230
1.0
 70
     8
 71
     3
 72
    14
 73
    10
 74
     0
 42
0.000000001
 43
0.00000001
 40
0.0
 40
0.0
 40
0.0
 40
0.0
 40
0.25
 40
0.25
 40
0.5
 40
0.5
 40
0.75
 40
0.75
 40
1.0
 40
1.0
 40
1.0
 40
1.0
 10
-248.2853138542001
 20
338.5603925686427
 30
0.0
 10
-249.2647632762094
 20
339.9099732135992
 30
0.0
 10
-250.2919821533926
 20
341.2199966649683
 30
0.0
 10
-252.4394842606662
 20
343.7629602424931
 30
0.0
 10
-253.5611653587251
 20
344.9972390233698
 30
0.0
 10
-255.8880844301373
 20
347.3832588019669
 30
0.0
 10
-257.0933334921015
 20
348.5350292239482
 30
0.0
 10
-259.5784649842573
 20
350.7566073556901
 30
0.0
 10
-260.8566865534143
 20
351.8250430138495
 30
0.0
 10
-262.1670623223308
 20
352.8551684008063
 30
0.0
  0
SPLINE
  5
86
330
1F
100
AcDbEntity
  8
0
  6
Continuous
 62
     7
370
    25
100
AcDbSpline
210
0.0
220
0.0
230
1.0
 70
     8
 71
     3
 72
    36
 73
    32
 74
     0
 42
0.000000001
 43
0.00000001
 40
0.0
 40
0.0
 40
0.0
 40
0.0
 40
0.0625000000000021
 40
0.0625000000000021
 40
0.1250000000000042
 40
0.1250000000000042
 40
0.1875000000000063
 40
0.1875000000000063
 40
0.2500000000000084
 40
0.2500000000000084
 40
0.2812500000000086
 40
0.2812500000000086
 40
0.3125000000000088
 40
0.3125000000000088
 40
0.3750000000000091
 40
0.3750000000000091
 40
0.5000000000000081
 40
0.5000000000000081
 40
0.5625000000000085
 40
0.5625000000000085
 40
0.6250000000000089
 40
0.6250000000000089
 40
0.7500000000000079
 40
0.7500000000000079
 40
0.7812500000000071
 40
0.7812500000000071
 40
0.8125000000000064
 40
0.8125000000000064
 40
0.8750000000000041
 40
0.8750000000000041
 40
1.0
 40
1.0
 40
1.0
 40
1.0
 10
-262.1670623223309
 20
352.8551684008065
 30
0.0
 10
-263.7270992675831
 20
353.9718194741136
 30
0.0
 10
-265.3341506655527
 20
355.0177761615703
 30
0.0
 10
-268.6376593913818
 20
356.9656071273911
 30
0.0
 10
-270.3307663728956
 20
357.8654360224027
 30
0.0
 10
-273.7912118514787
 20
359.5127846253932
 30
0.0
 10
-275.5577916010954
 20
360.2597895445883
 30
0.0
 10
-279.1460985953571
 20
361.593657007674
 30
0.0
 10
-280.9644328989193
 20
362.1795643623275
 30
0.0
 10
-283.7285064260867
 20
362.937677560117
 30
0.0
 10
-284.6559649486238
 20
363.1702247249945
 30
0.0
 10
-286.5232059156774
 20
363.5947539084235
 30
0.0
 10
-287.4634204015011
 20
363.7867197460753
 30
0.0
 10
-290.2815525249408
 20
364.2977258901888
 30
0.0
 10
-292.1638685035869
 20
364.553708888992
 30
0.0
 10
-297.8212626152111
 20
365.073790853332
 30
0.0
 10
-301.6067081870247
 20
365.0918973188157
 30
0.0
 10
-307.3059283866756
 20
364.6162329631584
 30
0.0
 10
-309.2165190562561
 20
364.3715102771322
 30
0.0
 10
-312.9739804099883
 20
363.7205727469122
 30
0.0
 10
-314.8279865052008
 20
363.3144093283595
 30
0.0
 10
-320.317456783312
 20
361.8589961076652
 30
0.0
 10
-323.8809276289755
 20
360.5746526582022
 30
0.0
 10
-328.2120315607057
 20
358.5661419105389
 30
0.0
 10
-329.0741145197694
 20
358.1430239732126
 30
0.0
 10
-330.7727907113972
 20
357.2621229408305
 30
0.0
 10
-331.6096233635782
 20
356.8043746383979
 30
0.0
 10
-334.0832437495621
 20
355.3800827418562
 30
0.0
 10
-335.6832244152886
 20
354.3625906919336
 30
0.0
 10
-340.3383044945301
 20
351.1092582234249
 30
0.0
 10
-343.2497081418723
 20
348.674173412379
 30
0.0
 10
-345.9619407771256
 20
345.9619407771256
 30
0.0
  0
SPLINE
  5
87
330
1F
100
AcDbEntity
  8
0
  6
Continuous
 62
     7
370
    25
100
AcDbSpline
210
0.0
220
0.0
230
1.0
 70
     8
 71
     3
 72
    12
 73
     8
 74
     0
 42
0.000000001
 43
0.00000001
 40
0.0
 40
0.0
 40
0.0
 40
0.0
 40
0.25
 40
0.25
 40
0.5
 40
0.5
 40
1.0
 40
1.0
 40
1.0
 40
1.0
 10
-352.8551684008061
 20
262.1670623223305
 30
0.0
 10
-351.8251664246633
 20
260.8568435387118
 30
0.0
 10
-350.757490343776
 20
259.5795773333213
 30
0.0
 10
-348.5391564187669
 20
257.0978259820712
 30
0.0
 10
-347.3871845973854
 20
255.8920982370657
 30
0.0
 10
-343.808515432092
 20
252.4015163884754
 30
0.0
 10
-341.2593816668664
 20
250.2440877312141
 30
0.0
 10
-338.5603925686427
 20
248.2853138542
 30
0.0
  0
SPLINE
  5
89
330
1F
100
AcDbEntity
  8
0
  6
Continuous
 62
     7
370
    25
100
AcDbSpline
210
0.0
220
0.0
230
1.0
 70
     8
 71
     3
 72
    38
 73
    34
 74
     0
 42
0.000000001
 43
0.00000001
 40
0.0
 40
0.0
 40
0.0
 40
0.0
 40
0.1249999999999969
 40
0.1249999999999969
 40
0.187499999999994
 40
0.187499999999994
 40
0.2187499999999926
 40
0.2187499999999926
 40
0.2499999999999912
 40
0.2499999999999912
 40
0.3749999999999886
 40
0.3749999999999886
 40
0.437499999999988
 40
0.437499999999988
 40
0.4687499999999878
 40
0.4687499999999878
 40
0.4999999999999877
 40
0.4999999999999877
 40
0.5624999999999892
 40
0.5624999999999892
 40
0.6249999999999908
 40
0.6249999999999908
 40
0.6874999999999923
 40
0.6874999999999923
 40
0.7499999999999938
 40
0.7499999999999938
 40
0.8124999999999953
 40
0.8124999999999953
 40
0.8749999999999969
 40
0.8749999999999969
 40
0.9374999999999984
 40
0.9374999999999984
 40
1.0
 40
1.0
 40
1.0
 40
1.0
 10
-345.9619407771256
 20
345.9619407771256
 30
0.0
 10
-348.6703369655473
 20
343.2535445887041
 30
0.0
 10
-351.1005741778368
 20
340.3483403434634
 30
0.0
 10
-354.346740004122
 20
335.7070884190872
 30
0.0
 10
-355.3618584675568
 20
334.1124750363031
 30
0.0
 10
-356.7828282375139
 20
331.6482147817228
 30
0.0
 10
-357.2395091292833
 20
330.8147208340936
 30
0.0
 10
-358.1183958962571
 20
329.123194946474
 30
0.0
 10
-358.5415815889071
 20
328.2629889402774
 30
0.0
 10
-360.555586289072
 20
323.9297737032597
 30
0.0
 10
-361.8414236869116
 20
320.3694077097544
 30
0.0
 10
-363.2990674265386
 20
314.8928397711156
 30
0.0
 10
-363.7059645829671
 20
313.0445142335826
 30
0.0
 10
-364.1958076854799
 20
310.2372161434632
 30
0.0
 10
-364.3389762461998
 20
309.2956402196408
 30
0.0
 10
-364.5843865273288
 20
307.4006626994247
 30
0.0
 10
-364.6866029590013
 20
306.4465555110788
 30
0.0
 10
-364.9290956595341
 20
303.5876535739412
 30
0.0
 10
-365.0063781713904
 20
301.6794621602515
 30
0.0
 10
-364.9928011026598
 20
297.8585983703065
 30
0.0
 10
-364.9013166892489
 20
295.9415274406737
 30
0.0
 10
-364.550773485569
 20
292.1355388024513
 30
0.0
 10
-364.2921233611156
 20
290.2444114671555
 30
0.0
 10
-363.6083004728861
 20
286.4858316995047
 30
0.0
 10
-363.182043832154
 20
284.6158243033781
 30
0.0
 10
-362.1703942737784
 20
280.9347016672783
 30
0.0
 10
-361.5845110594728
 20
279.1194683879302
 30
0.0
 10
-360.2520787217121
 20
275.5391003323759
 30
0.0
 10
-359.505213499481
 20
273.7742603378861
 30
0.0
 10
-357.8597999098282
 20
270.3199830047481
 30
0.0
 10
-356.9604289158505
 20
268.6284370782417
 30
0.0
 10
-355.0152291498682
 20
265.3302728014915
 30
0.0
 10
-353.9702514442683
 20
263.7249086240166
 30
0.0
 10
-352.8551684008063
 20
262.1670623223306
 30
0.0
  0
SPLINE
  5
8B
330
1F
100
AcDbEntity
  8
0
  6
Continuous
 62
     7
370
    25
100
AcDbSpline
210
0.0
220
0.0
230
1.0
 70
     8
 71
     3
 72
    38
 73
    34
 74
     0
 42
0.000000001
 43
0.00000001
 40
0.0
 40
0.0
 40
0.0
 40
0.0
 40
0.1250000000000039
 40
0.1250000000000039
 40
0.1875000000000064
 40
0.1875000000000064
 40
0.2187500000000076
 40
0.2187500000000076
 40
0.2500000000000088
 40
0.2500000000000088
 40
0.3750000000000104
 40
0.3750000000000104
 40
0.4375000000000113
 40
0.4375000000000113
 40
0.4687500000000125
 40
0.4687500000000125
 40
0.5000000000000138
 40
0.5000000000000138
 40
0.625000000000017
 40
0.625000000000017
 40
0.6875000000000177
 40
0.6875000000000177
 40
0.7187500000000171
 40
0.7187500000000171
 40
0.7500000000000164
 40
0.7500000000000164
 40
0.8750000000000091
 40
0.8750000000000091
 40
0.9375000000000046
 40
0.9375000000000046
 40
0.9687500000000023
 40
0.9687500000000023
 40
1.0
 40
1.0
 40
1.0
 40
1.0
 10
-254.5140105692795
 20
254.5140105692795
 30
0.0
 10
-251.7758116111455
 20
257.2400854454938
 30
0.0
 10
-249.3224298876401
 20
260.1690332917903
 30
0.0
 10
-246.0515675921285
 20
264.8539320149318
 30
0.0
 10
-245.0299083382671
 20
266.4644481838909
 30
0.0
 10
-243.6018639609882
 20
268.9546173752134
 30
0.0
 10
-243.1432815940003
 20
269.7970907410884
 30
0.0
 10
-242.2615484731737
 20
271.5072751055882
 30
0.0
 10
-241.8374977731892
 20
272.3770810951772
 30
0.0
 10
-239.8252077916754
 20
276.7514196248659
 30
0.0
 10
-238.5482252393766
 20
280.3471520853561
 30
0.0
 10
-237.1161634278944
 20
285.8805559388373
 30
0.0
 10
-236.7198767912739
 20
287.7484689678922
 30
0.0
 10
-236.2495236439393
 20
290.5862222434554
 30
0.0
 10
-236.1134485862428
 20
291.5381292579113
 30
0.0
 10
-235.8835109046638
 20
293.4541513688766
 30
0.0
 10
-235.7901450982781
 20
294.4148231841642
 30
0.0
 10
-235.4325507378515
 20
299.2035628625852
 30
0.0
 10
-235.4901904650573
 20
303.0152024605249
 30
0.0
 10
-236.0814101221882
 20
308.7042428930944
 30
0.0
 10
-236.3631033013934
 20
310.5958254319434
 30
0.0
 10
-236.9158906401131
 20
313.425866150114
 30
0.0
 10
-237.1224879456941
 20
314.3703311346102
 30
0.0
 10
-237.5769275324214
 20
316.2440118349871
 30
0.0
 10
-237.8244328748318
 20
317.1724094258307
 30
0.0
 10
-239.1615611745012
 20
321.7729436222177
 30
0.0
 10
-240.547715308449
 20
325.3216652400015
 30
0.0
 10
-243.0963962095327
 20
330.4493648792726
 30
0.0
 10
-244.0246414649797
 20
332.1258497738947
 30
0.0
 10
-245.5387007022464
 20
334.5899297449393
 30
0.0
 10
-246.0634872868258
 20
335.402328969272
 30
0.0
 10
-247.1474494514762
 20
336.9998949458585
 30
0.0
 10
-247.7073858502582
 20
337.7863301345283
 30
0.0
 10
-248.2853138542002
 20
338.5603925686427
 30
0.0
  0
SPLINE
  5
8C
330
1F
100
AcDbEntity
  8
0
  6
Continuous
 62
     7
370
    25
100
AcDbSpline
210
0.0
220
0.0
230
1.0
 70
     8
 71
     3
 72
    38
 73
    34
 74
     0
 42
0.000000001
 43
0.00000001
 40
0.0
 40
0.0
 40
0.0
 40
0.0
 40
0.124999999999993
 40
0.124999999999993
 40
0.1874999999999895
 40
0.1874999999999895
 40
0.2187499999999884
 40
0.2187499999999884
 40
0.2499999999999873
 40
0.2499999999999873
 40
0.3749999999999877
 40
0.3749999999999877
 40
0.437499999999987
 40
0.437499999999987
 40
0.4687499999999866
 40
0.4687499999999866
 40
0.4999999999999863
 40
0.4999999999999863
 40
0.6249999999999869
 40
0.6249999999999869
 40
0.6874999999999872
 40
0.6874999999999872
 40
0.7187499999999883
 40
0.7187499999999883
 40
0.7499999999999893
 40
0.7499999999999893
 40
0.8749999999999943
 40
0.8749999999999943
 40
0.9374999999999968
 40
0.9374999999999968
 40
0.9687499999999984
 40
0.9687499999999984
 40
1.0
 40
1.0
 40
1.0
 40
1.0
 10
-338.5603925686427
 20
248.2853138542001
 30
0.0
 10
-335.4643651423538
 20
245.9737678189351
 30
0.0
 10
-332.2083646718987
 20
243.9750993417613
 30
0.0
 10
-327.0944699580971
 20
241.4267265837568
 30
0.0
 10
-325.3512880065491
 20
240.6526663739245
 30
0.0
 10
-322.6778343349406
 20
239.6063446822067
 30
0.0
 10
-321.7768890067915
 20
239.2767262312113
 30
0.0
 10
-319.9550904513827
 20
238.6564254728942
 30
0.0
 10
-319.0322024255365
 20
238.3652255502518
 30
0.0
 10
-314.4102058181065
 20
237.0206160688165
 30
0.0
 10
-310.6656293899974
 20
236.2893353893803
 30
0.0
 10
-304.9805574205577
 20
235.6924430419521
 30
0.0
 10
-303.0741000632239
 20
235.5772969284666
 30
0.0
 10
-300.1969166804618
 20
235.5328506450663
 30
0.0
 10
-299.2349350937764
 20
235.5394450716132
 30
0.0
 10
-297.305019325549
 20
235.5962722458563
 30
0.0
 10
-296.3424373641734
 20
235.6463921275666
 30
0.0
 10
-291.5559302427866
 20
236.0028774776364
 30
0.0
 10
-287.7953515294479
 20
236.6248074462742
 30
0.0
 10
-282.2552907367879
 20
238.0523493416581
 30
0.0
 10
-280.4254981058808
 20
238.6110947067382
 30
0.0
 10
-277.706810410229
 20
239.5767973968507
 30
0.0
 10
-276.8026959940564
 20
239.9209509107897
 30
0.0
 10
-275.0180690792036
 20
240.6466078760372
 30
0.0
 10
-274.136943287297
 20
241.0281930535351
 30
0.0
 10
-269.7862718240505
 20
243.0282580468314
 30
0.0
 10
-266.4802941005778
 20
244.9209680970685
 30
0.0
 10
-261.7806786492266
 20
248.194848814629
 30
0.0
 10
-260.2576074046069
 20
249.3590174981089
 30
0.0
 10
-258.0402760445067
 20
251.2180613825915
 30
0.0
 10
-257.3136320315774
 20
251.8556184917187
 30
0.0
 10
-255.8917167164938
 20
253.1609428578934
 30
0.0
 10
-255.1954836132638
 20
253.8295067079534
 30
0.0
 10
-254.5140105692796
 20
254.5140105692796
 30
0.0
  0
CIRCLE
  5
8D
330
1F
100
AcDbEntity
  8
0
  6
Continuous
 62
     7
370
    25
100
AcDbCircle
 10
-300.0
 20
300.0
 30
0.0
 40
45.00000000000023
  0
LINE
  5
8E
330
1F
100
AcDbEntity
  8
0
  6
Continuous
 62
     7
370
    25
100
AcDbLine
 10
-450.0
 20
-450.0
 30
0.0
 11
450.0
 21
-450.0
 31
0.0
  0
LINE
  5
8F
330
1F
100
AcDbEntity
  8
0
  6
Continuous
 62
     7
370
    25
100
AcDbLine
 10
499.9
 20
-499.9
 30
0.0
 11
-254.5140105693
 21
254.5140105693
 31
0.0
  0
LINE
  5
90
330
1F
100
AcDbEntity
  8
0
  6
Continuous
 62
     7
370
    25
100
AcDbLine
 10
499.9
 20
-499.9
 30
0.0
 11
-499.9
 21
-499.9
 31
0.0
  0
LINE
  5
91
330
1F
100
AcDbEntity
  8
0
  6
Continuous
 62
     7
370
    25
100
AcDbLine
 10
-450.0
 20
-450.0
 30
0.0
 11
-499.9
 21
-499.9
 31
0.0
  0
LINE
  5
92
330
1F
100
AcDbEntity
  8
0
  6
Continuous
 62
     7
370
    25
100
AcDbLine
 10
-500.0
 20
500.0
 30
0.0
 11
-500.0
 21
-500.0
 31
0.0
  0
LINE
  5
93
330
1F
100
AcDbEntity
  8
0
  6
Continuous
 62
     7
370
    25
100
AcDbLine
 10
-499.9
 20
499.9
 30
0.0
 11
499.9
 21
499.9
 31
0.0
  0
LINE
  5
94
330
1F
100
AcDbEntity
  8
0
  6
Continuous
 62
     7
370
    25
100
AcDbLine
 10
-499.9
 20
-499.9
 30
0.0
 11
-499.9
 21
499.9
 31
0.0
  0
LINE
  5
95
330
1F
100
AcDbEntity
  8
0
  6
Continuous
 62
     7
370
    25
100
AcDbLine
 10
499.9
 20
499.9
 30
0.0
 11
499.9
 21
-499.9
 31
0.0
  0
LINE
  5
96
330
1F
100
AcDbEntity
  8
0
  6
Continuous
 62
     7
370
    25
100
AcDbLine
 10
500.0
 20
500.0
 30
0.0
 11
-500.0
 21
500.0
 31
0.0
  0
LINE
  5
97
330
1F
100
AcDbEntity
  8
0
  6
Continuous
 62
     7
370
    25
100
AcDbLine
 10
500.0
 20
-500.0
 30
0.0
 11
500.0
 21
500.0
 31
0.0
  0
LINE
  5
98
330
1F
100
AcDbEntity
  8
0
  6
Continuous
 62
     7
370
    25
100
AcDbLine
 10
-500.0
 20
-500.0
 30
0.0
 11
500.0
 21
-500.0
 31
0.0
  0
LINE
  5
99
330
1F
100
AcDbEntity
  8
0
  6
Continuous
 62
     7
370
    25
100
AcDbLine
 10
-450.0
 20
450.0
 30
0.0
 11
-450.0
 21
-450.0
 31
0.0
  0
LINE
  5
9A
330
1F
100
AcDbEntity
  8
0
  6
Continuous
 62
     7
370
    25
100
AcDbLine
 10
-345.9619407771
 20
345.9619407771
 30
0.0
 11
-499.9
 21
499.9
 31
0.0
  0
LINE
  5
9B
330
1F
100
AcDbEntity
  8
0
  6
Continuous
 62
     7
370
    25
100
AcDbLine
 10
450.0
 20
450.0
 30
0.0
 11
-450.0
 21
450.0
 31
0.0
  0
LINE
  5
9C
330
1F
100
AcDbEntity
  8
0
  6
Continuous
 62
     7
370
    25
100
AcDbLine
 10
499.9
 20
499.9
 30
0.0
 11
450.0
 21
450.0
 31
0.0
  0
LINE
  5
9D
330
1F
100
AcDbEntity
  8
0
  6
Continuous
 62
     7
370
    25
100
AcDbLine
 10
450.0
 20
-450.0
 30
0.0
 11
450.0
 21
450.0
 31
0.0
  0
LINE
  5
9E
330
1F
100
AcDbEntity
  8
0
  6
Continuous
 62
     7
370
    25
100
AcDbLine
 10
450.0
 20
450.0
 30
0.0
 11
-248.2853138542
 21
338.5603925686
 31
0.0
  0
LINE
  5
9F
330
1F
100
AcDbEntity
  8
0
  6
Continuous
 62
     7
370
    25
100
AcDbLine
 10
-450.0
 20
-450.0
 30
0.0
 11
-338.5603925686
 21
248.2853138542
 31
0.0
  0
LINE
  5
A4
330
1B
100
AcDbEntity
 67
     1
  8
0
  6
Continuous
 62
     7
370
    25
100
AcDbLine
 10
-500.0
 20
50.0
 30
0.0
 11
-500.0
 21
0.0
 31
0.0
  0
LINE
  5
A5
330
1B
100
AcDbEntity
 67
     1
  8
0
  6
Continuous
 62
     7
370
    25
100
AcDbLine
 10
-500.0
 20
50.0
 30
0.0
 11
500.0
 21
50.0
 31
0.0
  0
LINE
  5
A6
330
1B
100
AcDbEntity
 67
     1
  8
0
  6
Continuous
 62
     7
370
    25
100
AcDbLine
 10
500.0
 20
50.0
 30
0.0
 11
500.0
 21
0.0
 31
0.0
  0
LINE
  5
A7
330
1B
100
AcDbEntity
 67
     1
  8
0
  6
Continuous
 62
     7
370
    25
100
AcDbLine
 10
-500.0
 20
0.0
 30
0.0
 11
500.0
 21
0.0
 31
0.0
  0
VIEWPORT
  5
1AD
330
1B
100
AcDbEntity
 67
     1
  8
0
100
AcDbViewport
 10
0.0
 20
0.0
 30
0.0
 40
205.6
 41
156.0
 68
     1
 69
     1
 12
0.0
 22
0.0
 13
0.0
 23
0.0
 14
10.0
 24
10.0
 15
10.0
 25
10.0
 16
0.0
 26
0.0
 36
1.0
 17
0.0
 27
0.0
 37
0.0
 42
50.0
 43
0.0
 44
0.0
 45
1020.0
 50
0.0
 51
0.0
 72
   100
 90
   557152
  1

281
     0
 71
     1
 74
     0
110
0.0
120
0.0
130
0.0
111
1.0
121
0.0
131
0.0
112
0.0
122
1.0
132
0.0
 79
     0
146
0.0
  0
ENDSEC
  0
SECTION
  2
OBJECTS
  0
DICTIONARY
  5
C
330
0
100
AcDbDictionary
281
     1
  3
ACAD_GROUP
350
D
  3
ACAD_LAYOUT
350
1A
  3
ACAD_MLINESTYLE
350
17
  3
ACAD_PLOTSETTINGS
350
19
  3
ACAD_PLOTSTYLENAME
350
E
  3
ACAD_SCALELIST
350
47
  0
DICTIONARY
  5
D
102
{ACAD_REACTORS
330
C
102
}
330
C
100
AcDbDictionary
281
     1
  0
DICTIONARY
  5
1A
102
{ACAD_REACTORS
330
C
102
}
330
C
100
AcDbDictionary
281
     1
  3
_Dimetrisch
350
169
  3
_Isometrisch
350
E2
  3
_Links
350
C9
  3
_Normal auf
350
B1
  3
_Rechts
350
26
  3
_Rückseite
350
BD
  3
_Trimetrisch
350
124
  3
_Unten
350
D5
  3
_Vorderseite
350
1E
  3
Model
350
22
  0
DICTIONARY
  5
17
102
{ACAD_REACTORS
330
C
102
}
330
C
100
AcDbDictionary
281
     1
  3
Standard
350
18
  0
DICTIONARY
  5
19
102
{ACAD_REACTORS
330
C
102
}
330
C
100
AcDbDictionary
281
     1
  0
ACDBDICTIONARYWDFLT
  5
E
102
{ACAD_REACTORS
330
C
102
}
330
C
100
AcDbDictionary
281
     1
  3
Normal
350
F
100
AcDbDictionaryWithDefault
340
F
  0
DICTIONARY
  5
47
102
{ACAD_REACTORS
330
C
102
}
330
C
100
AcDbDictionary
281
     1
  3
A0
350
48
  3
A1
350
49
  3
A2
350
4A
  3
A3
350
4B
  3
A4
350
4C
  3
A5
350
4D
  3
A6
350
4E
  3
A7
350
4F
  3
A8
350
50
  3
A9
350
51
  3
B0
350
52
  3
B1
350
53
  3
B2
350
54
  3
B3
350
55
  3
B4
350
56
  3
B5
350
57
  3
B6
350
58
  3
B7
350
59
  3
B8
350
5A
  3
B9
350
5B
  3
C0
350
5C
  3
C1
350
5D
  3
C2
350
5E
  3
C3
350
5F
  3
C4
350
60
  3
C5
350
61
  3
C6
350
62
  3
C7
350
63
  3
C8
350
64
  3
C9
350
65
  3
D0
350
66
  3
D1
350
67
  3
D2
350
68
  0
LAYOUT
  5
169
102
{ACAD_REACTORS
330
1A
102
}
330
1A
100
AcDbPlotSettings
  1

  2
none_device
  4
ISO_A4_(210.00_x_297.00_MM)
  6

 40
7.5
 41
20.0
 42
7.5
 43
20.0
 44
210.0
 45
297.0
 46
0.0
 47
0.0
 48
0.0
 49
0.0
140
0.0
141
0.0
142
1.0
143
3.8910505837
 70
   688
 72
     1
 73
     1
 74
     1
  7

 75
     0
147
0.257
148
500.0
149
0.0
100
AcDbLayout
  1
_Dimetrisch
 70
     1
 71
     9
 10
0.0
 20
0.0
 11
0.0
 21
0.0
 12
0.0
 22
0.0
 32
0.0
 14
0.0
 24
0.0
 34
0.0
 15
0.0
 25
0.0
 35
0.0
146
0.0
 13
0.0
 23
0.0
 33
0.0
 16
1.0
 26
0.0
 36
0.0
 17
0.0
 27
1.0
 37
0.0
 76
     0
330
168
331
1BD
  0
LAYOUT
  5
E2
102
{ACAD_REACTORS
330
1A
102
}
330
1A
100
AcDbPlotSettings
  1

  2
none_device
  4
ISO_A4_(210.00_x_297.00_MM)
  6

 40
7.5
 41
20.0
 42
7.5
 43
20.0
 44
210.0
 45
297.0
 46
0.0
 47
0.0
 48
0.0
 49
0.0
140
0.0
141
0.0
142
1.0
143
3.8910505837
 70
   688
 72
     1
 73
     1
 74
     1
  7

 75
     0
147
0.257
148
500.0
149
0.0
100
AcDbLayout
  1
_Isometrisch
 70
     1
 71
     7
 10
0.0
 20
0.0
 11
0.0
 21
0.0
 12
0.0
 22
0.0
 32
0.0
 14
0.0
 24
0.0
 34
0.0
 15
0.0
 25
0.0
 35
0.0
146
0.0
 13
0.0
 23
0.0
 33
0.0
 16
1.0
 26
0.0
 36
0.0
 17
0.0
 27
1.0
 37
0.0
 76
     0
330
E1
331
1B9
  0
LAYOUT
  5
C9
102
{ACAD_REACTORS
330
1A
102
}
330
1A
100
AcDbPlotSettings
  1

  2
none_device
  4
ISO_A4_(210.00_x_297.00_MM)
  6

 40
7.5
 41
20.0
 42
7.5
 43
20.0
 44
210.0
 45
297.0
 46
0.0
 47
0.0
 48
0.0
 49
0.0
140
0.0
141
0.0
142
1.0
143
3.8910505837
 70
   688
 72
     1
 73
     1
 74
     1
  7

 75
     0
147
0.257
148
500.0
149
0.0
100
AcDbLayout
  1
_Links
 70
     1
 71
     5
 10
0.0
 20
0.0
 11
0.0
 21
0.0
 12
0.0
 22
0.0
 32
0.0
 14
0.0
 24
0.0
 34
0.0
 15
0.0
 25
0.0
 35
0.0
146
0.0
 13
0.0
 23
0.0
 33
0.0
 16
1.0
 26
0.0
 36
0.0
 17
0.0
 27
1.0
 37
0.0
 76
     0
330
C8
331
1B5
  0
LAYOUT
  5
B1
102
{ACAD_REACTORS
330
1A
102
}
330
1A
100
AcDbPlotSettings
  1

  2
none_device
  4
ISO_A4_(210.00_x_297.00_MM)
  6

 40
7.5
 41
20.0
 42
7.5
 43
20.0
 44
210.0
 45
297.0
 46
0.0
 47
0.0
 48
0.0
 49
0.0
140
0.0
141
0.0
142
1.0
143
3.8910505837
 70
   688
 72
     1
 73
     1
 74
     1
  7

 75
     0
147
0.257
148
500.0
149
0.0
100
AcDbLayout
  1
_Normal auf
 70
     1
 71
     3
 10
0.0
 20
0.0
 11
0.0
 21
0.0
 12
0.0
 22
0.0
 32
0.0
 14
0.0
 24
0.0
 34
0.0
 15
0.0
 25
0.0
 35
0.0
146
0.0
 13
0.0
 23
0.0
 33
0.0
 16
1.0
 26
0.0
 36
0.0
 17
0.0
 27
1.0
 37
0.0
 76
     0
330
B0
331
1B1
  0
LAYOUT
  5
26
102
{ACAD_REACTORS
330
1A
102
}
330
1A
100
AcDbPlotSettings
  1

  2
none_device
  4
ISO_A4_(210.00_x_297.00_MM)
  6

 40
7.5
 41
20.0
 42
7.5
 43
20.0
 44
210.0
 45
297.0
 46
0.0
 47
0.0
 48
0.0
 49
0.0
140
0.0
141
0.0
142
1.0
143
3.8910505837
 70
   688
 72
     1
 73
     1
 74
     1
  7

 75
     0
147
0.257
148
500.0
149
0.0
100
AcDbLayout
  1
_Rechts
 70
     1
 71
     2
 10
0.0
 20
0.0
 11
0.0
 21
0.0
 12
0.0
 22
0.0
 32
0.0
 14
0.0
 24
0.0
 34
0.0
 15
0.0
 25
0.0
 35
0.0
146
0.0
 13
0.0
 23
0.0
 33
0.0
 16
1.0
 26
0.0
 36
0.0
 17
0.0
 27
1.0
 37
0.0
 76
     0
330
23
331
1AF
  0
LAYOUT
  5
BD
102
{ACAD_REACTORS
330
1A
102
}
330
1A
100
AcDbPlotSettings
  1

  2
none_device
  4
ISO_A4_(210.00_x_297.00_MM)
  6

 40
7.5
 41
20.0
 42
7.5
 43
20.0
 44
210.0
 45
297.0
 46
0.0
 47
0.0
 48
0.0
 49
0.0
140
0.0
141
0.0
142
1.0
143
3.8910505837
 70
   688
 72
     1
 73
     1
 74
     1
  7

 75
     0
147
0.257
148
500.0
149
0.0
100
AcDbLayout
  1
_Rückseite
 70
     1
 71
     4
 10
0.0
 20
0.0
 11
0.0
 21
0.0
 12
0.0
 22
0.0
 32
0.0
 14
0.0
 24
0.0
 34
0.0
 15
0.0
 25
0.0
 35
0.0
146
0.0
 13
0.0
 23
0.0
 33
0.0
 16
1.0
 26
0.0
 36
0.0
 17
0.0
 27
1.0
 37
0.0
 76
     0
330
BC
331
1B3
  0
LAYOUT
  5
124
102
{ACAD_REACTORS
330
1A
102
}
330
1A
100
AcDbPlotSettings
  1

  2
none_device
  4
ISO_A4_(210.00_x_297.00_MM)
  6

 40
7.5
 41
20.0
 42
7.5
 43
20.0
 44
210.0
 45
297.0
 46
0.0
 47
0.0
 48
0.0
 49
0.0
140
0.0
141
0.0
142
1.0
143
3.8910505837
 70
   688
 72
     1
 73
     1
 74
     1
  7

 75
     0
147
0.257
148
500.0
149
0.0
100
AcDbLayout
  1
_Trimetrisch
 70
     1
 71
     8
 10
0.0
 20
0.0
 11
0.0
 21
0.0
 12
0.0
 22
0.0
 32
0.0
 14
0.0
 24
0.0
 34
0.0
 15
0.0
 25
0.0
 35
0.0
146
0.0
 13
0.0
 23
0.0
 33
0.0
 16
1.0
 26
0.0
 36
0.0
 17
0.0
 27
1.0
 37
0.0
 76
     0
330
123
331
1BB
  0
LAYOUT
  5
D5
102
{ACAD_REACTORS
330
1A
102
}
330
1A
100
AcDbPlotSettings
  1

  2
none_device
  4
ISO_A4_(210.00_x_297.00_MM)
  6

 40
7.5
 41
20.0
 42
7.5
 43
20.0
 44
210.0
 45
297.0
 46
0.0
 47
0.0
 48
0.0
 49
0.0
140
0.0
141
0.0
142
1.0
143
3.8910505837
 70
   688
 72
     1
 73
     1
 74
     1
  7

 75
     0
147
0.257
148
500.0
149
0.0
100
AcDbLayout
  1
_Unten
 70
     1
 71
     6
 10
0.0
 20
0.0
 11
0.0
 21
0.0
 12
0.0
 22
0.0
 32
0.0
 14
0.0
 24
0.0
 34
0.0
 15
0.0
 25
0.0
 35
0.0
146
0.0
 13
0.0
 23
0.0
 33
0.0
 16
1.0
 26
0.0
 36
0.0
 17
0.0
 27
1.0
 37
0.0
 76
     0
330
D4
331
1B7
  0
LAYOUT
  5
1E
102
{ACAD_REACTORS
330
1A
102
}
330
1A
100
AcDbPlotSettings
  1

  2
none_device
  4
ISO_A4_(210.00_x_297.00_MM)
  6

 40
7.5
 41
20.0
 42
7.5
 43
20.0
 44
210.0
 45
297.0
 46
0.0
 47
0.0
 48
0.0
 49
0.0
140
0.0
141
0.0
142
1.0
143
3.8910505837
 70
   688
 72
     1
 73
     1
 74
     1
  7

 75
     0
147
0.257
148
500.0
149
0.0
100
AcDbLayout
  1
_Vorderseite
 70
     1
 71
     1
 10
-577.8210116732
 20
-29.1828793774
 11
577.8210116732
 21
787.9377431907
 12
0.0
 22
0.0
 32
0.0
 14
-500.0
 24
0.0
 34
0.0
 15
500.0
 25
50.0
 35
0.0
146
0.0
 13
0.0
 23
0.0
 33
0.0
 16
1.0
 26
0.0
 36
0.0
 17
0.0
 27
1.0
 37
0.0
 76
     0
330
1B
331
1AD
  0
LAYOUT
  5
22
102
{ACAD_REACTORS
330
1A
102
}
330
1A
100
AcDbPlotSettings
  1

  2
none_device
  4
ANSI_A_(11.00_x_8.50_Inches)
  6

 40
6.35
 41
19.05
 42
6.35000508
 43
19.05000254
 44
279.4
 45
215.9
 46
133.34999746
 47
88.89999873
 48
0.0
 49
0.0
140
0.0
141
0.0
142
0.008415
143
1.0
 70
  1696
 72
     0
 73
     0
 74
     0
  7

 75
     0
147
0.0179189148
148
-1300.4909072572
149
0.0
100
AcDbLayout
  1
Model
 70
     1
 71
     0
 10
0.0
 20
0.0
 11
420.0
 21
297.0
 12
0.0
 22
0.0
 32
0.0
 14
-500.0
 24
-500.0
 34
0.0
 15
500.0
 25
500.0
 35
0.0
146
0.0
 13
0.0
 23
0.0
 33
0.0
 16
1.0
 26
0.0
 36
0.0
 17
0.0
 27
1.0
 37
0.0
 76
     0
330
1F
331
29
  0
MLINESTYLE
  5
18
102
{ACAD_REACTORS
330
17
102
}
330
17
100
AcDbMlineStyle
  2
Standard
 70
     0
  3

 62
   256
 51
90.0
 52
90.0
 71
     2
 49
0.5
 62
   256
  6
BYLAYER
 49
-0.5
 62
   256
  6
BYLAYER
  0
ACDBPLACEHOLDER
  5
F
102
{ACAD_REACTORS
330
E
102
}
330
E
  0
SCALE
  5
48
102
{ACAD_REACTORS
330
47
102
}
330
47
100
AcDbScale
 70
     0
300
1:1
140
1.0
141
1.0
290
     1
  0
SCALE
  5
49
102
{ACAD_REACTORS
330
47
102
}
330
47
100
AcDbScale
 70
     0
300
1:2
140
1.0
141
2.0
290
     0
  0
SCALE
  5
4A
102
{ACAD_REACTORS
330
47
102
}
330
47
100
AcDbScale
 70
     0
300
1:4
140
1.0
141
4.0
290
     0
  0
SCALE
  5
4B
102
{ACAD_REACTORS
330
47
102
}
330
47
100
AcDbScale
 70
     0
300
1:5
140
1.0
141
5.0
290
     0
  0
SCALE
  5
4C
102
{ACAD_REACTORS
330
47
102
}
330
47
100
AcDbScale
 70
     0
300
1:8
140
1.0
141
8.0
290
     0
  0
SCALE
  5
4D
102
{ACAD_REACTORS
330
47
102
}
330
47
100
AcDbScale
 70
     0
300
1:10
140
1.0
141
10.0
290
     0
  0
SCALE
  5
4E
102
{ACAD_REACTORS
330
47
102
}
330
47
100
AcDbScale
 70
     0
300
1:16
140
1.0
141
16.0
290
     0
  0
SCALE
  5
4F
102
{ACAD_REACTORS
330
47
102
}
330
47
100
AcDbScale
 70
     0
300
1:20
140
1.0
141
20.0
290
     0
  0
SCALE
  5
50
102
{ACAD_REACTORS
330
47
102
}
330
47
100
AcDbScale
 70
     0
300
1:30
140
1.0
141
30.0
290
     0
  0
SCALE
  5
51
102
{ACAD_REACTORS
330
47
102
}
330
47
100
AcDbScale
 70
     0
300
1:40
140
1.0
141
40.0
290
     0
  0
SCALE
  5
52
102
{ACAD_REACTORS
330
47
102
}
330
47
100
AcDbScale
 70
     0
300
1:50
140
1.0
141
50.0
290
     0
  0
SCALE
  5
53
102
{ACAD_REACTORS
330
47
102
}
330
47
100
AcDbScale
 70
     0
300
1:100
140
1.0
141
100.0
290
     0
  0
SCALE
  5
54
102
{ACAD_REACTORS
330
47
102
}
330
47
100
AcDbScale
 70
     0
300
2:1
140
2.0
141
1.0
290
     0
  0
SCALE
  5
55
102
{ACAD_REACTORS
330
47
102
}
330
47
100
AcDbScale
 70
     0
300
4:1
140
4.0
141
1.0
290
     0
  0
SCALE
  5
56
102
{ACAD_REACTORS
330
47
102
}
330
47
100
AcDbScale
 70
     0
300
8:1
140
8.0
141
1.0
290
     0
  0
SCALE
  5
57
102
{ACAD_REACTORS
330
47
102
}
330
47
100
AcDbScale
 70
     0
300
10:1
140
10.0
141
1.0
290
     0
  0
SCALE
  5
58
102
{ACAD_REACTORS
330
47
102
}
330
47
100
AcDbScale
 70
     0
300
100:1
140
100.0
141
1.0
290
     0
  0
SCALE
  5
59
102
{ACAD_REACTORS
330
47
102
}
330
47
100
AcDbScale
 70
     0
300
1/128" = 1'-0"
140
0.0078125
141
12.0
290
     0
  0
SCALE
  5
5A
102
{ACAD_REACTORS
330
47
102
}
330
47
100
AcDbScale
 70
     0
300
1/64" = 1'-0"
140
0.015625
141
12.0
290
     0
  0
SCALE
  5
5B
102
{ACAD_REACTORS
330
47
102
}
330
47
100
AcDbScale
 70
     0
300
1/32" = 1'-0"
140
0.03125
141
12.0
290
     0
  0
SCALE
  5
5C
102
{ACAD_REACTORS
330
47
102
}
330
47
100
AcDbScale
 70
     0
300
1/16" = 1'-0"
140
0.0625
141
12.0
290
     0
  0
SCALE
  5
5D
102
{ACAD_REACTORS
330
47
102
}
330
47
100
AcDbScale
 70
     0
300
3/32" = 1'-0"
140
0.09375
141
12.0
290
     0
  0
SCALE
  5
5E
102
{ACAD_REACTORS
330
47
102
}
330
47
100
AcDbScale
 70
     0
300
1/8" = 1'-0"
140
0.125
141
12.0
290
     0
  0
SCALE
  5
5F
102
{ACAD_REACTORS
330
47
102
}
330
47
100
AcDbScale
 70
     0
300
3/16" = 1'-0"
140
0.1875
141
12.0
290
     0
  0
SCALE
  5
60
102
{ACAD_REACTORS
330
47
102
}
330
47
100
AcDbScale
 70
     0
300
1/4" = 1'-0"
140
0.25
141
12.0
290
     0
  0
SCALE
  5
61
102
{ACAD_REACTORS
330
47
102
}
330
47
100
AcDbScale
 70
     0
300
3/8" = 1'-0"
140
0.375
141
12.0
290
     0
  0
SCALE
  5
62
102
{ACAD_REACTORS
330
47
102
}
330
47
100
AcDbScale
 70
     0
300
1/2" = 1'-0"
140
0.5
141
12.0
290
     0
  0
SCALE
  5
63
102
{ACAD_REACTORS
330
47
102
}
330
47
100
AcDbScale
 70
     0
300
3/4" = 1'-0"
140
0.75
141
12.0
290
     0
  0
SCALE
  5
64
102
{ACAD_REACTORS
330
47
102
}
330
47
100
AcDbScale
 70
     0
300
1" = 1'-0"
140
1.0
141
12.0
290
     0
  0
SCALE
  5
65
102
{ACAD_REACTORS
330
47
102
}
330
47
100
AcDbScale
 70
     0
300
1-1/2" = 1'-0"
140
1.5
141
12.0
290
     0
  0
SCALE
  5
66
102
{ACAD_REACTORS
330
47
102
}
330
47
100
AcDbScale
 70
     0
300
3" = 1'-0"
140
3.0
141
12.0
290
     0
  0
SCALE
  5
67
102
{ACAD_REACTORS
330
47
102
}
330
47
100
AcDbScale
 70
     0
300
6" = 1'-0"
140
6.0
141
12.0
290
     0
  0
SCALE
  5
68
102
{ACAD_REACTORS
330
47
102
}
330
47
100
AcDbScale
 70
     0
300
1'-0" = 1'-0"
140
12.0
141
12.0
290
     0
  0
ENDSEC
  0
EOF
