  0
SECTION
  2
HEADER
  9
$ACADVER
  1
AC1015
  9
$ACADMAINTVER
 70
     6
  9
$DWGCODEPAGE
  3
ANSI_1252
  9
$INSBASE
 10
0.0
 20
0.0
 30
0.0
  9
$EXTMIN
 10
-600.0
 20
-450.0
 30
0.0
  9
$EXTMAX
 10
600.0
 20
450.0
 30
0.0
  9
$LIMMIN
 10
0.0
 20
0.0
  9
$LIMMAX
 10
420.0
 20
297.0
  9
$ORTHOMODE
 70
     0
  9
$REGENMODE
 70
     1
  9
$FILLMODE
 70
     1
  9
$QTEXTMODE
 70
     0
  9
$MIRRTEXT
 70
     1
  9
$LTSCALE
 40
1.0
  9
$ATTMODE
 70
     1
  9
$TEXTSIZE
 40
3.5
  9
$TRACEWID
 40
1.0
  9
$TEXTSTYLE
  7
STANDARD
  9
$CLAYER
  8
0
  9
$CELTYPE
  6
ByLayer
  9
$CECOLOR
 62
   256
  9
$CELTSCALE
 40
1.0
  9
$DISPSILH
 70
     0
  9
$DIMSCALE
 40
1.0
  9
$DIMASZ
 40
6.0
  9
$DIMEXO
 40
1.0
  9
$DIMDLI
 40
3.75
  9
$DIMRND
 40
0.0
  9
$DIMDLE
 40
0.0
  9
$DIMEXE
 40
1.0
  9
$DIMTP
 40
0.0
  9
$DIMTM
 40
0.0
  9
$DIMTXT
 40
3.5
  9
$DIMCEN
 40
2.5
  9
$DIMTSZ
 40
0.0
  9
$DIMTOL
 70
     0
  9
$DIMLIM
 70
     0
  9
$DIMTIH
 70
     1
  9
$DIMTOH
 70
     1
  9
$DIMSE1
 70
     0
  9
$DIMSE2
 70
     0
  9
$DIMTAD
 70
     1
  9
$DIMZIN
 70
     0
  9
$DIMBLK
  1

  9
$DIMASO
 70
     1
  9
$DIMSHO
 70
     1
  9
$DIMPOST
  1

  9
$DIMAPOST
  1

  9
$DIMALT
 70
     0
  9
$DIMALTD
 70
     3
  9
$DIMALTF
 40
0.0393700787
  9
$DIMLFAC
 40
1.0
  9
$DIMTOFL
 70
     1
  9
$DIMTVP
 40
0.0
  9
$DIMTIX
 70
     0
  9
$DIMSOXD
 70
     0
  9
$DIMSAH
 70
     0
  9
$DIMBLK1
  1

  9
$DIMBLK2
  1

  9
$DIMSTYLE
  2
ISO-25
  9
$DIMCLRD
 70
     0
  9
$DIMCLRE
 70
     0
  9
$DIMCLRT
 70
     0
  9
$DIMTFAC
 40
1.0
  9
$DIMGAP
 40
1.524
  9
$DIMJUST
 70
     0
  9
$DIMSD1
 70
     0
  9
$DIMSD2
 70
     0
  9
$DIMTOLJ
 70
     0
  9
$DIMTZIN
 70
     0
  9
$DIMALTZ
 70
     0
  9
$DIMALTTZ
 70
     0
  9
$DIMUPT
 70
     0
  9
$DIMDEC
 70
     2
  9
$DIMTDEC
 70
     2
  9
$DIMALTU
 70
     2
  9
$DIMALTTD
 70
     3
  9
$DIMTXSTY
  7
STANDARD
  9
$DIMAUNIT
 70
     0
  9
$DIMADEC
 70
     2
  9
$DIMALTRND
 40
0.0
  9
$DIMAZIN
 70
     0
  9
$DIMDSEP
 70
    44
  9
$DIMATFIT
 70
     3
  9
$DIMFRAC
 70
     0
  9
$DIMLDRBLK
  1

  9
$DIMLUNIT
 70
     2
  9
$DIMLWD
 70
    -2
  9
$DIMLWE
 70
    -2
  9
$DIMTMOVE
 70
     0
  9
$LUNITS
 70
     2
  9
$LUPREC
 70
     2
  9
$SKETCHINC
 40
1.0
  9
$FILLETRAD
 40
10.0
  9
$AUNITS
 70
     0
  9
$AUPREC
 70
     2
  9
$MENU
  1
.
  9
$ELEVATION
 40
0.0
  9
$PELEVATION
 40
0.0
  9
$THICKNESS
 40
0.0
  9
$LIMCHECK
 70
     0
  9
$CHAMFERA
 40
0.0
  9
$CHAMFERB
 40
0.0
  9
$CHAMFERC
 40
0.0
  9
$CHAMFERD
 40
0.0
  9
$SKPOLY
 70
     0
  9
$TDCREATE
 40
2458232.442312766
  9
$TDUCREATE
 40
2458232.358979433
  9
$TDUPDATE
 40
2458232.442339884
  9
$TDUUPDATE
 40
2458232.359006551
  9
$TDINDWG
 40
0.0000000116
  9
$TDUSRTIMER
 40
0.0000000116
  9
$USRTIMER
 70
     1
  9
$ANGBASE
 50
0.0
  9
$ANGDIR
 70
     0
  9
$PDMODE
 70
     0
  9
$PDSIZE
 40
-1.0
  9
$PLINEWID
 40
0.0
  9
$SPLFRAME
 70
     0
  9
$SPLINETYPE
 70
     6
  9
$SPLINESEGS
 70
     8
  9
$HANDSEED
  5
1C3
  9
$SURFTAB1
 70
     6
  9
$SURFTAB2
 70
     6
  9
$SURFTYPE
 70
     6
  9
$SURFU
 70
     6
  9
$SURFV
 70
     6
  9
$UCSBASE
  2

  9
$UCSNAME
  2

  9
$UCSORG
 10
0.0
 20
0.0
 30
0.0
  9
$UCSXDIR
 10
1.0
 20
0.0
 30
0.0
  9
$UCSYDIR
 10
0.0
 20
1.0
 30
0.0
  9
$UCSORTHOREF
  2

  9
$UCSORTHOVIEW
 70
     0
  9
$UCSORGTOP
 10
0.0
 20
0.0
 30
0.0
  9
$UCSORGBOTTOM
 10
0.0
 20
0.0
 30
0.0
  9
$UCSORGLEFT
 10
0.0
 20
0.0
 30
0.0
  9
$UCSORGRIGHT
 10
0.0
 20
0.0
 30
0.0
  9
$UCSORGFRONT
 10
0.0
 20
0.0
 30
0.0
  9
$UCSORGBACK
 10
0.0
 20
0.0
 30
0.0
  9
$PUCSBASE
  2

  9
$PUCSNAME
  2

  9
$PUCSORG
 10
0.0
 20
0.0
 30
0.0
  9
$PUCSXDIR
 10
1.0
 20
0.0
 30
0.0
  9
$PUCSYDIR
 10
0.0
 20
1.0
 30
0.0
  9
$PUCSORTHOREF
  2

  9
$PUCSORTHOVIEW
 70
     0
  9
$PUCSORGTOP
 10
0.0
 20
0.0
 30
0.0
  9
$PUCSORGBOTTOM
 10
0.0
 20
0.0
 30
0.0
  9
$PUCSORGLEFT
 10
0.0
 20
0.0
 30
0.0
  9
$PUCSORGRIGHT
 10
0.0
 20
0.0
 30
0.0
  9
$PUCSORGFRONT
 10
0.0
 20
0.0
 30
0.0
  9
$PUCSORGBACK
 10
0.0
 20
0.0
 30
0.0
  9
$USERI1
 70
     0
  9
$USERI2
 70
     0
  9
$USERI3
 70
     0
  9
$USERI4
 70
     0
  9
$USERI5
 70
     0
  9
$USERR1
 40
0.0
  9
$USERR2
 40
0.0
  9
$USERR3
 40
0.0
  9
$USERR4
 40
0.0
  9
$USERR5
 40
0.0
  9
$WORLDVIEW
 70
     1
  9
$SHADEDGE
 70
     3
  9
$SHADEDIF
 70
    70
  9
$TILEMODE
 70
     1
  9
$MAXACTVP
 70
    64
  9
$PINSBASE
 10
0.0
 20
0.0
 30
0.0
  9
$PLIMCHECK
 70
     0
  9
$PEXTMIN
 10
-600.0
 20
0.0
 30
0.0
  9
$PEXTMAX
 10
600.0
 20
50.0
 30
0.0
  9
$PLIMMIN
 10
-693.3852140078
 20
-35.0194552529
  9
$PLIMMAX
 10
693.3852140078
 20
945.5252918288
  9
$UNITMODE
 70
     0
  9
$VISRETAIN
 70
     1
  9
$PLINEGEN
 70
     0
  9
$PSLTSCALE
 70
     1
  9
$TREEDEPTH
 70
  3020
  9
$CMLSTYLE
  2
Standard
  9
$CMLJUST
 70
     0
  9
$CMLSCALE
 40
20.0
  9
$PROXYGRAPHICS
 70
     1
  9
$MEASUREMENT
 70
     1
  9
$CELWEIGHT
370
    -1
  9
$ENDCAPS
280
     0
  9
$JOINSTYLE
280
     0
  9
$LWDISPLAY
290
     1
  9
$INSUNITS
 70
     4
  9
$HYPERLINKBASE
  1

  9
$STYLESHEET
  1

  9
$XEDIT
290
     1
  9
$CEPSNTYPE
380
     0
  9
$PSTYLEMODE
290
     1
  9
$FINGERPRINTGUID
  2
{C4B81F77-AA1E-41D9-A652-1857F39CD396}
  9
$VERSIONGUID
  2
{FAEB1C32-E019-11D5-929B-00C0DF256EC4}
  9
$EXTNAMES
290
     1
  9
$PSVPSCALE
 40
0.0
  9
$OLESTARTUP
290
     0
  0
ENDSEC
  0
SECTION
  2
CLASSES
  0
CLASS
  1
ACDBDICTIONARYWDFLT
  2
AcDbDictionaryWithDefault
  3
ObjectDBX Classes
 90
        0
280
     0
281
     0
  0
CLASS
  1
VISUALSTYLE
  2
AcDbVisualStyle
  3
ObjectDBX Classes
 90
     4095
280
     0
281
     0
  0
CLASS
  1
MATERIAL
  2
AcDbMaterial
  3
ObjectDBX Classes
 90
     1153
280
     0
281
     0
  0
CLASS
  1
SCALE
  2
AcDbScale
  3
ObjectDBX Classes
 90
     1153
280
     0
281
     0
  0
CLASS
  1
TABLESTYLE
  2
AcDbTableStyle
  3
ObjectDBX Classes
 90
     4095
280
     0
281
     0
  0
CLASS
  1
MLEADERSTYLE
  2
AcDbMLeaderStyle
  3
ACDB_MLEADERSTYLE_CLASS
 90
     4095
280
     0
281
     0
  0
CLASS
  1
SUN
  2
AcDbSun
  3
SCENEOE
 90
     1153
280
     0
281
     0
  0
CLASS
  1
ACDBPLACEHOLDER
  2
AcDbPlaceHolder
  3
ObjectDBX Classes
 90
        0
280
     0
281
     0
  0
CLASS
  1
LAYOUT
  2
AcDbLayout
  3
ObjectDBX Classes
 90
        0
280
     0
281
     0
  0
ENDSEC
  0
SECTION
  2
TABLES
  0
TABLE
  2
VPORT
  5
8
330
0
100
AcDbSymbolTable
 70
     1
  0
VPORT
  5
29
330
8
100
AcDbSymbolTableRecord
100
AcDbViewportTableRecord
  2
*Active
 70
     0
 10
0.0
 20
0.0
 11
1.0
 21
1.0
 12
0.0
 22
0.0
 13
0.0
 23
0.0
 14
10.0
 24
10.0
 15
10.0
 25
10.0
 16
0.0
 26
0.0
 36
1.0
 17
0.0
 27
0.0
 37
0.0
 40
918.0
 41
1.3333333333
 42
50.0
 43
0.0
 44
0.0
 50
0.0
 51
0.0
 71
     0
 72
   100
 73
     1
 74
     3
 75
     0
 76
     0
 77
     0
 78
     0
281
     0
 65
     1
110
0.0
120
0.0
130
0.0
111
1.0
121
0.0
131
0.0
112
0.0
122
1.0
132
0.0
 79
     0
146
0.0
  0
ENDTAB
  0
TABLE
  2
LTYPE
  5
5
330
0
100
AcDbSymbolTable
 70
     6
  0
LTYPE
  5
14
330
5
100
AcDbSymbolTableRecord
100
AcDbLinetypeTableRecord
  2
ByBlock
 70
     0
  3

 72
    65
 73
     0
 40
0.0
  0
LTYPE
  5
15
330
5
100
AcDbSymbolTableRecord
100
AcDbLinetypeTableRecord
  2
ByLayer
 70
     0
  3

 72
    65
 73
     0
 40
0.0
  0
LTYPE
  5
16
330
5
100
AcDbSymbolTableRecord
100
AcDbLinetypeTableRecord
  2
Continuous
 70
     0
  3
Solid line
 72
    65
 73
     0
 40
0.0
  0
LTYPE
  5
6E
330
5
100
AcDbSymbolTableRecord
100
AcDbLinetypeTableRecord
  2
HIDDEN
 70
     0
  3
Hidden __ __ __ __ __ __ __ __ __ __ __ __ __ __
 72
    65
 73
     2
 40
1.905
 49
1.27
 74
     0
 49
-0.635
 74
     0
  0
LTYPE
  5
6F
330
5
100
AcDbSymbolTableRecord
100
AcDbLinetypeTableRecord
  2
PHANTOM
 70
     0
  3
Phantom ______  __  __  ______  __  __  ______
 72
    65
 73
     6
 40
12.7
 49
6.35
 74
     0
 49
-1.27
 74
     0
 49
1.27
 74
     0
 49
-1.27
 74
     0
 49
1.27
 74
     0
 49
-1.27
 74
     0
  0
LTYPE
  5
70
330
5
100
AcDbSymbolTableRecord
100
AcDbLinetypeTableRecord
  2
CENTER
 70
     0
  3
Center ____ _ ____ _ ____ _ ____ _ ____ _ ____
 72
    65
 73
     4
 40
10.16
 49
6.35
 74
     0
 49
-1.27
 74
     0
 49
1.27
 74
     0
 49
-1.27
 74
     0
  0
LTYPE
  5
71
330
5
100
AcDbSymbolTableRecord
100
AcDbLinetypeTableRecord
  2
CENTERX2
 70
     0
  3
Center (2x) ________  __  ________  __  _____
 72
    65
 73
     4
 40
20.32
 49
12.7
 74
     0
 49
-2.54
 74
     0
 49
2.54
 74
     0
 49
-2.54
 74
     0
  0
LTYPE
  5
72
330
5
100
AcDbSymbolTableRecord
100
AcDbLinetypeTableRecord
  2
DOT2
 70
     0
  3
Dot (.5x) ........................................
 72
    65
 73
     2
 40
0.635
 49
0.0
 74
     0
 49
-0.635
 74
     0
  0
ENDTAB
  0
TABLE
  2
LAYER
  5
2
330
0
100
AcDbSymbolTable
 70
     1
  0
LAYER
  5
10
330
2
100
AcDbSymbolTableRecord
100
AcDbLayerTableRecord
  2
0
 70
     0
 62
     7
  6
Continuous
370
    -3
390
F
  0
ENDTAB
  0
TABLE
  2
STYLE
  5
3
330
0
100
AcDbSymbolTable
 70
     1
  0
STYLE
  5
11
330
3
100
AcDbSymbolTableRecord
100
AcDbTextStyleTableRecord
  2
STANDARD
 70
     0
 40
0.0
 41
1.0
 50
0.0
 71
     0
 42
3.5
  3
GOTHIC.TTF
  4

1001
ACAD
1000
CENTURY GOTHIC
1071
       34
  0
ENDTAB
  0
TABLE
  2
VIEW
  5
6
330
0
100
AcDbSymbolTable
 70
     0
  0
ENDTAB
  0
TABLE
  2
UCS
  5
7
330
0
100
AcDbSymbolTable
 70
     0
  0
ENDTAB
  0
TABLE
  2
APPID
  5
9
330
0
100
AcDbSymbolTable
 70
     1
  0
APPID
  5
12
330
9
100
AcDbSymbolTableRecord
100
AcDbRegAppTableRecord
  2
ACAD
 70
     0
  0
ENDTAB
  0
TABLE
  2
DIMSTYLE
  5
A
330
0
100
AcDbSymbolTable
 70
     1
100
AcDbDimStyleTable
  0
DIMSTYLE
105
27
330
A
100
AcDbSymbolTableRecord
100
AcDbDimStyleTableRecord
  2
ISO-25
 70
     0
 41
2.5
 42
0.625
 43
3.75
 44
1.25
 73
     0
 74
     0
 77
     1
 78
     8
140
2.5
141
2.5
143
0.0393700787
147
0.625
171
     3
172
     1
178
     0
271
     2
272
     2
274
     3
278
    44
283
     0
284
     8
340
11
  0
ENDTAB
  0
TABLE
  2
BLOCK_RECORD
  5
1
330
0
100
AcDbSymbolTable
 70
     8
  0
BLOCK_RECORD
  5
1F
330
1
100
AcDbSymbolTableRecord
100
AcDbBlockTableRecord
  2
*Model_Space
340
22
  0
BLOCK_RECORD
  5
1B
330
1
100
AcDbSymbolTableRecord
100
AcDbBlockTableRecord
  2
*Paper_Space
340
1E
  0
BLOCK_RECORD
  5
23
330
1
100
AcDbSymbolTableRecord
100
AcDbBlockTableRecord
  2
*Paper_Space0
340
26
  0
BLOCK_RECORD
  5
B2
330
1
100
AcDbSymbolTableRecord
100
AcDbBlockTableRecord
  2
*Paper_Space1
340
B3
  0
BLOCK_RECORD
  5
BE
330
1
100
AcDbSymbolTableRecord
100
AcDbBlockTableRecord
  2
*Paper_Space2
340
BF
  0
BLOCK_RECORD
  5
CA
330
1
100
AcDbSymbolTableRecord
100
AcDbBlockTableRecord
  2
*Paper_Space3
340
CB
  0
BLOCK_RECORD
  5
D6
330
1
100
AcDbSymbolTableRecord
100
AcDbBlockTableRecord
  2
*Paper_Space4
340
D7
  0
BLOCK_RECORD
  5
E3
330
1
100
AcDbSymbolTableRecord
100
AcDbBlockTableRecord
  2
*Paper_Space5
340
E4
  0
BLOCK_RECORD
  5
127
330
1
100
AcDbSymbolTableRecord
100
AcDbBlockTableRecord
  2
*Paper_Space6
340
128
  0
BLOCK_RECORD
  5
16C
330
1
100
AcDbSymbolTableRecord
100
AcDbBlockTableRecord
  2
*Paper_Space7
340
16D
  0
ENDTAB
  0
ENDSEC
  0
SECTION
  2
BLOCKS
  0
BLOCK
  5
20
330
1F
100
AcDbEntity
  8
0
100
AcDbBlockBegin
  2
*Model_Space
 70
     0
 10
0.0
 20
0.0
 30
0.0
  3
*Model_Space
  1

  0
ENDBLK
  5
21
330
1F
100
AcDbEntity
  8
0
100
AcDbBlockEnd
  0
BLOCK
  5
1C
330
1B
100
AcDbEntity
 67
     1
  8
0
100
AcDbBlockBegin
  2
*Paper_Space
 70
     0
 10
0.0
 20
0.0
 30
0.0
  3
*Paper_Space
  1

  0
ENDBLK
  5
1D
330
1B
100
AcDbEntity
 67
     1
  8
0
100
AcDbBlockEnd
  0
BLOCK
  5
24
330
23
100
AcDbEntity
  8
0
100
AcDbBlockBegin
  2
*Paper_Space0
 70
     0
 10
0.0
 20
0.0
 30
0.0
  3
*Paper_Space0
  1

  0
LINE
  5
AE
330
23
100
AcDbEntity
  8
0
  6
Continuous
 62
     7
370
    25
100
AcDbLine
 10
-450.0
 20
50.0
 30
0.0
 11
-450.0
 21
0.0
 31
0.0
  0
LINE
  5
AF
330
23
100
AcDbEntity
  8
0
  6
Continuous
 62
     7
370
    25
100
AcDbLine
 10
-450.0
 20
50.0
 30
0.0
 11
450.0
 21
50.0
 31
0.0
  0
LINE
  5
B0
330
23
100
AcDbEntity
  8
0
  6
Continuous
 62
     7
370
    25
100
AcDbLine
 10
450.0
 20
50.0
 30
0.0
 11
450.0
 21
0.0
 31
0.0
  0
LINE
  5
B1
330
23
100
AcDbEntity
  8
0
  6
Continuous
 62
     7
370
    25
100
AcDbLine
 10
-450.0
 20
0.0
 30
0.0
 11
450.0
 21
0.0
 31
0.0
  0
VIEWPORT
  5
1B3
330
23
100
AcDbEntity
  8
0
100
AcDbViewport
 10
0.0
 20
0.0
 30
0.0
 40
205.6
 41
156.0
 68
     1
 69
     1
 12
0.0
 22
0.0
 13
0.0
 23
0.0
 14
10.0
 24
10.0
 15
10.0
 25
10.0
 16
0.0
 26
0.0
 36
1.0
 17
0.0
 27
0.0
 37
0.0
 42
50.0
 43
0.0
 44
0.0
 45
928.7159533074
 50
0.0
 51
0.0
 72
   100
 90
   557152
  1

281
     0
 71
     1
 74
     0
110
0.0
120
0.0
130
0.0
111
1.0
121
0.0
131
0.0
112
0.0
122
1.0
132
0.0
 79
     0
146
0.0
  0
ENDBLK
  5
25
330
23
100
AcDbEntity
  8
0
100
AcDbBlockEnd
  0
BLOCK
  5
B4
330
B2
100
AcDbEntity
  8
0
100
AcDbBlockBegin
  2
*Paper_Space1
 70
     0
 10
0.0
 20
0.0
 30
0.0
  3
*Paper_Space1
  1

  0
LINE
  5
BA
330
B2
100
AcDbEntity
  8
0
  6
Continuous
 62
     7
370
    25
100
AcDbLine
 10
-600.0
 20
50.0
 30
0.0
 11
-600.0
 21
0.0
 31
0.0
  0
LINE
  5
BB
330
B2
100
AcDbEntity
  8
0
  6
Continuous
 62
     7
370
    25
100
AcDbLine
 10
-600.0
 20
50.0
 30
0.0
 11
600.0
 21
50.0
 31
0.0
  0
LINE
  5
BC
330
B2
100
AcDbEntity
  8
0
  6
Continuous
 62
     7
370
    25
100
AcDbLine
 10
600.0
 20
50.0
 30
0.0
 11
600.0
 21
0.0
 31
0.0
  0
LINE
  5
BD
330
B2
100
AcDbEntity
  8
0
  6
Continuous
 62
     7
370
    25
100
AcDbLine
 10
-600.0
 20
0.0
 30
0.0
 11
600.0
 21
0.0
 31
0.0
  0
VIEWPORT
  5
1B5
330
B2
100
AcDbEntity
  8
0
100
AcDbViewport
 10
0.0
 20
0.0
 30
0.0
 40
205.6
 41
156.0
 68
     1
 69
     1
 12
0.0
 22
0.0
 13
0.0
 23
0.0
 14
10.0
 24
10.0
 15
10.0
 25
10.0
 16
0.0
 26
0.0
 36
1.0
 17
0.0
 27
0.0
 37
0.0
 42
50.0
 43
0.0
 44
0.0
 45
928.7159533074
 50
0.0
 51
0.0
 72
   100
 90
   557152
  1

281
     0
 71
     1
 74
     0
110
0.0
120
0.0
130
0.0
111
1.0
121
0.0
131
0.0
112
0.0
122
1.0
132
0.0
 79
     0
146
0.0
  0
ENDBLK
  5
B5
330
B2
100
AcDbEntity
  8
0
100
AcDbBlockEnd
  0
BLOCK
  5
C0
330
BE
100
AcDbEntity
  8
0
100
AcDbBlockBegin
  2
*Paper_Space2
 70
     0
 10
0.0
 20
0.0
 30
0.0
  3
*Paper_Space2
  1

  0
LINE
  5
C6
330
BE
100
AcDbEntity
  8
0
  6
Continuous
 62
     7
370
    25
100
AcDbLine
 10
-600.0
 20
50.0
 30
0.0
 11
-600.0
 21
0.0
 31
0.0
  0
LINE
  5
C7
330
BE
100
AcDbEntity
  8
0
  6
Continuous
 62
     7
370
    25
100
AcDbLine
 10
-600.0
 20
50.0
 30
0.0
 11
600.0
 21
50.0
 31
0.0
  0
LINE
  5
C8
330
BE
100
AcDbEntity
  8
0
  6
Continuous
 62
     7
370
    25
100
AcDbLine
 10
600.0
 20
50.0
 30
0.0
 11
600.0
 21
0.0
 31
0.0
  0
LINE
  5
C9
330
BE
100
AcDbEntity
  8
0
  6
Continuous
 62
     7
370
    25
100
AcDbLine
 10
-600.0
 20
0.0
 30
0.0
 11
600.0
 21
0.0
 31
0.0
  0
VIEWPORT
  5
1B7
330
BE
100
AcDbEntity
  8
0
100
AcDbViewport
 10
0.0
 20
0.0
 30
0.0
 40
205.6
 41
156.0
 68
     1
 69
     1
 12
0.0
 22
0.0
 13
0.0
 23
0.0
 14
10.0
 24
10.0
 15
10.0
 25
10.0
 16
0.0
 26
0.0
 36
1.0
 17
0.0
 27
0.0
 37
0.0
 42
50.0
 43
0.0
 44
0.0
 45
928.7159533074
 50
0.0
 51
0.0
 72
   100
 90
   557152
  1

281
     0
 71
     1
 74
     0
110
0.0
120
0.0
130
0.0
111
1.0
121
0.0
131
0.0
112
0.0
122
1.0
132
0.0
 79
     0
146
0.0
  0
ENDBLK
  5
C1
330
BE
100
AcDbEntity
  8
0
100
AcDbBlockEnd
  0
BLOCK
  5
CC
330
CA
100
AcDbEntity
  8
0
100
AcDbBlockBegin
  2
*Paper_Space3
 70
     0
 10
0.0
 20
0.0
 30
0.0
  3
*Paper_Space3
  1

  0
LINE
  5
D2
330
CA
100
AcDbEntity
  8
0
  6
Continuous
 62
     7
370
    25
100
AcDbLine
 10
-450.0
 20
50.0
 30
0.0
 11
-450.0
 21
0.0
 31
0.0
  0
LINE
  5
D3
330
CA
100
AcDbEntity
  8
0
  6
Continuous
 62
     7
370
    25
100
AcDbLine
 10
-450.0
 20
50.0
 30
0.0
 11
450.0
 21
50.0
 31
0.0
  0
LINE
  5
D4
330
CA
100
AcDbEntity
  8
0
  6
Continuous
 62
     7
370
    25
100
AcDbLine
 10
450.0
 20
50.0
 30
0.0
 11
450.0
 21
0.0
 31
0.0
  0
LINE
  5
D5
330
CA
100
AcDbEntity
  8
0
  6
Continuous
 62
     7
370
    25
100
AcDbLine
 10
-450.0
 20
0.0
 30
0.0
 11
450.0
 21
0.0
 31
0.0
  0
VIEWPORT
  5
1B9
330
CA
100
AcDbEntity
  8
0
100
AcDbViewport
 10
0.0
 20
0.0
 30
0.0
 40
205.6
 41
156.0
 68
     1
 69
     1
 12
0.0
 22
0.0
 13
0.0
 23
0.0
 14
10.0
 24
10.0
 15
10.0
 25
10.0
 16
0.0
 26
0.0
 36
1.0
 17
0.0
 27
0.0
 37
0.0
 42
50.0
 43
0.0
 44
0.0
 45
928.7159533074
 50
0.0
 51
0.0
 72
   100
 90
   557152
  1

281
     0
 71
     1
 74
     0
110
0.0
120
0.0
130
0.0
111
1.0
121
0.0
131
0.0
112
0.0
122
1.0
132
0.0
 79
     0
146
0.0
  0
ENDBLK
  5
CD
330
CA
100
AcDbEntity
  8
0
100
AcDbBlockEnd
  0
BLOCK
  5
D8
330
D6
100
AcDbEntity
  8
0
100
AcDbBlockBegin
  2
*Paper_Space4
 70
     0
 10
0.0
 20
0.0
 30
0.0
  3
*Paper_Space4
  1

  0
CIRCLE
  5
DE
330
D6
100
AcDbEntity
  8
0
  6
Continuous
 62
     7
370
    25
100
AcDbCircle
 10
0.0
 20
-250.0
 30
0.0
 40
45.00000000000006
  0
LINE
  5
DF
330
D6
100
AcDbEntity
  8
0
  6
Continuous
 62
     7
370
    25
100
AcDbLine
 10
-600.0
 20
-450.0
 30
0.0
 11
-600.0
 21
450.0
 31
0.0
  0
LINE
  5
E0
330
D6
100
AcDbEntity
  8
0
  6
Continuous
 62
     7
370
    25
100
AcDbLine
 10
600.0
 20
-450.0
 30
0.0
 11
-600.0
 21
-450.0
 31
0.0
  0
LINE
  5
E1
330
D6
100
AcDbEntity
  8
0
  6
Continuous
 62
     7
370
    25
100
AcDbLine
 10
600.0
 20
450.0
 30
0.0
 11
600.0
 21
-450.0
 31
0.0
  0
LINE
  5
E2
330
D6
100
AcDbEntity
  8
0
  6
Continuous
 62
     7
370
    25
100
AcDbLine
 10
-600.0
 20
450.0
 30
0.0
 11
600.0
 21
450.0
 31
0.0
  0
VIEWPORT
  5
1BB
330
D6
100
AcDbEntity
  8
0
100
AcDbViewport
 10
0.0
 20
0.0
 30
0.0
 40
205.6
 41
156.0
 68
     1
 69
     1
 12
0.0
 22
0.0
 13
0.0
 23
0.0
 14
10.0
 24
10.0
 15
10.0
 25
10.0
 16
0.0
 26
0.0
 36
1.0
 17
0.0
 27
0.0
 37
0.0
 42
50.0
 43
0.0
 44
0.0
 45
928.7159533074
 50
0.0
 51
0.0
 72
   100
 90
   557152
  1

281
     0
 71
     1
 74
     0
110
0.0
120
0.0
130
0.0
111
1.0
121
0.0
131
0.0
112
0.0
122
1.0
132
0.0
 79
     0
146
0.0
  0
ENDBLK
  5
D9
330
D6
100
AcDbEntity
  8
0
100
AcDbBlockEnd
  0
BLOCK
  5
E5
330
E3
100
AcDbEntity
  8
0
100
AcDbBlockBegin
  2
*Paper_Space5
 70
     0
 10
0.0
 20
0.0
 30
0.0
  3
*Paper_Space5
  1

  0
SPLINE
  5
FB
330
E3
100
AcDbEntity
  8
0
  6
Continuous
 62
     7
370
    25
100
AcDbSpline
210
0.0
220
0.0
230
1.0
 70
     8
 71
     3
 72
    34
 73
    30
 74
     0
 42
0.000000001
 43
0.00000001
 40
0.0
 40
0.0
 40
0.0
 40
0.0
 40
0.1250000000000002
 40
0.1250000000000002
 40
0.2500000000000003
 40
0.2500000000000003
 40
0.2812499999999999
 40
0.2812499999999999
 40
0.3124999999999995
 40
0.3124999999999995
 40
0.3749999999999997
 40
0.3749999999999997
 40
0.5000000000000001
 40
0.5000000000000001
 40
0.5312500000000004
 40
0.5312500000000004
 40
0.5625000000000009
 40
0.5625000000000009
 40
0.6250000000000017
 40
0.6250000000000017
 40
0.750000000000001
 40
0.750000000000001
 40
0.8125000000000018
 40
0.8125000000000018
 40
0.8437500000000021
 40
0.8437500000000021
 40
0.8750000000000026
 40
0.8750000000000026
 40
1.0
 40
1.0
 40
1.0
 40
1.0
 10
183.3811503403762
 20
79.1136944241014
 30
0.0
 10
186.68851269367
 20
79.30877414012299
 30
0.0
 10
189.9278418795651
 20
79.64807089242876
 30
0.0
 10
196.2760289813959
 20
80.60311587490462
 30
0.0
 10
199.3848707453605
 20
81.21888755774768
 30
0.0
 10
203.1869091990341
 20
82.16632786466144
 30
0.0
 10
203.9443352525601
 20
82.36509874125659
 30
0.0
 10
205.4447641167921
 20
82.77922402914439
 30
0.0
 10
206.1857425001202
 20
82.99398193594266
 30
0.0
 10
208.3814087791159
 20
83.6609585449912
 30
0.0
 10
209.8088722230737
 20
84.1358464846943
 30
0.0
 10
213.9842767962691
 20
85.64943741528056
 30
0.0
 10
216.6258222760212
 20
86.77654853070285
 30
0.0
 10
219.7471522056452
 20
88.33498150463603
 30
0.0
 10
220.3623369476263
 20
88.65418670093577
 30
0.0
 10
221.5742585484155
 20
89.30785534013182
 30
0.0
 10
222.1722850280807
 20
89.64308988355
 30
0.0
 10
223.926402715692
 20
90.66517243551579
 30
0.0
 10
225.0429648187391
 20
91.36827413807598
 30
0.0
 10
228.2382267194202
 20
93.5409214157899
 30
0.0
 10
230.1633107086451
 20
95.07342928896345
 30
0.0
 10
232.7432591037657
 20
97.4981350925573
 30
0.0
 10
233.5517439732749
 20
98.32745335418014
 30
0.0
 10
234.68514041047
 20
99.60390935825792
 30
0.0
 10
235.0499982934263
 20
100.0352577837491
 30
0.0
 10
235.7479168686675
 20
100.9027616868248
 30
0.0
 10
236.0816274916126
 20
101.339605931354
 30
0.0
 10
237.6745727451423
 20
103.539180280582
 30
0.0
 10
238.7082899608098
 20
105.3476723848048
 30
0.0
 10
239.4985701912858
 20
107.2058791613284
 30
0.0
  0
SPLINE
  5
FD
330
E3
100
AcDbEntity
  8
0
  6
Continuous
 62
     7
370
    25
100
AcDbSpline
210
0.0
220
0.0
230
1.0
 70
     8
 71
     3
 72
    52
 73
    48
 74
     0
 42
0.000000001
 43
0.00000001
 40
0.0
 40
0.0
 40
0.0
 40
0.0
 40
0.0624999999999999
 40
0.0624999999999999
 40
0.1249999999999998
 40
0.1249999999999998
 40
0.1874999999999998
 40
0.1874999999999998
 40
0.2187499999999997
 40
0.2187499999999997
 40
0.2499999999999997
 40
0.2499999999999997
 40
0.3125
 40
0.3125
 40
0.3750000000000003
 40
0.3750000000000003
 40
0.4062500000000005
 40
0.4062500000000005
 40
0.4375000000000007
 40
0.4375000000000007
 40
0.5000000000000011
 40
0.5000000000000011
 40
0.5625000000000014
 40
0.5625000000000014
 40
0.5781250000000016
 40
0.5781250000000016
 40
0.5937500000000017
 40
0.5937500000000017
 40
0.6250000000000016
 40
0.6250000000000016
 40
0.6875000000000016
 40
0.6875000000000016
 40
0.7500000000000014
 40
0.7500000000000014
 40
0.7656250000000013
 40
0.7656250000000013
 40
0.7812500000000012
 40
0.7812500000000012
 40
0.8125000000000009
 40
0.8125000000000009
 40
0.8750000000000006
 40
0.8750000000000006
 40
0.9375000000000003
 40
0.9375000000000003
 40
0.9687500000000001
 40
0.9687500000000001
 40
1.0
 40
1.0
 40
1.0
 40
1.0
 10
112.7070409958077
 20
119.9129893113109
 30
0.0
 10
112.4531121837703
 20
118.5340877206519
 30
0.0
 10
112.3354103252817
 20
117.1601204114035
 30
0.0
 10
112.3624116193517
 20
114.4216450124215
 30
0.0
 10
112.507148569669
 20
113.0571369269914
 30
0.0
 10
113.0590551490156
 20
110.3375153426992
 30
0.0
 10
113.4661996532367
 20
108.982398553766
 30
0.0
 10
114.2811735183794
 20
106.9569718827133
 30
0.0
 10
114.5851456005476
 20
106.2877662925601
 30
0.0
 10
115.2541561716427
 20
104.9659991339033
 30
0.0
 10
115.619523483007
 20
104.312613333376
 30
0.0
 10
116.8068763933926
 20
102.3746062091867
 30
0.0
 10
117.7198448542254
 20
101.1120659866299
 30
0.0
 10
119.788248817639
 20
98.6457585169512
 30
0.0
 10
120.9436736019745
 20
97.44198087275772
 30
0.0
 10
122.8652904682748
 20
95.6819440701405
 30
0.0
 10
123.5344320209338
 20
95.10570536625299
 30
0.0
 10
124.9197073662839
 20
93.9817310826256
 30
0.0
 10
125.6372101887589
 20
93.43272926623406
 30
0.0
 10
127.8631606000941
 20
91.82407706683341
 30
0.0
 10
129.4448442039613
 20
90.80266180991785
 30
0.0
 10
132.8030407549621
 20
88.86154435184932
 30
0.0
 10
134.5795341677186
 20
87.94183230629562
 30
0.0
 10
136.9261288103001
 20
86.85796688939007
 30
0.0
 10
137.4020653984141
 20
86.64438266307427
 30
0.0
 10
138.3606029627514
 20
86.22650898842429
 30
0.0
 10
138.8439163715763
 20
86.02188094743082
 30
0.0
 10
140.3058497082558
 20
85.420773432993
 30
0.0
 10
141.2964535116053
 20
85.03706040498058
 30
0.0
 10
144.315430728821
 20
83.93618081653885
 30
0.0
 10
146.39082285752
 20
83.2691213914271
 30
0.0
 10
150.66650819397
 20
82.068161990122
 30
0.0
 10
152.8667826757845
 20
81.5342496995112
 30
0.0
 10
155.6977464330765
 20
80.95286917920637
 30
0.0
 10
156.2686742877013
 20
80.840789193138
 30
0.0
 10
157.4118625226325
 20
80.62661849954881
 30
0.0
 10
157.9847936264963
 20
80.52437770593166
 30
0.0
 10
159.7075501894095
 20
80.23201737064464
 30
0.0
 10
160.8613357975058
 20
80.05624847011258
 30
0.0
 10
164.3382714575801
 20
79.58541184923266
 30
0.0
 10
166.6769521068875
 20
79.34664334875994
 30
0.0
 10
171.3955239191059
 20
79.01857011909635
 30
0.0
 10
173.7754109350784
 20
78.92925271845857
 30
0.0
 10
177.3771327430134
 20
78.91099340188889
 30
0.0
 10
178.5826117804288
 20
78.92434233016529
 30
0.0
 10
180.984818136023
 20
78.9898960896035
 30
0.0
 10
182.1839652850281
 20
79.04206681116685
 30
0.0
 10
183.3811503403762
 20
79.11369442410137
 30
0.0
  0
SPLINE
  5
100
330
E3
100
AcDbEntity
  8
0
  6
Continuous
 62
     7
370
    25
100
AcDbSpline
210
0.0
220
0.0
230
1.0
 70
     8
 71
     3
 72
    34
 73
    30
 74
     0
 42
0.000000001
 43
0.00000001
 40
0.0
 40
0.0
 40
0.0
 40
0.0
 40
0.1249999999999963
 40
0.1249999999999963
 40
0.2499999999999926
 40
0.2499999999999926
 40
0.2812499999999921
 40
0.2812499999999921
 40
0.3124999999999916
 40
0.3124999999999916
 40
0.3749999999999906
 40
0.3749999999999906
 40
0.4999999999999909
 40
0.4999999999999909
 40
0.5312499999999912
 40
0.5312499999999912
 40
0.5624999999999915
 40
0.5624999999999915
 40
0.6249999999999932
 40
0.6249999999999932
 40
0.7499999999999958
 40
0.7499999999999958
 40
0.8124999999999966
 40
0.8124999999999966
 40
0.8437499999999973
 40
0.8437499999999973
 40
0.8749999999999981
 40
0.8749999999999981
 40
1.0
 40
1.0
 40
1.0
 40
1.0
 10
161.1892846224866
 20
152.4128674623942
 30
0.0
 10
157.9613177874301
 20
151.9622099760273
 30
0.0
 10
154.8370960540874
 20
151.3719518334215
 30
0.0
 10
148.7880145913377
 20
149.922566113753
 30
0.0
 10
145.8631650823772
 20
149.0634279168711
 30
0.0
 10
142.335568998738
 20
147.8161057852846
 30
0.0
 10
141.6350273196576
 20
147.5573453250465
 30
0.0
 10
140.2551293548772
 20
147.0252074614784
 30
0.0
 10
139.5762980573626
 20
146.7520917786266
 30
0.0
 10
137.5726153777396
 20
145.9119504358313
 30
0.0
 10
136.2805285226152
 20
145.3241582506114
 30
0.0
 10
132.5328160413086
 20
143.4793969023634
 30
0.0
 10
130.2049755899083
 20
142.1415298054048
 30
0.0
 10
127.5113721655479
 20
140.3327426650035
 30
0.0
 10
126.9835189462785
 20
139.9641279946597
 30
0.0
 10
125.9498576862752
 20
139.2130063381749
 30
0.0
 10
125.4434945454884
 20
138.8299972165002
 30
0.0
 10
123.9704294856576
 20
137.6698209595133
 30
0.0
 10
123.0455154162775
 20
136.8786491855921
 30
0.0
 10
120.4376013620489
 20
134.4535604782795
 30
0.0
 10
118.9204242123231
 20
132.7684107687442
 30
0.0
 10
116.9768747963823
 20
130.1385852491627
 30
0.0
 10
116.3846218033131
 20
129.2448946481059
 30
0.0
 10
115.5819327499506
 20
127.8780805468094
 30
0.0
 10
115.3292856427956
 20
127.4190486562947
 30
0.0
 10
114.8559912703156
 20
126.4984570131671
 30
0.0
 10
114.6349646686368
 20
126.0362604487315
 30
0.0
 10
113.6073508508179
 20
123.7158629808921
 30
0.0
 10
113.0319194233746
 20
121.8296018458478
 30
0.0
 10
112.7070409958077
 20
119.9129893113109
 30
0.0
  0
SPLINE
  5
101
330
E3
100
AcDbEntity
  8
0
  6
Continuous
 62
     7
370
    25
100
AcDbSpline
210
0.0
220
0.0
230
1.0
 70
     8
 71
     3
 72
    44
 73
    40
 74
     0
 42
0.000000001
 43
0.00000001
 40
0.0
 40
0.0
 40
0.0
 40
0.0
 40
0.0625000000000003
 40
0.0625000000000003
 40
0.0937500000000006
 40
0.0937500000000006
 40
0.1250000000000009
 40
0.1250000000000009
 40
0.1875000000000004
 40
0.1875000000000004
 40
0.2187500000000006
 40
0.2187500000000006
 40
0.2500000000000008
 40
0.2500000000000008
 40
0.3750000000000003
 40
0.3750000000000003
 40
0.4062500000000003
 40
0.4062500000000003
 40
0.4375000000000002
 40
0.4375000000000002
 40
0.5000000000000001
 40
0.5000000000000001
 40
0.6249999999999999
 40
0.6249999999999999
 40
0.6562499999999999
 40
0.6562499999999999
 40
0.6874999999999998
 40
0.6874999999999998
 40
0.7499999999999999
 40
0.7499999999999999
 40
0.8125000000000001
 40
0.8125000000000001
 40
0.8750000000000001
 40
0.8750000000000001
 40
0.90625
 40
0.90625
 40
0.9375
 40
0.9375
 40
1.0
 40
1.0
 40
1.0
 40
1.0
 10
241.7711580233991
 20
115.8890781162699
 30
0.0
 10
241.7995775409248
 20
117.1786423330353
 30
0.0
 10
241.7187617988046
 20
118.4680493002707
 30
0.0
 10
241.4353640526509
 20
120.4026579711837
 30
0.0
 10
241.3138179704775
 20
121.0475969001235
 30
0.0
 10
241.0162303076447
 20
122.3375097559628
 30
0.0
 10
240.8401113916084
 20
122.9823889060239
 30
0.0
 10
240.2329131836752
 20
124.9058261114577
 30
0.0
 10
239.7224528098157
 20
126.1769006491212
 30
0.0
 10
238.7982170920304
 20
128.0630228166769
 30
0.0
 10
238.4628643146455
 20
128.6895764444737
 30
0.0
 10
237.7436253358906
 20
129.9266163622161
 30
0.0
 10
237.359746850166
 20
130.5373795413218
 30
0.0
 10
235.3212979250314
 20
133.5512912123364
 30
0.0
 10
233.3130562373928
 20
135.8348125646629
 30
0.0
 10
230.3305475819659
 20
138.5089268229966
 30
0.0
 10
229.7102170022092
 20
139.0347215135691
 30
0.0
 10
228.4209881559427
 20
140.0676390367127
 30
0.0
 10
227.7511162291154
 20
140.5753004096799
 30
0.0
 10
225.6909125877596
 20
142.0528314172227
 30
0.0
 10
224.2433884461637
 20
142.9830604906146
 30
0.0
 10
219.6845476521684
 20
145.6129567840861
 30
0.0
 10
216.3591202367116
 20
147.1527848153891
 30
0.0
 10
211.8315925275704
 20
148.8069937011761
 30
0.0
 10
210.9101043169907
 20
149.1231307639686
 30
0.0
 10
209.0497179949186
 20
149.7219254952791
 30
0.0
 10
208.1087444106411
 20
150.0053513033005
 30
0.0
 10
205.2539616683554
 20
150.809166190099
 30
0.0
 10
203.308370132881
 20
151.283150729433
 30
0.0
 10
199.3329516705188
 20
152.1135232682871
 30
0.0
 10
197.3031263763734
 20
152.4699548419484
 30
0.0
 10
193.1572352349153
 20
153.0689328806975
 30
0.0
 10
191.0355456066156
 20
153.3116718814556
 30
0.0
 10
187.8338888675399
 20
153.5868439946697
 30
0.0
 10
186.7618172287269
 20
153.6640127383574
 30
0.0
 10
184.6079324915689
 20
153.7895045407552
 30
0.0
 10
183.5254624523936
 20
153.8378211892105
 30
0.0
 10
180.2768351652978
 20
153.9389807124977
 30
0.0
 10
178.105402514648
 20
153.9485097941035
 30
0.0
 10
175.9282762612748
 20
153.8993646858454
 30
0.0
  0
SPLINE
  5
102
330
E3
100
AcDbEntity
  8
0
  6
Continuous
 62
     7
370
    25
100
AcDbSpline
210
0.0
220
0.0
230
1.0
 70
     8
 71
     3
 72
     8
 73
     4
 74
     0
 42
0.000000001
 43
0.00000001
 40
0.0
 40
0.0
 40
0.0
 40
0.0
 40
1.0
 40
1.0
 40
1.0
 40
1.0
 10
175.9282762612754
 20
153.8993646858454
 30
0.0
 10
170.9356788509037
 20
153.6799083695526
 30
0.0
 10
166.0207071497189
 20
153.197036682698
 30
0.0
 10
161.1892846224867
 20
152.4128674623941
 30
0.0
  0
SPLINE
  5
104
330
E3
100
AcDbEntity
  8
0
  6
Continuous
 62
     7
370
    25
100
AcDbSpline
210
0.0
220
0.0
230
1.0
 70
     8
 71
     3
 72
     8
 73
     4
 74
     0
 42
0.000000001
 43
0.00000001
 40
0.0
 40
0.0
 40
0.0
 40
0.0
 40
1.0
 40
1.0
 40
1.0
 40
1.0
 10
239.4985701912859
 20
107.2058791613284
 30
0.0
 10
240.787223418771
 20
110.0352455651303
 30
0.0
 10
241.5325930876638
 20
112.925177269514
 30
0.0
 10
241.771158023399
 20
115.8890781162699
 30
0.0
  0
LWPOLYLINE
  5
109
330
E3
100
AcDbEntity
  8
0
  6
Continuous
 62
     7
370
    25
100
AcDbPolyline
 90
       72
 70
   128
 43
0.0
 10
144.9568901432
 20
88.5810763331
 10
142.2691689946
 20
90.2764284848
 10
139.8515160264
 20
92.1022759663
 10
137.7228526509
 20
94.0443290454
 10
135.8998385453
 20
96.0873885238
 10
134.3967412666
 20
98.2154646909
 10
133.2253245891
 20
100.4119024654
 10
132.3947564366
 20
102.6595117436
 10
131.9115371308
 20
104.9407019355
 10
131.7794485182
 20
107.2376196349
 10
131.9995243711
 20
109.5322883466
 10
132.5700422976
 20
111.8067491766
 10
133.4865372214
 20
114.0432013851
 10
134.7418363272
 20
116.2241417013
 10
136.3261151973
 20
118.3325013102
 10
138.2269747017
 20
120.3517794392
 10
140.4295380373
 20
122.2661724991
 10
142.9165671598
 20
124.0606977687
 10
145.6685976942
 20
125.7213106545
 10
148.6640912703
 20
127.2350146092
 10
151.8796040894
 20
128.589962847
 10
155.2899704039
 20
129.7755510608
 10
158.8684994734
 20
130.7825004154
 10
162.5871844561
 20
131.6029301667
 10
166.4169216
 20
132.2304193397
 10
170.3277380194
 20
132.6600569808
 10
174.2890262732
 20
132.8884805928
 10
178.2697839101
 20
132.9139024514
 10
182.2388561042
 20
132.7361235959
 10
186.1651794841
 20
132.356535387
 10
190.0180252458
 20
131.7781086172
 10
193.7672396474
 20
131.00537026
 10
197.3834800029
 20
130.044368041
 10
200.8384443283
 20
128.9026231053
 10
204.1050928434
 20
127.5890711553
 10
207.1578595945
 20
126.1139925158
 10
209.9728525427
 20
124.4889316772
 10
212.5280405514
 20
122.7266069439
 10
214.80342581
 20
120.8408108964
 10
216.7812003438
 20
118.8463024457
 10
218.4458853855
 20
116.7586913245
 10
219.7844525176
 20
114.5943159205
 10
220.7864256374
 20
112.3701154057
 10
221.4439629466
 20
110.1034971648
 10
221.7519183243
 20
107.8122005588
 10
221.7078816023
 20
105.5141580902
 10
221.3121974274
 20
103.2273550572
 10
220.5679625648
 20
100.9696887941
 10
219.4810016615
 20
98.7588286004
 10
218.0598216603
 20
96.6120774548
 10
216.3155452215
 20
94.5462365956
 10
214.2618236733
 20
92.5774740285
 10
211.9147301714
 20
90.72119799
 10
209.2926339046
 20
88.9919363569
 10
206.4160563315
 20
87.4032229461
 10
203.3075105718
 20
85.9674915941
 10
199.9913252108
 20
84.6959788453
 10
196.4934538951
 20
83.5986360111
 10
192.8412722103
 20
82.6840512868
 10
189.0633634301
 20
81.9593825381
 10
185.1892948129
 20
81.4303012804
 10
181.2493861982
 20
81.1009482919
 10
177.2744727129
 20
80.9739012063
 10
173.2956634445
 20
81.0501543392
 10
169.34409797
 20
81.3291109067
 10
165.4507026471
 20
81.8085876952
 10
161.645948573
 20
82.4848321489
 10
157.9596131071
 20
83.3525517379
 10
154.4205468224
 20
84.40495538
 10
151.0564477112
 20
85.6338065899
 10
147.8936444101
 20
87.0294879405
 10
144.9568901432
 20
88.5810763331
  0
LWPOLYLINE
  5
10A
330
E3
100
AcDbEntity
  8
0
  6
Continuous
 62
     7
370
    25
100
AcDbPolyline
 90
       22
 70
   128
 43
0.0
 10
175.9282762613
 20
153.8993646858
 10
180.8683378916
 20
153.8281437633
 10
185.7847508645
 20
153.5404754696
 10
190.6490995586
 20
153.0380224544
 10
195.4332692711
 20
152.323688769
 10
200.1096087132
 20
151.401603081
 10
204.6510898279
 20
150.2770948121
 10
209.031464005
 20
148.956663335
 10
213.2254137917
 20
147.4479404093
 10
217.2086992209
 20
145.7596460711
 10
220.9582979121
 20
143.9015382339
 10
224.4525381348
 20
141.8843562902
 10
227.6712240661
 20
139.7197590406
 10
230.5957525168
 20
137.4202573086
 10
233.2092204534
 20
134.9991416316
 10
235.4965226935
 20
132.4704054448
 10
237.4444392096
 20
129.8486642026
 10
239.041711538
 20
127.1490709052
 10
240.2791078492
 20
124.3872285176
 10
241.1494763061
 20
121.5790997892
 10
241.6477863995
 20
118.7409149924
 10
241.7766952966
 20
116.3788600001
  0
LWPOLYLINE
  5
10B
330
E3
100
AcDbEntity
  8
0
  6
Continuous
 62
     7
370
    25
100
AcDbPolyline
 90
       36
 70
   128
 43
0.0
 10
221.576183553
 20
104.5006364135
 10
221.4439629466
 20
105.2042522935
 10
220.7864256374
 20
107.4708705343
 10
219.7844525176
 20
109.6950710492
 10
218.4458853855
 20
111.8594464532
 10
216.7812003438
 20
113.9470575743
 10
214.80342581
 20
115.9415660251
 10
212.5280405514
 20
117.8273620726
 10
209.9728525427
 20
119.5896868059
 10
207.1578595945
 20
121.2147476444
 10
204.1050928434
 20
122.6898262839
 10
200.8384443283
 20
124.003378234
 10
197.3834800029
 20
125.1451231696
 10
193.7672396474
 20
126.1061253887
 10
190.0180252458
 20
126.8788637459
 10
186.1651794841
 20
127.4572905157
 10
182.2388561042
 20
127.8368787246
 10
178.2697839101
 20
128.01465758
 10
174.2890262732
 20
127.9892357215
 10
170.3277380194
 20
127.7608121095
 10
166.4169216
 20
127.3311744684
 10
162.5871844561
 20
126.7036852954
 10
158.8684994734
 20
125.8832555441
 10
155.2899704039
 20
124.8763061895
 10
151.8796040894
 20
123.6907179757
 10
148.6640912703
 20
122.3357697379
 10
145.6685976942
 20
120.8220657832
 10
142.9165671598
 20
119.1614528974
 10
140.4295380373
 20
117.3669276278
 10
138.2269747017
 20
115.4525345679
 10
136.3261151973
 20
113.4332564389
 10
134.7418363272
 20
111.32489683
 10
133.4865372214
 20
109.1439565138
 10
132.5700422976
 20
106.9075043053
 10
131.9995243711
 20
104.6330434753
 10
131.9772070402
 20
104.5006364135
  0
LINE
  5
10C
330
E3
100
AcDbEntity
  8
0
  6
Continuous
 62
     7
370
    25
100
AcDbLine
 10
106.066017178
 20
-387.7872181126
 30
0.0
 11
106.066017178
 21
-428.6142587069
 31
0.0
  0
LINE
  5
10D
330
E3
100
AcDbEntity
  8
0
  6
Continuous
 62
     7
370
    25
100
AcDbLine
 10
106.066017178
 20
-387.7872181126
 30
0.0
 11
742.4621202459
 21
-20.4035677924
 31
0.0
  0
LINE
  5
10E
330
E3
100
AcDbEntity
  8
0
  6
Continuous
 62
     7
370
    25
100
AcDbLine
 10
742.4621202459
 20
-20.4035677924
 30
0.0
 11
742.4621202459
 21
-61.2306083867
 31
0.0
  0
LINE
  5
10F
330
E3
100
AcDbEntity
  8
0
  6
Continuous
 62
     7
370
    25
100
AcDbLine
 10
106.066017178
 20
-428.6142587069
 30
0.0
 11
742.4621202459
 21
-61.2306083867
 31
0.0
  0
LINE
  5
110
330
E3
100
AcDbEntity
  8
0
  6
Continuous
 62
     7
370
    25
100
AcDbLine
 10
742.4621202459
 20
-20.4035677924
 30
0.0
 11
-106.066017178
 21
469.4412993012
 31
0.0
  0
LINE
  5
111
330
E3
100
AcDbEntity
  8
0
  6
Continuous
 62
     7
370
    25
100
AcDbLine
 10
-742.4621202459
 20
102.057648981
 30
0.0
 11
106.066017178
 21
-387.7872181126
 31
0.0
  0
LINE
  5
112
330
E3
100
AcDbEntity
  8
0
  6
Continuous
 62
     7
370
    25
100
AcDbLine
 10
-106.066017178
 20
469.4412993012
 30
0.0
 11
-742.4621202459
 21
102.057648981
 31
0.0
  0
LINE
  5
113
330
E3
100
AcDbEntity
  8
0
  6
Continuous
 62
     7
370
    25
100
AcDbLine
 10
-106.066017178
 20
469.35965849
 30
0.0
 11
742.3206988896
 21
-20.4035677924
 31
0.0
  0
LINE
  5
114
330
E3
100
AcDbEntity
  8
0
  6
Continuous
 62
     7
370
    25
100
AcDbLine
 10
-742.3206988896
 20
102.057648981
 30
0.0
 11
-106.066017178
 21
469.35965849
 31
0.0
  0
LINE
  5
115
330
E3
100
AcDbEntity
  8
0
  6
Continuous
 62
     7
370
    25
100
AcDbLine
 10
106.066017178
 20
-387.7055773015
 30
0.0
 11
-742.3206988896
 21
102.057648981
 31
0.0
  0
LINE
  5
116
330
E3
100
AcDbEntity
  8
0
  6
Continuous
 62
     7
370
    25
100
AcDbLine
 10
742.3206988896
 20
-20.4035677924
 30
0.0
 11
106.066017178
 21
-387.7055773015
 31
0.0
  0
LINE
  5
117
330
E3
100
AcDbEntity
  8
0
  6
Continuous
 62
     7
370
    25
100
AcDbLine
 10
-742.4621202459
 20
102.057648981
 30
0.0
 11
-742.4621202459
 21
61.2306083867
 31
0.0
  0
LINE
  5
118
330
E3
100
AcDbEntity
  8
0
  6
Continuous
 62
     7
370
    25
100
AcDbLine
 10
-742.4621202459
 20
61.2306083867
 30
0.0
 11
106.066017178
 21
-428.6142587069
 31
0.0
  0
LINE
  5
119
330
E3
100
AcDbEntity
  8
0
  6
Continuous
 62
     7
370
    25
100
AcDbLine
 10
106.066017178
 20
-387.7055773015
 30
0.0
 11
106.066017178
 21
-348.3896727718
 31
0.0
  0
LINE
  5
11A
330
E3
100
AcDbEntity
  8
0
  6
Continuous
 62
     7
370
    25
100
AcDbLine
 10
106.066017178
 20
-348.3896727718
 30
0.0
 11
671.7514421272
 21
-21.8264280427
 31
0.0
  0
LINE
  5
11B
330
E3
100
AcDbEntity
  8
0
  6
Continuous
 62
     7
370
    25
100
AcDbLine
 10
742.3206988896
 20
-20.4035677924
 30
0.0
 11
671.7514421272
 21
-21.8264280427
 31
0.0
  0
LINE
  5
11C
330
E3
100
AcDbEntity
  8
0
  6
Continuous
 62
     7
370
    25
100
AcDbLine
 10
-671.7514421272
 20
100.6347887307
 30
0.0
 11
106.066017178
 21
-348.3896727718
 31
0.0
  0
LINE
  5
11D
330
E3
100
AcDbEntity
  8
0
  6
Continuous
 62
     7
370
    25
100
AcDbLine
 10
-671.7514421272
 20
100.6347887307
 30
0.0
 11
-742.3206988896
 21
102.057648981
 31
0.0
  0
LINE
  5
11E
330
E3
100
AcDbEntity
  8
0
  6
Continuous
 62
     7
370
    25
100
AcDbLine
 10
654.5130126424
 20
-31.7779615599
 30
0.0
 11
239.4985701913
 21
107.2058791613
 31
0.0
  0
LINE
  5
11F
330
E3
100
AcDbEntity
  8
0
  6
Continuous
 62
     7
370
    25
100
AcDbLine
 10
109.116086074
 20
-346.6289054771
 30
0.0
 11
183.3811503404
 21
79.1136944241
 31
0.0
  0
LINE
  5
120
330
E3
100
AcDbEntity
  8
0
  6
Continuous
 62
     7
370
    25
100
AcDbLine
 10
-646.4671574317
 20
86.0384818671
 30
0.0
 11
112.7070409958
 21
119.9129893113
 31
0.0
  0
LINE
  5
121
330
E3
100
AcDbEntity
  8
0
  6
Continuous
 62
     7
370
    25
100
AcDbLine
 10
-658.1321527589
 20
92.7725403311
 30
0.0
 11
-106.066017178
 21
411.4735366605
 31
0.0
  0
LINE
  5
122
330
E3
100
AcDbEntity
  8
0
  6
Continuous
 62
     7
370
    25
100
AcDbLine
 10
161.1892846225
 20
152.4128674624
 30
0.0
 11
-106.066017178
 21
411.4735366605
 31
0.0
  0
LINE
  5
123
330
E3
100
AcDbEntity
  8
0
  6
Continuous
 62
     7
370
    25
100
AcDbLine
 10
-106.066017178
 20
411.4735366605
 30
0.0
 11
658.1321527589
 21
-29.6886764424
 31
0.0
  0
LINE
  5
124
330
E3
100
AcDbEntity
  8
0
  6
Continuous
 62
     7
370
    25
100
AcDbLine
 10
671.7514421272
 20
-21.8264280427
 30
0.0
 11
-106.066017178
 21
427.1980334598
 31
0.0
  0
LINE
  5
125
330
E3
100
AcDbEntity
  8
0
  6
Continuous
 62
     7
370
    25
100
AcDbLine
 10
-106.066017178
 20
411.4735366605
 30
0.0
 11
-106.066017178
 21
469.35965849
 31
0.0
  0
LINE
  5
126
330
E3
100
AcDbEntity
  8
0
  6
Continuous
 62
     7
370
    25
100
AcDbLine
 10
-106.066017178
 20
427.1980334598
 30
0.0
 11
-671.7514421272
 21
100.6347887307
 31
0.0
  0
VIEWPORT
  5
1BD
330
E3
100
AcDbEntity
  8
0
100
AcDbViewport
 10
0.0
 20
0.0
 30
0.0
 40
205.6
 41
156.0
 68
     1
 69
     1
 12
0.0
 22
0.0
 13
0.0
 23
0.0
 14
10.0
 24
10.0
 15
10.0
 25
10.0
 16
0.0
 26
0.0
 36
1.0
 17
0.0
 27
0.0
 37
0.0
 42
50.0
 43
0.0
 44
0.0
 45
928.7159533074
 50
0.0
 51
0.0
 72
   100
 90
   557152
  1

281
     0
 71
     1
 74
     0
110
0.0
120
0.0
130
0.0
111
1.0
121
0.0
131
0.0
112
0.0
122
1.0
132
0.0
 79
     0
146
0.0
  0
ENDBLK
  5
E6
330
E3
100
AcDbEntity
  8
0
100
AcDbBlockEnd
  0
BLOCK
  5
129
330
127
100
AcDbEntity
  8
0
100
AcDbBlockBegin
  2
*Paper_Space6
 70
     0
 10
0.0
 20
0.0
 30
0.0
  3
*Paper_Space6
  1

  0
SPLINE
  5
13F
330
127
100
AcDbEntity
  8
0
  6
Continuous
 62
     7
370
    25
100
AcDbSpline
210
0.0
220
0.0
230
1.0
 70
     8
 71
     3
 72
    34
 73
    30
 74
     0
 42
0.000000001
 43
0.00000001
 40
0.0
 40
0.0
 40
0.0
 40
0.0
 40
0.1250000000000002
 40
0.1250000000000002
 40
0.2500000000000003
 40
0.2500000000000003
 40
0.2812499999999999
 40
0.2812499999999999
 40
0.3124999999999995
 40
0.3124999999999995
 40
0.3749999999999997
 40
0.3749999999999997
 40
0.5000000000000001
 40
0.5000000000000001
 40
0.5312500000000004
 40
0.5312500000000004
 40
0.5625000000000009
 40
0.5625000000000009
 40
0.6250000000000017
 40
0.6250000000000017
 40
0.750000000000001
 40
0.750000000000001
 40
0.8125000000000018
 40
0.8125000000000018
 40
0.8437500000000021
 40
0.8437500000000021
 40
0.8750000000000026
 40
0.8750000000000026
 40
1.0
 40
1.0
 40
1.0
 40
1.0
 10
141.9081686037753
 20
98.10432391225221
 30
0.0
 10
144.9719907012419
 20
98.77523139908374
 30
0.0
 10
147.8972309598821
 20
99.558793500589
 30
0.0
 10
153.4819442845922
 20
101.3418337615723
 30
0.0
 10
156.1413844035635
 20
102.3413273259956
 30
0.0
 10
159.2945491054357
 20
103.7294248737422
 30
0.0
 10
159.917588032816
 20
104.0145047346773
 30
0.0
 10
161.1413907919089
 20
104.5966014635325
 30
0.0
 10
161.7405227067145
 20
104.8928007531201
 30
0.0
 10
163.5002173547209
 20
105.7965886558054
 30
0.0
 10
164.6231404101852
 20
106.4193460575915
 30
0.0
 10
167.8439941217733
 20
108.3470624006978
 30
0.0
 10
169.7948251402778
 20
109.7111076773173
 30
0.0
 10
171.9836678312432
 20
111.5159094357491
 30
0.0
 10
172.408880847649
 20
111.8818842914853
 30
0.0
 10
173.2338012285865
 20
112.6240045897172
 30
0.0
 10
173.6343475911305
 20
113.0010040403685
 30
0.0
 10
174.7892917398127
 20
114.1398314205503
 30
0.0
 10
175.4974737003275
 20
114.9094481118438
 30
0.0
 10
177.4414988151083
 20
117.2485735872996
 30
0.0
 10
178.4977664310865
 20
118.8481486409047
 30
0.0
 10
179.7224953807877
 20
121.3075595026341
 30
0.0
 10
180.070537725961
 20
122.137416885588
 30
0.0
 10
180.4998641394798
 20
123.3976914506991
 30
0.0
 10
180.6275546107346
 20
123.8207905716913
 30
0.0
 10
180.8499932933568
 20
124.666208666182
 30
0.0
 10
180.9450099743515
 20
125.0892135729758
 30
0.0
 10
181.3397552857315
 20
127.2057266202758
 30
0.0
 10
181.3998575376454
 20
128.9036408464379
 30
0.0
 10
181.2012925859061
 20
130.6066433805436
 30
0.0
  0
SPLINE
  5
141
330
127
100
AcDbEntity
  8
0
  6
Continuous
 62
     7
370
    25
100
AcDbSpline
210
0.0
220
0.0
230
1.0
 70
     8
 71
     3
 72
    52
 73
    48
 74
     0
 42
0.000000001
 43
0.00000001
 40
0.0
 40
0.0
 40
0.0
 40
0.0
 40
0.0624999999999999
 40
0.0624999999999999
 40
0.1249999999999998
 40
0.1249999999999998
 40
0.1874999999999998
 40
0.1874999999999998
 40
0.2187499999999997
 40
0.2187499999999997
 40
0.2499999999999997
 40
0.2499999999999997
 40
0.3125
 40
0.3125
 40
0.3750000000000003
 40
0.3750000000000003
 40
0.4062500000000005
 40
0.4062500000000005
 40
0.4375000000000007
 40
0.4375000000000007
 40
0.5000000000000011
 40
0.5000000000000011
 40
0.5625000000000014
 40
0.5625000000000014
 40
0.5781250000000016
 40
0.5781250000000016
 40
0.5937500000000017
 40
0.5937500000000017
 40
0.6250000000000016
 40
0.6250000000000016
 40
0.6875000000000016
 40
0.6875000000000016
 40
0.7500000000000014
 40
0.7500000000000014
 40
0.7656250000000013
 40
0.7656250000000013
 40
0.7812500000000012
 40
0.7812500000000012
 40
0.8125000000000009
 40
0.8125000000000009
 40
0.8750000000000006
 40
0.8750000000000006
 40
0.9375000000000003
 40
0.9375000000000003
 40
0.9687500000000001
 40
0.9687500000000001
 40
1.0
 40
1.0
 40
1.0
 40
1.0
 10
53.51209505338179
 20
122.128482604509
 30
0.0
 10
53.97673031749665
 20
120.9151882350062
 30
0.0
 10
54.56897554944951
 20
119.7268183179963
 30
0.0
 10
55.99927271907264
 20
117.3980412072533
 30
0.0
 10
56.83735631735967
 20
116.2576389169475
 30
0.0
 10
58.75935617609861
 20
114.0247332360349
 30
0.0
 10
59.84324890241295
 20
112.9322227506279
 30
0.0
 10
61.66042498141521
 20
111.3306711412399
 30
0.0
 10
62.29396297208617
 20
110.8067881363871
 30
0.0
 10
63.61081018483164
 20
109.7824778378477
 30
0.0
 10
64.29485665133974
 20
109.2813985515589
 30
0.0
 10
66.42275618648281
 20
107.8108895062447
 30
0.0
 10
67.94214679342359
 20
106.8740880995352
 30
0.0
 10
71.18223368233507
 20
105.0873628212973
 30
0.0
 10
72.90292106909064
 20
104.2374269236491
 30
0.0
 10
75.64043542671426
 20
103.0299967544439
 30
0.0
 10
76.57488217064771
 20
102.6407537387439
 30
0.0
 10
78.47399435674264
 20
101.8936757119073
 30
0.0
 10
79.4406165895775
 20
101.5349700502659
 30
0.0
 10
82.39089000156447
 20
100.5026646469264
 30
0.0
 10
84.42480655615985
 20
99.87274253193178
 30
0.0
 10
88.62636035053387
 20
98.72908982995732
 30
0.0
 10
90.79398418290947
 20
98.21534796449748
 30
0.0
 10
93.5899786075332
 20
97.64830745900906
 30
0.0
 10
94.15385655362442
 20
97.53861963445456
 30
0.0
 10
95.28320195173038
 20
97.3281719465537
 30
0.0
 10
95.84952310482741
 20
97.22723178910809
 30
0.0
 10
97.55337455334741
 20
96.93711347893912
 30
0.0
 10
98.69578907401666
 20
96.76062736633457
 30
0.0
 10
102.1422558447049
 20
96.28113636558508
 30
0.0
 10
104.4654713565077
 20
96.02794758445629
 30
0.0
 10
109.1628079365012
 20
95.65395909382006
 30
0.0
 10
111.536921377909
 20
95.53314756804023
 30
0.0
 10
114.5374215376131
 20
95.46764867532228
 30
0.0
 10
115.1398901652938
 20
95.45884267024071
 30
0.0
 10
116.3409787108472
 20
95.44994373539835
 30
0.0
 10
116.940315889285
 20
95.4498247875968
 30
0.0
 10
118.7347492190246
 20
95.46230629559786
 30
0.0
 10
119.9262699650436
 20
95.48773488276088
 30
0.0
 10
123.4867669693182
 20
95.6145021437675
 30
0.0
 10
125.8417215599223
 20
95.76617020364777
 30
0.0
 10
130.5144244447944
 20
96.2031328728002
 30
0.0
 10
132.8321764916085
 20
96.48841652545168
 30
0.0
 10
136.2800121814557
 20
97.01980562820327
 30
0.0
 10
137.4240242583373
 20
97.21424424012652
 30
0.0
 10
139.68380550412
 20
97.63490908213858
 30
0.0
 10
140.8019022776853
 20
97.86147370582715
 30
0.0
 10
141.9081686037753
 20
98.10432391225218
 30
0.0
  0
SPLINE
  5
144
330
127
100
AcDbEntity
  8
0
  6
Continuous
 62
     7
370
    25
100
AcDbSpline
210
0.0
220
0.0
230
1.0
 70
     8
 71
     3
 72
    34
 73
    30
 74
     0
 42
0.000000001
 43
0.00000001
 40
0.0
 40
0.0
 40
0.0
 40
0.0
 40
0.1249999999999963
 40
0.1249999999999963
 40
0.2499999999999926
 40
0.2499999999999926
 40
0.2812499999999921
 40
0.2812499999999921
 40
0.3124999999999916
 40
0.3124999999999916
 40
0.3749999999999906
 40
0.3749999999999906
 40
0.4999999999999909
 40
0.4999999999999909
 40
0.5312499999999912
 40
0.5312499999999912
 40
0.5624999999999915
 40
0.5624999999999915
 40
0.6249999999999932
 40
0.6249999999999932
 40
0.7499999999999958
 40
0.7499999999999958
 40
0.8124999999999966
 40
0.8124999999999966
 40
0.8437499999999973
 40
0.8437499999999973
 40
0.8749999999999981
 40
0.8749999999999981
 40
1.0
 40
1.0
 40
1.0
 40
1.0
 10
83.25547577950944
 20
157.2262176635363
 30
0.0
 10
80.40493405257384
 20
156.3521127131278
 30
0.0
 10
77.72426759054396
 20
155.3745421467867
 30
0.0
 10
72.68937631297392
 20
153.2199406128508
 30
0.0
 10
70.33516823026864
 20
152.0429027402221
 30
0.0
 10
67.60276220385367
 20
150.4429250002152
 30
0.0
 10
67.06573834800015
 20
150.1157420733798
 30
0.0
 10
66.01930254194686
 20
149.4520988887539
 30
0.0
 10
65.51025845658992
 20
149.1159416594394
 30
0.0
 10
64.02495686759818
 20
148.0946770144663
 30
0.0
 10
63.09047050999911
 20
147.3967929348054
 30
0.0
 10
60.45089610014575
 20
145.253107791863
 30
0.0
 10
58.90872008891402
 20
143.7575748087109
 30
0.0
 10
57.25662802081906
 20
141.804455313768
 30
0.0
 10
56.94006445083995
 20
141.4096258178481
 30
0.0
 10
56.33504254611722
 20
140.6114543991432
 30
0.0
 10
56.0463092953939
 20
140.2075994474574
 30
0.0
 10
55.22971961100238
 20
138.9935082025439
 30
0.0
 10
54.74887982433706
 20
138.1776641530968
 30
0.0
 10
53.49194820497254
 20
135.7114809672178
 30
0.0
 10
52.90032578521921
 20
134.0426345086107
 30
0.0
 10
52.38246647230681
 20
131.5028545663854
 30
0.0
 10
52.27169542853063
 20
130.6501560756121
 30
0.0
 10
52.20086533447767
 20
129.3617511989967
 30
0.0
 10
52.19326358354631
 20
128.9316325214611
 30
0.0
 10
52.20994772140655
 20
128.0741171788037
 30
0.0
 10
52.23419548624677
 20
127.6461194161155
 30
0.0
 10
52.43436842338308
 20
125.5099206928242
 30
0.0
 10
52.84566858032426
 20
123.8130356016433
 30
0.0
 10
53.51209505338173
 20
122.128482604509
 30
0.0
  0
SPLINE
  5
148
330
127
100
AcDbEntity
  8
0
  6
Continuous
 62
     7
370
    25
100
AcDbSpline
210
0.0
220
0.0
230
1.0
 70
     8
 71
     3
 72
    44
 73
    40
 74
     0
 42
0.000000001
 43
0.00000001
 40
0.0
 40
0.0
 40
0.0
 40
0.0
 40
0.0625000000000003
 40
0.0625000000000003
 40
0.0937500000000006
 40
0.0937500000000006
 40
0.1250000000000009
 40
0.1250000000000009
 40
0.1875000000000004
 40
0.1875000000000004
 40
0.2187500000000006
 40
0.2187500000000006
 40
0.2500000000000008
 40
0.2500000000000008
 40
0.3750000000000003
 40
0.3750000000000003
 40
0.4062500000000003
 40
0.4062500000000003
 40
0.4375000000000002
 40
0.4375000000000002
 40
0.5000000000000001
 40
0.5000000000000001
 40
0.6249999999999999
 40
0.6249999999999999
 40
0.6562499999999999
 40
0.6562499999999999
 40
0.6874999999999998
 40
0.6874999999999998
 40
0.7499999999999999
 40
0.7499999999999999
 40
0.8125000000000001
 40
0.8125000000000001
 40
0.8750000000000001
 40
0.8750000000000001
 40
0.90625
 40
0.90625
 40
0.9375
 40
0.9375
 40
1.0
 40
1.0
 40
1.0
 40
1.0
 10
179.0189575953507
 20
138.3880522821255
 30
0.0
 10
178.4030427527929
 20
139.4980130984315
 30
0.0
 10
177.6850674325041
 20
140.592078626036
 30
0.0
 10
176.456588361217
 20
142.2103487154153
 30
0.0
 10
176.0217947563708
 20
142.745945624681
 30
0.0
 10
175.1012923682842
 20
143.8093290289745
 30
0.0
 10
174.615557578759
 20
144.3370227376656
 30
0.0
 10
173.0900421204566
 20
145.8990576554405
 30
0.0
 10
171.9796409929225
 20
146.9154801757949
 30
0.0
 10
170.1738649367722
 20
148.3988436960125
 30
0.0
 10
169.5471370157567
 20
148.8873721317698
 30
0.0
 10
168.2551912424328
 20
149.8432181488916
 30
0.0
 10
167.5898434925143
 20
150.3107746126875
 30
0.0
 10
164.1679995670429
 20
152.5957461433528
 30
0.0
 10
161.1289712932907
 20
154.2551352688484
 30
0.0
 10
156.9527522567673
 20
156.0967118995381
 30
0.0
 10
156.0984628089939
 20
156.4533599492889
 30
0.0
 10
154.3510625545545
 20
157.1425906426882
 30
0.0
 10
153.4567452312426
 20
157.4754839058545
 30
0.0
 10
150.7454234062444
 20
158.4264538936461
 30
0.0
 10
148.8908370214602
 20
159.0007982011523
 30
0.0
 10
143.1897094467884
 20
160.5488554985814
 30
0.0
 10
139.2071715975789
 20
161.3486541579891
 30
0.0
 10
133.9935019441219
 20
162.0537578990811
 30
0.0
 10
132.9420751558779
 20
162.1794480973445
 30
0.0
 10
130.838182329882
 20
162.399050744173
 30
0.0
 10
129.7833210220506
 20
162.4932947103281
 30
0.0
 10
126.6101040555443
 20
162.7308182540622
 30
0.0
 10
124.4831383301141
 20
162.8289419925946
 30
0.0
 10
120.2062564704713
 20
162.9111204648176
 30
0.0
 10
118.0563397822177
 20
162.8952203735085
 30
0.0
 10
113.732852189321
 20
162.7534097671092
 30
0.0
 10
111.5538023381454
 20
162.626804897693
 30
0.0
 10
108.3154487888053
 20
162.3593342322425
 30
0.0
 10
107.2392711277006
 20
162.2572111093419
 30
0.0
 10
105.0934679927039
 20
162.0273202559329
 30
0.0
 10
104.0232137734987
 20
161.8994454257681
 30
0.0
 10
100.835573021279
 20
161.4790353916072
 30
0.0
 10
98.73716320582922
 20
161.1494942096231
 30
0.0
 10
96.66557142619203
 20
160.7699380232909
 30
0.0
  0
SPLINE
  5
149
330
127
100
AcDbEntity
  8
0
  6
Continuous
 62
     7
370
    25
100
AcDbSpline
210
0.0
220
0.0
230
1.0
 70
     8
 71
     3
 72
     8
 73
     4
 74
     0
 42
0.000000001
 43
0.00000001
 40
0.0
 40
0.0
 40
0.0
 40
0.0
 40
1.0
 40
1.0
 40
1.0
 40
1.0
 10
96.66557142619259
 20
160.769938023291
 30
0.0
 10
91.96620211302317
 20
159.8072282326517
 30
0.0
 10
87.49069220198363
 20
158.6375577739392
 30
0.0
 10
83.2554757795096
 20
157.2262176635363
 30
0.0
  0
SPLINE
  5
14B
330
127
100
AcDbEntity
  8
0
  6
Continuous
 62
     7
370
    25
100
AcDbSpline
210
0.0
220
0.0
230
1.0
 70
     8
 71
     3
 72
     8
 73
     4
 74
     0
 42
0.000000001
 43
0.00000001
 40
0.0
 40
0.0
 40
0.0
 40
0.0
 40
1.0
 40
1.0
 40
1.0
 40
1.0
 10
181.2012925859063
 20
130.6066433805436
 30
0.0
 10
181.0053686870259
 20
133.2222724824387
 30
0.0
 10
180.2657234112434
 20
135.809310373671
 30
0.0
 10
179.0189575953507
 20
138.3880522821255
 30
0.0
  0
LWPOLYLINE
  5
14D
330
127
100
AcDbEntity
  8
0
  6
Continuous
 62
     7
370
    25
100
AcDbPolyline
 90
       72
 70
   128
 43
0.0
 10
95.6725547307
 20
98.5223501991
 10
92.2373130503
 20
99.5585224808
 10
88.9933203822
 20
100.7470092105
 10
85.9659653673
 20
102.0785088684
 10
83.1789411634
 20
103.5426006641
 10
80.6540600135
 20
105.1278260943
 10
78.411082536
 20
106.8217786208
 10
76.4675630708
 20
108.6112007681
 10
74.8387122929
 20
110.4820878819
 10
73.5372781681
 20
112.4197977338
 10
72.5734461829
 20
114.4091651171
 10
71.9547596295
 20
116.4346205345
 10
71.6860605689
 20
118.4803120513
 10
71.7694519357
 20
120.5302293578
 10
72.2042810793
 20
122.5683290715
 10
72.9871448721
 20
124.578660299
 10
74.1119163435
 20
126.5454894725
 10
75.5697926317
 20
128.4534234872
 10
77.3493638781
 20
130.2875301725
 10
79.4367025249
 20
132.0334551567
 10
81.815472317
 20
133.6775342097
 10
84.4670561555
 20
135.2069001838
 10
87.3707018018
 20
136.6095837167
 10
90.5036842917
 20
137.8746069077
 10
93.8414837895
 20
138.9920692354
 10
97.3579774885
 20
139.9532250419
 10
101.0256440577
 20
140.7505519797
 10
104.8157790333
 20
141.3778098846
 10
108.6987194703
 20
141.8300896131
 10
112.6440760952
 20
142.1038514629
 10
116.620971143
 20
142.1969528764
 10
120.5982800178
 20
142.1086652089
 10
124.5448748852
 20
141.839679431
 10
128.4298682893
 20
141.3921007212
 10
132.2228548892
 20
140.7694319897
 10
135.894149422
 20
139.9765464636
 10
139.4150190304
 20
139.0196495471
 10
142.7579081358
 20
137.9062302561
 10
145.8966540986
 20
136.6450026062
 10
148.8066919759
 20
135.2458374136
 10
151.4652467758
 20
133.7196850431
 10
153.8515117024
 20
132.0784897063
 10
155.9468109971
 20
130.3350959819
 10
157.7347461021
 20
128.5031482895
 10
159.201324001
 20
126.5969841037
 10
160.3350667333
 20
124.6315217437
 10
161.127101225
 20
122.6221436173
 10
161.5712287322
 20
120.5845758329
 10
161.6639733551
 20
118.5347651209
 10
161.4046092412
 20
116.4887540294
 10
160.7951662663
 20
114.4625553693
 10
159.8404141481
 20
112.4720268923
 10
158.5478251165
 20
110.5327471826
 10
156.927515433
 20
108.6598937334
 10
154.9921662179
 20
106.8681241621
 10
152.7569242029
 20
105.171461495
 10
150.2392831874
 20
103.583184418
 10
147.4589471257
 20
102.1157233525
 10
144.4376759175
 20
100.7805631712
 10
141.1991151062
 20
99.5881533127
 10
137.7686108212
 20
98.5478260009
 10
134.1730114098
 20
97.6677232074
 10
130.4404573124
 20
96.9547329301
 10
126.6001608257
 20
96.4144352844
 10
122.6821774766
 20
96.051058832
 10
118.7171707969
 20
95.8674474865
 10
114.7361723398
 20
95.8650382554
 10
110.770338816
 20
96.0438499942
 10
106.8507082498
 20
96.4024832588
 10
103.0079570649
 20
96.9381312575
 10
99.2721599995
 20
97.6466018185
 10
95.6725547307
 20
98.5223501991
  0
LWPOLYLINE
  5
14E
330
127
100
AcDbEntity
  8
0
  6
Continuous
 62
     7
370
    25
100
AcDbPolyline
 90
       22
 70
   128
 43
0.0
 10
96.6655714262
 20
160.7699380233
 10
101.4216558839
 20
161.4607594399
 10
106.2658941429
 20
161.9634917847
 10
111.1702877337
 20
162.2752293921
 10
116.1064905039
 20
162.3941704978
 10
121.0459724522
 20
162.3196276522
 10
125.9601846245
 20
162.0520316941
 10
130.8207241197
 20
161.5929292604
 10
135.5994982511
 20
160.9449738468
 10
140.2688869149
 20
160.1119104714
 10
144.8019022279
 20
159.0985540294
 10
149.17234451
 20
157.9107614644
 10
153.3549537124
 20
156.5553979163
 10
157.3255554136
 20
155.0402970431
 10
161.0612005419
 20
153.3742157439
 10
164.5402980149
 20
151.5667835464
 10
167.7427395308
 20
149.6284469509
 10
170.650015789
 20
147.5704090516
 10
173.2453234695
 20
145.4045647863
 10
175.5136623514
 20
143.1434321859
 10
177.4419220108
 20
140.8000800239
 10
179.0189575954
 20
138.3880522821
  0
LWPOLYLINE
  5
14F
330
127
100
AcDbEntity
  8
0
  6
Continuous
 62
     7
370
    25
100
AcDbPolyline
 90
       35
 70
   128
 43
0.0
 10
161.3960068879
 20
116.4487536032
 10
161.127101225
 20
117.4791398131
 10
160.3350667333
 20
119.4885179395
 10
159.201324001
 20
121.4539802995
 10
157.7347461021
 20
123.3601444853
 10
155.9468109971
 20
125.1920921777
 10
153.8515117024
 20
126.9354859021
 10
151.4652467758
 20
128.5766812389
 10
148.8066919759
 20
130.1028336094
 10
145.8966540986
 20
131.5019988019
 10
142.7579081358
 20
132.7632264519
 10
139.4150190304
 20
133.8766457429
 10
135.894149422
 20
134.8335426594
 10
132.2228548892
 20
135.6264281855
 10
128.4298682893
 20
136.249096917
 10
124.5448748852
 20
136.6966756268
 10
120.5982800178
 20
136.9656614047
 10
116.620971143
 20
137.0539490722
 10
112.6440760952
 20
136.9608476586
 10
108.6987194703
 20
136.6870858088
 10
104.8157790333
 20
136.2348060804
 10
101.0256440577
 20
135.6075481755
 10
97.3579774885
 20
134.8102212377
 10
93.8414837895
 20
133.8490654312
 10
90.5036842917
 20
132.7316031035
 10
87.3707018018
 20
131.4665799124
 10
84.4670561555
 20
130.0638963796
 10
81.815472317
 20
128.5345304055
 10
79.4367025249
 20
126.8904513525
 10
77.3493638781
 20
125.1445263683
 10
75.5697926317
 20
123.310419683
 10
74.1119163435
 20
121.4024856683
 10
72.9871448721
 20
119.4356564948
 10
72.2042810793
 20
117.4253252673
 10
71.9516875771
 20
116.4487536032
  0
LINE
  5
150
330
127
100
AcDbEntity
  8
0
  6
Continuous
 62
     7
370
    25
100
AcDbLine
 10
320.6379479879
 20
-306.3402248372
 30
0.0
 11
320.6379479879
 21
-349.1985898723
 31
0.0
  0
LINE
  5
151
330
127
100
AcDbEntity
  8
0
  6
Continuous
 62
     7
370
    25
100
AcDbLine
 10
320.6379479879
 20
-306.3402248372
 30
0.0
 11
740.663798025
 21
103.6178812867
 31
0.0
  0
LINE
  5
152
330
127
100
AcDbEntity
  8
0
  6
Continuous
 62
     7
370
    25
100
AcDbLine
 10
740.663798025
 20
103.6178812867
 30
0.0
 11
740.663798025
 21
60.7595162516
 31
0.0
  0
LINE
  5
153
330
127
100
AcDbEntity
  8
0
  6
Continuous
 62
     7
370
    25
100
AcDbLine
 10
320.6379479879
 20
-349.1985898723
 30
0.0
 11
740.663798025
 21
60.7595162516
 31
0.0
  0
LINE
  5
154
330
127
100
AcDbEntity
  8
0
  6
Continuous
 62
     7
370
    25
100
AcDbLine
 10
740.663798025
 20
103.6178812867
 30
0.0
 11
-320.6379479879
 21
392.0569549074
 31
0.0
  0
LINE
  5
155
330
127
100
AcDbEntity
  8
0
  6
Continuous
 62
     7
370
    25
100
AcDbLine
 10
-740.663798025
 20
-17.9011512165
 30
0.0
 11
320.6379479879
 21
-306.3402248372
 31
0.0
  0
LINE
  5
156
330
127
100
AcDbEntity
  8
0
  6
Continuous
 62
     7
370
    25
100
AcDbLine
 10
-320.6379479879
 20
392.0569549074
 30
0.0
 11
-740.663798025
 21
-17.9011512165
 31
0.0
  0
LINE
  5
157
330
127
100
AcDbEntity
  8
0
  6
Continuous
 62
     7
370
    25
100
AcDbLine
 10
-320.5961757147
 20
391.9873674172
 30
0.0
 11
740.5286866739
 21
103.5963669755
 31
0.0
  0
LINE
  5
158
330
127
100
AcDbEntity
  8
0
  6
Continuous
 62
     7
370
    25
100
AcDbLine
 10
-740.5286866739
 20
-17.8796369053
 30
0.0
 11
-320.5961757147
 21
391.9873674172
 31
0.0
  0
LINE
  5
159
330
127
100
AcDbEntity
  8
0
  6
Continuous
 62
     7
370
    25
100
AcDbLine
 10
320.5961757147
 20
-306.270637347
 30
0.0
 11
-740.5286866739
 21
-17.8796369053
 31
0.0
  0
LINE
  5
15A
330
127
100
AcDbEntity
  8
0
  6
Continuous
 62
     7
370
    25
100
AcDbLine
 10
740.5286866739
 20
103.5963669755
 30
0.0
 11
320.5961757147
 21
-306.270637347
 31
0.0
  0
LINE
  5
15B
330
127
100
AcDbEntity
  8
0
  6
Continuous
 62
     7
370
    25
100
AcDbLine
 10
-740.663798025
 20
-17.9011512165
 30
0.0
 11
-740.663798025
 21
-60.7595162516
 31
0.0
  0
LINE
  5
15C
330
127
100
AcDbEntity
  8
0
  6
Continuous
 62
     7
370
    25
100
AcDbLine
 10
-740.663798025
 20
-60.7595162516
 30
0.0
 11
320.6379479879
 21
-349.1985898723
 31
0.0
  0
LINE
  5
15D
330
127
100
AcDbEntity
  8
0
  6
Continuous
 62
     7
370
    25
100
AcDbLine
 10
320.5961757147
 20
-306.270637347
 30
0.0
 11
299.7518113506
 21
-273.0401335548
 31
0.0
  0
LINE
  5
15E
330
127
100
AcDbEntity
  8
0
  6
Continuous
 62
     7
370
    25
100
AcDbLine
 10
299.7518113506
 20
-273.0401335548
 30
0.0
 11
673.1081224946
 21
91.3670718886
 31
0.0
  0
LINE
  5
15F
330
127
100
AcDbEntity
  8
0
  6
Continuous
 62
     7
370
    25
100
AcDbLine
 10
740.5286866739
 20
103.5963669755
 30
0.0
 11
673.1081224946
 21
91.3670718886
 31
0.0
  0
LINE
  5
160
330
127
100
AcDbEntity
  8
0
  6
Continuous
 62
     7
370
    25
100
AcDbLine
 10
-673.1081224946
 20
-8.6376494025
 30
0.0
 11
299.7518113506
 21
-273.0401335548
 31
0.0
  0
LINE
  5
161
330
127
100
AcDbEntity
  8
0
  6
Continuous
 62
     7
370
    25
100
AcDbLine
 10
-673.1081224946
 20
-8.6376494025
 30
0.0
 11
-740.5286866739
 21
-17.8796369053
 31
0.0
  0
LINE
  5
162
330
127
100
AcDbEntity
  8
0
  6
Continuous
 62
     7
370
    25
100
AcDbLine
 10
657.9552880059
 20
76.5774408961
 30
0.0
 11
181.2012925859
 21
130.6066433805
 31
0.0
  0
LINE
  5
163
330
127
100
AcDbEntity
  8
0
  6
Continuous
 62
     7
370
    25
100
AcDbLine
 10
292.1942139663
 20
-270.9861405254
 30
0.0
 11
141.9081686038
 21
98.1043239123
 31
0.0
  0
LINE
  5
164
330
127
100
AcDbEntity
  8
0
  6
Continuous
 62
     7
370
    25
100
AcDbLine
 10
-638.3173449887
 20
-18.0930372524
 30
0.0
 11
53.5120950534
 21
122.1284826045
 31
0.0
  0
LINE
  5
165
330
127
100
AcDbEntity
  8
0
  6
Continuous
 62
     7
370
    25
100
AcDbLine
 10
-659.879450083
 20
-12.2329191078
 30
0.0
 11
-299.7518113506
 21
339.2626965182
 31
0.0
  0
LINE
  5
166
330
127
100
AcDbEntity
  8
0
  6
Continuous
 62
     7
370
    25
100
AcDbLine
 10
83.2554757795
 20
157.2262176635
 30
0.0
 11
-299.7518113506
 21
339.2626965182
 31
0.0
  0
LINE
  5
167
330
127
100
AcDbEntity
  8
0
  6
Continuous
 62
     7
370
    25
100
AcDbLine
 10
-299.7518113506
 20
355.769556041
 30
0.0
 11
-673.1081224946
 21
-8.6376494025
 31
0.0
  0
LINE
  5
168
330
127
100
AcDbEntity
  8
0
  6
Continuous
 62
     7
370
    25
100
AcDbLine
 10
-299.7518113506
 20
355.769556041
 30
0.0
 11
-320.5961757147
 21
391.9873674172
 31
0.0
  0
LINE
  5
169
330
127
100
AcDbEntity
  8
0
  6
Continuous
 62
     7
370
    25
100
AcDbLine
 10
-299.7518113506
 20
339.2626965182
 30
0.0
 11
-299.7518113506
 21
355.769556041
 31
0.0
  0
LINE
  5
16A
330
127
100
AcDbEntity
  8
0
  6
Continuous
 62
     7
370
    25
100
AcDbLine
 10
-299.7518113506
 20
339.2626965182
 30
0.0
 11
659.879450083
 21
78.4554820712
 31
0.0
  0
LINE
  5
16B
330
127
100
AcDbEntity
  8
0
  6
Continuous
 62
     7
370
    25
100
AcDbLine
 10
673.1081224946
 20
91.3670718886
 30
0.0
 11
-299.7518113506
 21
355.769556041
 31
0.0
  0
VIEWPORT
  5
1BF
330
127
100
AcDbEntity
  8
0
100
AcDbViewport
 10
0.0
 20
0.0
 30
0.0
 40
205.6
 41
156.0
 68
     1
 69
     1
 12
0.0
 22
0.0
 13
0.0
 23
0.0
 14
10.0
 24
10.0
 15
10.0
 25
10.0
 16
0.0
 26
0.0
 36
1.0
 17
0.0
 27
0.0
 37
0.0
 42
50.0
 43
0.0
 44
0.0
 45
928.7159533074
 50
0.0
 51
0.0
 72
   100
 90
   557152
  1

281
     0
 71
     1
 74
     0
110
0.0
120
0.0
130
0.0
111
1.0
121
0.0
131
0.0
112
0.0
122
1.0
132
0.0
 79
     0
146
0.0
  0
ENDBLK
  5
12A
330
127
100
AcDbEntity
  8
0
100
AcDbBlockEnd
  0
BLOCK
  5
16E
330
16C
100
AcDbEntity
  8
0
100
AcDbBlockBegin
  2
*Paper_Space7
 70
     0
 10
0.0
 20
0.0
 30
0.0
  3
*Paper_Space7
  1

  0
SPLINE
  5
184
330
16C
100
AcDbEntity
  8
0
  6
Continuous
 62
     7
370
    25
100
AcDbSpline
210
0.0
220
0.0
230
1.0
 70
     8
 71
     3
 72
    34
 73
    30
 74
     0
 42
0.000000001
 43
0.00000001
 40
0.0
 40
0.0
 40
0.0
 40
0.0
 40
0.1250000000000002
 40
0.1250000000000002
 40
0.2500000000000003
 40
0.2500000000000003
 40
0.2812499999999999
 40
0.2812499999999999
 40
0.3124999999999995
 40
0.3124999999999995
 40
0.3749999999999997
 40
0.3749999999999997
 40
0.5000000000000001
 40
0.5000000000000001
 40
0.5312500000000004
 40
0.5312500000000004
 40
0.5625000000000009
 40
0.5625000000000009
 40
0.6250000000000017
 40
0.6250000000000017
 40
0.750000000000001
 40
0.750000000000001
 40
0.8125000000000018
 40
0.8125000000000018
 40
0.8437500000000021
 40
0.8437500000000021
 40
0.8750000000000026
 40
0.8750000000000026
 40
1.0
 40
1.0
 40
1.0
 40
1.0
 10
120.7685771827753
 20
75.61366172376815
 30
0.0
 10
123.6493511865576
 20
76.17463900731042
 30
0.0
 10
126.3656191097052
 20
76.80243646912811
 30
0.0
 10
131.48267109156
 20
78.18603476385839
 30
0.0
 10
133.8834160303591
 20
78.94183895000737
 30
0.0
 10
136.6811974516305
 20
79.96868428913892
 30
0.0
 10
137.231426104755
 20
80.17853494938517
 30
0.0
 10
138.3069039806118
 20
80.6049730734607
 30
0.0
 10
138.8307289860254
 20
80.82096525633813
 30
0.0
 10
140.3611239226458
 20
81.4771097179929
 30
0.0
 10
141.3266806993973
 20
81.9254204574708
 30
0.0
 10
144.062178485716
 20
83.30223107703554
 30
0.0
 10
145.6718358716176
 20
84.26240057163328
 30
0.0
 10
147.4118319185595
 20
85.51576309439452
 30
0.0
 10
147.7461502872399
 20
85.76910708008687
 30
0.0
 10
148.3869953588976
 20
86.28120433681197
 30
0.0
 10
148.6941499332087
 20
86.5405420772137
 30
0.0
 10
149.5673284564701
 20
87.32152777154623
 30
0.0
 10
150.0855531507173
 20
87.84614371401075
 30
0.0
 10
151.4535308532345
 20
89.43143979144597
 30
0.0
 10
152.1175650396164
 20
90.50345255716695
 30
0.0
 10
152.7416394190153
 20
92.13398113480233
 30
0.0
 10
152.8874041055365
 20
92.68126162085511
 30
0.0
 10
153.0101414875915
 20
93.50799249049733
 30
0.0
 10
153.0350039437052
 20
93.7848128276691
 30
0.0
 10
153.0521764688707
 20
94.33649446758102
 30
0.0
 10
153.0445879522027
 20
94.6118073279659
 30
0.0
 10
152.9264455146384
 20
95.98577752319297
 30
0.0
 10
152.5766775515778
 20
97.07666025520555
 30
0.0
 10
151.9686874227058
 20
98.15951578591478
 30
0.0
  0
SPLINE
  5
186
330
16C
100
AcDbEntity
  8
0
  6
Continuous
 62
     7
370
    25
100
AcDbSpline
210
0.0
220
0.0
230
1.0
 70
     8
 71
     3
 72
    52
 73
    48
 74
     0
 42
0.000000001
 43
0.00000001
 40
0.0
 40
0.0
 40
0.0
 40
0.0
 40
0.0624999999999999
 40
0.0624999999999999
 40
0.1249999999999998
 40
0.1249999999999998
 40
0.1874999999999998
 40
0.1874999999999998
 40
0.2187499999999997
 40
0.2187499999999997
 40
0.2499999999999997
 40
0.2499999999999997
 40
0.3125
 40
0.3125
 40
0.3750000000000003
 40
0.3750000000000003
 40
0.4062500000000005
 40
0.4062500000000005
 40
0.4375000000000007
 40
0.4375000000000007
 40
0.5000000000000011
 40
0.5000000000000011
 40
0.5625000000000014
 40
0.5625000000000014
 40
0.5781250000000016
 40
0.5781250000000016
 40
0.5937500000000017
 40
0.5937500000000017
 40
0.6250000000000016
 40
0.6250000000000016
 40
0.6875000000000016
 40
0.6875000000000016
 40
0.7500000000000014
 40
0.7500000000000014
 40
0.7656250000000013
 40
0.7656250000000013
 40
0.7812500000000012
 40
0.7812500000000012
 40
0.8125000000000009
 40
0.8125000000000009
 40
0.8750000000000006
 40
0.8750000000000006
 40
0.9375000000000003
 40
0.9375000000000003
 40
0.9687500000000001
 40
0.9687500000000001
 40
1.0
 40
1.0
 40
1.0
 40
1.0
 10
27.27551845135406
 20
87.39267994235809
 30
0.0
 10
28.02920991920954
 20
86.63426763957483
 30
0.0
 10
28.90352747425573
 20
85.89711781718684
 30
0.0
 10
30.88451671117469
 20
84.46372234487318
 30
0.0
 10
31.99121832125504
 20
83.76748056250617
 30
0.0
 10
34.43700022154665
 20
82.4158297516226
 30
0.0
 10
35.77605826623567
 20
81.76041405525824
 30
0.0
 10
37.96551080833067
 20
80.80899826470618
 30
0.0
 10
38.72051868970782
 20
80.49938851715144
 30
0.0
 10
40.27425454943949
 20
79.89723654885259
 30
0.0
 10
41.07387157116452
 20
79.60430733090716
 30
0.0
 10
43.53998579056112
 20
78.74958595941173
 30
0.0
 10
45.27354851177313
 20
78.211784651435
 30
0.0
 10
48.91940193542683
 20
77.20003324449709
 30
0.0
 10
50.83168474207212
 20
76.72607132224788
 30
0.0
 10
53.83904166158493
 20
76.06469683989735
 30
0.0
 10
54.86006328492647
 20
75.85360354064224
 30
0.0
 10
56.92449316888138
 20
75.4527481138342
 30
0.0
 10
57.97005301434221
 20
75.26250853629774
 30
0.0
 10
61.14614818513173
 20
74.72188119646421
 30
0.0
 10
63.31598862578393
 20
74.4014882337982
 30
0.0
 10
67.76023267635469
 20
73.84049311129978
 30
0.0
 10
70.03462580231002
 20
73.59988335975225
 30
0.0
 10
72.94522841085573
 20
73.35072172371235
 30
0.0
 10
73.53109146664879
 20
73.30346080654282
 30
0.0
 10
74.70223696468494
 20
73.21471784993608
 30
0.0
 10
75.28840980104182
 20
73.17315509380477
 30
0.0
 10
77.04870768678015
 20
73.05679544880408
 30
0.0
 10
78.22461074239382
 20
72.9903203946215
 30
0.0
 10
81.75931775037263
 20
72.82366387679387
 30
0.0
 10
84.12509772447224
 20
72.75615392599772
 30
0.0
 10
88.8751889128956
 20
72.70798571188448
 30
0.0
 10
91.25949735627158
 20
72.7273232663198
 30
0.0
 10
94.25184443867649
 20
72.80762361423042
 30
0.0
 10
94.85162750418517
 20
72.82653126569689
 30
0.0
 10
96.04527383838823
 20
72.86977332728242
 30
0.0
 10
96.63985493888917
 20
72.89412033335562
 30
0.0
 10
98.4169520508718
 20
72.97524346057482
 30
0.0
 10
99.59282707438946
 20
73.04009517614644
 30
0.0
 10
103.0943272340141
 20
73.26643754550473
 30
0.0
 10
105.3939083726844
 20
73.45962162459557
 30
0.0
 10
109.92396314885
 20
73.93017365697432
 30
0.0
 10
112.154443752409
 20
74.20753588461497
 30
0.0
 10
115.446685195436
 20
74.68878664969598
 30
0.0
 10
116.5347061911039
 20
74.86009428021751
 30
0.0
 10
118.6750776343185
 20
75.22195734845313
 30
0.0
 10
119.7296555362026
 20
75.4128246056815
 30
0.0
 10
120.7685771827753
 20
75.61366172376813
 30
0.0
  0
SPLINE
  5
189
330
16C
100
AcDbEntity
  8
0
  6
Continuous
 62
     7
370
    25
100
AcDbSpline
210
0.0
220
0.0
230
1.0
 70
     8
 71
     3
 72
    34
 73
    30
 74
     0
 42
0.000000001
 43
0.00000001
 40
0.0
 40
0.0
 40
0.0
 40
0.0
 40
0.1249999999999963
 40
0.1249999999999963
 40
0.2499999999999926
 40
0.2499999999999926
 40
0.2812499999999921
 40
0.2812499999999921
 40
0.3124999999999916
 40
0.3124999999999916
 40
0.3749999999999906
 40
0.3749999999999906
 40
0.4999999999999909
 40
0.4999999999999909
 40
0.5312499999999912
 40
0.5312499999999912
 40
0.5624999999999915
 40
0.5624999999999915
 40
0.6249999999999932
 40
0.6249999999999932
 40
0.7499999999999958
 40
0.7499999999999958
 40
0.8124999999999966
 40
0.8124999999999966
 40
0.8437499999999973
 40
0.8437499999999973
 40
0.8749999999999981
 40
0.8749999999999981
 40
1.0
 40
1.0
 40
1.0
 40
1.0
 10
48.37523993821955
 20
111.2110633746152
 30
0.0
 10
45.75825750403906
 20
110.5346478313544
 30
0.0
 10
43.33439518063706
 20
109.7981706402177
 30
0.0
 10
38.85778087378173
 20
108.2091000726531
 30
0.0
 10
36.80504791217659
 20
107.356504393685
 30
0.0
 10
34.47826964850508
 20
106.2157701076245
 30
0.0
 10
34.02400015946428
 20
105.983346690782
 30
0.0
 10
33.14503875585092
 20
105.513581248569
 30
0.0
 10
32.72063910100623
 20
105.2764492213754
 30
0.0
 10
31.49194827676042
 20
104.558417760601
 30
0.0
 10
30.73210191627667
 20
104.0708902873375
 30
0.0
 10
28.62693735742309
 20
102.5824079801914
 30
0.0
 10
27.4549588057025
 20
101.5557114252538
 30
0.0
 10
26.28325596337473
 20
100.2292699743717
 30
0.0
 10
26.0636570603013
 20
99.96181872792471
 30
0.0
 10
25.65436345646776
 20
99.42254929762979
 30
0.0
 10
25.46451859511143
 20
99.15038887283589
 30
0.0
 10
24.94478745834594
 20
98.33427219942647
 30
0.0
 10
24.66286873186228
 20
97.78858789659614
 30
0.0
 10
24.00566542462816
 20
96.14704602025412
 30
0.0
 10
23.81779753514397
 20
95.04676101246726
 30
0.0
 10
23.91147498569928
 20
93.38808878330713
 30
0.0
 10
24.0055377357939
 20
92.83382362654152
 30
0.0
 10
24.24348146293792
 20
92.00036550979716
 30
0.0
 10
24.33883959869858
 20
91.72279347847376
 30
0.0
 10
24.56055425786103
 20
91.17073494802254
 30
0.0
 10
24.68701675072812
 20
90.89585939000978
 30
0.0
 10
25.39677190349215
 20
89.52722787583001
 30
0.0
 10
26.21099224989353
 20
88.45062239682443
 30
0.0
 10
27.275518451354
 20
87.39267994235807
 30
0.0
  0
SPLINE
  5
18D
330
16C
100
AcDbEntity
  8
0
  6
Continuous
 62
     7
370
    25
100
AcDbSpline
210
0.0
220
0.0
230
1.0
 70
     8
 71
     3
 72
    44
 73
    40
 74
     0
 42
0.000000001
 43
0.00000001
 40
0.0
 40
0.0
 40
0.0
 40
0.0
 40
0.0625000000000003
 40
0.0625000000000003
 40
0.0937500000000006
 40
0.0937500000000006
 40
0.1250000000000009
 40
0.1250000000000009
 40
0.1875000000000004
 40
0.1875000000000004
 40
0.2187500000000006
 40
0.2187500000000006
 40
0.2500000000000008
 40
0.2500000000000008
 40
0.3750000000000003
 40
0.3750000000000003
 40
0.4062500000000003
 40
0.4062500000000003
 40
0.4375000000000002
 40
0.4375000000000002
 40
0.5000000000000001
 40
0.5000000000000001
 40
0.6249999999999999
 40
0.6249999999999999
 40
0.6562499999999999
 40
0.6562499999999999
 40
0.6874999999999998
 40
0.6874999999999998
 40
0.7499999999999999
 40
0.7499999999999999
 40
0.8125000000000001
 40
0.8125000000000001
 40
0.8750000000000001
 40
0.8750000000000001
 40
0.90625
 40
0.90625
 40
0.9375
 40
0.9375
 40
1.0
 40
1.0
 40
1.0
 40
1.0
 10
147.9758312352425
 20
103.150637323315
 30
0.0
 10
147.1059837420702
 20
103.8537733078096
 30
0.0
 10
146.1397800671355
 20
104.5445722237502
 30
0.0
 10
144.5474296526511
 20
105.5633069491553
 30
0.0
 10
143.9927600908892
 20
105.8999529738898
 30
0.0
 10
142.8353519328869
 20
106.5672224406064
 30
0.0
 10
142.232609541944
 20
106.8977846423936
 30
0.0
 10
140.3622913602681
 20
107.8743382979865
 30
0.0
 10
139.0296340469461
 20
108.5072112971105
 30
0.0
 10
136.9018796699199
 20
109.4249922473787
 30
0.0
 10
136.1695171888765
 20
109.7262327534337
 30
0.0
 10
134.6715305840853
 20
110.3131805216087
 30
0.0
 10
133.9057222857686
 20
110.5990399703562
 30
0.0
 10
129.9941314108373
 20
111.9888247282655
 30
0.0
 10
126.6031108446282
 20
112.9741049464943
 30
0.0
 10
122.0366127740983
 20
114.0232918735621
 30
0.0
 10
121.1067763690097
 20
114.2240054570098
 30
0.0
 10
119.2133946267537
 20
114.6065205813159
 30
0.0
 10
118.2485769911788
 20
114.7884710878731
 30
0.0
 10
115.3358205810069
 20
115.2994164646194
 30
0.0
 10
113.3595161462836
 20
115.5957467036925
 30
0.0
 10
107.3299490099629
 20
116.3544672841952
 30
0.0
 10
103.1770384648876
 20
116.687135449129
 30
0.0
 10
97.8133378683655
 20
116.8854861567238
 30
0.0
 10
96.73519144570302
 20
116.9140624651834
 30
0.0
 10
94.58475178777833
 20
116.9493214084702
 30
0.0
 10
93.50999243897677
 20
116.9560998584317
 30
0.0
 10
90.2870503575854
 20
116.9451993354724
 30
0.0
 10
88.14020220938713
 20
116.8962971834167
 30
0.0
 10
83.84986135208275
 20
116.7218064930009
 30
0.0
 10
81.70636718654714
 20
116.5962658948299
 30
0.0
 10
77.42259479494804
 20
116.2739969745721
 30
0.0
 10
75.27704306549433
 20
116.0765893948868
 30
0.0
 10
72.1088305852527
 20
115.7347164808521
 30
0.0
 10
71.05935454210707
 20
115.6130010490722
 30
0.0
 10
68.97361428699995
 20
115.3544040909706
 30
0.0
 10
67.93674975954727
 20
115.2174236955888
 30
0.0
 10
64.85887392417837
 20
114.7855773039265
 30
0.0
 10
62.84650819184442
 20
114.4694707053813
 30
0.0
 10
60.87388585918236
 20
114.1244509452071
 30
0.0
  0
SPLINE
  5
18E
330
16C
100
AcDbEntity
  8
0
  6
Continuous
 62
     7
370
    25
100
AcDbSpline
210
0.0
220
0.0
230
1.0
 70
     8
 71
     3
 72
     8
 73
     4
 74
     0
 42
0.000000001
 43
0.00000001
 40
0.0
 40
0.0
 40
0.0
 40
0.0
 40
1.0
 40
1.0
 40
1.0
 40
1.0
 10
60.87388585918291
 20
114.1244509452072
 30
0.0
 10
56.42159835969987
 20
113.2728822755432
 30
0.0
 10
52.24858050652618
 20
112.3116515078991
 30
0.0
 10
48.37523993821972
 20
111.2110633746152
 30
0.0
  0
SPLINE
  5
190
330
16C
100
AcDbEntity
  8
0
  6
Continuous
 62
     7
370
    25
100
AcDbSpline
210
0.0
220
0.0
230
1.0
 70
     8
 71
     3
 72
     8
 73
     4
 74
     0
 42
0.000000001
 43
0.00000001
 40
0.0
 40
0.0
 40
0.0
 40
0.0
 40
1.0
 40
1.0
 40
1.0
 40
1.0
 10
151.968687422706
 20
98.15951578591479
 30
0.0
 10
151.1553847310562
 20
99.85056546888057
 30
0.0
 10
149.812537562272
 20
101.5067299082486
 30
0.0
 10
147.9758312352424
 20
103.150637323315
 30
0.0
  0
LWPOLYLINE
  5
191
330
16C
100
AcDbEntity
  8
0
  6
Continuous
 62
     7
370
    25
100
AcDbPolyline
 90
       46
 70
   128
 43
0.0
 10
47.0622202465
 20
77.6718033578
 10
45.7365059985
 20
78.8259023715
 10
44.6354701758
 20
80.1011405064
 10
43.8768599416
 20
81.4038249614
 10
43.4666124493
 20
82.7237604642
 10
43.407938442
 20
84.0506167299
 10
43.7012971232
 20
85.3740093093
 10
44.3443925636
 20
86.6835808611
 10
45.3321916694
 20
87.9690822124
 10
46.6569635733
 20
89.220452572
 10
48.3083401388
 20
90.4278982703
 10
50.2733971055
 20
91.5819694075
 10
52.5367552381
 20
92.6736338123
 10
55.0807006906
 20
93.6943477306
 10
57.8853236406
 20
94.636122692
 10
60.9286741108
 20
95.4915880306
 10
64.1869337574
 20
96.2540485701
 10
67.6346022811
 20
96.9175370231
 10
71.2446970011
 20
97.4768606928
 10
74.9889640315
 20
97.9276421132
 10
78.8380994061
 20
98.2663533085
 10
82.7619784217
 20
98.4903434043
 10
86.7298914048
 20
98.5978593744
 10
90.7107840566
 20
98.5880597606
 10
94.6735004944
 20
98.4610212581
 10
98.5870270893
 20
98.2177381155
 10
102.4207351895
 20
97.8601143532
 10
106.1446208313
 20
97.3909488621
 10
109.7295395603
 20
96.8139134982
 10
113.1474345271
 20
96.1335243456
 10
116.3715560693
 20
95.3551063719
 10
119.3766710643
 20
94.4847517533
 10
122.139260413
 20
93.5292721946
 10
124.637703108
 20
92.496145619
 10
126.8524454476
 20
91.3934576425
 10
128.7661540702
 20
90.2298382938
 10
130.3638516112
 20
89.0143944719
 10
131.633033921
 20
87.7566386727
 10
132.5637679272
 20
86.4664145406
 10
133.1487693744
 20
85.1538198289
 10
133.383459833
 20
83.8291273708
 10
133.2660025319
 20
82.5027046808
 10
132.7973167339
 20
81.1849328151
 10
131.9810705407
 20
79.886125125
 10
130.8236521855
 20
78.6164465419
 10
129.77434858
 20
77.7183325274
  0
LWPOLYLINE
  5
192
330
16C
100
AcDbEntity
  8
0
  6
Continuous
 62
     7
370
    25
100
AcDbPolyline
 90
       22
 70
   128
 43
0.0
 10
60.8738858592
 20
114.1244509452
 10
65.4272046533
 20
114.764478499
 10
70.113233036
 20
115.2873517006
 10
74.9048869504
 20
115.6900484755
 10
79.7744718511
 20
115.9702413383
 10
84.6938427713
 20
116.1263108453
 10
89.6345669933
 20
116.1573549542
 10
94.5680883833
 20
116.0631942381
 10
99.4658924374
 20
115.8443729219
 10
104.2996710894
 20
115.5021557375
 10
109.0414863235
 20
115.0385206134
 10
113.6639316489
 20
114.4561472432
 10
118.140290503
 20
113.7584015975
 10
122.4446906659
 20
112.9493164691
 10
126.5522537952
 20
112.0335681653
 10
130.4392392169
 20
111.0164494791
 10
134.08318114
 20
109.9038390988
 10
137.4630185036
 20
108.7021676305
 10
140.559216704
 20
107.4183804309
 10
143.3538805003
 20
106.0598974646
 10
145.8308574437
 20
104.634570419
 10
147.9758312352
 20
103.1506373233
  0
LWPOLYLINE
  5
194
330
16C
100
AcDbEntity
  8
0
  6
Continuous
 62
     7
370
    25
100
AcDbPolyline
 90
       34
 70
   128
 43
0.0
 10
132.5811072156
 20
80.7796226666
 10
132.5637679272
 20
80.809560291
 10
131.633033921
 20
82.0997844231
 10
130.3638516112
 20
83.3575402223
 10
128.7661540702
 20
84.5729840442
 10
126.8524454476
 20
85.7366033929
 10
124.637703108
 20
86.8392913693
 10
122.139260413
 20
87.872417945
 10
119.3766710643
 20
88.8278975036
 10
116.3715560693
 20
89.6982521223
 10
113.1474345271
 20
90.4766700959
 10
109.7295395603
 20
91.1570592485
 10
106.1446208313
 20
91.7340946124
 10
102.4207351895
 20
92.2032601036
 10
98.5870270893
 20
92.5608838658
 10
94.6735004944
 20
92.8041670084
 10
90.7107840566
 20
92.9312055109
 10
86.7298914048
 20
92.9410051247
 10
82.7619784217
 20
92.8334891546
 10
78.8380994061
 20
92.6094990588
 10
74.9889640315
 20
92.2707878636
 10
71.2446970011
 20
91.8200064432
 10
67.6346022811
 20
91.2606827734
 10
64.1869337574
 20
90.5971943204
 10
60.9286741108
 20
89.8347337809
 10
57.8853236406
 20
88.9792684424
 10
55.0807006906
 20
88.037493481
 10
52.5367552381
 20
87.0167795627
 10
50.2733971055
 20
85.9251151579
 10
48.3083401388
 20
84.7710440206
 10
46.6569635733
 20
83.5635983223
 10
45.3321916694
 20
82.3122279627
 10
44.3443925636
 20
81.0267266115
 10
44.1955880405
 20
80.7796226666
  0
LINE
  5
195
330
16C
100
AcDbEntity
  8
0
  6
Continuous
 62
     7
370
    25
100
AcDbLine
 10
402.149582304
 20
-163.8823779803
 30
0.0
 11
402.149582304
 21
-211.0228300608
 31
0.0
  0
LINE
  5
196
330
16C
100
AcDbEntity
  8
0
  6
Continuous
 62
     7
370
    25
100
AcDbLine
 10
402.149582304
 20
-163.8823779803
 30
0.0
 11
720.347633765
 21
116.7419259701
 31
0.0
  0
LINE
  5
197
330
16C
100
AcDbEntity
  8
0
  6
Continuous
 62
     7
370
    25
100
AcDbLine
 10
720.347633765
 20
116.7419259701
 30
0.0
 11
720.347633765
 21
69.6014738896
 31
0.0
  0
LINE
  5
198
330
16C
100
AcDbEntity
  8
0
  6
Continuous
 62
     7
370
    25
100
AcDbLine
 10
402.149582304
 20
-211.0228300608
 30
0.0
 11
720.347633765
 21
69.6014738896
 31
0.0
  0
LINE
  5
199
330
16C
100
AcDbEntity
  8
0
  6
Continuous
 62
     7
370
    25
100
AcDbLine
 10
720.347633765
 20
116.7419259701
 30
0.0
 11
-402.149582304
 21
258.1632821414
 31
0.0
  0
LINE
  5
19A
330
16C
100
AcDbEntity
  8
0
  6
Continuous
 62
     7
370
    25
100
AcDbLine
 10
-720.347633765
 20
-22.4610218091
 30
0.0
 11
402.149582304
 21
-163.8823779803
 31
0.0
  0
LINE
  5
19B
330
16C
100
AcDbEntity
  8
0
  6
Continuous
 62
     7
370
    25
100
AcDbLine
 10
-402.149582304
 20
258.1632821414
 30
0.0
 11
-720.347633765
 21
-22.4610218091
 31
0.0
  0
LINE
  5
19C
330
16C
100
AcDbEntity
  8
0
  6
Continuous
 62
     7
370
    25
100
AcDbLine
 10
-402.0913962084
 20
258.1203165501
 30
0.0
 11
720.2187369912
 21
116.7225306049
 31
0.0
  0
LINE
  5
19D
330
16C
100
AcDbEntity
  8
0
  6
Continuous
 62
     7
370
    25
100
AcDbLine
 10
-720.2187369912
 20
-22.4416264439
 30
0.0
 11
-402.0913962084
 21
258.1203165501
 31
0.0
  0
LINE
  5
19E
330
16C
100
AcDbEntity
  8
0
  6
Continuous
 62
     7
370
    25
100
AcDbLine
 10
402.0913962084
 20
-163.8394123891
 30
0.0
 11
-720.2187369912
 21
-22.4416264439
 31
0.0
  0
LINE
  5
19F
330
16C
100
AcDbEntity
  8
0
  6
Continuous
 62
     7
370
    25
100
AcDbLine
 10
720.2187369912
 20
116.7225306049
 30
0.0
 11
402.0913962084
 21
-163.8394123891
 31
0.0
  0
LINE
  5
1A0
330
16C
100
AcDbEntity
  8
0
  6
Continuous
 62
     7
370
    25
100
AcDbLine
 10
-720.347633765
 20
-22.4610218091
 30
0.0
 11
-720.347633765
 21
-69.6014738896
 31
0.0
  0
LINE
  5
1A1
330
16C
100
AcDbEntity
  8
0
  6
Continuous
 62
     7
370
    25
100
AcDbLine
 10
-720.347633765
 20
-69.6014738896
 30
0.0
 11
402.149582304
 21
-211.0228300608
 31
0.0
  0
LINE
  5
1A2
330
16C
100
AcDbEntity
  8
0
  6
Continuous
 62
     7
370
    25
100
AcDbLine
 10
402.0913962084
 20
-163.8394123891
 30
0.0
 11
373.0565344934
 21
-144.042470864
 31
0.0
  0
LINE
  5
1A3
330
16C
100
AcDbEntity
  8
0
  6
Continuous
 62
     7
370
    25
100
AcDbLine
 10
373.0565344934
 20
-144.042470864
 30
0.0
 11
655.8992469031
 21
105.4013548698
 31
0.0
  0
LINE
  5
1A4
330
16C
100
AcDbEntity
  8
0
  6
Continuous
 62
     7
370
    25
100
AcDbLine
 10
720.2187369912
 20
116.7225306049
 30
0.0
 11
655.8992469031
 21
105.4013548698
 31
0.0
  0
LINE
  5
1A5
330
16C
100
AcDbEntity
  8
0
  6
Continuous
 62
     7
370
    25
100
AcDbLine
 10
-655.8992469031
 20
-14.406227707
 30
0.0
 11
373.0565344934
 21
-144.042470864
 31
0.0
  0
LINE
  5
1A6
330
16C
100
AcDbEntity
  8
0
  6
Continuous
 62
     7
370
    25
100
AcDbLine
 10
-655.8992469031
 20
-14.406227707
 30
0.0
 11
-720.2187369912
 21
-22.4416264439
 31
0.0
  0
LINE
  5
1A7
330
16C
100
AcDbEntity
  8
0
  6
Continuous
 62
     7
370
    25
100
AcDbLine
 10
635.8056255232
 20
87.6804464993
 30
0.0
 11
151.9686874227
 21
98.1595157859
 31
0.0
  0
LINE
  5
1A8
330
16C
100
AcDbEntity
  8
0
  6
Continuous
 62
     7
370
    25
100
AcDbLine
 10
350.8236859639
 20
-141.2413952394
 30
0.0
 11
120.7685771828
 21
75.6136617238
 31
0.0
  0
LINE
  5
1A9
330
16C
100
AcDbEntity
  8
0
  6
Continuous
 62
     7
370
    25
100
AcDbLine
 10
-595.6945457386
 20
-21.991307086
 30
0.0
 11
27.2755184514
 21
87.3926799424
 31
0.0
  0
LINE
  5
1AA
330
16C
100
AcDbEntity
  8
0
  6
Continuous
 62
     7
370
    25
100
AcDbLine
 10
-637.8855485214
 20
-16.6757403778
 30
0.0
 11
-373.0565344934
 21
216.881496652
 31
0.0
  0
LINE
  5
1AB
330
16C
100
AcDbEntity
  8
0
  6
Continuous
 62
     7
370
    25
100
AcDbLine
 10
48.3752399382
 20
111.2110633746
 30
0.0
 11
-373.0565344934
 21
216.881496652
 31
0.0
  0
LINE
  5
1AC
330
16C
100
AcDbEntity
  8
0
  6
Continuous
 62
     7
370
    25
100
AcDbLine
 10
-373.0565344934
 20
235.0375980267
 30
0.0
 11
-655.8992469031
 21
-14.406227707
 31
0.0
  0
LINE
  5
1AD
330
16C
100
AcDbEntity
  8
0
  6
Continuous
 62
     7
370
    25
100
AcDbLine
 10
-373.0565344934
 20
235.0375980267
 30
0.0
 11
-402.0913962084
 21
258.1203165501
 31
0.0
  0
LINE
  5
1AE
330
16C
100
AcDbEntity
  8
0
  6
Continuous
 62
     7
370
    25
100
AcDbLine
 10
-373.0565344934
 20
216.881496652
 30
0.0
 11
-373.0565344934
 21
235.0375980267
 31
0.0
  0
LINE
  5
1AF
330
16C
100
AcDbEntity
  8
0
  6
Continuous
 62
     7
370
    25
100
AcDbLine
 10
-373.0565344934
 20
216.881496652
 30
0.0
 11
637.8855485214
 21
89.5147661659
 31
0.0
  0
LINE
  5
1B0
330
16C
100
AcDbEntity
  8
0
  6
Continuous
 62
     7
370
    25
100
AcDbLine
 10
655.8992469031
 20
105.4013548698
 30
0.0
 11
-373.0565344934
 21
235.0375980267
 31
0.0
  0
VIEWPORT
  5
1C1
330
16C
100
AcDbEntity
  8
0
100
AcDbViewport
 10
0.0
 20
0.0
 30
0.0
 40
205.6
 41
156.0
 68
     1
 69
     1
 12
0.0
 22
0.0
 13
0.0
 23
0.0
 14
10.0
 24
10.0
 15
10.0
 25
10.0
 16
0.0
 26
0.0
 36
1.0
 17
0.0
 27
0.0
 37
0.0
 42
50.0
 43
0.0
 44
0.0
 45
928.7159533074
 50
0.0
 51
0.0
 72
   100
 90
   557152
  1

281
     0
 71
     1
 74
     0
110
0.0
120
0.0
130
0.0
111
1.0
121
0.0
131
0.0
112
0.0
122
1.0
132
0.0
 79
     0
146
0.0
  0
ENDBLK
  5
16F
330
16C
100
AcDbEntity
  8
0
100
AcDbBlockEnd
  0
ENDSEC
  0
SECTION
  2
ENTITIES
  0
SPLINE
  5
83
330
1F
100
AcDbEntity
  8
0
  6
Continuous
 62
     7
370
    25
100
AcDbSpline
210
0.0
220
0.0
230
1.0
 70
     8
 71
     3
 72
    44
 73
    40
 74
     0
 42
0.000000001
 43
0.00000001
 40
0.0
 40
0.0
 40
0.0
 40
0.0
 40
0.0625000000000003
 40
0.0625000000000003
 40
0.0937500000000006
 40
0.0937500000000006
 40
0.1250000000000009
 40
0.1250000000000009
 40
0.1875000000000004
 40
0.1875000000000004
 40
0.2187500000000006
 40
0.2187500000000006
 40
0.2500000000000008
 40
0.2500000000000008
 40
0.3750000000000003
 40
0.3750000000000003
 40
0.4062500000000003
 40
0.4062500000000003
 40
0.4375000000000002
 40
0.4375000000000002
 40
0.5000000000000001
 40
0.5000000000000001
 40
0.6249999999999999
 40
0.6249999999999999
 40
0.6562499999999999
 40
0.6562499999999999
 40
0.6874999999999998
 40
0.6874999999999998
 40
0.7499999999999999
 40
0.7499999999999999
 40
0.8125000000000001
 40
0.8125000000000001
 40
0.8750000000000001
 40
0.8750000000000001
 40
0.90625
 40
0.90625
 40
0.9375
 40
0.9375
 40
1.0
 40
1.0
 40
1.0
 40
1.0
 10
46.55794818686189
 20
295.3581024804772
 30
0.0
 10
45.03858648628091
 20
296.9176554481792
 30
0.0
 10
43.44749192322419
 20
298.3944592926762
 30
0.0
 10
40.9543678770878
 20
300.4867984026561
 30
0.0
 10
40.10554563628205
 20
301.1637285255989
 30
0.0
 10
38.37211720144381
 20
302.4763044516641
 30
0.0
 10
37.48757094094961
 20
303.1117809525093
 30
0.0
 10
34.79497048193506
 20
304.945673470816
 30
0.0
 10
32.94327874192717
 20
306.0754652270578
 30
0.0
 10
30.08067643040046
 20
307.6310008516629
 30
0.0
 10
29.11019355754086
 20
308.1272232785653
 30
0.0
 10
27.15376891116619
 20
309.0664904065974
 30
0.0
 10
26.1675039807361
 20
309.5098691762125
 30
0.0
 10
21.19661466135697
 20
311.5979563794615
 30
0.0
 10
17.09443234935014
 20
312.8600560602867
 30
0.0
 10
11.80924572473278
 20
313.9273384945042
 30
0.0
 10
10.74426429116916
 20
314.1150400090211
 30
0.0
 10
8.598103243690657
 20
314.4379561371069
 30
0.0
 10
7.515573705467856
 20
314.5731437113575
 30
0.0
 10
4.279999003933178
 20
314.8951504820363
 30
0.0
 10
2.127350075148383
 20
315.0006911379138
 30
0.0
 10
-4.317740800617226
 20
314.9986075341115
 30
0.0
 10
-8.597451977562283
 20
314.5754541594303
 30
0.0
 10
-13.92507657477182
 20
313.5001876663523
 30
0.0
 10
-14.98615879877552
 20
313.2580887653873
 30
0.0
 10
-17.08330328677497
 20
312.7242496854589
 30
0.0
 10
-18.12182039351584
 20
312.4320291874797
 30
0.0
 10
-21.20769630838278
 20
311.4806326305776
 30
0.0
 10
-23.22545049544415
 20
310.7469048813328
 30
0.0
 10
-27.18280766470639
 20
309.0821713450139
 30
0.0
 10
-29.12241455299639
 20
308.1511717730756
 30
0.0
 10
-32.92199381285693
 20
306.0875755525637
 30
0.0
 10
-34.78619677056843
 20
304.9512562627874
 30
0.0
 10
-37.47994017152622
 20
303.1171732812811
 30
0.0
 10
-38.36235068280144
 20
302.4834455411114
 30
0.0
 10
-40.09609458846352
 20
301.1711364396963
 30
0.0
 10
-40.947895182227
 20
300.4920932231954
 30
0.0
 10
-43.4460215415837
 20
298.3959668140459
 30
0.0
 10
-45.03858312758663
 20
296.9176588957202
 30
0.0
 10
-46.5579481868623
 20
295.358102480477
 30
0.0
  0
SPLINE
  5
84
330
1F
100
AcDbEntity
  8
0
  6
Continuous
 62
     7
370
    25
100
AcDbSpline
210
0.0
220
0.0
230
1.0
 70
     8
 71
     3
 72
     8
 73
     4
 74
     0
 42
0.000000001
 43
0.00000001
 40
0.0
 40
0.0
 40
0.0
 40
0.0
 40
1.0
 40
1.0
 40
1.0
 40
1.0
 10
-46.55794818686186
 20
295.3581024804774
 30
0.0
 10
-49.91955678765837
 20
291.6591121120574
 30
0.0
 10
-52.86791065954122
 20
287.6566463454448
 30
0.0
 10
-55.37302685557195
 20
283.3290992779088
 30
0.0
  0
SPLINE
  5
87
330
1F
100
AcDbEntity
  8
0
  6
Continuous
 62
     7
370
    25
100
AcDbSpline
210
0.0
220
0.0
230
1.0
 70
     8
 71
     3
 72
     8
 73
     4
 74
     0
 42
0.000000001
 43
0.00000001
 40
0.0
 40
0.0
 40
0.0
 40
0.0
 40
1.0
 40
1.0
 40
1.0
 40
1.0
 10
55.37302685557188
 20
283.3290992779088
 30
0.0
 10
52.8679106595412
 20
287.6566463454447
 30
0.0
 10
49.91955678765827
 20
291.6591121120574
 30
0.0
 10
46.55794818686181
 20
295.3581024804773
 30
0.0
  0
SPLINE
  5
89
330
1F
100
AcDbEntity
  8
0
  6
Continuous
 62
     7
370
    25
100
AcDbSpline
210
0.0
220
0.0
230
1.0
 70
     8
 71
     3
 72
    34
 73
    30
 74
     0
 42
0.000000001
 43
0.00000001
 40
0.0
 40
0.0
 40
0.0
 40
0.0
 40
0.1249999999999963
 40
0.1249999999999963
 40
0.2499999999999926
 40
0.2499999999999926
 40
0.2812499999999921
 40
0.2812499999999921
 40
0.3124999999999916
 40
0.3124999999999916
 40
0.3749999999999906
 40
0.3749999999999906
 40
0.4999999999999909
 40
0.4999999999999909
 40
0.5312499999999912
 40
0.5312499999999912
 40
0.5624999999999915
 40
0.5624999999999915
 40
0.6249999999999932
 40
0.6249999999999932
 40
0.7499999999999958
 40
0.7499999999999958
 40
0.8124999999999966
 40
0.8124999999999966
 40
0.8437499999999973
 40
0.8437499999999973
 40
0.8749999999999981
 40
0.8749999999999981
 40
1.0
 40
1.0
 40
1.0
 40
1.0
 10
-55.37302685557213
 20
283.3290992779088
 30
0.0
 10
-57.09680468653754
 20
280.4878426318468
 30
0.0
 10
-58.57783112058316
 20
277.5505523187384
 30
0.0
 10
-61.07339910924425
 20
271.4914272628792
 30
0.0
 10
-62.08791675501202
 20
268.3695830651747
 30
0.0
 10
-63.0554678791185
 20
264.3483599652245
 30
0.0
 10
-63.23420241779245
 20
263.5363789603352
 30
0.0
 10
-63.55904363520623
 20
261.9097497612656
 30
0.0
 10
-63.70509915802142
 20
261.0957928565724
 30
0.0
 10
-64.09496804721608
 20
258.652026525552
 30
0.0
 10
-64.29055245935926
 20
257.0203241834143
 30
0.0
 10
-64.68808440605667
 20
252.1177903111731
 30
0.0
 10
-64.7019336361887
 20
248.839576003894
 30
0.0
 10
-64.40100457801066
 20
244.7293164513309
 30
0.0
 10
-64.32482193329548
 20
243.9066366249827
 30
0.0
 10
-64.14000625714216
 20
242.2600031760331
 30
0.0
 10
-64.03115429121664
 20
241.435045588921
 30
0.0
 10
-63.65855429001985
 20
238.9792170018536
 30
0.0
 10
-63.34827688409861
 20
237.3609135749853
 30
0.0
 10
-62.23675064629856
 20
232.5612399121918
 30
0.0
 10
-61.25589657951222
 20
229.4347733437406
 30
0.0
 10
-59.42478530296422
 20
224.8550681240269
 30
0.0
 10
-58.75419683608805
 20
223.3469074419962
 30
0.0
 10
-57.65550092444781
 20
221.1130377847223
 30
0.0
 10
-57.27451353056532
 20
220.3747534254069
 30
0.0
 10
-56.48676202317389
 20
218.9176625974593
 30
0.0
 10
-56.07948981982165
 20
218.1978115763678
 30
0.0
 10
-53.97664712434118
 20
214.6417034828458
 30
0.0
 10
-52.08283375141642
 20
211.934107181015
 30
0.0
 10
-49.97414197186408
 20
209.3659679230751
 30
0.0
  0
SPLINE
  5
8B
330
1F
100
AcDbEntity
  8
0
  6
Continuous
 62
     7
370
    25
100
AcDbSpline
210
0.0
220
0.0
230
1.0
 70
     8
 71
     3
 72
    34
 73
    30
 74
     0
 42
0.000000001
 43
0.00000001
 40
0.0
 40
0.0
 40
0.0
 40
0.0
 40
0.1250000000000002
 40
0.1250000000000002
 40
0.2500000000000003
 40
0.2500000000000003
 40
0.2812499999999999
 40
0.2812499999999999
 40
0.3124999999999995
 40
0.3124999999999995
 40
0.3749999999999997
 40
0.3749999999999997
 40
0.5000000000000001
 40
0.5000000000000001
 40
0.5312500000000004
 40
0.5312500000000004
 40
0.5625000000000009
 40
0.5625000000000009
 40
0.6250000000000017
 40
0.6250000000000017
 40
0.750000000000001
 40
0.750000000000001
 40
0.8125000000000018
 40
0.8125000000000018
 40
0.8437500000000021
 40
0.8437500000000021
 40
0.8750000000000026
 40
0.8750000000000026
 40
1.0
 40
1.0
 40
1.0
 40
1.0
 10
49.97414197186389
 20
209.3659679230751
 30
0.0
 10
52.0830527252222
 20
211.9343738654271
 30
0.0
 10
53.96770114313748
 20
214.6308287151958
 30
0.0
 10
57.3069154535746
 20
220.2693067006496
 30
0.0
 10
58.76142799327661
 20
223.2113603468183
 30
0.0
 10
60.30262470925624
 20
227.047057976688
 30
0.0
 10
60.59739552110974
 20
227.8234493622256
 30
0.0
 10
61.15640096809904
 20
229.3863707644092
 30
0.0
 10
61.4199275240529
 20
230.1707458875833
 30
0.0
 10
62.16333845884117
 20
232.532475982996
 30
0.0
 10
62.59613095376262
 20
234.1184216503115
 30
0.0
 10
63.70944762037184
 20
238.9100187595098
 30
0.0
 10
64.20593160549645
 20
242.1492442174759
 30
0.0
 10
64.51413424493002
 20
246.2552686971578
 30
0.0
 10
64.56006617673455
 20
247.0793393708279
 30
0.0
 10
64.6200191105578
 20
248.7333024013735
 30
0.0
 10
64.6340110006481
 20
249.5650476694841
 30
0.0
 10
64.62734219033933
 20
252.0524135036112
 30
0.0
 10
64.55850038763596
 20
253.7003125756757
 30
0.0
 10
64.16381288539849
 20
258.6137827931903
 30
0.0
 10
63.65079030702677
 20
261.8492852578312
 30
0.0
 10
62.50635913192143
 20
266.6423144435389
 30
0.0
 10
62.06213316112706
 20
268.2299106817666
 30
0.0
 10
61.29913156826746
 20
270.5957768876527
 30
0.0
 10
61.02833408024149
 20
271.3825613420943
 30
0.0
 10
60.45811750387075
 20
272.9397838330032
 30
0.0
 10
60.1583142154048
 20
273.7115252103461
 30
0.0
 10
58.58643513607852
 20
277.5361690713319
 30
0.0
 10
57.09703021635739
 20
280.4874708971085
 30
0.0
 10
55.37302685557177
 20
283.3290992779087
 30
0.0
  0
SPLINE
  5
8C
330
1F
100
AcDbEntity
  8
0
  6
Continuous
 62
     7
370
    25
100
AcDbSpline
210
0.0
220
0.0
230
1.0
 70
     8
 71
     3
 72
    52
 73
    48
 74
     0
 42
0.000000001
 43
0.00000001
 40
0.0
 40
0.0
 40
0.0
 40
0.0
 40
0.0624999999999999
 40
0.0624999999999999
 40
0.1249999999999998
 40
0.1249999999999998
 40
0.1874999999999998
 40
0.1874999999999998
 40
0.2187499999999997
 40
0.2187499999999997
 40
0.2499999999999997
 40
0.2499999999999997
 40
0.3125
 40
0.3125
 40
0.3750000000000003
 40
0.3750000000000003
 40
0.4062500000000005
 40
0.4062500000000005
 40
0.4375000000000007
 40
0.4375000000000007
 40
0.5000000000000011
 40
0.5000000000000011
 40
0.5625000000000014
 40
0.5625000000000014
 40
0.5781250000000016
 40
0.5781250000000016
 40
0.5937500000000017
 40
0.5937500000000017
 40
0.6250000000000016
 40
0.6250000000000016
 40
0.6875000000000016
 40
0.6875000000000016
 40
0.7500000000000014
 40
0.7500000000000014
 40
0.7656250000000013
 40
0.7656250000000013
 40
0.7812500000000012
 40
0.7812500000000012
 40
0.8125000000000009
 40
0.8125000000000009
 40
0.8750000000000006
 40
0.8750000000000006
 40
0.9375000000000003
 40
0.9375000000000003
 40
0.9687500000000001
 40
0.9687500000000001
 40
1.0
 40
1.0
 40
1.0
 40
1.0
 10
-49.97414197186402
 20
209.3659679230751
 30
0.0
 10
-48.46062596010357
 20
207.493342341454
 30
0.0
 10
-46.85686053416387
 20
205.7231213509233
 30
0.0
 10
-43.47548811368771
 20
202.3799345267225
 30
0.0
 10
-41.69785872663962
 20
200.8069940977896
 30
0.0
 10
-37.96873996120883
 20
197.8583891020338
 30
0.0
 10
-36.0172672244619
 20
196.4827056450021
 30
0.0
 10
-32.95473898538215
 20
194.5727244989868
 30
0.0
 10
-31.91837138949853
 20
193.9662383442881
 30
0.0
 10
-29.82297289051994
 20
192.8169636683233
 30
0.0
 10
-28.76269661747154
 20
192.273394802254
 30
0.0
 10
-25.54468079367421
 20
190.7345495676472
 30
0.0
 10
-23.34986349709124
 20
189.8308646503928
 30
0.0
 10
-18.86141756460163
 20
188.267583655429
 30
0.0
 10
-16.56779328828247
 20
187.6079767794191
 30
0.0
 10
-13.05054665962659
 20
186.8083067847701
 30
0.0
 10
-11.87079599967901
 20
186.5748651837402
 30
0.0
 10
-9.513201463057483
 20
186.1763458281339
 30
0.0
 10
-8.332836245262301
 20
186.0106828329238
 30
0.0
 10
-4.787109481245501
 20
185.6129253297873
 30
0.0
 10
-2.417129807961334
 20
185.4797840604752
 30
0.0
 10
2.335115115735111
 20
185.4767462443187
 30
0.0
 10
4.717379134281583
 20
185.606823303559
 30
0.0
 10
7.703153087623175
 20
185.9396353191482
 30
0.0
 10
8.301053252733986
 20
186.0148111317777
 30
0.0
 10
9.490128939272049
 20
186.1813122687695
 30
0.0
 10
10.08222251132179
 20
186.2727270743568
 30
0.0
 10
11.85125548488202
 20
186.571180052814
 30
0.0
 10
13.02095272403593
 20
186.8024081472953
 30
0.0
 10
16.5015409609607
 20
187.5912984354525
 30
0.0
 10
18.78401737703477
 20
188.2438697150269
 30
0.0
 10
23.27348946276304
 20
189.8011298205459
 30
0.0
 10
25.48049646161946
 20
190.705780834815
 30
0.0
 10
28.19053429325077
 20
191.9993303433328
 30
0.0
 10
28.73073059772196
 20
192.2665479540085
 30
0.0
 10
29.79980424878498
 20
192.8141866091306
 30
0.0
 10
30.32933891741209
 20
193.0948988778931
 30
0.0
 10
31.90311495608143
 20
193.9574685351628
 30
0.0
 10
32.93253996425068
 20
194.5597427820342
 30
0.0
 10
35.96252902119637
 20
196.4468832910643
 30
0.0
 10
37.9049876141272
 20
197.8118185904435
 30
0.0
 10
41.63572233248632
 20
200.754152123955
 30
0.0
 10
43.42401399346971
 20
202.3315289578756
 30
0.0
 10
45.98713585884078
 20
204.8620109211812
 30
0.0
 10
46.82115208199099
 20
205.7327995019002
 30
0.0
 10
48.43540073652845
 20
207.5157836550629
 30
0.0
 10
49.21738193437551
 20
208.42965261862
 30
0.0
 10
49.97414197186393
 20
209.3659679230751
 30
0.0
  0
CIRCLE
  5
8D
330
1F
100
AcDbEntity
  8
0
  6
Continuous
 62
     7
370
    25
100
AcDbCircle
 10
0.0
 20
250.0
 30
0.0
 40
45.00000000000003
  0
LINE
  5
8E
330
1F
100
AcDbEntity
  8
0
  6
Continuous
 62
     7
370
    25
100
AcDbLine
 10
-550.0
 20
-400.0
 30
0.0
 11
550.0
 21
-400.0
 31
0.0
  0
LINE
  5
8F
330
1F
100
AcDbEntity
  8
0
  6
Continuous
 62
     7
370
    25
100
AcDbLine
 10
599.9
 20
-449.9
 30
0.0
 11
550.0
 21
-400.0
 31
0.0
  0
LINE
  5
90
330
1F
100
AcDbEntity
  8
0
  6
Continuous
 62
     7
370
    25
100
AcDbLine
 10
599.9
 20
-449.9
 30
0.0
 11
-599.9
 21
-449.9
 31
0.0
  0
LINE
  5
91
330
1F
100
AcDbEntity
  8
0
  6
Continuous
 62
     7
370
    25
100
AcDbLine
 10
-550.0
 20
-400.0
 30
0.0
 11
-599.9
 21
-449.9
 31
0.0
  0
LINE
  5
92
330
1F
100
AcDbEntity
  8
0
  6
Continuous
 62
     7
370
    25
100
AcDbLine
 10
-600.0
 20
450.0
 30
0.0
 11
-600.0
 21
-450.0
 31
0.0
  0
LINE
  5
93
330
1F
100
AcDbEntity
  8
0
  6
Continuous
 62
     7
370
    25
100
AcDbLine
 10
-599.9
 20
449.9
 30
0.0
 11
599.9
 21
449.9
 31
0.0
  0
LINE
  5
94
330
1F
100
AcDbEntity
  8
0
  6
Continuous
 62
     7
370
    25
100
AcDbLine
 10
-599.9
 20
-449.9
 30
0.0
 11
-599.9
 21
449.9
 31
0.0
  0
LINE
  5
95
330
1F
100
AcDbEntity
  8
0
  6
Continuous
 62
     7
370
    25
100
AcDbLine
 10
599.9
 20
449.9
 30
0.0
 11
599.9
 21
-449.9
 31
0.0
  0
LINE
  5
96
330
1F
100
AcDbEntity
  8
0
  6
Continuous
 62
     7
370
    25
100
AcDbLine
 10
600.0
 20
450.0
 30
0.0
 11
-600.0
 21
450.0
 31
0.0
  0
LINE
  5
97
330
1F
100
AcDbEntity
  8
0
  6
Continuous
 62
     7
370
    25
100
AcDbLine
 10
600.0
 20
-450.0
 30
0.0
 11
600.0
 21
450.0
 31
0.0
  0
LINE
  5
98
330
1F
100
AcDbEntity
  8
0
  6
Continuous
 62
     7
370
    25
100
AcDbLine
 10
-600.0
 20
-450.0
 30
0.0
 11
600.0
 21
-450.0
 31
0.0
  0
LINE
  5
99
330
1F
100
AcDbEntity
  8
0
  6
Continuous
 62
     7
370
    25
100
AcDbLine
 10
-550.0
 20
400.0
 30
0.0
 11
-550.0
 21
-400.0
 31
0.0
  0
LINE
  5
9A
330
1F
100
AcDbEntity
  8
0
  6
Continuous
 62
     7
370
    25
100
AcDbLine
 10
-550.0
 20
400.0
 30
0.0
 11
-599.9
 21
449.9
 31
0.0
  0
LINE
  5
9B
330
1F
100
AcDbEntity
  8
0
  6
Continuous
 62
     7
370
    25
100
AcDbLine
 10
550.0
 20
400.0
 30
0.0
 11
-550.0
 21
400.0
 31
0.0
  0
LINE
  5
9C
330
1F
100
AcDbEntity
  8
0
  6
Continuous
 62
     7
370
    25
100
AcDbLine
 10
599.9
 20
449.9
 30
0.0
 11
550.0
 21
400.0
 31
0.0
  0
LINE
  5
9D
330
1F
100
AcDbEntity
  8
0
  6
Continuous
 62
     7
370
    25
100
AcDbLine
 10
550.0
 20
-400.0
 30
0.0
 11
550.0
 21
400.0
 31
0.0
  0
LINE
  5
9E
330
1F
100
AcDbEntity
  8
0
  6
Continuous
 62
     7
370
    25
100
AcDbLine
 10
-55.3730268556
 20
283.3290992779
 30
0.0
 11
-550.0
 21
400.0
 31
0.0
  0
LINE
  5
9F
330
1F
100
AcDbEntity
  8
0
  6
Continuous
 62
     7
370
    25
100
AcDbLine
 10
550.0
 20
400.0
 30
0.0
 11
55.3730268556
 21
283.3290992779
 31
0.0
  0
LINE
  5
A0
330
1F
100
AcDbEntity
  8
0
  6
Continuous
 62
     7
370
    25
100
AcDbLine
 10
-550.0
 20
-400.0
 30
0.0
 11
-49.9741419719
 21
209.3659679231
 31
0.0
  0
LINE
  5
A1
330
1F
100
AcDbEntity
  8
0
  6
Continuous
 62
     7
370
    25
100
AcDbLine
 10
550.0
 20
-400.0
 30
0.0
 11
49.9741419719
 21
209.3659679231
 31
0.0
  0
LINE
  5
A6
330
1B
100
AcDbEntity
 67
     1
  8
0
  6
Continuous
 62
     7
370
    25
100
AcDbLine
 10
-600.0
 20
50.0
 30
0.0
 11
-600.0
 21
0.0
 31
0.0
  0
LINE
  5
A7
330
1B
100
AcDbEntity
 67
     1
  8
0
  6
Continuous
 62
     7
370
    25
100
AcDbLine
 10
-600.0
 20
50.0
 30
0.0
 11
600.0
 21
50.0
 31
0.0
  0
LINE
  5
A8
330
1B
100
AcDbEntity
 67
     1
  8
0
  6
Continuous
 62
     7
370
    25
100
AcDbLine
 10
600.0
 20
50.0
 30
0.0
 11
600.0
 21
0.0
 31
0.0
  0
LINE
  5
A9
330
1B
100
AcDbEntity
 67
     1
  8
0
  6
Continuous
 62
     7
370
    25
100
AcDbLine
 10
-600.0
 20
0.0
 30
0.0
 11
600.0
 21
0.0
 31
0.0
  0
VIEWPORT
  5
1B1
330
1B
100
AcDbEntity
 67
     1
  8
0
100
AcDbViewport
 10
0.0
 20
0.0
 30
0.0
 40
205.6
 41
156.0
 68
     1
 69
     1
 12
0.0
 22
0.0
 13
0.0
 23
0.0
 14
10.0
 24
10.0
 15
10.0
 25
10.0
 16
0.0
 26
0.0
 36
1.0
 17
0.0
 27
0.0
 37
0.0
 42
50.0
 43
0.0
 44
0.0
 45
928.7159533074
 50
0.0
 51
0.0
 72
   100
 90
   557152
  1

281
     0
 71
     1
 74
     0
110
0.0
120
0.0
130
0.0
111
1.0
121
0.0
131
0.0
112
0.0
122
1.0
132
0.0
 79
     0
146
0.0
  0
ENDSEC
  0
SECTION
  2
OBJECTS
  0
DICTIONARY
  5
C
330
0
100
AcDbDictionary
281
     1
  3
ACAD_GROUP
350
D
  3
ACAD_LAYOUT
350
1A
  3
ACAD_MLINESTYLE
350
17
  3
ACAD_PLOTSETTINGS
350
19
  3
ACAD_PLOTSTYLENAME
350
E
  3
ACAD_SCALELIST
350
47
  0
DICTIONARY
  5
D
102
{ACAD_REACTORS
330
C
102
}
330
C
100
AcDbDictionary
281
     1
  0
DICTIONARY
  5
1A
102
{ACAD_REACTORS
330
C
102
}
330
C
100
AcDbDictionary
281
     1
  3
_Dimetrisch
350
16D
  3
_Isometrisch
350
E4
  3
_Links
350
CB
  3
_Normal auf
350
B3
  3
_Rechts
350
26
  3
_Rückseite
350
BF
  3
_Trimetrisch
350
128
  3
_Unten
350
D7
  3
_Vorderseite
350
1E
  3
Model
350
22
  0
DICTIONARY
  5
17
102
{ACAD_REACTORS
330
C
102
}
330
C
100
AcDbDictionary
281
     1
  3
Standard
350
18
  0
DICTIONARY
  5
19
102
{ACAD_REACTORS
330
C
102
}
330
C
100
AcDbDictionary
281
     1
  0
ACDBDICTIONARYWDFLT
  5
E
102
{ACAD_REACTORS
330
C
102
}
330
C
100
AcDbDictionary
281
     1
  3
Normal
350
F
100
AcDbDictionaryWithDefault
340
F
  0
DICTIONARY
  5
47
102
{ACAD_REACTORS
330
C
102
}
330
C
100
AcDbDictionary
281
     1
  3
A0
350
48
  3
A1
350
49
  3
A2
350
4A
  3
A3
350
4B
  3
A4
350
4C
  3
A5
350
4D
  3
A6
350
4E
  3
A7
350
4F
  3
A8
350
50
  3
A9
350
51
  3
B0
350
52
  3
B1
350
53
  3
B2
350
54
  3
B3
350
55
  3
B4
350
56
  3
B5
350
57
  3
B6
350
58
  3
B7
350
59
  3
B8
350
5A
  3
B9
350
5B
  3
C0
350
5C
  3
C1
350
5D
  3
C2
350
5E
  3
C3
350
5F
  3
C4
350
60
  3
C5
350
61
  3
C6
350
62
  3
C7
350
63
  3
C8
350
64
  3
C9
350
65
  3
D0
350
66
  3
D1
350
67
  3
D2
350
68
  0
LAYOUT
  5
16D
102
{ACAD_REACTORS
330
1A
102
}
330
1A
100
AcDbPlotSettings
  1

  2
none_device
  4
ISO_A4_(210.00_x_297.00_MM)
  6

 40
7.5
 41
20.0
 42
7.5
 43
20.0
 44
210.0
 45
297.0
 46
0.0
 47
0.0
 48
0.0
 49
0.0
140
0.0
141
0.0
142
1.0
143
4.6692607004
 70
   688
 72
     1
 73
     1
 74
     1
  7

 75
     0
147
0.2141666667
148
600.0
149
0.0
100
AcDbLayout
  1
_Dimetrisch
 70
     1
 71
     9
 10
0.0
 20
0.0
 11
0.0
 21
0.0
 12
0.0
 22
0.0
 32
0.0
 14
0.0
 24
0.0
 34
0.0
 15
0.0
 25
0.0
 35
0.0
146
0.0
 13
0.0
 23
0.0
 33
0.0
 16
1.0
 26
0.0
 36
0.0
 17
0.0
 27
1.0
 37
0.0
 76
     0
330
16C
331
1C1
  0
LAYOUT
  5
E4
102
{ACAD_REACTORS
330
1A
102
}
330
1A
100
AcDbPlotSettings
  1

  2
none_device
  4
ISO_A4_(210.00_x_297.00_MM)
  6

 40
7.5
 41
20.0
 42
7.5
 43
20.0
 44
210.0
 45
297.0
 46
0.0
 47
0.0
 48
0.0
 49
0.0
140
0.0
141
0.0
142
1.0
143
4.6692607004
 70
   688
 72
     1
 73
     1
 74
     1
  7

 75
     0
147
0.2141666667
148
600.0
149
0.0
100
AcDbLayout
  1
_Isometrisch
 70
     1
 71
     7
 10
0.0
 20
0.0
 11
0.0
 21
0.0
 12
0.0
 22
0.0
 32
0.0
 14
0.0
 24
0.0
 34
0.0
 15
0.0
 25
0.0
 35
0.0
146
0.0
 13
0.0
 23
0.0
 33
0.0
 16
1.0
 26
0.0
 36
0.0
 17
0.0
 27
1.0
 37
0.0
 76
     0
330
E3
331
1BD
  0
LAYOUT
  5
CB
102
{ACAD_REACTORS
330
1A
102
}
330
1A
100
AcDbPlotSettings
  1

  2
none_device
  4
ISO_A4_(210.00_x_297.00_MM)
  6

 40
7.5
 41
20.0
 42
7.5
 43
20.0
 44
210.0
 45
297.0
 46
0.0
 47
0.0
 48
0.0
 49
0.0
140
0.0
141
0.0
142
1.0
143
4.6692607004
 70
   688
 72
     1
 73
     1
 74
     1
  7

 75
     0
147
0.2141666667
148
600.0
149
0.0
100
AcDbLayout
  1
_Links
 70
     1
 71
     5
 10
0.0
 20
0.0
 11
0.0
 21
0.0
 12
0.0
 22
0.0
 32
0.0
 14
0.0
 24
0.0
 34
0.0
 15
0.0
 25
0.0
 35
0.0
146
0.0
 13
0.0
 23
0.0
 33
0.0
 16
1.0
 26
0.0
 36
0.0
 17
0.0
 27
1.0
 37
0.0
 76
     0
330
CA
331
1B9
  0
LAYOUT
  5
B3
102
{ACAD_REACTORS
330
1A
102
}
330
1A
100
AcDbPlotSettings
  1

  2
none_device
  4
ISO_A4_(210.00_x_297.00_MM)
  6

 40
7.5
 41
20.0
 42
7.5
 43
20.0
 44
210.0
 45
297.0
 46
0.0
 47
0.0
 48
0.0
 49
0.0
140
0.0
141
0.0
142
1.0
143
4.6692607004
 70
   688
 72
     1
 73
     1
 74
     1
  7

 75
     0
147
0.2141666667
148
600.0
149
0.0
100
AcDbLayout
  1
_Normal auf
 70
     1
 71
     3
 10
0.0
 20
0.0
 11
0.0
 21
0.0
 12
0.0
 22
0.0
 32
0.0
 14
0.0
 24
0.0
 34
0.0
 15
0.0
 25
0.0
 35
0.0
146
0.0
 13
0.0
 23
0.0
 33
0.0
 16
1.0
 26
0.0
 36
0.0
 17
0.0
 27
1.0
 37
0.0
 76
     0
330
B2
331
1B5
  0
LAYOUT
  5
26
102
{ACAD_REACTORS
330
1A
102
}
330
1A
100
AcDbPlotSettings
  1

  2
none_device
  4
ISO_A4_(210.00_x_297.00_MM)
  6

 40
7.5
 41
20.0
 42
7.5
 43
20.0
 44
210.0
 45
297.0
 46
0.0
 47
0.0
 48
0.0
 49
0.0
140
0.0
141
0.0
142
1.0
143
4.6692607004
 70
   688
 72
     1
 73
     1
 74
     1
  7

 75
     0
147
0.2141666667
148
600.0
149
0.0
100
AcDbLayout
  1
_Rechts
 70
     1
 71
     2
 10
0.0
 20
0.0
 11
0.0
 21
0.0
 12
0.0
 22
0.0
 32
0.0
 14
0.0
 24
0.0
 34
0.0
 15
0.0
 25
0.0
 35
0.0
146
0.0
 13
0.0
 23
0.0
 33
0.0
 16
1.0
 26
0.0
 36
0.0
 17
0.0
 27
1.0
 37
0.0
 76
     0
330
23
331
1B3
  0
LAYOUT
  5
BF
102
{ACAD_REACTORS
330
1A
102
}
330
1A
100
AcDbPlotSettings
  1

  2
none_device
  4
ISO_A4_(210.00_x_297.00_MM)
  6

 40
7.5
 41
20.0
 42
7.5
 43
20.0
 44
210.0
 45
297.0
 46
0.0
 47
0.0
 48
0.0
 49
0.0
140
0.0
141
0.0
142
1.0
143
4.6692607004
 70
   688
 72
     1
 73
     1
 74
     1
  7

 75
     0
147
0.2141666667
148
600.0
149
0.0
100
AcDbLayout
  1
_Rückseite
 70
     1
 71
     4
 10
0.0
 20
0.0
 11
0.0
 21
0.0
 12
0.0
 22
0.0
 32
0.0
 14
0.0
 24
0.0
 34
0.0
 15
0.0
 25
0.0
 35
0.0
146
0.0
 13
0.0
 23
0.0
 33
0.0
 16
1.0
 26
0.0
 36
0.0
 17
0.0
 27
1.0
 37
0.0
 76
     0
330
BE
331
1B7
  0
LAYOUT
  5
128
102
{ACAD_REACTORS
330
1A
102
}
330
1A
100
AcDbPlotSettings
  1

  2
none_device
  4
ISO_A4_(210.00_x_297.00_MM)
  6

 40
7.5
 41
20.0
 42
7.5
 43
20.0
 44
210.0
 45
297.0
 46
0.0
 47
0.0
 48
0.0
 49
0.0
140
0.0
141
0.0
142
1.0
143
4.6692607004
 70
   688
 72
     1
 73
     1
 74
     1
  7

 75
     0
147
0.2141666667
148
600.0
149
0.0
100
AcDbLayout
  1
_Trimetrisch
 70
     1
 71
     8
 10
0.0
 20
0.0
 11
0.0
 21
0.0
 12
0.0
 22
0.0
 32
0.0
 14
0.0
 24
0.0
 34
0.0
 15
0.0
 25
0.0
 35
0.0
146
0.0
 13
0.0
 23
0.0
 33
0.0
 16
1.0
 26
0.0
 36
0.0
 17
0.0
 27
1.0
 37
0.0
 76
     0
330
127
331
1BF
  0
LAYOUT
  5
D7
102
{ACAD_REACTORS
330
1A
102
}
330
1A
100
AcDbPlotSettings
  1

  2
none_device
  4
ISO_A4_(210.00_x_297.00_MM)
  6

 40
7.5
 41
20.0
 42
7.5
 43
20.0
 44
210.0
 45
297.0
 46
0.0
 47
0.0
 48
0.0
 49
0.0
140
0.0
141
0.0
142
1.0
143
4.6692607004
 70
   688
 72
     1
 73
     1
 74
     1
  7

 75
     0
147
0.2141666667
148
600.0
149
0.0
100
AcDbLayout
  1
_Unten
 70
     1
 71
     6
 10
0.0
 20
0.0
 11
0.0
 21
0.0
 12
0.0
 22
0.0
 32
0.0
 14
0.0
 24
0.0
 34
0.0
 15
0.0
 25
0.0
 35
0.0
146
0.0
 13
0.0
 23
0.0
 33
0.0
 16
1.0
 26
0.0
 36
0.0
 17
0.0
 27
1.0
 37
0.0
 76
     0
330
D6
331
1BB
  0
LAYOUT
  5
1E
102
{ACAD_REACTORS
330
1A
102
}
330
1A
100
AcDbPlotSettings
  1

  2
none_device
  4
ISO_A4_(210.00_x_297.00_MM)
  6

 40
7.5
 41
20.0
 42
7.5
 43
20.0
 44
210.0
 45
297.0
 46
0.0
 47
0.0
 48
0.0
 49
0.0
140
0.0
141
0.0
142
1.0
143
4.6692607004
 70
   688
 72
     1
 73
     1
 74
     1
  7

 75
     0
147
0.2141666667
148
600.0
149
0.0
100
AcDbLayout
  1
_Vorderseite
 70
     1
 71
     1
 10
-693.3852140078
 20
-35.0194552529
 11
693.3852140078
 21
945.5252918288
 12
0.0
 22
0.0
 32
0.0
 14
-600.0
 24
0.0
 34
0.0
 15
600.0
 25
50.0
 35
0.0
146
0.0
 13
0.0
 23
0.0
 33
0.0
 16
1.0
 26
0.0
 36
0.0
 17
0.0
 27
1.0
 37
0.0
 76
     0
330
1B
331
1B1
  0
LAYOUT
  5
22
102
{ACAD_REACTORS
330
1A
102
}
330
1A
100
AcDbPlotSettings
  1

  2
none_device
  4
ANSI_A_(11.00_x_8.50_Inches)
  6

 40
6.35
 41
19.05
 42
6.35000508
 43
19.05000254
 44
279.4
 45
215.9
 46
133.34999746
 47
88.89999873
 48
0.0
 49
0.0
140
0.0
141
0.0
142
0.009075
143
1.0
 70
  1696
 72
     0
 73
     0
 74
     0
  7

 75
     0
147
0.0179189148
148
-1300.4909072572
149
0.0
100
AcDbLayout
  1
Model
 70
     1
 71
     0
 10
0.0
 20
0.0
 11
420.0
 21
297.0
 12
0.0
 22
0.0
 32
0.0
 14
-600.0
 24
-450.0
 34
0.0
 15
600.0
 25
450.0
 35
0.0
146
0.0
 13
0.0
 23
0.0
 33
0.0
 16
1.0
 26
0.0
 36
0.0
 17
0.0
 27
1.0
 37
0.0
 76
     0
330
1F
331
29
  0
MLINESTYLE
  5
18
102
{ACAD_REACTORS
330
17
102
}
330
17
100
AcDbMlineStyle
  2
Standard
 70
     0
  3

 62
   256
 51
90.0
 52
90.0
 71
     2
 49
0.5
 62
   256
  6
BYLAYER
 49
-0.5
 62
   256
  6
BYLAYER
  0
ACDBPLACEHOLDER
  5
F
102
{ACAD_REACTORS
330
E
102
}
330
E
  0
SCALE
  5
48
102
{ACAD_REACTORS
330
47
102
}
330
47
100
AcDbScale
 70
     0
300
1:1
140
1.0
141
1.0
290
     1
  0
SCALE
  5
49
102
{ACAD_REACTORS
330
47
102
}
330
47
100
AcDbScale
 70
     0
300
1:2
140
1.0
141
2.0
290
     0
  0
SCALE
  5
4A
102
{ACAD_REACTORS
330
47
102
}
330
47
100
AcDbScale
 70
     0
300
1:4
140
1.0
141
4.0
290
     0
  0
SCALE
  5
4B
102
{ACAD_REACTORS
330
47
102
}
330
47
100
AcDbScale
 70
     0
300
1:5
140
1.0
141
5.0
290
     0
  0
SCALE
  5
4C
102
{ACAD_REACTORS
330
47
102
}
330
47
100
AcDbScale
 70
     0
300
1:8
140
1.0
141
8.0
290
     0
  0
SCALE
  5
4D
102
{ACAD_REACTORS
330
47
102
}
330
47
100
AcDbScale
 70
     0
300
1:10
140
1.0
141
10.0
290
     0
  0
SCALE
  5
4E
102
{ACAD_REACTORS
330
47
102
}
330
47
100
AcDbScale
 70
     0
300
1:16
140
1.0
141
16.0
290
     0
  0
SCALE
  5
4F
102
{ACAD_REACTORS
330
47
102
}
330
47
100
AcDbScale
 70
     0
300
1:20
140
1.0
141
20.0
290
     0
  0
SCALE
  5
50
102
{ACAD_REACTORS
330
47
102
}
330
47
100
AcDbScale
 70
     0
300
1:30
140
1.0
141
30.0
290
     0
  0
SCALE
  5
51
102
{ACAD_REACTORS
330
47
102
}
330
47
100
AcDbScale
 70
     0
300
1:40
140
1.0
141
40.0
290
     0
  0
SCALE
  5
52
102
{ACAD_REACTORS
330
47
102
}
330
47
100
AcDbScale
 70
     0
300
1:50
140
1.0
141
50.0
290
     0
  0
SCALE
  5
53
102
{ACAD_REACTORS
330
47
102
}
330
47
100
AcDbScale
 70
     0
300
1:100
140
1.0
141
100.0
290
     0
  0
SCALE
  5
54
102
{ACAD_REACTORS
330
47
102
}
330
47
100
AcDbScale
 70
     0
300
2:1
140
2.0
141
1.0
290
     0
  0
SCALE
  5
55
102
{ACAD_REACTORS
330
47
102
}
330
47
100
AcDbScale
 70
     0
300
4:1
140
4.0
141
1.0
290
     0
  0
SCALE
  5
56
102
{ACAD_REACTORS
330
47
102
}
330
47
100
AcDbScale
 70
     0
300
8:1
140
8.0
141
1.0
290
     0
  0
SCALE
  5
57
102
{ACAD_REACTORS
330
47
102
}
330
47
100
AcDbScale
 70
     0
300
10:1
140
10.0
141
1.0
290
     0
  0
SCALE
  5
58
102
{ACAD_REACTORS
330
47
102
}
330
47
100
AcDbScale
 70
     0
300
100:1
140
100.0
141
1.0
290
     0
  0
SCALE
  5
59
102
{ACAD_REACTORS
330
47
102
}
330
47
100
AcDbScale
 70
     0
300
1/128" = 1'-0"
140
0.0078125
141
12.0
290
     0
  0
SCALE
  5
5A
102
{ACAD_REACTORS
330
47
102
}
330
47
100
AcDbScale
 70
     0
300
1/64" = 1'-0"
140
0.015625
141
12.0
290
     0
  0
SCALE
  5
5B
102
{ACAD_REACTORS
330
47
102
}
330
47
100
AcDbScale
 70
     0
300
1/32" = 1'-0"
140
0.03125
141
12.0
290
     0
  0
SCALE
  5
5C
102
{ACAD_REACTORS
330
47
102
}
330
47
100
AcDbScale
 70
     0
300
1/16" = 1'-0"
140
0.0625
141
12.0
290
     0
  0
SCALE
  5
5D
102
{ACAD_REACTORS
330
47
102
}
330
47
100
AcDbScale
 70
     0
300
3/32" = 1'-0"
140
0.09375
141
12.0
290
     0
  0
SCALE
  5
5E
102
{ACAD_REACTORS
330
47
102
}
330
47
100
AcDbScale
 70
     0
300
1/8" = 1'-0"
140
0.125
141
12.0
290
     0
  0
SCALE
  5
5F
102
{ACAD_REACTORS
330
47
102
}
330
47
100
AcDbScale
 70
     0
300
3/16" = 1'-0"
140
0.1875
141
12.0
290
     0
  0
SCALE
  5
60
102
{ACAD_REACTORS
330
47
102
}
330
47
100
AcDbScale
 70
     0
300
1/4" = 1'-0"
140
0.25
141
12.0
290
     0
  0
SCALE
  5
61
102
{ACAD_REACTORS
330
47
102
}
330
47
100
AcDbScale
 70
     0
300
3/8" = 1'-0"
140
0.375
141
12.0
290
     0
  0
SCALE
  5
62
102
{ACAD_REACTORS
330
47
102
}
330
47
100
AcDbScale
 70
     0
300
1/2" = 1'-0"
140
0.5
141
12.0
290
     0
  0
SCALE
  5
63
102
{ACAD_REACTORS
330
47
102
}
330
47
100
AcDbScale
 70
     0
300
3/4" = 1'-0"
140
0.75
141
12.0
290
     0
  0
SCALE
  5
64
102
{ACAD_REACTORS
330
47
102
}
330
47
100
AcDbScale
 70
     0
300
1" = 1'-0"
140
1.0
141
12.0
290
     0
  0
SCALE
  5
65
102
{ACAD_REACTORS
330
47
102
}
330
47
100
AcDbScale
 70
     0
300
1-1/2" = 1'-0"
140
1.5
141
12.0
290
     0
  0
SCALE
  5
66
102
{ACAD_REACTORS
330
47
102
}
330
47
100
AcDbScale
 70
     0
300
3" = 1'-0"
140
3.0
141
12.0
290
     0
  0
SCALE
  5
67
102
{ACAD_REACTORS
330
47
102
}
330
47
100
AcDbScale
 70
     0
300
6" = 1'-0"
140
6.0
141
12.0
290
     0
  0
SCALE
  5
68
102
{ACAD_REACTORS
330
47
102
}
330
47
100
AcDbScale
 70
     0
300
1'-0" = 1'-0"
140
12.0
141
12.0
290
     0
  0
ENDSEC
  0
EOF
