  0
SECTION
  2
HEADER
  9
$ACADVER
  1
AC1015
  9
$ACADMAINTVER
 70
     6
  9
$DWGCODEPAGE
  3
ANSI_1252
  9
$INSBASE
 10
0.0
 20
0.0
 30
0.0
  9
$EXTMIN
 10
-500.0
 20
-400.0
 30
0.0
  9
$EXTMAX
 10
500.0
 20
400.0
 30
0.0
  9
$LIMMIN
 10
0.0
 20
0.0
  9
$LIMMAX
 10
420.0
 20
297.0
  9
$ORTHOMODE
 70
     0
  9
$REGENMODE
 70
     1
  9
$FILLMODE
 70
     1
  9
$QTEXTMODE
 70
     0
  9
$MIRRTEXT
 70
     1
  9
$LTSCALE
 40
1.0
  9
$ATTMODE
 70
     1
  9
$TEXTSIZE
 40
3.5
  9
$TRACEWID
 40
1.0
  9
$TEXTSTYLE
  7
STANDARD
  9
$CLAYER
  8
0
  9
$CELTYPE
  6
ByLayer
  9
$CECOLOR
 62
   256
  9
$CELTSCALE
 40
1.0
  9
$DISPSILH
 70
     0
  9
$DIMSCALE
 40
1.0
  9
$DIMASZ
 40
6.0
  9
$DIMEXO
 40
1.0
  9
$DIMDLI
 40
3.75
  9
$DIMRND
 40
0.0
  9
$DIMDLE
 40
0.0
  9
$DIMEXE
 40
1.0
  9
$DIMTP
 40
0.0
  9
$DIMTM
 40
0.0
  9
$DIMTXT
 40
3.5
  9
$DIMCEN
 40
2.5
  9
$DIMTSZ
 40
0.0
  9
$DIMTOL
 70
     0
  9
$DIMLIM
 70
     0
  9
$DIMTIH
 70
     1
  9
$DIMTOH
 70
     1
  9
$DIMSE1
 70
     0
  9
$DIMSE2
 70
     0
  9
$DIMTAD
 70
     1
  9
$DIMZIN
 70
     0
  9
$DIMBLK
  1

  9
$DIMASO
 70
     1
  9
$DIMSHO
 70
     1
  9
$DIMPOST
  1

  9
$DIMAPOST
  1

  9
$DIMALT
 70
     0
  9
$DIMALTD
 70
     3
  9
$DIMALTF
 40
0.0393700787
  9
$DIMLFAC
 40
1.0
  9
$DIMTOFL
 70
     1
  9
$DIMTVP
 40
0.0
  9
$DIMTIX
 70
     0
  9
$DIMSOXD
 70
     0
  9
$DIMSAH
 70
     0
  9
$DIMBLK1
  1

  9
$DIMBLK2
  1

  9
$DIMSTYLE
  2
ISO-25
  9
$DIMCLRD
 70
     0
  9
$DIMCLRE
 70
     0
  9
$DIMCLRT
 70
     0
  9
$DIMTFAC
 40
1.0
  9
$DIMGAP
 40
1.524
  9
$DIMJUST
 70
     0
  9
$DIMSD1
 70
     0
  9
$DIMSD2
 70
     0
  9
$DIMTOLJ
 70
     0
  9
$DIMTZIN
 70
     0
  9
$DIMALTZ
 70
     0
  9
$DIMALTTZ
 70
     0
  9
$DIMUPT
 70
     0
  9
$DIMDEC
 70
     2
  9
$DIMTDEC
 70
     2
  9
$DIMALTU
 70
     2
  9
$DIMALTTD
 70
     3
  9
$DIMTXSTY
  7
STANDARD
  9
$DIMAUNIT
 70
     0
  9
$DIMADEC
 70
     2
  9
$DIMALTRND
 40
0.0
  9
$DIMAZIN
 70
     0
  9
$DIMDSEP
 70
    44
  9
$DIMATFIT
 70
     3
  9
$DIMFRAC
 70
     0
  9
$DIMLDRBLK
  1

  9
$DIMLUNIT
 70
     2
  9
$DIMLWD
 70
    -2
  9
$DIMLWE
 70
    -2
  9
$DIMTMOVE
 70
     0
  9
$LUNITS
 70
     2
  9
$LUPREC
 70
     2
  9
$SKETCHINC
 40
1.0
  9
$FILLETRAD
 40
10.0
  9
$AUNITS
 70
     0
  9
$AUPREC
 70
     2
  9
$MENU
  1
.
  9
$ELEVATION
 40
0.0
  9
$PELEVATION
 40
0.0
  9
$THICKNESS
 40
0.0
  9
$LIMCHECK
 70
     0
  9
$CHAMFERA
 40
0.0
  9
$CHAMFERB
 40
0.0
  9
$CHAMFERC
 40
0.0
  9
$CHAMFERD
 40
0.0
  9
$SKPOLY
 70
     0
  9
$TDCREATE
 40
2458232.43654316
  9
$TDUCREATE
 40
2458232.353209826
  9
$TDUPDATE
 40
2458232.436570301
  9
$TDUUPDATE
 40
2458232.353236968
  9
$TDINDWG
 40
0.0000000116
  9
$TDUSRTIMER
 40
0.0000000116
  9
$USRTIMER
 70
     1
  9
$ANGBASE
 50
0.0
  9
$ANGDIR
 70
     0
  9
$PDMODE
 70
     0
  9
$PDSIZE
 40
-1.0
  9
$PLINEWID
 40
0.0
  9
$SPLFRAME
 70
     0
  9
$SPLINETYPE
 70
     6
  9
$SPLINESEGS
 70
     8
  9
$HANDSEED
  5
1C3
  9
$SURFTAB1
 70
     6
  9
$SURFTAB2
 70
     6
  9
$SURFTYPE
 70
     6
  9
$SURFU
 70
     6
  9
$SURFV
 70
     6
  9
$UCSBASE
  2

  9
$UCSNAME
  2

  9
$UCSORG
 10
0.0
 20
0.0
 30
0.0
  9
$UCSXDIR
 10
1.0
 20
0.0
 30
0.0
  9
$UCSYDIR
 10
0.0
 20
1.0
 30
0.0
  9
$UCSORTHOREF
  2

  9
$UCSORTHOVIEW
 70
     0
  9
$UCSORGTOP
 10
0.0
 20
0.0
 30
0.0
  9
$UCSORGBOTTOM
 10
0.0
 20
0.0
 30
0.0
  9
$UCSORGLEFT
 10
0.0
 20
0.0
 30
0.0
  9
$UCSORGRIGHT
 10
0.0
 20
0.0
 30
0.0
  9
$UCSORGFRONT
 10
0.0
 20
0.0
 30
0.0
  9
$UCSORGBACK
 10
0.0
 20
0.0
 30
0.0
  9
$PUCSBASE
  2

  9
$PUCSNAME
  2

  9
$PUCSORG
 10
0.0
 20
0.0
 30
0.0
  9
$PUCSXDIR
 10
1.0
 20
0.0
 30
0.0
  9
$PUCSYDIR
 10
0.0
 20
1.0
 30
0.0
  9
$PUCSORTHOREF
  2

  9
$PUCSORTHOVIEW
 70
     0
  9
$PUCSORGTOP
 10
0.0
 20
0.0
 30
0.0
  9
$PUCSORGBOTTOM
 10
0.0
 20
0.0
 30
0.0
  9
$PUCSORGLEFT
 10
0.0
 20
0.0
 30
0.0
  9
$PUCSORGRIGHT
 10
0.0
 20
0.0
 30
0.0
  9
$PUCSORGFRONT
 10
0.0
 20
0.0
 30
0.0
  9
$PUCSORGBACK
 10
0.0
 20
0.0
 30
0.0
  9
$USERI1
 70
     0
  9
$USERI2
 70
     0
  9
$USERI3
 70
     0
  9
$USERI4
 70
     0
  9
$USERI5
 70
     0
  9
$USERR1
 40
0.0
  9
$USERR2
 40
0.0
  9
$USERR3
 40
0.0
  9
$USERR4
 40
0.0
  9
$USERR5
 40
0.0
  9
$WORLDVIEW
 70
     1
  9
$SHADEDGE
 70
     3
  9
$SHADEDIF
 70
    70
  9
$TILEMODE
 70
     1
  9
$MAXACTVP
 70
    64
  9
$PINSBASE
 10
0.0
 20
0.0
 30
0.0
  9
$PLIMCHECK
 70
     0
  9
$PEXTMIN
 10
-500.0
 20
0.0
 30
0.0
  9
$PEXTMAX
 10
500.0
 20
50.0
 30
0.0
  9
$PLIMMIN
 10
-577.8210116732
 20
-29.1828793774
  9
$PLIMMAX
 10
577.8210116732
 20
787.9377431907
  9
$UNITMODE
 70
     0
  9
$VISRETAIN
 70
     1
  9
$PLINEGEN
 70
     0
  9
$PSLTSCALE
 70
     1
  9
$TREEDEPTH
 70
  3020
  9
$CMLSTYLE
  2
Standard
  9
$CMLJUST
 70
     0
  9
$CMLSCALE
 40
20.0
  9
$PROXYGRAPHICS
 70
     1
  9
$MEASUREMENT
 70
     1
  9
$CELWEIGHT
370
    -1
  9
$ENDCAPS
280
     0
  9
$JOINSTYLE
280
     0
  9
$LWDISPLAY
290
     1
  9
$INSUNITS
 70
     4
  9
$HYPERLINKBASE
  1

  9
$STYLESHEET
  1

  9
$XEDIT
290
     1
  9
$CEPSNTYPE
380
     0
  9
$PSTYLEMODE
290
     1
  9
$FINGERPRINTGUID
  2
{7474FC58-FD64-4EFB-BA4D-AF7ED04AEC6B}
  9
$VERSIONGUID
  2
{FAEB1C32-E019-11D5-929B-00C0DF256EC4}
  9
$EXTNAMES
290
     1
  9
$PSVPSCALE
 40
0.0
  9
$OLESTARTUP
290
     0
  0
ENDSEC
  0
SECTION
  2
CLASSES
  0
CLASS
  1
ACDBDICTIONARYWDFLT
  2
AcDbDictionaryWithDefault
  3
ObjectDBX Classes
 90
        0
280
     0
281
     0
  0
CLASS
  1
VISUALSTYLE
  2
AcDbVisualStyle
  3
ObjectDBX Classes
 90
     4095
280
     0
281
     0
  0
CLASS
  1
MATERIAL
  2
AcDbMaterial
  3
ObjectDBX Classes
 90
     1153
280
     0
281
     0
  0
CLASS
  1
SCALE
  2
AcDbScale
  3
ObjectDBX Classes
 90
     1153
280
     0
281
     0
  0
CLASS
  1
TABLESTYLE
  2
AcDbTableStyle
  3
ObjectDBX Classes
 90
     4095
280
     0
281
     0
  0
CLASS
  1
MLEADERSTYLE
  2
AcDbMLeaderStyle
  3
ACDB_MLEADERSTYLE_CLASS
 90
     4095
280
     0
281
     0
  0
CLASS
  1
SUN
  2
AcDbSun
  3
SCENEOE
 90
     1153
280
     0
281
     0
  0
CLASS
  1
ACDBPLACEHOLDER
  2
AcDbPlaceHolder
  3
ObjectDBX Classes
 90
        0
280
     0
281
     0
  0
CLASS
  1
LAYOUT
  2
AcDbLayout
  3
ObjectDBX Classes
 90
        0
280
     0
281
     0
  0
ENDSEC
  0
SECTION
  2
TABLES
  0
TABLE
  2
VPORT
  5
8
330
0
100
AcDbSymbolTable
 70
     1
  0
VPORT
  5
29
330
8
100
AcDbSymbolTableRecord
100
AcDbViewportTableRecord
  2
*Active
 70
     0
 10
0.0
 20
0.0
 11
1.0
 21
1.0
 12
0.0
 22
0.0
 13
0.0
 23
0.0
 14
10.0
 24
10.0
 15
10.0
 25
10.0
 16
0.0
 26
0.0
 36
1.0
 17
0.0
 27
0.0
 37
0.0
 40
816.0
 41
1.25
 42
50.0
 43
0.0
 44
0.0
 50
0.0
 51
0.0
 71
     0
 72
   100
 73
     1
 74
     3
 75
     0
 76
     0
 77
     0
 78
     0
281
     0
 65
     1
110
0.0
120
0.0
130
0.0
111
1.0
121
0.0
131
0.0
112
0.0
122
1.0
132
0.0
 79
     0
146
0.0
  0
ENDTAB
  0
TABLE
  2
LTYPE
  5
5
330
0
100
AcDbSymbolTable
 70
     6
  0
LTYPE
  5
14
330
5
100
AcDbSymbolTableRecord
100
AcDbLinetypeTableRecord
  2
ByBlock
 70
     0
  3

 72
    65
 73
     0
 40
0.0
  0
LTYPE
  5
15
330
5
100
AcDbSymbolTableRecord
100
AcDbLinetypeTableRecord
  2
ByLayer
 70
     0
  3

 72
    65
 73
     0
 40
0.0
  0
LTYPE
  5
16
330
5
100
AcDbSymbolTableRecord
100
AcDbLinetypeTableRecord
  2
Continuous
 70
     0
  3
Solid line
 72
    65
 73
     0
 40
0.0
  0
LTYPE
  5
6E
330
5
100
AcDbSymbolTableRecord
100
AcDbLinetypeTableRecord
  2
HIDDEN
 70
     0
  3
Hidden __ __ __ __ __ __ __ __ __ __ __ __ __ __
 72
    65
 73
     2
 40
1.905
 49
1.27
 74
     0
 49
-0.635
 74
     0
  0
LTYPE
  5
6F
330
5
100
AcDbSymbolTableRecord
100
AcDbLinetypeTableRecord
  2
PHANTOM
 70
     0
  3
Phantom ______  __  __  ______  __  __  ______
 72
    65
 73
     6
 40
12.7
 49
6.35
 74
     0
 49
-1.27
 74
     0
 49
1.27
 74
     0
 49
-1.27
 74
     0
 49
1.27
 74
     0
 49
-1.27
 74
     0
  0
LTYPE
  5
70
330
5
100
AcDbSymbolTableRecord
100
AcDbLinetypeTableRecord
  2
CENTER
 70
     0
  3
Center ____ _ ____ _ ____ _ ____ _ ____ _ ____
 72
    65
 73
     4
 40
10.16
 49
6.35
 74
     0
 49
-1.27
 74
     0
 49
1.27
 74
     0
 49
-1.27
 74
     0
  0
LTYPE
  5
71
330
5
100
AcDbSymbolTableRecord
100
AcDbLinetypeTableRecord
  2
CENTERX2
 70
     0
  3
Center (2x) ________  __  ________  __  _____
 72
    65
 73
     4
 40
20.32
 49
12.7
 74
     0
 49
-2.54
 74
     0
 49
2.54
 74
     0
 49
-2.54
 74
     0
  0
LTYPE
  5
72
330
5
100
AcDbSymbolTableRecord
100
AcDbLinetypeTableRecord
  2
DOT2
 70
     0
  3
Dot (.5x) ........................................
 72
    65
 73
     2
 40
0.635
 49
0.0
 74
     0
 49
-0.635
 74
     0
  0
ENDTAB
  0
TABLE
  2
LAYER
  5
2
330
0
100
AcDbSymbolTable
 70
     1
  0
LAYER
  5
10
330
2
100
AcDbSymbolTableRecord
100
AcDbLayerTableRecord
  2
0
 70
     0
 62
     7
  6
Continuous
370
    -3
390
F
  0
ENDTAB
  0
TABLE
  2
STYLE
  5
3
330
0
100
AcDbSymbolTable
 70
     1
  0
STYLE
  5
11
330
3
100
AcDbSymbolTableRecord
100
AcDbTextStyleTableRecord
  2
STANDARD
 70
     0
 40
0.0
 41
1.0
 50
0.0
 71
     0
 42
3.5
  3
GOTHIC.TTF
  4

1001
ACAD
1000
CENTURY GOTHIC
1071
       34
  0
ENDTAB
  0
TABLE
  2
VIEW
  5
6
330
0
100
AcDbSymbolTable
 70
     0
  0
ENDTAB
  0
TABLE
  2
UCS
  5
7
330
0
100
AcDbSymbolTable
 70
     0
  0
ENDTAB
  0
TABLE
  2
APPID
  5
9
330
0
100
AcDbSymbolTable
 70
     1
  0
APPID
  5
12
330
9
100
AcDbSymbolTableRecord
100
AcDbRegAppTableRecord
  2
ACAD
 70
     0
  0
ENDTAB
  0
TABLE
  2
DIMSTYLE
  5
A
330
0
100
AcDbSymbolTable
 70
     1
100
AcDbDimStyleTable
  0
DIMSTYLE
105
27
330
A
100
AcDbSymbolTableRecord
100
AcDbDimStyleTableRecord
  2
ISO-25
 70
     0
 41
2.5
 42
0.625
 43
3.75
 44
1.25
 73
     0
 74
     0
 77
     1
 78
     8
140
2.5
141
2.5
143
0.0393700787
147
0.625
171
     3
172
     1
178
     0
271
     2
272
     2
274
     3
278
    44
283
     0
284
     8
340
11
  0
ENDTAB
  0
TABLE
  2
BLOCK_RECORD
  5
1
330
0
100
AcDbSymbolTable
 70
     8
  0
BLOCK_RECORD
  5
1F
330
1
100
AcDbSymbolTableRecord
100
AcDbBlockTableRecord
  2
*Model_Space
340
22
  0
BLOCK_RECORD
  5
1B
330
1
100
AcDbSymbolTableRecord
100
AcDbBlockTableRecord
  2
*Paper_Space
340
1E
  0
BLOCK_RECORD
  5
23
330
1
100
AcDbSymbolTableRecord
100
AcDbBlockTableRecord
  2
*Paper_Space0
340
26
  0
BLOCK_RECORD
  5
B2
330
1
100
AcDbSymbolTableRecord
100
AcDbBlockTableRecord
  2
*Paper_Space1
340
B3
  0
BLOCK_RECORD
  5
BE
330
1
100
AcDbSymbolTableRecord
100
AcDbBlockTableRecord
  2
*Paper_Space2
340
BF
  0
BLOCK_RECORD
  5
CA
330
1
100
AcDbSymbolTableRecord
100
AcDbBlockTableRecord
  2
*Paper_Space3
340
CB
  0
BLOCK_RECORD
  5
D6
330
1
100
AcDbSymbolTableRecord
100
AcDbBlockTableRecord
  2
*Paper_Space4
340
D7
  0
BLOCK_RECORD
  5
E3
330
1
100
AcDbSymbolTableRecord
100
AcDbBlockTableRecord
  2
*Paper_Space5
340
E4
  0
BLOCK_RECORD
  5
127
330
1
100
AcDbSymbolTableRecord
100
AcDbBlockTableRecord
  2
*Paper_Space6
340
128
  0
BLOCK_RECORD
  5
16C
330
1
100
AcDbSymbolTableRecord
100
AcDbBlockTableRecord
  2
*Paper_Space7
340
16D
  0
ENDTAB
  0
ENDSEC
  0
SECTION
  2
BLOCKS
  0
BLOCK
  5
20
330
1F
100
AcDbEntity
  8
0
100
AcDbBlockBegin
  2
*Model_Space
 70
     0
 10
0.0
 20
0.0
 30
0.0
  3
*Model_Space
  1

  0
ENDBLK
  5
21
330
1F
100
AcDbEntity
  8
0
100
AcDbBlockEnd
  0
BLOCK
  5
1C
330
1B
100
AcDbEntity
 67
     1
  8
0
100
AcDbBlockBegin
  2
*Paper_Space
 70
     0
 10
0.0
 20
0.0
 30
0.0
  3
*Paper_Space
  1

  0
ENDBLK
  5
1D
330
1B
100
AcDbEntity
 67
     1
  8
0
100
AcDbBlockEnd
  0
BLOCK
  5
24
330
23
100
AcDbEntity
  8
0
100
AcDbBlockBegin
  2
*Paper_Space0
 70
     0
 10
0.0
 20
0.0
 30
0.0
  3
*Paper_Space0
  1

  0
LINE
  5
AE
330
23
100
AcDbEntity
  8
0
  6
Continuous
 62
     7
370
    25
100
AcDbLine
 10
-400.0
 20
50.0
 30
0.0
 11
400.0
 21
50.0
 31
0.0
  0
LINE
  5
AF
330
23
100
AcDbEntity
  8
0
  6
Continuous
 62
     7
370
    25
100
AcDbLine
 10
400.0
 20
50.0
 30
0.0
 11
400.0
 21
0.0
 31
0.0
  0
LINE
  5
B0
330
23
100
AcDbEntity
  8
0
  6
Continuous
 62
     7
370
    25
100
AcDbLine
 10
-400.0
 20
50.0
 30
0.0
 11
-400.0
 21
0.0
 31
0.0
  0
LINE
  5
B1
330
23
100
AcDbEntity
  8
0
  6
Continuous
 62
     7
370
    25
100
AcDbLine
 10
-400.0
 20
0.0
 30
0.0
 11
400.0
 21
0.0
 31
0.0
  0
VIEWPORT
  5
1B3
330
23
100
AcDbEntity
  8
0
100
AcDbViewport
 10
0.0
 20
0.0
 30
0.0
 40
205.6
 41
156.0
 68
     1
 69
     1
 12
0.0
 22
0.0
 13
0.0
 23
0.0
 14
10.0
 24
10.0
 15
10.0
 25
10.0
 16
0.0
 26
0.0
 36
1.0
 17
0.0
 27
0.0
 37
0.0
 42
50.0
 43
0.0
 44
0.0
 45
816.0
 50
0.0
 51
0.0
 72
   100
 90
   557152
  1

281
     0
 71
     1
 74
     0
110
0.0
120
0.0
130
0.0
111
1.0
121
0.0
131
0.0
112
0.0
122
1.0
132
0.0
 79
     0
146
0.0
  0
ENDBLK
  5
25
330
23
100
AcDbEntity
  8
0
100
AcDbBlockEnd
  0
BLOCK
  5
B4
330
B2
100
AcDbEntity
  8
0
100
AcDbBlockBegin
  2
*Paper_Space1
 70
     0
 10
0.0
 20
0.0
 30
0.0
  3
*Paper_Space1
  1

  0
LINE
  5
BA
330
B2
100
AcDbEntity
  8
0
  6
Continuous
 62
     7
370
    25
100
AcDbLine
 10
-500.0
 20
50.0
 30
0.0
 11
-500.0
 21
0.0
 31
0.0
  0
LINE
  5
BB
330
B2
100
AcDbEntity
  8
0
  6
Continuous
 62
     7
370
    25
100
AcDbLine
 10
-500.0
 20
50.0
 30
0.0
 11
500.0
 21
50.0
 31
0.0
  0
LINE
  5
BC
330
B2
100
AcDbEntity
  8
0
  6
Continuous
 62
     7
370
    25
100
AcDbLine
 10
500.0
 20
50.0
 30
0.0
 11
500.0
 21
0.0
 31
0.0
  0
LINE
  5
BD
330
B2
100
AcDbEntity
  8
0
  6
Continuous
 62
     7
370
    25
100
AcDbLine
 10
-500.0
 20
0.0
 30
0.0
 11
500.0
 21
0.0
 31
0.0
  0
VIEWPORT
  5
1B5
330
B2
100
AcDbEntity
  8
0
100
AcDbViewport
 10
0.0
 20
0.0
 30
0.0
 40
205.6
 41
156.0
 68
     1
 69
     1
 12
0.0
 22
0.0
 13
0.0
 23
0.0
 14
10.0
 24
10.0
 15
10.0
 25
10.0
 16
0.0
 26
0.0
 36
1.0
 17
0.0
 27
0.0
 37
0.0
 42
50.0
 43
0.0
 44
0.0
 45
816.0
 50
0.0
 51
0.0
 72
   100
 90
   557152
  1

281
     0
 71
     1
 74
     0
110
0.0
120
0.0
130
0.0
111
1.0
121
0.0
131
0.0
112
0.0
122
1.0
132
0.0
 79
     0
146
0.0
  0
ENDBLK
  5
B5
330
B2
100
AcDbEntity
  8
0
100
AcDbBlockEnd
  0
BLOCK
  5
C0
330
BE
100
AcDbEntity
  8
0
100
AcDbBlockBegin
  2
*Paper_Space2
 70
     0
 10
0.0
 20
0.0
 30
0.0
  3
*Paper_Space2
  1

  0
LINE
  5
C6
330
BE
100
AcDbEntity
  8
0
  6
Continuous
 62
     7
370
    25
100
AcDbLine
 10
-500.0
 20
50.0
 30
0.0
 11
-500.0
 21
0.0
 31
0.0
  0
LINE
  5
C7
330
BE
100
AcDbEntity
  8
0
  6
Continuous
 62
     7
370
    25
100
AcDbLine
 10
-500.0
 20
50.0
 30
0.0
 11
500.0
 21
50.0
 31
0.0
  0
LINE
  5
C8
330
BE
100
AcDbEntity
  8
0
  6
Continuous
 62
     7
370
    25
100
AcDbLine
 10
500.0
 20
50.0
 30
0.0
 11
500.0
 21
0.0
 31
0.0
  0
LINE
  5
C9
330
BE
100
AcDbEntity
  8
0
  6
Continuous
 62
     7
370
    25
100
AcDbLine
 10
-500.0
 20
0.0
 30
0.0
 11
500.0
 21
0.0
 31
0.0
  0
VIEWPORT
  5
1B7
330
BE
100
AcDbEntity
  8
0
100
AcDbViewport
 10
0.0
 20
0.0
 30
0.0
 40
205.6
 41
156.0
 68
     1
 69
     1
 12
0.0
 22
0.0
 13
0.0
 23
0.0
 14
10.0
 24
10.0
 15
10.0
 25
10.0
 16
0.0
 26
0.0
 36
1.0
 17
0.0
 27
0.0
 37
0.0
 42
50.0
 43
0.0
 44
0.0
 45
816.0
 50
0.0
 51
0.0
 72
   100
 90
   557152
  1

281
     0
 71
     1
 74
     0
110
0.0
120
0.0
130
0.0
111
1.0
121
0.0
131
0.0
112
0.0
122
1.0
132
0.0
 79
     0
146
0.0
  0
ENDBLK
  5
C1
330
BE
100
AcDbEntity
  8
0
100
AcDbBlockEnd
  0
BLOCK
  5
CC
330
CA
100
AcDbEntity
  8
0
100
AcDbBlockBegin
  2
*Paper_Space3
 70
     0
 10
0.0
 20
0.0
 30
0.0
  3
*Paper_Space3
  1

  0
LINE
  5
D2
330
CA
100
AcDbEntity
  8
0
  6
Continuous
 62
     7
370
    25
100
AcDbLine
 10
400.0
 20
50.0
 30
0.0
 11
400.0
 21
0.0
 31
0.0
  0
LINE
  5
D3
330
CA
100
AcDbEntity
  8
0
  6
Continuous
 62
     7
370
    25
100
AcDbLine
 10
-400.0
 20
50.0
 30
0.0
 11
400.0
 21
50.0
 31
0.0
  0
LINE
  5
D4
330
CA
100
AcDbEntity
  8
0
  6
Continuous
 62
     7
370
    25
100
AcDbLine
 10
-400.0
 20
50.0
 30
0.0
 11
-400.0
 21
0.0
 31
0.0
  0
LINE
  5
D5
330
CA
100
AcDbEntity
  8
0
  6
Continuous
 62
     7
370
    25
100
AcDbLine
 10
-400.0
 20
0.0
 30
0.0
 11
400.0
 21
0.0
 31
0.0
  0
VIEWPORT
  5
1B9
330
CA
100
AcDbEntity
  8
0
100
AcDbViewport
 10
0.0
 20
0.0
 30
0.0
 40
205.6
 41
156.0
 68
     1
 69
     1
 12
0.0
 22
0.0
 13
0.0
 23
0.0
 14
10.0
 24
10.0
 15
10.0
 25
10.0
 16
0.0
 26
0.0
 36
1.0
 17
0.0
 27
0.0
 37
0.0
 42
50.0
 43
0.0
 44
0.0
 45
816.0
 50
0.0
 51
0.0
 72
   100
 90
   557152
  1

281
     0
 71
     1
 74
     0
110
0.0
120
0.0
130
0.0
111
1.0
121
0.0
131
0.0
112
0.0
122
1.0
132
0.0
 79
     0
146
0.0
  0
ENDBLK
  5
CD
330
CA
100
AcDbEntity
  8
0
100
AcDbBlockEnd
  0
BLOCK
  5
D8
330
D6
100
AcDbEntity
  8
0
100
AcDbBlockBegin
  2
*Paper_Space4
 70
     0
 10
0.0
 20
0.0
 30
0.0
  3
*Paper_Space4
  1

  0
CIRCLE
  5
DE
330
D6
100
AcDbEntity
  8
0
  6
Continuous
 62
     7
370
    25
100
AcDbCircle
 10
0.0
 20
-200.0
 30
0.0
 40
45.00000000000003
  0
LINE
  5
DF
330
D6
100
AcDbEntity
  8
0
  6
Continuous
 62
     7
370
    25
100
AcDbLine
 10
-500.0
 20
-400.0
 30
0.0
 11
-500.0
 21
400.0
 31
0.0
  0
LINE
  5
E0
330
D6
100
AcDbEntity
  8
0
  6
Continuous
 62
     7
370
    25
100
AcDbLine
 10
500.0
 20
-400.0
 30
0.0
 11
-500.0
 21
-400.0
 31
0.0
  0
LINE
  5
E1
330
D6
100
AcDbEntity
  8
0
  6
Continuous
 62
     7
370
    25
100
AcDbLine
 10
500.0
 20
400.0
 30
0.0
 11
500.0
 21
-400.0
 31
0.0
  0
LINE
  5
E2
330
D6
100
AcDbEntity
  8
0
  6
Continuous
 62
     7
370
    25
100
AcDbLine
 10
-500.0
 20
400.0
 30
0.0
 11
500.0
 21
400.0
 31
0.0
  0
VIEWPORT
  5
1BB
330
D6
100
AcDbEntity
  8
0
100
AcDbViewport
 10
0.0
 20
0.0
 30
0.0
 40
205.6
 41
156.0
 68
     1
 69
     1
 12
0.0
 22
0.0
 13
0.0
 23
0.0
 14
10.0
 24
10.0
 15
10.0
 25
10.0
 16
0.0
 26
0.0
 36
1.0
 17
0.0
 27
0.0
 37
0.0
 42
50.0
 43
0.0
 44
0.0
 45
816.0
 50
0.0
 51
0.0
 72
   100
 90
   557152
  1

281
     0
 71
     1
 74
     0
110
0.0
120
0.0
130
0.0
111
1.0
121
0.0
131
0.0
112
0.0
122
1.0
132
0.0
 79
     0
146
0.0
  0
ENDBLK
  5
D9
330
D6
100
AcDbEntity
  8
0
100
AcDbBlockEnd
  0
BLOCK
  5
E5
330
E3
100
AcDbEntity
  8
0
100
AcDbBlockBegin
  2
*Paper_Space5
 70
     0
 10
0.0
 20
0.0
 30
0.0
  3
*Paper_Space5
  1

  0
SPLINE
  5
FB
330
E3
100
AcDbEntity
  8
0
  6
Continuous
 62
     7
370
    25
100
AcDbSpline
210
0.0
220
0.0
230
1.0
 70
     8
 71
     3
 72
    32
 73
    28
 74
     0
 42
0.000000001
 43
0.00000001
 40
0.0
 40
0.0
 40
0.0
 40
0.0
 40
0.1250000000000026
 40
0.1250000000000026
 40
0.2500000000000052
 40
0.2500000000000052
 40
0.2812500000000057
 40
0.2812500000000057
 40
0.3125000000000061
 40
0.3125000000000061
 40
0.3750000000000061
 40
0.3750000000000061
 40
0.5000000000000059
 40
0.5000000000000059
 40
0.5312500000000059
 40
0.5312500000000059
 40
0.5625000000000059
 40
0.5625000000000059
 40
0.6250000000000048
 40
0.6250000000000048
 40
0.7500000000000027
 40
0.7500000000000027
 40
0.812500000000002
 40
0.812500000000002
 40
0.8750000000000012
 40
0.8750000000000012
 40
1.0
 40
1.0
 40
1.0
 40
1.0
 10
146.1386225253229
 20
58.59904685932089
 30
0.0
 10
149.639897400112
 20
58.74503367103448
 30
0.0
 10
153.0741087427871
 20
59.05272520513537
 30
0.0
 10
159.8139617391623
 20
59.97799003520514
 30
0.0
 10
163.119591595133
 20
60.59557735026468
 30
0.0
 10
167.1681757411777
 20
61.56827390780076
 30
0.0
 10
167.9742089321641
 20
61.77310972268938
 30
0.0
 10
169.5630985115659
 20
62.19926980775586
 30
0.0
 10
170.3478044797835
 20
62.42101540492635
 30
0.0
 10
172.6731170431086
 20
63.11185707875654
 30
0.0
 10
174.184971692694
 20
63.60651633737945
 30
0.0
 10
178.6069551481463
 20
65.19122192524945
 30
0.0
 10
181.40421952907
 20
66.3813219265296
 30
0.0
 10
184.7060324099233
 20
68.04077080854134
 30
0.0
 10
185.3579385929406
 20
68.38204940415432
 30
0.0
 10
186.634960075238
 20
69.0785107891041
 30
0.0
 10
187.2590090755683
 20
69.43304179758792
 30
0.0
 10
189.0884737060037
 20
70.5152036773428
 30
0.0
 10
190.2512807030289
 20
71.26137276370481
 30
0.0
 10
193.5722141447307
 20
73.57260298055414
 30
0.0
 10
195.5638452478503
 20
75.20988211340101
 30
0.0
 10
198.2102803229944
 20
77.8135753976699
 30
0.0
 10
199.0378717712866
 20
78.70978894425329
 30
0.0
 10
200.5516743709129
 20
80.52495261682796
 30
0.0
 10
201.2406384153683
 20
81.44598284184453
 30
0.0
 10
203.1072026997235
 20
84.24888985424464
 30
0.0
 10
204.0857564086527
 20
86.17029002265866
 30
0.0
 10
204.7917220155589
 20
88.14638948594525
 30
0.0
  0
SPLINE
  5
FD
330
E3
100
AcDbEntity
  8
0
  6
Continuous
 62
     7
370
    25
100
AcDbSpline
210
0.0
220
0.0
230
1.0
 70
     8
 71
     3
 72
    48
 73
    44
 74
     0
 42
0.000000001
 43
0.00000001
 40
0.0
 40
0.0
 40
0.0
 40
0.0
 40
0.0625
 40
0.0625
 40
0.1249999999999999
 40
0.1249999999999999
 40
0.1874999999999999
 40
0.1874999999999999
 40
0.2031250000000001
 40
0.2031250000000001
 40
0.2187500000000002
 40
0.2187500000000002
 40
0.2500000000000007
 40
0.2500000000000007
 40
0.3125000000000011
 40
0.3125000000000011
 40
0.3750000000000015
 40
0.3750000000000015
 40
0.4062500000000016
 40
0.4062500000000016
 40
0.4375000000000017
 40
0.4375000000000017
 40
0.5000000000000019
 40
0.5000000000000019
 40
0.5625000000000021
 40
0.5625000000000021
 40
0.5937500000000022
 40
0.5937500000000022
 40
0.6250000000000022
 40
0.6250000000000022
 40
0.6875000000000023
 40
0.6875000000000023
 40
0.7500000000000023
 40
0.7500000000000023
 40
0.7812500000000022
 40
0.7812500000000022
 40
0.8125000000000021
 40
0.8125000000000021
 40
0.8750000000000013
 40
0.8750000000000013
 40
0.9375000000000007
 40
0.9375000000000007
 40
1.0
 40
1.0
 40
1.0
 40
1.0
 10
77.10758722350164
 20
98.44981529160574
 30
0.0
 10
76.92847038644094
 20
97.11079668244224
 30
0.0
 10
76.87686964977728
 20
95.77852252679656
 30
0.0
 10
77.0195192735245
 20
93.12690183084226
 30
0.0
 10
77.21379120119752
 20
91.80755947177333
 30
0.0
 10
77.8478066532033
 20
89.181716051061
 30
0.0
 10
78.28753744589478
 20
87.87520974178503
 30
0.0
 10
78.99580371673706
 20
86.2503087270545
 30
0.0
 10
79.14563439650145
 20
85.92531310707535
 30
0.0
 10
79.45961176959874
 20
85.27975788076837
 30
0.0
 10
79.62387125699212
 20
84.95888854633488
 30
0.0
 10
80.13821243244311
 20
84.00193768027222
 30
0.0
 10
80.50983928527205
 20
83.37150939110136
 30
0.0
 10
81.70953537837936
 20
81.50245740944517
 30
0.0
 10
82.62218934621836
 20
80.28600115776405
 30
0.0
 10
84.67179515236514
 20
77.911786268266
 30
0.0
 10
85.80874860329334
 20
76.75401983200231
 30
0.0
 10
87.68726341617187
 20
75.06260038040782
 30
0.0
 10
88.34426871878874
 20
74.50493183117584
 30
0.0
 10
89.70203870144479
 20
73.41720845918634
 30
0.0
 10
90.40385556348618
 20
72.88602276976778
 30
0.0
 10
92.5768031497019
 20
71.329774723879
 30
0.0
 10
94.1152563018924
 20
70.34191361438498
 30
0.0
 10
97.36974408354344
 20
68.46431562401172
 30
0.0
 10
99.08577310665275
 20
67.5745753574167
 30
0.0
 10
101.7961194612854
 20
66.31528989289372
 30
0.0
 10
102.724847925298
 20
65.90708191894343
 30
0.0
 10
104.6166892460076
 20
65.12150722519273
 30
0.0
 10
105.5770059793013
 20
64.74516580038437
 30
0.0
 10
108.5002183023483
 20
63.66443707667788
 30
0.0
 10
110.5052519997478
 20
63.00820752597497
 30
0.0
 10
114.6259259757159
 20
61.8222210037017
 30
0.0
 10
116.741557795544
 20
61.29246255288613
 30
0.0
 10
119.9994640675112
 20
60.5944782462922
 30
0.0
 10
121.0995381001946
 20
60.37796005325408
 30
0.0
 10
123.3285332137909
 20
59.97795290762888
 30
0.0
 10
124.4481599647111
 20
59.7961584419109
 30
0.0
 10
127.8150989085707
 20
59.3052122562295
 30
0.0
 10
130.0735097133619
 20
59.04978960071021
 30
0.0
 10
134.6171662753673
 20
58.67895184724117
 30
0.0
 10
136.9024124365549
 20
58.56354343008255
 30
0.0
 10
141.4999466705949
 20
58.47389405702097
 30
0.0
 10
143.8122314066648
 20
58.49963272250362
 30
0.0
 10
146.138622525323
 20
58.59904685932091
 30
0.0
  0
SPLINE
  5
100
330
E3
100
AcDbEntity
  8
0
  6
Continuous
 62
     7
370
    25
100
AcDbSpline
210
0.0
220
0.0
230
1.0
 70
     8
 71
     3
 72
    34
 73
    30
 74
     0
 42
0.000000001
 43
0.00000001
 40
0.0
 40
0.0
 40
0.0
 40
0.0
 40
0.1249999999999987
 40
0.1249999999999987
 40
0.2499999999999973
 40
0.2499999999999973
 40
0.2812499999999975
 40
0.2812499999999975
 40
0.3124999999999977
 40
0.3124999999999977
 40
0.3749999999999981
 40
0.3749999999999981
 40
0.499999999999998
 40
0.499999999999998
 40
0.531249999999998
 40
0.531249999999998
 40
0.562499999999998
 40
0.562499999999998
 40
0.6249999999999981
 40
0.6249999999999981
 40
0.7499999999999982
 40
0.7499999999999982
 40
0.7812499999999984
 40
0.7812499999999984
 40
0.8124999999999987
 40
0.8124999999999987
 40
0.8749999999999991
 40
0.8749999999999991
 40
1.0
 40
1.0
 40
1.0
 40
1.0
 10
128.0652206337235
 20
132.4396559249935
 30
0.0
 10
124.6275411391091
 20
132.0407374393027
 30
0.0
 10
121.2952806414509
 20
131.4837579998728
 30
0.0
 10
114.8336085099721
 20
130.0645754412791
 30
0.0
 10
111.704196437491
 20
129.2023752693355
 30
0.0
 10
107.9243591954594
 20
127.9257666542308
 30
0.0
 10
107.1759782138461
 20
127.6607011028631
 30
0.0
 10
105.7062277671443
 20
127.1154938509984
 30
0.0
 10
104.9831620759819
 20
126.8347887840705
 30
0.0
 10
102.8488805120323
 20
125.9687214781232
 30
0.0
 10
101.4725264107734
 20
125.3594410494197
 30
0.0
 10
97.48088935012031
 20
123.4374280382809
 30
0.0
 10
95.00209497374898
 20
122.0311678358179
 30
0.0
 10
92.13810396305678
 20
120.1132697525534
 30
0.0
 10
91.57615132557548
 20
119.7208941746704
 30
0.0
 10
90.48555125780439
 20
118.9267265629716
 30
0.0
 10
89.95589919854986
 20
118.5243186746523
 30
0.0
 10
88.41311039744274
 20
117.3014128259161
 30
0.0
 10
87.44606820165271
 20
116.465255850455
 30
0.0
 10
84.72594497920971
 20
113.8955684335373
 30
0.0
 10
83.15259182731045
 20
112.1012997102307
 30
0.0
 10
81.49276183941878
 20
109.7554843853777
 30
0.0
 10
81.17565199332378
 20
109.280191541812
 30
0.0
 10
80.57586758525396
 20
108.323948886112
 30
0.0
 10
80.29351879141817
 20
107.8436560576575
 30
0.0
 10
79.4983358054401
 20
106.3963708634679
 30
0.0
 10
79.03728219275143
 20
105.422981607747
 30
0.0
 10
77.85832638077942
 20
102.4777019723522
 30
0.0
 10
77.34322464446427
 20
100.4808961098083
 30
0.0
 10
77.10758722350168
 20
98.44981529160574
 30
0.0
  0
SPLINE
  5
101
330
E3
100
AcDbEntity
  8
0
  6
Continuous
 62
     7
370
    25
100
AcDbSpline
210
0.0
220
0.0
230
1.0
 70
     8
 71
     3
 72
    46
 73
    42
 74
     0
 42
0.000000001
 43
0.00000001
 40
0.0
 40
0.0
 40
0.0
 40
0.0
 40
0.0624999999999997
 40
0.0624999999999997
 40
0.1249999999999994
 40
0.1249999999999994
 40
0.1874999999999991
 40
0.1874999999999991
 40
0.2187499999999988
 40
0.2187499999999988
 40
0.2499999999999986
 40
0.2499999999999986
 40
0.3124999999999986
 40
0.3124999999999986
 40
0.3749999999999987
 40
0.3749999999999987
 40
0.4062499999999988
 40
0.4062499999999988
 40
0.4374999999999988
 40
0.4374999999999988
 40
0.4999999999999989
 40
0.4999999999999989
 40
0.562499999999999
 40
0.562499999999999
 40
0.5937499999999992
 40
0.5937499999999992
 40
0.6249999999999993
 40
0.6249999999999993
 40
0.6874999999999997
 40
0.6874999999999997
 40
0.75
 40
0.75
 40
0.78125
 40
0.78125
 40
0.8125
 40
0.8125
 40
0.875
 40
0.875
 40
0.9375
 40
0.9375
 40
1.0
 40
1.0
 40
1.0
 40
1.0
 10
206.2894922475547
 20
93.57970905985678
 30
0.0
 10
206.4373445750978
 20
94.9488894147803
 30
0.0
 10
206.4600104357525
 20
96.3142923317275
 30
0.0
 10
206.2641567515393
 20
99.03912822956566
 30
0.0
 10
206.0456103362094
 20
100.3986156870268
 30
0.0
 10
205.3680744287023
 20
103.1109543234615
 30
0.0
 10
204.9091054016277
 20
104.4638370578485
 30
0.0
 10
204.0347232287941
 20
106.4850441346343
 30
0.0
 10
203.7118359181592
 20
107.1576414965562
 30
0.0
 10
203.0116101311632
 20
108.4831812262588
 30
0.0
 10
202.6334547054508
 20
109.1381739160215
 30
0.0
 10
201.4162829409129
 20
111.0790452048691
 30
0.0
 10
200.4947897079099
 20
112.3408510855444
 30
0.0
 10
198.4335488583324
 20
114.7950468294693
 30
0.0
 10
197.2938104029591
 20
115.9874186748923
 30
0.0
 10
195.4162936158855
 20
117.7193859452949
 30
0.0
 10
194.7603294767418
 20
118.2889243611706
 30
0.0
 10
193.4022562791922
 20
119.3991404961436
 30
0.0
 10
192.7009554668435
 20
119.9394043767699
 30
0.0
 10
190.5316055592273
 20
121.5161904724564
 30
0.0
 10
188.9982890224077
 20
122.5087810691232
 30
0.0
 10
185.7600763514419
 20
124.3777960333519
 30
0.0
 10
184.0551820249314
 20
125.2542212466971
 30
0.0
 10
181.3667265536236
 20
126.4806315963437
 30
0.0
 10
180.4486770721053
 20
126.8747118212656
 30
0.0
 10
178.5677950246802
 20
127.6330153784074
 30
0.0
 10
177.6113482760384
 20
127.994611102814
 30
0.0
 10
174.7046037393636
 20
129.0246641040632
 30
0.0
 10
172.7128783668872
 20
129.6401451722346
 30
0.0
 10
168.6237930975889
 20
130.7358846942647
 30
0.0
 10
166.5264304505091
 20
131.2161613067497
 30
0.0
 10
163.3000256391693
 20
131.838370395388
 30
0.0
 10
162.2111357617793
 20
132.0293804508975
 30
0.0
 10
160.005968299899
 20
132.3787962343995
 30
0.0
 10
158.8884454844971
 20
132.5372429479608
 30
0.0
 10
155.5353023654876
 20
132.9589419481563
 30
0.0
 10
153.2860247130241
 20
133.1710827565682
 30
0.0
 10
148.760434130389
 20
133.4652286128282
 30
0.0
 10
146.4841201393995
 20
133.5471933925859
 30
0.0
 10
141.9042853710324
 20
133.581011965558
 30
0.0
 10
139.6007695780194
 20
133.5328263767847
 30
0.0
 10
137.2831282884952
 20
133.4162350291244
 30
0.0
  0
SPLINE
  5
102
330
E3
100
AcDbEntity
  8
0
  6
Continuous
 62
     7
370
    25
100
AcDbSpline
210
0.0
220
0.0
230
1.0
 70
     8
 71
     3
 72
     8
 73
     4
 74
     0
 42
0.000000001
 43
0.00000001
 40
0.0
 40
0.0
 40
0.0
 40
0.0
 40
1.0
 40
1.0
 40
1.0
 40
1.0
 10
137.2831282884954
 20
133.4162350291244
 30
0.0
 10
134.1774171463565
 20
133.2005866185209
 30
0.0
 10
131.104353265815
 20
132.877662970179
 30
0.0
 10
128.0652206337236
 20
132.4396559249934
 30
0.0
  0
SPLINE
  5
104
330
E3
100
AcDbEntity
  8
0
  6
Continuous
 62
     7
370
    25
100
AcDbSpline
210
0.0
220
0.0
230
1.0
 70
     8
 71
     3
 72
     8
 73
     4
 74
     0
 42
0.000000001
 43
0.00000001
 40
0.0
 40
0.0
 40
0.0
 40
0.0
 40
1.0
 40
1.0
 40
1.0
 40
1.0
 10
204.791722015559
 20
88.14638948594524
 30
0.0
 10
205.4979570884373
 20
89.93114962561903
 30
0.0
 10
205.9947094515338
 20
91.74134625548633
 30
0.0
 10
206.2894922475547
 20
93.57970905985677
 30
0.0
  0
LWPOLYLINE
  5
109
330
E3
100
AcDbEntity
  8
0
  6
Continuous
 62
     7
370
    25
100
AcDbPolyline
 90
       72
 70
   128
 43
0.0
 10
109.6015510839
 20
68.1708735376
 10
106.9138299353
 20
69.8662256892
 10
104.496176967
 20
71.6920731707
 10
102.3675135916
 20
73.6341262499
 10
100.5444994859
 20
75.6771857283
 10
99.0414022073
 20
77.8052618954
 10
97.8699855298
 20
80.0016996698
 10
97.0394173772
 20
82.249308948
 10
96.5561980715
 20
84.53049914
 10
96.4241094588
 20
86.8274168394
 10
96.6441853117
 20
89.122085551
 10
97.2147032383
 20
91.396546381
 10
98.1311981621
 20
93.6329985895
 10
99.3864972678
 20
95.8139389057
 10
100.970776138
 20
97.9222985146
 10
102.8716356423
 20
99.9415766436
 10
105.074198978
 20
101.8559697036
 10
107.5612281005
 20
103.6504949731
 10
110.3132586349
 20
105.3111078589
 10
113.308752211
 20
106.8248118136
 10
116.5242650301
 20
108.1797600514
 10
119.9346313445
 20
109.3653482652
 10
123.5131604141
 20
110.3722976198
 10
127.2318453968
 20
111.1927273712
 10
131.0615825407
 20
111.8202165442
 10
134.97239896
 20
112.2498541852
 10
138.9336872139
 20
112.4782777972
 10
142.9144448508
 20
112.5036996558
 10
146.8835170448
 20
112.3259208003
 10
150.8098404247
 20
111.9463325915
 10
154.6626861865
 20
111.3679058216
 10
158.4119005881
 20
110.5951674645
 10
162.0281409436
 20
109.6341652454
 10
165.483105269
 20
108.4924203097
 10
168.7497537841
 20
107.1788683597
 10
171.8025205352
 20
105.7037897202
 10
174.6175134834
 20
104.0787288816
 10
177.1727014921
 20
102.3164041483
 10
179.4480867507
 20
100.4306081009
 10
181.4258612845
 20
98.4360996501
 10
183.0905463262
 20
96.3484885289
 10
184.4291134583
 20
94.1841131249
 10
185.431086578
 20
91.9599126101
 10
186.0886238873
 20
89.6932943692
 10
186.396579265
 20
87.4019977632
 10
186.3525425429
 20
85.1039552946
 10
185.956858368
 20
82.8171522616
 10
185.2126235055
 20
80.5594859985
 10
184.1256626022
 20
78.3486258049
 10
182.704482601
 20
76.2018746592
 10
180.9602061622
 20
74.1360338
 10
178.906484614
 20
72.167271233
 10
176.5593911121
 20
70.3109951945
 10
173.9372948453
 20
68.5817335614
 10
171.0607172722
 20
66.9930201506
 10
167.9521715125
 20
65.5572887985
 10
164.6359861514
 20
64.2857760498
 10
161.1381148357
 20
63.1884332155
 10
157.485933151
 20
62.2738484913
 10
153.7080243708
 20
61.5491797425
 10
149.8339557536
 20
61.0200984848
 10
145.8940471389
 20
60.6907454963
 10
141.9191336536
 20
60.5636984107
 10
137.9403243852
 20
60.6399515437
 10
133.9887589107
 20
60.9189081111
 10
130.0953635878
 20
61.3983848997
 10
126.2906095137
 20
62.0746293533
 10
122.6042740478
 20
62.9423489423
 10
119.0652077631
 20
63.9947525845
 10
115.7011086518
 20
65.2236037943
 10
112.5383053507
 20
66.619285145
 10
109.6015510839
 20
68.1708735376
  0
LWPOLYLINE
  5
10A
330
E3
100
AcDbEntity
  8
0
  6
Continuous
 62
     7
370
    25
100
AcDbPolyline
 90
       24
 70
   128
 43
0.0
 10
137.2831282885
 20
133.4162350291
 10
142.0796128419
 20
133.4904342886
 10
146.8725104367
 20
133.360170642
 10
151.6357037128
 20
133.0261539193
 10
156.3432371739
 20
132.4902042377
 10
160.9694586243
 20
131.7552420834
 10
165.489158952
 20
130.8252723971
 10
169.8777094976
 20
129.7053627509
 10
174.1111962606
 20
128.4016157335
 10
178.166550211
 20
126.9211356969
 10
182.0216729962
 20
125.2719900427
 10
185.6555573594
 20
123.4631652621
 10
189.0484016117
 20
121.5045179662
 10
192.1817175351
 20
119.4067211762
 10
195.038431128
 20
117.1812061637
 10
197.6029756448
 20
114.84010016
 10
199.8613764215
 20
112.3961602724
 10
201.8013270264
 20
109.8627039686
 10
203.41225632
 20
107.2535365071
 10
204.6853860593
 20
104.5828757104
 10
205.6137787313
 20
101.8652744891
 10
206.1923753577
 20
99.1155415405
 10
206.4180230614
 20
96.3486606537
 10
206.4213562373
 20
95.9686572045
  0
LWPOLYLINE
  5
10B
330
E3
100
AcDbEntity
  8
0
  6
Continuous
 62
     7
370
    25
100
AcDbPolyline
 90
       36
 70
   128
 43
0.0
 10
186.2208444937
 20
84.0904336179
 10
186.0886238873
 20
84.7940494979
 10
185.431086578
 20
87.0606677388
 10
184.4291134583
 20
89.2848682536
 10
183.0905463262
 20
91.4492436576
 10
181.4258612845
 20
93.5368547788
 10
179.4480867507
 20
95.5313632295
 10
177.1727014921
 20
97.417159277
 10
174.6175134834
 20
99.1794840103
 10
171.8025205352
 20
100.8045448489
 10
168.7497537841
 20
102.2796234884
 10
165.483105269
 20
103.5931754384
 10
162.0281409436
 20
104.7349203741
 10
158.4119005881
 20
105.6959225931
 10
154.6626861865
 20
106.4686609503
 10
150.8098404247
 20
107.0470877202
 10
146.8835170448
 20
107.426675929
 10
142.9144448508
 20
107.6044547845
 10
138.9336872139
 20
107.5790329259
 10
134.97239896
 20
107.3506093139
 10
131.0615825407
 20
106.9209716729
 10
127.2318453968
 20
106.2934824999
 10
123.5131604141
 20
105.4730527485
 10
119.9346313445
 20
104.4661033939
 10
116.5242650301
 20
103.2805151801
 10
113.308752211
 20
101.9255669423
 10
110.3132586349
 20
100.4118629876
 10
107.5612281005
 20
98.7512501018
 10
105.074198978
 20
96.9567248322
 10
102.8716356423
 20
95.0423317723
 10
100.970776138
 20
93.0230536433
 10
99.3864972678
 20
90.9146940344
 10
98.1311981621
 20
88.7337537182
 10
97.2147032383
 20
86.4973015097
 10
96.6441853117
 20
84.2228406797
 10
96.6218679809
 20
84.0904336179
  0
LINE
  5
10C
330
E3
100
AcDbEntity
  8
0
  6
Continuous
 62
     7
370
    25
100
AcDbLine
 10
70.7106781187
 20
-326.5566097259
 30
0.0
 11
70.7106781187
 21
-367.3836503202
 31
0.0
  0
LINE
  5
10D
330
E3
100
AcDbEntity
  8
0
  6
Continuous
 62
     7
370
    25
100
AcDbLine
 10
70.7106781187
 20
-326.5566097259
 30
0.0
 11
636.3961030679
 21
0.0066350032
 31
0.0
  0
LINE
  5
10E
330
E3
100
AcDbEntity
  8
0
  6
Continuous
 62
     7
370
    25
100
AcDbLine
 10
636.3961030679
 20
0.0066350032
 30
0.0
 11
636.3961030679
 21
-40.8204055911
 31
0.0
  0
LINE
  5
10F
330
E3
100
AcDbEntity
  8
0
  6
Continuous
 62
     7
370
    25
100
AcDbLine
 10
70.7106781187
 20
-367.3836503202
 30
0.0
 11
636.3961030679
 21
-40.8204055911
 31
0.0
  0
LINE
  5
110
330
E3
100
AcDbEntity
  8
0
  6
Continuous
 62
     7
370
    25
100
AcDbLine
 10
-636.3961030679
 20
81.6474461854
 30
0.0
 11
-636.3961030679
 21
40.8204055911
 31
0.0
  0
LINE
  5
111
330
E3
100
AcDbEntity
  8
0
  6
Continuous
 62
     7
370
    25
100
AcDbLine
 10
-636.3961030679
 20
81.6474461854
 30
0.0
 11
70.7106781187
 21
-326.5566097259
 31
0.0
  0
LINE
  5
112
330
E3
100
AcDbEntity
  8
0
  6
Continuous
 62
     7
370
    25
100
AcDbLine
 10
-636.3961030679
 20
40.8204055911
 30
0.0
 11
70.7106781187
 21
-367.3836503202
 31
0.0
  0
LINE
  5
113
330
E3
100
AcDbEntity
  8
0
  6
Continuous
 62
     7
370
    25
100
AcDbLine
 10
636.3961030679
 20
0.0066350032
 30
0.0
 11
-70.7106781187
 21
408.2106909145
 31
0.0
  0
LINE
  5
114
330
E3
100
AcDbEntity
  8
0
  6
Continuous
 62
     7
370
    25
100
AcDbLine
 10
-70.7106781187
 20
408.2106909145
 30
0.0
 11
-636.3961030679
 21
81.6474461854
 31
0.0
  0
LINE
  5
115
330
E3
100
AcDbEntity
  8
0
  6
Continuous
 62
     7
370
    25
100
AcDbLine
 10
-70.7106781187
 20
408.1290501033
 30
0.0
 11
636.2546817117
 21
0.0066350032
 31
0.0
  0
LINE
  5
116
330
E3
100
AcDbEntity
  8
0
  6
Continuous
 62
     7
370
    25
100
AcDbLine
 10
-636.2546817117
 20
81.6474461854
 30
0.0
 11
-70.7106781187
 21
408.1290501033
 31
0.0
  0
LINE
  5
117
330
E3
100
AcDbEntity
  8
0
  6
Continuous
 62
     7
370
    25
100
AcDbLine
 10
70.7106781187
 20
-326.4749689148
 30
0.0
 11
-636.2546817117
 21
81.6474461854
 31
0.0
  0
LINE
  5
118
330
E3
100
AcDbEntity
  8
0
  6
Continuous
 62
     7
370
    25
100
AcDbLine
 10
636.2546817117
 20
0.0066350032
 30
0.0
 11
70.7106781187
 21
-326.4749689148
 31
0.0
  0
LINE
  5
119
330
E3
100
AcDbEntity
  8
0
  6
Continuous
 62
     7
370
    25
100
AcDbLine
 10
70.7106781187
 20
-326.4749689148
 30
0.0
 11
70.7106781187
 21
-287.1590643851
 31
0.0
  0
LINE
  5
11A
330
E3
100
AcDbEntity
  8
0
  6
Continuous
 62
     7
370
    25
100
AcDbLine
 10
70.7106781187
 20
-287.1590643851
 30
0.0
 11
565.6854249492
 21
-1.4162252471
 31
0.0
  0
LINE
  5
11B
330
E3
100
AcDbEntity
  8
0
  6
Continuous
 62
     7
370
    25
100
AcDbLine
 10
636.2546817117
 20
0.0066350032
 30
0.0
 11
565.6854249492
 21
-1.4162252471
 31
0.0
  0
LINE
  5
11C
330
E3
100
AcDbEntity
  8
0
  6
Continuous
 62
     7
370
    25
100
AcDbLine
 10
-565.6854249492
 20
80.2245859351
 30
0.0
 11
70.7106781187
 21
-287.1590643851
 31
0.0
  0
LINE
  5
11D
330
E3
100
AcDbEntity
  8
0
  6
Continuous
 62
     7
370
    25
100
AcDbLine
 10
-565.6854249492
 20
80.2245859351
 30
0.0
 11
-636.2546817117
 21
81.6474461854
 31
0.0
  0
LINE
  5
11E
330
E3
100
AcDbEntity
  8
0
  6
Continuous
 62
     7
370
    25
100
AcDbLine
 10
547.5910679442
 20
-11.8618752042
 30
0.0
 11
204.7917220156
 21
88.1463894859
 31
0.0
  0
LINE
  5
11F
330
E3
100
AcDbEntity
  8
0
  6
Continuous
 62
     7
370
    25
100
AcDbLine
 10
74.4411626938
 20
-285.0055014797
 30
0.0
 11
146.1386225253
 21
58.5990468593
 31
0.0
  0
LINE
  5
120
330
E3
100
AcDbEntity
  8
0
  6
Continuous
 62
     7
370
    25
100
AcDbLine
 10
-540.7300126164
 20
65.8181330454
 30
0.0
 11
77.1075872235
 21
98.4498152916
 31
0.0
  0
LINE
  5
121
330
E3
100
AcDbEntity
  8
0
  6
Continuous
 62
     7
370
    25
100
AcDbLine
 10
-552.0661355809
 20
72.3623375355
 30
0.0
 11
-70.7106781187
 21
350.2429282738
 31
0.0
  0
LINE
  5
122
330
E3
100
AcDbEntity
  8
0
  6
Continuous
 62
     7
370
    25
100
AcDbLine
 10
128.0652206337
 20
132.439655925
 30
0.0
 11
-70.7106781187
 21
350.2429282738
 31
0.0
  0
LINE
  5
123
330
E3
100
AcDbEntity
  8
0
  6
Continuous
 62
     7
370
    25
100
AcDbLine
 10
-70.7106781187
 20
350.2429282738
 30
0.0
 11
552.0661355809
 21
-9.2784736468
 31
0.0
  0
LINE
  5
124
330
E3
100
AcDbEntity
  8
0
  6
Continuous
 62
     7
370
    25
100
AcDbLine
 10
565.6854249492
 20
-1.4162252471
 30
0.0
 11
-70.7106781187
 21
365.9674250731
 31
0.0
  0
LINE
  5
125
330
E3
100
AcDbEntity
  8
0
  6
Continuous
 62
     7
370
    25
100
AcDbLine
 10
-70.7106781187
 20
350.2429282738
 30
0.0
 11
-70.7106781187
 21
408.1290501033
 31
0.0
  0
LINE
  5
126
330
E3
100
AcDbEntity
  8
0
  6
Continuous
 62
     7
370
    25
100
AcDbLine
 10
-70.7106781187
 20
365.9674250731
 30
0.0
 11
-565.6854249492
 21
80.2245859351
 31
0.0
  0
VIEWPORT
  5
1BD
330
E3
100
AcDbEntity
  8
0
100
AcDbViewport
 10
0.0
 20
0.0
 30
0.0
 40
205.6
 41
156.0
 68
     1
 69
     1
 12
0.0
 22
0.0
 13
0.0
 23
0.0
 14
10.0
 24
10.0
 15
10.0
 25
10.0
 16
0.0
 26
0.0
 36
1.0
 17
0.0
 27
0.0
 37
0.0
 42
50.0
 43
0.0
 44
0.0
 45
816.0
 50
0.0
 51
0.0
 72
   100
 90
   557152
  1

281
     0
 71
     1
 74
     0
110
0.0
120
0.0
130
0.0
111
1.0
121
0.0
131
0.0
112
0.0
122
1.0
132
0.0
 79
     0
146
0.0
  0
ENDBLK
  5
E6
330
E3
100
AcDbEntity
  8
0
100
AcDbBlockEnd
  0
BLOCK
  5
129
330
127
100
AcDbEntity
  8
0
100
AcDbBlockBegin
  2
*Paper_Space6
 70
     0
 10
0.0
 20
0.0
 30
0.0
  3
*Paper_Space6
  1

  0
SPLINE
  5
13F
330
127
100
AcDbEntity
  8
0
  6
Continuous
 62
     7
370
    25
100
AcDbSpline
210
0.0
220
0.0
230
1.0
 70
     8
 71
     3
 72
    32
 73
    28
 74
     0
 42
0.000000001
 43
0.00000001
 40
0.0
 40
0.0
 40
0.0
 40
0.0
 40
0.1250000000000026
 40
0.1250000000000026
 40
0.2500000000000052
 40
0.2500000000000052
 40
0.2812500000000057
 40
0.2812500000000057
 40
0.3125000000000061
 40
0.3125000000000061
 40
0.3750000000000061
 40
0.3750000000000061
 40
0.5000000000000059
 40
0.5000000000000059
 40
0.5312500000000059
 40
0.5312500000000059
 40
0.5625000000000059
 40
0.5625000000000059
 40
0.6250000000000048
 40
0.6250000000000048
 40
0.7500000000000027
 40
0.7500000000000027
 40
0.812500000000002
 40
0.812500000000002
 40
0.8750000000000012
 40
0.8750000000000012
 40
1.0
 40
1.0
 40
1.0
 40
1.0
 10
116.8425191649952
 20
74.95995325830077
 30
0.0
 10
120.1179673909131
 20
75.61899660998691
 30
0.0
 10
123.2469265990303
 20
76.40579196918948
 30
0.0
 10
129.2240053483175
 20
78.22416593691905
 30
0.0
 10
132.0720990307339
 20
79.25575183959373
 30
0.0
 10
135.4499235575864
 20
80.703669570117
 30
0.0
 10
136.1167071389353
 20
81.00147148503767
 30
0.0
 10
137.4196678394217
 20
81.60759303992185
 30
0.0
 10
138.0573998716468
 20
81.91655450284749
 30
0.0
 10
139.9299313333354
 20
82.86086456828555
 30
0.0
 10
141.1241415212235
 20
83.513612600955
 30
0.0
 10
144.5464293929554
 20
85.54032178608153
 30
0.0
 10
146.6151751685214
 20
86.98227530317456
 30
0.0
 10
148.9261498275301
 20
88.90117118428095
 30
0.0
 10
149.3754145114866
 20
89.29164832120316
 30
0.0
 10
150.2411107994696
 20
90.0803307316423
 30
0.0
 10
150.6568556609
 20
90.4778176545243
 30
0.0
 10
151.8536116157734
 20
91.67953550442257
 30
0.0
 10
152.5842312867969
 20
92.49300903233393
 30
0.0
 10
154.5780097984301
 20
94.96960565659137
 30
0.0
 10
155.6442615383027
 20
96.66861263959458
 30
0.0
 10
156.8403388873874
 20
99.2904720534575
 30
0.0
 10
157.1721050764922
 20
100.1801383191156
 30
0.0
 10
157.6883180266412
 20
101.9571057266136
 30
0.0
 10
157.8743332046818
 20
102.846599684731
 30
0.0
 10
158.2198016754682
 20
105.5182292957551
 30
0.0
 10
158.1680375974051
 20
107.3034523708126
 30
0.0
 10
157.8270174189551
 20
109.0935051797171
 30
0.0
  0
SPLINE
  5
141
330
127
100
AcDbEntity
  8
0
  6
Continuous
 62
     7
370
    25
100
AcDbSpline
210
0.0
220
0.0
230
1.0
 70
     8
 71
     3
 72
    48
 73
    44
 74
     0
 42
0.000000001
 43
0.00000001
 40
0.0
 40
0.0
 40
0.0
 40
0.0
 40
0.0625
 40
0.0625
 40
0.1249999999999999
 40
0.1249999999999999
 40
0.1874999999999999
 40
0.1874999999999999
 40
0.2031250000000001
 40
0.2031250000000001
 40
0.2187500000000002
 40
0.2187500000000002
 40
0.2500000000000007
 40
0.2500000000000007
 40
0.3125000000000011
 40
0.3125000000000011
 40
0.3750000000000015
 40
0.3750000000000015
 40
0.4062500000000016
 40
0.4062500000000016
 40
0.4375000000000017
 40
0.4375000000000017
 40
0.5000000000000019
 40
0.5000000000000019
 40
0.5625000000000021
 40
0.5625000000000021
 40
0.5937500000000022
 40
0.5937500000000022
 40
0.6250000000000022
 40
0.6250000000000022
 40
0.6875000000000023
 40
0.6875000000000023
 40
0.7500000000000023
 40
0.7500000000000023
 40
0.7812500000000022
 40
0.7812500000000022
 40
0.8125000000000021
 40
0.8125000000000021
 40
0.8750000000000013
 40
0.8750000000000013
 40
0.9375000000000007
 40
0.9375000000000007
 40
1.0
 40
1.0
 40
1.0
 40
1.0
 10
30.50153050040196
 20
98.42558391373949
 30
0.0
 10
31.01756686123812
 20
97.25779405185797
 30
0.0
 10
31.65196160380868
 20
96.11514515178659
 30
0.0
 10
33.14894615545649
 20
93.87823969808737
 30
0.0
 10
34.01155598070833
 20
92.78399058759481
 30
0.0
 10
35.96461849970736
 20
90.64374036788256
 30
0.0
 10
37.05505937947471
 20
89.59773194795387
 30
0.0
 10
38.56532312798196
 20
88.32132686317787
 30
0.0
 10
38.87519166684221
 20
88.06727493221716
 30
0.0
 10
39.50631999197959
 20
87.56512376015502
 30
0.0
 10
39.82784644852369
 20
87.31677784528752
 30
0.0
 10
40.81010794789041
 20
86.57983310018754
 30
0.0
 10
41.48851072972682
 20
86.09932142742721
 30
0.0
 10
43.59327059628022
 20
84.6895996550677
 30
0.0
 10
45.08898993531091
 20
83.7921110405432
 30
0.0
 10
48.26436027820164
 20
82.08116218757816
 30
0.0
 10
49.94401260883907
 20
81.26769392549379
 30
0.0
 10
52.60542626030389
 20
80.11226557436578
 30
0.0
 10
53.51883419302014
 20
79.73702696136775
 30
0.0
 10
55.37321737182956
 20
79.01670095788118
 30
0.0
 10
56.31577773514508
 20
78.67081021516015
 30
0.0
 10
59.18869482646235
 20
77.67514534520207
 30
0.0
 10
61.16417055930647
 20
77.06725808805795
 30
0.0
 10
65.23413584816868
 20
75.96196721099925
 30
0.0
 10
67.32862164686122
 20
75.46455980085608
 30
0.0
 10
70.56169950980542
 20
74.80326057337803
 30
0.0
 10
71.65757742617275
 20
74.5965001840938
 30
0.0
 10
73.86629748292358
 20
74.21445736601842
 30
0.0
 10
74.97594478490542
 20
74.03962392251258
 30
0.0
 10
78.32040839833726
 20
73.56266265686254
 30
0.0
 10
80.5707008736919
 20
73.30793851334374
 30
0.0
 10
85.11190863359838
 20
72.92298675284201
 30
0.0
 10
87.40282081960616
 20
72.79275821849883
 30
0.0
 10
90.87020851846947
 20
72.69256387742335
 30
0.0
 10
92.03118491917897
 20
72.67505774062322
 30
0.0
 10
94.36373250594147
 20
72.67256155467807
 30
0.0
 10
95.52556351977071
 20
72.68760437419377
 30
0.0
 10
98.9908409257415
 20
72.78033527138226
 30
0.0
 10
101.2773384365492
 20
72.90548470500416
 30
0.0
 10
105.8042217324109
 20
73.27915934644051
 30
0.0
 10
108.0446068535306
 20
73.52769122386692
 30
0.0
 10
112.4789102721546
 20
74.14916657809246
 30
0.0
 10
114.6728342837745
 20
74.52209158903528
 30
0.0
 10
116.8425191649952
 20
74.9599532583008
 30
0.0
  0
SPLINE
  5
144
330
127
100
AcDbEntity
  8
0
  6
Continuous
 62
     7
370
    25
100
AcDbSpline
210
0.0
220
0.0
230
1.0
 70
     8
 71
     3
 72
    34
 73
    30
 74
     0
 42
0.000000001
 43
0.00000001
 40
0.0
 40
0.0
 40
0.0
 40
0.0
 40
0.1249999999999987
 40
0.1249999999999987
 40
0.2499999999999973
 40
0.2499999999999973
 40
0.2812499999999975
 40
0.2812499999999975
 40
0.3124999999999977
 40
0.3124999999999977
 40
0.3749999999999981
 40
0.3749999999999981
 40
0.499999999999998
 40
0.499999999999998
 40
0.531249999999998
 40
0.531249999999998
 40
0.562499999999998
 40
0.562499999999998
 40
0.6249999999999981
 40
0.6249999999999981
 40
0.7499999999999982
 40
0.7499999999999982
 40
0.7812499999999984
 40
0.7812499999999984
 40
0.8124999999999987
 40
0.8124999999999987
 40
0.8749999999999991
 40
0.8749999999999991
 40
1.0
 40
1.0
 40
1.0
 40
1.0
 10
61.86087759331987
 20
135.1750456786854
 30
0.0
 10
58.7850892494756
 20
134.3137478660531
 30
0.0
 10
55.89003619647928
 20
133.3334330347002
 30
0.0
 10
50.44770544173184
 20
131.1426555433828
 30
0.0
 10
47.900426984296
 20
129.932195780687
 30
0.0
 10
44.9425138904364
 20
128.2690730131417
 30
0.0
 10
44.36308559072609
 20
127.9292667743201
 30
0.0
 10
43.23759263784258
 20
127.2408528265117
 30
0.0
 10
42.69019545789887
 20
126.891506789399
 30
0.0
 10
41.09338492913725
 20
125.8282750120774
 30
0.0
 10
40.0892827431983
 20
125.0992158935383
 30
0.0
 10
37.25559308167815
 20
122.8523446027286
 30
0.0
 10
35.60340509127022
 20
121.2752477201231
 30
0.0
 10
33.84296196109071
 20
119.2026677220328
 30
0.0
 10
33.5056768396287
 20
118.7822816706834
 30
0.0
 10
32.867665018543
 20
117.9385196454908
 30
0.0
 10
32.56629174472291
 20
117.5144651831164
 30
0.0
 10
31.71419483730499
 20
116.2359164592197
 30
0.0
 10
31.21541204729262
 20
115.3750452844463
 30
0.0
 10
29.92302463902161
 20
112.7676778452075
 30
0.0
 10
29.33194379150508
 20
110.9966512902862
 30
0.0
 10
28.93887632238837
 20
108.7417454398161
 30
0.0
 10
28.87758569182899
 20
108.2877969173599
 30
0.0
 10
28.79081555603681
 20
107.380323587166
 30
0.0
 10
28.76531269414642
 20
106.9274089285953
 30
0.0
 10
28.74166910094783
 20
105.5711085648446
 30
0.0
 10
28.79630894608263
 20
104.6701621374703
 30
0.0
 10
29.1683773221612
 20
101.9770636334574
 30
0.0
 10
29.69252303836191
 20
100.1946101871709
 30
0.0
 10
30.50153050040201
 20
98.42558391373949
 30
0.0
  0
SPLINE
  5
148
330
127
100
AcDbEntity
  8
0
  6
Continuous
 62
     7
370
    25
100
AcDbSpline
210
0.0
220
0.0
230
1.0
 70
     8
 71
     3
 72
    46
 73
    42
 74
     0
 42
0.000000001
 43
0.00000001
 40
0.0
 40
0.0
 40
0.0
 40
0.0
 40
0.0624999999999997
 40
0.0624999999999997
 40
0.1249999999999994
 40
0.1249999999999994
 40
0.1874999999999991
 40
0.1874999999999991
 40
0.2187499999999988
 40
0.2187499999999988
 40
0.2499999999999986
 40
0.2499999999999986
 40
0.3124999999999986
 40
0.3124999999999986
 40
0.3749999999999987
 40
0.3749999999999987
 40
0.4062499999999988
 40
0.4062499999999988
 40
0.4374999999999988
 40
0.4374999999999988
 40
0.4999999999999989
 40
0.4999999999999989
 40
0.562499999999999
 40
0.562499999999999
 40
0.5937499999999992
 40
0.5937499999999992
 40
0.6249999999999993
 40
0.6249999999999993
 40
0.6874999999999997
 40
0.6874999999999997
 40
0.75
 40
0.75
 40
0.78125
 40
0.78125
 40
0.8125
 40
0.8125
 40
0.875
 40
0.875
 40
0.9375
 40
0.9375
 40
1.0
 40
1.0
 40
1.0
 40
1.0
 10
156.5352238538705
 20
113.9746076261086
 30
0.0
 10
155.9919085670847
 20
115.1703030996179
 30
0.0
 10
155.3329221871956
 20
116.3445047344965
 30
0.0
 10
153.792107874801
 20
118.6528749667544
 30
0.0
 10
152.9102555981489
 20
119.7870971754674
 30
0.0
 10
150.9243893685915
 20
122.0149106738408
 30
0.0
 10
149.8203945960281
 20
123.1085380588992
 30
0.0
 10
147.9925842266271
 20
124.7144162893348
 30
0.0
 10
147.3541440429705
 20
125.2440627531603
 30
0.0
 10
146.035105775972
 20
126.2782444825325
 30
0.0
 10
145.3527174835969
 20
126.7844182648454
 30
0.0
 10
143.238092970153
 20
128.2695095505645
 30
0.0
 10
141.7385832356049
 20
129.2150550754318
 30
0.0
 10
138.5614831137227
 20
131.0118152222722
 30
0.0
 10
136.8838999880991
 20
131.8630117485295
 30
0.0
 10
134.2304904920216
 20
133.0638772506899
 30
0.0
 10
133.3203190077567
 20
133.4525995396822
 30
0.0
 10
131.4684659823142
 20
134.1975791567345
 30
0.0
 10
130.5277695030038
 20
134.553607140155
 30
0.0
 10
127.662262448599
 20
135.5729119261885
 30
0.0
 10
125.6941536754317
 20
136.1874942742216
 30
0.0
 10
121.6441106345704
 20
137.2879381775582
 30
0.0
 10
119.5621775659595
 20
137.7738006920628
 30
0.0
 10
116.3522974015879
 20
138.4048003360583
 30
0.0
 10
115.2678105195235
 20
138.5988131665732
 30
0.0
 10
113.06912788422
 20
138.9537282191527
 30
0.0
 10
111.9624226514371
 20
139.1133796716628
 30
0.0
 10
108.6318331606429
 20
139.5389319627913
 30
0.0
 10
106.392675589474
 20
139.752295389761
 30
0.0
 10
101.8774975524535
 20
140.0457146779297
 30
0.0
 10
99.60147570669882
 20
140.1257896641595
 30
0.0
 10
96.15930931809278
 20
140.149350356818
 30
0.0
 10
95.00722156064221
 20
140.1410875823716
 30
0.0
 10
92.69344108517119
 20
140.092557993974
 30
0.0
 10
91.53052677071119
 20
140.0521324522245
 30
0.0
 10
88.06959786283119
 20
139.8854005569661
 30
0.0
 10
85.7854782623543
 20
139.7137563429476
 30
0.0
 10
81.26215682621714
 20
139.257037845037
 30
0.0
 10
79.02295912400292
 20
138.9719231137919
 30
0.0
 10
74.58970909927243
 20
138.2884145220861
 30
0.0
 10
72.39565276880923
 20
137.8899766951353
 30
0.0
 10
70.22509302179323
 20
137.4318517838728
 30
0.0
  0
SPLINE
  5
149
330
127
100
AcDbEntity
  8
0
  6
Continuous
 62
     7
370
    25
100
AcDbSpline
210
0.0
220
0.0
230
1.0
 70
     8
 71
     3
 72
     8
 73
     4
 74
     0
 42
0.000000001
 43
0.00000001
 40
0.0
 40
0.0
 40
0.0
 40
0.0
 40
1.0
 40
1.0
 40
1.0
 40
1.0
 10
70.22509302179337
 20
137.4318517838728
 30
0.0
 10
67.34502531672018
 20
136.7665959324636
 30
0.0
 10
64.5558048776735
 20
136.0167089562193
 30
0.0
 10
61.86087759331991
 20
135.1750456786854
 30
0.0
  0
SPLINE
  5
14B
330
127
100
AcDbEntity
  8
0
  6
Continuous
 62
     7
370
    25
100
AcDbSpline
210
0.0
220
0.0
230
1.0
 70
     8
 71
     3
 72
     8
 73
     4
 74
     0
 42
0.000000001
 43
0.00000001
 40
0.0
 40
0.0
 40
0.0
 40
0.0
 40
1.0
 40
1.0
 40
1.0
 40
1.0
 10
157.8270174189552
 20
109.0935051797171
 30
0.0
 10
157.6040588446511
 20
110.7281873109032
 30
0.0
 10
157.1709419313518
 20
112.3538365331778
 30
0.0
 10
156.5352238538705
 20
113.9746076261086
 30
0.0
  0
LWPOLYLINE
  5
14D
330
127
100
AcDbEntity
  8
0
  6
Continuous
 62
     7
370
    25
100
AcDbPolyline
 90
       72
 70
   128
 43
0.0
 10
72.3377852842
 20
75.7468998589
 10
68.9025436038
 20
76.7830721406
 10
65.6585509357
 20
77.9715588703
 10
62.6311959208
 20
79.3030585282
 10
59.8441717169
 20
80.7671503239
 10
57.319290567
 20
82.3523757541
 10
55.0763130895
 20
84.0463282806
 10
53.1327936243
 20
85.8357504279
 10
51.5039428464
 20
87.7066375417
 10
50.2025087216
 20
89.6443473936
 10
49.2386767364
 20
91.6337147769
 10
48.6199901829
 20
93.6591701943
 10
48.3512911224
 20
95.7048617111
 10
48.4346824892
 20
97.7547790176
 10
48.8695116328
 20
99.7928787313
 10
49.6523754256
 20
101.8032099588
 10
50.777146897
 20
103.7700391323
 10
52.2350231852
 20
105.677973147
 10
54.0145944316
 20
107.5120798323
 10
56.1019330784
 20
109.2580048165
 10
58.4807028705
 20
110.9020838695
 10
61.132286709
 20
112.4314498436
 10
64.0359323553
 20
113.8341333764
 10
67.1689148452
 20
115.0991565675
 10
70.506714343
 20
116.2166188952
 10
74.023208042
 20
117.1777747017
 10
77.6908746112
 20
117.9751016395
 10
81.4810095868
 20
118.6023595444
 10
85.3639500238
 20
119.0546392728
 10
89.3093066487
 20
119.3284011226
 10
93.2862016965
 20
119.4215025362
 10
97.2635105713
 20
119.3332148687
 10
101.2101054387
 20
119.0642290908
 10
105.0950988428
 20
118.616650381
 10
108.8880854427
 20
117.9939816495
 10
112.5593799755
 20
117.2010961234
 10
116.0802495839
 20
116.2441992069
 10
119.4231386893
 20
115.1307799159
 10
122.5618846521
 20
113.8695522659
 10
125.4719225294
 20
112.4703870734
 10
128.1304773293
 20
110.9442347029
 10
130.5167422558
 20
109.3030393661
 10
132.6120415506
 20
107.5596456417
 10
134.3999766556
 20
105.7276979493
 10
135.8665545545
 20
103.8215337635
 10
137.0002972868
 20
101.8560714035
 10
137.7923317785
 20
99.8466932771
 10
138.2364592857
 20
97.8091254927
 10
138.3292039086
 20
95.7593147807
 10
138.0698397946
 20
93.7133036892
 10
137.4603968198
 20
91.6871050291
 10
136.5056447016
 20
89.6965765521
 10
135.21305567
 20
87.7572968424
 10
133.5927459865
 20
85.8844433932
 10
131.6573967714
 20
84.0926738219
 10
129.4221547564
 20
82.3960111548
 10
126.9045137408
 20
80.8077340778
 10
124.1241776792
 20
79.3402730123
 10
121.102906471
 20
78.005112831
 10
117.8643456597
 20
76.8127029725
 10
114.4338413747
 20
75.7723756606
 10
110.8382419632
 20
74.8922728672
 10
107.1056878659
 20
74.1792825898
 10
103.2653913792
 20
73.6389849442
 10
99.3474080301
 20
73.2756084918
 10
95.3824013504
 20
73.0919971462
 10
91.4014028933
 20
73.0895879151
 10
87.4355693695
 20
73.268399654
 10
83.5159388033
 20
73.6270329186
 10
79.6731876184
 20
74.1626809173
 10
75.9373905529
 20
74.8711514783
 10
72.3377852842
 20
75.7468998589
  0
LWPOLYLINE
  5
14E
330
127
100
AcDbEntity
  8
0
  6
Continuous
 62
     7
370
    25
100
AcDbPolyline
 90
       24
 70
   128
 43
0.0
 10
70.2250930218
 20
137.4318517839
 10
74.7696010167
 20
138.2247815162
 10
79.4152974275
 20
138.8428892436
 10
84.1368670196
 20
139.2828067859
 10
88.9085811118
 20
139.5421369534
 10
93.7044377766
 20
139.6194666094
 10
98.4983035291
 20
139.5143743708
 10
103.2640557334
 20
139.227432904
 10
107.9757249493
 20
138.7602058046
 10
112.6076364447
 20
138.115239077
 10
117.1345501012
 20
137.296047261
 10
121.5317979531
 20
136.3070942798
 10
125.7754186065
 20
135.153769116
 10
129.8422878098
 20
133.8423564457
 10
133.7102444621
 20
132.3800023921
 10
137.3582113723
 20
130.7746755853
 10
140.7663101133
 20
129.0351237396
 10
143.9159693426
 20
127.1708259855
 10
146.790026001
 20
125.1919412166
 10
149.3728188374
 20
123.1092527315
 10
151.6502737494
 20
120.934109474
 10
153.6099804759
 20
118.6783641908
 10
155.2412602229
 20
116.354308843
 10
156.5352238539
 20
113.9746076261
  0
LWPOLYLINE
  5
14F
330
127
100
AcDbEntity
  8
0
  6
Continuous
 62
     7
370
    25
100
AcDbPolyline
 90
       35
 70
   128
 43
0.0
 10
138.0612374414
 20
93.673303263
 10
137.7923317785
 20
94.7036894729
 10
137.0002972868
 20
96.7130675993
 10
135.8665545545
 20
98.6785299593
 10
134.3999766556
 20
100.5846941451
 10
132.6120415506
 20
102.4166418375
 10
130.5167422558
 20
104.1600355619
 10
128.1304773293
 20
105.8012308987
 10
125.4719225294
 20
107.3273832692
 10
122.5618846521
 20
108.7265484617
 10
119.4231386893
 20
109.9877761117
 10
116.0802495839
 20
111.1011954027
 10
112.5593799755
 20
112.0580923192
 10
108.8880854427
 20
112.8509778453
 10
105.0950988428
 20
113.4736465768
 10
101.2101054387
 20
113.9212252866
 10
97.2635105713
 20
114.1902110644
 10
93.2862016965
 20
114.278498732
 10
89.3093066487
 20
114.1853973184
 10
85.3639500238
 20
113.9116354686
 10
81.4810095868
 20
113.4593557402
 10
77.6908746112
 20
112.8320978353
 10
74.023208042
 20
112.0347708974
 10
70.506714343
 20
111.073615091
 10
67.1689148452
 20
109.9561527633
 10
64.0359323553
 20
108.6911295722
 10
61.132286709
 20
107.2884460394
 10
58.4807028705
 20
105.7590800653
 10
56.1019330784
 20
104.1150010123
 10
54.0145944316
 20
102.369076028
 10
52.2350231852
 20
100.5349693428
 10
50.777146897
 20
98.6270353281
 10
49.6523754256
 20
96.6602061545
 10
48.8695116328
 20
94.6498749271
 10
48.6169181306
 20
93.673303263
  0
LINE
  5
150
330
127
100
AcDbEntity
  8
0
  6
Continuous
 62
     7
370
    25
100
AcDbLine
 10
255.5309052667
 20
-259.5281850286
 30
0.0
 11
255.5309052667
 21
-302.3865500637
 31
0.0
  0
LINE
  5
151
330
127
100
AcDbEntity
  8
0
  6
Continuous
 62
     7
370
    25
100
AcDbLine
 10
255.5309052667
 20
-259.5281850286
 30
0.0
 11
628.8872164107
 21
104.8790204149
 31
0.0
  0
LINE
  5
152
330
127
100
AcDbEntity
  8
0
  6
Continuous
 62
     7
370
    25
100
AcDbLine
 10
628.8872164107
 20
104.8790204149
 30
0.0
 11
628.8872164107
 21
62.0206553797
 31
0.0
  0
LINE
  5
153
330
127
100
AcDbEntity
  8
0
  6
Continuous
 62
     7
370
    25
100
AcDbLine
 10
255.5309052667
 20
-302.3865500637
 30
0.0
 11
628.8872164107
 21
62.0206553797
 31
0.0
  0
LINE
  5
154
330
127
100
AcDbEntity
  8
0
  6
Continuous
 62
     7
370
    25
100
AcDbLine
 10
-628.8872164107
 20
-19.1622903446
 30
0.0
 11
-628.8872164107
 21
-62.0206553797
 31
0.0
  0
LINE
  5
155
330
127
100
AcDbEntity
  8
0
  6
Continuous
 62
     7
370
    25
100
AcDbLine
 10
-628.8872164107
 20
-19.1622903446
 30
0.0
 11
255.5309052667
 21
-259.5281850286
 31
0.0
  0
LINE
  5
156
330
127
100
AcDbEntity
  8
0
  6
Continuous
 62
     7
370
    25
100
AcDbLine
 10
-628.8872164107
 20
-62.0206553797
 30
0.0
 11
255.5309052667
 21
-302.3865500637
 31
0.0
  0
LINE
  5
157
330
127
100
AcDbEntity
  8
0
  6
Continuous
 62
     7
370
    25
100
AcDbLine
 10
628.8872164107
 20
104.8790204149
 30
0.0
 11
-255.5309052667
 21
345.2449150988
 31
0.0
  0
LINE
  5
158
330
127
100
AcDbEntity
  8
0
  6
Continuous
 62
     7
370
    25
100
AcDbLine
 10
-255.5309052667
 20
345.2449150988
 30
0.0
 11
-628.8872164107
 21
-19.1622903446
 31
0.0
  0
LINE
  5
159
330
127
100
AcDbEntity
  8
0
  6
Continuous
 62
     7
370
    25
100
AcDbLine
 10
-255.4891329934
 20
345.1753276086
 30
0.0
 11
628.7521050597
 21
104.8575061036
 31
0.0
  0
LINE
  5
15A
330
127
100
AcDbEntity
  8
0
  6
Continuous
 62
     7
370
    25
100
AcDbLine
 10
-628.7521050597
 20
-19.1407760334
 30
0.0
 11
-255.4891329934
 21
345.1753276086
 31
0.0
  0
LINE
  5
15B
330
127
100
AcDbEntity
  8
0
  6
Continuous
 62
     7
370
    25
100
AcDbLine
 10
255.4891329934
 20
-259.4585975384
 30
0.0
 11
-628.7521050597
 21
-19.1407760334
 31
0.0
  0
LINE
  5
15C
330
127
100
AcDbEntity
  8
0
  6
Continuous
 62
     7
370
    25
100
AcDbLine
 10
628.7521050597
 20
104.8575061036
 30
0.0
 11
255.4891329934
 21
-259.4585975384
 31
0.0
  0
LINE
  5
15D
330
127
100
AcDbEntity
  8
0
  6
Continuous
 62
     7
370
    25
100
AcDbLine
 10
255.4891329934
 20
-259.4585975384
 30
0.0
 11
234.6447686293
 21
-226.2280937462
 31
0.0
  0
LINE
  5
15E
330
127
100
AcDbEntity
  8
0
  6
Continuous
 62
     7
370
    25
100
AcDbLine
 10
234.6447686293
 20
-226.2280937462
 30
0.0
 11
561.3315408804
 21
92.6282110168
 31
0.0
  0
LINE
  5
15F
330
127
100
AcDbEntity
  8
0
  6
Continuous
 62
     7
370
    25
100
AcDbLine
 10
628.7521050597
 20
104.8575061036
 30
0.0
 11
561.3315408804
 21
92.6282110168
 31
0.0
  0
LINE
  5
160
330
127
100
AcDbEntity
  8
0
  6
Continuous
 62
     7
370
    25
100
AcDbLine
 10
-561.3315408804
 20
-9.8987885306
 30
0.0
 11
234.6447686293
 21
-226.2280937462
 31
0.0
  0
LINE
  5
161
330
127
100
AcDbEntity
  8
0
  6
Continuous
 62
     7
370
    25
100
AcDbLine
 10
-561.3315408804
 20
-9.8987885306
 30
0.0
 11
-628.7521050597
 21
-19.1407760334
 31
0.0
  0
LINE
  5
162
330
127
100
AcDbEntity
  8
0
  6
Continuous
 62
     7
370
    25
100
AcDbLine
 10
545.7258346586
 20
77.3965633294
 30
0.0
 11
157.827017419
 21
109.0935051797
 31
0.0
  0
LINE
  5
163
330
127
100
AcDbEntity
  8
0
  6
Continuous
 62
     7
370
    25
100
AcDbLine
 10
227.838014596
 20
-224.378163851
 30
0.0
 11
116.842519165
 21
74.9599532583
 31
0.0
  0
LINE
  5
164
330
127
100
AcDbEntity
  8
0
  6
Continuous
 62
     7
370
    25
100
AcDbLine
 10
-527.1347223646
 20
-19.192751054
 30
0.0
 11
30.5015305004
 21
98.4255839137
 31
0.0
  0
LINE
  5
165
330
127
100
AcDbEntity
  8
0
  6
Continuous
 62
     7
370
    25
100
AcDbLine
 10
-548.1028684688
 20
-13.4940582359
 30
0.0
 11
-234.6447686293
 21
292.4506567096
 31
0.0
  0
LINE
  5
166
330
127
100
AcDbEntity
  8
0
  6
Continuous
 62
     7
370
    25
100
AcDbLine
 10
61.8608775933
 20
135.1750456787
 30
0.0
 11
-234.6447686293
 21
292.4506567096
 31
0.0
  0
LINE
  5
167
330
127
100
AcDbEntity
  8
0
  6
Continuous
 62
     7
370
    25
100
AcDbLine
 10
-234.6447686293
 20
308.9575162324
 30
0.0
 11
-561.3315408804
 21
-9.8987885306
 31
0.0
  0
LINE
  5
168
330
127
100
AcDbEntity
  8
0
  6
Continuous
 62
     7
370
    25
100
AcDbLine
 10
-234.6447686293
 20
308.9575162324
 30
0.0
 11
-255.4891329934
 21
345.1753276086
 31
0.0
  0
LINE
  5
169
330
127
100
AcDbEntity
  8
0
  6
Continuous
 62
     7
370
    25
100
AcDbLine
 10
-234.6447686293
 20
292.4506567096
 30
0.0
 11
-234.6447686293
 21
308.9575162324
 31
0.0
  0
LINE
  5
16A
330
127
100
AcDbEntity
  8
0
  6
Continuous
 62
     7
370
    25
100
AcDbLine
 10
-234.6447686293
 20
292.4506567096
 30
0.0
 11
548.1028684688
 21
79.7166211994
 31
0.0
  0
LINE
  5
16B
330
127
100
AcDbEntity
  8
0
  6
Continuous
 62
     7
370
    25
100
AcDbLine
 10
561.3315408804
 20
92.6282110168
 30
0.0
 11
-234.6447686293
 21
308.9575162324
 31
0.0
  0
VIEWPORT
  5
1BF
330
127
100
AcDbEntity
  8
0
100
AcDbViewport
 10
0.0
 20
0.0
 30
0.0
 40
205.6
 41
156.0
 68
     1
 69
     1
 12
0.0
 22
0.0
 13
0.0
 23
0.0
 14
10.0
 24
10.0
 15
10.0
 25
10.0
 16
0.0
 26
0.0
 36
1.0
 17
0.0
 27
0.0
 37
0.0
 42
50.0
 43
0.0
 44
0.0
 45
816.0
 50
0.0
 51
0.0
 72
   100
 90
   557152
  1

281
     0
 71
     1
 74
     0
110
0.0
120
0.0
130
0.0
111
1.0
121
0.0
131
0.0
112
0.0
122
1.0
132
0.0
 79
     0
146
0.0
  0
ENDBLK
  5
12A
330
127
100
AcDbEntity
  8
0
100
AcDbBlockEnd
  0
BLOCK
  5
16E
330
16C
100
AcDbEntity
  8
0
100
AcDbBlockBegin
  2
*Paper_Space7
 70
     0
 10
0.0
 20
0.0
 30
0.0
  3
*Paper_Space7
  1

  0
SPLINE
  5
184
330
16C
100
AcDbEntity
  8
0
  6
Continuous
 62
     7
370
    25
100
AcDbSpline
210
0.0
220
0.0
230
1.0
 70
     8
 71
     3
 72
    32
 73
    28
 74
     0
 42
0.000000001
 43
0.00000001
 40
0.0
 40
0.0
 40
0.0
 40
0.0
 40
0.1250000000000026
 40
0.1250000000000026
 40
0.2500000000000052
 40
0.2500000000000052
 40
0.2812500000000057
 40
0.2812500000000057
 40
0.3125000000000061
 40
0.3125000000000061
 40
0.3750000000000061
 40
0.3750000000000061
 40
0.5000000000000059
 40
0.5000000000000059
 40
0.5312500000000059
 40
0.5312500000000059
 40
0.5625000000000059
 40
0.5625000000000059
 40
0.6250000000000048
 40
0.6250000000000048
 40
0.7500000000000027
 40
0.7500000000000027
 40
0.812500000000002
 40
0.812500000000002
 40
0.8750000000000012
 40
0.8750000000000012
 40
1.0
 40
1.0
 40
1.0
 40
1.0
 10
101.4712904643839
 20
59.73255800222166
 30
0.0
 10
104.5655293864871
 20
60.29582443067967
 30
0.0
 10
107.4838414211909
 20
60.93538759593621
 30
0.0
 10
112.9831892138538
 20
62.36063654661928
 30
0.0
 10
115.5641938995749
 20
63.14631898638587
 30
0.0
 10
118.5715237628262
 20
64.22277070484078
 30
0.0
 10
119.1623026385331
 20
64.4429823378448
 30
0.0
 10
120.3109466824957
 20
64.88887094539662
 30
0.0
 10
120.8702021285539
 20
65.11502753448103
 30
0.0
 10
122.5034046827954
 20
65.80296849062437
 30
0.0
 10
123.5328706338407
 20
66.2742131615958
 30
0.0
 10
126.4455510836146
 20
67.72502248951315
 30
0.0
 10
128.1541558543909
 20
68.74138345300543
 30
0.0
 10
129.9885888524473
 20
70.07436482505379
 30
0.0
 10
130.3410106124992
 20
70.34468437223425
 30
0.0
 10
131.0113544448259
 20
70.88881515605605
 30
0.0
 10
131.3287670783467
 20
71.16213528320945
 30
0.0
 10
132.2285902256152
 20
71.98576897376721
 30
0.0
 10
132.7586765382083
 20
72.53975116408633
 30
0.0
 10
134.1432575055048
 20
74.21594783361662
 30
0.0
 10
134.7932925819007
 20
75.35224233702937
 30
0.0
 10
135.3495761095903
 20
77.08536010315382
 30
0.0
 10
135.4646568627749
 20
77.6700946874233
 30
0.0
 10
135.5488993096069
 20
78.8313858835511
 30
0.0
 10
135.5190912891165
 20
79.40941801082072
 30
0.0
 10
135.2175679684551
 20
81.13599355490209
 30
0.0
 10
134.7351100562303
 20
82.27702006405903
 30
0.0
 10
133.9640460509914
 20
83.4084137837734
 30
0.0
  0
SPLINE
  5
186
330
16C
100
AcDbEntity
  8
0
  6
Continuous
 62
     7
370
    25
100
AcDbSpline
210
0.0
220
0.0
230
1.0
 70
     8
 71
     3
 72
    48
 73
    44
 74
     0
 42
0.000000001
 43
0.00000001
 40
0.0
 40
0.0
 40
0.0
 40
0.0
 40
0.0625
 40
0.0625
 40
0.1249999999999999
 40
0.1249999999999999
 40
0.1874999999999999
 40
0.1874999999999999
 40
0.2031250000000001
 40
0.2031250000000001
 40
0.2187500000000002
 40
0.2187500000000002
 40
0.2500000000000007
 40
0.2500000000000007
 40
0.3125000000000011
 40
0.3125000000000011
 40
0.3750000000000015
 40
0.3750000000000015
 40
0.4062500000000016
 40
0.4062500000000016
 40
0.4375000000000017
 40
0.4375000000000017
 40
0.5000000000000019
 40
0.5000000000000019
 40
0.5625000000000021
 40
0.5625000000000021
 40
0.5937500000000022
 40
0.5937500000000022
 40
0.6250000000000022
 40
0.6250000000000022
 40
0.6875000000000023
 40
0.6875000000000023
 40
0.7500000000000023
 40
0.7500000000000023
 40
0.7812500000000022
 40
0.7812500000000022
 40
0.8125000000000021
 40
0.8125000000000021
 40
0.8750000000000013
 40
0.8750000000000013
 40
0.9375000000000007
 40
0.9375000000000007
 40
1.0
 40
1.0
 40
1.0
 40
1.0
 10
10.1518143844211
 20
71.23773054714839
 30
0.0
 10
10.94573207985949
 20
70.51097756080804
 30
0.0
 10
11.85104186974743
 20
69.80524110854935
 30
0.0
 10
13.87642553272398
 20
68.4342007592888
 30
0.0
 10
14.9965182428855
 20
67.76890392488313
 30
0.0
 10
17.4511362996656
 20
66.47860383330962
 30
0.0
 10
18.78565052914817
 20
65.8535932002661
 30
0.0
 10
20.5923414368077
 20
65.09828909391419
 30
0.0
 10
20.96113732950487
 20
64.94833593633508
 30
0.0
 10
21.70859300953042
 20
64.65270757790714
 30
0.0
 10
22.08757695153828
 20
64.50688537644908
 30
0.0
 10
23.24011658340864
 20
64.07532379854827
 30
0.0
 10
24.02924739268379
 20
63.7954854612639
 30
0.0
 10
26.45795345832176
 20
62.97917545091286
 30
0.0
 10
28.1586755044107
 20
62.46583992773738
 30
0.0
 10
31.72226588997191
 20
61.50042218749485
 30
0.0
 10
33.58513540131189
 20
61.04833092453327
 30
0.0
 10
36.50456365200554
 20
60.41738635707435
 30
0.0
 10
37.50136886555745
 20
60.21447229531554
 30
0.0
 10
39.51502841327456
 20
59.82904199660049
 30
0.0
 10
40.53364948429247
 20
59.64607646611562
 30
0.0
 10
43.62421885790006
 20
59.12587530644875
 30
0.0
 10
45.73078355872051
 20
58.81724786768788
 30
0.0
 10
50.03522326112772
 20
58.27544999300384
 30
0.0
 10
52.23309538000954
 20
58.04227684247883
 30
0.0
 10
55.59998885996845
 20
57.75044528647572
 30
0.0
 10
56.73701667025819
 20
57.66264830603114
 30
0.0
 10
59.02028336321533
 20
57.5078711296265
 30
0.0
 10
60.16324458789331
 20
57.44104842985273
 30
0.0
 10
63.59602649621017
 20
57.27161649554831
 30
0.0
 10
65.88973398042125
 20
57.19995688068001
 30
0.0
 10
70.48735134156009
 20
57.13795149915508
 30
0.0
 10
72.79126044956494
 20
57.14760898371208
 30
0.0
 10
76.2549147093153
 20
57.22427804873661
 30
0.0
 10
77.41076722535139
 20
57.26022098957513
 30
0.0
 10
79.72513318108565
 20
57.35336525846309
 30
0.0
 10
80.87397673838461
 20
57.41019160638718
 30
0.0
 10
84.28896893699434
 20
57.61034938195454
 30
0.0
 10
86.5268547013103
 20
57.78340394553771
 30
0.0
 10
90.92714239019476
 20
58.20673697754614
 30
0.0
 10
93.08954322054012
 20
58.45702192592214
 30
0.0
 10
97.33827962514991
 20
59.03550446531531
 30
0.0
 10
99.42462455808155
 20
59.36368900123524
 30
0.0
 10
101.4712904643839
 20
59.73255800222167
 30
0.0
  0
SPLINE
  5
189
330
16C
100
AcDbEntity
  8
0
  6
Continuous
 62
     7
370
    25
100
AcDbSpline
210
0.0
220
0.0
230
1.0
 70
     8
 71
     3
 72
    34
 73
    30
 74
     0
 42
0.000000001
 43
0.00000001
 40
0.0
 40
0.0
 40
0.0
 40
0.0
 40
0.1249999999999987
 40
0.1249999999999987
 40
0.2499999999999973
 40
0.2499999999999973
 40
0.2812499999999975
 40
0.2812499999999975
 40
0.3124999999999977
 40
0.3124999999999977
 40
0.3749999999999981
 40
0.3749999999999981
 40
0.499999999999998
 40
0.499999999999998
 40
0.531249999999998
 40
0.531249999999998
 40
0.562499999999998
 40
0.562499999999998
 40
0.6249999999999981
 40
0.6249999999999981
 40
0.7499999999999982
 40
0.7499999999999982
 40
0.7812499999999984
 40
0.7812499999999984
 40
0.8124999999999987
 40
0.8124999999999987
 40
0.8749999999999991
 40
0.8749999999999991
 40
1.0
 40
1.0
 40
1.0
 40
1.0
 10
32.46442523546965
 20
96.19616400810315
 30
0.0
 10
29.62163116227286
 20
95.52015870362813
 30
0.0
 10
26.98638257548667
 20
94.77437944895301
 30
0.0
 10
22.11525001798625
 20
93.14731551444326
 30
0.0
 10
19.87936517860281
 20
92.26603376405063
 30
0.0
 10
17.34424669698015
 20
91.07590048432716
 30
0.0
 10
16.85097182250697
 20
90.83368911097894
 30
0.0
 10
15.89956828480043
 20
90.34484446486853
 30
0.0
 10
15.44029480515628
 20
90.097681786388
 30
0.0
 10
14.11104547667722
 20
89.34809201691695
 30
0.0
 10
13.28956597913919
 20
88.83757225274704
 30
0.0
 10
11.0163004517847
 20
87.27424322985264
 30
0.0
 10
9.754384397571016
 20
86.18988337835792
 30
0.0
 10
8.503207057436937
 20
84.78094012664333
 30
0.0
 10
8.269043862698638
 20
84.4959377323087
 30
0.0
 10
7.837674559103176
 20
83.92544822221973
 30
0.0
 10
7.639989102351661
 20
83.63949691010332
 30
0.0
 10
7.100037146793047
 20
82.77958826571458
 30
0.0
 10
6.810791285117232
 20
82.20357765034649
 30
0.0
 10
6.151254953379002
 20
80.46779887186614
 30
0.0
 10
5.987698695135803
 20
79.30039253229673
 30
0.0
 10
6.13622619328684
 20
77.82892982440437
 30
0.0
 10
6.183831442330902
 20
77.53344045383739
 30
0.0
 10
6.314484195492957
 20
76.944229168524
 30
0.0
 10
6.397362555290477
 20
76.65089960479173
 30
0.0
 10
6.69788640034525
 20
75.77469826091993
 30
0.0
 10
6.96733779385278
 20
75.19560730460216
 30
0.0
 10
7.979997119800075
 20
73.47337804804229
 30
0.0
 10
8.92610499333598
 20
72.34520724880339
 30
0.0
 10
10.15181438442115
 20
71.2377305471484
 30
0.0
  0
SPLINE
  5
18D
330
16C
100
AcDbEntity
  8
0
  6
Continuous
 62
     7
370
    25
100
AcDbSpline
210
0.0
220
0.0
230
1.0
 70
     8
 71
     3
 72
    46
 73
    42
 74
     0
 42
0.000000001
 43
0.00000001
 40
0.0
 40
0.0
 40
0.0
 40
0.0
 40
0.0624999999999997
 40
0.0624999999999997
 40
0.1249999999999994
 40
0.1249999999999994
 40
0.1874999999999991
 40
0.1874999999999991
 40
0.2187499999999988
 40
0.2187499999999988
 40
0.2499999999999986
 40
0.2499999999999986
 40
0.3124999999999986
 40
0.3124999999999986
 40
0.3749999999999987
 40
0.3749999999999987
 40
0.4062499999999988
 40
0.4062499999999988
 40
0.4374999999999988
 40
0.4374999999999988
 40
0.4999999999999989
 40
0.4999999999999989
 40
0.562499999999999
 40
0.562499999999999
 40
0.5937499999999992
 40
0.5937499999999992
 40
0.6249999999999993
 40
0.6249999999999993
 40
0.6874999999999997
 40
0.6874999999999997
 40
0.75
 40
0.75
 40
0.78125
 40
0.78125
 40
0.8125
 40
0.8125
 40
0.875
 40
0.875
 40
0.9375
 40
0.9375
 40
1.0
 40
1.0
 40
1.0
 40
1.0
 10
131.5365745949241
 20
86.54358758867478
 30
0.0
 10
130.7177697946986
 20
87.304060165245
 30
0.0
 10
129.7903391950446
 20
88.0478284211667
 30
0.0
 10
127.726214468542
 20
89.50470622330693
 30
0.0
 10
126.5894976999157
 20
90.21787661522626
 30
0.0
 10
124.1074363660669
 20
91.6128550917395
 30
0.0
 10
122.7621099358437
 20
92.29470196171295
 30
0.0
 10
120.5827572242848
 20
93.28974148217016
 30
0.0
 10
119.8288529530499
 20
93.61684611282553
 30
0.0
 10
118.2851551124552
 20
94.25300674449163
 30
0.0
 10
117.493210482332
 20
94.56307807113802
 30
0.0
 10
115.0580919726668
 20
95.4683060798155
 30
0.0
 10
113.3557968710432
 20
96.03850783905237
 30
0.0
 10
109.7946761386316
 20
97.10620579441795
 30
0.0
 10
107.935856781215
 20
97.60368061215216
 30
0.0
 10
105.0271592858038
 20
98.29023893151393
 30
0.0
 10
104.0344256281106
 20
98.50975423573222
 30
0.0
 10
102.0244175739945
 20
98.92457695669071
 30
0.0
 10
101.008176369712
 20
99.1197788208419
 30
0.0
 10
97.92642002505502
 20
99.66906644435768
 30
0.0
 10
95.82796300035253
 20
99.98687971451776
 30
0.0
 10
91.54444878672616
 20
100.5263701696899
 30
0.0
 10
89.35939251002114
 20
100.7480479308803
 30
0.0
 10
86.01563205206523
 20
101.007727278271
 30
0.0
 10
84.88999301878076
 20
101.082136022593
 30
0.0
 10
82.61611206780826
 20
101.206396331617
 30
0.0
 10
81.4756260890085
 20
101.2557963344516
 30
0.0
 10
78.05526422099292
 20
101.3666917580119
 30
0.0
 10
75.77148613327614
 20
101.391186894311
 30
0.0
 10
71.1968798660275
 20
101.3482259224393
 30
0.0
 10
68.90605091769237
 20
101.280791935935
 30
0.0
 10
65.46431827132021
 20
101.1149637856047
 30
0.0
 10
64.31615701931631
 20
101.0488957928499
 30
0.0
 10
62.01794038323741
 20
100.8956955416129
 30
0.0
 10
60.86670557797091
 20
100.8084006205556
 30
0.0
 10
57.45198531594685
 20
100.5193332623921
 30
0.0
 10
55.21358186516338
 20
100.2897608374484
 30
0.0
 10
50.81067969826135
 20
99.76353171272201
 30
0.0
 10
48.64618718461891
 20
99.46683469326598
 30
0.0
 10
44.39149586662466
 20
98.80684222344397
 30
0.0
 10
42.30128938928014
 20
98.44349121450247
 30
0.0
 10
40.24973563369142
 20
98.04464824314303
 30
0.0
  0
SPLINE
  5
18E
330
16C
100
AcDbEntity
  8
0
  6
Continuous
 62
     7
370
    25
100
AcDbSpline
210
0.0
220
0.0
230
1.0
 70
     8
 71
     3
 72
     8
 73
     4
 74
     0
 42
0.000000001
 43
0.00000001
 40
0.0
 40
0.0
 40
0.0
 40
0.0
 40
1.0
 40
1.0
 40
1.0
 40
1.0
 10
40.24973563369154
 20
98.04464824314309
 30
0.0
 10
37.54035781002314
 20
97.47664790973418
 30
0.0
 10
34.94383385551485
 20
96.86252454579724
 30
0.0
 10
32.4644252354697
 20
96.19616400810312
 30
0.0
  0
SPLINE
  5
190
330
16C
100
AcDbEntity
  8
0
  6
Continuous
 62
     7
370
    25
100
AcDbSpline
210
0.0
220
0.0
230
1.0
 70
     8
 71
     3
 72
     8
 73
     4
 74
     0
 42
0.000000001
 43
0.00000001
 40
0.0
 40
0.0
 40
0.0
 40
0.0
 40
1.0
 40
1.0
 40
1.0
 40
1.0
 10
133.9640460509914
 20
83.4084137837734
 30
0.0
 10
133.3573212830015
 20
84.46359058115472
 30
0.0
 10
132.5457054499027
 20
85.50709919779847
 30
0.0
 10
131.5365745949241
 20
86.54358758867478
 30
0.0
  0
LWPOLYLINE
  5
191
330
16C
100
AcDbEntity
  8
0
  6
Continuous
 62
     7
370
    25
100
AcDbPolyline
 90
       46
 70
   128
 43
0.0
 10
29.3694176571
 20
62.0932836542
 10
28.0588364729
 20
63.2356632632
 10
26.9578006502
 20
64.5109013981
 10
26.1991904159
 20
65.813585853
 10
25.7889429237
 20
67.1335213558
 10
25.7302689164
 20
68.4603776216
 10
26.0236275976
 20
69.783770201
 10
26.666723038
 20
71.0933417528
 10
27.6545221438
 20
72.378843104
 10
28.9792940476
 20
73.6302134636
 10
30.6306706132
 20
74.8376591619
 10
32.5957275799
 20
75.9917302992
 10
34.8590857125
 20
77.083394704
 10
37.403031165
 20
78.1041086223
 10
40.207654115
 20
79.0458835837
 10
43.2510045852
 20
79.9013489222
 10
46.5092642318
 20
80.6638094617
 10
49.9569327555
 20
81.3272979147
 10
53.5670274755
 20
81.8866215845
 10
57.3112945059
 20
82.3374030049
 10
61.1604298805
 20
82.6761142001
 10
65.0843088961
 20
82.9001042959
 10
69.0522218792
 20
83.007620266
 10
73.033114531
 20
82.9978206522
 10
76.9958309688
 20
82.8707821497
 10
80.9093575637
 20
82.6274990071
 10
84.7430656639
 20
82.2698752449
 10
88.4669513056
 20
81.8007097537
 10
92.0518700347
 20
81.2236743898
 10
95.4697650015
 20
80.5432852372
 10
98.6938865437
 20
79.7648672636
 10
101.6990015387
 20
78.8945126449
 10
104.4615908874
 20
77.9390330863
 10
106.9600335823
 20
76.9059065106
 10
109.174775922
 20
75.8032185342
 10
111.0884845446
 20
74.6395991855
 10
112.6861820856
 20
73.4241553636
 10
113.9553643954
 20
72.1663995644
 10
114.8860984016
 20
70.8761754323
 10
115.4710998488
 20
69.5635807205
 10
115.7057903074
 20
68.2388882624
 10
115.5883330063
 20
66.9124655725
 10
115.1196472083
 20
65.5946937067
 10
114.3034010151
 20
64.2958860167
 10
113.1459826599
 20
63.0262074335
 10
112.1523825801
 20
62.1717756561
  0
LWPOLYLINE
  5
192
330
16C
100
AcDbEntity
  8
0
  6
Continuous
 62
     7
370
    25
100
AcDbPolyline
 90
       24
 70
   128
 43
0.0
 10
40.2497356337
 20
98.0446482431
 10
44.5685506569
 20
98.7415159202
 10
49.0298188304
 20
99.3302877609
 10
53.6092299021
 20
99.8077554418
 10
58.2818298383
 20
100.1713171555
 10
63.0221568021
 20
100.418991789
 10
67.8043799001
 20
100.5494297188
 10
72.6024399393
 20
100.561920165
 10
77.3901914283
 20
100.456395065
 10
82.1415450489
 20
100.233429444
 10
86.8306098213
 20
99.8942382818
 10
91.431834189
 20
99.440669892
 10
95.9201452536
 20
98.8751958502
 10
100.2710854014
 20
98.2008975262
 10
104.4609455778
 20
97.4214492925
 10
108.4668944818
 20
96.5410985028
 10
112.2671029778
 20
95.5646423467
 10
115.8408630469
 20
94.4974017092
 10
119.1687006283
 20
93.3451921764
 10
122.2324817369
 20
92.114292345
 10
125.015511279
 20
90.8114096096
 10
127.5026240263
 20
89.4436436121
 10
129.6802672548
 20
88.0184475553
 10
131.5365745949
 20
86.5435875887
  0
LWPOLYLINE
  5
193
330
16C
100
AcDbEntity
  8
0
  6
Continuous
 62
     7
370
    25
100
AcDbPolyline
 90
       34
 70
   128
 43
0.0
 10
114.90343769
 20
65.1893835583
 10
114.8860984016
 20
65.2193211826
 10
113.9553643954
 20
66.5095453147
 10
112.6861820856
 20
67.7673011139
 10
111.0884845446
 20
68.9827449358
 10
109.174775922
 20
70.1463642845
 10
106.9600335823
 20
71.249052261
 10
104.4615908874
 20
72.2821788366
 10
101.6990015387
 20
73.2376583953
 10
98.6938865437
 20
74.1080130139
 10
95.4697650015
 20
74.8864309876
 10
92.0518700347
 20
75.5668201401
 10
88.4669513056
 20
76.1438555041
 10
84.7430656639
 20
76.6130209952
 10
80.9093575637
 20
76.9706447575
 10
76.9958309688
 20
77.2139279001
 10
73.033114531
 20
77.3409664026
 10
69.0522218792
 20
77.3507660164
 10
65.0843088961
 20
77.2432500463
 10
61.1604298805
 20
77.0192599505
 10
57.3112945059
 20
76.6805487552
 10
53.5670274755
 20
76.2297673348
 10
49.9569327555
 20
75.6704436651
 10
46.5092642318
 20
75.0069552121
 10
43.2510045852
 20
74.2444946725
 10
40.207654115
 20
73.389029334
 10
37.403031165
 20
72.4472543726
 10
34.8590857125
 20
71.4265404543
 10
32.5957275799
 20
70.3348760495
 10
30.6306706132
 20
69.1808049123
 10
28.9792940476
 20
67.973359214
 10
27.6545221438
 20
66.7219888543
 10
26.666723038
 20
65.4364875031
 10
26.5179185149
 20
65.1893835583
  0
LINE
  5
195
330
16C
100
AcDbEntity
  8
0
  6
Continuous
 62
     7
370
    25
100
AcDbLine
 10
326.2858171572
 20
-136.5070258577
 30
0.0
 11
326.2858171572
 21
-183.6474779382
 31
0.0
  0
LINE
  5
196
330
16C
100
AcDbEntity
  8
0
  6
Continuous
 62
     7
370
    25
100
AcDbLine
 10
326.2858171572
 20
-136.5070258577
 30
0.0
 11
609.1285295669
 21
112.936799876
 31
0.0
  0
LINE
  5
197
330
16C
100
AcDbEntity
  8
0
  6
Continuous
 62
     7
370
    25
100
AcDbLine
 10
609.1285295669
 20
112.936799876
 30
0.0
 11
609.1285295669
 21
65.7963477955
 31
0.0
  0
LINE
  5
198
330
16C
100
AcDbEntity
  8
0
  6
Continuous
 62
     7
370
    25
100
AcDbLine
 10
326.2858171572
 20
-183.6474779382
 30
0.0
 11
609.1285295669
 21
65.7963477955
 31
0.0
  0
LINE
  5
199
330
16C
100
AcDbEntity
  8
0
  6
Continuous
 62
     7
370
    25
100
AcDbLine
 10
-609.1285295669
 20
-18.655895715
 30
0.0
 11
-609.1285295669
 21
-65.7963477955
 31
0.0
  0
LINE
  5
19A
330
16C
100
AcDbEntity
  8
0
  6
Continuous
 62
     7
370
    25
100
AcDbLine
 10
-609.1285295669
 20
-18.655895715
 30
0.0
 11
326.2858171572
 21
-136.5070258577
 31
0.0
  0
LINE
  5
19B
330
16C
100
AcDbEntity
  8
0
  6
Continuous
 62
     7
370
    25
100
AcDbLine
 10
-609.1285295669
 20
-65.7963477955
 30
0.0
 11
326.2858171572
 21
-183.6474779382
 31
0.0
  0
LINE
  5
19C
330
16C
100
AcDbEntity
  8
0
  6
Continuous
 62
     7
370
    25
100
AcDbLine
 10
609.1285295669
 20
112.936799876
 30
0.0
 11
-326.2858171572
 21
230.7879300187
 31
0.0
  0
LINE
  5
19D
330
16C
100
AcDbEntity
  8
0
  6
Continuous
 62
     7
370
    25
100
AcDbLine
 10
-326.2858171572
 20
230.7879300187
 30
0.0
 11
-609.1285295669
 21
-18.655895715
 31
0.0
  0
LINE
  5
19E
330
16C
100
AcDbEntity
  8
0
  6
Continuous
 62
     7
370
    25
100
AcDbLine
 10
-326.2276310616
 20
230.7449644275
 30
0.0
 11
608.9996327932
 21
112.9174045108
 31
0.0
  0
LINE
  5
19F
330
16C
100
AcDbEntity
  8
0
  6
Continuous
 62
     7
370
    25
100
AcDbLine
 10
-608.9996327932
 20
-18.6365003498
 30
0.0
 11
-326.2276310616
 21
230.7449644275
 31
0.0
  0
LINE
  5
1A0
330
16C
100
AcDbEntity
  8
0
  6
Continuous
 62
     7
370
    25
100
AcDbLine
 10
326.2276310616
 20
-136.4640602665
 30
0.0
 11
-608.9996327932
 21
-18.6365003498
 31
0.0
  0
LINE
  5
1A1
330
16C
100
AcDbEntity
  8
0
  6
Continuous
 62
     7
370
    25
100
AcDbLine
 10
608.9996327932
 20
112.9174045108
 30
0.0
 11
326.2276310616
 21
-136.4640602665
 31
0.0
  0
LINE
  5
1A2
330
16C
100
AcDbEntity
  8
0
  6
Continuous
 62
     7
370
    25
100
AcDbLine
 10
326.2276310616
 20
-136.4640602665
 30
0.0
 11
297.1927693466
 21
-116.6671187413
 31
0.0
  0
LINE
  5
1A3
330
16C
100
AcDbEntity
  8
0
  6
Continuous
 62
     7
370
    25
100
AcDbLine
 10
297.1927693466
 20
-116.6671187413
 30
0.0
 11
544.6801427051
 21
101.5962287757
 31
0.0
  0
LINE
  5
1A4
330
16C
100
AcDbEntity
  8
0
  6
Continuous
 62
     7
370
    25
100
AcDbLine
 10
608.9996327932
 20
112.9174045108
 30
0.0
 11
544.6801427051
 21
101.5962287757
 31
0.0
  0
LINE
  5
1A5
330
16C
100
AcDbEntity
  8
0
  6
Continuous
 62
     7
370
    25
100
AcDbLine
 10
-544.6801427051
 20
-10.6011016129
 30
0.0
 11
297.1927693466
 21
-116.6671187413
 31
0.0
  0
LINE
  5
1A6
330
16C
100
AcDbEntity
  8
0
  6
Continuous
 62
     7
370
    25
100
AcDbLine
 10
-544.6801427051
 20
-10.6011016129
 30
0.0
 11
-608.9996327932
 21
-18.6365003498
 31
0.0
  0
LINE
  5
1A7
330
16C
100
AcDbEntity
  8
0
  6
Continuous
 62
     7
370
    25
100
AcDbLine
 10
524.091256201
 20
83.4385376214
 30
0.0
 11
133.964046051
 21
83.4084137838
 31
0.0
  0
LINE
  5
1A8
330
16C
100
AcDbEntity
  8
0
  6
Continuous
 62
     7
370
    25
100
AcDbLine
 10
276.2769494889
 20
-114.0319731326
 30
0.0
 11
101.4712904644
 21
59.7325580022
 31
0.0
  0
LINE
  5
1A9
330
16C
100
AcDbEntity
  8
0
  6
Continuous
 62
     7
370
    25
100
AcDbLine
 10
-485.3879008313
 20
-18.071221927
 30
0.0
 11
10.1518143844
 21
71.2377305471
 31
0.0
  0
LINE
  5
1AA
330
16C
100
AcDbEntity
  8
0
  6
Continuous
 62
     7
370
    25
100
AcDbLine
 10
-526.6664443234
 20
-12.8706142837
 30
0.0
 11
-297.1927693466
 21
189.5061445294
 31
0.0
  0
LINE
  5
1AB
330
16C
100
AcDbEntity
  8
0
  6
Continuous
 62
     7
370
    25
100
AcDbLine
 10
32.4644252355
 20
96.1961640081
 30
0.0
 11
-297.1927693466
 21
189.5061445294
 31
0.0
  0
LINE
  5
1AC
330
16C
100
AcDbEntity
  8
0
  6
Continuous
 62
     7
370
    25
100
AcDbLine
 10
-297.1927693466
 20
207.6622459041
 30
0.0
 11
-544.6801427051
 21
-10.6011016129
 31
0.0
  0
LINE
  5
1AD
330
16C
100
AcDbEntity
  8
0
  6
Continuous
 62
     7
370
    25
100
AcDbLine
 10
-297.1927693466
 20
207.6622459041
 30
0.0
 11
-326.2276310616
 21
230.7449644275
 31
0.0
  0
LINE
  5
1AE
330
16C
100
AcDbEntity
  8
0
  6
Continuous
 62
     7
370
    25
100
AcDbLine
 10
-297.1927693466
 20
189.5061445294
 30
0.0
 11
-297.1927693466
 21
207.6622459041
 31
0.0
  0
LINE
  5
1AF
330
16C
100
AcDbEntity
  8
0
  6
Continuous
 62
     7
370
    25
100
AcDbLine
 10
-297.1927693466
 20
189.5061445294
 30
0.0
 11
526.6664443234
 21
85.7096400718
 31
0.0
  0
LINE
  5
1B0
330
16C
100
AcDbEntity
  8
0
  6
Continuous
 62
     7
370
    25
100
AcDbLine
 10
544.6801427051
 20
101.5962287757
 30
0.0
 11
-297.1927693466
 21
207.6622459041
 31
0.0
  0
VIEWPORT
  5
1C1
330
16C
100
AcDbEntity
  8
0
100
AcDbViewport
 10
0.0
 20
0.0
 30
0.0
 40
205.6
 41
156.0
 68
     1
 69
     1
 12
0.0
 22
0.0
 13
0.0
 23
0.0
 14
10.0
 24
10.0
 15
10.0
 25
10.0
 16
0.0
 26
0.0
 36
1.0
 17
0.0
 27
0.0
 37
0.0
 42
50.0
 43
0.0
 44
0.0
 45
816.0
 50
0.0
 51
0.0
 72
   100
 90
   557152
  1

281
     0
 71
     1
 74
     0
110
0.0
120
0.0
130
0.0
111
1.0
121
0.0
131
0.0
112
0.0
122
1.0
132
0.0
 79
     0
146
0.0
  0
ENDBLK
  5
16F
330
16C
100
AcDbEntity
  8
0
100
AcDbBlockEnd
  0
ENDSEC
  0
SECTION
  2
ENTITIES
  0
SPLINE
  5
83
330
1F
100
AcDbEntity
  8
0
  6
Continuous
 62
     7
370
    25
100
AcDbSpline
210
0.0
220
0.0
230
1.0
 70
     8
 71
     3
 72
    46
 73
    42
 74
     0
 42
0.000000001
 43
0.00000001
 40
0.0
 40
0.0
 40
0.0
 40
0.0
 40
0.0624999999999997
 40
0.0624999999999997
 40
0.1249999999999994
 40
0.1249999999999994
 40
0.1874999999999991
 40
0.1874999999999991
 40
0.2187499999999988
 40
0.2187499999999988
 40
0.2499999999999986
 40
0.2499999999999986
 40
0.3124999999999986
 40
0.3124999999999986
 40
0.3749999999999987
 40
0.3749999999999987
 40
0.4062499999999988
 40
0.4062499999999988
 40
0.4374999999999988
 40
0.4374999999999988
 40
0.4999999999999989
 40
0.4999999999999989
 40
0.562499999999999
 40
0.562499999999999
 40
0.5937499999999992
 40
0.5937499999999992
 40
0.6249999999999993
 40
0.6249999999999993
 40
0.6874999999999997
 40
0.6874999999999997
 40
0.75
 40
0.75
 40
0.78125
 40
0.78125
 40
0.8125
 40
0.8125
 40
0.875
 40
0.875
 40
0.9375
 40
0.9375
 40
1.0
 40
1.0
 40
1.0
 40
1.0
 10
48.79486790047757
 20
242.9425298110733
 30
0.0
 10
47.26059935324264
 20
244.6858931251481
 30
0.0
 10
45.64721814944041
 20
246.3313286964911
 30
0.0
 10
42.26806396590708
 20
249.4335039435693
 30
0.0
 10
40.50227516358677
 20
250.8902214413221
 30
0.0
 10
36.81876047285014
 20
253.6155556626674
 30
0.0
 10
34.90104816576741
 20
254.8841877469521
 30
0.0
 10
31.90692799557401
 20
256.6417447896268
 30
0.0
 10
30.88871116966498
 20
257.2033300017179
 30
0.0
 10
28.83738785189587
 20
258.2643845147939
 30
0.0
 10
27.80128651037407
 20
258.7656933245883
 30
0.0
 10
24.66216434031673
 20
260.1834746774984
 30
0.0
 10
22.52840975174539
 20
261.0140410383219
 30
0.0
 10
18.17943207788095
 20
262.4479839473964
 30
0.0
 10
15.96421190182373
 20
263.0513705423066
 30
0.0
 10
12.57862797312311
 20
263.7817447671445
 30
0.0
 10
11.4361701726817
 20
263.9965291855785
 30
0.0
 10
9.148731152607322
 20
264.3633626709828
 30
0.0
 10
8.004831066026997
 20
264.5154736374365
 30
0.0
 10
4.572599757538601
 20
264.8797808850412
 30
0.0
 10
2.283738918449469
 20
265.000204682349
 30
0.0
 10
-2.295375473175475
 20
264.9997947968458
 30
0.0
 10
-4.585629011273041
 20
264.8789636559791
 30
0.0
 10
-8.022073236071556
 20
264.513357691418
 30
0.0
 10
-9.167732324405009
 20
264.3606987520587
 30
0.0
 10
-11.4594137187997
 20
263.9924112457608
 30
0.0
 10
-12.5975938931493
 20
263.7779714564935
 30
0.0
 10
-15.97810873782465
 20
263.0477287550494
 30
0.0
 10
-18.19155060560628
 20
262.4444455885523
 30
0.0
 10
-22.53977779984825
 20
261.0098329372526
 30
0.0
 10
-24.67456208426291
 20
260.1784985209523
 30
0.0
 10
-27.81711740018651
 20
258.7582283949733
 30
0.0
 10
-28.85467853397371
 20
258.2558666962249
 30
0.0
 10
-30.90952152116342
 20
257.1921319515195
 30
0.0
 10
-31.92776031407167
 20
256.629954822625
 30
0.0
 10
-34.91498378103119
 20
254.8751178141032
 30
0.0
 10
-36.8291260050783
 20
253.6083010764939
 30
0.0
 10
-40.50716429456252
 20
250.8861877862675
 30
0.0
 10
-42.27104878870428
 20
249.4308781621323
 30
0.0
 10
-45.64775573795055
 20
246.3307206685261
 30
0.0
 10
-47.26059566316516
 20
244.685897318121
 30
0.0
 10
-48.79486790047821
 20
242.9425298110731
 30
0.0
  0
SPLINE
  5
84
330
1F
100
AcDbEntity
  8
0
  6
Continuous
 62
     7
370
    25
100
AcDbSpline
210
0.0
220
0.0
230
1.0
 70
     8
 71
     3
 72
     8
 73
     4
 74
     0
 42
0.000000001
 43
0.00000001
 40
0.0
 40
0.0
 40
0.0
 40
0.0
 40
1.0
 40
1.0
 40
1.0
 40
1.0
 10
-48.79486790047815
 20
242.9425298110732
 30
0.0
 10
-50.78249439544765
 20
240.5380174880167
 30
0.0
 10
-52.60422173988192
 20
238.0137762145503
 30
0.0
 10
-54.25382942381516
 20
235.3654013123292
 30
0.0
  0
SPLINE
  5
87
330
1F
100
AcDbEntity
  8
0
  6
Continuous
 62
     7
370
    25
100
AcDbSpline
210
0.0
220
0.0
230
1.0
 70
     8
 71
     3
 72
     8
 73
     4
 74
     0
 42
0.000000001
 43
0.00000001
 40
0.0
 40
0.0
 40
0.0
 40
0.0
 40
1.0
 40
1.0
 40
1.0
 40
1.0
 10
54.2538294238148
 20
235.3654013123291
 30
0.0
 10
52.60422173988153
 20
238.0137762145503
 30
0.0
 10
50.78249439544716
 20
240.5380174880168
 30
0.0
 10
48.79486790047758
 20
242.9425298110733
 30
0.0
  0
SPLINE
  5
89
330
1F
100
AcDbEntity
  8
0
  6
Continuous
 62
     7
370
    25
100
AcDbSpline
210
0.0
220
0.0
230
1.0
 70
     8
 71
     3
 72
    34
 73
    30
 74
     0
 42
0.000000001
 43
0.00000001
 40
0.0
 40
0.0
 40
0.0
 40
0.0
 40
0.1249999999999987
 40
0.1249999999999987
 40
0.2499999999999973
 40
0.2499999999999973
 40
0.2812499999999975
 40
0.2812499999999975
 40
0.3124999999999977
 40
0.3124999999999977
 40
0.3749999999999981
 40
0.3749999999999981
 40
0.499999999999998
 40
0.499999999999998
 40
0.531249999999998
 40
0.531249999999998
 40
0.562499999999998
 40
0.562499999999998
 40
0.6249999999999981
 40
0.6249999999999981
 40
0.7499999999999982
 40
0.7499999999999982
 40
0.7812499999999984
 40
0.7812499999999984
 40
0.8124999999999987
 40
0.8124999999999987
 40
0.8749999999999991
 40
0.8749999999999991
 40
1.0
 40
1.0
 40
1.0
 40
1.0
 10
-54.25382942381522
 20
235.3654013123292
 30
0.0
 10
-56.18548390979593
 20
232.4354428339343
 30
0.0
 10
-57.85103360511911
 20
229.3884645401091
 30
0.0
 10
-60.67008594913759
 20
223.069332520182
 30
0.0
 10
-61.82358971380217
 20
219.7971792896897
 30
0.0
 10
-62.93244545356651
 20
215.5605379382101
 30
0.0
 10
-63.13710669175585
 20
214.7068286423798
 30
0.0
 10
-63.50923737385876
 20
213.000418309453
 30
0.0
 10
-63.67721673920787
 20
212.1458283678737
 30
0.0
 10
-64.12768268635685
 20
209.5779643813622
 30
0.0
 10
-64.35677942440628
 20
207.8606024827836
 30
0.0
 10
-64.8336063957364
 20
202.692402186867
 30
0.0
 10
-64.87230785193815
 20
199.2255590176703
 30
0.0
 10
-64.56154947753085
 20
194.8645057134274
 30
0.0
 10
-64.48109533562958
 20
193.9893305301888
 30
0.0
 10
-64.28529128837624
 20
192.2511850759686
 30
0.0
 10
-64.1699019121031
 20
191.3867545741588
 30
0.0
 10
-63.77213945296731
 20
188.80715926862
 30
0.0
 10
-63.43825343770167
 20
187.1056690646811
 30
0.0
 10
-62.23431412592551
 20
182.0548946004
 30
0.0
 10
-61.16340481181276
 20
178.7589279204689
 30
0.0
 10
-59.48183040565855
 20
174.7299994342047
 30
0.0
 10
-59.1275186584031
 20
173.9272266418397
 30
0.0
 10
-58.38757391295894
 20
172.3390586520033
 30
0.0
 10
-58.00251154661346
 20
171.5546947920955
 30
0.0
 10
-56.80271401680935
 20
169.2303386989529
 30
0.0
 10
-55.94343965845758
 20
167.7190360685557
 30
0.0
 10
-53.1899687223283
 20
163.298269833697
 30
0.0
 10
-51.12133234316578
 20
160.5011695930357
 30
0.0
 10
-48.81231317424601
 20
157.858908787588
 30
0.0
  0
SPLINE
  5
8B
330
1F
100
AcDbEntity
  8
0
  6
Continuous
 62
     7
370
    25
100
AcDbSpline
210
0.0
220
0.0
230
1.0
 70
     8
 71
     3
 72
    32
 73
    28
 74
     0
 42
0.000000001
 43
0.00000001
 40
0.0
 40
0.0
 40
0.0
 40
0.0
 40
0.1250000000000026
 40
0.1250000000000026
 40
0.2500000000000052
 40
0.2500000000000052
 40
0.2812500000000057
 40
0.2812500000000057
 40
0.3125000000000061
 40
0.3125000000000061
 40
0.3750000000000061
 40
0.3750000000000061
 40
0.5000000000000059
 40
0.5000000000000059
 40
0.5312500000000059
 40
0.5312500000000059
 40
0.5625000000000059
 40
0.5625000000000059
 40
0.6250000000000048
 40
0.6250000000000048
 40
0.7500000000000027
 40
0.7500000000000027
 40
0.812500000000002
 40
0.812500000000002
 40
0.8750000000000012
 40
0.8750000000000012
 40
1.0
 40
1.0
 40
1.0
 40
1.0
 10
48.81231317424569
 20
157.8589087875881
 30
0.0
 10
51.12145846190587
 20
160.5013139134506
 30
0.0
 10
53.18588012645652
 20
163.2936005057667
 30
0.0
 10
56.84555392397564
 20
169.1655182241223
 30
0.0
 10
58.44076279338935
 20
172.2451759292078
 30
0.0
 10
60.13023478871468
 20
176.2812665416276
 30
0.0
 10
60.4529274841114
 20
177.0984769166466
 30
0.0
 10
61.06166269939357
 20
178.7367708936678
 30
0.0
 10
61.34850521779508
 20
179.5596701979947
 30
0.0
 10
62.15719717043803
 20
182.0394668091627
 30
0.0
 10
62.62730712283407
 20
183.7074422065472
 30
0.0
 10
63.83324595592421
 20
188.7551323487472
 30
0.0
 10
64.36597216366508
 20
192.1783353660518
 30
0.0
 10
64.6813852465489
 20
196.5323908396887
 30
0.0
 10
64.72687492640354
 20
197.4088357252521
 30
0.0
 10
64.78158402998689
 20
199.1601077213754
 30
0.0
 10
64.7908442035209
 20
200.0333861076939
 30
0.0
 10
64.76522095525137
 20
202.6462630482072
 30
0.0
 10
64.67702602613954
 20
204.3789154029344
 30
0.0
 10
64.202882246207
 20
209.5495682958599
 30
0.0
 10
63.60861574448715
 20
212.9604265148556
 30
0.0
 10
62.29054481810684
 20
218.0211218164445
 30
0.0
 10
61.77716620475005
 20
219.7048914800802
 30
0.0
 10
60.62111879234642
 20
223.0017790596309
 30
0.0
 10
59.97785507333747
 20
224.619385074296
 30
0.0
 10
57.85568920287974
 20
229.3812714707301
 30
0.0
 10
56.18564285211011
 20
232.4352017481779
 30
0.0
 10
54.25382942381472
 20
235.3654013123291
 30
0.0
  0
SPLINE
  5
8C
330
1F
100
AcDbEntity
  8
0
  6
Continuous
 62
     7
370
    25
100
AcDbSpline
210
0.0
220
0.0
230
1.0
 70
     8
 71
     3
 72
    48
 73
    44
 74
     0
 42
0.000000001
 43
0.00000001
 40
0.0
 40
0.0
 40
0.0
 40
0.0
 40
0.0625
 40
0.0625
 40
0.1249999999999999
 40
0.1249999999999999
 40
0.1874999999999999
 40
0.1874999999999999
 40
0.2031250000000001
 40
0.2031250000000001
 40
0.2187500000000002
 40
0.2187500000000002
 40
0.2500000000000007
 40
0.2500000000000007
 40
0.3125000000000011
 40
0.3125000000000011
 40
0.3750000000000015
 40
0.3750000000000015
 40
0.4062500000000016
 40
0.4062500000000016
 40
0.4375000000000017
 40
0.4375000000000017
 40
0.5000000000000019
 40
0.5000000000000019
 40
0.5625000000000021
 40
0.5625000000000021
 40
0.5937500000000022
 40
0.5937500000000022
 40
0.6250000000000022
 40
0.6250000000000022
 40
0.6875000000000023
 40
0.6875000000000023
 40
0.7500000000000023
 40
0.7500000000000023
 40
0.7812500000000022
 40
0.7812500000000022
 40
0.8125000000000021
 40
0.8125000000000021
 40
0.8750000000000013
 40
0.8750000000000013
 40
0.9375000000000007
 40
0.9375000000000007
 40
1.0
 40
1.0
 40
1.0
 40
1.0
 10
-48.81231317424605
 20
157.858908787588
 30
0.0
 10
-47.29395023114743
 20
156.0872363842688
 30
0.0
 10
-45.69372229305796
 20
154.4140339845611
 30
0.0
 10
-42.33543053923315
 20
151.2574792633071
 30
0.0
 10
-40.5773528826622
 20
149.7741436016397
 30
0.0
 10
-36.9036052148926
 20
146.9970291848508
 30
0.0
 10
-34.98794336941692
 20
145.7032405901925
 30
0.0
 10
-32.49154322980961
 20
144.2084802165818
 30
0.0
 10
-31.98647316161775
 20
143.9153027277723
 30
0.0
 10
-30.97168262238486
 20
143.3445432478518
 30
0.0
 10
-30.4615019767155
 20
143.0666605970027
 30
0.0
 10
-28.92269956241901
 20
142.2552464487159
 30
0.0
 10
-27.88582404007597
 20
141.7439306617856
 30
0.0
 10
-24.74270539687274
 20
140.2974385041807
 30
0.0
 10
-22.60405861366979
 20
139.4494793400493
 30
0.0
 10
-18.24083840509813
 20
137.984839460049
 30
0.0
 10
-16.01626435147367
 20
137.3681603965142
 30
0.0
 10
-12.61309590834399
 20
136.6216130788761
 30
0.0
 10
-11.46453531979786
 20
136.4021982998417
 30
0.0
 10
-9.170560200321809
 20
136.028399904421
 30
0.0
 10
-8.023013466090564
 20
135.8733720947908
 30
0.0
 10
-4.578727405386266
 20
135.5020979808386
 30
0.0
 10
-2.280346476705321
 20
135.3794183650612
 30
0.0
 10
2.320745559756504
 20
135.3808670879878
 30
0.0
 10
4.623456530856413
 20
135.5049876347949
 30
0.0
 10
8.0808466194613
 20
135.88060611964
 30
0.0
 10
9.236902153362665
 20
136.0379709753072
 30
0.0
 10
11.53529667277798
 20
136.4150441094972
 30
0.0
 10
12.67440533965987
 20
136.6340283910131
 30
0.0
 10
16.06211459577043
 20
137.3803656478518
 30
0.0
 10
18.28118535822066
 20
137.996840733279
 30
0.0
 10
22.6418154134587
 20
139.4637237009728
 30
0.0
 10
24.78338065345307
 20
140.3141136735675
 30
0.0
 10
27.93654139495509
 20
141.7683281668219
 30
0.0
 10
28.9777102401111
 20
142.2828989383012
 30
0.0
 10
31.03983244711254
 20
143.373051851411
 30
0.0
 10
32.05215364804337
 20
143.9441219864272
 30
0.0
 10
35.0279895562278
 20
145.7298567963312
 30
0.0
 10
36.93339384627873
 20
147.0183276958259
 30
0.0
 10
40.59141452231717
 20
149.786007752541
 30
0.0
 10
42.34402868060791
 20
151.2652197087628
 30
0.0
 10
45.69529201474158
 20
154.4158516418831
 30
0.0
 10
47.29396014194798
 20
156.087247948495
 30
0.0
 10
48.81231317424569
 20
157.8589087875881
 30
0.0
  0
CIRCLE
  5
8D
330
1F
100
AcDbEntity
  8
0
  6
Continuous
 62
     7
370
    25
100
AcDbCircle
 10
0.0
 20
200.0
 30
0.0
 40
44.99999999999997
  0
LINE
  5
8E
330
1F
100
AcDbEntity
  8
0
  6
Continuous
 62
     7
370
    25
100
AcDbLine
 10
-450.0
 20
-350.0
 30
0.0
 11
450.0
 21
-350.0
 31
0.0
  0
LINE
  5
8F
330
1F
100
AcDbEntity
  8
0
  6
Continuous
 62
     7
370
    25
100
AcDbLine
 10
499.9
 20
-399.9
 30
0.0
 11
450.0
 21
-350.0
 31
0.0
  0
LINE
  5
90
330
1F
100
AcDbEntity
  8
0
  6
Continuous
 62
     7
370
    25
100
AcDbLine
 10
499.9
 20
-399.9
 30
0.0
 11
-499.9
 21
-399.9
 31
0.0
  0
LINE
  5
91
330
1F
100
AcDbEntity
  8
0
  6
Continuous
 62
     7
370
    25
100
AcDbLine
 10
-450.0
 20
-350.0
 30
0.0
 11
-499.9
 21
-399.9
 31
0.0
  0
LINE
  5
92
330
1F
100
AcDbEntity
  8
0
  6
Continuous
 62
     7
370
    25
100
AcDbLine
 10
-500.0
 20
400.0
 30
0.0
 11
-500.0
 21
-400.0
 31
0.0
  0
LINE
  5
93
330
1F
100
AcDbEntity
  8
0
  6
Continuous
 62
     7
370
    25
100
AcDbLine
 10
-499.9
 20
399.9
 30
0.0
 11
499.9
 21
399.9
 31
0.0
  0
LINE
  5
94
330
1F
100
AcDbEntity
  8
0
  6
Continuous
 62
     7
370
    25
100
AcDbLine
 10
-499.9
 20
-399.9
 30
0.0
 11
-499.9
 21
399.9
 31
0.0
  0
LINE
  5
95
330
1F
100
AcDbEntity
  8
0
  6
Continuous
 62
     7
370
    25
100
AcDbLine
 10
499.9
 20
399.9
 30
0.0
 11
499.9
 21
-399.9
 31
0.0
  0
LINE
  5
96
330
1F
100
AcDbEntity
  8
0
  6
Continuous
 62
     7
370
    25
100
AcDbLine
 10
500.0
 20
400.0
 30
0.0
 11
-500.0
 21
400.0
 31
0.0
  0
LINE
  5
97
330
1F
100
AcDbEntity
  8
0
  6
Continuous
 62
     7
370
    25
100
AcDbLine
 10
500.0
 20
-400.0
 30
0.0
 11
500.0
 21
400.0
 31
0.0
  0
LINE
  5
98
330
1F
100
AcDbEntity
  8
0
  6
Continuous
 62
     7
370
    25
100
AcDbLine
 10
-500.0
 20
-400.0
 30
0.0
 11
500.0
 21
-400.0
 31
0.0
  0
LINE
  5
99
330
1F
100
AcDbEntity
  8
0
  6
Continuous
 62
     7
370
    25
100
AcDbLine
 10
-450.0
 20
350.0
 30
0.0
 11
-450.0
 21
-350.0
 31
0.0
  0
LINE
  5
9A
330
1F
100
AcDbEntity
  8
0
  6
Continuous
 62
     7
370
    25
100
AcDbLine
 10
-450.0
 20
350.0
 30
0.0
 11
-499.9
 21
399.9
 31
0.0
  0
LINE
  5
9B
330
1F
100
AcDbEntity
  8
0
  6
Continuous
 62
     7
370
    25
100
AcDbLine
 10
450.0
 20
350.0
 30
0.0
 11
-450.0
 21
350.0
 31
0.0
  0
LINE
  5
9C
330
1F
100
AcDbEntity
  8
0
  6
Continuous
 62
     7
370
    25
100
AcDbLine
 10
499.9
 20
399.9
 30
0.0
 11
450.0
 21
350.0
 31
0.0
  0
LINE
  5
9D
330
1F
100
AcDbEntity
  8
0
  6
Continuous
 62
     7
370
    25
100
AcDbLine
 10
450.0
 20
-350.0
 30
0.0
 11
450.0
 21
350.0
 31
0.0
  0
LINE
  5
9E
330
1F
100
AcDbEntity
  8
0
  6
Continuous
 62
     7
370
    25
100
AcDbLine
 10
-54.2538294238
 20
235.3654013123
 30
0.0
 11
-450.0
 21
350.0
 31
0.0
  0
LINE
  5
9F
330
1F
100
AcDbEntity
  8
0
  6
Continuous
 62
     7
370
    25
100
AcDbLine
 10
450.0
 20
350.0
 30
0.0
 11
54.2538294238
 21
235.3654013123
 31
0.0
  0
LINE
  5
A0
330
1F
100
AcDbEntity
  8
0
  6
Continuous
 62
     7
370
    25
100
AcDbLine
 10
-450.0
 20
-350.0
 30
0.0
 11
-48.8123131742
 21
157.8589087876
 31
0.0
  0
LINE
  5
A1
330
1F
100
AcDbEntity
  8
0
  6
Continuous
 62
     7
370
    25
100
AcDbLine
 10
450.0
 20
-350.0
 30
0.0
 11
48.8123131742
 21
157.8589087876
 31
0.0
  0
LINE
  5
A6
330
1B
100
AcDbEntity
 67
     1
  8
0
  6
Continuous
 62
     7
370
    25
100
AcDbLine
 10
-500.0
 20
50.0
 30
0.0
 11
-500.0
 21
0.0
 31
0.0
  0
LINE
  5
A7
330
1B
100
AcDbEntity
 67
     1
  8
0
  6
Continuous
 62
     7
370
    25
100
AcDbLine
 10
-500.0
 20
50.0
 30
0.0
 11
500.0
 21
50.0
 31
0.0
  0
LINE
  5
A8
330
1B
100
AcDbEntity
 67
     1
  8
0
  6
Continuous
 62
     7
370
    25
100
AcDbLine
 10
500.0
 20
50.0
 30
0.0
 11
500.0
 21
0.0
 31
0.0
  0
LINE
  5
A9
330
1B
100
AcDbEntity
 67
     1
  8
0
  6
Continuous
 62
     7
370
    25
100
AcDbLine
 10
-500.0
 20
0.0
 30
0.0
 11
500.0
 21
0.0
 31
0.0
  0
VIEWPORT
  5
1B1
330
1B
100
AcDbEntity
 67
     1
  8
0
100
AcDbViewport
 10
0.0
 20
0.0
 30
0.0
 40
205.6
 41
156.0
 68
     1
 69
     1
 12
0.0
 22
0.0
 13
0.0
 23
0.0
 14
10.0
 24
10.0
 15
10.0
 25
10.0
 16
0.0
 26
0.0
 36
1.0
 17
0.0
 27
0.0
 37
0.0
 42
50.0
 43
0.0
 44
0.0
 45
816.0
 50
0.0
 51
0.0
 72
   100
 90
   557152
  1

281
     0
 71
     1
 74
     0
110
0.0
120
0.0
130
0.0
111
1.0
121
0.0
131
0.0
112
0.0
122
1.0
132
0.0
 79
     0
146
0.0
  0
ENDSEC
  0
SECTION
  2
OBJECTS
  0
DICTIONARY
  5
C
330
0
100
AcDbDictionary
281
     1
  3
ACAD_GROUP
350
D
  3
ACAD_LAYOUT
350
1A
  3
ACAD_MLINESTYLE
350
17
  3
ACAD_PLOTSETTINGS
350
19
  3
ACAD_PLOTSTYLENAME
350
E
  3
ACAD_SCALELIST
350
47
  0
DICTIONARY
  5
D
102
{ACAD_REACTORS
330
C
102
}
330
C
100
AcDbDictionary
281
     1
  0
DICTIONARY
  5
1A
102
{ACAD_REACTORS
330
C
102
}
330
C
100
AcDbDictionary
281
     1
  3
_Dimetrisch
350
16D
  3
_Isometrisch
350
E4
  3
_Links
350
CB
  3
_Normal auf
350
B3
  3
_Rechts
350
26
  3
_Rückseite
350
BF
  3
_Trimetrisch
350
128
  3
_Unten
350
D7
  3
_Vorderseite
350
1E
  3
Model
350
22
  0
DICTIONARY
  5
17
102
{ACAD_REACTORS
330
C
102
}
330
C
100
AcDbDictionary
281
     1
  3
Standard
350
18
  0
DICTIONARY
  5
19
102
{ACAD_REACTORS
330
C
102
}
330
C
100
AcDbDictionary
281
     1
  0
ACDBDICTIONARYWDFLT
  5
E
102
{ACAD_REACTORS
330
C
102
}
330
C
100
AcDbDictionary
281
     1
  3
Normal
350
F
100
AcDbDictionaryWithDefault
340
F
  0
DICTIONARY
  5
47
102
{ACAD_REACTORS
330
C
102
}
330
C
100
AcDbDictionary
281
     1
  3
A0
350
48
  3
A1
350
49
  3
A2
350
4A
  3
A3
350
4B
  3
A4
350
4C
  3
A5
350
4D
  3
A6
350
4E
  3
A7
350
4F
  3
A8
350
50
  3
A9
350
51
  3
B0
350
52
  3
B1
350
53
  3
B2
350
54
  3
B3
350
55
  3
B4
350
56
  3
B5
350
57
  3
B6
350
58
  3
B7
350
59
  3
B8
350
5A
  3
B9
350
5B
  3
C0
350
5C
  3
C1
350
5D
  3
C2
350
5E
  3
C3
350
5F
  3
C4
350
60
  3
C5
350
61
  3
C6
350
62
  3
C7
350
63
  3
C8
350
64
  3
C9
350
65
  3
D0
350
66
  3
D1
350
67
  3
D2
350
68
  0
LAYOUT
  5
16D
102
{ACAD_REACTORS
330
1A
102
}
330
1A
100
AcDbPlotSettings
  1

  2
none_device
  4
ISO_A4_(210.00_x_297.00_MM)
  6

 40
7.5
 41
20.0
 42
7.5
 43
20.0
 44
210.0
 45
297.0
 46
0.0
 47
0.0
 48
0.0
 49
0.0
140
0.0
141
0.0
142
1.0
143
3.8910505837
 70
   688
 72
     1
 73
     1
 74
     1
  7

 75
     0
147
0.257
148
500.0
149
0.0
100
AcDbLayout
  1
_Dimetrisch
 70
     1
 71
     9
 10
0.0
 20
0.0
 11
0.0
 21
0.0
 12
0.0
 22
0.0
 32
0.0
 14
0.0
 24
0.0
 34
0.0
 15
0.0
 25
0.0
 35
0.0
146
0.0
 13
0.0
 23
0.0
 33
0.0
 16
1.0
 26
0.0
 36
0.0
 17
0.0
 27
1.0
 37
0.0
 76
     0
330
16C
331
1C1
  0
LAYOUT
  5
E4
102
{ACAD_REACTORS
330
1A
102
}
330
1A
100
AcDbPlotSettings
  1

  2
none_device
  4
ISO_A4_(210.00_x_297.00_MM)
  6

 40
7.5
 41
20.0
 42
7.5
 43
20.0
 44
210.0
 45
297.0
 46
0.0
 47
0.0
 48
0.0
 49
0.0
140
0.0
141
0.0
142
1.0
143
3.8910505837
 70
   688
 72
     1
 73
     1
 74
     1
  7

 75
     0
147
0.257
148
500.0
149
0.0
100
AcDbLayout
  1
_Isometrisch
 70
     1
 71
     7
 10
0.0
 20
0.0
 11
0.0
 21
0.0
 12
0.0
 22
0.0
 32
0.0
 14
0.0
 24
0.0
 34
0.0
 15
0.0
 25
0.0
 35
0.0
146
0.0
 13
0.0
 23
0.0
 33
0.0
 16
1.0
 26
0.0
 36
0.0
 17
0.0
 27
1.0
 37
0.0
 76
     0
330
E3
331
1BD
  0
LAYOUT
  5
CB
102
{ACAD_REACTORS
330
1A
102
}
330
1A
100
AcDbPlotSettings
  1

  2
none_device
  4
ISO_A4_(210.00_x_297.00_MM)
  6

 40
7.5
 41
20.0
 42
7.5
 43
20.0
 44
210.0
 45
297.0
 46
0.0
 47
0.0
 48
0.0
 49
0.0
140
0.0
141
0.0
142
1.0
143
3.8910505837
 70
   688
 72
     1
 73
     1
 74
     1
  7

 75
     0
147
0.257
148
500.0
149
0.0
100
AcDbLayout
  1
_Links
 70
     1
 71
     5
 10
0.0
 20
0.0
 11
0.0
 21
0.0
 12
0.0
 22
0.0
 32
0.0
 14
0.0
 24
0.0
 34
0.0
 15
0.0
 25
0.0
 35
0.0
146
0.0
 13
0.0
 23
0.0
 33
0.0
 16
1.0
 26
0.0
 36
0.0
 17
0.0
 27
1.0
 37
0.0
 76
     0
330
CA
331
1B9
  0
LAYOUT
  5
B3
102
{ACAD_REACTORS
330
1A
102
}
330
1A
100
AcDbPlotSettings
  1

  2
none_device
  4
ISO_A4_(210.00_x_297.00_MM)
  6

 40
7.5
 41
20.0
 42
7.5
 43
20.0
 44
210.0
 45
297.0
 46
0.0
 47
0.0
 48
0.0
 49
0.0
140
0.0
141
0.0
142
1.0
143
3.8910505837
 70
   688
 72
     1
 73
     1
 74
     1
  7

 75
     0
147
0.257
148
500.0
149
0.0
100
AcDbLayout
  1
_Normal auf
 70
     1
 71
     3
 10
0.0
 20
0.0
 11
0.0
 21
0.0
 12
0.0
 22
0.0
 32
0.0
 14
0.0
 24
0.0
 34
0.0
 15
0.0
 25
0.0
 35
0.0
146
0.0
 13
0.0
 23
0.0
 33
0.0
 16
1.0
 26
0.0
 36
0.0
 17
0.0
 27
1.0
 37
0.0
 76
     0
330
B2
331
1B5
  0
LAYOUT
  5
26
102
{ACAD_REACTORS
330
1A
102
}
330
1A
100
AcDbPlotSettings
  1

  2
none_device
  4
ISO_A4_(210.00_x_297.00_MM)
  6

 40
7.5
 41
20.0
 42
7.5
 43
20.0
 44
210.0
 45
297.0
 46
0.0
 47
0.0
 48
0.0
 49
0.0
140
0.0
141
0.0
142
1.0
143
3.8910505837
 70
   688
 72
     1
 73
     1
 74
     1
  7

 75
     0
147
0.257
148
500.0
149
0.0
100
AcDbLayout
  1
_Rechts
 70
     1
 71
     2
 10
0.0
 20
0.0
 11
0.0
 21
0.0
 12
0.0
 22
0.0
 32
0.0
 14
0.0
 24
0.0
 34
0.0
 15
0.0
 25
0.0
 35
0.0
146
0.0
 13
0.0
 23
0.0
 33
0.0
 16
1.0
 26
0.0
 36
0.0
 17
0.0
 27
1.0
 37
0.0
 76
     0
330
23
331
1B3
  0
LAYOUT
  5
BF
102
{ACAD_REACTORS
330
1A
102
}
330
1A
100
AcDbPlotSettings
  1

  2
none_device
  4
ISO_A4_(210.00_x_297.00_MM)
  6

 40
7.5
 41
20.0
 42
7.5
 43
20.0
 44
210.0
 45
297.0
 46
0.0
 47
0.0
 48
0.0
 49
0.0
140
0.0
141
0.0
142
1.0
143
3.8910505837
 70
   688
 72
     1
 73
     1
 74
     1
  7

 75
     0
147
0.257
148
500.0
149
0.0
100
AcDbLayout
  1
_Rückseite
 70
     1
 71
     4
 10
0.0
 20
0.0
 11
0.0
 21
0.0
 12
0.0
 22
0.0
 32
0.0
 14
0.0
 24
0.0
 34
0.0
 15
0.0
 25
0.0
 35
0.0
146
0.0
 13
0.0
 23
0.0
 33
0.0
 16
1.0
 26
0.0
 36
0.0
 17
0.0
 27
1.0
 37
0.0
 76
     0
330
BE
331
1B7
  0
LAYOUT
  5
128
102
{ACAD_REACTORS
330
1A
102
}
330
1A
100
AcDbPlotSettings
  1

  2
none_device
  4
ISO_A4_(210.00_x_297.00_MM)
  6

 40
7.5
 41
20.0
 42
7.5
 43
20.0
 44
210.0
 45
297.0
 46
0.0
 47
0.0
 48
0.0
 49
0.0
140
0.0
141
0.0
142
1.0
143
3.8910505837
 70
   688
 72
     1
 73
     1
 74
     1
  7

 75
     0
147
0.257
148
500.0
149
0.0
100
AcDbLayout
  1
_Trimetrisch
 70
     1
 71
     8
 10
0.0
 20
0.0
 11
0.0
 21
0.0
 12
0.0
 22
0.0
 32
0.0
 14
0.0
 24
0.0
 34
0.0
 15
0.0
 25
0.0
 35
0.0
146
0.0
 13
0.0
 23
0.0
 33
0.0
 16
1.0
 26
0.0
 36
0.0
 17
0.0
 27
1.0
 37
0.0
 76
     0
330
127
331
1BF
  0
LAYOUT
  5
D7
102
{ACAD_REACTORS
330
1A
102
}
330
1A
100
AcDbPlotSettings
  1

  2
none_device
  4
ISO_A4_(210.00_x_297.00_MM)
  6

 40
7.5
 41
20.0
 42
7.5
 43
20.0
 44
210.0
 45
297.0
 46
0.0
 47
0.0
 48
0.0
 49
0.0
140
0.0
141
0.0
142
1.0
143
3.8910505837
 70
   688
 72
     1
 73
     1
 74
     1
  7

 75
     0
147
0.257
148
500.0
149
0.0
100
AcDbLayout
  1
_Unten
 70
     1
 71
     6
 10
0.0
 20
0.0
 11
0.0
 21
0.0
 12
0.0
 22
0.0
 32
0.0
 14
0.0
 24
0.0
 34
0.0
 15
0.0
 25
0.0
 35
0.0
146
0.0
 13
0.0
 23
0.0
 33
0.0
 16
1.0
 26
0.0
 36
0.0
 17
0.0
 27
1.0
 37
0.0
 76
     0
330
D6
331
1BB
  0
LAYOUT
  5
1E
102
{ACAD_REACTORS
330
1A
102
}
330
1A
100
AcDbPlotSettings
  1

  2
none_device
  4
ISO_A4_(210.00_x_297.00_MM)
  6

 40
7.5
 41
20.0
 42
7.5
 43
20.0
 44
210.0
 45
297.0
 46
0.0
 47
0.0
 48
0.0
 49
0.0
140
0.0
141
0.0
142
1.0
143
3.8910505837
 70
   688
 72
     1
 73
     1
 74
     1
  7

 75
     0
147
0.257
148
500.0
149
0.0
100
AcDbLayout
  1
_Vorderseite
 70
     1
 71
     1
 10
-577.8210116732
 20
-29.1828793774
 11
577.8210116732
 21
787.9377431907
 12
0.0
 22
0.0
 32
0.0
 14
-500.0
 24
0.0
 34
0.0
 15
500.0
 25
50.0
 35
0.0
146
0.0
 13
0.0
 23
0.0
 33
0.0
 16
1.0
 26
0.0
 36
0.0
 17
0.0
 27
1.0
 37
0.0
 76
     0
330
1B
331
1B1
  0
LAYOUT
  5
22
102
{ACAD_REACTORS
330
1A
102
}
330
1A
100
AcDbPlotSettings
  1

  2
none_device
  4
ANSI_A_(11.00_x_8.50_Inches)
  6

 40
6.35
 41
19.05
 42
6.35000508
 43
19.05000254
 44
279.4
 45
215.9
 46
133.34999746
 47
88.89999873
 48
0.0
 49
0.0
140
0.0
141
0.0
142
0.01051875
143
1.0
 70
  1696
 72
     0
 73
     0
 74
     0
  7

 75
     0
147
0.0179189148
148
-1300.4909072572
149
0.0
100
AcDbLayout
  1
Model
 70
     1
 71
     0
 10
0.0
 20
0.0
 11
420.0
 21
297.0
 12
0.0
 22
0.0
 32
0.0
 14
-500.0
 24
-400.0
 34
0.0
 15
500.0
 25
400.0
 35
0.0
146
0.0
 13
0.0
 23
0.0
 33
0.0
 16
1.0
 26
0.0
 36
0.0
 17
0.0
 27
1.0
 37
0.0
 76
     0
330
1F
331
29
  0
MLINESTYLE
  5
18
102
{ACAD_REACTORS
330
17
102
}
330
17
100
AcDbMlineStyle
  2
Standard
 70
     0
  3

 62
   256
 51
90.0
 52
90.0
 71
     2
 49
0.5
 62
   256
  6
BYLAYER
 49
-0.5
 62
   256
  6
BYLAYER
  0
ACDBPLACEHOLDER
  5
F
102
{ACAD_REACTORS
330
E
102
}
330
E
  0
SCALE
  5
48
102
{ACAD_REACTORS
330
47
102
}
330
47
100
AcDbScale
 70
     0
300
1:1
140
1.0
141
1.0
290
     1
  0
SCALE
  5
49
102
{ACAD_REACTORS
330
47
102
}
330
47
100
AcDbScale
 70
     0
300
1:2
140
1.0
141
2.0
290
     0
  0
SCALE
  5
4A
102
{ACAD_REACTORS
330
47
102
}
330
47
100
AcDbScale
 70
     0
300
1:4
140
1.0
141
4.0
290
     0
  0
SCALE
  5
4B
102
{ACAD_REACTORS
330
47
102
}
330
47
100
AcDbScale
 70
     0
300
1:5
140
1.0
141
5.0
290
     0
  0
SCALE
  5
4C
102
{ACAD_REACTORS
330
47
102
}
330
47
100
AcDbScale
 70
     0
300
1:8
140
1.0
141
8.0
290
     0
  0
SCALE
  5
4D
102
{ACAD_REACTORS
330
47
102
}
330
47
100
AcDbScale
 70
     0
300
1:10
140
1.0
141
10.0
290
     0
  0
SCALE
  5
4E
102
{ACAD_REACTORS
330
47
102
}
330
47
100
AcDbScale
 70
     0
300
1:16
140
1.0
141
16.0
290
     0
  0
SCALE
  5
4F
102
{ACAD_REACTORS
330
47
102
}
330
47
100
AcDbScale
 70
     0
300
1:20
140
1.0
141
20.0
290
     0
  0
SCALE
  5
50
102
{ACAD_REACTORS
330
47
102
}
330
47
100
AcDbScale
 70
     0
300
1:30
140
1.0
141
30.0
290
     0
  0
SCALE
  5
51
102
{ACAD_REACTORS
330
47
102
}
330
47
100
AcDbScale
 70
     0
300
1:40
140
1.0
141
40.0
290
     0
  0
SCALE
  5
52
102
{ACAD_REACTORS
330
47
102
}
330
47
100
AcDbScale
 70
     0
300
1:50
140
1.0
141
50.0
290
     0
  0
SCALE
  5
53
102
{ACAD_REACTORS
330
47
102
}
330
47
100
AcDbScale
 70
     0
300
1:100
140
1.0
141
100.0
290
     0
  0
SCALE
  5
54
102
{ACAD_REACTORS
330
47
102
}
330
47
100
AcDbScale
 70
     0
300
2:1
140
2.0
141
1.0
290
     0
  0
SCALE
  5
55
102
{ACAD_REACTORS
330
47
102
}
330
47
100
AcDbScale
 70
     0
300
4:1
140
4.0
141
1.0
290
     0
  0
SCALE
  5
56
102
{ACAD_REACTORS
330
47
102
}
330
47
100
AcDbScale
 70
     0
300
8:1
140
8.0
141
1.0
290
     0
  0
SCALE
  5
57
102
{ACAD_REACTORS
330
47
102
}
330
47
100
AcDbScale
 70
     0
300
10:1
140
10.0
141
1.0
290
     0
  0
SCALE
  5
58
102
{ACAD_REACTORS
330
47
102
}
330
47
100
AcDbScale
 70
     0
300
100:1
140
100.0
141
1.0
290
     0
  0
SCALE
  5
59
102
{ACAD_REACTORS
330
47
102
}
330
47
100
AcDbScale
 70
     0
300
1/128" = 1'-0"
140
0.0078125
141
12.0
290
     0
  0
SCALE
  5
5A
102
{ACAD_REACTORS
330
47
102
}
330
47
100
AcDbScale
 70
     0
300
1/64" = 1'-0"
140
0.015625
141
12.0
290
     0
  0
SCALE
  5
5B
102
{ACAD_REACTORS
330
47
102
}
330
47
100
AcDbScale
 70
     0
300
1/32" = 1'-0"
140
0.03125
141
12.0
290
     0
  0
SCALE
  5
5C
102
{ACAD_REACTORS
330
47
102
}
330
47
100
AcDbScale
 70
     0
300
1/16" = 1'-0"
140
0.0625
141
12.0
290
     0
  0
SCALE
  5
5D
102
{ACAD_REACTORS
330
47
102
}
330
47
100
AcDbScale
 70
     0
300
3/32" = 1'-0"
140
0.09375
141
12.0
290
     0
  0
SCALE
  5
5E
102
{ACAD_REACTORS
330
47
102
}
330
47
100
AcDbScale
 70
     0
300
1/8" = 1'-0"
140
0.125
141
12.0
290
     0
  0
SCALE
  5
5F
102
{ACAD_REACTORS
330
47
102
}
330
47
100
AcDbScale
 70
     0
300
3/16" = 1'-0"
140
0.1875
141
12.0
290
     0
  0
SCALE
  5
60
102
{ACAD_REACTORS
330
47
102
}
330
47
100
AcDbScale
 70
     0
300
1/4" = 1'-0"
140
0.25
141
12.0
290
     0
  0
SCALE
  5
61
102
{ACAD_REACTORS
330
47
102
}
330
47
100
AcDbScale
 70
     0
300
3/8" = 1'-0"
140
0.375
141
12.0
290
     0
  0
SCALE
  5
62
102
{ACAD_REACTORS
330
47
102
}
330
47
100
AcDbScale
 70
     0
300
1/2" = 1'-0"
140
0.5
141
12.0
290
     0
  0
SCALE
  5
63
102
{ACAD_REACTORS
330
47
102
}
330
47
100
AcDbScale
 70
     0
300
3/4" = 1'-0"
140
0.75
141
12.0
290
     0
  0
SCALE
  5
64
102
{ACAD_REACTORS
330
47
102
}
330
47
100
AcDbScale
 70
     0
300
1" = 1'-0"
140
1.0
141
12.0
290
     0
  0
SCALE
  5
65
102
{ACAD_REACTORS
330
47
102
}
330
47
100
AcDbScale
 70
     0
300
1-1/2" = 1'-0"
140
1.5
141
12.0
290
     0
  0
SCALE
  5
66
102
{ACAD_REACTORS
330
47
102
}
330
47
100
AcDbScale
 70
     0
300
3" = 1'-0"
140
3.0
141
12.0
290
     0
  0
SCALE
  5
67
102
{ACAD_REACTORS
330
47
102
}
330
47
100
AcDbScale
 70
     0
300
6" = 1'-0"
140
6.0
141
12.0
290
     0
  0
SCALE
  5
68
102
{ACAD_REACTORS
330
47
102
}
330
47
100
AcDbScale
 70
     0
300
1'-0" = 1'-0"
140
12.0
141
12.0
290
     0
  0
ENDSEC
  0
EOF
