  0
SECTION
  2
HEADER
  9
$ACADVER
  1
AC1015
  9
$ACADMAINTVER
 70
     6
  9
$DWGCODEPAGE
  3
ANSI_1252
  9
$INSBASE
 10
0.0
 20
0.0
 30
0.0
  9
$EXTMIN
 10
-550.0
 20
-400.0
 30
0.0
  9
$EXTMAX
 10
550.0
 20
400.0
 30
0.0
  9
$LIMMIN
 10
0.0
 20
0.0
  9
$LIMMAX
 10
420.0
 20
297.0
  9
$ORTHOMODE
 70
     0
  9
$REGENMODE
 70
     1
  9
$FILLMODE
 70
     1
  9
$QTEXTMODE
 70
     0
  9
$MIRRTEXT
 70
     1
  9
$LTSCALE
 40
1.0
  9
$ATTMODE
 70
     1
  9
$TEXTSIZE
 40
3.5
  9
$TRACEWID
 40
1.0
  9
$TEXTSTYLE
  7
STANDARD
  9
$CLAYER
  8
0
  9
$CELTYPE
  6
ByLayer
  9
$CECOLOR
 62
   256
  9
$CELTSCALE
 40
1.0
  9
$DISPSILH
 70
     0
  9
$DIMSCALE
 40
1.0
  9
$DIMASZ
 40
6.0
  9
$DIMEXO
 40
1.0
  9
$DIMDLI
 40
3.75
  9
$DIMRND
 40
0.0
  9
$DIMDLE
 40
0.0
  9
$DIMEXE
 40
1.0
  9
$DIMTP
 40
0.0
  9
$DIMTM
 40
0.0
  9
$DIMTXT
 40
3.5
  9
$DIMCEN
 40
2.5
  9
$DIMTSZ
 40
0.0
  9
$DIMTOL
 70
     0
  9
$DIMLIM
 70
     0
  9
$DIMTIH
 70
     1
  9
$DIMTOH
 70
     1
  9
$DIMSE1
 70
     0
  9
$DIMSE2
 70
     0
  9
$DIMTAD
 70
     1
  9
$DIMZIN
 70
     0
  9
$DIMBLK
  1

  9
$DIMASO
 70
     1
  9
$DIMSHO
 70
     1
  9
$DIMPOST
  1

  9
$DIMAPOST
  1

  9
$DIMALT
 70
     0
  9
$DIMALTD
 70
     3
  9
$DIMALTF
 40
0.0393700787
  9
$DIMLFAC
 40
1.0
  9
$DIMTOFL
 70
     1
  9
$DIMTVP
 40
0.0
  9
$DIMTIX
 70
     0
  9
$DIMSOXD
 70
     0
  9
$DIMSAH
 70
     0
  9
$DIMBLK1
  1

  9
$DIMBLK2
  1

  9
$DIMSTYLE
  2
ISO-25
  9
$DIMCLRD
 70
     0
  9
$DIMCLRE
 70
     0
  9
$DIMCLRT
 70
     0
  9
$DIMTFAC
 40
1.0
  9
$DIMGAP
 40
1.524
  9
$DIMJUST
 70
     0
  9
$DIMSD1
 70
     0
  9
$DIMSD2
 70
     0
  9
$DIMTOLJ
 70
     0
  9
$DIMTZIN
 70
     0
  9
$DIMALTZ
 70
     0
  9
$DIMALTTZ
 70
     0
  9
$DIMUPT
 70
     0
  9
$DIMDEC
 70
     2
  9
$DIMTDEC
 70
     2
  9
$DIMALTU
 70
     2
  9
$DIMALTTD
 70
     3
  9
$DIMTXSTY
  7
STANDARD
  9
$DIMAUNIT
 70
     0
  9
$DIMADEC
 70
     2
  9
$DIMALTRND
 40
0.0
  9
$DIMAZIN
 70
     0
  9
$DIMDSEP
 70
    44
  9
$DIMATFIT
 70
     3
  9
$DIMFRAC
 70
     0
  9
$DIMLDRBLK
  1

  9
$DIMLUNIT
 70
     2
  9
$DIMLWD
 70
    -2
  9
$DIMLWE
 70
    -2
  9
$DIMTMOVE
 70
     0
  9
$LUNITS
 70
     2
  9
$LUPREC
 70
     2
  9
$SKETCHINC
 40
1.0
  9
$FILLETRAD
 40
10.0
  9
$AUNITS
 70
     0
  9
$AUPREC
 70
     2
  9
$MENU
  1
.
  9
$ELEVATION
 40
0.0
  9
$PELEVATION
 40
0.0
  9
$THICKNESS
 40
0.0
  9
$LIMCHECK
 70
     0
  9
$CHAMFERA
 40
0.0
  9
$CHAMFERB
 40
0.0
  9
$CHAMFERC
 40
0.0
  9
$CHAMFERD
 40
0.0
  9
$SKPOLY
 70
     0
  9
$TDCREATE
 40
2458232.440432535
  9
$TDUCREATE
 40
2458232.357099202
  9
$TDUPDATE
 40
2458232.440459653
  9
$TDUUPDATE
 40
2458232.357126319
  9
$TDINDWG
 40
0.0000000116
  9
$TDUSRTIMER
 40
0.0000000116
  9
$USRTIMER
 70
     1
  9
$ANGBASE
 50
0.0
  9
$ANGDIR
 70
     0
  9
$PDMODE
 70
     0
  9
$PDSIZE
 40
-1.0
  9
$PLINEWID
 40
0.0
  9
$SPLFRAME
 70
     0
  9
$SPLINETYPE
 70
     6
  9
$SPLINESEGS
 70
     8
  9
$HANDSEED
  5
1C3
  9
$SURFTAB1
 70
     6
  9
$SURFTAB2
 70
     6
  9
$SURFTYPE
 70
     6
  9
$SURFU
 70
     6
  9
$SURFV
 70
     6
  9
$UCSBASE
  2

  9
$UCSNAME
  2

  9
$UCSORG
 10
0.0
 20
0.0
 30
0.0
  9
$UCSXDIR
 10
1.0
 20
0.0
 30
0.0
  9
$UCSYDIR
 10
0.0
 20
1.0
 30
0.0
  9
$UCSORTHOREF
  2

  9
$UCSORTHOVIEW
 70
     0
  9
$UCSORGTOP
 10
0.0
 20
0.0
 30
0.0
  9
$UCSORGBOTTOM
 10
0.0
 20
0.0
 30
0.0
  9
$UCSORGLEFT
 10
0.0
 20
0.0
 30
0.0
  9
$UCSORGRIGHT
 10
0.0
 20
0.0
 30
0.0
  9
$UCSORGFRONT
 10
0.0
 20
0.0
 30
0.0
  9
$UCSORGBACK
 10
0.0
 20
0.0
 30
0.0
  9
$PUCSBASE
  2

  9
$PUCSNAME
  2

  9
$PUCSORG
 10
0.0
 20
0.0
 30
0.0
  9
$PUCSXDIR
 10
1.0
 20
0.0
 30
0.0
  9
$PUCSYDIR
 10
0.0
 20
1.0
 30
0.0
  9
$PUCSORTHOREF
  2

  9
$PUCSORTHOVIEW
 70
     0
  9
$PUCSORGTOP
 10
0.0
 20
0.0
 30
0.0
  9
$PUCSORGBOTTOM
 10
0.0
 20
0.0
 30
0.0
  9
$PUCSORGLEFT
 10
0.0
 20
0.0
 30
0.0
  9
$PUCSORGRIGHT
 10
0.0
 20
0.0
 30
0.0
  9
$PUCSORGFRONT
 10
0.0
 20
0.0
 30
0.0
  9
$PUCSORGBACK
 10
0.0
 20
0.0
 30
0.0
  9
$USERI1
 70
     0
  9
$USERI2
 70
     0
  9
$USERI3
 70
     0
  9
$USERI4
 70
     0
  9
$USERI5
 70
     0
  9
$USERR1
 40
0.0
  9
$USERR2
 40
0.0
  9
$USERR3
 40
0.0
  9
$USERR4
 40
0.0
  9
$USERR5
 40
0.0
  9
$WORLDVIEW
 70
     1
  9
$SHADEDGE
 70
     3
  9
$SHADEDIF
 70
    70
  9
$TILEMODE
 70
     1
  9
$MAXACTVP
 70
    64
  9
$PINSBASE
 10
0.0
 20
0.0
 30
0.0
  9
$PLIMCHECK
 70
     0
  9
$PEXTMIN
 10
-550.0
 20
0.0
 30
0.0
  9
$PEXTMAX
 10
550.0
 20
50.0
 30
0.0
  9
$PLIMMIN
 10
-635.6031128405
 20
-32.1011673152
  9
$PLIMMAX
 10
635.6031128405
 20
866.7315175097
  9
$UNITMODE
 70
     0
  9
$VISRETAIN
 70
     1
  9
$PLINEGEN
 70
     0
  9
$PSLTSCALE
 70
     1
  9
$TREEDEPTH
 70
  3020
  9
$CMLSTYLE
  2
Standard
  9
$CMLJUST
 70
     0
  9
$CMLSCALE
 40
20.0
  9
$PROXYGRAPHICS
 70
     1
  9
$MEASUREMENT
 70
     1
  9
$CELWEIGHT
370
    -1
  9
$ENDCAPS
280
     0
  9
$JOINSTYLE
280
     0
  9
$LWDISPLAY
290
     1
  9
$INSUNITS
 70
     4
  9
$HYPERLINKBASE
  1

  9
$STYLESHEET
  1

  9
$XEDIT
290
     1
  9
$CEPSNTYPE
380
     0
  9
$PSTYLEMODE
290
     1
  9
$FINGERPRINTGUID
  2
{30C86BCB-A115-4160-9AA6-6562AC2FB173}
  9
$VERSIONGUID
  2
{FAEB1C32-E019-11D5-929B-00C0DF256EC4}
  9
$EXTNAMES
290
     1
  9
$PSVPSCALE
 40
0.0
  9
$OLESTARTUP
290
     0
  0
ENDSEC
  0
SECTION
  2
CLASSES
  0
CLASS
  1
ACDBDICTIONARYWDFLT
  2
AcDbDictionaryWithDefault
  3
ObjectDBX Classes
 90
        0
280
     0
281
     0
  0
CLASS
  1
VISUALSTYLE
  2
AcDbVisualStyle
  3
ObjectDBX Classes
 90
     4095
280
     0
281
     0
  0
CLASS
  1
MATERIAL
  2
AcDbMaterial
  3
ObjectDBX Classes
 90
     1153
280
     0
281
     0
  0
CLASS
  1
SCALE
  2
AcDbScale
  3
ObjectDBX Classes
 90
     1153
280
     0
281
     0
  0
CLASS
  1
TABLESTYLE
  2
AcDbTableStyle
  3
ObjectDBX Classes
 90
     4095
280
     0
281
     0
  0
CLASS
  1
MLEADERSTYLE
  2
AcDbMLeaderStyle
  3
ACDB_MLEADERSTYLE_CLASS
 90
     4095
280
     0
281
     0
  0
CLASS
  1
SUN
  2
AcDbSun
  3
SCENEOE
 90
     1153
280
     0
281
     0
  0
CLASS
  1
ACDBPLACEHOLDER
  2
AcDbPlaceHolder
  3
ObjectDBX Classes
 90
        0
280
     0
281
     0
  0
CLASS
  1
LAYOUT
  2
AcDbLayout
  3
ObjectDBX Classes
 90
        0
280
     0
281
     0
  0
ENDSEC
  0
SECTION
  2
TABLES
  0
TABLE
  2
VPORT
  5
8
330
0
100
AcDbSymbolTable
 70
     1
  0
VPORT
  5
29
330
8
100
AcDbSymbolTableRecord
100
AcDbViewportTableRecord
  2
*Active
 70
     0
 10
0.0
 20
0.0
 11
1.0
 21
1.0
 12
0.0
 22
0.0
 13
0.0
 23
0.0
 14
10.0
 24
10.0
 15
10.0
 25
10.0
 16
0.0
 26
0.0
 36
1.0
 17
0.0
 27
0.0
 37
0.0
 40
816.0
 41
1.375
 42
50.0
 43
0.0
 44
0.0
 50
0.0
 51
0.0
 71
     0
 72
   100
 73
     1
 74
     3
 75
     0
 76
     0
 77
     0
 78
     0
281
     0
 65
     1
110
0.0
120
0.0
130
0.0
111
1.0
121
0.0
131
0.0
112
0.0
122
1.0
132
0.0
 79
     0
146
0.0
  0
ENDTAB
  0
TABLE
  2
LTYPE
  5
5
330
0
100
AcDbSymbolTable
 70
     6
  0
LTYPE
  5
14
330
5
100
AcDbSymbolTableRecord
100
AcDbLinetypeTableRecord
  2
ByBlock
 70
     0
  3

 72
    65
 73
     0
 40
0.0
  0
LTYPE
  5
15
330
5
100
AcDbSymbolTableRecord
100
AcDbLinetypeTableRecord
  2
ByLayer
 70
     0
  3

 72
    65
 73
     0
 40
0.0
  0
LTYPE
  5
16
330
5
100
AcDbSymbolTableRecord
100
AcDbLinetypeTableRecord
  2
Continuous
 70
     0
  3
Solid line
 72
    65
 73
     0
 40
0.0
  0
LTYPE
  5
6E
330
5
100
AcDbSymbolTableRecord
100
AcDbLinetypeTableRecord
  2
HIDDEN
 70
     0
  3
Hidden __ __ __ __ __ __ __ __ __ __ __ __ __ __
 72
    65
 73
     2
 40
1.905
 49
1.27
 74
     0
 49
-0.635
 74
     0
  0
LTYPE
  5
6F
330
5
100
AcDbSymbolTableRecord
100
AcDbLinetypeTableRecord
  2
PHANTOM
 70
     0
  3
Phantom ______  __  __  ______  __  __  ______
 72
    65
 73
     6
 40
12.7
 49
6.35
 74
     0
 49
-1.27
 74
     0
 49
1.27
 74
     0
 49
-1.27
 74
     0
 49
1.27
 74
     0
 49
-1.27
 74
     0
  0
LTYPE
  5
70
330
5
100
AcDbSymbolTableRecord
100
AcDbLinetypeTableRecord
  2
CENTER
 70
     0
  3
Center ____ _ ____ _ ____ _ ____ _ ____ _ ____
 72
    65
 73
     4
 40
10.16
 49
6.35
 74
     0
 49
-1.27
 74
     0
 49
1.27
 74
     0
 49
-1.27
 74
     0
  0
LTYPE
  5
71
330
5
100
AcDbSymbolTableRecord
100
AcDbLinetypeTableRecord
  2
CENTERX2
 70
     0
  3
Center (2x) ________  __  ________  __  _____
 72
    65
 73
     4
 40
20.32
 49
12.7
 74
     0
 49
-2.54
 74
     0
 49
2.54
 74
     0
 49
-2.54
 74
     0
  0
LTYPE
  5
72
330
5
100
AcDbSymbolTableRecord
100
AcDbLinetypeTableRecord
  2
DOT2
 70
     0
  3
Dot (.5x) ........................................
 72
    65
 73
     2
 40
0.635
 49
0.0
 74
     0
 49
-0.635
 74
     0
  0
ENDTAB
  0
TABLE
  2
LAYER
  5
2
330
0
100
AcDbSymbolTable
 70
     1
  0
LAYER
  5
10
330
2
100
AcDbSymbolTableRecord
100
AcDbLayerTableRecord
  2
0
 70
     0
 62
     7
  6
Continuous
370
    -3
390
F
  0
ENDTAB
  0
TABLE
  2
STYLE
  5
3
330
0
100
AcDbSymbolTable
 70
     1
  0
STYLE
  5
11
330
3
100
AcDbSymbolTableRecord
100
AcDbTextStyleTableRecord
  2
STANDARD
 70
     0
 40
0.0
 41
1.0
 50
0.0
 71
     0
 42
3.5
  3
GOTHIC.TTF
  4

1001
ACAD
1000
CENTURY GOTHIC
1071
       34
  0
ENDTAB
  0
TABLE
  2
VIEW
  5
6
330
0
100
AcDbSymbolTable
 70
     0
  0
ENDTAB
  0
TABLE
  2
UCS
  5
7
330
0
100
AcDbSymbolTable
 70
     0
  0
ENDTAB
  0
TABLE
  2
APPID
  5
9
330
0
100
AcDbSymbolTable
 70
     1
  0
APPID
  5
12
330
9
100
AcDbSymbolTableRecord
100
AcDbRegAppTableRecord
  2
ACAD
 70
     0
  0
ENDTAB
  0
TABLE
  2
DIMSTYLE
  5
A
330
0
100
AcDbSymbolTable
 70
     1
100
AcDbDimStyleTable
  0
DIMSTYLE
105
27
330
A
100
AcDbSymbolTableRecord
100
AcDbDimStyleTableRecord
  2
ISO-25
 70
     0
 41
2.5
 42
0.625
 43
3.75
 44
1.25
 73
     0
 74
     0
 77
     1
 78
     8
140
2.5
141
2.5
143
0.0393700787
147
0.625
171
     3
172
     1
178
     0
271
     2
272
     2
274
     3
278
    44
283
     0
284
     8
340
11
  0
ENDTAB
  0
TABLE
  2
BLOCK_RECORD
  5
1
330
0
100
AcDbSymbolTable
 70
     8
  0
BLOCK_RECORD
  5
1F
330
1
100
AcDbSymbolTableRecord
100
AcDbBlockTableRecord
  2
*Model_Space
340
22
  0
BLOCK_RECORD
  5
1B
330
1
100
AcDbSymbolTableRecord
100
AcDbBlockTableRecord
  2
*Paper_Space
340
1E
  0
BLOCK_RECORD
  5
23
330
1
100
AcDbSymbolTableRecord
100
AcDbBlockTableRecord
  2
*Paper_Space0
340
26
  0
BLOCK_RECORD
  5
B2
330
1
100
AcDbSymbolTableRecord
100
AcDbBlockTableRecord
  2
*Paper_Space1
340
B3
  0
BLOCK_RECORD
  5
BE
330
1
100
AcDbSymbolTableRecord
100
AcDbBlockTableRecord
  2
*Paper_Space2
340
BF
  0
BLOCK_RECORD
  5
CA
330
1
100
AcDbSymbolTableRecord
100
AcDbBlockTableRecord
  2
*Paper_Space3
340
CB
  0
BLOCK_RECORD
  5
D6
330
1
100
AcDbSymbolTableRecord
100
AcDbBlockTableRecord
  2
*Paper_Space4
340
D7
  0
BLOCK_RECORD
  5
E3
330
1
100
AcDbSymbolTableRecord
100
AcDbBlockTableRecord
  2
*Paper_Space5
340
E4
  0
BLOCK_RECORD
  5
127
330
1
100
AcDbSymbolTableRecord
100
AcDbBlockTableRecord
  2
*Paper_Space6
340
128
  0
BLOCK_RECORD
  5
16C
330
1
100
AcDbSymbolTableRecord
100
AcDbBlockTableRecord
  2
*Paper_Space7
340
16D
  0
ENDTAB
  0
ENDSEC
  0
SECTION
  2
BLOCKS
  0
BLOCK
  5
20
330
1F
100
AcDbEntity
  8
0
100
AcDbBlockBegin
  2
*Model_Space
 70
     0
 10
0.0
 20
0.0
 30
0.0
  3
*Model_Space
  1

  0
ENDBLK
  5
21
330
1F
100
AcDbEntity
  8
0
100
AcDbBlockEnd
  0
BLOCK
  5
1C
330
1B
100
AcDbEntity
 67
     1
  8
0
100
AcDbBlockBegin
  2
*Paper_Space
 70
     0
 10
0.0
 20
0.0
 30
0.0
  3
*Paper_Space
  1

  0
ENDBLK
  5
1D
330
1B
100
AcDbEntity
 67
     1
  8
0
100
AcDbBlockEnd
  0
BLOCK
  5
24
330
23
100
AcDbEntity
  8
0
100
AcDbBlockBegin
  2
*Paper_Space0
 70
     0
 10
0.0
 20
0.0
 30
0.0
  3
*Paper_Space0
  1

  0
LINE
  5
AE
330
23
100
AcDbEntity
  8
0
  6
Continuous
 62
     7
370
    25
100
AcDbLine
 10
-400.0
 20
50.0
 30
0.0
 11
400.0
 21
50.0
 31
0.0
  0
LINE
  5
AF
330
23
100
AcDbEntity
  8
0
  6
Continuous
 62
     7
370
    25
100
AcDbLine
 10
400.0
 20
50.0
 30
0.0
 11
400.0
 21
0.0
 31
0.0
  0
LINE
  5
B0
330
23
100
AcDbEntity
  8
0
  6
Continuous
 62
     7
370
    25
100
AcDbLine
 10
-400.0
 20
50.0
 30
0.0
 11
-400.0
 21
0.0
 31
0.0
  0
LINE
  5
B1
330
23
100
AcDbEntity
  8
0
  6
Continuous
 62
     7
370
    25
100
AcDbLine
 10
-400.0
 20
0.0
 30
0.0
 11
400.0
 21
0.0
 31
0.0
  0
VIEWPORT
  5
1B3
330
23
100
AcDbEntity
  8
0
100
AcDbViewport
 10
0.0
 20
0.0
 30
0.0
 40
205.6
 41
156.0
 68
     1
 69
     1
 12
0.0
 22
0.0
 13
0.0
 23
0.0
 14
10.0
 24
10.0
 15
10.0
 25
10.0
 16
0.0
 26
0.0
 36
1.0
 17
0.0
 27
0.0
 37
0.0
 42
50.0
 43
0.0
 44
0.0
 45
851.3229571984
 50
0.0
 51
0.0
 72
   100
 90
   557152
  1

281
     0
 71
     1
 74
     0
110
0.0
120
0.0
130
0.0
111
1.0
121
0.0
131
0.0
112
0.0
122
1.0
132
0.0
 79
     0
146
0.0
  0
ENDBLK
  5
25
330
23
100
AcDbEntity
  8
0
100
AcDbBlockEnd
  0
BLOCK
  5
B4
330
B2
100
AcDbEntity
  8
0
100
AcDbBlockBegin
  2
*Paper_Space1
 70
     0
 10
0.0
 20
0.0
 30
0.0
  3
*Paper_Space1
  1

  0
LINE
  5
BA
330
B2
100
AcDbEntity
  8
0
  6
Continuous
 62
     7
370
    25
100
AcDbLine
 10
-550.0
 20
50.0
 30
0.0
 11
-550.0
 21
0.0
 31
0.0
  0
LINE
  5
BB
330
B2
100
AcDbEntity
  8
0
  6
Continuous
 62
     7
370
    25
100
AcDbLine
 10
-550.0
 20
50.0
 30
0.0
 11
550.0
 21
50.0
 31
0.0
  0
LINE
  5
BC
330
B2
100
AcDbEntity
  8
0
  6
Continuous
 62
     7
370
    25
100
AcDbLine
 10
550.0
 20
50.0
 30
0.0
 11
550.0
 21
0.0
 31
0.0
  0
LINE
  5
BD
330
B2
100
AcDbEntity
  8
0
  6
Continuous
 62
     7
370
    25
100
AcDbLine
 10
-550.0
 20
0.0
 30
0.0
 11
550.0
 21
0.0
 31
0.0
  0
VIEWPORT
  5
1B5
330
B2
100
AcDbEntity
  8
0
100
AcDbViewport
 10
0.0
 20
0.0
 30
0.0
 40
205.6
 41
156.0
 68
     1
 69
     1
 12
0.0
 22
0.0
 13
0.0
 23
0.0
 14
10.0
 24
10.0
 15
10.0
 25
10.0
 16
0.0
 26
0.0
 36
1.0
 17
0.0
 27
0.0
 37
0.0
 42
50.0
 43
0.0
 44
0.0
 45
851.3229571984
 50
0.0
 51
0.0
 72
   100
 90
   557152
  1

281
     0
 71
     1
 74
     0
110
0.0
120
0.0
130
0.0
111
1.0
121
0.0
131
0.0
112
0.0
122
1.0
132
0.0
 79
     0
146
0.0
  0
ENDBLK
  5
B5
330
B2
100
AcDbEntity
  8
0
100
AcDbBlockEnd
  0
BLOCK
  5
C0
330
BE
100
AcDbEntity
  8
0
100
AcDbBlockBegin
  2
*Paper_Space2
 70
     0
 10
0.0
 20
0.0
 30
0.0
  3
*Paper_Space2
  1

  0
LINE
  5
C6
330
BE
100
AcDbEntity
  8
0
  6
Continuous
 62
     7
370
    25
100
AcDbLine
 10
-550.0
 20
50.0
 30
0.0
 11
-550.0
 21
0.0
 31
0.0
  0
LINE
  5
C7
330
BE
100
AcDbEntity
  8
0
  6
Continuous
 62
     7
370
    25
100
AcDbLine
 10
-550.0
 20
50.0
 30
0.0
 11
550.0
 21
50.0
 31
0.0
  0
LINE
  5
C8
330
BE
100
AcDbEntity
  8
0
  6
Continuous
 62
     7
370
    25
100
AcDbLine
 10
550.0
 20
50.0
 30
0.0
 11
550.0
 21
0.0
 31
0.0
  0
LINE
  5
C9
330
BE
100
AcDbEntity
  8
0
  6
Continuous
 62
     7
370
    25
100
AcDbLine
 10
-550.0
 20
0.0
 30
0.0
 11
550.0
 21
0.0
 31
0.0
  0
VIEWPORT
  5
1B7
330
BE
100
AcDbEntity
  8
0
100
AcDbViewport
 10
0.0
 20
0.0
 30
0.0
 40
205.6
 41
156.0
 68
     1
 69
     1
 12
0.0
 22
0.0
 13
0.0
 23
0.0
 14
10.0
 24
10.0
 15
10.0
 25
10.0
 16
0.0
 26
0.0
 36
1.0
 17
0.0
 27
0.0
 37
0.0
 42
50.0
 43
0.0
 44
0.0
 45
851.3229571984
 50
0.0
 51
0.0
 72
   100
 90
   557152
  1

281
     0
 71
     1
 74
     0
110
0.0
120
0.0
130
0.0
111
1.0
121
0.0
131
0.0
112
0.0
122
1.0
132
0.0
 79
     0
146
0.0
  0
ENDBLK
  5
C1
330
BE
100
AcDbEntity
  8
0
100
AcDbBlockEnd
  0
BLOCK
  5
CC
330
CA
100
AcDbEntity
  8
0
100
AcDbBlockBegin
  2
*Paper_Space3
 70
     0
 10
0.0
 20
0.0
 30
0.0
  3
*Paper_Space3
  1

  0
LINE
  5
D2
330
CA
100
AcDbEntity
  8
0
  6
Continuous
 62
     7
370
    25
100
AcDbLine
 10
-400.0
 20
50.0
 30
0.0
 11
-400.0
 21
0.0
 31
0.0
  0
LINE
  5
D3
330
CA
100
AcDbEntity
  8
0
  6
Continuous
 62
     7
370
    25
100
AcDbLine
 10
-400.0
 20
50.0
 30
0.0
 11
400.0
 21
50.0
 31
0.0
  0
LINE
  5
D4
330
CA
100
AcDbEntity
  8
0
  6
Continuous
 62
     7
370
    25
100
AcDbLine
 10
400.0
 20
50.0
 30
0.0
 11
400.0
 21
0.0
 31
0.0
  0
LINE
  5
D5
330
CA
100
AcDbEntity
  8
0
  6
Continuous
 62
     7
370
    25
100
AcDbLine
 10
-400.0
 20
0.0
 30
0.0
 11
400.0
 21
0.0
 31
0.0
  0
VIEWPORT
  5
1B9
330
CA
100
AcDbEntity
  8
0
100
AcDbViewport
 10
0.0
 20
0.0
 30
0.0
 40
205.6
 41
156.0
 68
     1
 69
     1
 12
0.0
 22
0.0
 13
0.0
 23
0.0
 14
10.0
 24
10.0
 15
10.0
 25
10.0
 16
0.0
 26
0.0
 36
1.0
 17
0.0
 27
0.0
 37
0.0
 42
50.0
 43
0.0
 44
0.0
 45
851.3229571984
 50
0.0
 51
0.0
 72
   100
 90
   557152
  1

281
     0
 71
     1
 74
     0
110
0.0
120
0.0
130
0.0
111
1.0
121
0.0
131
0.0
112
0.0
122
1.0
132
0.0
 79
     0
146
0.0
  0
ENDBLK
  5
CD
330
CA
100
AcDbEntity
  8
0
100
AcDbBlockEnd
  0
BLOCK
  5
D8
330
D6
100
AcDbEntity
  8
0
100
AcDbBlockBegin
  2
*Paper_Space4
 70
     0
 10
0.0
 20
0.0
 30
0.0
  3
*Paper_Space4
  1

  0
CIRCLE
  5
DE
330
D6
100
AcDbEntity
  8
0
  6
Continuous
 62
     7
370
    25
100
AcDbCircle
 10
0.0
 20
-200.0
 30
0.0
 40
45.00000000000006
  0
LINE
  5
DF
330
D6
100
AcDbEntity
  8
0
  6
Continuous
 62
     7
370
    25
100
AcDbLine
 10
-550.0
 20
-400.0
 30
0.0
 11
-550.0
 21
400.0
 31
0.0
  0
LINE
  5
E0
330
D6
100
AcDbEntity
  8
0
  6
Continuous
 62
     7
370
    25
100
AcDbLine
 10
550.0
 20
-400.0
 30
0.0
 11
-550.0
 21
-400.0
 31
0.0
  0
LINE
  5
E1
330
D6
100
AcDbEntity
  8
0
  6
Continuous
 62
     7
370
    25
100
AcDbLine
 10
550.0
 20
400.0
 30
0.0
 11
550.0
 21
-400.0
 31
0.0
  0
LINE
  5
E2
330
D6
100
AcDbEntity
  8
0
  6
Continuous
 62
     7
370
    25
100
AcDbLine
 10
-550.0
 20
400.0
 30
0.0
 11
550.0
 21
400.0
 31
0.0
  0
VIEWPORT
  5
1BB
330
D6
100
AcDbEntity
  8
0
100
AcDbViewport
 10
0.0
 20
0.0
 30
0.0
 40
205.6
 41
156.0
 68
     1
 69
     1
 12
0.0
 22
0.0
 13
0.0
 23
0.0
 14
10.0
 24
10.0
 15
10.0
 25
10.0
 16
0.0
 26
0.0
 36
1.0
 17
0.0
 27
0.0
 37
0.0
 42
50.0
 43
0.0
 44
0.0
 45
851.3229571984
 50
0.0
 51
0.0
 72
   100
 90
   557152
  1

281
     0
 71
     1
 74
     0
110
0.0
120
0.0
130
0.0
111
1.0
121
0.0
131
0.0
112
0.0
122
1.0
132
0.0
 79
     0
146
0.0
  0
ENDBLK
  5
D9
330
D6
100
AcDbEntity
  8
0
100
AcDbBlockEnd
  0
BLOCK
  5
E5
330
E3
100
AcDbEntity
  8
0
100
AcDbBlockBegin
  2
*Paper_Space5
 70
     0
 10
0.0
 20
0.0
 30
0.0
  3
*Paper_Space5
  1

  0
SPLINE
  5
FB
330
E3
100
AcDbEntity
  8
0
  6
Continuous
 62
     7
370
    25
100
AcDbSpline
210
0.0
220
0.0
230
1.0
 70
     8
 71
     3
 72
    28
 73
    24
 74
     0
 42
0.000000001
 43
0.00000001
 40
0.0
 40
0.0
 40
0.0
 40
0.0
 40
0.1250000000000001
 40
0.1250000000000001
 40
0.2500000000000002
 40
0.2500000000000002
 40
0.3125000000000002
 40
0.3125000000000002
 40
0.3750000000000002
 40
0.3750000000000002
 40
0.5000000000000002
 40
0.5000000000000002
 40
0.5625000000000002
 40
0.5625000000000002
 40
0.6250000000000003
 40
0.6250000000000003
 40
0.7500000000000003
 40
0.7500000000000003
 40
0.8125000000000002
 40
0.8125000000000002
 40
0.8750000000000002
 40
0.8750000000000002
 40
1.0
 40
1.0
 40
1.0
 40
1.0
 10
149.4064234318279
 20
58.78815866280705
 30
0.0
 10
152.6297932906992
 20
59.01848756994453
 30
0.0
 10
155.783353736514
 20
59.38552168664916
 30
0.0
 10
161.9565075626315
 20
60.38171157205054
 30
0.0
 10
164.976082268377
 20
61.01089211447798
 30
0.0
 10
169.4021879802053
 20
62.15627555204371
 30
0.0
 10
170.8651338586068
 20
62.5735662121519
 30
0.0
 10
173.7102667629857
 20
63.46332483058283
 30
0.0
 10
175.0969912912709
 20
63.93669843530149
 30
0.0
 10
179.1517520535675
 20
65.44046563148774
 30
0.0
 10
181.7149171018709
 20
66.55404282826414
 30
0.0
 10
185.3473262673493
 20
68.39222812457696
 30
0.0
 10
186.5225899307491
 20
69.03304076639706
 30
0.0
 10
188.7997805600925
 20
70.3725165156998
 30
0.0
 10
189.8892540483799
 20
71.06396329818057
 30
0.0
 10
193.003639883145
 20
73.19496751013561
 30
0.0
 10
194.8801381337567
 20
74.69371238040955
 30
0.0
 10
197.3979589243843
 20
77.05775702848506
 30
0.0
 10
198.1875424050677
 20
77.86517572452313
 30
0.0
 10
199.6652562720037
 20
79.5196399588671
 30
0.0
 10
200.3549445975487
 20
80.36920499636209
 30
0.0
 10
202.2440668606887
 20
82.9472824433295
 30
0.0
 10
203.272218771287
 20
84.71183728089304
 30
0.0
 10
204.0678986168748
 20
86.52280079107241
 30
0.0
  0
SPLINE
  5
FD
330
E3
100
AcDbEntity
  8
0
  6
Continuous
 62
     7
370
    25
100
AcDbSpline
210
0.0
220
0.0
230
1.0
 70
     8
 71
     3
 72
    52
 73
    48
 74
     0
 42
0.000000001
 43
0.00000001
 40
0.0
 40
0.0
 40
0.0
 40
0.0
 40
0.0624999999999993
 40
0.0624999999999993
 40
0.1249999999999986
 40
0.1249999999999986
 40
0.1562499999999984
 40
0.1562499999999984
 40
0.1874999999999983
 40
0.1874999999999983
 40
0.2499999999999982
 40
0.2499999999999982
 40
0.3124999999999981
 40
0.3124999999999981
 40
0.3437499999999981
 40
0.3437499999999981
 40
0.3749999999999979
 40
0.3749999999999979
 40
0.4374999999999979
 40
0.4374999999999979
 40
0.4999999999999979
 40
0.4999999999999979
 40
0.5312499999999979
 40
0.5312499999999979
 40
0.5468749999999979
 40
0.5468749999999979
 40
0.562499999999998
 40
0.562499999999998
 40
0.6249999999999978
 40
0.6249999999999978
 40
0.6874999999999977
 40
0.6874999999999977
 40
0.7187499999999974
 40
0.7187499999999974
 40
0.7343749999999974
 40
0.7343749999999974
 40
0.7499999999999974
 40
0.7499999999999974
 40
0.8124999999999978
 40
0.8124999999999978
 40
0.8749999999999981
 40
0.8749999999999981
 40
0.9062499999999984
 40
0.9062499999999984
 40
0.9374999999999987
 40
0.9374999999999987
 40
1.0
 40
1.0
 40
1.0
 40
1.0
 10
77.4525571142658
 20
100.3262415249815
 30
0.0
 10
77.13752585730495
 20
98.91710069809622
 30
0.0
 10
76.96564450859768
 20
97.51132519366651
 30
0.0
 10
76.89752686339914
 20
94.70619386376438
 30
0.0
 10
77.00132665926249
 20
93.30683761348827
 30
0.0
 10
77.36410131928965
 20
91.21255466221406
 30
0.0
 10
77.51962268175356
 20
90.515253242972
 30
0.0
 10
77.90092937874424
 20
89.12224597751175
 30
0.0
 10
78.12703914373462
 20
88.42567814303209
 30
0.0
 10
78.91138829660873
 20
86.34388888842464
 30
0.0
 10
79.56745126850173
 20
84.98637839268171
 30
0.0
 10
81.13645262069457
 20
82.32976828181522
 30
0.0
 10
82.04943269795854
 20
81.03067145494441
 30
0.0
 10
83.61220921178477
 20
79.12587651079434
 30
0.0
 10
84.16543275558114
 20
78.49826974591724
 30
0.0
 10
85.33753243382942
 20
77.25792877319329
 30
0.0
 10
85.9578543227137
 20
76.64386536764157
 30
0.0
 10
87.91003183707176
 20
74.83361950388121
 30
0.0
 10
89.31965315001955
 20
73.68073078878581
 30
0.0
 10
92.34773512464201
 20
71.47903610670825
 30
0.0
 10
93.96623133476933
 20
70.43023928368393
 30
0.0
 10
96.55125490813398
 20
68.93540174712875
 30
0.0
 10
97.43920207516092
 20
68.45021387940379
 30
0.0
 10
98.81119709356905
 20
67.74239639929384
 30
0.0
 10
99.27521182993445
 20
67.50978674521764
 30
0.0
 10
100.216768704168
 20
67.05130756723149
 30
0.0
 10
100.6949973316615
 20
66.82513646964878
 30
0.0
 10
103.105963066282
 20
65.71789758970205
 30
0.0
 10
105.1054173641879
 20
64.90350534938965
 30
0.0
 10
109.2409265603622
 20
63.412767320862
 30
0.0
 10
111.3769821945022
 20
62.73643403937275
 30
0.0
 10
114.684003444857
 20
61.82605477514749
 30
0.0
 10
115.8035390861148
 20
61.53998978540349
 30
0.0
 10
117.509074908113
 20
61.13744347626612
 30
0.0
 10
118.081961936258
 20
61.00768937502365
 30
0.0
 10
119.236594494854
 20
60.75714872337851
 30
0.0
 10
119.8183443563157
 20
60.63638490333789
 30
0.0
 10
122.7303644879057
 20
60.05889781238827
 30
0.0
 10
125.0854119850583
 20
59.67755464872626
 30
0.0
 10
129.8447369148061
 20
59.07111515983382
 30
0.0
 10
132.249016924318
 20
58.8460310588645
 30
0.0
 10
135.8926043171764
 20
58.62646274263782
 30
0.0
 10
137.1133425637065
 20
58.57299619590953
 30
0.0
 10
139.5674623741902
 20
58.50623733495763
 30
0.0
 10
140.8034463545847
 20
58.49301161147694
 30
0.0
 10
144.5010105749679
 20
58.51483943872641
 30
0.0
 10
146.9578395078016
 20
58.61068303208261
 30
0.0
 10
149.4064234318279
 20
58.78815866280707
 30
0.0
  0
SPLINE
  5
100
330
E3
100
AcDbEntity
  8
0
  6
Continuous
 62
     7
370
    25
100
AcDbSpline
210
0.0
220
0.0
230
1.0
 70
     8
 71
     3
 72
    30
 73
    26
 74
     0
 42
0.000000001
 43
0.00000001
 40
0.0
 40
0.0
 40
0.0
 40
0.0
 40
0.1250000000000012
 40
0.1250000000000012
 40
0.2500000000000025
 40
0.2500000000000025
 40
0.3125000000000031
 40
0.3125000000000031
 40
0.3750000000000038
 40
0.3750000000000038
 40
0.5000000000000039
 40
0.5000000000000039
 40
0.5312500000000034
 40
0.5312500000000034
 40
0.562500000000003
 40
0.562500000000003
 40
0.6250000000000021
 40
0.6250000000000021
 40
0.7500000000000013
 40
0.7500000000000013
 40
0.812500000000001
 40
0.812500000000001
 40
0.8750000000000007
 40
0.8750000000000007
 40
1.0
 40
1.0
 40
1.0
 40
1.0
 10
125.3175545627998
 20
131.9844067359989
 30
0.0
 10
122.1703995487712
 20
131.5312850480435
 30
0.0
 10
119.1239280567258
 20
130.945369682365
 30
0.0
 10
113.2245534786177
 20
129.5175962502221
 30
0.0
 10
110.3716633310001
 20
128.6757232357787
 30
0.0
 10
106.2415880462732
 20
127.2153345573565
 30
0.0
 10
104.8864636238862
 20
126.6937402231542
 30
0.0
 10
102.2711101748062
 20
125.6010353877401
 30
0.0
 10
101.0056334183445
 20
125.0283009729842
 30
0.0
 10
97.33311833389799
 20
123.2327040534151
 30
0.0
 10
95.04930330833159
 20
121.9328805789739
 30
0.0
 10
92.4017718131147
 20
120.1790375750898
 30
0.0
 10
91.88267939490044
 20
119.8217853965901
 30
0.0
 10
90.86557642774554
 20
119.0941721992214
 30
0.0
 10
90.36688481612447
 20
118.7232791205282
 30
0.0
 10
88.90759988078344
 20
117.5942137383378
 30
0.0
 10
87.98993145731421
 20
116.8246496808512
 30
0.0
 10
85.39752245944432
 20
114.4670895490469
 30
0.0
 10
83.88246160666378
 20
112.8305309400109
 30
0.0
 10
81.92681753113884
 20
110.279876288017
 30
0.0
 10
81.32796826401211
 20
109.4136312545179
 30
0.0
 10
80.23859966546723
 20
107.6484790476619
 30
0.0
 10
79.74798640261757
 20
106.7484009868972
 30
0.0
 10
78.4597863567772
 20
104.0342551849581
 30
0.0
 10
77.83704956891874
 20
102.1951597200294
 30
0.0
 10
77.45255711426589
 20
100.3262415249816
 30
0.0
  0
SPLINE
  5
101
330
E3
100
AcDbEntity
  8
0
  6
Continuous
 62
     7
370
    25
100
AcDbSpline
210
0.0
220
0.0
230
1.0
 70
     8
 71
     3
 72
    44
 73
    40
 74
     0
 42
0.000000001
 43
0.00000001
 40
0.0
 40
0.0
 40
0.0
 40
0.0
 40
0.0625000000000005
 40
0.0625000000000005
 40
0.0937500000000007
 40
0.0937500000000007
 40
0.1250000000000005
 40
0.1250000000000005
 40
0.1875000000000002
 40
0.1875000000000002
 40
0.2187500000000003
 40
0.2187500000000003
 40
0.2500000000000004
 40
0.2500000000000004
 40
0.3750000000000007
 40
0.3750000000000007
 40
0.4062500000000007
 40
0.4062500000000007
 40
0.4375000000000006
 40
0.4375000000000006
 40
0.5000000000000006
 40
0.5000000000000006
 40
0.5625000000000004
 40
0.5625000000000004
 40
0.5937500000000004
 40
0.5937500000000004
 40
0.6250000000000003
 40
0.6250000000000003
 40
0.75
 40
0.75
 40
0.78125
 40
0.78125
 40
0.8124999999999999
 40
0.8124999999999999
 40
0.8749999999999999
 40
0.8749999999999999
 40
0.9375
 40
0.9375
 40
1.0
 40
1.0
 40
1.0
 40
1.0
 10
206.3422736094892
 20
94.11822832170519
 30
0.0
 10
206.4545169136341
 20
95.46215667887792
 30
0.0
 10
206.447184731956
 20
96.80778615018212
 30
0.0
 10
206.2586035234524
 20
98.82971622908498
 30
0.0
 10
206.1660848973742
 20
99.50426221426973
 30
0.0
 10
205.9212922171291
 20
100.8544667842617
 30
0.0
 10
205.7691567698313
 20
101.5289533224932
 30
0.0
 10
205.2257747941074
 20
103.5426592852962
 30
0.0
 10
204.7472733952577
 20
104.8752661954598
 30
0.0
 10
203.8544799759688
 20
106.8561617719266
 30
0.0
 10
203.5274287616551
 20
107.5135028003646
 30
0.0
 10
202.8209268450003
 20
108.8098650942555
 30
0.0
 10
202.4408582617266
 20
109.4503605958051
 30
0.0
 10
200.408660743606
 20
112.6131523220636
 30
0.0
 10
198.3652293678984
 20
115.0167799643921
 30
0.0
 10
195.2810650649022
 20
117.836789694379
 30
0.0
 10
194.6359425247689
 20
118.3927674952579
 30
0.0
 10
193.2979815899922
 20
119.4797033019591
 30
0.0
 10
192.6077505120622
 20
120.0087018894612
 30
0.0
 10
190.4746361829016
 20
121.5528573571896
 30
0.0
 10
188.9694973390735
 20
122.5252445331159
 30
0.0
 10
185.7959558589201
 20
124.3572413109451
 30
0.0
 10
184.1275521714826
 20
125.2168503573787
 30
0.0
 10
181.5006487594437
 20
126.4208928560442
 30
0.0
 10
180.604256786261
 20
126.8079942965837
 30
0.0
 10
178.7691255201819
 20
127.5533633421263
 30
0.0
 10
177.8305832662408
 20
127.9113733719192
 30
0.0
 10
173.0875310442534
 20
129.6090480706779
 30
0.0
 10
169.0906616271146
 20
130.6915342118146
 30
0.0
 10
163.8455030651019
 20
131.7305916487642
 30
0.0
 10
162.7838883392654
 20
131.92259662922
 30
0.0
 10
160.6350674820289
 20
132.2752786603033
 30
0.0
 10
159.5456826751532
 20
132.4362337550335
 30
0.0
 10
156.2546570548527
 20
132.8700264748659
 30
0.0
 10
154.0372977854193
 20
133.0934277185785
 30
0.0
 10
149.555977496522
 20
133.4135788442835
 30
0.0
 10
147.2889134175558
 20
133.5100262853143
 30
0.0
 10
142.7585641033798
 20
133.5744776791016
 30
0.0
 10
140.4893164028033
 20
133.5430570486516
 30
0.0
 10
138.2159720864399
 20
133.4467050607964
 30
0.0
  0
SPLINE
  5
102
330
E3
100
AcDbEntity
  8
0
  6
Continuous
 62
     7
370
    25
100
AcDbSpline
210
0.0
220
0.0
230
1.0
 70
     8
 71
     3
 72
     8
 73
     4
 74
     0
 42
0.000000001
 43
0.00000001
 40
0.0
 40
0.0
 40
0.0
 40
0.0
 40
1.0
 40
1.0
 40
1.0
 40
1.0
 10
138.2159720864398
 20
133.4467050607963
 30
0.0
 10
133.8458379132703
 20
133.1753738811743
 30
0.0
 10
129.5450683237599
 20
132.695261234406
 30
0.0
 10
125.3175545627998
 20
131.9844067359988
 30
0.0
  0
SPLINE
  5
104
330
E3
100
AcDbEntity
  8
0
  6
Continuous
 62
     7
370
    25
100
AcDbSpline
210
0.0
220
0.0
230
1.0
 70
     8
 71
     3
 72
     8
 73
     4
 74
     0
 42
0.000000001
 43
0.00000001
 40
0.0
 40
0.0
 40
0.0
 40
0.0
 40
1.0
 40
1.0
 40
1.0
 40
1.0
 10
204.0678986168749
 20
86.52280079107241
 30
0.0
 10
205.235385622419
 20
89.00017113403416
 30
0.0
 10
205.9864755387932
 20
91.52947023794378
 30
0.0
 10
206.3422736094892
 20
94.11822832170519
 30
0.0
  0
LWPOLYLINE
  5
108
330
E3
100
AcDbEntity
  8
0
  6
Continuous
 62
     7
370
    25
100
AcDbPolyline
 90
       72
 70
   128
 43
0.0
 10
109.6015510839
 20
68.1708735376
 10
106.9138299353
 20
69.8662256892
 10
104.496176967
 20
71.6920731707
 10
102.3675135916
 20
73.6341262499
 10
100.5444994859
 20
75.6771857283
 10
99.0414022073
 20
77.8052618954
 10
97.8699855298
 20
80.0016996698
 10
97.0394173772
 20
82.249308948
 10
96.5561980715
 20
84.53049914
 10
96.4241094588
 20
86.8274168394
 10
96.6441853117
 20
89.122085551
 10
97.2147032383
 20
91.396546381
 10
98.1311981621
 20
93.6329985895
 10
99.3864972678
 20
95.8139389057
 10
100.970776138
 20
97.9222985146
 10
102.8716356423
 20
99.9415766436
 10
105.074198978
 20
101.8559697036
 10
107.5612281005
 20
103.6504949731
 10
110.3132586349
 20
105.3111078589
 10
113.308752211
 20
106.8248118136
 10
116.5242650301
 20
108.1797600514
 10
119.9346313445
 20
109.3653482652
 10
123.5131604141
 20
110.3722976198
 10
127.2318453968
 20
111.1927273712
 10
131.0615825407
 20
111.8202165442
 10
134.97239896
 20
112.2498541852
 10
138.9336872139
 20
112.4782777972
 10
142.9144448508
 20
112.5036996558
 10
146.8835170448
 20
112.3259208003
 10
150.8098404247
 20
111.9463325915
 10
154.6626861865
 20
111.3679058216
 10
158.4119005881
 20
110.5951674645
 10
162.0281409436
 20
109.6341652454
 10
165.483105269
 20
108.4924203097
 10
168.7497537841
 20
107.1788683597
 10
171.8025205352
 20
105.7037897202
 10
174.6175134834
 20
104.0787288816
 10
177.1727014921
 20
102.3164041483
 10
179.4480867507
 20
100.4306081009
 10
181.4258612845
 20
98.4360996501
 10
183.0905463262
 20
96.3484885289
 10
184.4291134583
 20
94.1841131249
 10
185.431086578
 20
91.9599126101
 10
186.0886238873
 20
89.6932943692
 10
186.396579265
 20
87.4019977632
 10
186.3525425429
 20
85.1039552946
 10
185.956858368
 20
82.8171522616
 10
185.2126235055
 20
80.5594859985
 10
184.1256626022
 20
78.3486258049
 10
182.704482601
 20
76.2018746592
 10
180.9602061622
 20
74.1360338
 10
178.906484614
 20
72.167271233
 10
176.5593911121
 20
70.3109951945
 10
173.9372948453
 20
68.5817335614
 10
171.0607172722
 20
66.9930201506
 10
167.9521715125
 20
65.5572887985
 10
164.6359861514
 20
64.2857760498
 10
161.1381148357
 20
63.1884332155
 10
157.485933151
 20
62.2738484913
 10
153.7080243708
 20
61.5491797425
 10
149.8339557536
 20
61.0200984848
 10
145.8940471389
 20
60.6907454963
 10
141.9191336536
 20
60.5636984107
 10
137.9403243852
 20
60.6399515437
 10
133.9887589107
 20
60.9189081111
 10
130.0953635878
 20
61.3983848997
 10
126.2906095137
 20
62.0746293533
 10
122.6042740478
 20
62.9423489423
 10
119.0652077631
 20
63.9947525845
 10
115.7011086518
 20
65.2236037943
 10
112.5383053507
 20
66.619285145
 10
109.6015510839
 20
68.1708735376
  0
LWPOLYLINE
  5
109
330
E3
100
AcDbEntity
  8
0
  6
Continuous
 62
     7
370
    25
100
AcDbPolyline
 90
       23
 70
   128
 43
0.0
 10
138.2159720864
 20
133.4467050608
 10
143.1469746795
 20
133.4791329002
 10
148.0680450858
 20
133.295660723
 10
152.9508589729
 20
132.8973445446
 10
157.7673122024
 20
132.2864769638
 10
162.4896825897
 20
131.466573967
 10
167.0907894653
 20
130.4423546911
 10
171.544150119
 20
129.2197142615
 10
175.8241322277
 20
127.8056898614
 10
179.9061013873
 20
126.2084202278
 10
183.7665629024
 20
124.4370988067
 10
187.3832970144
 20
122.5019208388
 10
190.7354867933
 20
120.414024678
 10
193.8038379534
 20
118.1854276824
 10
196.5706899065
 20
115.8289570454
 10
199.0201174111
 20
113.3581759661
 10
201.138022234
 20
110.7873055832
 10
202.9122142953
 20
108.131143122
 10
204.332481832
 20
105.4049767255
 10
205.3906501733
 20
102.6244974602
 10
206.0806287924
 20
99.8057090028
 10
206.3984463614
 20
96.9648355269
 10
206.4213562373
 20
95.9686572045
  0
LWPOLYLINE
  5
10B
330
E3
100
AcDbEntity
  8
0
  6
Continuous
 62
     7
370
    25
100
AcDbPolyline
 90
       36
 70
   128
 43
0.0
 10
186.2208444937
 20
84.0904336179
 10
186.0886238873
 20
84.7940494979
 10
185.431086578
 20
87.0606677388
 10
184.4291134583
 20
89.2848682536
 10
183.0905463262
 20
91.4492436576
 10
181.4258612845
 20
93.5368547788
 10
179.4480867507
 20
95.5313632295
 10
177.1727014921
 20
97.417159277
 10
174.6175134834
 20
99.1794840103
 10
171.8025205352
 20
100.8045448489
 10
168.7497537841
 20
102.2796234884
 10
165.483105269
 20
103.5931754384
 10
162.0281409436
 20
104.7349203741
 10
158.4119005881
 20
105.6959225931
 10
154.6626861865
 20
106.4686609503
 10
150.8098404247
 20
107.0470877202
 10
146.8835170448
 20
107.426675929
 10
142.9144448508
 20
107.6044547845
 10
138.9336872139
 20
107.5790329259
 10
134.97239896
 20
107.3506093139
 10
131.0615825407
 20
106.9209716729
 10
127.2318453968
 20
106.2934824999
 10
123.5131604141
 20
105.4730527485
 10
119.9346313445
 20
104.4661033939
 10
116.5242650301
 20
103.2805151801
 10
113.308752211
 20
101.9255669423
 10
110.3132586349
 20
100.4118629876
 10
107.5612281005
 20
98.7512501018
 10
105.074198978
 20
96.9567248322
 10
102.8716356423
 20
95.0423317723
 10
100.970776138
 20
93.0230536433
 10
99.3864972678
 20
90.9146940344
 10
98.1311981621
 20
88.7337537182
 10
97.2147032383
 20
86.4973015097
 10
96.6441853117
 20
84.2228406797
 10
96.6218679809
 20
84.0904336179
  0
LINE
  5
10C
330
E3
100
AcDbEntity
  8
0
  6
Continuous
 62
     7
370
    25
100
AcDbLine
 10
106.066017178
 20
-346.9668125215
 30
0.0
 11
106.066017178
 21
-387.7938531158
 31
0.0
  0
LINE
  5
10D
330
E3
100
AcDbEntity
  8
0
  6
Continuous
 62
     7
370
    25
100
AcDbLine
 10
106.066017178
 20
-346.9668125215
 30
0.0
 11
671.7514421272
 21
-20.4035677924
 31
0.0
  0
LINE
  5
10E
330
E3
100
AcDbEntity
  8
0
  6
Continuous
 62
     7
370
    25
100
AcDbLine
 10
671.7514421272
 20
-20.4035677924
 30
0.0
 11
671.7514421272
 21
-61.2306083867
 31
0.0
  0
LINE
  5
10F
330
E3
100
AcDbEntity
  8
0
  6
Continuous
 62
     7
370
    25
100
AcDbLine
 10
106.066017178
 20
-387.7938531158
 30
0.0
 11
671.7514421272
 21
-61.2306083867
 31
0.0
  0
LINE
  5
110
330
E3
100
AcDbEntity
  8
0
  6
Continuous
 62
     7
370
    25
100
AcDbLine
 10
-671.7514421272
 20
102.057648981
 30
0.0
 11
-671.7514421272
 21
61.2306083867
 31
0.0
  0
LINE
  5
111
330
E3
100
AcDbEntity
  8
0
  6
Continuous
 62
     7
370
    25
100
AcDbLine
 10
-671.7514421272
 20
102.057648981
 30
0.0
 11
106.066017178
 21
-346.9668125215
 31
0.0
  0
LINE
  5
112
330
E3
100
AcDbEntity
  8
0
  6
Continuous
 62
     7
370
    25
100
AcDbLine
 10
-671.7514421272
 20
61.2306083867
 30
0.0
 11
106.066017178
 21
-387.7938531158
 31
0.0
  0
LINE
  5
113
330
E3
100
AcDbEntity
  8
0
  6
Continuous
 62
     7
370
    25
100
AcDbLine
 10
671.7514421272
 20
-20.4035677924
 30
0.0
 11
-106.066017178
 21
428.6208937101
 31
0.0
  0
LINE
  5
114
330
E3
100
AcDbEntity
  8
0
  6
Continuous
 62
     7
370
    25
100
AcDbLine
 10
-106.066017178
 20
428.6208937101
 30
0.0
 11
-671.7514421272
 21
102.057648981
 31
0.0
  0
LINE
  5
115
330
E3
100
AcDbEntity
  8
0
  6
Continuous
 62
     7
370
    25
100
AcDbLine
 10
-106.066017178
 20
428.5392528989
 30
0.0
 11
671.610020771
 21
-20.4035677924
 31
0.0
  0
LINE
  5
116
330
E3
100
AcDbEntity
  8
0
  6
Continuous
 62
     7
370
    25
100
AcDbLine
 10
-671.610020771
 20
102.057648981
 30
0.0
 11
-106.066017178
 21
428.5392528989
 31
0.0
  0
LINE
  5
117
330
E3
100
AcDbEntity
  8
0
  6
Continuous
 62
     7
370
    25
100
AcDbLine
 10
106.066017178
 20
-346.8851717103
 30
0.0
 11
-671.610020771
 21
102.057648981
 31
0.0
  0
LINE
  5
118
330
E3
100
AcDbEntity
  8
0
  6
Continuous
 62
     7
370
    25
100
AcDbLine
 10
671.610020771
 20
-20.4035677924
 30
0.0
 11
106.066017178
 21
-346.8851717103
 31
0.0
  0
LINE
  5
119
330
E3
100
AcDbEntity
  8
0
  6
Continuous
 62
     7
370
    25
100
AcDbLine
 10
106.066017178
 20
-346.8851717103
 30
0.0
 11
106.066017178
 21
-307.5692671806
 31
0.0
  0
LINE
  5
11A
330
E3
100
AcDbEntity
  8
0
  6
Continuous
 62
     7
370
    25
100
AcDbLine
 10
106.066017178
 20
-307.5692671806
 30
0.0
 11
601.0407640086
 21
-21.8264280427
 31
0.0
  0
LINE
  5
11B
330
E3
100
AcDbEntity
  8
0
  6
Continuous
 62
     7
370
    25
100
AcDbLine
 10
671.610020771
 20
-20.4035677924
 30
0.0
 11
601.0407640086
 21
-21.8264280427
 31
0.0
  0
LINE
  5
11C
330
E3
100
AcDbEntity
  8
0
  6
Continuous
 62
     7
370
    25
100
AcDbLine
 10
-601.0407640086
 20
100.6347887307
 30
0.0
 11
106.066017178
 21
-307.5692671806
 31
0.0
  0
LINE
  5
11D
330
E3
100
AcDbEntity
  8
0
  6
Continuous
 62
     7
370
    25
100
AcDbLine
 10
-601.0407640086
 20
100.6347887307
 30
0.0
 11
-671.610020771
 21
102.057648981
 31
0.0
  0
LINE
  5
11E
330
E3
100
AcDbEntity
  8
0
  6
Continuous
 62
     7
370
    25
100
AcDbLine
 10
583.3695606293
 20
-32.0277966113
 30
0.0
 11
204.0678986169
 21
86.5228007911
 31
0.0
  0
LINE
  5
11F
330
E3
100
AcDbEntity
  8
0
  6
Continuous
 62
     7
370
    25
100
AcDbLine
 10
107.9746661118
 20
-306.4674276045
 30
0.0
 11
149.4064234318
 21
58.7881586628
 31
0.0
  0
LINE
  5
120
330
E3
100
AcDbEntity
  8
0
  6
Continuous
 62
     7
370
    25
100
AcDbLine
 10
-574.8336436197
 20
85.5057401611
 30
0.0
 11
77.4525571143
 21
100.326241525
 31
0.0
  0
LINE
  5
121
330
E3
100
AcDbEntity
  8
0
  6
Continuous
 62
     7
370
    25
100
AcDbLine
 10
-587.4214746403
 20
92.7725403311
 30
0.0
 11
-106.066017178
 21
370.6531310693
 31
0.0
  0
LINE
  5
122
330
E3
100
AcDbEntity
  8
0
  6
Continuous
 62
     7
370
    25
100
AcDbLine
 10
125.3175545628
 20
131.984406736
 30
0.0
 11
-106.066017178
 21
370.6531310693
 31
0.0
  0
LINE
  5
123
330
E3
100
AcDbEntity
  8
0
  6
Continuous
 62
     7
370
    25
100
AcDbLine
 10
-106.066017178
 20
370.6531310693
 30
0.0
 11
587.4214746403
 21
-29.6886764424
 31
0.0
  0
LINE
  5
124
330
E3
100
AcDbEntity
  8
0
  6
Continuous
 62
     7
370
    25
100
AcDbLine
 10
601.0407640086
 20
-21.8264280427
 30
0.0
 11
-106.066017178
 21
386.3776278687
 31
0.0
  0
LINE
  5
125
330
E3
100
AcDbEntity
  8
0
  6
Continuous
 62
     7
370
    25
100
AcDbLine
 10
-106.066017178
 20
370.6531310693
 30
0.0
 11
-106.066017178
 21
428.5392528989
 31
0.0
  0
LINE
  5
126
330
E3
100
AcDbEntity
  8
0
  6
Continuous
 62
     7
370
    25
100
AcDbLine
 10
-106.066017178
 20
386.3776278687
 30
0.0
 11
-601.0407640086
 21
100.6347887307
 31
0.0
  0
VIEWPORT
  5
1BD
330
E3
100
AcDbEntity
  8
0
100
AcDbViewport
 10
0.0
 20
0.0
 30
0.0
 40
205.6
 41
156.0
 68
     1
 69
     1
 12
0.0
 22
0.0
 13
0.0
 23
0.0
 14
10.0
 24
10.0
 15
10.0
 25
10.0
 16
0.0
 26
0.0
 36
1.0
 17
0.0
 27
0.0
 37
0.0
 42
50.0
 43
0.0
 44
0.0
 45
851.3229571984
 50
0.0
 51
0.0
 72
   100
 90
   557152
  1

281
     0
 71
     1
 74
     0
110
0.0
120
0.0
130
0.0
111
1.0
121
0.0
131
0.0
112
0.0
122
1.0
132
0.0
 79
     0
146
0.0
  0
ENDBLK
  5
E6
330
E3
100
AcDbEntity
  8
0
100
AcDbBlockEnd
  0
BLOCK
  5
129
330
127
100
AcDbEntity
  8
0
100
AcDbBlockBegin
  2
*Paper_Space6
 70
     0
 10
0.0
 20
0.0
 30
0.0
  3
*Paper_Space6
  1

  0
SPLINE
  5
13F
330
127
100
AcDbEntity
  8
0
  6
Continuous
 62
     7
370
    25
100
AcDbSpline
210
0.0
220
0.0
230
1.0
 70
     8
 71
     3
 72
    28
 73
    24
 74
     0
 42
0.000000001
 43
0.00000001
 40
0.0
 40
0.0
 40
0.0
 40
0.0
 40
0.1250000000000001
 40
0.1250000000000001
 40
0.2500000000000002
 40
0.2500000000000002
 40
0.3125000000000002
 40
0.3125000000000002
 40
0.3750000000000002
 40
0.3750000000000002
 40
0.5000000000000002
 40
0.5000000000000002
 40
0.5625000000000002
 40
0.5625000000000002
 40
0.6250000000000003
 40
0.6250000000000003
 40
0.7500000000000003
 40
0.7500000000000003
 40
0.8125000000000002
 40
0.8125000000000002
 40
0.8750000000000002
 40
0.8750000000000002
 40
1.0
 40
1.0
 40
1.0
 40
1.0
 10
119.8626204445371
 20
75.61629182629679
 30
0.0
 10
122.8285850525165
 20
76.30462983611166
 30
0.0
 10
125.658092351801
 20
77.0989409724933
 30
0.0
 10
131.0552389303007
 20
78.89069742083912
 30
0.0
 10
133.6228416545025
 20
79.88815867864513
 30
0.0
 10
137.2724067194993
 20
81.54047644128782
 30
0.0
 10
138.4588968312688
 20
82.11961428589548
 30
0.0
 10
140.7263444368104
 20
83.31257921849824
 30
0.0
 10
141.811182561519
 20
83.92787199058733
 30
0.0
 10
144.9219215296409
 20
85.82890770606377
 30
0.0
 10
146.8047856623714
 20
87.16948999201693
 30
0.0
 10
149.3394665707074
 20
89.29076214240858
 30
0.0
 10
150.1358868622663
 20
90.01632626741495
 30
0.0
 10
151.6287009339133
 20
91.50546762472729
 30
0.0
 10
152.3168756207847
 20
92.26099416676553
 30
0.0
 10
154.2046225338124
 20
94.55219849696105
 30
0.0
 10
155.2314799945221
 20
96.1155008008762
 30
0.0
 10
156.4274501245991
 20
98.51358483566813
 30
0.0
 10
156.7684861778899
 20
99.32184125013936
 30
0.0
 10
157.3329132823755
 20
100.9565255402088
 30
0.0
 10
157.556500314597
 20
101.7853366670996
 30
0.0
 10
158.0397106663866
 20
104.2692072341465
 30
0.0
 10
158.1166414838114
 20
105.9286950021
 30
0.0
 10
157.9470806195106
 20
107.5921244548887
 30
0.0
  0
SPLINE
  5
141
330
127
100
AcDbEntity
  8
0
  6
Continuous
 62
     7
370
    25
100
AcDbSpline
210
0.0
220
0.0
230
1.0
 70
     8
 71
     3
 72
    52
 73
    48
 74
     0
 42
0.000000001
 43
0.00000001
 40
0.0
 40
0.0
 40
0.0
 40
0.0
 40
0.0624999999999993
 40
0.0624999999999993
 40
0.1249999999999986
 40
0.1249999999999986
 40
0.1562499999999984
 40
0.1562499999999984
 40
0.1874999999999983
 40
0.1874999999999983
 40
0.2499999999999982
 40
0.2499999999999982
 40
0.3124999999999981
 40
0.3124999999999981
 40
0.3437499999999981
 40
0.3437499999999981
 40
0.3749999999999979
 40
0.3749999999999979
 40
0.4374999999999979
 40
0.4374999999999979
 40
0.4999999999999979
 40
0.4999999999999979
 40
0.5312499999999979
 40
0.5312499999999979
 40
0.5468749999999979
 40
0.5468749999999979
 40
0.562499999999998
 40
0.562499999999998
 40
0.6249999999999978
 40
0.6249999999999978
 40
0.6874999999999977
 40
0.6874999999999977
 40
0.7187499999999974
 40
0.7187499999999974
 40
0.7343749999999974
 40
0.7343749999999974
 40
0.7499999999999974
 40
0.7499999999999974
 40
0.8124999999999978
 40
0.8124999999999978
 40
0.8749999999999981
 40
0.8749999999999981
 40
0.9062499999999984
 40
0.9062499999999984
 40
0.9374999999999987
 40
0.9374999999999987
 40
1.0
 40
1.0
 40
1.0
 40
1.0
 10
29.86588305047447
 20
100.0754766531854
 30
0.0
 10
30.28815356549351
 20
98.82732008074655
 30
0.0
 10
30.84546469221521
 20
97.60380915090683
 30
0.0
 10
32.22011703342083
 20
95.20418070781977
 30
0.0
 10
33.03749229665587
 20
94.02806807220126
 30
0.0
 10
34.45889966263355
 20
92.29942803587139
 30
0.0
 10
34.96533875453163
 20
91.72914960642227
 30
0.0
 10
36.04450057173209
 20
90.6006308105011
 30
0.0
 10
36.61797600221221
 20
90.04170573187547
 30
0.0
 10
38.43557697318148
 20
88.38777980297064
 30
0.0
 10
39.7588870286795
 20
87.3312435478084
 30
0.0
 10
42.62073993915553
 20
85.306922752595
 30
0.0
 10
44.15931773566621
 20
84.33914559441713
 30
0.0
 10
46.62915358998598
 20
82.95415730483451
 30
0.0
 10
47.47949435670335
 20
82.50363334826972
 30
0.0
 10
49.23518543704808
 20
81.6252097649952
 30
0.0
 10
50.14259875828002
 20
81.19639776469906
 30
0.0
 10
52.93546044417065
 20
79.95099807378129
 30
0.0
 10
54.87286188888422
 20
79.1830689796151
 30
0.0
 10
58.89341775494478
 20
77.76749942201711
 30
0.0
 10
60.97659698750175
 20
77.11987043504213
 30
0.0
 10
64.2111340435731
 20
76.23898808382664
 30
0.0
 10
65.3076492425049
 20
75.96049056482057
 30
0.0
 10
66.98039064028367
 20
75.56581795571124
 30
0.0
 10
67.54263534430278
 20
75.43810846759119
 30
0.0
 10
68.67656578489049
 20
75.19047925778635
 30
0.0
 10
69.24906146161635
 20
75.07040683561762
 30
0.0
 10
72.11831432965977
 20
74.49315934421975
 30
0.0
 10
74.44445663833321
 20
74.10287294698453
 30
0.0
 10
79.15614994757848
 20
73.46056747085262
 30
0.0
 10
81.54170127803962
 20
73.20856148893706
 30
0.0
 10
85.16479682273096
 20
72.93484428455616
 30
0.0
 10
86.37997369275038
 20
72.86102866220028
 30
0.0
 10
88.21414769514098
 20
72.77690087973325
 30
0.0
 10
88.8274417952857
 20
72.75329369217357
 30
0.0
 10
90.0578826417694
 20
72.7150619564566
 30
0.0
 10
90.67502186023
 20
72.70045742798439
 30
0.0
 10
93.7503317680456
 20
72.65036208514901
 30
0.0
 10
96.19348327822505
 20
72.68284466604244
 30
0.0
 10
101.0466917030618
 20
72.88840740242519
 30
0.0
 10
103.456746902092
 20
73.06149917074885
 30
0.0
 10
107.0468444963993
 20
73.4273847489341
 30
0.0
 10
108.2393697126062
 20
73.56709657663008
 30
0.0
 10
110.6159209260689
 20
73.8826777886609
 30
0.0
 10
111.8023965468658
 20
74.05899883070603
 30
0.0
 10
115.3204300318395
 20
74.63880635483287
 30
0.0
 10
117.616341323708
 20
75.09338377993686
 30
0.0
 10
119.8626204445371
 20
75.6162918262968
 30
0.0
  0
SPLINE
  5
144
330
127
100
AcDbEntity
  8
0
  6
Continuous
 62
     7
370
    25
100
AcDbSpline
210
0.0
220
0.0
230
1.0
 70
     8
 71
     3
 72
    30
 73
    26
 74
     0
 42
0.000000001
 43
0.00000001
 40
0.0
 40
0.0
 40
0.0
 40
0.0
 40
0.1250000000000012
 40
0.1250000000000012
 40
0.2500000000000025
 40
0.2500000000000025
 40
0.3125000000000031
 40
0.3125000000000031
 40
0.3750000000000038
 40
0.3750000000000038
 40
0.5000000000000039
 40
0.5000000000000039
 40
0.5312500000000034
 40
0.5312500000000034
 40
0.562500000000003
 40
0.562500000000003
 40
0.6250000000000021
 40
0.6250000000000021
 40
0.7500000000000013
 40
0.7500000000000013
 40
0.812500000000001
 40
0.812500000000001
 40
0.8750000000000007
 40
0.8750000000000007
 40
1.0
 40
1.0
 40
1.0
 40
1.0
 10
59.4496072211027
 20
134.3616271790192
 30
0.0
 10
56.67785936839877
 20
133.4978417948871
 30
0.0
 10
54.06958245335311
 20
132.5359283975189
 30
0.0
 10
49.16730915540744
 20
130.4227734728139
 30
0.0
 10
46.87333377748286
 20
129.2715215567827
 30
0.0
 10
43.67471156942596
 20
127.3984198005047
 30
0.0
 10
42.64668985664272
 20
126.7475865361594
 30
0.0
 10
40.70620184375016
 20
125.4179804374291
 30
0.0
 10
39.78955363489498
 20
124.7370254116999
 30
0.0
 10
37.19698675645666
 20
122.6468096009168
 30
0.0
 10
35.67756711420956
 20
121.190463071566
 30
0.0
 10
34.04149338216252
 20
119.2912289961964
 30
0.0
 10
33.72750474189272
 20
118.9074244568988
 30
0.0
 10
33.12630241666061
 20
118.1318207055349
 30
0.0
 10
32.83870863357519
 20
117.7394637374814
 30
0.0
 10
32.01936438122428
 20
116.5539859178099
 30
0.0
 10
31.53436936463108
 20
115.757653319672
 30
0.0
 10
30.25757536230216
 20
113.3513398260809
 30
0.0
 10
29.64295049251064
 20
111.7241699154801
 30
0.0
 10
29.07268567378134
 20
109.2499002927997
 30
0.0
 10
28.94143978693867
 20
108.4195416695453
 30
0.0
 10
28.79914688148462
 20
106.7474609713477
 30
0.0
 10
28.78860511167514
 20
105.9047250031445
 30
0.0
 10
28.93967109533693
 20
103.3926454255155
 30
0.0
 10
29.28123679630735
 20
101.7286089832409
 30
0.0
 10
29.86588305047454
 20
100.0754766531855
 30
0.0
  0
SPLINE
  5
148
330
127
100
AcDbEntity
  8
0
  6
Continuous
 62
     7
370
    25
100
AcDbSpline
210
0.0
220
0.0
230
1.0
 70
     8
 71
     3
 72
    44
 73
    40
 74
     0
 42
0.000000001
 43
0.00000001
 40
0.0
 40
0.0
 40
0.0
 40
0.0
 40
0.0625000000000005
 40
0.0625000000000005
 40
0.0937500000000007
 40
0.0937500000000007
 40
0.1250000000000005
 40
0.1250000000000005
 40
0.1875000000000002
 40
0.1875000000000002
 40
0.2187500000000003
 40
0.2187500000000003
 40
0.2500000000000004
 40
0.2500000000000004
 40
0.3750000000000007
 40
0.3750000000000007
 40
0.4062500000000007
 40
0.4062500000000007
 40
0.4375000000000006
 40
0.4375000000000006
 40
0.5000000000000006
 40
0.5000000000000006
 40
0.5625000000000004
 40
0.5625000000000004
 40
0.5937500000000004
 40
0.5937500000000004
 40
0.6250000000000003
 40
0.6250000000000003
 40
0.75
 40
0.75
 40
0.78125
 40
0.78125
 40
0.8124999999999999
 40
0.8124999999999999
 40
0.8749999999999999
 40
0.8749999999999999
 40
0.9375
 40
0.9375
 40
1.0
 40
1.0
 40
1.0
 40
1.0
 10
156.3101118497461
 20
114.441650334537
 30
0.0
 10
155.7458592418214
 20
115.6104674821353
 30
0.0
 10
155.0685917853875
 20
116.7633521960936
 30
0.0
 10
153.8848582757803
 20
118.4700279229882
 30
0.0
 10
153.4622505724121
 20
119.035123254354
 30
0.0
 10
152.5605602893045
 20
120.1576283427748
 30
0.0
 10
152.0821930915727
 20
120.7140537246917
 30
0.0
 10
150.5703858584079
 20
122.3623243175477
 30
0.0
 10
149.4584563985432
 20
123.4358336728692
 30
0.0
 10
147.6338414743996
 20
125.0046125599784
 30
0.0
 10
146.9992146204055
 20
125.5206160287907
 30
0.0
 10
145.6890344563634
 20
126.5289444313353
 30
0.0
 10
145.0121663522996
 20
127.0224434555416
 30
0.0
 10
141.5207300604404
 20
129.4355013654889
 30
0.0
 10
138.3883265851997
 20
131.1925661188743
 30
0.0
 10
134.0421870051894
 20
133.1437466512479
 30
0.0
 10
133.1491385847847
 20
133.5224928925693
 30
0.0
 10
131.3281396543537
 20
134.250583831111
 30
0.0
 10
130.4036627502586
 20
134.5986473552694
 30
0.0
 10
127.5891750631806
 20
135.5955376521542
 30
0.0
 10
125.6582161710834
 20
136.1971444286039
 30
0.0
 10
121.6889130648498
 20
137.2758790639809
 30
0.0
 10
119.6505681593237
 20
137.7530063005813
 30
0.0
 10
116.5112948781493
 20
138.3744418314606
 30
0.0
 10
115.4512173703101
 20
138.5658578303189
 30
0.0
 10
113.3032087044092
 20
138.9168416890639
 30
0.0
 10
112.2155921386914
 20
139.07621787619
 30
0.0
 10
106.7722016252071
 20
139.7849757823306
 30
0.0
 10
102.3500815020242
 20
140.0804231971707
 30
0.0
 10
96.7389784695344
 20
140.1417724675023
 30
0.0
 10
95.61254064651439
 20
140.1385459702786
 30
0.0
 10
93.35107127273608
 20
140.1014301592292
 30
0.0
 10
92.21378940230817
 20
140.0674361414864
 30
0.0
 10
88.80574383477239
 20
139.9203563713969
 30
0.0
 10
86.54594451028551
 20
139.7630067165979
 30
0.0
 10
82.0505462367159
 20
139.3347776529284
 30
0.0
 10
79.81213231580573
 20
139.0631664167198
 30
0.0
 10
75.40964414645813
 20
138.4129713833525
 30
0.0
 10
73.239481806327
 20
138.0339334683845
 30
0.0
 10
71.10072448007607
 20
137.5997360052984
 30
0.0
  0
SPLINE
  5
149
330
127
100
AcDbEntity
  8
0
  6
Continuous
 62
     7
370
    25
100
AcDbSpline
210
0.0
220
0.0
230
1.0
 70
     8
 71
     3
 72
     8
 73
     4
 74
     0
 42
0.000000001
 43
0.00000001
 40
0.0
 40
0.0
 40
0.0
 40
0.0
 40
1.0
 40
1.0
 40
1.0
 40
1.0
 10
71.10072448007593
 20
137.5997360052984
 30
0.0
 10
67.0306727316817
 20
136.6906241572466
 30
0.0
 10
63.14364978674111
 20
135.6179398965045
 30
0.0
 10
59.44960722110272
 20
134.3616271790191
 30
0.0
  0
SPLINE
  5
14B
330
127
100
AcDbEntity
  8
0
  6
Continuous
 62
     7
370
    25
100
AcDbSpline
210
0.0
220
0.0
230
1.0
 70
     8
 71
     3
 72
     8
 73
     4
 74
     0
 42
0.000000001
 43
0.00000001
 40
0.0
 40
0.0
 40
0.0
 40
0.0
 40
1.0
 40
1.0
 40
1.0
 40
1.0
 10
157.9470806195107
 20
107.5921244548887
 30
0.0
 10
157.8137760470459
 20
109.8886281143815
 30
0.0
 10
157.2610154789454
 20
112.1679504009151
 30
0.0
 10
156.3101118497461
 20
114.441650334537
 30
0.0
  0
LWPOLYLINE
  5
14D
330
127
100
AcDbEntity
  8
0
  6
Continuous
 62
     7
370
    25
100
AcDbPolyline
 90
       72
 70
   128
 43
0.0
 10
72.3377852842
 20
75.7468998589
 10
68.9025436038
 20
76.7830721406
 10
65.6585509357
 20
77.9715588703
 10
62.6311959208
 20
79.3030585282
 10
59.8441717169
 20
80.7671503239
 10
57.319290567
 20
82.3523757541
 10
55.0763130895
 20
84.0463282806
 10
53.1327936243
 20
85.8357504279
 10
51.5039428464
 20
87.7066375417
 10
50.2025087216
 20
89.6443473936
 10
49.2386767364
 20
91.6337147769
 10
48.6199901829
 20
93.6591701943
 10
48.3512911224
 20
95.7048617111
 10
48.4346824892
 20
97.7547790176
 10
48.8695116328
 20
99.7928787313
 10
49.6523754256
 20
101.8032099588
 10
50.777146897
 20
103.7700391323
 10
52.2350231852
 20
105.677973147
 10
54.0145944316
 20
107.5120798323
 10
56.1019330784
 20
109.2580048165
 10
58.4807028705
 20
110.9020838695
 10
61.132286709
 20
112.4314498436
 10
64.0359323553
 20
113.8341333764
 10
67.1689148452
 20
115.0991565675
 10
70.506714343
 20
116.2166188952
 10
74.023208042
 20
117.1777747017
 10
77.6908746112
 20
117.9751016395
 10
81.4810095868
 20
118.6023595444
 10
85.3639500238
 20
119.0546392728
 10
89.3093066487
 20
119.3284011226
 10
93.2862016965
 20
119.4215025362
 10
97.2635105713
 20
119.3332148687
 10
101.2101054387
 20
119.0642290908
 10
105.0950988428
 20
118.616650381
 10
108.8880854427
 20
117.9939816495
 10
112.5593799755
 20
117.2010961234
 10
116.0802495839
 20
116.2441992069
 10
119.4231386893
 20
115.1307799159
 10
122.5618846521
 20
113.8695522659
 10
125.4719225294
 20
112.4703870734
 10
128.1304773293
 20
110.9442347029
 10
130.5167422558
 20
109.3030393661
 10
132.6120415506
 20
107.5596456417
 10
134.3999766556
 20
105.7276979493
 10
135.8665545545
 20
103.8215337635
 10
137.0002972868
 20
101.8560714035
 10
137.7923317785
 20
99.8466932771
 10
138.2364592857
 20
97.8091254927
 10
138.3292039086
 20
95.7593147807
 10
138.0698397946
 20
93.7133036892
 10
137.4603968198
 20
91.6871050291
 10
136.5056447016
 20
89.6965765521
 10
135.21305567
 20
87.7572968424
 10
133.5927459865
 20
85.8844433932
 10
131.6573967714
 20
84.0926738219
 10
129.4221547564
 20
82.3960111548
 10
126.9045137408
 20
80.8077340778
 10
124.1241776792
 20
79.3402730123
 10
121.102906471
 20
78.005112831
 10
117.8643456597
 20
76.8127029725
 10
114.4338413747
 20
75.7723756606
 10
110.8382419632
 20
74.8922728672
 10
107.1056878659
 20
74.1792825898
 10
103.2653913792
 20
73.6389849442
 10
99.3474080301
 20
73.2756084918
 10
95.3824013504
 20
73.0919971462
 10
91.4014028933
 20
73.0895879151
 10
87.4355693695
 20
73.268399654
 10
83.5159388033
 20
73.6270329186
 10
79.6731876184
 20
74.1626809173
 10
75.9373905529
 20
74.8711514783
 10
72.3377852842
 20
75.7468998589
  0
LWPOLYLINE
  5
14E
330
127
100
AcDbEntity
  8
0
  6
Continuous
 62
     7
370
    25
100
AcDbPolyline
 90
       23
 70
   128
 43
0.0
 10
71.1007244801
 20
137.5997360053
 10
75.7951212569
 20
138.3775254999
 10
80.5904962387
 20
138.9697791417
 10
85.4592485617
 20
139.3730880812
 10
90.3733550218
 20
139.5851309825
 10
95.3045313693
 20
139.604687385
 10
100.2243951047
 20
139.4316447272
 10
105.1046288408
 20
139.0669989953
 10
109.9171432899
 20
138.5128489902
 10
114.6342389379
 20
137.7723842474
 10
119.2287654753
 20
136.849866679
 10
123.6742780665
 20
135.7506060434
 10
127.9451895596
 20
134.4809293833
 10
132.0169177587
 20
133.0481446097
 10
135.8660269122
 20
131.460498439
 10
139.4703626031
 20
129.7271289273
 10
142.8091792628
 20
127.8580128746
 10
145.8632595779
 20
125.8639084004
 10
148.6150250992
 20
123.7562930235
 10
151.0486374186
 20
121.5472976005
 10
153.1500893307
 20
119.2496365034
 10
154.9072854541
 20
116.8765344397
 10
156.3101118497
 20
114.4416503345
  0
LWPOLYLINE
  5
14F
330
127
100
AcDbEntity
  8
0
  6
Continuous
 62
     7
370
    25
100
AcDbPolyline
 90
       35
 70
   128
 43
0.0
 10
138.0612374414
 20
93.673303263
 10
137.7923317785
 20
94.7036894729
 10
137.0002972868
 20
96.7130675993
 10
135.8665545545
 20
98.6785299593
 10
134.3999766556
 20
100.5846941451
 10
132.6120415506
 20
102.4166418375
 10
130.5167422558
 20
104.1600355619
 10
128.1304773293
 20
105.8012308987
 10
125.4719225294
 20
107.3273832692
 10
122.5618846521
 20
108.7265484617
 10
119.4231386893
 20
109.9877761117
 10
116.0802495839
 20
111.1011954027
 10
112.5593799755
 20
112.0580923192
 10
108.8880854427
 20
112.8509778453
 10
105.0950988428
 20
113.4736465768
 10
101.2101054387
 20
113.9212252866
 10
97.2635105713
 20
114.1902110644
 10
93.2862016965
 20
114.278498732
 10
89.3093066487
 20
114.1853973184
 10
85.3639500238
 20
113.9116354686
 10
81.4810095868
 20
113.4593557402
 10
77.6908746112
 20
112.8320978353
 10
74.023208042
 20
112.0347708974
 10
70.506714343
 20
111.073615091
 10
67.1689148452
 20
109.9561527633
 10
64.0359323553
 20
108.6911295722
 10
61.132286709
 20
107.2884460394
 10
58.4807028705
 20
105.7590800653
 10
56.1019330784
 20
104.1150010123
 10
54.0145944316
 20
102.369076028
 10
52.2350231852
 20
100.5349693428
 10
50.777146897
 20
98.6270353281
 10
49.6523754256
 20
96.6602061545
 10
48.8695116328
 20
94.6498749271
 10
48.6169181306
 20
93.673303263
  0
LINE
  5
150
330
127
100
AcDbEntity
  8
0
  6
Continuous
 62
     7
370
    25
100
AcDbLine
 10
299.7518113506
 20
-271.5464797628
 30
0.0
 11
299.7518113506
 21
-314.4048447979
 31
0.0
  0
LINE
  5
151
330
127
100
AcDbEntity
  8
0
  6
Continuous
 62
     7
370
    25
100
AcDbLine
 10
299.7518113506
 20
-271.5464797628
 30
0.0
 11
673.1081224946
 21
92.8607256807
 31
0.0
  0
LINE
  5
152
330
127
100
AcDbEntity
  8
0
  6
Continuous
 62
     7
370
    25
100
AcDbLine
 10
673.1081224946
 20
92.8607256807
 30
0.0
 11
673.1081224946
 21
50.0023606456
 31
0.0
  0
LINE
  5
153
330
127
100
AcDbEntity
  8
0
  6
Continuous
 62
     7
370
    25
100
AcDbLine
 10
299.7518113506
 20
-314.4048447979
 30
0.0
 11
673.1081224946
 21
50.0023606456
 31
0.0
  0
LINE
  5
154
330
127
100
AcDbEntity
  8
0
  6
Continuous
 62
     7
370
    25
100
AcDbLine
 10
-673.1081224946
 20
-7.1439956104
 30
0.0
 11
-673.1081224946
 21
-50.0023606456
 31
0.0
  0
LINE
  5
155
330
127
100
AcDbEntity
  8
0
  6
Continuous
 62
     7
370
    25
100
AcDbLine
 10
-673.1081224946
 20
-7.1439956104
 30
0.0
 11
299.7518113506
 21
-271.5464797628
 31
0.0
  0
LINE
  5
156
330
127
100
AcDbEntity
  8
0
  6
Continuous
 62
     7
370
    25
100
AcDbLine
 10
-673.1081224946
 20
-50.0023606456
 30
0.0
 11
299.7518113506
 21
-314.4048447979
 31
0.0
  0
LINE
  5
157
330
127
100
AcDbEntity
  8
0
  6
Continuous
 62
     7
370
    25
100
AcDbLine
 10
673.1081224946
 20
92.8607256807
 30
0.0
 11
-299.7518113506
 21
357.263209833
 31
0.0
  0
LINE
  5
158
330
127
100
AcDbEntity
  8
0
  6
Continuous
 62
     7
370
    25
100
AcDbLine
 10
-299.7518113506
 20
357.263209833
 30
0.0
 11
-673.1081224946
 21
-7.1439956104
 31
0.0
  0
LINE
  5
159
330
127
100
AcDbEntity
  8
0
  6
Continuous
 62
     7
370
    25
100
AcDbLine
 10
-299.7100390773
 20
357.1936223428
 30
0.0
 11
672.9730111436
 21
92.8392113694
 31
0.0
  0
LINE
  5
15A
330
127
100
AcDbEntity
  8
0
  6
Continuous
 62
     7
370
    25
100
AcDbLine
 10
-672.9730111436
 20
-7.1224812992
 30
0.0
 11
-299.7100390773
 21
357.1936223428
 31
0.0
  0
LINE
  5
15B
330
127
100
AcDbEntity
  8
0
  6
Continuous
 62
     7
370
    25
100
AcDbLine
 10
299.7100390773
 20
-271.4768922726
 30
0.0
 11
-672.9730111436
 21
-7.1224812992
 31
0.0
  0
LINE
  5
15C
330
127
100
AcDbEntity
  8
0
  6
Continuous
 62
     7
370
    25
100
AcDbLine
 10
672.9730111436
 20
92.8392113694
 30
0.0
 11
299.7100390773
 21
-271.4768922726
 31
0.0
  0
LINE
  5
15D
330
127
100
AcDbEntity
  8
0
  6
Continuous
 62
     7
370
    25
100
AcDbLine
 10
299.7100390773
 20
-271.4768922726
 30
0.0
 11
278.8656747132
 21
-238.2463884804
 31
0.0
  0
LINE
  5
15E
330
127
100
AcDbEntity
  8
0
  6
Continuous
 62
     7
370
    25
100
AcDbLine
 10
278.8656747132
 20
-238.2463884804
 30
0.0
 11
605.5524469642
 21
80.6099162826
 31
0.0
  0
LINE
  5
15F
330
127
100
AcDbEntity
  8
0
  6
Continuous
 62
     7
370
    25
100
AcDbLine
 10
672.9730111436
 20
92.8392113694
 30
0.0
 11
605.5524469642
 21
80.6099162826
 31
0.0
  0
LINE
  5
160
330
127
100
AcDbEntity
  8
0
  6
Continuous
 62
     7
370
    25
100
AcDbLine
 10
-605.5524469642
 20
2.1195062036
 30
0.0
 11
278.8656747132
 21
-238.2463884804
 31
0.0
  0
LINE
  5
161
330
127
100
AcDbEntity
  8
0
  6
Continuous
 62
     7
370
    25
100
AcDbLine
 10
-605.5524469642
 20
2.1195062036
 30
0.0
 11
-672.9730111436
 21
-7.1224812992
 31
0.0
  0
LINE
  5
162
330
127
100
AcDbEntity
  8
0
  6
Continuous
 62
     7
370
    25
100
AcDbLine
 10
590.1713320694
 20
65.5974766154
 30
0.0
 11
157.9470806195
 21
107.5921244549
 31
0.0
  0
LINE
  5
163
330
127
100
AcDbEntity
  8
0
  6
Continuous
 62
     7
370
    25
100
AcDbLine
 10
269.7255493394
 20
-235.762298253
 30
0.0
 11
119.8626204445
 21
75.6162918263
 31
0.0
  0
LINE
  5
164
330
127
100
AcDbEntity
  8
0
  6
Continuous
 62
     7
370
    25
100
AcDbLine
 10
-569.0260844495
 20
-7.8075764627
 30
0.0
 11
29.8658830505
 21
100.0754766532
 31
0.0
  0
LINE
  5
165
330
127
100
AcDbEntity
  8
0
  6
Continuous
 62
     7
370
    25
100
AcDbLine
 10
-592.3237745526
 20
-1.4757635018
 30
0.0
 11
-278.8656747132
 21
304.4689514438
 31
0.0
  0
LINE
  5
166
330
127
100
AcDbEntity
  8
0
  6
Continuous
 62
     7
370
    25
100
AcDbLine
 10
59.4496072211
 20
134.361627179
 30
0.0
 11
-278.8656747132
 21
304.4689514438
 31
0.0
  0
LINE
  5
167
330
127
100
AcDbEntity
  8
0
  6
Continuous
 62
     7
370
    25
100
AcDbLine
 10
-278.8656747132
 20
320.9758109666
 30
0.0
 11
-605.5524469642
 21
2.1195062036
 31
0.0
  0
LINE
  5
168
330
127
100
AcDbEntity
  8
0
  6
Continuous
 62
     7
370
    25
100
AcDbLine
 10
-278.8656747132
 20
320.9758109666
 30
0.0
 11
-299.7100390773
 21
357.1936223428
 31
0.0
  0
LINE
  5
169
330
127
100
AcDbEntity
  8
0
  6
Continuous
 62
     7
370
    25
100
AcDbLine
 10
-278.8656747132
 20
304.4689514438
 30
0.0
 11
-278.8656747132
 21
320.9758109666
 31
0.0
  0
LINE
  5
16A
330
127
100
AcDbEntity
  8
0
  6
Continuous
 62
     7
370
    25
100
AcDbLine
 10
-278.8656747132
 20
304.4689514438
 30
0.0
 11
592.3237745526
 21
67.6983264652
 31
0.0
  0
LINE
  5
16B
330
127
100
AcDbEntity
  8
0
  6
Continuous
 62
     7
370
    25
100
AcDbLine
 10
605.5524469642
 20
80.6099162826
 30
0.0
 11
-278.8656747132
 21
320.9758109666
 31
0.0
  0
VIEWPORT
  5
1BF
330
127
100
AcDbEntity
  8
0
100
AcDbViewport
 10
0.0
 20
0.0
 30
0.0
 40
205.6
 41
156.0
 68
     1
 69
     1
 12
0.0
 22
0.0
 13
0.0
 23
0.0
 14
10.0
 24
10.0
 15
10.0
 25
10.0
 16
0.0
 26
0.0
 36
1.0
 17
0.0
 27
0.0
 37
0.0
 42
50.0
 43
0.0
 44
0.0
 45
851.3229571984
 50
0.0
 51
0.0
 72
   100
 90
   557152
  1

281
     0
 71
     1
 74
     0
110
0.0
120
0.0
130
0.0
111
1.0
121
0.0
131
0.0
112
0.0
122
1.0
132
0.0
 79
     0
146
0.0
  0
ENDBLK
  5
12A
330
127
100
AcDbEntity
  8
0
100
AcDbBlockEnd
  0
BLOCK
  5
16E
330
16C
100
AcDbEntity
  8
0
100
AcDbBlockBegin
  2
*Paper_Space7
 70
     0
 10
0.0
 20
0.0
 30
0.0
  3
*Paper_Space7
  1

  0
SPLINE
  5
184
330
16C
100
AcDbEntity
  8
0
  6
Continuous
 62
     7
370
    25
100
AcDbSpline
210
0.0
220
0.0
230
1.0
 70
     8
 71
     3
 72
    28
 73
    24
 74
     0
 42
0.000000001
 43
0.00000001
 40
0.0
 40
0.0
 40
0.0
 40
0.0
 40
0.1250000000000001
 40
0.1250000000000001
 40
0.2500000000000002
 40
0.2500000000000002
 40
0.3125000000000002
 40
0.3125000000000002
 40
0.3750000000000002
 40
0.3750000000000002
 40
0.5000000000000002
 40
0.5000000000000002
 40
0.5625000000000002
 40
0.5625000000000002
 40
0.6250000000000003
 40
0.6250000000000003
 40
0.7500000000000003
 40
0.7500000000000003
 40
0.8125000000000002
 40
0.8125000000000002
 40
0.8750000000000002
 40
0.8750000000000002
 40
1.0
 40
1.0
 40
1.0
 40
1.0
 10
104.3077541615364
 20
60.27394296092172
 30
0.0
 10
107.0874409905138
 20
60.84247124778813
 30
0.0
 10
109.7063259368259
 20
61.47359583001395
 30
0.0
 10
114.6355092145353
 20
62.85571328165643
 30
0.0
 10
116.9457644582707
 20
63.60670921258667
 30
0.0
 10
120.1732987938782
 20
64.82510543159032
 30
0.0
 10
121.2125209364306
 20
65.24821307156253
 30
0.0
 10
123.1778310662244
 20
66.11221285327284
 30
0.0
 10
124.107421733866
 20
66.55421492763956
 30
0.0
 10
126.7401284085722
 20
67.90945677049318
 30
0.0
 10
128.2879809086275
 20
68.85174378660982
 30
0.0
 10
130.2953876885035
 20
70.32328582302922
 30
0.0
 10
130.9119063726103
 20
70.82352143211132
 30
0.0
 10
132.0363667777252
 20
71.84393523650944
 30
0.0
 10
132.5380821618656
 20
72.3585910449358
 30
0.0
 10
133.86158310279
 20
73.91048931828115
 30
0.0
 10
134.5050251297054
 20
74.95774171453895
 30
0.0
 10
135.1150933635298
 20
76.54728353829293
 30
0.0
 10
135.2590249818599
 20
77.08025821188062
 30
0.0
 10
135.4255603644572
 20
78.1526041027542
 30
0.0
 10
135.447783800051
 20
78.69351085903068
 30
0.0
 10
135.3286664510896
 20
80.30627532079068
 30
0.0
 10
135.004673395443
 20
81.37285982764669
 30
0.0
 10
134.4348197846989
 20
82.43119124599917
 30
0.0
  0
SPLINE
  5
186
330
16C
100
AcDbEntity
  8
0
  6
Continuous
 62
     7
370
    25
100
AcDbSpline
210
0.0
220
0.0
230
1.0
 70
     8
 71
     3
 72
    52
 73
    48
 74
     0
 42
0.000000001
 43
0.00000001
 40
0.0
 40
0.0
 40
0.0
 40
0.0
 40
0.0624999999999993
 40
0.0624999999999993
 40
0.1249999999999986
 40
0.1249999999999986
 40
0.1562499999999984
 40
0.1562499999999984
 40
0.1874999999999983
 40
0.1874999999999983
 40
0.2499999999999982
 40
0.2499999999999982
 40
0.3124999999999981
 40
0.3124999999999981
 40
0.3437499999999981
 40
0.3437499999999981
 40
0.3749999999999979
 40
0.3749999999999979
 40
0.4374999999999979
 40
0.4374999999999979
 40
0.4999999999999979
 40
0.4999999999999979
 40
0.5312499999999979
 40
0.5312499999999979
 40
0.5468749999999979
 40
0.5468749999999979
 40
0.562499999999998
 40
0.562499999999998
 40
0.6249999999999978
 40
0.6249999999999978
 40
0.6874999999999977
 40
0.6874999999999977
 40
0.7187499999999974
 40
0.7187499999999974
 40
0.7343749999999974
 40
0.7343749999999974
 40
0.7499999999999974
 40
0.7499999999999974
 40
0.8124999999999978
 40
0.8124999999999978
 40
0.8749999999999981
 40
0.8749999999999981
 40
0.9062499999999984
 40
0.9062499999999984
 40
0.9374999999999987
 40
0.9374999999999987
 40
1.0
 40
1.0
 40
1.0
 40
1.0
 10
9.121736085488683
 20
72.26625400824426
 30
0.0
 10
9.842039323362286
 20
71.48420977375733
 30
0.0
 10
10.69041593592107
 20
70.72356872761156
 30
0.0
 10
12.63378337040014
 20
69.24343017798259
 30
0.0
 10
13.72880648481322
 20
68.52393660189568
 30
0.0
 10
15.55660713519148
 20
67.47552258424258
 30
0.0
 10
16.19682681934299
 20
67.13120039481082
 30
0.0
 10
17.54013002645578
 20
66.45299668182956
 30
0.0
 10
18.24412597037414
 20
66.11870810415802
 30
0.0
 10
20.44701275067773
 20
65.13446740495357
 30
0.0
 10
22.01518047656828
 20
64.51239735633894
 30
0.0
 10
25.34360139013772
 20
63.3338649332017
 30
0.0
 10
27.10388576361882
 20
62.77740548521344
 30
0.0
 10
29.88886244788915
 20
61.99196615665023
 30
0.0
 10
30.84133974928438
 20
61.73837983388321
 30
0.0
 10
32.79538788242515
 20
61.24791046741965
 30
0.0
 10
33.79922607811042
 20
61.01052822223825
 30
0.0
 10
36.87086274775301
 20
60.32748650425154
 30
0.0
 10
38.9784176952339
 20
59.91504194963538
 30
0.0
 10
43.30897591096738
 20
59.172940073834
 30
0.0
 10
45.53199883249474
 20
58.8432869475573
 30
0.0
 10
48.95347864709483
 20
58.4111227110773
 30
0.0
 10
50.10849567862973
 20
58.27747982916623
 30
0.0
 10
51.86317465300364
 20
58.09289216247616
 30
0.0
 10
52.45176210397803
 20
58.03401077677231
 30
0.0
 10
53.63641507877264
 20
57.92160846587601
 30
0.0
 10
54.23332091966424
 20
57.86802270599505
 30
0.0
 10
57.2189739931463
 20
57.61514309550901
 30
0.0
 10
59.62067513315207
 20
57.45979410556054
 30
0.0
 10
64.44954681251197
 20
57.23991071395319
 30
0.0
 10
66.87671750279503
 20
57.17539039569796
 30
0.0
 10
70.53666656357484
 20
57.14715269524564
 30
0.0
 10
71.7598556812669
 20
57.14919209682307
 30
0.0
 10
73.59953047112012
 20
57.16973851947742
 30
0.0
 10
74.21357115080258
 20
57.1795036000278
 30
0.0
 10
75.4433042098558
 20
57.20494072117195
 30
0.0
 10
76.0589842871774
 20
57.22062527465614
 30
0.0
 10
79.12154577401415
 20
57.31330779002919
 30
0.0
 10
81.53711616719472
 20
57.43322480702747
 30
0.0
 10
86.30151386467172
 20
57.76181493875728
 30
0.0
 10
88.65033769858648
 20
57.97049739108395
 30
0.0
 10
92.12318462302191
 20
58.35064030010977
 30
0.0
 10
93.27238239964925
 20
58.48856784102881
 30
0.0
 10
95.55363714514787
 20
58.7872715162646
 30
0.0
 10
96.68801496603315
 20
58.94843640702846
 30
0.0
 10
100.0378461735413
 20
59.46287560580092
 30
0.0
 10
102.2056386207414
 20
59.84748635700191
 30
0.0
 10
104.3077541615364
 20
60.27394296092174
 30
0.0
  0
SPLINE
  5
189
330
16C
100
AcDbEntity
  8
0
  6
Continuous
 62
     7
370
    25
100
AcDbSpline
210
0.0
220
0.0
230
1.0
 70
     8
 71
     3
 72
    30
 73
    26
 74
     0
 42
0.000000001
 43
0.00000001
 40
0.0
 40
0.0
 40
0.0
 40
0.0
 40
0.1250000000000012
 40
0.1250000000000012
 40
0.2500000000000025
 40
0.2500000000000025
 40
0.3125000000000031
 40
0.3125000000000031
 40
0.3750000000000038
 40
0.3750000000000038
 40
0.5000000000000039
 40
0.5000000000000039
 40
0.5312500000000034
 40
0.5312500000000034
 40
0.562500000000003
 40
0.562500000000003
 40
0.6250000000000021
 40
0.6250000000000021
 40
0.7500000000000013
 40
0.7500000000000013
 40
0.812500000000001
 40
0.812500000000001
 40
0.8750000000000007
 40
0.8750000000000007
 40
1.0
 40
1.0
 40
1.0
 40
1.0
 10
30.25790676735637
 20
95.55624858221118
 30
0.0
 10
27.71679092233992
 20
94.89002069102709
 30
0.0
 10
25.36115823654257
 20
94.16689791913433
 30
0.0
 10
21.00649308291232
 20
92.61052999213895
 30
0.0
 10
19.00748444795983
 20
91.77727996735605
 30
0.0
 10
16.28394500361773
 20
90.44223316035335
 30
0.0
 10
15.42024453149431
 20
89.98158678646148
 30
0.0
 10
13.8140107307418
 20
89.04670743912105
 30
0.0
 10
13.06785289304187
 20
88.5709010983146
 30
0.0
 10
10.99663298165644
 20
87.11899978488822
 30
0.0
 10
9.837890647101347
 20
86.1185598851539
 30
0.0
 10
8.669180178847089
 20
84.82749369768652
 30
0.0
 10
8.44949416916297
 20
84.56724678672978
 30
0.0
 10
8.038577318704887
 20
84.0426550871113
 30
0.0
 10
7.8471026274499
 20
83.77793484859323
 30
0.0
 10
7.317755896058993
 20
82.98007890548823
 30
0.0
 10
7.027010758795589
 20
82.44673316294087
 30
0.0
 10
6.335638423103217
 20
80.84270410942639
 30
0.0
 10
6.11484213362233
 20
79.76808242736529
 30
0.0
 10
6.140593941157651
 20
78.14899719357591
 30
0.0
 10
6.20890267882606
 20
77.60811154236148
 30
0.0
 10
6.467521594889641
 20
76.52399636609047
 30
0.0
 10
6.658574942331602
 20
75.98013270615716
 30
0.0
 10
7.409203396669367
 20
74.3665621170355
 30
0.0
 10
8.146125497677875
 20
73.30779117598597
 30
0.0
 10
9.12173608548874
 20
72.26625400824427
 30
0.0
  0
SPLINE
  5
18D
330
16C
100
AcDbEntity
  8
0
  6
Continuous
 62
     7
370
    25
100
AcDbSpline
210
0.0
220
0.0
230
1.0
 70
     8
 71
     3
 72
    44
 73
    40
 74
     0
 42
0.000000001
 43
0.00000001
 40
0.0
 40
0.0
 40
0.0
 40
0.0
 40
0.0625000000000005
 40
0.0625000000000005
 40
0.0937500000000007
 40
0.0937500000000007
 40
0.1250000000000005
 40
0.1250000000000005
 40
0.1875000000000002
 40
0.1875000000000002
 40
0.2187500000000003
 40
0.2187500000000003
 40
0.2500000000000004
 40
0.2500000000000004
 40
0.3750000000000007
 40
0.3750000000000007
 40
0.4062500000000007
 40
0.4062500000000007
 40
0.4375000000000006
 40
0.4375000000000006
 40
0.5000000000000006
 40
0.5000000000000006
 40
0.5625000000000004
 40
0.5625000000000004
 40
0.5937500000000004
 40
0.5937500000000004
 40
0.6250000000000003
 40
0.6250000000000003
 40
0.75
 40
0.75
 40
0.78125
 40
0.78125
 40
0.8124999999999999
 40
0.8124999999999999
 40
0.8749999999999999
 40
0.8749999999999999
 40
0.9375
 40
0.9375
 40
1.0
 40
1.0
 40
1.0
 40
1.0
 10
131.2008742988453
 20
86.8342360465107
 30
0.0
 10
130.3678377025596
 20
87.576734992935
 30
0.0
 10
129.4275223352166
 20
88.3063036683862
 30
0.0
 10
127.8577385554572
 20
89.38257069905434
 30
0.0
 10
127.307870586456
 20
89.73829082748877
 30
0.0
 10
126.1545270489033
 20
90.44357500193023
 30
0.0
 10
125.5519898371544
 20
90.79252069294014
 30
0.0
 10
123.6740051674136
 20
91.8240140585005
 30
0.0
 10
122.3258170747755
 20
92.49294358934846
 30
0.0
 10
120.1586361201994
 20
93.46443894107587
 30
0.0
 10
119.4117896942773
 20
93.7829255418898
 30
0.0
 10
117.8830625007082
 20
94.4027783053141
 30
0.0
 10
117.0996094160961
 20
94.70487221006508
 30
0.0
 10
113.0884593306333
 20
96.17461667755315
 30
0.0
 10
109.5821298031382
 20
97.22036494624068
 30
0.0
 10
104.8215723446798
 20
98.33466116901005
 30
0.0
 10
103.8481436204688
 20
98.54831400886654
 30
0.0
 10
101.8726793169473
 20
98.95330865842466
 30
0.0
 10
100.8743888764814
 20
99.14395237973069
 30
0.0
 10
97.84850394329908
 20
99.68067432594066
 30
0.0
 10
95.78997807855642
 20
99.9915870511174
 30
0.0
 10
91.5918097213222
 20
100.5204817928165
 30
0.0
 10
89.4521667065502
 20
100.7384634079916
 30
0.0
 10
86.18094541415739
 20
100.9952504808415
 30
0.0
 10
85.08022505446753
 20
101.0691377573171
 30
0.0
 10
82.8577442230129
 20
101.1932909569261
 30
0.0
 10
81.73633933043415
 20
101.2434416596556
 30
0.0
 10
76.14303194649153
 20
101.4331772362682
 30
0.0
 10
71.65937891020064
 20
101.3936475644951
 30
0.0
 10
66.04301569878236
 20
101.1372084233171
 30
0.0
 10
64.91914539749716
 20
101.0755285289803
 30
0.0
 10
62.67016597105379
 20
100.9319589035556
 30
0.0
 10
61.54283591674572
 20
100.8498840496007
 30
0.0
 10
58.17572994711956
 20
100.5753631230764
 30
0.0
 10
55.95781819151912
 20
100.3555877435631
 30
0.0
 10
51.57524656892678
 20
99.84780688805925
 30
0.0
 10
49.40796688653261
 20
99.55921039368201
 30
0.0
 10
45.17537326619379
 20
98.92109183515494
 30
0.0
 10
43.10407935113201
 20
98.57093544556808
 30
0.0
 10
41.07824850959695
 20
98.18861962837927
 30
0.0
  0
SPLINE
  5
18E
330
16C
100
AcDbEntity
  8
0
  6
Continuous
 62
     7
370
    25
100
AcDbSpline
210
0.0
220
0.0
230
1.0
 70
     8
 71
     3
 72
     8
 73
     4
 74
     0
 42
0.000000001
 43
0.00000001
 40
0.0
 40
0.0
 40
0.0
 40
0.0
 40
1.0
 40
1.0
 40
1.0
 40
1.0
 10
41.07824850959682
 20
98.18861962837927
 30
0.0
 10
37.24153169727116
 20
97.40504839546307
 30
0.0
 10
33.630674408748
 20
96.53331364311788
 30
0.0
 10
30.25790676735639
 20
95.55624858221115
 30
0.0
  0
SPLINE
  5
190
330
16C
100
AcDbEntity
  8
0
  6
Continuous
 62
     7
370
    25
100
AcDbSpline
210
0.0
220
0.0
230
1.0
 70
     8
 71
     3
 72
     8
 73
     4
 74
     0
 42
0.000000001
 43
0.00000001
 40
0.0
 40
0.0
 40
0.0
 40
0.0
 40
1.0
 40
1.0
 40
1.0
 40
1.0
 10
134.434819784699
 20
82.43119124599917
 30
0.0
 10
133.7595525259406
 20
83.91826076590351
 30
0.0
 10
132.6746249897803
 20
85.38160879682827
 30
0.0
 10
131.2008742988453
 20
86.8342360465107
 30
0.0
  0
LWPOLYLINE
  5
191
330
16C
100
AcDbEntity
  8
0
  6
Continuous
 62
     7
370
    25
100
AcDbPolyline
 90
       46
 70
   128
 43
0.0
 10
29.3936256377
 20
62.0745495556
 10
28.0588364729
 20
63.2356632632
 10
26.9578006502
 20
64.5109013981
 10
26.1991904159
 20
65.813585853
 10
25.7889429237
 20
67.1335213558
 10
25.7302689164
 20
68.4603776216
 10
26.0236275976
 20
69.783770201
 10
26.666723038
 20
71.0933417528
 10
27.6545221438
 20
72.378843104
 10
28.9792940476
 20
73.6302134636
 10
30.6306706132
 20
74.8376591619
 10
32.5957275799
 20
75.9917302992
 10
34.8590857125
 20
77.083394704
 10
37.403031165
 20
78.1041086223
 10
40.207654115
 20
79.0458835837
 10
43.2510045852
 20
79.9013489222
 10
46.5092642318
 20
80.6638094617
 10
49.9569327555
 20
81.3272979147
 10
53.5670274755
 20
81.8866215845
 10
57.3112945059
 20
82.3374030049
 10
61.1604298805
 20
82.6761142001
 10
65.0843088961
 20
82.9001042959
 10
69.0522218792
 20
83.007620266
 10
73.033114531
 20
82.9978206522
 10
76.9958309688
 20
82.8707821497
 10
80.9093575637
 20
82.6274990071
 10
84.7430656639
 20
82.2698752449
 10
88.4669513056
 20
81.8007097537
 10
92.0518700347
 20
81.2236743898
 10
95.4697650015
 20
80.5432852372
 10
98.6938865437
 20
79.7648672636
 10
101.6990015387
 20
78.8945126449
 10
104.4615908874
 20
77.9390330863
 10
106.9600335823
 20
76.9059065106
 10
109.174775922
 20
75.8032185342
 10
111.0884845446
 20
74.6395991855
 10
112.6861820856
 20
73.4241553636
 10
113.9553643954
 20
72.1663995644
 10
114.8860984016
 20
70.8761754323
 10
115.4710998488
 20
69.5635807205
 10
115.7057903074
 20
68.2388882624
 10
115.5883330063
 20
66.9124655725
 10
115.1196472083
 20
65.5946937067
 10
114.3034010151
 20
64.2958860167
 10
113.1459826599
 20
63.0262074335
 10
112.1298626629
 20
62.1540694598
  0
LWPOLYLINE
  5
192
330
16C
100
AcDbEntity
  8
0
  6
Continuous
 62
     7
370
    25
100
AcDbPolyline
 90
       23
 70
   128
 43
0.0
 10
41.0782485096
 20
98.1886196284
 10
45.5494392065
 20
98.8819526172
 10
50.165451098
 20
99.4603004717
 10
54.8997156847
 20
99.9203343802
 10
59.7249838375
 20
100.2594065135
 10
64.6134826353
 20
100.4755652655
 10
69.537075219
 20
100.5675664855
 10
74.4674227392
 20
100.5348806398
 10
79.376147467
 20
100.3776958592
 10
84.2349961283
 20
100.0969168561
 10
89.016002522
 20
99.6941597176
 10
93.6916484857
 20
99.1717426033
 10
98.2350222829
 20
98.532672403
 10
102.6199734992
 20
97.7806274295
 10
106.8212635573
 20
96.9199362477
 10
110.8147109833
 20
95.95555276
 10
114.5773305884
 20
94.8930276934
 10
118.0874657653
 20
93.738476651
 10
121.3249131382
 20
92.4985449122
 10
124.2710388473
 20
91.1803691842
 10
126.9088858005
 20
89.7915365251
 10
129.2232712738
 20
88.3400406751
 10
131.2008742988
 20
86.8342360465
  0
LWPOLYLINE
  5
194
330
16C
100
AcDbEntity
  8
0
  6
Continuous
 62
     7
370
    25
100
AcDbPolyline
 90
       34
 70
   128
 43
0.0
 10
114.90343769
 20
65.1893835583
 10
114.8860984016
 20
65.2193211826
 10
113.9553643954
 20
66.5095453147
 10
112.6861820856
 20
67.7673011139
 10
111.0884845446
 20
68.9827449358
 10
109.174775922
 20
70.1463642845
 10
106.9600335823
 20
71.249052261
 10
104.4615908874
 20
72.2821788366
 10
101.6990015387
 20
73.2376583953
 10
98.6938865437
 20
74.1080130139
 10
95.4697650015
 20
74.8864309876
 10
92.0518700347
 20
75.5668201401
 10
88.4669513056
 20
76.1438555041
 10
84.7430656639
 20
76.6130209952
 10
80.9093575637
 20
76.9706447575
 10
76.9958309688
 20
77.2139279001
 10
73.033114531
 20
77.3409664026
 10
69.0522218792
 20
77.3507660164
 10
65.0843088961
 20
77.2432500463
 10
61.1604298805
 20
77.0192599505
 10
57.3112945059
 20
76.6805487552
 10
53.5670274755
 20
76.2297673348
 10
49.9569327555
 20
75.6704436651
 10
46.5092642318
 20
75.0069552121
 10
43.2510045852
 20
74.2444946725
 10
40.207654115
 20
73.389029334
 10
37.403031165
 20
72.4472543726
 10
34.8590857125
 20
71.4265404543
 10
32.5957275799
 20
70.3348760495
 10
30.6306706132
 20
69.1808049123
 10
28.9792940476
 20
67.973359214
 10
27.6545221438
 20
66.7219888543
 10
26.666723038
 20
65.4364875031
 10
26.5179185149
 20
65.1893835583
  0
LINE
  5
195
330
16C
100
AcDbEntity
  8
0
  6
Continuous
 62
     7
370
    25
100
AcDbLine
 10
373.0565344934
 20
-142.3995823648
 30
0.0
 11
373.0565344934
 21
-189.5400344454
 31
0.0
  0
LINE
  5
196
330
16C
100
AcDbEntity
  8
0
  6
Continuous
 62
     7
370
    25
100
AcDbLine
 10
373.0565344934
 20
-142.3995823648
 30
0.0
 11
655.8992469031
 21
107.0442433689
 31
0.0
  0
LINE
  5
197
330
16C
100
AcDbEntity
  8
0
  6
Continuous
 62
     7
370
    25
100
AcDbLine
 10
655.8992469031
 20
107.0442433689
 30
0.0
 11
655.8992469031
 21
59.9037912884
 31
0.0
  0
LINE
  5
198
330
16C
100
AcDbEntity
  8
0
  6
Continuous
 62
     7
370
    25
100
AcDbLine
 10
373.0565344934
 20
-189.5400344454
 30
0.0
 11
655.8992469031
 21
59.9037912884
 31
0.0
  0
LINE
  5
199
330
16C
100
AcDbEntity
  8
0
  6
Continuous
 62
     7
370
    25
100
AcDbLine
 10
-655.8992469031
 20
-12.7633392079
 30
0.0
 11
-655.8992469031
 21
-59.9037912884
 31
0.0
  0
LINE
  5
19A
330
16C
100
AcDbEntity
  8
0
  6
Continuous
 62
     7
370
    25
100
AcDbLine
 10
-655.8992469031
 20
-12.7633392079
 30
0.0
 11
373.0565344934
 21
-142.3995823648
 31
0.0
  0
LINE
  5
19B
330
16C
100
AcDbEntity
  8
0
  6
Continuous
 62
     7
370
    25
100
AcDbLine
 10
-655.8992469031
 20
-59.9037912884
 30
0.0
 11
373.0565344934
 21
-189.5400344454
 31
0.0
  0
LINE
  5
19C
330
16C
100
AcDbEntity
  8
0
  6
Continuous
 62
     7
370
    25
100
AcDbLine
 10
655.8992469031
 20
107.0442433689
 30
0.0
 11
-373.0565344934
 21
236.6804865259
 31
0.0
  0
LINE
  5
19D
330
16C
100
AcDbEntity
  8
0
  6
Continuous
 62
     7
370
    25
100
AcDbLine
 10
-373.0565344934
 20
236.6804865259
 30
0.0
 11
-655.8992469031
 21
-12.7633392079
 31
0.0
  0
LINE
  5
19E
330
16C
100
AcDbEntity
  8
0
  6
Continuous
 62
     7
370
    25
100
AcDbLine
 10
-372.9983483978
 20
236.6375209346
 30
0.0
 11
655.7703501294
 21
107.0248480037
 31
0.0
  0
LINE
  5
19F
330
16C
100
AcDbEntity
  8
0
  6
Continuous
 62
     7
370
    25
100
AcDbLine
 10
-655.7703501294
 20
-12.7439438427
 30
0.0
 11
-372.9983483978
 21
236.6375209346
 31
0.0
  0
LINE
  5
1A0
330
16C
100
AcDbEntity
  8
0
  6
Continuous
 62
     7
370
    25
100
AcDbLine
 10
372.9983483978
 20
-142.3566167736
 30
0.0
 11
-655.7703501294
 21
-12.7439438427
 31
0.0
  0
LINE
  5
1A1
330
16C
100
AcDbEntity
  8
0
  6
Continuous
 62
     7
370
    25
100
AcDbLine
 10
655.7703501294
 20
107.0248480037
 30
0.0
 11
372.9983483978
 21
-142.3566167736
 31
0.0
  0
LINE
  5
1A2
330
16C
100
AcDbEntity
  8
0
  6
Continuous
 62
     7
370
    25
100
AcDbLine
 10
372.9983483978
 20
-142.3566167736
 30
0.0
 11
343.9634866828
 21
-122.5596752485
 31
0.0
  0
LINE
  5
1A3
330
16C
100
AcDbEntity
  8
0
  6
Continuous
 62
     7
370
    25
100
AcDbLine
 10
343.9634866828
 20
-122.5596752485
 30
0.0
 11
591.4508600413
 21
95.7036722686
 31
0.0
  0
LINE
  5
1A4
330
16C
100
AcDbEntity
  8
0
  6
Continuous
 62
     7
370
    25
100
AcDbLine
 10
655.7703501294
 20
107.0248480037
 30
0.0
 11
591.4508600413
 21
95.7036722686
 31
0.0
  0
LINE
  5
1A5
330
16C
100
AcDbEntity
  8
0
  6
Continuous
 62
     7
370
    25
100
AcDbLine
 10
-591.4508600413
 20
-4.7085451058
 30
0.0
 11
343.9634866828
 21
-122.5596752485
 31
0.0
  0
LINE
  5
1A6
330
16C
100
AcDbEntity
  8
0
  6
Continuous
 62
     7
370
    25
100
AcDbLine
 10
-591.4508600413
 20
-4.7085451058
 30
0.0
 11
-655.7703501294
 21
-12.7439438427
 31
0.0
  0
LINE
  5
1A7
330
16C
100
AcDbEntity
  8
0
  6
Continuous
 62
     7
370
    25
100
AcDbLine
 10
571.1102364646
 20
77.7649284361
 30
0.0
 11
134.4348197847
 21
82.431191246
 31
0.0
  0
LINE
  5
1A8
330
16C
100
AcDbEntity
  8
0
  6
Continuous
 62
     7
370
    25
100
AcDbLine
 10
318.4873899308
 20
-119.3499887557
 30
0.0
 11
104.3077541615
 21
60.2739429609
 31
0.0
  0
LINE
  5
1A9
330
16C
100
AcDbEntity
  8
0
  6
Continuous
 62
     7
370
    25
100
AcDbLine
 10
-527.6082579698
 20
-12.7519569176
 30
0.0
 11
9.1217360855
 21
72.2662540082
 31
0.0
  0
LINE
  5
1AA
330
16C
100
AcDbEntity
  8
0
  6
Continuous
 62
     7
370
    25
100
AcDbLine
 10
-573.4371616596
 20
-6.9780577766
 30
0.0
 11
-343.9634866828
 21
195.3987010366
 31
0.0
  0
LINE
  5
1AB
330
16C
100
AcDbEntity
  8
0
  6
Continuous
 62
     7
370
    25
100
AcDbLine
 10
30.2579067674
 20
95.5562485822
 30
0.0
 11
-343.9634866828
 21
195.3987010366
 31
0.0
  0
LINE
  5
1AC
330
16C
100
AcDbEntity
  8
0
  6
Continuous
 62
     7
370
    25
100
AcDbLine
 10
-343.9634866828
 20
213.5548024112
 30
0.0
 11
-591.4508600413
 21
-4.7085451058
 31
0.0
  0
LINE
  5
1AD
330
16C
100
AcDbEntity
  8
0
  6
Continuous
 62
     7
370
    25
100
AcDbLine
 10
-343.9634866828
 20
213.5548024112
 30
0.0
 11
-372.9983483978
 21
236.6375209346
 31
0.0
  0
LINE
  5
1AE
330
16C
100
AcDbEntity
  8
0
  6
Continuous
 62
     7
370
    25
100
AcDbLine
 10
-343.9634866828
 20
195.3987010366
 30
0.0
 11
-343.9634866828
 21
213.5548024112
 31
0.0
  0
LINE
  5
1AF
330
16C
100
AcDbEntity
  8
0
  6
Continuous
 62
     7
370
    25
100
AcDbLine
 10
-343.9634866828
 20
195.3987010366
 30
0.0
 11
573.4371616596
 21
79.8170835647
 31
0.0
  0
LINE
  5
1B0
330
16C
100
AcDbEntity
  8
0
  6
Continuous
 62
     7
370
    25
100
AcDbLine
 10
591.4508600413
 20
95.7036722686
 30
0.0
 11
-343.9634866828
 21
213.5548024112
 31
0.0
  0
VIEWPORT
  5
1C1
330
16C
100
AcDbEntity
  8
0
100
AcDbViewport
 10
0.0
 20
0.0
 30
0.0
 40
205.6
 41
156.0
 68
     1
 69
     1
 12
0.0
 22
0.0
 13
0.0
 23
0.0
 14
10.0
 24
10.0
 15
10.0
 25
10.0
 16
0.0
 26
0.0
 36
1.0
 17
0.0
 27
0.0
 37
0.0
 42
50.0
 43
0.0
 44
0.0
 45
851.3229571984
 50
0.0
 51
0.0
 72
   100
 90
   557152
  1

281
     0
 71
     1
 74
     0
110
0.0
120
0.0
130
0.0
111
1.0
121
0.0
131
0.0
112
0.0
122
1.0
132
0.0
 79
     0
146
0.0
  0
ENDBLK
  5
16F
330
16C
100
AcDbEntity
  8
0
100
AcDbBlockEnd
  0
ENDSEC
  0
SECTION
  2
ENTITIES
  0
SPLINE
  5
83
330
1F
100
AcDbEntity
  8
0
  6
Continuous
 62
     7
370
    25
100
AcDbSpline
210
0.0
220
0.0
230
1.0
 70
     8
 71
     3
 72
    44
 73
    40
 74
     0
 42
0.000000001
 43
0.00000001
 40
0.0
 40
0.0
 40
0.0
 40
0.0
 40
0.0625000000000005
 40
0.0625000000000005
 40
0.0937500000000007
 40
0.0937500000000007
 40
0.1250000000000005
 40
0.1250000000000005
 40
0.1875000000000002
 40
0.1875000000000002
 40
0.2187500000000003
 40
0.2187500000000003
 40
0.2500000000000004
 40
0.2500000000000004
 40
0.3750000000000007
 40
0.3750000000000007
 40
0.4062500000000007
 40
0.4062500000000007
 40
0.4375000000000006
 40
0.4375000000000006
 40
0.5000000000000006
 40
0.5000000000000006
 40
0.5625000000000004
 40
0.5625000000000004
 40
0.5937500000000004
 40
0.5937500000000004
 40
0.6250000000000003
 40
0.6250000000000003
 40
0.75
 40
0.75
 40
0.78125
 40
0.78125
 40
0.8124999999999999
 40
0.8124999999999999
 40
0.8749999999999999
 40
0.8749999999999999
 40
0.9375
 40
0.9375
 40
1.0
 40
1.0
 40
1.0
 40
1.0
 10
48.17256978410774
 20
243.6394720453315
 30
0.0
 10
46.64444139045525
 20
245.3263364419914
 30
0.0
 10
45.03469379267431
 20
246.9257147690013
 30
0.0
 10
42.49887632670273
 20
249.1948381322984
 30
0.0
 10
41.6333625805128
 20
249.9295107827164
 30
0.0
 10
39.8615523456933
 20
251.3551318891636
 30
0.0
 10
38.9567494327347
 20
252.044782789236
 30
0.0
 10
36.19613512309204
 20
254.0369389392608
 30
0.0
 10
34.2902890933334
 20
255.2660818011516
 30
0.0
 10
31.33290859432786
 20
256.9608617382014
 30
0.0
 10
30.33039963995452
 20
257.5008504297017
 30
0.0
 10
28.31019838263803
 20
258.5219070946424
 30
0.0
 10
27.29033481096604
 20
259.0042725212168
 30
0.0
 10
22.14296876988645
 20
261.2776772707493
 30
0.0
 10
17.87285266508549
 20
262.6579450102457
 30
0.0
 10
12.34150488697198
 20
263.827625802475
 30
0.0
 10
11.22290868753698
 20
264.033880956261
 30
0.0
 10
8.977554668954742
 20
264.3870724749568
 30
0.0
 10
7.854992835914211
 20
264.5335001564171
 30
0.0
 10
4.487645795476489
 20
264.8841679824636
 30
0.0
 10
2.243198167467041
 20
265.0000278442768
 30
0.0
 10
-2.244811535954581
 20
264.9999721457119
 30
0.0
 10
-4.488373605737245
 20
264.8840550932072
 30
0.0
 10
-7.85304271744412
 20
264.5337217725645
 30
0.0
 10
-8.974486537028374
 20
264.3874759064713
 30
0.0
 10
-11.21714465782891
 20
264.0348665020478
 30
0.0
 10
-12.3379171701511
 20
263.8283398299863
 30
0.0
 10
-17.87494665992364
 20
262.6576805403805
 30
0.0
 10
-22.14610165262015
 20
261.276408596325
 30
0.0
 10
-27.29128951761056
 20
259.0038220861197
 30
0.0
 10
-28.31054150927134
 20
258.5217241344874
 30
0.0
 10
-30.32918356719232
 20
257.5014745929944
 30
0.0
 10
-31.33051841321505
 20
256.9621866704903
 30
0.0
 10
-34.28928913235956
 20
255.2667443232885
 30
0.0
 10
-36.19564168840557
 20
254.0372773278481
 30
0.0
 10
-39.87678141051712
 20
251.3808731200634
 30
0.0
 10
-41.6534045575676
 20
249.951383499871
 30
0.0
 10
-45.03465731695317
 20
246.9257548168612
 30
0.0
 10
-46.64444064239181
 20
245.3263372677607
 30
0.0
 10
-48.17256978410762
 20
243.6394720453316
 30
0.0
  0
SPLINE
  5
84
330
1F
100
AcDbEntity
  8
0
  6
Continuous
 62
     7
370
    25
100
AcDbSpline
210
0.0
220
0.0
230
1.0
 70
     8
 71
     3
 72
     8
 73
     4
 74
     0
 42
0.000000001
 43
0.00000001
 40
0.0
 40
0.0
 40
0.0
 40
0.0
 40
1.0
 40
1.0
 40
1.0
 40
1.0
 10
-48.17256978410772
 20
243.6394720453315
 30
0.0
 10
-51.01113406412873
 20
240.2977333082661
 30
0.0
 10
-53.52113663204332
 20
236.7255291940534
 30
0.0
 10
-55.68490230141023
 20
232.9106875675517
 30
0.0
  0
SPLINE
  5
87
330
1F
100
AcDbEntity
  8
0
  6
Continuous
 62
     7
370
    25
100
AcDbSpline
210
0.0
220
0.0
230
1.0
 70
     8
 71
     3
 72
     8
 73
     4
 74
     0
 42
0.000000001
 43
0.00000001
 40
0.0
 40
0.0
 40
0.0
 40
0.0
 40
1.0
 40
1.0
 40
1.0
 40
1.0
 10
55.68490230141028
 20
232.9106875675517
 30
0.0
 10
53.52113663204334
 20
236.7255291940534
 30
0.0
 10
51.01113406412875
 20
240.2977333082661
 30
0.0
 10
48.17256978410777
 20
243.6394720453315
 30
0.0
  0
SPLINE
  5
89
330
1F
100
AcDbEntity
  8
0
  6
Continuous
 62
     7
370
    25
100
AcDbSpline
210
0.0
220
0.0
230
1.0
 70
     8
 71
     3
 72
    30
 73
    26
 74
     0
 42
0.000000001
 43
0.00000001
 40
0.0
 40
0.0
 40
0.0
 40
0.0
 40
0.1250000000000012
 40
0.1250000000000012
 40
0.2500000000000025
 40
0.2500000000000025
 40
0.3125000000000031
 40
0.3125000000000031
 40
0.3750000000000038
 40
0.3750000000000038
 40
0.5000000000000039
 40
0.5000000000000039
 40
0.5312500000000034
 40
0.5312500000000034
 40
0.562500000000003
 40
0.562500000000003
 40
0.6250000000000021
 40
0.6250000000000021
 40
0.7500000000000013
 40
0.7500000000000013
 40
0.812500000000001
 40
0.812500000000001
 40
0.8750000000000007
 40
0.8750000000000007
 40
1.0
 40
1.0
 40
1.0
 40
1.0
 10
-55.68490230141028
 20
232.9106875675517
 30
0.0
 10
-57.34773657140832
 20
230.1227725338199
 30
0.0
 10
-58.77831363838174
 20
227.2449882993597
 30
0.0
 10
-61.19294182446859
 20
221.316640947567
 30
0.0
 10
-62.17696310198898
 20
218.2660662863661
 30
0.0
 10
-63.30867987284667
 20
213.5569745759411
 30
0.0
 10
-63.6285814904035
 20
211.9604408566552
 30
0.0
 10
-64.14168874278931
 20
208.7748797909529
 30
0.0
 10
-64.33661410838289
 20
207.1801507646904
 30
0.0
 10
-64.74042599346458
 20
202.390242009328
 30
0.0
 10
-64.76935871674517
 20
199.1893725495011
 30
0.0
 10
-64.50287704720694
 20
195.1787159326173
 30
0.0
 10
-64.43437236591164
 20
194.3761037133584
 30
0.0
 10
-64.26657517663413
 20
192.7699057136005
 30
0.0
 10
-64.16711651064095
 20
191.9651906070111
 30
0.0
 10
-63.82288352168742
 20
189.5572170711315
 30
0.0
 10
-63.53400166327874
 20
187.9705560824911
 30
0.0
 10
-62.49452280413209
 20
183.2648572593389
 30
0.0
 10
-61.57207882330574
 20
180.1997936726897
 30
0.0
 10
-59.84731307925769
 20
175.7093295538597
 30
0.0
 10
-59.21531781090852
 20
174.2304335301228
 30
0.0
 10
-57.83474190761932
 20
171.309257780348
 30
0.0
 10
-57.08480332839017
 20
169.8654872709167
 30
0.0
 10
-54.68778998315712
 20
165.6466839498066
 30
0.0
 10
-52.88617314725378
 20
162.9643843027252
 30
0.0
 10
-50.87906680573852
 20
160.4135235172097
 30
0.0
  0
SPLINE
  5
8B
330
1F
100
AcDbEntity
  8
0
  6
Continuous
 62
     7
370
    25
100
AcDbSpline
210
0.0
220
0.0
230
1.0
 70
     8
 71
     3
 72
    28
 73
    24
 74
     0
 42
0.000000001
 43
0.00000001
 40
0.0
 40
0.0
 40
0.0
 40
0.0
 40
0.1250000000000001
 40
0.1250000000000001
 40
0.2500000000000002
 40
0.2500000000000002
 40
0.3125000000000002
 40
0.3125000000000002
 40
0.3750000000000002
 40
0.3750000000000002
 40
0.5000000000000002
 40
0.5000000000000002
 40
0.5625000000000002
 40
0.5625000000000002
 40
0.6250000000000003
 40
0.6250000000000003
 40
0.7500000000000003
 40
0.7500000000000003
 40
0.8125000000000002
 40
0.8125000000000002
 40
0.8750000000000002
 40
0.8750000000000002
 40
1.0
 40
1.0
 40
1.0
 40
1.0
 10
50.8790668057385
 20
160.4135235172097
 30
0.0
 10
52.88642249345366
 20
162.9647012004551
 30
0.0
 10
54.67740831685503
 20
165.6335233292882
 30
0.0
 10
57.84415519286897
 20
171.1969343167852
 30
0.0
 10
59.21985824127452
 20
174.0915547698436
 30
0.0
 10
60.96337010501173
 20
178.607501632271
 30
0.0
 10
61.49227516425985
 20
180.1475144752761
 30
0.0
 10
62.42504728470596
 20
183.2383678949565
 30
0.0
 10
62.83103500588946
 20
184.7935048089494
 30
0.0
 10
63.87136309039215
 20
189.4874743866648
 30
0.0
 10
64.32898096860673
 20
192.6547192823616
 30
0.0
 10
64.65758558713665
 20
197.4631169697396
 30
0.0
 10
64.70723121507115
 20
199.0755451539493
 30
0.0
 10
64.68293862567386
 20
202.3202716154729
 30
0.0
 10
64.60900109915815
 20
203.9349573249706
 30
0.0
 10
64.20737254235947
 20
208.7409925677567
 30
0.0
 10
63.70071009142886
 20
211.9014242944718
 30
0.0
 10
62.58559460847099
 20
216.5772760871602
 30
0.0
 10
62.15446047024994
 20
218.1250498923895
 30
0.0
 10
61.17085511816163
 20
221.1984582364055
 30
0.0
 10
60.61639150678646
 20
222.7282884315767
 30
0.0
 10
58.78832851517513
 20
227.2279737487015
 30
0.0
 10
57.34800329334924
 20
230.1223253466754
 30
0.0
 10
55.68490230141022
 20
232.9106875675517
 30
0.0
  0
SPLINE
  5
8C
330
1F
100
AcDbEntity
  8
0
  6
Continuous
 62
     7
370
    25
100
AcDbSpline
210
0.0
220
0.0
230
1.0
 70
     8
 71
     3
 72
    52
 73
    48
 74
     0
 42
0.000000001
 43
0.00000001
 40
0.0
 40
0.0
 40
0.0
 40
0.0
 40
0.0624999999999993
 40
0.0624999999999993
 40
0.1249999999999986
 40
0.1249999999999986
 40
0.1562499999999984
 40
0.1562499999999984
 40
0.1874999999999983
 40
0.1874999999999983
 40
0.2499999999999982
 40
0.2499999999999982
 40
0.3124999999999981
 40
0.3124999999999981
 40
0.3437499999999981
 40
0.3437499999999981
 40
0.3749999999999979
 40
0.3749999999999979
 40
0.4374999999999979
 40
0.4374999999999979
 40
0.4999999999999979
 40
0.4999999999999979
 40
0.5312499999999979
 40
0.5312499999999979
 40
0.5468749999999979
 40
0.5468749999999979
 40
0.562499999999998
 40
0.562499999999998
 40
0.6249999999999978
 40
0.6249999999999978
 40
0.6874999999999977
 40
0.6874999999999977
 40
0.7187499999999974
 40
0.7187499999999974
 40
0.7343749999999974
 40
0.7343749999999974
 40
0.7499999999999974
 40
0.7499999999999974
 40
0.8124999999999978
 40
0.8124999999999978
 40
0.8749999999999981
 40
0.8749999999999981
 40
0.9062499999999984
 40
0.9062499999999984
 40
0.9374999999999987
 40
0.9374999999999987
 40
1.0
 40
1.0
 40
1.0
 40
1.0
 10
-50.87906680573855
 20
160.4135235172097
 30
0.0
 10
-49.37042654220779
 20
158.4593617775134
 30
0.0
 10
-47.76468675692423
 20
156.6105450577691
 30
0.0
 10
-44.36623522660685
 20
153.115760629775
 30
0.0
 10
-42.57349899751832
 20
151.469819479768
 30
0.0
 10
-39.74393412840465
 20
149.15329545495
 30
0.0
 10
-38.77727878414662
 20
148.4065805307272
 30
0.0
 10
-36.79630747759058
 20
146.9648583264791
 30
0.0
 10
-35.78070219399115
 20
146.2690205391141
 30
0.0
 10
-32.66876937804044
 20
144.2663249327938
 30
0.0
 10
-30.53744190748317
 20
143.0628106148584
 30
0.0
 10
-26.16540042490219
 20
140.9096721239302
 30
0.0
 10
-23.9246686469156
 20
139.9600891533868
 30
0.0
 10
-20.48125419171619
 20
138.7267744389986
 30
0.0
 10
-19.31969570880902
 20
138.3475921947524
 30
0.0
 10
-16.96862148816187
 20
137.6541172355371
 30
0.0
 10
-15.77645135901236
 20
137.3392147346846
 30
0.0
 10
-12.17499315784712
 20
136.4985524504844
 30
0.0
 10
-9.764203645004011
 20
136.0812685162222
 30
0.0
 10
-4.923670526738745
 20
135.5230899944455
 30
0.0
 10
-2.493923691939429
 20
135.3822424506577
 30
0.0
 10
1.164971110135372
 20
135.3791230450894
 30
0.0
 10
2.386987195820728
 20
135.4128538856843
 30
0.0
 10
4.223648435792099
 20
135.516486608254
 30
0.0
 10
4.836475399069243
 20
135.5598755782858
 30
0.0
 10
6.06335706240218
 20
135.6645564162395
 30
0.0
 10
6.678266042597325
 20
135.7259648469608
 30
0.0
 10
9.737708659331105
 20
136.0761426705441
 30
0.0
 10
12.1471743165721
 20
136.4943323987468
 30
0.0
 10
16.8924954319851
 20
137.5975044758823
 30
0.0
 10
19.22835051720401
 20
138.2824882384475
 30
0.0
 10
22.67666306431838
 20
139.511009994641
 30
0.0
 10
23.81683459517791
 20
139.9541009512083
 30
0.0
 10
25.51295609725409
 20
140.6699713397151
 30
0.0
 10
26.07597233365598
 20
140.9171397082235
 30
0.0
 10
27.19723124082689
 20
141.4287778249766
 30
0.0
 10
27.75544904731456
 20
141.6932785624767
 30
0.0
 10
30.51650631404501
 20
143.0504396597443
 30
0.0
 10
32.64424255696856
 20
144.2532435273269
 30
0.0
 10
36.74270492618147
 20
146.8854830215036
 30
0.0
 10
38.71342287381579
 20
148.3149304710635
 30
0.0
 10
41.55096199857994
 20
150.6302020529713
 30
0.0
 10
42.47700566545557
 20
151.4305429704462
 30
0.0
 10
44.28876984946486
 20
153.0894283061115
 30
0.0
 10
45.1762427505366
 20
153.9499007129894
 30
0.0
 10
47.75598122880266
 20
156.5993077029348
 30
0.0
 10
49.37041844277305
 20
158.4593512862084
 30
0.0
 10
50.8790668057385
 20
160.4135235172097
 30
0.0
  0
CIRCLE
  5
8D
330
1F
100
AcDbEntity
  8
0
  6
Continuous
 62
     7
370
    25
100
AcDbCircle
 10
0.0
 20
200.0
 30
0.0
 40
45.00000000000006
  0
LINE
  5
8E
330
1F
100
AcDbEntity
  8
0
  6
Continuous
 62
     7
370
    25
100
AcDbLine
 10
-500.0
 20
-350.0
 30
0.0
 11
500.0
 21
-350.0
 31
0.0
  0
LINE
  5
8F
330
1F
100
AcDbEntity
  8
0
  6
Continuous
 62
     7
370
    25
100
AcDbLine
 10
549.9
 20
-399.9
 30
0.0
 11
500.0
 21
-350.0
 31
0.0
  0
LINE
  5
90
330
1F
100
AcDbEntity
  8
0
  6
Continuous
 62
     7
370
    25
100
AcDbLine
 10
549.9
 20
-399.9
 30
0.0
 11
-549.9
 21
-399.9
 31
0.0
  0
LINE
  5
91
330
1F
100
AcDbEntity
  8
0
  6
Continuous
 62
     7
370
    25
100
AcDbLine
 10
-500.0
 20
-350.0
 30
0.0
 11
-549.9
 21
-399.9
 31
0.0
  0
LINE
  5
92
330
1F
100
AcDbEntity
  8
0
  6
Continuous
 62
     7
370
    25
100
AcDbLine
 10
-550.0
 20
400.0
 30
0.0
 11
-550.0
 21
-400.0
 31
0.0
  0
LINE
  5
93
330
1F
100
AcDbEntity
  8
0
  6
Continuous
 62
     7
370
    25
100
AcDbLine
 10
-549.9
 20
399.9
 30
0.0
 11
549.9
 21
399.9
 31
0.0
  0
LINE
  5
94
330
1F
100
AcDbEntity
  8
0
  6
Continuous
 62
     7
370
    25
100
AcDbLine
 10
-549.9
 20
-399.9
 30
0.0
 11
-549.9
 21
399.9
 31
0.0
  0
LINE
  5
95
330
1F
100
AcDbEntity
  8
0
  6
Continuous
 62
     7
370
    25
100
AcDbLine
 10
549.9
 20
399.9
 30
0.0
 11
549.9
 21
-399.9
 31
0.0
  0
LINE
  5
96
330
1F
100
AcDbEntity
  8
0
  6
Continuous
 62
     7
370
    25
100
AcDbLine
 10
550.0
 20
400.0
 30
0.0
 11
-550.0
 21
400.0
 31
0.0
  0
LINE
  5
97
330
1F
100
AcDbEntity
  8
0
  6
Continuous
 62
     7
370
    25
100
AcDbLine
 10
550.0
 20
-400.0
 30
0.0
 11
550.0
 21
400.0
 31
0.0
  0
LINE
  5
98
330
1F
100
AcDbEntity
  8
0
  6
Continuous
 62
     7
370
    25
100
AcDbLine
 10
-550.0
 20
-400.0
 30
0.0
 11
550.0
 21
-400.0
 31
0.0
  0
LINE
  5
99
330
1F
100
AcDbEntity
  8
0
  6
Continuous
 62
     7
370
    25
100
AcDbLine
 10
-500.0
 20
350.0
 30
0.0
 11
-500.0
 21
-350.0
 31
0.0
  0
LINE
  5
9A
330
1F
100
AcDbEntity
  8
0
  6
Continuous
 62
     7
370
    25
100
AcDbLine
 10
-500.0
 20
350.0
 30
0.0
 11
-549.9
 21
399.9
 31
0.0
  0
LINE
  5
9B
330
1F
100
AcDbEntity
  8
0
  6
Continuous
 62
     7
370
    25
100
AcDbLine
 10
500.0
 20
350.0
 30
0.0
 11
-500.0
 21
350.0
 31
0.0
  0
LINE
  5
9C
330
1F
100
AcDbEntity
  8
0
  6
Continuous
 62
     7
370
    25
100
AcDbLine
 10
549.9
 20
399.9
 30
0.0
 11
500.0
 21
350.0
 31
0.0
  0
LINE
  5
9D
330
1F
100
AcDbEntity
  8
0
  6
Continuous
 62
     7
370
    25
100
AcDbLine
 10
500.0
 20
-350.0
 30
0.0
 11
500.0
 21
350.0
 31
0.0
  0
LINE
  5
9E
330
1F
100
AcDbEntity
  8
0
  6
Continuous
 62
     7
370
    25
100
AcDbLine
 10
-55.6849023014
 20
232.9106875676
 30
0.0
 11
-500.0
 21
350.0
 31
0.0
  0
LINE
  5
9F
330
1F
100
AcDbEntity
  8
0
  6
Continuous
 62
     7
370
    25
100
AcDbLine
 10
500.0
 20
350.0
 30
0.0
 11
55.6849023014
 21
232.9106875676
 31
0.0
  0
LINE
  5
A0
330
1F
100
AcDbEntity
  8
0
  6
Continuous
 62
     7
370
    25
100
AcDbLine
 10
-500.0
 20
-350.0
 30
0.0
 11
-50.8790668057
 21
160.4135235172
 31
0.0
  0
LINE
  5
A1
330
1F
100
AcDbEntity
  8
0
  6
Continuous
 62
     7
370
    25
100
AcDbLine
 10
500.0
 20
-350.0
 30
0.0
 11
50.8790668057
 21
160.4135235172
 31
0.0
  0
LINE
  5
A6
330
1B
100
AcDbEntity
 67
     1
  8
0
  6
Continuous
 62
     7
370
    25
100
AcDbLine
 10
-550.0
 20
50.0
 30
0.0
 11
-550.0
 21
0.0
 31
0.0
  0
LINE
  5
A7
330
1B
100
AcDbEntity
 67
     1
  8
0
  6
Continuous
 62
     7
370
    25
100
AcDbLine
 10
-550.0
 20
50.0
 30
0.0
 11
550.0
 21
50.0
 31
0.0
  0
LINE
  5
A8
330
1B
100
AcDbEntity
 67
     1
  8
0
  6
Continuous
 62
     7
370
    25
100
AcDbLine
 10
550.0
 20
50.0
 30
0.0
 11
550.0
 21
0.0
 31
0.0
  0
LINE
  5
A9
330
1B
100
AcDbEntity
 67
     1
  8
0
  6
Continuous
 62
     7
370
    25
100
AcDbLine
 10
-550.0
 20
0.0
 30
0.0
 11
550.0
 21
0.0
 31
0.0
  0
VIEWPORT
  5
1B1
330
1B
100
AcDbEntity
 67
     1
  8
0
100
AcDbViewport
 10
0.0
 20
0.0
 30
0.0
 40
205.6
 41
156.0
 68
     1
 69
     1
 12
0.0
 22
0.0
 13
0.0
 23
0.0
 14
10.0
 24
10.0
 15
10.0
 25
10.0
 16
0.0
 26
0.0
 36
1.0
 17
0.0
 27
0.0
 37
0.0
 42
50.0
 43
0.0
 44
0.0
 45
851.3229571984
 50
0.0
 51
0.0
 72
   100
 90
   557152
  1

281
     0
 71
     1
 74
     0
110
0.0
120
0.0
130
0.0
111
1.0
121
0.0
131
0.0
112
0.0
122
1.0
132
0.0
 79
     0
146
0.0
  0
ENDSEC
  0
SECTION
  2
OBJECTS
  0
DICTIONARY
  5
C
330
0
100
AcDbDictionary
281
     1
  3
ACAD_GROUP
350
D
  3
ACAD_LAYOUT
350
1A
  3
ACAD_MLINESTYLE
350
17
  3
ACAD_PLOTSETTINGS
350
19
  3
ACAD_PLOTSTYLENAME
350
E
  3
ACAD_SCALELIST
350
47
  0
DICTIONARY
  5
D
102
{ACAD_REACTORS
330
C
102
}
330
C
100
AcDbDictionary
281
     1
  0
DICTIONARY
  5
1A
102
{ACAD_REACTORS
330
C
102
}
330
C
100
AcDbDictionary
281
     1
  3
_Dimetrisch
350
16D
  3
_Isometrisch
350
E4
  3
_Links
350
CB
  3
_Normal auf
350
B3
  3
_Rechts
350
26
  3
_Rückseite
350
BF
  3
_Trimetrisch
350
128
  3
_Unten
350
D7
  3
_Vorderseite
350
1E
  3
Model
350
22
  0
DICTIONARY
  5
17
102
{ACAD_REACTORS
330
C
102
}
330
C
100
AcDbDictionary
281
     1
  3
Standard
350
18
  0
DICTIONARY
  5
19
102
{ACAD_REACTORS
330
C
102
}
330
C
100
AcDbDictionary
281
     1
  0
ACDBDICTIONARYWDFLT
  5
E
102
{ACAD_REACTORS
330
C
102
}
330
C
100
AcDbDictionary
281
     1
  3
Normal
350
F
100
AcDbDictionaryWithDefault
340
F
  0
DICTIONARY
  5
47
102
{ACAD_REACTORS
330
C
102
}
330
C
100
AcDbDictionary
281
     1
  3
A0
350
48
  3
A1
350
49
  3
A2
350
4A
  3
A3
350
4B
  3
A4
350
4C
  3
A5
350
4D
  3
A6
350
4E
  3
A7
350
4F
  3
A8
350
50
  3
A9
350
51
  3
B0
350
52
  3
B1
350
53
  3
B2
350
54
  3
B3
350
55
  3
B4
350
56
  3
B5
350
57
  3
B6
350
58
  3
B7
350
59
  3
B8
350
5A
  3
B9
350
5B
  3
C0
350
5C
  3
C1
350
5D
  3
C2
350
5E
  3
C3
350
5F
  3
C4
350
60
  3
C5
350
61
  3
C6
350
62
  3
C7
350
63
  3
C8
350
64
  3
C9
350
65
  3
D0
350
66
  3
D1
350
67
  3
D2
350
68
  0
LAYOUT
  5
16D
102
{ACAD_REACTORS
330
1A
102
}
330
1A
100
AcDbPlotSettings
  1

  2
none_device
  4
ISO_A4_(210.00_x_297.00_MM)
  6

 40
7.5
 41
20.0
 42
7.5
 43
20.0
 44
210.0
 45
297.0
 46
0.0
 47
0.0
 48
0.0
 49
0.0
140
0.0
141
0.0
142
1.0
143
4.280155642
 70
   688
 72
     1
 73
     1
 74
     1
  7

 75
     0
147
0.2336363636
148
550.0
149
0.0
100
AcDbLayout
  1
_Dimetrisch
 70
     1
 71
     9
 10
0.0
 20
0.0
 11
0.0
 21
0.0
 12
0.0
 22
0.0
 32
0.0
 14
0.0
 24
0.0
 34
0.0
 15
0.0
 25
0.0
 35
0.0
146
0.0
 13
0.0
 23
0.0
 33
0.0
 16
1.0
 26
0.0
 36
0.0
 17
0.0
 27
1.0
 37
0.0
 76
     0
330
16C
331
1C1
  0
LAYOUT
  5
E4
102
{ACAD_REACTORS
330
1A
102
}
330
1A
100
AcDbPlotSettings
  1

  2
none_device
  4
ISO_A4_(210.00_x_297.00_MM)
  6

 40
7.5
 41
20.0
 42
7.5
 43
20.0
 44
210.0
 45
297.0
 46
0.0
 47
0.0
 48
0.0
 49
0.0
140
0.0
141
0.0
142
1.0
143
4.280155642
 70
   688
 72
     1
 73
     1
 74
     1
  7

 75
     0
147
0.2336363636
148
550.0
149
0.0
100
AcDbLayout
  1
_Isometrisch
 70
     1
 71
     7
 10
0.0
 20
0.0
 11
0.0
 21
0.0
 12
0.0
 22
0.0
 32
0.0
 14
0.0
 24
0.0
 34
0.0
 15
0.0
 25
0.0
 35
0.0
146
0.0
 13
0.0
 23
0.0
 33
0.0
 16
1.0
 26
0.0
 36
0.0
 17
0.0
 27
1.0
 37
0.0
 76
     0
330
E3
331
1BD
  0
LAYOUT
  5
CB
102
{ACAD_REACTORS
330
1A
102
}
330
1A
100
AcDbPlotSettings
  1

  2
none_device
  4
ISO_A4_(210.00_x_297.00_MM)
  6

 40
7.5
 41
20.0
 42
7.5
 43
20.0
 44
210.0
 45
297.0
 46
0.0
 47
0.0
 48
0.0
 49
0.0
140
0.0
141
0.0
142
1.0
143
4.280155642
 70
   688
 72
     1
 73
     1
 74
     1
  7

 75
     0
147
0.2336363636
148
550.0
149
0.0
100
AcDbLayout
  1
_Links
 70
     1
 71
     5
 10
0.0
 20
0.0
 11
0.0
 21
0.0
 12
0.0
 22
0.0
 32
0.0
 14
0.0
 24
0.0
 34
0.0
 15
0.0
 25
0.0
 35
0.0
146
0.0
 13
0.0
 23
0.0
 33
0.0
 16
1.0
 26
0.0
 36
0.0
 17
0.0
 27
1.0
 37
0.0
 76
     0
330
CA
331
1B9
  0
LAYOUT
  5
B3
102
{ACAD_REACTORS
330
1A
102
}
330
1A
100
AcDbPlotSettings
  1

  2
none_device
  4
ISO_A4_(210.00_x_297.00_MM)
  6

 40
7.5
 41
20.0
 42
7.5
 43
20.0
 44
210.0
 45
297.0
 46
0.0
 47
0.0
 48
0.0
 49
0.0
140
0.0
141
0.0
142
1.0
143
4.280155642
 70
   688
 72
     1
 73
     1
 74
     1
  7

 75
     0
147
0.2336363636
148
550.0
149
0.0
100
AcDbLayout
  1
_Normal auf
 70
     1
 71
     3
 10
0.0
 20
0.0
 11
0.0
 21
0.0
 12
0.0
 22
0.0
 32
0.0
 14
0.0
 24
0.0
 34
0.0
 15
0.0
 25
0.0
 35
0.0
146
0.0
 13
0.0
 23
0.0
 33
0.0
 16
1.0
 26
0.0
 36
0.0
 17
0.0
 27
1.0
 37
0.0
 76
     0
330
B2
331
1B5
  0
LAYOUT
  5
26
102
{ACAD_REACTORS
330
1A
102
}
330
1A
100
AcDbPlotSettings
  1

  2
none_device
  4
ISO_A4_(210.00_x_297.00_MM)
  6

 40
7.5
 41
20.0
 42
7.5
 43
20.0
 44
210.0
 45
297.0
 46
0.0
 47
0.0
 48
0.0
 49
0.0
140
0.0
141
0.0
142
1.0
143
4.280155642
 70
   688
 72
     1
 73
     1
 74
     1
  7

 75
     0
147
0.2336363636
148
550.0
149
0.0
100
AcDbLayout
  1
_Rechts
 70
     1
 71
     2
 10
0.0
 20
0.0
 11
0.0
 21
0.0
 12
0.0
 22
0.0
 32
0.0
 14
0.0
 24
0.0
 34
0.0
 15
0.0
 25
0.0
 35
0.0
146
0.0
 13
0.0
 23
0.0
 33
0.0
 16
1.0
 26
0.0
 36
0.0
 17
0.0
 27
1.0
 37
0.0
 76
     0
330
23
331
1B3
  0
LAYOUT
  5
BF
102
{ACAD_REACTORS
330
1A
102
}
330
1A
100
AcDbPlotSettings
  1

  2
none_device
  4
ISO_A4_(210.00_x_297.00_MM)
  6

 40
7.5
 41
20.0
 42
7.5
 43
20.0
 44
210.0
 45
297.0
 46
0.0
 47
0.0
 48
0.0
 49
0.0
140
0.0
141
0.0
142
1.0
143
4.280155642
 70
   688
 72
     1
 73
     1
 74
     1
  7

 75
     0
147
0.2336363636
148
550.0
149
0.0
100
AcDbLayout
  1
_Rückseite
 70
     1
 71
     4
 10
0.0
 20
0.0
 11
0.0
 21
0.0
 12
0.0
 22
0.0
 32
0.0
 14
0.0
 24
0.0
 34
0.0
 15
0.0
 25
0.0
 35
0.0
146
0.0
 13
0.0
 23
0.0
 33
0.0
 16
1.0
 26
0.0
 36
0.0
 17
0.0
 27
1.0
 37
0.0
 76
     0
330
BE
331
1B7
  0
LAYOUT
  5
128
102
{ACAD_REACTORS
330
1A
102
}
330
1A
100
AcDbPlotSettings
  1

  2
none_device
  4
ISO_A4_(210.00_x_297.00_MM)
  6

 40
7.5
 41
20.0
 42
7.5
 43
20.0
 44
210.0
 45
297.0
 46
0.0
 47
0.0
 48
0.0
 49
0.0
140
0.0
141
0.0
142
1.0
143
4.280155642
 70
   688
 72
     1
 73
     1
 74
     1
  7

 75
     0
147
0.2336363636
148
550.0
149
0.0
100
AcDbLayout
  1
_Trimetrisch
 70
     1
 71
     8
 10
0.0
 20
0.0
 11
0.0
 21
0.0
 12
0.0
 22
0.0
 32
0.0
 14
0.0
 24
0.0
 34
0.0
 15
0.0
 25
0.0
 35
0.0
146
0.0
 13
0.0
 23
0.0
 33
0.0
 16
1.0
 26
0.0
 36
0.0
 17
0.0
 27
1.0
 37
0.0
 76
     0
330
127
331
1BF
  0
LAYOUT
  5
D7
102
{ACAD_REACTORS
330
1A
102
}
330
1A
100
AcDbPlotSettings
  1

  2
none_device
  4
ISO_A4_(210.00_x_297.00_MM)
  6

 40
7.5
 41
20.0
 42
7.5
 43
20.0
 44
210.0
 45
297.0
 46
0.0
 47
0.0
 48
0.0
 49
0.0
140
0.0
141
0.0
142
1.0
143
4.280155642
 70
   688
 72
     1
 73
     1
 74
     1
  7

 75
     0
147
0.2336363636
148
550.0
149
0.0
100
AcDbLayout
  1
_Unten
 70
     1
 71
     6
 10
0.0
 20
0.0
 11
0.0
 21
0.0
 12
0.0
 22
0.0
 32
0.0
 14
0.0
 24
0.0
 34
0.0
 15
0.0
 25
0.0
 35
0.0
146
0.0
 13
0.0
 23
0.0
 33
0.0
 16
1.0
 26
0.0
 36
0.0
 17
0.0
 27
1.0
 37
0.0
 76
     0
330
D6
331
1BB
  0
LAYOUT
  5
1E
102
{ACAD_REACTORS
330
1A
102
}
330
1A
100
AcDbPlotSettings
  1

  2
none_device
  4
ISO_A4_(210.00_x_297.00_MM)
  6

 40
7.5
 41
20.0
 42
7.5
 43
20.0
 44
210.0
 45
297.0
 46
0.0
 47
0.0
 48
0.0
 49
0.0
140
0.0
141
0.0
142
1.0
143
4.280155642
 70
   688
 72
     1
 73
     1
 74
     1
  7

 75
     0
147
0.2336363636
148
550.0
149
0.0
100
AcDbLayout
  1
_Vorderseite
 70
     1
 71
     1
 10
-635.6031128405
 20
-32.1011673152
 11
635.6031128405
 21
866.7315175097
 12
0.0
 22
0.0
 32
0.0
 14
-550.0
 24
0.0
 34
0.0
 15
550.0
 25
50.0
 35
0.0
146
0.0
 13
0.0
 23
0.0
 33
0.0
 16
1.0
 26
0.0
 36
0.0
 17
0.0
 27
1.0
 37
0.0
 76
     0
330
1B
331
1B1
  0
LAYOUT
  5
22
102
{ACAD_REACTORS
330
1A
102
}
330
1A
100
AcDbPlotSettings
  1

  2
none_device
  4
ANSI_A_(11.00_x_8.50_Inches)
  6

 40
6.35
 41
19.05
 42
6.35000508
 43
19.05000254
 44
279.4
 45
215.9
 46
133.34999746
 47
88.89999873
 48
0.0
 49
0.0
140
0.0
141
0.0
142
0.0099
143
1.0
 70
  1696
 72
     0
 73
     0
 74
     0
  7

 75
     0
147
0.0179189148
148
-1300.4909072572
149
0.0
100
AcDbLayout
  1
Model
 70
     1
 71
     0
 10
0.0
 20
0.0
 11
420.0
 21
297.0
 12
0.0
 22
0.0
 32
0.0
 14
-550.0
 24
-400.0
 34
0.0
 15
550.0
 25
400.0
 35
0.0
146
0.0
 13
0.0
 23
0.0
 33
0.0
 16
1.0
 26
0.0
 36
0.0
 17
0.0
 27
1.0
 37
0.0
 76
     0
330
1F
331
29
  0
MLINESTYLE
  5
18
102
{ACAD_REACTORS
330
17
102
}
330
17
100
AcDbMlineStyle
  2
Standard
 70
     0
  3

 62
   256
 51
90.0
 52
90.0
 71
     2
 49
0.5
 62
   256
  6
BYLAYER
 49
-0.5
 62
   256
  6
BYLAYER
  0
ACDBPLACEHOLDER
  5
F
102
{ACAD_REACTORS
330
E
102
}
330
E
  0
SCALE
  5
48
102
{ACAD_REACTORS
330
47
102
}
330
47
100
AcDbScale
 70
     0
300
1:1
140
1.0
141
1.0
290
     1
  0
SCALE
  5
49
102
{ACAD_REACTORS
330
47
102
}
330
47
100
AcDbScale
 70
     0
300
1:2
140
1.0
141
2.0
290
     0
  0
SCALE
  5
4A
102
{ACAD_REACTORS
330
47
102
}
330
47
100
AcDbScale
 70
     0
300
1:4
140
1.0
141
4.0
290
     0
  0
SCALE
  5
4B
102
{ACAD_REACTORS
330
47
102
}
330
47
100
AcDbScale
 70
     0
300
1:5
140
1.0
141
5.0
290
     0
  0
SCALE
  5
4C
102
{ACAD_REACTORS
330
47
102
}
330
47
100
AcDbScale
 70
     0
300
1:8
140
1.0
141
8.0
290
     0
  0
SCALE
  5
4D
102
{ACAD_REACTORS
330
47
102
}
330
47
100
AcDbScale
 70
     0
300
1:10
140
1.0
141
10.0
290
     0
  0
SCALE
  5
4E
102
{ACAD_REACTORS
330
47
102
}
330
47
100
AcDbScale
 70
     0
300
1:16
140
1.0
141
16.0
290
     0
  0
SCALE
  5
4F
102
{ACAD_REACTORS
330
47
102
}
330
47
100
AcDbScale
 70
     0
300
1:20
140
1.0
141
20.0
290
     0
  0
SCALE
  5
50
102
{ACAD_REACTORS
330
47
102
}
330
47
100
AcDbScale
 70
     0
300
1:30
140
1.0
141
30.0
290
     0
  0
SCALE
  5
51
102
{ACAD_REACTORS
330
47
102
}
330
47
100
AcDbScale
 70
     0
300
1:40
140
1.0
141
40.0
290
     0
  0
SCALE
  5
52
102
{ACAD_REACTORS
330
47
102
}
330
47
100
AcDbScale
 70
     0
300
1:50
140
1.0
141
50.0
290
     0
  0
SCALE
  5
53
102
{ACAD_REACTORS
330
47
102
}
330
47
100
AcDbScale
 70
     0
300
1:100
140
1.0
141
100.0
290
     0
  0
SCALE
  5
54
102
{ACAD_REACTORS
330
47
102
}
330
47
100
AcDbScale
 70
     0
300
2:1
140
2.0
141
1.0
290
     0
  0
SCALE
  5
55
102
{ACAD_REACTORS
330
47
102
}
330
47
100
AcDbScale
 70
     0
300
4:1
140
4.0
141
1.0
290
     0
  0
SCALE
  5
56
102
{ACAD_REACTORS
330
47
102
}
330
47
100
AcDbScale
 70
     0
300
8:1
140
8.0
141
1.0
290
     0
  0
SCALE
  5
57
102
{ACAD_REACTORS
330
47
102
}
330
47
100
AcDbScale
 70
     0
300
10:1
140
10.0
141
1.0
290
     0
  0
SCALE
  5
58
102
{ACAD_REACTORS
330
47
102
}
330
47
100
AcDbScale
 70
     0
300
100:1
140
100.0
141
1.0
290
     0
  0
SCALE
  5
59
102
{ACAD_REACTORS
330
47
102
}
330
47
100
AcDbScale
 70
     0
300
1/128" = 1'-0"
140
0.0078125
141
12.0
290
     0
  0
SCALE
  5
5A
102
{ACAD_REACTORS
330
47
102
}
330
47
100
AcDbScale
 70
     0
300
1/64" = 1'-0"
140
0.015625
141
12.0
290
     0
  0
SCALE
  5
5B
102
{ACAD_REACTORS
330
47
102
}
330
47
100
AcDbScale
 70
     0
300
1/32" = 1'-0"
140
0.03125
141
12.0
290
     0
  0
SCALE
  5
5C
102
{ACAD_REACTORS
330
47
102
}
330
47
100
AcDbScale
 70
     0
300
1/16" = 1'-0"
140
0.0625
141
12.0
290
     0
  0
SCALE
  5
5D
102
{ACAD_REACTORS
330
47
102
}
330
47
100
AcDbScale
 70
     0
300
3/32" = 1'-0"
140
0.09375
141
12.0
290
     0
  0
SCALE
  5
5E
102
{ACAD_REACTORS
330
47
102
}
330
47
100
AcDbScale
 70
     0
300
1/8" = 1'-0"
140
0.125
141
12.0
290
     0
  0
SCALE
  5
5F
102
{ACAD_REACTORS
330
47
102
}
330
47
100
AcDbScale
 70
     0
300
3/16" = 1'-0"
140
0.1875
141
12.0
290
     0
  0
SCALE
  5
60
102
{ACAD_REACTORS
330
47
102
}
330
47
100
AcDbScale
 70
     0
300
1/4" = 1'-0"
140
0.25
141
12.0
290
     0
  0
SCALE
  5
61
102
{ACAD_REACTORS
330
47
102
}
330
47
100
AcDbScale
 70
     0
300
3/8" = 1'-0"
140
0.375
141
12.0
290
     0
  0
SCALE
  5
62
102
{ACAD_REACTORS
330
47
102
}
330
47
100
AcDbScale
 70
     0
300
1/2" = 1'-0"
140
0.5
141
12.0
290
     0
  0
SCALE
  5
63
102
{ACAD_REACTORS
330
47
102
}
330
47
100
AcDbScale
 70
     0
300
3/4" = 1'-0"
140
0.75
141
12.0
290
     0
  0
SCALE
  5
64
102
{ACAD_REACTORS
330
47
102
}
330
47
100
AcDbScale
 70
     0
300
1" = 1'-0"
140
1.0
141
12.0
290
     0
  0
SCALE
  5
65
102
{ACAD_REACTORS
330
47
102
}
330
47
100
AcDbScale
 70
     0
300
1-1/2" = 1'-0"
140
1.5
141
12.0
290
     0
  0
SCALE
  5
66
102
{ACAD_REACTORS
330
47
102
}
330
47
100
AcDbScale
 70
     0
300
3" = 1'-0"
140
3.0
141
12.0
290
     0
  0
SCALE
  5
67
102
{ACAD_REACTORS
330
47
102
}
330
47
100
AcDbScale
 70
     0
300
6" = 1'-0"
140
6.0
141
12.0
290
     0
  0
SCALE
  5
68
102
{ACAD_REACTORS
330
47
102
}
330
47
100
AcDbScale
 70
     0
300
1'-0" = 1'-0"
140
12.0
141
12.0
290
     0
  0
ENDSEC
  0
EOF
