  0
SECTION
  2
HEADER
  9
$ACADVER
  1
AC1021
  9
$ACADMAINTVER
 70
    25
  9
$DWGCODEPAGE
  3
ANSI_1252
  9
$INSBASE
 10
0.0
 20
0.0
 30
0.0
  9
$EXTMIN
 10
-247.0726710209
 20
-175.0764078272
 30
0.0
  9
$EXTMAX
 10
247.0726710209
 20
142.6449990737
 30
0.0
  9
$LIMMIN
 10
0.0
 20
0.0
  9
$LIMMAX
 10
420.0
 20
297.0
  9
$ORTHOMODE
 70
     0
  9
$REGENMODE
 70
     1
  9
$FILLMODE
 70
     1
  9
$QTEXTMODE
 70
     0
  9
$MIRRTEXT
 70
     1
  9
$LTSCALE
 40
1.0
  9
$ATTMODE
 70
     1
  9
$TEXTSIZE
 40
3.5
  9
$TRACEWID
 40
1.0
  9
$TEXTSTYLE
  7
Standard
  9
$CLAYER
  8
0
  9
$CELTYPE
  6
ByLayer
  9
$CECOLOR
 62
   256
  9
$CELTSCALE
 40
1.0
  9
$DISPSILH
 70
     0
  9
$DIMSCALE
 40
1.0
  9
$DIMASZ
 40
8.0
  9
$DIMEXO
 40
1.0
  9
$DIMDLI
 40
3.75
  9
$DIMRND
 40
0.0
  9
$DIMDLE
 40
0.0
  9
$DIMEXE
 40
1.0
  9
$DIMTP
 40
0.0
  9
$DIMTM
 40
0.0
  9
$DIMTXT
 40
16.9333333333
  9
$DIMCEN
 40
2.5
  9
$DIMTSZ
 40
0.0
  9
$DIMTOL
 70
     0
  9
$DIMLIM
 70
     0
  9
$DIMTIH
 70
     1
  9
$DIMTOH
 70
     1
  9
$DIMSE1
 70
     0
  9
$DIMSE2
 70
     0
  9
$DIMTAD
 70
     1
  9
$DIMZIN
 70
     0
  9
$DIMBLK
  1

  9
$DIMASO
 70
     1
  9
$DIMSHO
 70
     1
  9
$DIMPOST
  1

  9
$DIMAPOST
  1

  9
$DIMALT
 70
     0
  9
$DIMALTD
 70
     3
  9
$DIMALTF
 40
0.0393700787
  9
$DIMLFAC
 40
1.0
  9
$DIMTOFL
 70
     1
  9
$DIMTVP
 40
0.0
  9
$DIMTIX
 70
     0
  9
$DIMSOXD
 70
     0
  9
$DIMSAH
 70
     0
  9
$DIMBLK1
  1

  9
$DIMBLK2
  1

  9
$DIMSTYLE
  2
ISO-25
  9
$DIMCLRD
 70
     0
  9
$DIMCLRE
 70
     0
  9
$DIMCLRT
 70
     0
  9
$DIMTFAC
 40
1.0
  9
$DIMGAP
 40
1.524
  9
$DIMJUST
 70
     0
  9
$DIMSD1
 70
     0
  9
$DIMSD2
 70
     0
  9
$DIMTOLJ
 70
     0
  9
$DIMTZIN
 70
     0
  9
$DIMALTZ
 70
     0
  9
$DIMALTTZ
 70
     0
  9
$DIMUPT
 70
     0
  9
$DIMDEC
 70
     2
  9
$DIMTDEC
 70
     2
  9
$DIMALTU
 70
     2
  9
$DIMALTTD
 70
     3
  9
$DIMTXSTY
  7
Standard
  9
$DIMAUNIT
 70
     0
  9
$DIMADEC
 70
     2
  9
$DIMALTRND
 40
0.0
  9
$DIMAZIN
 70
     0
  9
$DIMDSEP
 70
    44
  9
$DIMATFIT
 70
     3
  9
$DIMFRAC
 70
     0
  9
$DIMLDRBLK
  1

  9
$DIMLUNIT
 70
     2
  9
$DIMLWD
 70
    -2
  9
$DIMLWE
 70
    -2
  9
$DIMTMOVE
 70
     0
  9
$DIMFXL
 40
1.0
  9
$DIMFXLON
 70
     0
  9
$DIMJOGANG
 40
0.7853981634
  9
$DIMTFILL
 70
     0
  9
$DIMTFILLCLR
 70
     0
  9
$DIMARCSYM
 70
     0
  9
$DIMLTYPE
  6

  9
$DIMLTEX1
  6

  9
$DIMLTEX2
  6

  9
$LUNITS
 70
     2
  9
$LUPREC
 70
     2
  9
$SKETCHINC
 40
1.0
  9
$FILLETRAD
 40
10.0
  9
$AUNITS
 70
     0
  9
$AUPREC
 70
     2
  9
$MENU
  1
.
  9
$ELEVATION
 40
0.0
  9
$PELEVATION
 40
0.0
  9
$THICKNESS
 40
0.0
  9
$LIMCHECK
 70
     0
  9
$CHAMFERA
 40
0.0
  9
$CHAMFERB
 40
0.0
  9
$CHAMFERC
 40
0.0
  9
$CHAMFERD
 40
0.0
  9
$SKPOLY
 70
     0
  9
$TDCREATE
 40
2458225.581768785
  9
$TDUCREATE
 40
2458225.498435451
  9
$TDUPDATE
 40
2458225.581807998
  9
$TDUUPDATE
 40
2458225.498474665
  9
$TDINDWG
 40
0.0000000116
  9
$TDUSRTIMER
 40
0.0000000116
  9
$USRTIMER
 70
     1
  9
$ANGBASE
 50
0.0
  9
$ANGDIR
 70
     0
  9
$PDMODE
 70
     0
  9
$PDSIZE
 40
-1.0
  9
$PLINEWID
 40
0.0
  9
$SPLFRAME
 70
     0
  9
$SPLINETYPE
 70
     6
  9
$SPLINESEGS
 70
     8
  9
$HANDSEED
  5
14E
  9
$SURFTAB1
 70
     6
  9
$SURFTAB2
 70
     6
  9
$SURFTYPE
 70
     6
  9
$SURFU
 70
     6
  9
$SURFV
 70
     6
  9
$UCSBASE
  2

  9
$UCSNAME
  2

  9
$UCSORG
 10
0.0
 20
0.0
 30
0.0
  9
$UCSXDIR
 10
1.0
 20
0.0
 30
0.0
  9
$UCSYDIR
 10
0.0
 20
1.0
 30
0.0
  9
$UCSORTHOREF
  2

  9
$UCSORTHOVIEW
 70
     0
  9
$UCSORGTOP
 10
0.0
 20
0.0
 30
0.0
  9
$UCSORGBOTTOM
 10
0.0
 20
0.0
 30
0.0
  9
$UCSORGLEFT
 10
0.0
 20
0.0
 30
0.0
  9
$UCSORGRIGHT
 10
0.0
 20
0.0
 30
0.0
  9
$UCSORGFRONT
 10
0.0
 20
0.0
 30
0.0
  9
$UCSORGBACK
 10
0.0
 20
0.0
 30
0.0
  9
$PUCSBASE
  2

  9
$PUCSNAME
  2

  9
$PUCSORG
 10
0.0
 20
0.0
 30
0.0
  9
$PUCSXDIR
 10
1.0
 20
0.0
 30
0.0
  9
$PUCSYDIR
 10
0.0
 20
1.0
 30
0.0
  9
$PUCSORTHOREF
  2

  9
$PUCSORTHOVIEW
 70
     0
  9
$PUCSORGTOP
 10
0.0
 20
0.0
 30
0.0
  9
$PUCSORGBOTTOM
 10
0.0
 20
0.0
 30
0.0
  9
$PUCSORGLEFT
 10
0.0
 20
0.0
 30
0.0
  9
$PUCSORGRIGHT
 10
0.0
 20
0.0
 30
0.0
  9
$PUCSORGFRONT
 10
0.0
 20
0.0
 30
0.0
  9
$PUCSORGBACK
 10
0.0
 20
0.0
 30
0.0
  9
$USERI1
 70
     0
  9
$USERI2
 70
     0
  9
$USERI3
 70
     0
  9
$USERI4
 70
     0
  9
$USERI5
 70
     0
  9
$USERR1
 40
0.0
  9
$USERR2
 40
0.0
  9
$USERR3
 40
0.0
  9
$USERR4
 40
0.0
  9
$USERR5
 40
0.0
  9
$WORLDVIEW
 70
     1
  9
$SHADEDGE
 70
     3
  9
$SHADEDIF
 70
    70
  9
$TILEMODE
 70
     1
  9
$MAXACTVP
 70
    64
  9
$PINSBASE
 10
0.0
 20
0.0
 30
0.0
  9
$PLIMCHECK
 70
     0
  9
$PEXTMIN
 10
-290.0
 20
-195.0
 30
0.0
  9
$PEXTMAX
 10
290.0
 20
195.0
 30
0.0
  9
$PLIMMIN
 10
-335.1361867704
 20
-211.9260700389
  9
$PLIMMAX
 10
335.1361867704
 20
262.0038910506
  9
$UNITMODE
 70
     0
  9
$VISRETAIN
 70
     1
  9
$PLINEGEN
 70
     0
  9
$PSLTSCALE
 70
     1
  9
$TREEDEPTH
 70
  3020
  9
$CMLSTYLE
  2
Standard
  9
$CMLJUST
 70
     0
  9
$CMLSCALE
 40
20.0
  9
$PROXYGRAPHICS
 70
     1
  9
$MEASUREMENT
 70
     1
  9
$CELWEIGHT
370
    -1
  9
$ENDCAPS
280
     0
  9
$JOINSTYLE
280
     0
  9
$LWDISPLAY
290
     1
  9
$INSUNITS
 70
     4
  9
$HYPERLINKBASE
  1

  9
$STYLESHEET
  1

  9
$XEDIT
290
     1
  9
$CEPSNTYPE
380
     0
  9
$PSTYLEMODE
290
     1
  9
$FINGERPRINTGUID
  2
{272E6DF0-2805-43D8-B93B-C0D890AF73B5}
  9
$VERSIONGUID
  2
{FAEB1C32-E019-11D5-929B-00C0DF256EC4}
  9
$EXTNAMES
290
     1
  9
$PSVPSCALE
 40
0.0
  9
$OLESTARTUP
290
     0
  9
$SORTENTS
280
   127
  9
$INDEXCTL
280
     0
  9
$HIDETEXT
280
     1
  9
$XCLIPFRAME
290
     0
  9
$HALOGAP
280
     0
  9
$OBSCOLOR
 70
   257
  9
$OBSLTYPE
280
     0
  9
$INTERSECTIONDISPLAY
280
     0
  9
$INTERSECTIONCOLOR
 70
   257
  9
$DIMASSOC
280
     2
  9
$PROJECTNAME
  1

  9
$CAMERADISPLAY
290
     0
  9
$LENSLENGTH
 40
50.0
  9
$CAMERAHEIGHT
 40
0.0
  9
$STEPSPERSEC
 40
2.0
  9
$STEPSIZE
 40
6.0
  9
$3DDWFPREC
 40
2.0
  9
$PSOLWIDTH
 40
5.0
  9
$PSOLHEIGHT
 40
80.0
  9
$LOFTANG1
 40
1.5707963268
  9
$LOFTANG2
 40
1.5707963268
  9
$LOFTMAG1
 40
0.0
  9
$LOFTMAG2
 40
0.0
  9
$LOFTPARAM
 70
     7
  9
$LOFTNORMALS
280
     1
  9
$LATITUDE
 40
37.795
  9
$LONGITUDE
 40
-122.394
  9
$NORTHDIRECTION
 40
0.0
  9
$TIMEZONE
 70
 -8000
  9
$LIGHTGLYPHDISPLAY
280
     1
  9
$TILEMODELIGHTSYNCH
280
     1
  9
$CMATERIAL
347
44
  9
$SOLIDHIST
280
     0
  9
$SHOWHIST
280
     1
  9
$DWFFRAME
280
     2
  9
$DGNFRAME
280
     2
  9
$REALWORLDSCALE
290
     1
  9
$INTERFERECOLOR
 62
   256
  9
$CSHADOW
280
     0
  9
$SHADOWPLANELOCATION
 40
0.0
  0
ENDSEC
  0
SECTION
  2
CLASSES
  0
CLASS
  1
ACDBDICTIONARYWDFLT
  2
AcDbDictionaryWithDefault
  3
ObjectDBX Classes
 90
        0
 91
        4
280
     0
281
     0
  0
CLASS
  1
VISUALSTYLE
  2
AcDbVisualStyle
  3
ObjectDBX Classes
 90
     4095
 91
        4
280
     0
281
     0
  0
CLASS
  1
MATERIAL
  2
AcDbMaterial
  3
ObjectDBX Classes
 90
     1153
 91
        4
280
     0
281
     0
  0
CLASS
  1
SCALE
  2
AcDbScale
  3
ObjectDBX Classes
 90
     1153
 91
        4
280
     0
281
     0
  0
CLASS
  1
TABLESTYLE
  2
AcDbTableStyle
  3
ObjectDBX Classes
 90
     4095
 91
        4
280
     0
281
     0
  0
CLASS
  1
MLEADERSTYLE
  2
AcDbMLeaderStyle
  3
ACDB_MLEADERSTYLE_CLASS
 90
     4095
 91
        4
280
     0
281
     0
  0
CLASS
  1
SUN
  2
AcDbSun
  3
SCENEOE
 90
     1153
 91
        4
280
     0
281
     0
  0
CLASS
  1
DICTIONARYVAR
  2
AcDbDictionaryVar
  3
ObjectDBX Classes
 90
        0
 91
        4
280
     0
281
     0
  0
CLASS
  1
CELLSTYLEMAP
  2
AcDbCellStyleMap
  3
ObjectDBX Classes
 90
     1152
 91
        4
280
     0
281
     0
  0
ENDSEC
  0
SECTION
  2
TABLES
  0
TABLE
  2
VPORT
  5
8
330
0
100
AcDbSymbolTable
 70
     1
  0
VPORT
  5
29
330
8
100
AcDbSymbolTableRecord
100
AcDbViewportTableRecord
  2
*Active
 70
     0
 10
0.0
 20
0.0
 11
1.0
 21
1.0
 12
0.0
 22
-16.2157043767
 13
0.0
 23
0.0
 14
10.0
 24
10.0
 15
10.0
 25
10.0
 16
0.0
 26
0.0
 36
1.0
 17
0.0
 27
0.0
 37
0.0
 40
324.075835039
 41
1.5552787169
 42
50.0
 43
0.0
 44
0.0
 50
0.0
 51
0.0
 71
     0
 72
   100
 73
     1
 74
     3
 75
     0
 76
     0
 77
     0
 78
     0
281
     0
 65
     1
110
0.0
120
0.0
130
0.0
111
1.0
121
0.0
131
0.0
112
0.0
122
1.0
132
0.0
 79
     0
146
0.0
348
2F
 60
     3
 61
     5
292
     1
282
     1
141
0.0
142
0.0
 63
   250
361
6D
  0
ENDTAB
  0
TABLE
  2
LTYPE
  5
5
330
0
100
AcDbSymbolTable
 70
     6
  0
LTYPE
  5
14
330
5
100
AcDbSymbolTableRecord
100
AcDbLinetypeTableRecord
  2
ByBlock
 70
     0
  3

 72
    65
 73
     0
 40
0.0
  0
LTYPE
  5
15
330
5
100
AcDbSymbolTableRecord
100
AcDbLinetypeTableRecord
  2
ByLayer
 70
     0
  3

 72
    65
 73
     0
 40
0.0
  0
LTYPE
  5
16
330
5
100
AcDbSymbolTableRecord
100
AcDbLinetypeTableRecord
  2
Continuous
 70
     0
  3
Solid line
 72
    65
 73
     0
 40
0.0
  0
LTYPE
  5
6E
330
5
100
AcDbSymbolTableRecord
100
AcDbLinetypeTableRecord
  2
HIDDEN
 70
     0
  3
Hidden __ __ __ __ __ __ __ __ __ __ __ __ __ __
 72
    65
 73
     2
 40
1.905
 49
1.27
 74
     0
 49
-0.635
 74
     0
  0
LTYPE
  5
6F
330
5
100
AcDbSymbolTableRecord
100
AcDbLinetypeTableRecord
  2
PHANTOM
 70
     0
  3
Phantom ______  __  __  ______  __  __  ______
 72
    65
 73
     6
 40
12.7
 49
6.35
 74
     0
 49
-1.27
 74
     0
 49
1.27
 74
     0
 49
-1.27
 74
     0
 49
1.27
 74
     0
 49
-1.27
 74
     0
  0
LTYPE
  5
70
330
5
100
AcDbSymbolTableRecord
100
AcDbLinetypeTableRecord
  2
CENTER
 70
     0
  3
Center ____ _ ____ _ ____ _ ____ _ ____ _ ____
 72
    65
 73
     4
 40
10.16
 49
6.35
 74
     0
 49
-1.27
 74
     0
 49
1.27
 74
     0
 49
-1.27
 74
     0
  0
LTYPE
  5
71
330
5
100
AcDbSymbolTableRecord
100
AcDbLinetypeTableRecord
  2
CENTERX2
 70
     0
  3
Center (2x) ________  __  ________  __  _____
 72
    65
 73
     4
 40
20.32
 49
12.7
 74
     0
 49
-2.54
 74
     0
 49
2.54
 74
     0
 49
-2.54
 74
     0
  0
LTYPE
  5
72
330
5
100
AcDbSymbolTableRecord
100
AcDbLinetypeTableRecord
  2
DOT2
 70
     0
  3
Dot (.5x) ........................................
 72
    65
 73
     2
 40
0.635
 49
0.0
 74
     0
 49
-0.635
 74
     0
  0
ENDTAB
  0
TABLE
  2
LAYER
  5
2
330
0
100
AcDbSymbolTable
 70
     1
  0
LAYER
  5
10
330
2
100
AcDbSymbolTableRecord
100
AcDbLayerTableRecord
  2
0
 70
     0
 62
     7
  6
Continuous
370
    -3
390
F
347
46
  0
ENDTAB
  0
TABLE
  2
STYLE
  5
3
330
0
100
AcDbSymbolTable
 70
     1
  0
STYLE
  5
11
330
3
100
AcDbSymbolTableRecord
100
AcDbTextStyleTableRecord
  2
Standard
 70
     0
 40
0.0
 41
1.0
 50
0.0
 71
     0
 42
3.5
  3
txt
  4

  0
ENDTAB
  0
TABLE
  2
VIEW
  5
6
330
0
100
AcDbSymbolTable
 70
     0
  0
ENDTAB
  0
TABLE
  2
UCS
  5
7
330
0
100
AcDbSymbolTable
 70
     0
  0
ENDTAB
  0
TABLE
  2
APPID
  5
9
330
0
100
AcDbSymbolTable
 70
     2
  0
APPID
  5
12
330
9
100
AcDbSymbolTableRecord
100
AcDbRegAppTableRecord
  2
ACAD
 70
     0
  0
APPID
  5
148
330
9
100
AcDbSymbolTableRecord
100
AcDbRegAppTableRecord
  2
ACAD_MLEADERVER
 70
     0
  0
ENDTAB
  0
TABLE
  2
DIMSTYLE
  5
A
330
0
100
AcDbSymbolTable
 70
     1
100
AcDbDimStyleTable
  0
DIMSTYLE
105
27
330
A
100
AcDbSymbolTableRecord
100
AcDbDimStyleTableRecord
  2
ISO-25
 70
     0
 41
2.5
 42
0.625
 43
3.75
 44
1.25
 73
     0
 74
     0
 77
     1
 78
     8
140
2.5
141
2.5
143
0.0393700787
147
0.625
171
     3
172
     1
178
     0
271
     2
272
     2
274
     3
278
    44
283
     0
284
     8
340
11
  0
ENDTAB
  0
TABLE
  2
BLOCK_RECORD
  5
1
330
0
100
AcDbSymbolTable
 70
     9
  0
BLOCK_RECORD
  5
1F
330
1
100
AcDbSymbolTableRecord
100
AcDbBlockTableRecord
  2
*Model_Space
340
22
 70
     0
280
     1
281
     0
  0
BLOCK_RECORD
  5
1B
330
1
100
AcDbSymbolTableRecord
100
AcDbBlockTableRecord
  2
*Paper_Space
340
1E
 70
     0
280
     1
281
     0
  0
BLOCK_RECORD
  5
23
330
1
100
AcDbSymbolTableRecord
100
AcDbBlockTableRecord
  2
*Paper_Space0
340
26
 70
     0
280
     1
281
     0
  0
BLOCK_RECORD
  5
95
330
1
100
AcDbSymbolTableRecord
100
AcDbBlockTableRecord
  2
*Paper_Space1
340
96
 70
     0
280
     1
281
     0
  0
BLOCK_RECORD
  5
B3
330
1
100
AcDbSymbolTableRecord
100
AcDbBlockTableRecord
  2
*Paper_Space2
340
B4
 70
     0
280
     1
281
     0
  0
BLOCK_RECORD
  5
CA
330
1
100
AcDbSymbolTableRecord
100
AcDbBlockTableRecord
  2
*Paper_Space3
340
CB
 70
     0
280
     1
281
     0
  0
BLOCK_RECORD
  5
E0
330
1
100
AcDbSymbolTableRecord
100
AcDbBlockTableRecord
  2
*Paper_Space4
340
E1
 70
     0
280
     1
281
     0
  0
BLOCK_RECORD
  5
F5
330
1
100
AcDbSymbolTableRecord
100
AcDbBlockTableRecord
  2
*Paper_Space5
340
F6
 70
     0
280
     1
281
     0
  0
BLOCK_RECORD
  5
100
330
1
100
AcDbSymbolTableRecord
100
AcDbBlockTableRecord
  2
*Paper_Space6
340
101
 70
     0
280
     1
281
     0
  0
BLOCK_RECORD
  5
110
330
1
100
AcDbSymbolTableRecord
100
AcDbBlockTableRecord
  2
*Paper_Space7
340
111
 70
     0
280
     1
281
     0
  0
BLOCK_RECORD
  5
123
330
1
100
AcDbSymbolTableRecord
100
AcDbBlockTableRecord
  2
*Paper_Space8
340
124
 70
     0
280
     1
281
     0
  0
ENDTAB
  0
ENDSEC
  0
SECTION
  2
BLOCKS
  0
BLOCK
  5
20
330
1F
100
AcDbEntity
  8
0
100
AcDbBlockBegin
  2
*Model_Space
 70
     0
 10
0.0
 20
0.0
 30
0.0
  3
*Model_Space
  1

  0
ENDBLK
  5
21
330
1F
100
AcDbEntity
  8
0
100
AcDbBlockEnd
  0
BLOCK
  5
1C
330
1B
100
AcDbEntity
 67
     1
  8
0
100
AcDbBlockBegin
  2
*Paper_Space
 70
     0
 10
0.0
 20
0.0
 30
0.0
  3
*Paper_Space
  1

  0
ENDBLK
  5
1D
330
1B
100
AcDbEntity
 67
     1
  8
0
100
AcDbBlockEnd
  0
BLOCK
  5
24
330
23
100
AcDbEntity
  8
0
100
AcDbBlockBegin
  2
*Paper_Space0
 70
     0
 10
0.0
 20
0.0
 30
0.0
  3
*Paper_Space0
  1

  0
SPLINE
  5
82
330
23
100
AcDbEntity
  8
0
  6
Continuous
 62
     7
370
    25
100
AcDbSpline
210
0.0
220
0.0
230
1.0
 70
     8
 71
     3
 72
    15
 73
    11
 74
     0
 42
0.000000001
 43
0.00000001
 40
0.0
 40
0.0
 40
0.0
 40
0.0
 40
0.125000024291702
 40
0.2499999872898608
 40
0.3749999703825102
 40
0.5000000000000004
 40
0.6250000296174901
 40
0.7500000127101395
 40
0.874999975708298
 40
1.0
 40
1.0
 40
1.0
 40
1.0
 10
198.8502713292925
 20
-90.00000000000006
 30
0.0
 10
203.3348559516788
 20
-87.03301154680524
 30
0.0
 10
212.3040229974432
 20
-81.0990360952732
 30
0.0
 10
225.1431202322914
 20
-71.31995314324534
 30
0.0
 10
237.4867981094724
 20
-60.93093451640016
 30
0.0
 10
249.2591656951379
 20
-49.89578361850403
 30
0.0
 10
260.4428562742033
 20
-38.26443550476041
 30
0.0
 10
270.9877183756046
 20
-26.05362165690518
 30
0.0
 10
280.9289823828217
 20
-13.33968634452701
 30
0.0
 10
286.9763269667229
 20
-4.446562841630447
 30
0.0
 10
289.9999999999999
 20
0.0
 30
0.0
  0
SPLINE
  5
83
330
23
100
AcDbEntity
  8
0
  6
Continuous
 62
     7
370
    25
100
AcDbSpline
210
0.0
220
0.0
230
1.0
 70
     8
 71
     3
 72
    15
 73
    11
 74
     0
 42
0.000000001
 43
0.00000001
 40
0.0
 40
0.0
 40
0.0
 40
0.0
 40
0.1250000242917025
 40
0.2499999872898607
 40
0.3749999703825097
 40
0.4999999999999998
 40
0.6250000296174906
 40
0.7500000127101402
 40
0.8749999757082983
 40
1.0
 40
1.0
 40
1.0
 40
1.0
 10
-290.0000000000001
 20
0.0
 30
0.0
 10
-286.976326966723
 20
-4.446562841630433
 30
0.0
 10
-280.9289823828217
 20
-13.33968634452695
 30
0.0
 10
-270.9877183756045
 20
-26.0536216569051
 30
0.0
 10
-260.4428562742036
 20
-38.26443550476042
 30
0.0
 10
-249.2591656951379
 20
-49.89578361850401
 30
0.0
 10
-237.4867981094724
 20
-60.93093451640009
 30
0.0
 10
-225.1431202322914
 20
-71.31995314324533
 30
0.0
 10
-212.3040229974433
 20
-81.09903609527318
 30
0.0
 10
-203.3348559516789
 20
-87.03301154680518
 30
0.0
 10
-198.8502713292927
 20
-90.0
 30
0.0
  0
SPLINE
  5
86
330
23
100
AcDbEntity
  8
0
  6
Continuous
 62
     7
370
    25
100
AcDbSpline
210
0.0
220
0.0
230
1.0
 70
     8
 71
     3
 72
    22
 73
    18
 74
     0
 42
0.000000001
 43
0.00000001
 40
0.0
 40
0.0
 40
0.0
 40
0.0
 40
0.0923653966704044
 40
0.1750574197372139
 40
0.2480757614700771
 40
0.3114202305374932
 40
0.3544045303112017
 40
0.3914163876948109
 40
0.4224557487477842
 40
0.4524540041028442
 40
0.5003055815988402
 40
0.558280649385529
 40
0.6263790243075752
 40
0.7046004364934115
 40
0.7929445751751784
 40
0.891411222869974
 40
1.0
 40
1.0
 40
1.0
 40
1.0
 10
72.49999999999996
 20
-135.9843776405655
 30
0.0
 10
75.96585199249597
 20
-135.5012059042791
 30
0.0
 10
82.53457933919334
 20
-134.5854647231301
 30
0.0
 10
91.782777396636
 20
-132.9027129302717
 30
0.0
 10
99.90561743458721
 20
-131.2017317675759
 30
0.0
 10
106.5180677251018
 20
-129.6380224785537
 30
0.0
 10
111.7772404025376
 20
-128.2855661499838
 30
0.0
 10
115.8351695003975
 20
-127.1777391344951
 30
0.0
 10
119.4059018640744
 20
-126.1545699474333
 30
0.0
 10
123.3583203253153
 20
-124.973661896185
 30
0.0
 10
128.2669182947165
 20
-123.4298356808832
 30
0.0
 10
134.512729766993
 20
-121.330417358343
 30
0.0
 10
141.7898013937609
 20
-118.6939003861651
 30
0.0
 10
150.0648146104052
 20
-115.4420484971741
 30
0.0
 10
159.2902643001142
 20
-111.4772707354731
 30
0.0
 10
169.4294237061447
 20
-106.7326718195702
 30
0.0
 10
176.3634815840095
 20
-103.0638662397655
 30
0.0
 10
179.9999999999999
 20
-101.1397866761615
 30
0.0
  0
SPLINE
  5
87
330
23
100
AcDbEntity
  8
0
  6
Continuous
 62
     7
370
    25
100
AcDbSpline
210
0.0
220
0.0
230
1.0
 70
     8
 71
     3
 72
    22
 73
    18
 74
     0
 42
0.000000001
 43
0.00000001
 40
0.0
 40
0.0
 40
0.0
 40
0.0
 40
0.092365396670403
 40
0.1750574197372118
 40
0.2480757614700747
 40
0.3114202305374917
 40
0.3544045303112007
 40
0.3914163876948107
 40
0.4224557487477845
 40
0.4524540041028445
 40
0.5003055815988409
 40
0.5582806493855298
 40
0.6263790243075747
 40
0.7046004364934101
 40
0.7929445751751762
 40
0.8914112228699737
 40
1.0
 40
1.0
 40
1.0
 40
1.0
 10
-180.0
 20
-101.1397866761616
 30
0.0
 10
-176.9097334153609
 20
-102.7816872201951
 30
0.0
 10
-171.0528420457775
 20
-105.8935330311247
 30
0.0
 10
-162.5760245538173
 20
-109.9560920908863
 30
0.0
 10
-154.9998842011747
 20
-113.3437113958038
 30
0.0
 10
-148.7274617123259
 20
-115.9564497498078
 30
0.0
 10
-143.6749198752706
 20
-117.9463885319274
 30
0.0
 10
-139.7387137367079
 20
-119.4297463762275
 30
0.0
 10
-136.2467272787795
 20
-120.6958567094953
 30
0.0
 10
-132.3530968838777
 20
-122.058133431075
 30
0.0
 10
-127.4722033006903
 20
-123.6874312055355
 30
0.0
 10
-121.1824364863006
 20
-125.6512417006805
 30
0.0
 10
-113.7424216992393
 20
-127.7850582752715
 30
0.0
 10
-105.133245685815
 20
-130.0059753861629
 30
0.0
 10
-95.33612999391777
 20
-132.2070907390265
 30
0.0
 10
-84.34157453646202
 20
-134.3126839159285
 30
0.0
 10
-76.57377068941825
 20
-135.409277017237
 30
0.0
 10
-72.50000000000007
 20
-135.9843776405656
 30
0.0
  0
SPLINE
  5
8A
330
23
100
AcDbEntity
  8
0
  6
Continuous
 62
     7
370
    25
100
AcDbSpline
210
0.0
220
0.0
230
1.0
 70
    24
 71
     3
 72
    21
 73
    17
 74
     0
 42
0.000000001
 43
0.00000001
 40
0.5000000000020915
 40
0.5000000000020915
 40
0.5000000000020915
 40
0.5000000000020915
 40
0.5416666666666667
 40
0.5833333333333333
 40
0.625
 40
0.6666666666666667
 40
0.7083333333333333
 40
0.7500000000009739
 40
0.7916666666666666
 40
0.8333333333333334
 40
0.875
 40
0.9166666666666666
 40
0.9583333333333334
 40
0.9916666666666667
 40
0.99375
 40
1.0
 40
1.0
 40
1.0
 40
1.0
 10
289.9999999999999
 20
0.0
 30
0.0
 10
290.0000000001716
 20
0.0
 30
0.0
 10
283.1914952762036
 20
0.0
 30
0.0
 10
254.2143952860994
 20
0.0
 30
0.0
 10
207.4681364742389
 20
0.0
 30
0.0
 10
146.2788580815368
 20
0.0
 30
0.0
 10
76.32195028835913
 20
0.0
 30
0.0
 10
-0.0000000000000729
 20
0.0
 30
0.0
 10
-76.3219502883593
 20
0.0
 30
0.0
 10
-146.2788580815369
 20
0.0
 30
0.0
 10
-207.4681364742391
 20
0.0
 30
0.0
 10
-254.2143952860996
 20
0.0
 30
0.0
 10
-281.2596886097433
 20
0.0
 30
0.0
 10
-288.7146899587346
 20
0.0
 30
0.0
 10
-289.8978724291358
 20
0.0
 30
0.0
 10
-290.0000000000001
 20
0.0
 30
0.0
 10
-290.0000000000001
 20
0.0
 30
0.0
  0
LWPOLYLINE
  5
8C
330
23
100
AcDbEntity
  8
0
  6
Continuous
 62
     7
370
    25
100
AcDbPolyline
 90
       39
 70
   128
 43
0.0
 10
180.0
 20
-101.1397866762
 10
179.4998467645
 20
-101.1709468593
 10
178.016221218
 20
-101.2604251836
 10
175.5743746005
 20
-101.4022183108
 10
172.1994487636
 20
-101.5903229029
 10
167.9129716866
 20
-101.8187356219
 10
162.732116066
 20
-102.0814531297
 10
155.5009097044
 20
-102.4269591542
 10
147.0872737066
 20
-102.8019488649
 10
137.5594100962
 20
-103.1965943663
 10
126.992781052
 20
-103.601067763
 10
115.253237495
 20
-104.0128340243
 10
102.6455196482
 20
-104.4142265174
 10
89.3001039741
 20
-104.7948714742
 10
75.3348039687
 20
-105.1443951266
 10
60.8202708529
 20
-105.4524237064
 10
46.0880562143
 20
-105.7045241136
 10
30.954946705
 20
-105.8967637036
 10
15.5463461213
 20
-106.0193145808
 10
0.0000000004
 20
-106.06234885
 10
-15.8281492317
 20
-106.0177663464
 10
-31.5109020987
 20
-105.8909346811
 10
-46.9028624283
 20
-105.6922276223
 10
-61.8739653827
 20
-105.432018938
 10
-76.3512465376
 20
-105.1206823964
 10
-90.0315922519
 20
-104.7751763719
 10
-103.1092736435
 20
-104.4001866613
 10
-115.4708735362
 20
-104.0055411599
 10
-126.9927810519
 20
-103.6010677631
 10
-137.742144203
 20
-103.1893015018
 10
-147.4132028527
 20
-102.7879090087
 10
-155.9263035246
 20
-102.4072640519
 10
-163.2108115571
 20
-102.0577403996
 10
-169.2296821927
 20
-101.7497118198
 10
-173.0518727814
 20
-101.5435571212
 10
-176.0599370376
 20
-101.3744553752
 10
-178.2347508366
 20
-101.247438464
 10
-179.5551601919
 20
-101.1675382702
 10
-180.0
 20
-101.1397866762
  0
LWPOLYLINE
  5
8D
330
23
100
AcDbEntity
  8
0
  6
Continuous
 62
     7
370
    25
100
AcDbPolyline
 90
       25
 70
   128
 43
0.0
 10
72.5
 20
-135.9843776406
 10
71.879275121
 20
-136.0458916829
 10
70.04750284
 20
-136.2159599177
 10
67.0465221486
 20
-136.4728715063
 10
62.903113869
 20
-136.7949156104
 10
57.6534701792
 20
-137.1603813915
 10
51.3864868508
 20
-137.5475580111
 10
44.2175148702
 20
-137.9347346306
 10
36.3150224901
 20
-138.3002004117
 10
27.8422575148
 20
-138.6222445158
 10
18.8884686874
 20
-138.8791561045
 10
9.5468030623
 20
-139.0492243392
 10
0.0000000001
 20
-139.1107383816
 10
-9.546803062
 20
-139.0492243392
 10
-18.8884686872
 20
-138.8791561045
 10
-27.8422575147
 20
-138.6222445158
 10
-36.3150224902
 20
-138.3002004117
 10
-44.2175148703
 20
-137.9347346306
 10
-51.3864868509
 20
-137.5475580111
 10
-57.6534701793
 20
-137.1603813915
 10
-62.903113869
 20
-136.7949156105
 10
-67.0465221486
 20
-136.4728715064
 10
-70.0475028399
 20
-136.2159599177
 10
-71.879275121
 20
-136.0458916829
 10
-72.5
 20
-135.9843776406
  0
LINE
  5
8F
330
23
100
AcDbEntity
  8
0
  6
Continuous
 62
     7
370
    25
100
AcDbLine
 10
180.0
 20
-101.1397866762
 30
0.0
 11
180.0
 21
-90.0
 31
0.0
  0
LINE
  5
90
330
23
100
AcDbEntity
  8
0
  6
Continuous
 62
     7
370
    25
100
AcDbLine
 10
-180.0
 20
-90.0
 30
0.0
 11
-180.0
 21
-101.1397866762
 31
0.0
  0
LINE
  5
91
330
23
100
AcDbEntity
  8
0
  6
Continuous
 62
     7
370
    25
100
AcDbLine
 10
72.5
 20
-145.0
 30
0.0
 11
72.5
 21
-135.9843776406
 31
0.0
  0
LINE
  5
92
330
23
100
AcDbEntity
  8
0
  6
Continuous
 62
     7
370
    25
100
AcDbLine
 10
-72.5
 20
-135.9843776406
 30
0.0
 11
-72.5
 21
-145.0
 31
0.0
  0
LINE
  5
93
330
23
100
AcDbEntity
  8
0
  6
Continuous
 62
     7
370
    25
100
AcDbLine
 10
198.8502713293
 20
-90.0
 30
0.0
 11
-198.8502713293
 21
-90.0
 31
0.0
  0
LINE
  5
94
330
23
100
AcDbEntity
  8
0
  6
Continuous
 62
     7
370
    25
100
AcDbLine
 10
72.5
 20
-145.0
 30
0.0
 11
-72.5
 21
-145.0
 31
0.0
  0
VIEWPORT
  5
132
330
23
100
AcDbEntity
  8
0
100
AcDbViewport
 10
0.0
 20
0.0
 30
0.0
 40
205.6
 41
156.0
 68
     1
 69
     1
 12
0.0
 22
-16.2157043767
 13
0.0
 23
0.0
 14
10.0
 24
10.0
 15
10.0
 25
10.0
 16
0.0
 26
0.0
 36
1.0
 17
0.0
 27
0.0
 37
0.0
 42
50.0
 43
0.0
 44
0.0
 45
382.433885339
 50
0.0
 51
0.0
 72
   100
 90
   557152
  1

281
     0
 71
     1
 74
     0
110
0.0
120
0.0
130
0.0
111
1.0
121
0.0
131
0.0
112
0.0
122
1.0
132
0.0
 79
     0
146
0.0
170
     0
 61
     5
348
2F
292
     1
282
     1
141
0.0
142
0.0
 63
   256
361
133
  0
ENDBLK
  5
25
330
23
100
AcDbEntity
  8
0
100
AcDbBlockEnd
  0
BLOCK
  5
97
330
95
100
AcDbEntity
  8
0
100
AcDbBlockBegin
  2
*Paper_Space1
 70
     0
 10
0.0
 20
0.0
 30
0.0
  3
*Paper_Space1
  1

  0
SPLINE
  5
99
330
95
100
AcDbEntity
  8
0
  6
Continuous
 62
     7
370
    25
100
AcDbSpline
210
0.0
220
0.0
230
1.0
 70
     8
 71
     3
 72
    15
 73
    11
 74
     0
 42
0.000000001
 43
0.00000001
 40
0.0
 40
0.0
 40
0.0
 40
0.0
 40
0.1250001189952059
 40
0.24999993579931
 40
0.3749998552050005
 40
0.5000000000000003
 40
0.6250001447949998
 40
0.75000006420069
 40
0.8749998810047942
 40
1.0
 40
1.0
 40
1.0
 40
1.0
 10
150.5627492022878
 20
-90.00000000000006
 30
0.0
 10
153.4532843520097
 20
-86.88208798434296
 30
0.0
 10
159.2343476635081
 20
-80.64627149066376
 30
0.0
 10
166.9509611351338
 20
-70.4739032425282
 30
0.0
 10
173.9061000350929
 20
-59.77771729239922
 30
0.0
 10
179.993594396747
 20
-48.56101355406039
 30
0.0
 10
185.1978535330492
 20
-36.90821486880677
 30
0.0
 10
189.4613296193139
 20
-24.88302785739986
 30
0.0
 10
192.8459533360541
 20
-12.57175166269801
 30
0.0
 10
194.2819838667438
 20
-4.190587264517945
 30
0.0
 10
195.0000000000001
 20
0.0
 30
0.0
  0
SPLINE
  5
9A
330
95
100
AcDbEntity
  8
0
  6
Continuous
 62
     7
370
    25
100
AcDbSpline
210
0.0
220
0.0
230
1.0
 70
     8
 71
     3
 72
    15
 73
    11
 74
     0
 42
0.000000001
 43
0.00000001
 40
0.0
 40
0.0
 40
0.0
 40
0.0
 40
0.1250001189952054
 40
0.2499999357993096
 40
0.3749998552050002
 40
0.5000000000000006
 40
0.6250001447949993
 40
0.7500000642006885
 40
0.8749998810047933
 40
1.0
 40
1.0
 40
1.0
 40
1.0
 10
-195.0
 20
0.0
 30
0.0
 10
-194.2819838667437
 20
-4.190587264517945
 30
0.0
 10
-192.8459533360541
 20
-12.57175166269803
 30
0.0
 10
-189.4613296193139
 20
-24.88302785739986
 30
0.0
 10
-185.1978535330492
 20
-36.9082148688068
 30
0.0
 10
-179.9935943967466
 20
-48.56101355406031
 30
0.0
 10
-173.9061000350927
 20
-59.77771729239918
 30
0.0
 10
-166.9509611351339
 20
-70.47390324252831
 30
0.0
 10
-159.234347663508
 20
-80.64627149066375
 30
0.0
 10
-153.4532843520096
 20
-86.88208798434299
 30
0.0
 10
-150.5627492022877
 20
-90.00000000000009
 30
0.0
  0
SPLINE
  5
9D
330
95
100
AcDbEntity
  8
0
  6
Continuous
 62
     7
370
    25
100
AcDbSpline
210
0.0
220
0.0
230
1.0
 70
     8
 71
     3
 72
    22
 73
    18
 74
     0
 42
0.000000001
 43
0.00000001
 40
0.0
 40
0.0
 40
0.0
 40
0.0
 40
0.0829123543613407
 40
0.1581187883758114
 40
0.2256187423179787
 40
0.2854119776934088
 40
0.3374984156853759
 40
0.3818777630248067
 40
0.4185497249981324
 40
0.4524227690614494
 40
0.5002655554341231
 40
0.55823678190439
 40
0.6263360820683054
 40
0.7045627266637055
 40
0.7929158719233396
 40
0.8913952938666737
 40
1.0
 40
1.0
 40
1.0
 40
1.0
 10
47.50000000000001
 20
-139.1107383815895
 30
0.0
 10
50.04123247782543
 20
-138.8504277171806
 30
0.0
 10
54.88751387304256
 20
-138.3539998063501
 30
0.0
 10
61.7529092496321
 20
-137.2516360208195
 30
0.0
 10
67.87209012292315
 20
-136.0350950240184
 30
0.0
 10
73.24957497789651
 20
-134.7588861882696
 30
0.0
 10
77.89638683841365
 20
-133.500790503772
 30
0.0
 10
81.82482726684415
 20
-132.3214176310299
 30
0.0
 10
85.19160031105449
 20
-131.2262533946181
 30
0.0
 10
88.6366618225103
 20
-130.0293311931667
 30
0.0
 10
92.66815081227102
 20
-128.5236192190954
 30
0.0
 10
97.62947240321044
 20
-126.4997211079755
 30
0.0
 10
103.3694836861646
 20
-123.9160057658458
 30
0.0
 10
109.8368415051437
 20
-120.6800031666813
 30
0.0
 10
116.9568087936128
 20
-116.6784680391089
 30
0.0
 10
124.6708245542797
 20
-111.8356757001949
 30
0.0
 10
129.8065715147115
 20
-108.0485149668355
 30
0.0
 10
132.5
 20
-106.0623488499716
 30
0.0
  0
SPLINE
  5
9E
330
95
100
AcDbEntity
  8
0
  6
Continuous
 62
     7
370
    25
100
AcDbSpline
210
0.0
220
0.0
230
1.0
 70
     8
 71
     3
 72
    22
 73
    18
 74
     0
 42
0.000000001
 43
0.00000001
 40
0.0
 40
0.0
 40
0.0
 40
0.0
 40
0.0829123543613404
 40
0.1581187883758109
 40
0.2256187423179774
 40
0.2854119776934078
 40
0.3374984156853749
 40
0.3818777630248062
 40
0.4185497249981315
 40
0.4524227690614487
 40
0.5002655554341228
 40
0.5582367819043897
 40
0.6263360820683057
 40
0.7045627266637058
 40
0.7929158719233396
 40
0.8913952938666734
 40
1.0
 40
1.0
 40
1.0
 40
1.0
 10
-132.4999999999999
 20
-106.0623488499715
 30
0.0
 10
-130.4503471274802
 20
-107.5869954485415
 30
0.0
 10
-126.5415372608417
 20
-110.4945871424953
 30
0.0
 10
-120.7345979137657
 20
-114.3192851713501
 30
0.0
 10
-115.4007643858645
 20
-117.5557286597469
 30
0.0
 10
-110.5735257280889
 20
-120.2471630911957
 30
0.0
 10
-106.2972946429965
 20
-122.4583873958024
 30
0.0
 10
-102.6039419331937
 20
-124.2424026237867
 30
0.0
 10
-99.38162526690115
 20
-125.709106662804
 30
0.0
 10
-96.03284445547752
 20
-127.1536614907987
 30
0.0
 10
-92.0430669043322
 20
-128.7666547070897
 30
0.0
 10
-87.01763167017437
 20
-130.6256534161267
 30
0.0
 10
-81.03986454241004
 20
-132.5978640194394
 30
0.0
 10
-74.08516107336992
 20
-134.5804203586714
 30
0.0
 10
-66.13213307224159
 20
-136.4393348750854
 30
0.0
 10
-57.17280966959863
 20
-138.0792132121934
 30
0.0
 10
-50.82768390202733
 20
-138.7558684091632
 30
0.0
 10
-47.49999999999994
 20
-139.1107383815895
 30
0.0
  0
SPLINE
  5
A1
330
95
100
AcDbEntity
  8
0
  6
Continuous
 62
     7
370
    25
100
AcDbSpline
210
0.0
220
0.0
230
1.0
 70
    24
 71
     3
 72
    15
 73
    11
 74
     0
 42
0.000000001
 43
0.00000001
 40
0.7500000000009739
 40
0.7500000000009739
 40
0.7500000000009739
 40
0.7500000000009739
 40
0.7916666666666666
 40
0.8333333333333334
 40
0.875
 40
0.9166666666666666
 40
0.9583333333333334
 40
0.9916666666666667
 40
0.99375
 40
1.0
 40
1.0
 40
1.0
 40
1.0
 10
195.0000000000001
 20
0.0
 30
0.0
 10
195.0000000000536
 20
0.0
 30
0.0
 10
190.4218675131345
 20
0.0
 30
0.0
 10
170.9372657958255
 20
0.0
 30
0.0
 10
139.5044365947469
 20
0.0
 30
0.0
 10
98.35992181344712
 20
0.0
 30
0.0
 10
54.45593140531495
 20
0.0
 30
0.0
 10
23.07256972886447
 20
0.0
 30
0.0
 10
5.987325410552259
 20
0.0
 30
0.0
 10
2.565996604522375
 20
0.0
 30
0.0
 10
-0.0000000000000379
 20
0.0
 30
0.0
  0
SPLINE
  5
A3
330
95
100
AcDbEntity
  8
0
  6
Continuous
 62
     7
370
    25
100
AcDbSpline
210
0.0
220
0.0
230
1.0
 70
    24
 71
     3
 72
    15
 73
    11
 74
     0
 42
0.000000001
 43
0.00000001
 40
0.0
 40
0.0
 40
0.0
 40
0.0
 40
0.0062500000000001
 40
0.0083333333333333
 40
0.0416666666666666
 40
0.0833333333333334
 40
0.1250000000000001
 40
0.1666666666666666
 40
0.2083333333333334
 40
0.25
 40
0.25
 40
0.25
 40
0.25
 10
-0.00000000000001
 20
-90.0
 30
0.0
 10
-1.967165492335285
 20
-90.0
 30
0.0
 10
-4.590052815448875
 20
-90.00000000000001
 30
0.0
 10
-17.6888275995562
 20
-90.0
 30
0.0
 10
-41.75737275034331
 20
-90.0
 30
0.0
 10
-75.5542534013412
 20
-90.00000000000003
 30
0.0
 10
-107.2656799598286
 20
-90.00000000000006
 30
0.0
 10
-131.6524531759836
 20
-90.00000000000007
 30
0.0
 10
-146.9359933863194
 20
-90.00000000000007
 30
0.0
 10
-150.5627492022771
 20
-90.00000000000007
 30
0.0
 10
-150.5627492022877
 20
-90.00000000000009
 30
0.0
  0
SPLINE
  5
A5
330
95
100
AcDbEntity
  8
0
  6
Continuous
 62
     7
370
    25
100
AcDbSpline
210
0.0
220
0.0
230
1.0
 70
     8
 71
     3
 72
    15
 73
    11
 74
     0
 42
0.000000001
 43
0.00000001
 40
0.0
 40
0.0
 40
0.0
 40
0.0
 40
0.0062500000000001
 40
0.0083333333333333
 40
0.0416666666666666
 40
0.0833333333333334
 40
0.1250000000000001
 40
0.1666666666666666
 40
0.2083333333333334
 40
0.25
 40
0.25
 40
0.25
 40
0.25
 10
-0.0000000000000061
 20
-101.1397866761616
 30
0.0
 10
-1.729061384735736
 20
-101.1397866761613
 30
0.0
 10
-4.034476564383267
 20
-101.1438888113057
 30
0.0
 10
-15.54789838681194
 20
-101.1903796762784
 30
0.0
 10
-36.70458853024164
 20
-101.47707334362
 30
0.0
 10
-66.43164022768967
 20
-102.370427219604
 30
0.0
 10
-94.33018502797418
 20
-103.6010677630548
 30
0.0
 10
-115.8088161288366
 20
-104.8317083065081
 30
0.0
 10
-129.2945919006129
 20
-105.7888731736414
 30
0.0
 10
-132.4999999999891
 20
-106.0623488499687
 30
0.0
 10
-132.5
 20
-106.0623488499716
 30
0.0
  0
LWPOLYLINE
  5
A6
330
95
100
AcDbEntity
  8
0
  6
Continuous
 62
     7
370
    25
100
AcDbPolyline
 90
       20
 70
   128
 43
0.0
 10
132.5
 20
-106.06234885
 10
131.9631171166
 20
-106.0177663464
 10
130.3762034496
 20
-105.8909346811
 10
127.7748614518
 20
-105.6922276223
 10
124.1929720552
 20
-105.432018938
 10
119.6580045145
 20
-105.1206823964
 10
114.3014521591
 20
-104.7751763719
 10
108.081041184
 20
-104.4001866613
 10
101.0484480003
 20
-104.0055411599
 10
93.2601994115
 20
-103.6010677631
 10
84.6180459925
 20
-103.1893015018
 10
75.3447305225
 20
-102.7879090087
 10
65.5338734207
 20
-102.4072640519
 10
55.2706351843
 20
-102.0577403996
 10
44.6086679595
 20
-101.7497118198
 10
35.9818601032
 20
-101.5435571212
 10
27.1622239847
 20
-101.3744553752
 10
18.1918931563
 20
-101.247438464
 10
9.1210697281
 20
-101.1675382702
 10
0.0
 20
-101.1397866762
  0
SPLINE
  5
A7
330
95
100
AcDbEntity
  8
0
  6
Continuous
 62
     7
370
    25
100
AcDbSpline
210
0.0
220
0.0
230
1.0
 70
     8
 71
     3
 72
    15
 73
    11
 74
     0
 42
0.000000001
 43
0.00000001
 40
0.0
 40
0.0
 40
0.0
 40
0.0
 40
0.0062500000000001
 40
0.0083333333333333
 40
0.0416666666666666
 40
0.0833333333333334
 40
0.1250000000000001
 40
0.1666666666666666
 40
0.2083333333333334
 40
0.25
 40
0.25
 40
0.25
 40
0.25
 10
-0.0000000000000042
 20
-135.9843776405656
 30
0.0
 10
-0.6278138826359835
 20
-135.9843776405654
 30
0.0
 10
-1.464899059483953
 20
-135.9869829411826
 30
0.0
 10
-5.64494319952585
 20
-136.0165096815131
 30
0.0
 10
-13.32160624026113
 20
-136.1985912468909
 30
0.0
 10
-24.0362064658336
 20
-136.7659678258152
 30
0.0
 10
-34.06976087439628
 20
-137.5475580110701
 30
0.0
 10
-41.70352527308491
 20
-138.3291481963266
 30
0.0
 10
-46.40284726504175
 20
-138.9370516737502
 30
0.0
 10
-47.50000000000202
 20
-139.1107383815877
 30
0.0
 10
-47.49999999999994
 20
-139.1107383815895
 30
0.0
  0
SPLINE
  5
A9
330
95
100
AcDbEntity
  8
0
  6
Continuous
 62
     7
370
    25
100
AcDbSpline
210
0.0
220
0.0
230
1.0
 70
    24
 71
     3
 72
    15
 73
    11
 74
     0
 42
0.000000001
 43
0.00000001
 40
0.0
 40
0.0
 40
0.0
 40
0.0
 40
0.0062500000000001
 40
0.0083333333333333
 40
0.0416666666666666
 40
0.0833333333333334
 40
0.1250000000000001
 40
0.1666666666666666
 40
0.2083333333333334
 40
0.25
 40
0.25
 40
0.25
 40
0.25
 10
-0.0000000000000042
 20
-145.0
 30
0.0
 10
-0.6250504549477823
 20
-145.0
 30
0.0
 10
-1.458451061544805
 20
-145.0
 30
0.0
 10
-5.620241344210597
 20
-145.0
 30
0.0
 10
-13.26490636796133
 20
-145.0
 30
0.0
 10
-23.95946813404482
 20
-145.0
 30
0.0
 10
-33.98184993974606
 20
-145.0
 30
0.0
 10
-41.638564745137
 20
-145.0
 30
0.0
 10
-46.38481388136757
 20
-145.0
 30
0.0
 10
-47.49999999999999
 20
-145.0
 30
0.0
 10
-47.49999999999999
 20
-145.0
 30
0.0
  0
LINE
  5
AB
330
95
100
AcDbEntity
  8
0
  6
Continuous
 62
     7
370
    25
100
AcDbLine
 10
132.5
 20
-106.06234885
 30
0.0
 11
132.5
 21
-90.0
 31
0.0
  0
LINE
  5
AC
330
95
100
AcDbEntity
  8
0
  6
Continuous
 62
     7
370
    25
100
AcDbLine
 10
-132.5
 20
-90.0
 30
0.0
 11
-132.5
 21
-106.06234885
 31
0.0
  0
LINE
  5
AD
330
95
100
AcDbEntity
  8
0
  6
Continuous
 62
     7
370
    25
100
AcDbLine
 10
47.5
 20
-145.0
 30
0.0
 11
47.5
 21
-139.1107383816
 31
0.0
  0
LINE
  5
AE
330
95
100
AcDbEntity
  8
0
  6
Continuous
 62
     7
370
    25
100
AcDbLine
 10
-47.5
 20
-139.1107383816
 30
0.0
 11
-47.5
 21
-145.0
 31
0.0
  0
LINE
  5
AF
330
95
100
AcDbEntity
  8
0
  6
Continuous
 62
     7
370
    25
100
AcDbLine
 10
-195.0
 20
0.0
 30
0.0
 11
0.0
 21
0.0
 31
0.0
  0
LINE
  5
B0
330
95
100
AcDbEntity
  8
0
  6
Continuous
 62
     7
370
    25
100
AcDbLine
 10
150.5627492023
 20
-90.0
 30
0.0
 11
0.0
 21
-90.0
 31
0.0
  0
LINE
  5
B1
330
95
100
AcDbEntity
  8
0
  6
Continuous
 62
     7
370
    25
100
AcDbLine
 10
47.5
 20
-145.0
 30
0.0
 11
0.0
 21
-145.0
 31
0.0
  0
ARC
  5
B2
330
95
100
AcDbEntity
  8
0
  6
Continuous
 62
     7
370
    25
100
AcDbCircle
 10
0.7980276635
 20
-486.2656927037
 30
0.0
 40
350.2822241143264
100
AcDbArc
 50
82.3381279362
 51
90.1305337624
  0
VIEWPORT
  5
134
330
95
100
AcDbEntity
  8
0
100
AcDbViewport
 10
0.0
 20
0.0
 30
0.0
 40
205.6
 41
156.0
 68
     1
 69
     1
 12
0.0
 22
-16.2157043767
 13
0.0
 23
0.0
 14
10.0
 24
10.0
 15
10.0
 25
10.0
 16
0.0
 26
0.0
 36
1.0
 17
0.0
 27
0.0
 37
0.0
 42
50.0
 43
0.0
 44
0.0
 45
382.433885339
 50
0.0
 51
0.0
 72
   100
 90
   557152
  1

281
     0
 71
     1
 74
     0
110
0.0
120
0.0
130
0.0
111
1.0
121
0.0
131
0.0
112
0.0
122
1.0
132
0.0
 79
     0
146
0.0
170
     0
 61
     5
348
2F
292
     1
282
     1
141
0.0
142
0.0
 63
   256
361
135
  0
ENDBLK
  5
98
330
95
100
AcDbEntity
  8
0
100
AcDbBlockEnd
  0
BLOCK
  5
B5
330
B3
100
AcDbEntity
  8
0
100
AcDbBlockBegin
  2
*Paper_Space2
 70
     0
 10
0.0
 20
0.0
 30
0.0
  3
*Paper_Space2
  1

  0
SPLINE
  5
B7
330
B3
100
AcDbEntity
  8
0
  6
Continuous
 62
     7
370
    25
100
AcDbSpline
210
0.0
220
0.0
230
1.0
 70
     8
 71
     3
 72
    15
 73
    11
 74
     0
 42
0.000000001
 43
0.00000001
 40
0.0
 40
0.0
 40
0.0
 40
0.0
 40
0.125000024291702
 40
0.2499999872898608
 40
0.3749999703825102
 40
0.5000000000000004
 40
0.6250000296174901
 40
0.7500000127101395
 40
0.874999975708298
 40
1.0
 40
1.0
 40
1.0
 40
1.0
 10
198.8502713292925
 20
-90.00000000000006
 30
0.0
 10
203.3348559516788
 20
-87.03301154680524
 30
0.0
 10
212.3040229974432
 20
-81.0990360952732
 30
0.0
 10
225.1431202322914
 20
-71.31995314324534
 30
0.0
 10
237.4867981094724
 20
-60.93093451640016
 30
0.0
 10
249.2591656951379
 20
-49.89578361850403
 30
0.0
 10
260.4428562742033
 20
-38.26443550476041
 30
0.0
 10
270.9877183756046
 20
-26.05362165690518
 30
0.0
 10
280.9289823828217
 20
-13.33968634452701
 30
0.0
 10
286.9763269667229
 20
-4.446562841630447
 30
0.0
 10
289.9999999999999
 20
0.0
 30
0.0
  0
SPLINE
  5
B8
330
B3
100
AcDbEntity
  8
0
  6
Continuous
 62
     7
370
    25
100
AcDbSpline
210
0.0
220
0.0
230
1.0
 70
     8
 71
     3
 72
    15
 73
    11
 74
     0
 42
0.000000001
 43
0.00000001
 40
0.0
 40
0.0
 40
0.0
 40
0.0
 40
0.1250000242917025
 40
0.2499999872898607
 40
0.3749999703825097
 40
0.4999999999999998
 40
0.6250000296174906
 40
0.7500000127101402
 40
0.8749999757082983
 40
1.0
 40
1.0
 40
1.0
 40
1.0
 10
-290.0000000000001
 20
0.0
 30
0.0
 10
-286.976326966723
 20
-4.446562841630433
 30
0.0
 10
-280.9289823828217
 20
-13.33968634452695
 30
0.0
 10
-270.9877183756045
 20
-26.0536216569051
 30
0.0
 10
-260.4428562742036
 20
-38.26443550476042
 30
0.0
 10
-249.2591656951379
 20
-49.89578361850401
 30
0.0
 10
-237.4867981094724
 20
-60.93093451640009
 30
0.0
 10
-225.1431202322914
 20
-71.31995314324533
 30
0.0
 10
-212.3040229974433
 20
-81.09903609527318
 30
0.0
 10
-203.3348559516789
 20
-87.03301154680518
 30
0.0
 10
-198.8502713292927
 20
-90.0
 30
0.0
  0
SPLINE
  5
BB
330
B3
100
AcDbEntity
  8
0
  6
Continuous
 62
     7
370
    25
100
AcDbSpline
210
0.0
220
0.0
230
1.0
 70
     8
 71
     3
 72
    22
 73
    18
 74
     0
 42
0.000000001
 43
0.00000001
 40
0.0
 40
0.0
 40
0.0
 40
0.0
 40
0.0923653966704044
 40
0.1750574197372139
 40
0.2480757614700771
 40
0.3114202305374932
 40
0.3544045303112017
 40
0.3914163876948109
 40
0.4224557487477842
 40
0.4524540041028442
 40
0.5003055815988402
 40
0.558280649385529
 40
0.6263790243075752
 40
0.7046004364934115
 40
0.7929445751751784
 40
0.891411222869974
 40
1.0
 40
1.0
 40
1.0
 40
1.0
 10
72.49999999999996
 20
-135.9843776405655
 30
0.0
 10
75.96585199249597
 20
-135.5012059042791
 30
0.0
 10
82.53457933919334
 20
-134.5854647231301
 30
0.0
 10
91.782777396636
 20
-132.9027129302717
 30
0.0
 10
99.90561743458721
 20
-131.2017317675759
 30
0.0
 10
106.5180677251018
 20
-129.6380224785537
 30
0.0
 10
111.7772404025376
 20
-128.2855661499838
 30
0.0
 10
115.8351695003975
 20
-127.1777391344951
 30
0.0
 10
119.4059018640744
 20
-126.1545699474333
 30
0.0
 10
123.3583203253153
 20
-124.973661896185
 30
0.0
 10
128.2669182947165
 20
-123.4298356808832
 30
0.0
 10
134.512729766993
 20
-121.330417358343
 30
0.0
 10
141.7898013937609
 20
-118.6939003861651
 30
0.0
 10
150.0648146104052
 20
-115.4420484971741
 30
0.0
 10
159.2902643001142
 20
-111.4772707354731
 30
0.0
 10
169.4294237061447
 20
-106.7326718195702
 30
0.0
 10
176.3634815840095
 20
-103.0638662397655
 30
0.0
 10
179.9999999999999
 20
-101.1397866761615
 30
0.0
  0
SPLINE
  5
BC
330
B3
100
AcDbEntity
  8
0
  6
Continuous
 62
     7
370
    25
100
AcDbSpline
210
0.0
220
0.0
230
1.0
 70
     8
 71
     3
 72
    22
 73
    18
 74
     0
 42
0.000000001
 43
0.00000001
 40
0.0
 40
0.0
 40
0.0
 40
0.0
 40
0.092365396670403
 40
0.1750574197372118
 40
0.2480757614700747
 40
0.3114202305374917
 40
0.3544045303112007
 40
0.3914163876948107
 40
0.4224557487477845
 40
0.4524540041028445
 40
0.5003055815988409
 40
0.5582806493855298
 40
0.6263790243075747
 40
0.7046004364934101
 40
0.7929445751751762
 40
0.8914112228699737
 40
1.0
 40
1.0
 40
1.0
 40
1.0
 10
-180.0
 20
-101.1397866761616
 30
0.0
 10
-176.9097334153609
 20
-102.7816872201951
 30
0.0
 10
-171.0528420457775
 20
-105.8935330311247
 30
0.0
 10
-162.5760245538173
 20
-109.9560920908863
 30
0.0
 10
-154.9998842011747
 20
-113.3437113958038
 30
0.0
 10
-148.7274617123259
 20
-115.9564497498078
 30
0.0
 10
-143.6749198752706
 20
-117.9463885319274
 30
0.0
 10
-139.7387137367079
 20
-119.4297463762275
 30
0.0
 10
-136.2467272787795
 20
-120.6958567094953
 30
0.0
 10
-132.3530968838777
 20
-122.058133431075
 30
0.0
 10
-127.4722033006903
 20
-123.6874312055355
 30
0.0
 10
-121.1824364863006
 20
-125.6512417006805
 30
0.0
 10
-113.7424216992393
 20
-127.7850582752715
 30
0.0
 10
-105.133245685815
 20
-130.0059753861629
 30
0.0
 10
-95.33612999391777
 20
-132.2070907390265
 30
0.0
 10
-84.34157453646202
 20
-134.3126839159285
 30
0.0
 10
-76.57377068941825
 20
-135.409277017237
 30
0.0
 10
-72.50000000000007
 20
-135.9843776405656
 30
0.0
  0
SPLINE
  5
BF
330
B3
100
AcDbEntity
  8
0
  6
Continuous
 62
     7
370
    25
100
AcDbSpline
210
0.0
220
0.0
230
1.0
 70
    24
 71
     3
 72
    21
 73
    17
 74
     0
 42
0.000000001
 43
0.00000001
 40
0.5000000000020915
 40
0.5000000000020915
 40
0.5000000000020915
 40
0.5000000000020915
 40
0.5416666666666667
 40
0.5833333333333333
 40
0.625
 40
0.6666666666666667
 40
0.7083333333333333
 40
0.7500000000009739
 40
0.7916666666666666
 40
0.8333333333333334
 40
0.875
 40
0.9166666666666666
 40
0.9583333333333334
 40
0.9916666666666667
 40
0.99375
 40
1.0
 40
1.0
 40
1.0
 40
1.0
 10
289.9999999999999
 20
0.0
 30
0.0
 10
290.0000000001716
 20
0.0
 30
0.0
 10
283.1914952762036
 20
0.0
 30
0.0
 10
254.2143952860994
 20
0.0
 30
0.0
 10
207.4681364742389
 20
0.0
 30
0.0
 10
146.2788580815368
 20
0.0
 30
0.0
 10
76.32195028835913
 20
0.0
 30
0.0
 10
-0.0000000000000729
 20
0.0
 30
0.0
 10
-76.3219502883593
 20
0.0
 30
0.0
 10
-146.2788580815369
 20
0.0
 30
0.0
 10
-207.4681364742391
 20
0.0
 30
0.0
 10
-254.2143952860996
 20
0.0
 30
0.0
 10
-281.2596886097433
 20
0.0
 30
0.0
 10
-288.7146899587346
 20
0.0
 30
0.0
 10
-289.8978724291358
 20
0.0
 30
0.0
 10
-290.0000000000001
 20
0.0
 30
0.0
 10
-290.0000000000001
 20
0.0
 30
0.0
  0
LWPOLYLINE
  5
C1
330
B3
100
AcDbEntity
  8
0
  6
Continuous
 62
     7
370
    25
100
AcDbPolyline
 90
       39
 70
   128
 43
0.0
 10
180.0
 20
-101.1397866762
 10
179.4998467645
 20
-101.1709468593
 10
178.016221218
 20
-101.2604251836
 10
175.5743746005
 20
-101.4022183108
 10
172.1994487636
 20
-101.5903229029
 10
167.9129716866
 20
-101.8187356219
 10
162.732116066
 20
-102.0814531297
 10
155.5009097044
 20
-102.4269591542
 10
147.0872737066
 20
-102.8019488649
 10
137.5594100962
 20
-103.1965943663
 10
126.992781052
 20
-103.601067763
 10
115.253237495
 20
-104.0128340243
 10
102.6455196482
 20
-104.4142265174
 10
89.3001039741
 20
-104.7948714742
 10
75.3348039687
 20
-105.1443951266
 10
60.8202708529
 20
-105.4524237064
 10
46.0880562143
 20
-105.7045241136
 10
30.954946705
 20
-105.8967637036
 10
15.5463461213
 20
-106.0193145808
 10
0.0000000004
 20
-106.06234885
 10
-15.8281492317
 20
-106.0177663464
 10
-31.5109020987
 20
-105.8909346811
 10
-46.9028624283
 20
-105.6922276223
 10
-61.8739653827
 20
-105.432018938
 10
-76.3512465376
 20
-105.1206823964
 10
-90.0315922519
 20
-104.7751763719
 10
-103.1092736435
 20
-104.4001866613
 10
-115.4708735362
 20
-104.0055411599
 10
-126.9927810519
 20
-103.6010677631
 10
-137.742144203
 20
-103.1893015018
 10
-147.4132028527
 20
-102.7879090087
 10
-155.9263035246
 20
-102.4072640519
 10
-163.2108115571
 20
-102.0577403996
 10
-169.2296821927
 20
-101.7497118198
 10
-173.0518727814
 20
-101.5435571212
 10
-176.0599370376
 20
-101.3744553752
 10
-178.2347508366
 20
-101.247438464
 10
-179.5551601919
 20
-101.1675382702
 10
-180.0
 20
-101.1397866762
  0
LWPOLYLINE
  5
C2
330
B3
100
AcDbEntity
  8
0
  6
Continuous
 62
     7
370
    25
100
AcDbPolyline
 90
       25
 70
   128
 43
0.0
 10
72.5
 20
-135.9843776406
 10
71.879275121
 20
-136.0458916829
 10
70.04750284
 20
-136.2159599177
 10
67.0465221486
 20
-136.4728715063
 10
62.903113869
 20
-136.7949156104
 10
57.6534701792
 20
-137.1603813915
 10
51.3864868508
 20
-137.5475580111
 10
44.2175148702
 20
-137.9347346306
 10
36.3150224901
 20
-138.3002004117
 10
27.8422575148
 20
-138.6222445158
 10
18.8884686874
 20
-138.8791561045
 10
9.5468030623
 20
-139.0492243392
 10
0.0000000001
 20
-139.1107383816
 10
-9.546803062
 20
-139.0492243392
 10
-18.8884686872
 20
-138.8791561045
 10
-27.8422575147
 20
-138.6222445158
 10
-36.3150224902
 20
-138.3002004117
 10
-44.2175148703
 20
-137.9347346306
 10
-51.3864868509
 20
-137.5475580111
 10
-57.6534701793
 20
-137.1603813915
 10
-62.903113869
 20
-136.7949156105
 10
-67.0465221486
 20
-136.4728715064
 10
-70.0475028399
 20
-136.2159599177
 10
-71.879275121
 20
-136.0458916829
 10
-72.5
 20
-135.9843776406
  0
LINE
  5
C4
330
B3
100
AcDbEntity
  8
0
  6
Continuous
 62
     7
370
    25
100
AcDbLine
 10
180.0
 20
-101.1397866762
 30
0.0
 11
180.0
 21
-90.0
 31
0.0
  0
LINE
  5
C5
330
B3
100
AcDbEntity
  8
0
  6
Continuous
 62
     7
370
    25
100
AcDbLine
 10
-180.0
 20
-90.0
 30
0.0
 11
-180.0
 21
-101.1397866762
 31
0.0
  0
LINE
  5
C6
330
B3
100
AcDbEntity
  8
0
  6
Continuous
 62
     7
370
    25
100
AcDbLine
 10
72.5
 20
-145.0
 30
0.0
 11
72.5
 21
-135.9843776406
 31
0.0
  0
LINE
  5
C7
330
B3
100
AcDbEntity
  8
0
  6
Continuous
 62
     7
370
    25
100
AcDbLine
 10
-72.5
 20
-135.9843776406
 30
0.0
 11
-72.5
 21
-145.0
 31
0.0
  0
LINE
  5
C8
330
B3
100
AcDbEntity
  8
0
  6
Continuous
 62
     7
370
    25
100
AcDbLine
 10
198.8502713293
 20
-90.0
 30
0.0
 11
-198.8502713293
 21
-90.0
 31
0.0
  0
LINE
  5
C9
330
B3
100
AcDbEntity
  8
0
  6
Continuous
 62
     7
370
    25
100
AcDbLine
 10
72.5
 20
-145.0
 30
0.0
 11
-72.5
 21
-145.0
 31
0.0
  0
VIEWPORT
  5
136
330
B3
100
AcDbEntity
  8
0
100
AcDbViewport
 10
0.0
 20
0.0
 30
0.0
 40
205.6
 41
156.0
 68
     1
 69
     1
 12
0.0
 22
-16.2157043767
 13
0.0
 23
0.0
 14
10.0
 24
10.0
 15
10.0
 25
10.0
 16
0.0
 26
0.0
 36
1.0
 17
0.0
 27
0.0
 37
0.0
 42
50.0
 43
0.0
 44
0.0
 45
382.433885339
 50
0.0
 51
0.0
 72
   100
 90
   557152
  1

281
     0
 71
     1
 74
     0
110
0.0
120
0.0
130
0.0
111
1.0
121
0.0
131
0.0
112
0.0
122
1.0
132
0.0
 79
     0
146
0.0
170
     0
 61
     5
348
2F
292
     1
282
     1
141
0.0
142
0.0
 63
   256
361
137
  0
ENDBLK
  5
B6
330
B3
100
AcDbEntity
  8
0
100
AcDbBlockEnd
  0
BLOCK
  5
CC
330
CA
100
AcDbEntity
  8
0
100
AcDbBlockBegin
  2
*Paper_Space3
 70
     0
 10
0.0
 20
0.0
 30
0.0
  3
*Paper_Space3
  1

  0
SPLINE
  5
CE
330
CA
100
AcDbEntity
  8
0
  6
Continuous
 62
     7
370
    25
100
AcDbSpline
210
0.0
220
0.0
230
1.0
 70
     8
 71
     3
 72
    15
 73
    11
 74
     0
 42
0.000000001
 43
0.00000001
 40
0.0
 40
0.0
 40
0.0
 40
0.0
 40
0.1250000242917016
 40
0.2499999872898598
 40
0.3749999703825094
 40
0.5000000000000002
 40
0.6250000296174903
 40
0.7500000127101394
 40
0.8749999757082976
 40
1.0
 40
1.0
 40
1.0
 40
1.0
 10
198.8502713292927
 20
-90.0
 30
0.0
 10
203.334855951679
 20
-87.0330115468052
 30
0.0
 10
212.3040229974434
 20
-81.09903609527322
 30
0.0
 10
225.1431202322913
 20
-71.31995314324529
 30
0.0
 10
237.4867981094725
 20
-60.93093451640013
 30
0.0
 10
249.2591656951379
 20
-49.89578361850401
 30
0.0
 10
260.4428562742035
 20
-38.26443550476041
 30
0.0
 10
270.9877183756046
 20
-26.0536216569051
 30
0.0
 10
280.9289823828216
 20
-13.33968634452695
 30
0.0
 10
286.976326966723
 20
-4.446562841630433
 30
0.0
 10
290.0000000000001
 20
0.0
 30
0.0
  0
SPLINE
  5
CF
330
CA
100
AcDbEntity
  8
0
  6
Continuous
 62
     7
370
    25
100
AcDbSpline
210
0.0
220
0.0
230
1.0
 70
     8
 71
     3
 72
    15
 73
    11
 74
     0
 42
0.000000001
 43
0.00000001
 40
0.0
 40
0.0
 40
0.0
 40
0.0
 40
0.1250000242917021
 40
0.2499999872898606
 40
0.37499997038251
 40
0.4999999999999997
 40
0.62500002961749
 40
0.7500000127101394
 40
0.8749999757082981
 40
1.0
 40
1.0
 40
1.0
 40
1.0
 10
-289.9999999999999
 20
0.0
 30
0.0
 10
-286.9763269667229
 20
-4.446562841630447
 30
0.0
 10
-280.9289823828217
 20
-13.33968634452702
 30
0.0
 10
-270.9877183756045
 20
-26.05362165690515
 30
0.0
 10
-260.4428562742035
 20
-38.26443550476043
 30
0.0
 10
-249.2591656951379
 20
-49.89578361850404
 30
0.0
 10
-237.4867981094723
 20
-60.93093451640012
 30
0.0
 10
-225.1431202322914
 20
-71.31995314324536
 30
0.0
 10
-212.3040229974432
 20
-81.09903609527319
 30
0.0
 10
-203.3348559516788
 20
-87.03301154680523
 30
0.0
 10
-198.8502713292925
 20
-90.00000000000006
 30
0.0
  0
SPLINE
  5
D2
330
CA
100
AcDbEntity
  8
0
  6
Continuous
 62
     7
370
    25
100
AcDbSpline
210
0.0
220
0.0
230
1.0
 70
     8
 71
     3
 72
    22
 73
    18
 74
     0
 42
0.000000001
 43
0.00000001
 40
0.0
 40
0.0
 40
0.0
 40
0.0
 40
0.0923653966704044
 40
0.1750574197372146
 40
0.2480757614700777
 40
0.3114202305374937
 40
0.3544045303112015
 40
0.3914163876948105
 40
0.4224557487477836
 40
0.4524540041028437
 40
0.5003055815988395
 40
0.5582806493855289
 40
0.6263790243075752
 40
0.7046004364934122
 40
0.7929445751751797
 40
0.8914112228699757
 40
1.0
 40
1.0
 40
1.0
 40
1.0
 10
72.50000000000007
 20
-135.9843776405656
 30
0.0
 10
75.96585199249607
 20
-135.5012059042791
 30
0.0
 10
82.53457933919346
 20
-134.5854647231301
 30
0.0
 10
91.78277739663619
 20
-132.9027129302718
 30
0.0
 10
99.90561743458737
 20
-131.201731767576
 30
0.0
 10
106.5180677251019
 20
-129.6380224785538
 30
0.0
 10
111.7772404025377
 20
-128.2855661499837
 30
0.0
 10
115.8351695003976
 20
-127.1777391344951
 30
0.0
 10
119.4059018640745
 20
-126.1545699474333
 30
0.0
 10
123.3583203253152
 20
-124.9736618961849
 30
0.0
 10
128.2669182947165
 20
-123.4298356808832
 30
0.0
 10
134.5127297669931
 20
-121.3304173583431
 30
0.0
 10
141.7898013937609
 20
-118.693900386165
 30
0.0
 10
150.0648146104054
 20
-115.4420484971742
 30
0.0
 10
159.2902643001144
 20
-111.4772707354731
 30
0.0
 10
169.4294237061449
 20
-106.7326718195702
 30
0.0
 10
176.3634815840097
 20
-103.0638662397656
 30
0.0
 10
180.0
 20
-101.1397866761616
 30
0.0
  0
SPLINE
  5
D3
330
CA
100
AcDbEntity
  8
0
  6
Continuous
 62
     7
370
    25
100
AcDbSpline
210
0.0
220
0.0
230
1.0
 70
     8
 71
     3
 72
    22
 73
    18
 74
     0
 42
0.000000001
 43
0.00000001
 40
0.0
 40
0.0
 40
0.0
 40
0.0
 40
0.0923653966704038
 40
0.175057419737213
 40
0.2480757614700762
 40
0.3114202305374925
 40
0.3544045303112009
 40
0.3914163876948105
 40
0.4224557487477842
 40
0.4524540041028444
 40
0.5003055815988404
 40
0.5582806493855296
 40
0.6263790243075744
 40
0.7046004364934104
 40
0.7929445751751768
 40
0.8914112228699738
 40
1.0
 40
1.0
 40
1.0
 40
1.0
 10
-179.9999999999999
 20
-101.1397866761615
 30
0.0
 10
-176.9097334153608
 20
-102.7816872201951
 30
0.0
 10
-171.0528420457773
 20
-105.8935330311247
 30
0.0
 10
-162.5760245538171
 20
-109.9560920908863
 30
0.0
 10
-154.9998842011745
 20
-113.3437113958039
 30
0.0
 10
-148.7274617123257
 20
-115.9564497498078
 30
0.0
 10
-143.6749198752705
 20
-117.9463885319274
 30
0.0
 10
-139.7387137367078
 20
-119.4297463762275
 30
0.0
 10
-136.2467272787794
 20
-120.6958567094952
 30
0.0
 10
-132.3530968838777
 20
-122.0581334310751
 30
0.0
 10
-127.4722033006902
 20
-123.6874312055354
 30
0.0
 10
-121.1824364863006
 20
-125.6512417006806
 30
0.0
 10
-113.7424216992392
 20
-127.7850582752714
 30
0.0
 10
-105.1332456858149
 20
-130.0059753861628
 30
0.0
 10
-95.33612999391761
 20
-132.2070907390265
 30
0.0
 10
-84.34157453646189
 20
-134.3126839159283
 30
0.0
 10
-76.57377068941814
 20
-135.4092770172369
 30
0.0
 10
-72.49999999999996
 20
-135.9843776405655
 30
0.0
  0
SPLINE
  5
D7
330
CA
100
AcDbEntity
  8
0
  6
Continuous
 62
     7
370
    25
100
AcDbSpline
210
0.0
220
0.0
230
1.0
 70
    24
 71
     3
 72
    21
 73
    17
 74
     0
 42
0.000000001
 43
0.00000001
 40
0.0
 40
0.0
 40
0.0
 40
0.0
 40
0.0062500000000001
 40
0.0083333333333333
 40
0.0416666666666666
 40
0.0833333333333334
 40
0.1250000000000001
 40
0.1666666666666666
 40
0.2083333333333334
 40
0.25
 40
0.2916666666666666
 40
0.3333333333333334
 40
0.375
 40
0.4166666666666666
 40
0.4583333333333334
 40
0.5000000000020915
 40
0.5000000000020915
 40
0.5000000000020915
 40
0.5000000000020915
 10
198.8502713292927
 20
-90.0
 30
0.0
 10
198.8502713292928
 20
-90.0
 30
0.0
 10
198.7798634258439
 20
-90.00000000000001
 30
0.0
 10
197.9643735094931
 20
-90.0
 30
0.0
 10
192.8273946822161
 20
-90.0
 30
0.0
 10
174.2211648423402
 20
-90.00000000000003
 30
0.0
 10
142.1354551725618
 20
-90.00000000000006
 30
0.0
 10
100.1942375638008
 20
-90.00000000000007
 30
0.0
 10
52.25560404685498
 20
-90.00000000000007
 30
0.0
 10
-0.0000000000004343
 20
-90.00000000000007
 30
0.0
 10
-52.25560404685331
 20
-90.0000000000001
 30
0.0
 10
-100.1942375637943
 20
-90.0000000000001
 30
0.0
 10
-142.1354551725503
 20
-90.00000000000011
 30
0.0
 10
-174.2211648423263
 20
-90.0000000000001
 30
0.0
 10
-194.156411099016
 20
-90.0000000000001
 30
0.0
 10
-198.850271329175
 20
-90.00000000000007
 30
0.0
 10
-198.8502713292925
 20
-90.00000000000006
 30
0.0
  0
SPLINE
  5
D8
330
CA
100
AcDbEntity
  8
0
  6
Continuous
 62
     7
370
    25
100
AcDbSpline
210
0.0
220
0.0
230
1.0
 70
     8
 71
     3
 72
    21
 73
    17
 74
     0
 42
0.000000001
 43
0.00000001
 40
0.0
 40
0.0
 40
0.0
 40
0.0
 40
0.0062500000000001
 40
0.0083333333333333
 40
0.0416666666666666
 40
0.0833333333333334
 40
0.1250000000000001
 40
0.1666666666666666
 40
0.2083333333333334
 40
0.25
 40
0.2916666666666666
 40
0.3333333333333334
 40
0.375
 40
0.4166666666666666
 40
0.4583333333333334
 40
0.5000000000020915
 40
0.5000000000020915
 40
0.5000000000020915
 40
0.5000000000020915
 10
180.0
 20
-101.1397866761616
 30
0.0
 10
180.0000000000003
 20
-101.1397866761613
 30
0.0
 10
179.9356681408749
 20
-101.1438888113057
 30
0.0
 10
179.1908812512578
 20
-101.1903796762784
 30
0.0
 10
174.50125843376
 20
-101.47707334362
 30
0.0
 10
157.5619450239026
 20
-102.370427219604
 30
0.0
 10
128.4670743711052
 20
-103.6010677630548
 30
0.0
 10
90.52644380349538
 20
-104.8317083065081
 30
0.0
 10
47.17970821328502
 20
-105.7888731736414
 30
0.0
 10
-0.0000000000010118
 20
-106.1990866881324
 30
0.0
 10
-47.1797082132809
 20
-105.7888731736584
 30
0.0
 10
-90.52644380347911
 20
-104.8317083065391
 30
0.0
 10
-128.4670743710766
 20
-103.6010677630943
 30
0.0
 10
-157.5619450238681
 20
-102.3704272196435
 30
0.0
 10
-175.7112093913019
 20
-101.4132623525065
 30
0.0
 10
-179.9999999998929
 20
-101.1397866761706
 30
0.0
 10
-179.9999999999999
 20
-101.1397866761615
 30
0.0
  0
SPLINE
  5
D9
330
CA
100
AcDbEntity
  8
0
  6
Continuous
 62
     7
370
    25
100
AcDbSpline
210
0.0
220
0.0
230
1.0
 70
     8
 71
     3
 72
    21
 73
    17
 74
     0
 42
0.000000001
 43
0.00000001
 40
0.0
 40
0.0
 40
0.0
 40
0.0
 40
0.0062500000000001
 40
0.0083333333333333
 40
0.0416666666666666
 40
0.0833333333333334
 40
0.1250000000000001
 40
0.1666666666666666
 40
0.2083333333333334
 40
0.25
 40
0.2916666666666666
 40
0.3333333333333334
 40
0.375
 40
0.4166666666666666
 40
0.4583333333333334
 40
0.5000000000020915
 40
0.5000000000020915
 40
0.5000000000020915
 40
0.5000000000020915
 10
72.50000000000007
 20
-135.9843776405656
 30
0.0
 10
72.49999999999989
 20
-135.9843776405654
 30
0.0
 10
72.47486698127835
 20
-135.9869829411826
 30
0.0
 10
72.18347257089053
 20
-136.0165096815131
 30
0.0
 10
70.34612692897626
 20
-136.1985912468909
 30
0.0
 10
63.64938807459023
 20
-136.7659678258152
 30
0.0
 10
51.99666549676558
 20
-137.5475580110701
 30
0.0
 10
36.68287104352781
 20
-138.3291481963266
 30
0.0
 10
19.16198527001537
 20
-138.9370516737502
 30
0.0
 10
0.0000000000004385
 20
-139.1975817355064
 30
0.0
 10
-19.16198527001706
 20
-138.9370516737609
 30
0.0
 10
-36.68287104353464
 20
-138.3291481963463
 30
0.0
 10
-51.99666549677751
 20
-137.5475580110952
 30
0.0
 10
-63.64938807460478
 20
-136.7659678258403
 30
0.0
 10
-70.82446541845512
 20
-136.1580643484144
 30
0.0
 10
-72.49999999995724
 20
-135.9843776405714
 30
0.0
 10
-72.49999999999996
 20
-135.9843776405656
 30
0.0
  0
SPLINE
  5
DA
330
CA
100
AcDbEntity
  8
0
  6
Continuous
 62
     7
370
    25
100
AcDbSpline
210
0.0
220
0.0
230
1.0
 70
    24
 71
     3
 72
    21
 73
    17
 74
     0
 42
0.000000001
 43
0.00000001
 40
0.0
 40
0.0
 40
0.0
 40
0.0
 40
0.0062500000000001
 40
0.0083333333333333
 40
0.0416666666666666
 40
0.0833333333333334
 40
0.1250000000000001
 40
0.1666666666666666
 40
0.2083333333333334
 40
0.25
 40
0.2916666666666666
 40
0.3333333333333334
 40
0.375
 40
0.4166666666666666
 40
0.4583333333333334
 40
0.5000000000020915
 40
0.5000000000020915
 40
0.5000000000020915
 40
0.5000000000020915
 10
72.5
 20
-145.0
 30
0.0
 10
72.5
 20
-145.0
 30
0.0
 10
72.47446810728393
 20
-145.0
 30
0.0
 10
72.17867248968363
 20
-145.0
 30
0.0
 10
70.31492215243578
 20
-145.0
 30
0.0
 10
63.55359882152489
 20
-145.0
 30
0.0
 10
51.86703411855981
 20
-145.0
 30
0.0
 10
36.56971452038422
 20
-145.0
 30
0.0
 10
19.08048757208984
 20
-145.0
 30
0.0
 10
0.0000000000000156
 20
-145.0
 30
0.0
 10
-19.0804875720898
 20
-145.0
 30
0.0
 10
-36.56971452038418
 20
-145.0
 30
0.0
 10
-51.86703411855975
 20
-145.0
 30
0.0
 10
-63.55359882152488
 20
-145.0
 30
0.0
 10
-70.79787381880662
 20
-145.0
 30
0.0
 10
-72.49999999995615
 20
-145.0
 30
0.0
 10
-72.49999999999999
 20
-145.0
 30
0.0
  0
LINE
  5
DB
330
CA
100
AcDbEntity
  8
0
  6
Continuous
 62
     7
370
    25
100
AcDbLine
 10
180.0
 20
-101.1397866762
 30
0.0
 11
180.0
 21
-90.0
 31
0.0
  0
LINE
  5
DC
330
CA
100
AcDbEntity
  8
0
  6
Continuous
 62
     7
370
    25
100
AcDbLine
 10
-180.0
 20
-90.0
 30
0.0
 11
-180.0
 21
-101.1397866762
 31
0.0
  0
LINE
  5
DD
330
CA
100
AcDbEntity
  8
0
  6
Continuous
 62
     7
370
    25
100
AcDbLine
 10
72.5
 20
-145.0
 30
0.0
 11
72.5
 21
-135.9843776406
 31
0.0
  0
LINE
  5
DE
330
CA
100
AcDbEntity
  8
0
  6
Continuous
 62
     7
370
    25
100
AcDbLine
 10
-72.5
 20
-135.9843776406
 30
0.0
 11
-72.5
 21
-145.0
 31
0.0
  0
LINE
  5
DF
330
CA
100
AcDbEntity
  8
0
  6
Continuous
 62
     7
370
    25
100
AcDbLine
 10
-290.0
 20
0.0
 30
0.0
 11
290.0
 21
0.0
 31
0.0
  0
VIEWPORT
  5
138
330
CA
100
AcDbEntity
  8
0
100
AcDbViewport
 10
0.0
 20
0.0
 30
0.0
 40
205.6
 41
156.0
 68
     1
 69
     1
 12
0.0
 22
-16.2157043767
 13
0.0
 23
0.0
 14
10.0
 24
10.0
 15
10.0
 25
10.0
 16
0.0
 26
0.0
 36
1.0
 17
0.0
 27
0.0
 37
0.0
 42
50.0
 43
0.0
 44
0.0
 45
382.433885339
 50
0.0
 51
0.0
 72
   100
 90
   557152
  1

281
     0
 71
     1
 74
     0
110
0.0
120
0.0
130
0.0
111
1.0
121
0.0
131
0.0
112
0.0
122
1.0
132
0.0
 79
     0
146
0.0
170
     0
 61
     5
348
2F
292
     1
282
     1
141
0.0
142
0.0
 63
   256
361
139
  0
ENDBLK
  5
CD
330
CA
100
AcDbEntity
  8
0
100
AcDbBlockEnd
  0
BLOCK
  5
E2
330
E0
100
AcDbEntity
  8
0
100
AcDbBlockBegin
  2
*Paper_Space4
 70
     0
 10
0.0
 20
0.0
 30
0.0
  3
*Paper_Space4
  1

  0
SPLINE
  5
E4
330
E0
100
AcDbEntity
  8
0
  6
Continuous
 62
     7
370
    25
100
AcDbSpline
210
0.0
220
0.0
230
1.0
 70
     8
 71
     3
 72
    15
 73
    11
 74
     0
 42
0.000000001
 43
0.00000001
 40
0.0
 40
0.0
 40
0.0
 40
0.0
 40
0.1250001189952067
 40
0.2499999357993114
 40
0.3749998552050007
 40
0.4999999999999994
 40
0.6250001447949998
 40
0.7500000642006903
 40
0.8749998810047945
 40
1.0
 40
1.0
 40
1.0
 40
1.0
 10
150.5627492022877
 20
-90.00000000000009
 30
0.0
 10
153.4532843520095
 20
-86.88208798434297
 30
0.0
 10
159.234347663508
 20
-80.64627149066376
 30
0.0
 10
166.9509611351338
 20
-70.47390324252828
 30
0.0
 10
173.9061000350928
 20
-59.77771729239922
 30
0.0
 10
179.9935943967465
 20
-48.5610135540603
 30
0.0
 10
185.1978535330492
 20
-36.90821486880679
 30
0.0
 10
189.461329619314
 20
-24.88302785739986
 30
0.0
 10
192.8459533360542
 20
-12.57175166269803
 30
0.0
 10
194.2819838667437
 20
-4.190587264517945
 30
0.0
 10
195.0
 20
0.0
 30
0.0
  0
SPLINE
  5
E5
330
E0
100
AcDbEntity
  8
0
  6
Continuous
 62
     7
370
    25
100
AcDbSpline
210
0.0
220
0.0
230
1.0
 70
     8
 71
     3
 72
    15
 73
    11
 74
     0
 42
0.000000001
 43
0.00000001
 40
0.0
 40
0.0
 40
0.0
 40
0.0
 40
0.1250001189952058
 40
0.2499999357993101
 40
0.3749998552050002
 40
0.4999999999999997
 40
0.6250001447949995
 40
0.75000006420069
 40
0.8749998810047941
 40
1.0
 40
1.0
 40
1.0
 40
1.0
 10
-195.0000000000001
 20
0.0
 30
0.0
 10
-194.2819838667437
 20
-4.190587264517945
 30
0.0
 10
-192.845953336054
 20
-12.57175166269801
 30
0.0
 10
-189.4613296193139
 20
-24.88302785739985
 30
0.0
 10
-185.1978535330492
 20
-36.90821486880675
 30
0.0
 10
-179.993594396747
 20
-48.56101355406041
 30
0.0
 10
-173.9061000350929
 20
-59.77771729239922
 30
0.0
 10
-166.9509611351338
 20
-70.47390324252821
 30
0.0
 10
-159.2343476635081
 20
-80.64627149066376
 30
0.0
 10
-153.4532843520097
 20
-86.88208798434296
 30
0.0
 10
-150.5627492022878
 20
-90.00000000000006
 30
0.0
  0
SPLINE
  5
E8
330
E0
100
AcDbEntity
  8
0
  6
Continuous
 62
     7
370
    25
100
AcDbSpline
210
0.0
220
0.0
230
1.0
 70
     8
 71
     3
 72
    22
 73
    18
 74
     0
 42
0.000000001
 43
0.00000001
 40
0.0
 40
0.0
 40
0.0
 40
0.0
 40
0.0829123543613401
 40
0.1581187883758098
 40
0.2256187423179766
 40
0.2854119776934073
 40
0.337498415685375
 40
0.3818777630248066
 40
0.4185497249981326
 40
0.4524227690614498
 40
0.5002655554341242
 40
0.5582367819043912
 40
0.6263360820683062
 40
0.7045627266637053
 40
0.7929158719233387
 40
0.8913952938666733
 40
1.0
 40
1.0
 40
1.0
 40
1.0
 10
47.49999999999994
 20
-139.1107383815895
 30
0.0
 10
50.04123247782533
 20
-138.8504277171806
 30
0.0
 10
54.88751387304241
 20
-138.3539998063501
 30
0.0
 10
61.75290924963192
 20
-137.2516360208195
 30
0.0
 10
67.87209012292288
 20
-136.0350950240184
 30
0.0
 10
73.24957497789637
 20
-134.7588861882697
 30
0.0
 10
77.89638683841342
 20
-133.5007905037719
 30
0.0
 10
81.82482726684408
 20
-132.32141763103
 30
0.0
 10
85.1916003110544
 20
-131.2262533946181
 30
0.0
 10
88.63666182251032
 20
-130.0293311931668
 30
0.0
 10
92.66815081227104
 20
-128.5236192190954
 30
0.0
 10
97.62947240321041
 20
-126.4997211079755
 30
0.0
 10
103.3694836861646
 20
-123.9160057658457
 30
0.0
 10
109.8368415051435
 20
-120.6800031666812
 30
0.0
 10
116.9568087936126
 20
-116.6784680391088
 30
0.0
 10
124.6708245542795
 20
-111.8356757001948
 30
0.0
 10
129.8065715147114
 20
-108.0485149668354
 30
0.0
 10
132.4999999999999
 20
-106.0623488499715
 30
0.0
  0
SPLINE
  5
E9
330
E0
100
AcDbEntity
  8
0
  6
Continuous
 62
     7
370
    25
100
AcDbSpline
210
0.0
220
0.0
230
1.0
 70
     8
 71
     3
 72
    22
 73
    18
 74
     0
 42
0.000000001
 43
0.00000001
 40
0.0
 40
0.0
 40
0.0
 40
0.0
 40
0.0829123543613401
 40
0.1581187883758099
 40
0.2256187423179768
 40
0.2854119776934074
 40
0.3374984156853749
 40
0.3818777630248062
 40
0.4185497249981321
 40
0.4524227690614495
 40
0.5002655554341234
 40
0.5582367819043902
 40
0.6263360820683049
 40
0.7045627266637043
 40
0.7929158719233379
 40
0.8913952938666725
 40
1.0
 40
1.0
 40
1.0
 40
1.0
 10
-132.5
 20
-106.0623488499716
 30
0.0
 10
-130.4503471274803
 20
-107.5869954485416
 30
0.0
 10
-126.5415372608419
 20
-110.4945871424953
 30
0.0
 10
-120.7345979137659
 20
-114.3192851713503
 30
0.0
 10
-115.4007643858648
 20
-117.5557286597471
 30
0.0
 10
-110.5735257280891
 20
-120.2471630911959
 30
0.0
 10
-106.2972946429966
 20
-122.4583873958024
 30
0.0
 10
-102.6039419331939
 20
-124.2424026237869
 30
0.0
 10
-99.3816252669012
 20
-125.7091066628041
 30
0.0
 10
-96.03284445547759
 20
-127.1536614907988
 30
0.0
 10
-92.0430669043322
 20
-128.7666547070897
 30
0.0
 10
-87.01763167017444
 20
-130.6256534161267
 30
0.0
 10
-81.03986454241019
 20
-132.5978640194394
 30
0.0
 10
-74.08516107337013
 20
-134.5804203586714
 30
0.0
 10
-66.1321330722418
 20
-136.4393348750855
 30
0.0
 10
-57.17280966959878
 20
-138.0792132121934
 30
0.0
 10
-50.82768390202743
 20
-138.7558684091631
 30
0.0
 10
-47.50000000000001
 20
-139.1107383815895
 30
0.0
  0
SPLINE
  5
EC
330
E0
100
AcDbEntity
  8
0
  6
Continuous
 62
     7
370
    25
100
AcDbSpline
210
0.0
220
0.0
230
1.0
 70
    24
 71
     3
 72
    19
 73
    15
 74
     0
 42
0.000000001
 43
0.00000001
 40
0.25
 40
0.25
 40
0.25
 40
0.25
 40
0.2916666666666666
 40
0.3333333333333334
 40
0.375
 40
0.4166666666666666
 40
0.4583333333333334
 40
0.5000000000020915
 40
0.5416666666666667
 40
0.5833333333333333
 40
0.625
 40
0.6666666666666667
 40
0.7083333333333333
 40
0.7500000000009739
 40
0.7500000000009739
 40
0.7500000000009739
 40
0.7500000000009739
 10
195.0
 20
0.0
 30
0.0
 10
195.0
 20
0.0
 30
0.0
 10
190.4218675129826
 20
0.0
 30
0.0
 10
170.9372657958255
 20
0.0
 30
0.0
 10
139.5044365947469
 20
0.0
 30
0.0
 10
98.35992181344709
 20
0.0
 30
0.0
 10
51.31993209044835
 20
0.0
 30
0.0
 10
-0.0000000000000792
 20
0.0
 30
0.0
 10
-51.31993209044843
 20
0.0
 30
0.0
 10
-98.35992181344717
 20
0.0
 30
0.0
 10
-139.504436594747
 20
0.0
 30
0.0
 10
-170.9372657958255
 20
0.0
 30
0.0
 10
-190.4218675128309
 20
0.0
 30
0.0
 10
-194.9999999999465
 20
0.0
 30
0.0
 10
-195.0000000000001
 20
0.0
 30
0.0
  0
SPLINE
  5
ED
330
E0
100
AcDbEntity
  8
0
  6
Continuous
 62
     7
370
    25
100
AcDbSpline
210
0.0
220
0.0
230
1.0
 70
    24
 71
     3
 72
    19
 73
    15
 74
     0
 42
0.000000001
 43
0.00000001
 40
0.25
 40
0.25
 40
0.25
 40
0.25
 40
0.2916666666666666
 40
0.3333333333333334
 40
0.375
 40
0.4166666666666666
 40
0.4583333333333334
 40
0.5000000000020915
 40
0.5416666666666667
 40
0.5833333333333333
 40
0.625
 40
0.6666666666666667
 40
0.7083333333333333
 40
0.7500000000009739
 40
0.7500000000009739
 40
0.7500000000009739
 40
0.7500000000009739
 10
150.5627492022877
 20
-90.00000000000009
 30
0.0
 10
150.5627492022983
 20
-90.00000000000009
 30
0.0
 10
146.9359933863829
 20
-90.0000000000001
 30
0.0
 10
131.6524531761076
 20
-90.0000000000001
 30
0.0
 10
107.2656799600067
 20
-90.00000000000011
 30
0.0
 10
75.55425340156405
 20
-90.0000000000001
 30
0.0
 10
39.34330984687114
 20
-90.0000000000001
 30
0.0
 10
0.0000000001815643
 20
-90.00000000000006
 30
0.0
 10
-39.34330984652485
 20
-90.00000000000003
 30
0.0
 10
-75.55425340112741
 20
-90.00000000000004
 30
0.0
 10
-107.2656799596784
 20
-90.00000000000004
 30
0.0
 10
-131.6524531759005
 20
-90.00000000000006
 30
0.0
 10
-146.9359933862658
 20
-90.00000000000006
 30
0.0
 10
-150.5627492022894
 20
-90.00000000000006
 30
0.0
 10
-150.5627492022878
 20
-90.00000000000004
 30
0.0
  0
SPLINE
  5
EE
330
E0
100
AcDbEntity
  8
0
  6
Continuous
 62
     7
370
    25
100
AcDbSpline
210
0.0
220
0.0
230
1.0
 70
     8
 71
     3
 72
    19
 73
    15
 74
     0
 42
0.000000001
 43
0.00000001
 40
0.25
 40
0.25
 40
0.25
 40
0.25
 40
0.2916666666666666
 40
0.3333333333333334
 40
0.375
 40
0.4166666666666666
 40
0.4583333333333334
 40
0.5000000000020915
 40
0.5416666666666667
 40
0.5833333333333333
 40
0.625
 40
0.6666666666666667
 40
0.7083333333333333
 40
0.7500000000009739
 40
0.7500000000009739
 40
0.7500000000009739
 40
0.7500000000009739
 10
132.5
 20
-106.0623488499716
 30
0.0
 10
132.5000000000109
 20
-106.0623488499744
 30
0.0
 10
129.2945919006783
 20
-105.7888731736584
 30
0.0
 10
115.8088161289643
 20
-104.8317083065391
 30
0.0
 10
94.33018502815759
 20
-103.6010677630943
 30
0.0
 10
66.43164022791916
 20
-102.3704272196435
 30
0.0
 10
34.58122769488523
 20
-101.4132623524904
 30
0.0
 10
0.0000000001869571
 20
-101.0030488380004
 30
0.0
 10
-34.58122769452866
 20
-101.4132623524771
 30
0.0
 10
-66.43164022746952
 20
-102.3704272195803
 30
0.0
 10
-94.33018502781947
 20
-103.6010677630313
 30
0.0
 10
-115.8088161287509
 20
-104.8317083064899
 30
0.0
 10
-129.2945919005655
 20
-105.7888731736364
 30
0.0
 10
-132.500000000001
 20
-106.0623488499696
 30
0.0
 10
-132.5
 20
-106.0623488499716
 30
0.0
  0
SPLINE
  5
EF
330
E0
100
AcDbEntity
  8
0
  6
Continuous
 62
     7
370
    25
100
AcDbSpline
210
0.0
220
0.0
230
1.0
 70
     8
 71
     3
 72
    19
 73
    15
 74
     0
 42
0.000000001
 43
0.00000001
 40
0.25
 40
0.25
 40
0.25
 40
0.25
 40
0.2916666666666666
 40
0.3333333333333334
 40
0.375
 40
0.4166666666666666
 40
0.4583333333333334
 40
0.5000000000020915
 40
0.5416666666666667
 40
0.5833333333333333
 40
0.625
 40
0.6666666666666667
 40
0.7083333333333333
 40
0.7500000000009739
 40
0.7500000000009739
 40
0.7500000000009739
 40
0.7500000000009739
 10
47.49999999999994
 20
-139.1107383815895
 30
0.0
 10
47.49999999999785
 20
-139.1107383815913
 30
0.0
 10
46.40284726502927
 20
-138.9370516737609
 30
0.0
 10
41.70352527306059
 20
-138.3291481963463
 30
0.0
 10
34.06976087436132
 20
-137.5475580110952
 30
0.0
 10
24.03620646578988
 20
-136.7659678258403
 30
0.0
 10
12.5562776526868
 20
-136.1580643484042
 30
0.0
 10
-0.0000000000356437
 20
-135.8975342866484
 30
0.0
 10
-12.55627765275476
 20
-136.1580643483956
 30
0.0
 10
-24.03620646587558
 20
-136.7659678258001
 30
0.0
 10
-34.0697608744258
 20
-137.5475580110551
 30
0.0
 10
-41.7035252731013
 20
-138.329148196315
 30
0.0
 10
-46.4028472650369
 20
-138.9370516737479
 30
0.0
 10
-47.50000000000995
 20
-139.110738381589
 30
0.0
 10
-47.50000000000001
 20
-139.1107383815895
 30
0.0
  0
SPLINE
  5
F0
330
E0
100
AcDbEntity
  8
0
  6
Continuous
 62
     7
370
    25
100
AcDbSpline
210
0.0
220
0.0
230
1.0
 70
    24
 71
     3
 72
    19
 73
    15
 74
     0
 42
0.000000001
 43
0.00000001
 40
0.25
 40
0.25
 40
0.25
 40
0.25
 40
0.2916666666666666
 40
0.3333333333333334
 40
0.375
 40
0.4166666666666666
 40
0.4583333333333334
 40
0.5000000000020915
 40
0.5416666666666667
 40
0.5833333333333333
 40
0.625
 40
0.6666666666666667
 40
0.7083333333333333
 40
0.7500000000009739
 40
0.7500000000009739
 40
0.7500000000009739
 40
0.7500000000009739
 10
47.49999999999999
 20
-145.0
 30
0.0
 10
47.49999999999999
 20
-145.0
 30
0.0
 10
46.38481388136756
 20
-145.0
 30
0.0
 10
41.63856474513701
 20
-145.0
 30
0.0
 10
33.98184993974606
 20
-145.0
 30
0.0
 10
23.95946813404482
 20
-145.0
 30
0.0
 10
12.50100909895539
 20
-145.0
 30
0.0
 10
-0.000000000000007
 20
-145.0
 30
0.0
 10
-12.50100909895539
 20
-144.9999999999999
 30
0.0
 10
-23.95946813404482
 20
-145.0
 30
0.0
 10
-33.98184993974606
 20
-145.0
 30
0.0
 10
-41.63856474513701
 20
-145.0
 30
0.0
 10
-46.38481388134895
 20
-145.0
 30
0.0
 10
-47.49999999999993
 20
-145.0
 30
0.0
 10
-47.5
 20
-145.0
 30
0.0
  0
LINE
  5
F1
330
E0
100
AcDbEntity
  8
0
  6
Continuous
 62
     7
370
    25
100
AcDbLine
 10
132.5
 20
-106.06234885
 30
0.0
 11
132.5
 21
-90.0
 31
0.0
  0
LINE
  5
F2
330
E0
100
AcDbEntity
  8
0
  6
Continuous
 62
     7
370
    25
100
AcDbLine
 10
-132.5
 20
-90.0
 30
0.0
 11
-132.5
 21
-106.06234885
 31
0.0
  0
LINE
  5
F3
330
E0
100
AcDbEntity
  8
0
  6
Continuous
 62
     7
370
    25
100
AcDbLine
 10
47.5
 20
-145.0
 30
0.0
 11
47.5
 21
-139.1107383816
 31
0.0
  0
LINE
  5
F4
330
E0
100
AcDbEntity
  8
0
  6
Continuous
 62
     7
370
    25
100
AcDbLine
 10
-47.5
 20
-139.1107383816
 30
0.0
 11
-47.5
 21
-145.0
 31
0.0
  0
VIEWPORT
  5
13A
330
E0
100
AcDbEntity
  8
0
100
AcDbViewport
 10
0.0
 20
0.0
 30
0.0
 40
205.6
 41
156.0
 68
     1
 69
     1
 12
0.0
 22
-16.2157043767
 13
0.0
 23
0.0
 14
10.0
 24
10.0
 15
10.0
 25
10.0
 16
0.0
 26
0.0
 36
1.0
 17
0.0
 27
0.0
 37
0.0
 42
50.0
 43
0.0
 44
0.0
 45
382.433885339
 50
0.0
 51
0.0
 72
   100
 90
   557152
  1

281
     0
 71
     1
 74
     0
110
0.0
120
0.0
130
0.0
111
1.0
121
0.0
131
0.0
112
0.0
122
1.0
132
0.0
 79
     0
146
0.0
170
     0
 61
     5
348
2F
292
     1
282
     1
141
0.0
142
0.0
 63
   256
361
13B
  0
ENDBLK
  5
E3
330
E0
100
AcDbEntity
  8
0
100
AcDbBlockEnd
  0
BLOCK
  5
F7
330
F5
100
AcDbEntity
  8
0
100
AcDbBlockBegin
  2
*Paper_Space5
 70
     0
 10
0.0
 20
0.0
 30
0.0
  3
*Paper_Space5
  1

  0
SPLINE
  5
F9
330
F5
100
AcDbEntity
  8
0
  6
Continuous
 62
     7
370
    25
100
AcDbSpline
210
0.0
220
0.0
230
1.0
 70
    11
 71
     3
 72
    35
 73
    31
 74
     0
 42
0.000000001
 43
0.00000001
 40
0.0
 40
0.0
 40
0.0
 40
0.0
 40
0.0062500000000001
 40
0.0083333333333333
 40
0.0416666666666666
 40
0.0833333333333334
 40
0.1250000000000001
 40
0.1666666666666666
 40
0.2083333333333334
 40
0.25
 40
0.2916666666666666
 40
0.3333333333333334
 40
0.375
 40
0.4166666666666666
 40
0.4583333333333334
 40
0.5000000000020915
 40
0.5416666666666667
 40
0.5833333333333333
 40
0.625
 40
0.6666666666666667
 40
0.7083333333333333
 40
0.7500000000009739
 40
0.7916666666666666
 40
0.8333333333333334
 40
0.875
 40
0.9166666666666666
 40
0.9583333333333334
 40
0.9916666666666667
 40
0.99375
 40
1.0
 40
1.0
 40
1.0
 40
1.0
 10
-72.5
 20
-0.0000000000000042
 30
0.0
 10
-72.5
 20
-0.6250504549477823
 30
0.0
 10
-72.47446810728393
 20
-1.458451061544805
 30
0.0
 10
-72.17867248968363
 20
-5.620241344210597
 30
0.0
 10
-70.31492215243578
 20
-13.26490636796133
 30
0.0
 10
-63.55359882152489
 20
-23.95946813404482
 30
0.0
 10
-51.86703411855981
 20
-33.98184993974606
 30
0.0
 10
-36.56971452038422
 20
-41.638564745137
 30
0.0
 10
-19.08048757208984
 20
-46.38481388136757
 30
0.0
 10
-0.0000000000000156
 20
-48.0575930593162
 30
0.0
 10
19.0804875720898
 20
-46.38481388136756
 30
0.0
 10
36.56971452038418
 20
-41.63856474513701
 30
0.0
 10
51.86703411855975
 20
-33.98184993974606
 30
0.0
 10
63.55359882152488
 20
-23.95946813404482
 30
0.0
 10
70.79787381892942
 20
-12.50100909895539
 30
0.0
 10
73.35106309053526
 20
0.000000000000007
 30
0.0
 10
70.79787381892939
 20
12.50100909895539
 30
0.0
 10
63.55359882152489
 20
23.95946813404482
 30
0.0
 10
51.86703411855974
 20
33.98184993974606
 30
0.0
 10
36.56971452038421
 20
41.63856474513701
 30
0.0
 10
19.08048757208979
 20
46.38481388136754
 30
0.0
 10
-0.000000000000005
 20
48.05759305931623
 30
0.0
 10
-19.08048757208982
 20
46.38481388136756
 30
0.0
 10
-36.56971452038422
 20
41.63856474513699
 30
0.0
 10
-51.86703411855976
 20
33.98184993974605
 30
0.0
 10
-63.55359882152488
 20
23.95946813404482
 30
0.0
 10
-70.31492215243578
 20
13.26490636796133
 30
0.0
 10
-72.17867248968365
 20
5.620241344210579
 30
0.0
 10
-72.47446810728393
 20
1.458451061544785
 30
0.0
 10
-72.5
 20
0.6250504549477628
 30
0.0
 10
-72.5
 20
-0.0000000000000042
 30
0.0
  0
SPLINE
  5
FA
330
F5
100
AcDbEntity
  8
0
  6
Continuous
 62
     7
370
    25
100
AcDbSpline
210
0.0
220
0.0
230
1.0
 70
    11
 71
     3
 72
    35
 73
    31
 74
     0
 42
0.000000001
 43
0.00000001
 40
0.0
 40
0.0
 40
0.0
 40
0.0
 40
0.0062500000000001
 40
0.0083333333333333
 40
0.0416666666666666
 40
0.0833333333333334
 40
0.1250000000000001
 40
0.1666666666666666
 40
0.2083333333333334
 40
0.25
 40
0.2916666666666666
 40
0.3333333333333334
 40
0.375
 40
0.4166666666666666
 40
0.4583333333333334
 40
0.5000000000020915
 40
0.5416666666666667
 40
0.5833333333333333
 40
0.625
 40
0.6666666666666667
 40
0.7083333333333333
 40
0.7500000000009739
 40
0.7916666666666666
 40
0.8333333333333334
 40
0.875
 40
0.9166666666666666
 40
0.9583333333333334
 40
0.9916666666666667
 40
0.99375
 40
1.0
 40
1.0
 40
1.0
 40
1.0
 10
-23.0
 20
-0.0000000000000066
 30
0.0
 10
-23.0
 20
-0.3058699265881849
 30
0.0
 10
-22.99133516299608
 20
-0.7136964953724153
 30
0.0
 10
-22.89145991336859
 20
-2.75046670346351
 30
0.0
 10
-22.26524099857055
 20
-6.493723289480213
 30
0.0
 10
-20.06579618222134
 20
-11.76226989751441
 30
0.0
 10
-16.46208693124018
 20
-16.4620869312402
 30
0.0
 10
-11.76226989751438
 20
-20.06579618222135
 30
0.0
 10
-6.117398531763469
 20
-22.42234419973835
 30
0.0
 10
0.0000000000000087
 20
-23.28882790013082
 30
0.0
 10
6.117398531763485
 20
-22.42234419973835
 30
0.0
 10
11.7622698975144
 20
-20.06579618222134
 30
0.0
 10
16.4620869312402
 20
-16.46208693124018
 30
0.0
 10
20.06579618222136
 20
-11.76226989751439
 30
0.0
 10
22.42234419973837
 20
-6.117398531763469
 30
0.0
 10
23.28882790013084
 20
0.0000000000000145
 30
0.0
 10
22.42234419973837
 20
6.117398531763485
 30
0.0
 10
20.06579618222135
 20
11.7622698975144
 30
0.0
 10
16.46208693124019
 20
16.4620869312402
 30
0.0
 10
11.76226989751439
 20
20.06579618222136
 30
0.0
 10
6.117398531763475
 20
22.42234419973836
 30
0.0
 10
0.000000000000003
 20
23.28882790013082
 30
0.0
 10
-6.11739853176348
 20
22.42234419973835
 30
0.0
 10
-11.7622698975144
 20
20.06579618222135
 30
0.0
 10
-16.4620869312402
 20
16.46208693124019
 30
0.0
 10
-20.06579618222135
 20
11.76226989751439
 30
0.0
 10
-22.26524099857056
 20
6.493723289480199
 30
0.0
 10
-22.89145991336859
 20
2.750466703463492
 30
0.0
 10
-22.99133516299607
 20
0.7136964953723968
 30
0.0
 10
-23.0
 20
0.3058699265881663
 30
0.0
 10
-23.0
 20
-0.0000000000000066
 30
0.0
  0
SPLINE
  5
FB
330
F5
100
AcDbEntity
  8
0
  6
Continuous
 62
     7
370
    25
100
AcDbSpline
210
0.0
220
0.0
230
1.0
 70
    11
 71
     3
 72
    35
 73
    31
 74
     0
 42
0.000000001
 43
0.00000001
 40
0.0
 40
0.0
 40
0.0
 40
0.0
 40
0.0062500000000001
 40
0.0083333333333333
 40
0.0416666666666666
 40
0.0833333333333334
 40
0.1250000000000001
 40
0.1666666666666666
 40
0.2083333333333334
 40
0.25
 40
0.2916666666666666
 40
0.3333333333333334
 40
0.375
 40
0.4166666666666666
 40
0.4583333333333334
 40
0.5000000000020915
 40
0.5416666666666667
 40
0.5833333333333333
 40
0.625
 40
0.6666666666666667
 40
0.7083333333333333
 40
0.7500000000009739
 40
0.7916666666666666
 40
0.8333333333333334
 40
0.875
 40
0.9166666666666666
 40
0.9583333333333334
 40
0.9916666666666667
 40
0.99375
 40
1.0
 40
1.0
 40
1.0
 40
1.0
 10
-72.50000000000007
 20
-0.0000000000000042
 30
0.0
 10
-72.49999999999989
 20
-0.6278138826359835
 30
0.0
 10
-72.47486698127835
 20
-1.464899059483953
 30
0.0
 10
-72.18347257089053
 20
-5.64494319952585
 30
0.0
 10
-70.34612692897626
 20
-13.32160624026113
 30
0.0
 10
-63.64938807459023
 20
-24.0362064658336
 30
0.0
 10
-51.99666549676558
 20
-34.06976087439628
 30
0.0
 10
-36.68287104352781
 20
-41.70352527308491
 30
0.0
 10
-19.16198527001537
 20
-46.40284726504175
 30
0.0
 10
-0.0000000000004385
 20
-48.04857636748216
 30
0.0
 10
19.16198527001706
 20
-46.40284726502927
 30
0.0
 10
36.68287104353464
 20
-41.70352527306059
 30
0.0
 10
51.99666549677751
 20
-34.06976087436132
 30
0.0
 10
63.64938807460478
 20
-24.03620646578988
 30
0.0
 10
70.82446541857571
 20
-12.5562776526868
 30
0.0
 10
73.33776729071167
 20
0.0000000000356437
 30
0.0
 10
70.82446541857742
 20
12.55627765275476
 30
0.0
 10
63.64938807457104
 20
24.03620646587558
 30
0.0
 10
51.9966654967373
 20
34.0697608744258
 30
0.0
 10
36.68287104349277
 20
41.7035252731013
 30
0.0
 10
19.16198526998824
 20
46.40284726504335
 30
0.0
 10
-0.0000000000243505
 20
48.04857636748078
 30
0.0
 10
-19.16198527003554
 20
46.40284726503361
 30
0.0
 10
-36.68287104355392
 20
41.7035252730706
 30
0.0
 10
-51.9966654967856
 20
34.06976087438447
 30
0.0
 10
-63.64938807460386
 20
24.03620646582686
 30
0.0
 10
-70.34612692898361
 20
13.3216062402591
 30
0.0
 10
-72.18347257089364
 20
5.644943199525521
 30
0.0
 10
-72.47486698127915
 20
1.464899059483909
 30
0.0
 10
-72.50000000000023
 20
0.6278138826359642
 30
0.0
 10
-72.50000000000007
 20
-0.0000000000000042
 30
0.0
  0
SPLINE
  5
FC
330
F5
100
AcDbEntity
  8
0
  6
Continuous
 62
     7
370
    25
100
AcDbSpline
210
0.0
220
0.0
230
1.0
 70
    11
 71
     3
 72
    35
 73
    31
 74
     0
 42
0.000000001
 43
0.00000001
 40
0.0
 40
0.0
 40
0.0
 40
0.0
 40
0.0062500000000001
 40
0.0083333333333333
 40
0.0416666666666666
 40
0.0833333333333334
 40
0.1250000000000001
 40
0.1666666666666666
 40
0.2083333333333334
 40
0.25
 40
0.2916666666666666
 40
0.3333333333333334
 40
0.375
 40
0.4166666666666666
 40
0.4583333333333334
 40
0.5000000000020915
 40
0.5416666666666667
 40
0.5833333333333333
 40
0.625
 40
0.6666666666666667
 40
0.7083333333333333
 40
0.7500000000009739
 40
0.7916666666666666
 40
0.8333333333333334
 40
0.875
 40
0.9166666666666666
 40
0.9583333333333334
 40
0.9916666666666667
 40
0.99375
 40
1.0
 40
1.0
 40
1.0
 40
1.0
 10
-180.0
 20
-0.0000000000000061
 30
0.0
 10
-180.0000000000003
 20
-1.729061384735736
 30
0.0
 10
-179.9356681408749
 20
-4.034476564383267
 30
0.0
 10
-179.1908812512578
 20
-15.54789838681194
 30
0.0
 10
-174.50125843376
 20
-36.70458853024164
 30
0.0
 10
-157.5619450239026
 20
-66.43164022768967
 30
0.0
 10
-128.4670743711052
 20
-94.33018502797418
 30
0.0
 10
-90.52644380349538
 20
-115.8088161288366
 30
0.0
 10
-47.17970821328502
 20
-129.2945919006129
 30
0.0
 10
0.0000000000010118
 20
-134.1027040496771
 30
0.0
 10
47.1797082132809
 20
-129.2945919006783
 30
0.0
 10
90.52644380347911
 20
-115.8088161289643
 30
0.0
 10
128.4670743710766
 20
-94.33018502815759
 30
0.0
 10
157.5619450238681
 20
-66.43164022791916
 30
0.0
 10
175.7112093916056
 20
-34.58122769488523
 30
0.0
 10
182.144395304198
 20
-0.0000000001869571
 30
0.0
 10
175.7112093916013
 20
34.58122769452866
 30
0.0
 10
157.5619450239477
 20
66.43164022746952
 30
0.0
 10
128.4670743711715
 20
94.33018502781947
 30
0.0
 10
90.52644380357805
 20
115.8088161287509
 30
0.0
 10
47.17970821334883
 20
129.2945919006047
 30
0.0
 10
0.0000000000574081
 20
134.1027040496849
 30
0.0
 10
-47.17970821323743
 20
129.2945919006559
 30
0.0
 10
-90.52644380343385
 20
115.8088161289119
 30
0.0
 10
-128.4670743710578
 20
94.3301850280362
 30
0.0
 10
-157.5619450238706
 20
66.43164022772515
 30
0.0
 10
-174.5012584337427
 20
36.70458853025227
 30
0.0
 10
-179.1908812512505
 20
15.54789838681352
 30
0.0
 10
-179.935668140873
 20
4.034476564383358
 30
0.0
 10
-179.9999999999996
 20
1.729061384735693
 30
0.0
 10
-180.0
 20
-0.0000000000000061
 30
0.0
  0
SPLINE
  5
FD
330
F5
100
AcDbEntity
  8
0
  6
Continuous
 62
     7
370
    25
100
AcDbSpline
210
0.0
220
0.0
230
1.0
 70
    11
 71
     3
 72
    35
 73
    31
 74
     0
 42
0.000000001
 43
0.00000001
 40
0.0
 40
0.0
 40
0.0
 40
0.0
 40
0.0062500000000001
 40
0.0083333333333333
 40
0.0416666666666666
 40
0.0833333333333334
 40
0.1250000000000001
 40
0.1666666666666666
 40
0.2083333333333334
 40
0.25
 40
0.2916666666666666
 40
0.3333333333333334
 40
0.375
 40
0.4166666666666666
 40
0.4583333333333334
 40
0.5000000000020915
 40
0.5416666666666667
 40
0.5833333333333333
 40
0.625
 40
0.6666666666666667
 40
0.7083333333333333
 40
0.7500000000009739
 40
0.7916666666666666
 40
0.8333333333333334
 40
0.875
 40
0.9166666666666666
 40
0.9583333333333334
 40
0.9916666666666667
 40
0.99375
 40
1.0
 40
1.0
 40
1.0
 40
1.0
 10
-180.0
 20
-0.0000000000000075
 30
0.0
 10
-180.0000000000001
 20
-1.734366213987071
 30
0.0
 10
-179.9364338415451
 20
-4.046854499303073
 30
0.0
 10
-179.2000957537047
 20
-15.59531744003995
 30
0.0
 10
-174.5611608556976
 20
-36.81343275381482
 30
0.0
 10
-157.7458273935387
 20
-66.57895139089104
 30
0.0
 10
-128.715921963511
 20
-94.49894374007505
 30
0.0
 10
-90.74366534922798
 20
-115.9335179657299
 30
0.0
 10
-47.33615572002373
 20
-129.3292097853595
 30
0.0
 10
0.0000000000001865
 20
-134.0853951073099
 30
0.0
 10
47.33615572002291
 20
-129.3292097854009
 30
0.0
 10
90.74366534922495
 20
-115.9335179658108
 30
0.0
 10
128.7159219635057
 20
-94.49894374019134
 30
0.0
 10
157.7458273935322
 20
-66.57895139103657
 30
0.0
 10
175.7622561029945
 20
-34.68732427984929
 30
0.0
 10
182.1188719485029
 20
-0.0000000001185435
 30
0.0
 10
175.7622561029935
 20
34.68732427962318
 30
0.0
 10
157.745827393547
 20
66.57895139075144
 30
0.0
 10
128.7159219635234
 20
94.49894373997694
 30
0.0
 10
90.74366534924344
 20
115.9335179656755
 30
0.0
 10
47.33615572003558
 20
129.3292097853543
 30
0.0
 10
0.0000000000107067
 20
134.0853951073148
 30
0.0
 10
-47.33615572001484
 20
129.3292097853867
 30
0.0
 10
-90.7436653492165
 20
115.9335179657776
 30
0.0
 10
-128.7159219635022
 20
94.49894374011436
 30
0.0
 10
-157.7458273935327
 20
66.57895139091355
 30
0.0
 10
-174.5611608556945
 20
36.81343275382156
 30
0.0
 10
-179.2000957537034
 20
15.59531744004094
 30
0.0
 10
-179.9364338415447
 20
4.046854499303111
 30
0.0
 10
-179.9999999999999
 20
1.734366213987026
 30
0.0
 10
-180.0
 20
-0.0000000000000075
 30
0.0
  0
SPLINE
  5
FE
330
F5
100
AcDbEntity
  8
0
  6
Continuous
 62
     7
370
    25
100
AcDbSpline
210
0.0
220
0.0
230
1.0
 70
    11
 71
     3
 72
    35
 73
    31
 74
     0
 42
0.000000001
 43
0.00000001
 40
0.0
 40
0.0
 40
0.0
 40
0.0
 40
0.0062500000000001
 40
0.0083333333333333
 40
0.0416666666666666
 40
0.0833333333333334
 40
0.1250000000000001
 40
0.1666666666666666
 40
0.2083333333333334
 40
0.25
 40
0.2916666666666666
 40
0.3333333333333334
 40
0.375
 40
0.4166666666666666
 40
0.4583333333333334
 40
0.5000000000020915
 40
0.5416666666666667
 40
0.5833333333333333
 40
0.625
 40
0.6666666666666667
 40
0.7083333333333333
 40
0.7500000000009739
 40
0.7916666666666666
 40
0.8333333333333334
 40
0.875
 40
0.9166666666666666
 40
0.9583333333333334
 40
0.9916666666666667
 40
0.99375
 40
1.0
 40
1.0
 40
1.0
 40
1.0
 10
-198.8502713292927
 20
-0.00000000000001
 30
0.0
 10
-198.8502713292928
 20
-1.967165492335285
 30
0.0
 10
-198.7798634258439
 20
-4.590052815448875
 30
0.0
 10
-197.9643735094931
 20
-17.6888275995562
 30
0.0
 10
-192.8273946822161
 20
-41.75737275034331
 30
0.0
 10
-174.2211648423402
 20
-75.5542534013412
 30
0.0
 10
-142.1354551725618
 20
-107.2656799598286
 30
0.0
 10
-100.1942375638008
 20
-131.6524531759836
 30
0.0
 10
-52.25560404685498
 20
-146.9359933863194
 30
0.0
 10
0.0000000000004343
 20
-152.3761271102559
 30
0.0
 10
52.25560404685331
 20
-146.9359933863829
 30
0.0
 10
100.1942375637943
 20
-131.6524531761076
 30
0.0
 10
142.1354551725503
 20
-107.2656799600067
 30
0.0
 10
174.2211648423263
 20
-75.55425340156405
 30
0.0
 10
194.1564110993496
 20
-39.34330984687114
 30
0.0
 10
201.1972014442644
 20
-0.0000000001815643
 30
0.0
 10
194.1564110993477
 20
39.34330984652485
 30
0.0
 10
174.2211648423583
 20
75.55425340112741
 30
0.0
 10
142.1354551725885
 20
107.2656799596784
 30
0.0
 10
100.1942375638341
 20
131.6524531759005
 30
0.0
 10
52.25560404688068
 20
146.9359933863115
 30
0.0
 10
0.0000000000231215
 20
152.3761271102636
 30
0.0
 10
-52.25560404683584
 20
146.9359933863613
 30
0.0
 10
-100.1942375637761
 20
131.6524531760569
 30
0.0
 10
-142.1354551725428
 20
107.2656799598889
 30
0.0
 10
-174.2211648423273
 20
75.5542534013757
 30
0.0
 10
-192.8273946822092
 20
41.75737275035365
 30
0.0
 10
-197.9643735094901
 20
17.68882759955771
 30
0.0
 10
-198.7798634258431
 20
4.590052815448948
 30
0.0
 10
-198.8502713292925
 20
1.967165492335231
 30
0.0
 10
-198.8502713292927
 20
-0.00000000000001
 30
0.0
  0
LWPOLYLINE
  5
FF
330
F5
100
AcDbEntity
  8
0
  6
Continuous
 62
     7
370
    25
100
AcDbPolyline
 90
       95
 70
   128
 43
0.0
 10
-290.0
 20
0.0
 10
-289.4155725304
 20
12.3069227145
 10
-287.6775994761
 20
24.5546795057
 10
-284.8090448687
 20
36.6841044503
 10
-280.8328727399
 20
48.6360316251
 10
-275.7711591383
 20
60.3548476531
 10
-269.6400768022
 20
71.8085564859
 10
-262.4533902603
 20
82.9747965807
 10
-253.3452316928
 20
94.8989797112
 10
-242.9982456625
 20
106.4152765871
 10
-231.4611068333
 20
117.4652953087
 10
-218.7949470903
 20
127.9788829897
 10
-205.0609665441
 20
137.8858223314
 10
-189.4045893288
 20
147.6577696529
 10
-172.7404655435
 20
156.619224257
 10
-155.1931813536
 20
164.7210895759
 10
-136.8863803569
 20
171.9147204432
 10
-117.912566519
 20
178.1663846615
 10
-98.3267156615
 20
183.4603225012
 10
-79.3468671896
 20
187.5613521012
 10
-59.9199664418
 20
190.7849393113
 10
-40.1418362151
 20
193.1129380857
 10
-20.1294756835
 20
194.5248091194
 10
0.0000000006
 20
195.0
 10
21.3468585125
 20
194.4656983299
 10
42.5539916116
 20
192.8791401616
 10
63.4816738849
 20
190.2648457578
 10
83.9913211068
 20
186.6472064093
 10
103.9820504958
 20
182.0463525587
 10
123.3984154279
 20
176.4772796577
 10
141.1318159809
 20
170.3528282072
 10
158.2586164628
 20
163.3953720834
 10
174.6919776386
 20
155.6376408017
 10
190.3275695745
 20
147.1207402849
 10
205.0609665441
 20
137.8858223314
 10
217.5896086199
 20
128.9056370581
 10
229.240352219
 20
119.4188139912
 10
239.9672167925
 20
109.4781084267
 10
249.7242217915
 20
99.1362756603
 10
258.4684946075
 20
88.4431367504
 10
266.1778242181
 20
77.4290059453
 10
272.8384283353
 20
66.1162398411
 10
278.0109560879
 20
55.5029354853
 10
282.2799145305
 20
44.6754300914
 10
285.630919696
 20
33.6660774604
 10
288.0463944305
 20
22.5200063505
 10
289.5086505824
 20
11.282789588
 10
290.0
 20
-0.0000000009
 10
289.4155725303
 20
-12.3069227153
 10
287.6775994759
 20
-24.5546795065
 10
284.8090448684
 20
-36.6841044511
 10
280.8328727396
 20
-48.6360316258
 10
275.771159138
 20
-60.3548476537
 10
269.640076802
 20
-71.8085564863
 10
262.4533902601
 20
-82.974796581
 10
253.3452316927
 20
-94.8989797114
 10
242.9982456624
 20
-106.4152765871
 10
231.4611068333
 20
-117.4652953087
 10
218.7949470903
 20
-127.9788829897
 10
205.0609665441
 20
-137.8858223314
 10
189.4045893288
 20
-147.6577696529
 10
172.7404655435
 20
-156.619224257
 10
155.1931813536
 20
-164.7210895759
 10
136.886380357
 20
-171.9147204432
 10
117.9125665192
 20
-178.1663846614
 10
98.3267156618
 20
-183.4603225011
 10
79.34686719
 20
-187.5613521011
 10
59.9199664423
 20
-190.7849393112
 10
40.1418362156
 20
-193.1129380856
 10
20.129475684
 20
-194.5248091193
 10
0.0
 20
-195.0
 10
-21.3468585119
 20
-194.46569833
 10
-42.553991611
 20
-192.8791401617
 10
-63.4816738844
 20
-190.2648457579
 10
-83.9913211064
 20
-186.6472064094
 10
-103.9820504955
 20
-182.0463525588
 10
-123.3984154277
 20
-176.4772796578
 10
-141.1318159808
 20
-170.3528282072
 10
-158.2586164628
 20
-163.3953720834
 10
-174.6919776386
 20
-155.6376408017
 10
-190.3275695745
 20
-147.1207402849
 10
-205.0609665441
 20
-137.8858223314
 10
-217.5896086199
 20
-128.9056370581
 10
-229.240352219
 20
-119.4188139913
 10
-239.9672167925
 20
-109.4781084267
 10
-249.7242217915
 20
-99.1362756604
 10
-258.4684946073
 20
-88.4431367507
 10
-266.1778242179
 20
-77.4290059457
 10
-272.838428335
 20
-66.1162398416
 10
-278.0109560875
 20
-55.5029354859
 10
-282.2799145302
 20
-44.6754300921
 10
-285.6309196957
 20
-33.6660774612
 10
-288.0463944303
 20
-22.5200063514
 10
-289.5086505823
 20
-11.2827895888
 10
-290.0
 20
0.0
  0
VIEWPORT
  5
13C
330
F5
100
AcDbEntity
  8
0
100
AcDbViewport
 10
0.0
 20
0.0
 30
0.0
 40
205.6
 41
156.0
 68
     1
 69
     1
 12
0.0
 22
-16.2157043767
 13
0.0
 23
0.0
 14
10.0
 24
10.0
 15
10.0
 25
10.0
 16
0.0
 26
0.0
 36
1.0
 17
0.0
 27
0.0
 37
0.0
 42
50.0
 43
0.0
 44
0.0
 45
382.433885339
 50
0.0
 51
0.0
 72
   100
 90
   557152
  1

281
     0
 71
     1
 74
     0
110
0.0
120
0.0
130
0.0
111
1.0
121
0.0
131
0.0
112
0.0
122
1.0
132
0.0
 79
     0
146
0.0
170
     0
 61
     5
348
2F
292
     1
282
     1
141
0.0
142
0.0
 63
   256
361
13D
  0
ENDBLK
  5
F8
330
F5
100
AcDbEntity
  8
0
100
AcDbBlockEnd
  0
BLOCK
  5
102
330
100
100
AcDbEntity
  8
0
100
AcDbBlockBegin
  2
*Paper_Space6
 70
     0
 10
0.0
 20
0.0
 30
0.0
  3
*Paper_Space6
  1

  0
SPLINE
  5
104
330
100
100
AcDbEntity
  8
0
  6
Continuous
 62
     7
370
    25
100
AcDbSpline
210
0.0
220
0.0
230
1.0
 70
     8
 71
     3
 72
    78
 73
    74
 74
     0
 42
0.000000001
 43
0.00000001
 40
0.0
 40
0.0
 40
0.0
 40
0.0
 40
0.0143115764367417
 40
0.0259167973700482
 40
0.0348152675156765
 40
0.0401906376085473
 40
0.0438599769192268
 40
0.0473660537330041
 40
0.0510112066876117
 40
0.0547965624155953
 40
0.0587233389864197
 40
0.0683894659376608
 40
0.077707455173187
 40
0.0852158670448839
 40
0.0933445182303179
 40
0.1027451868572017
 40
0.1134566296112305
 40
0.1226944202311446
 40
0.1307315441732885
 40
0.1368927902189937
 40
0.1411405334428051
 40
0.1448802779420629
 40
0.1496066320294521
 40
0.1557621244964806
 40
0.1633783476635801
 40
0.1724960222261288
 40
0.182968204317371
 40
0.193668673277691
 40
0.2232706540577097
 40
0.2530769098417578
 40
0.2870811836606255
 40
0.3210758538023132
 40
0.3548205289000336
 40
0.3881165387167592
 40
0.4207810208342644
 40
0.4526693760593812
 40
0.4850661027209979
 40
0.5196040475493621
 40
0.5501673706217275
 40
0.5822785890997294
 40
0.6158921103063264
 40
0.6363702680421376
 40
0.6570114786857004
 40
0.6756556926050212
 40
0.6918760014564997
 40
0.7031024789162662
 40
0.7127736261334007
 40
0.7208916648754773
 40
0.7274599515630416
 40
0.7325314392326756
 40
0.7375743694364998
 40
0.7448895548926563
 40
0.7544631141790217
 40
0.7656409035824061
 40
0.7766527240752678
 40
0.7962552894062886
 40
0.814810811811399
 40
0.8318466174931405
 40
0.8481722947871646
 40
0.8662992904117558
 40
0.8853861493956153
 40
0.9039902368615336
 40
0.9167580919144142
 40
0.9293508320041496
 40
0.9415213743459712
 40
0.952913703604099
 40
0.9653765179799148
 40
0.9741847017821391
 40
0.9829431050239208
 40
0.9904418279674116
 40
0.9966934644816428
 40
0.9992678743549716
 40
1.0
 40
1.0
 40
1.0
 40
1.0
 10
171.199102698234
 20
-122.2118308285306
 30
0.0
 10
169.6393995388636
 20
-122.8927041078449
 30
0.0
 10
166.81493705442
 20
-124.1256957976609
 30
0.0
 10
162.7496469029089
 20
-125.6671343875515
 30
0.0
 10
159.6145962154883
 20
-126.7641923428838
 30
0.0
 10
157.3769255899522
 20
-127.4984363772858
 30
0.0
 10
155.7643481196623
 20
-128.0065717733687
 30
0.0
 10
154.3548903259631
 20
-128.4361515930807
 30
0.0
 10
152.9141682088463
 20
-128.8608260736177
 30
0.0
 10
151.4007343198961
 20
-129.2914675410471
 30
0.0
 10
149.0589437142312
 20
-129.9334800390945
 30
0.0
 10
145.9141314927768
 20
-130.7396572161153
 30
0.0
 10
142.1877066042677
 20
-131.605930019985
 30
0.0
 10
138.606138462051
 20
-132.3659856329261
 30
0.0
 10
134.9516270290672
 20
-133.0753390644628
 30
0.0
 10
130.7657594686167
 20
-133.8061487483123
 30
0.0
 10
126.3500492583986
 20
-134.4826156521829
 30
0.0
 10
122.0871825363335
 20
-135.0495050984262
 30
0.0
 10
118.4855912546323
 20
-135.4680933076893
 30
0.0
 10
115.6315978955442
 20
-135.7618747467238
 30
0.0
 10
113.4328704670238
 20
-135.9673728085322
 30
0.0
 10
111.4456545878828
 20
-136.1389018204253
 30
0.0
 10
109.1489096152279
 20
-136.3199847249994
 30
0.0
 10
106.2327861386309
 20
-136.5224362441209
 30
0.0
 10
102.6108173070187
 20
-136.7318053508722
 30
0.0
 10
98.290800983224
 20
-136.9223400286654
 30
0.0
 10
93.46628023074095
 20
-137.0604727207082
 30
0.0
 10
85.36116305674771
 20
-137.1622510211299
 30
0.0
 10
74.13767747960121
 20
-136.9728453101328
 30
0.0
 10
59.22256809012137
 20
-136.1267275262828
 30
0.0
 10
43.72365967235624
 20
-134.6248380956818
 30
0.0
 10
27.81395916542823
 20
-132.4364892967214
 30
0.0
 10
12.28375840748275
 20
-129.7151462286252
 30
0.0
 10
-2.738380749908232
 20
-126.5474484142163
 30
0.0
 10
-17.1546634146215
 20
-123.0141093980974
 30
0.0
 10
-31.0882671069177
 20
-119.1348380360001
 30
0.0
 10
-44.92069031023638
 20
-114.8252287061546
 30
0.0
 10
-58.19253977961018
 20
-110.228945698666
 30
0.0
 10
-71.04580782719316
 20
-105.3374389075722
 30
0.0
 10
-83.40920235173544
 20
-100.2157307208003
 30
0.0
 10
-94.12566010426903
 20
-95.38732995451517
 30
0.0
 10
-103.1567318379142
 20
-91.03781204093875
 30
0.0
 10
-110.2177570067539
 20
-87.46272460397606
 30
0.0
 10
-116.6310180237709
 20
-84.05738716536484
 30
0.0
 10
-121.8455180104019
 20
-81.16885535787128
 30
0.0
 10
-125.9713307193503
 20
-78.80536862524875
 30
0.0
 10
-129.1510384774311
 20
-76.9364474275944
 30
0.0
 10
-131.7862592720782
 20
-75.35344572774466
 30
0.0
 10
-133.899328826674
 20
-74.06109485443713
 30
0.0
 10
-135.6642241701508
 20
-72.9662153137307
 30
0.0
 10
-137.484871584862
 20
-71.82274298988858
 30
0.0
 10
-139.7531146459865
 20
-70.37657935966274
 30
0.0
 10
-142.6180033062057
 20
-68.51199053806822
 30
0.0
 10
-145.8092737090946
 20
-66.38144596311163
 30
0.0
 10
-149.931702463569
 20
-63.55270465631173
 30
0.0
 10
-154.656388685467
 20
-60.18413750684624
 30
0.0
 10
-159.7763228179468
 20
-56.35114888425738
 30
0.0
 10
-164.4187877024291
 20
-52.70862602914664
 30
0.0
 10
-168.8467390595119
 20
-49.07263252773977
 30
0.0
 10
-173.2485333082976
 20
-45.27751546953586
 30
0.0
 10
-177.6194059236359
 20
-41.29590737450096
 30
0.0
 10
-181.3674362566742
 20
-37.67401200129138
 30
0.0
 10
-184.4672427026741
 20
-34.51833142582217
 30
0.0
 10
-186.988109832951
 20
-31.83606336832377
 30
0.0
 10
-189.2971919404013
 20
-29.26554259672619
 30
0.0
 10
-191.4789004584029
 20
-26.72432749249541
 30
0.0
 10
-193.3338405645317
 20
-24.45745122909485
 30
0.0
 10
-194.9490995983497
 20
-22.39280782546806
 30
0.0
 10
-196.2345465433971
 20
-20.68419373894907
 30
0.0
 10
-197.3116287749361
 20
-19.19637097911493
 30
0.0
 10
-198.0504138696711
 20
-18.14620423612441
 30
0.0
 10
-198.4377004172502
 20
-17.57886170727382
 30
0.0
 10
-198.4406322673312
 20
-17.58407532812022
 30
0.0
 10
-198.4412814309708
 20
-17.58522971630202
 30
0.0
  0
SPLINE
  5
105
330
100
100
AcDbEntity
  8
0
  6
Continuous
 62
     7
370
    25
100
AcDbSpline
210
0.0
220
0.0
230
1.0
 70
     8
 71
     3
 72
    15
 73
    11
 74
     0
 42
0.000000001
 43
0.00000001
 40
0.0
 40
0.0
 40
0.0
 40
0.0
 40
0.0712007651798398
 40
0.196816344016565
 40
0.2629295171577407
 40
0.3465480932551584
 40
0.4621216168526699
 40
0.6095669346001685
 40
0.7888366195510793
 40
1.0
 40
1.0
 40
1.0
 40
1.0
 10
185.0508496737165
 20
-114.6223169613507
 30
0.0
 10
184.9856923506502
 20
-114.6580808104771
 30
0.0
 10
184.8055815599948
 20
-114.7569408440067
 30
0.0
 10
184.2292382704201
 20
-115.1169194222449
 30
0.0
 10
183.1458070327527
 20
-115.8201234002529
 30
0.0
 10
181.8730714842882
 20
-116.6173971128583
 30
0.0
 10
180.1545984644866
 20
-117.6460421538434
 30
0.0
 10
177.8118985270036
 20
-118.9624651735719
 30
0.0
 10
174.8136142761224
 20
-120.5322401541666
 30
0.0
 10
172.4678144546372
 20
-121.6222860481109
 30
0.0
 10
171.199102698234
 20
-122.2118308285306
 30
0.0
  0
SPLINE
  5
106
330
100
100
AcDbEntity
  8
0
  6
Continuous
 62
     7
370
    25
100
AcDbSpline
210
0.0
220
0.0
230
1.0
 70
     8
 71
     3
 72
    48
 73
    44
 74
     0
 42
0.000000001
 43
0.00000001
 40
0.0
 40
0.0
 40
0.0
 40
0.0
 40
0.0365214752606303
 40
0.0672545011012115
 40
0.0922136969457952
 40
0.1117719566876764
 40
0.1279673258201574
 40
0.1409885210442052
 40
0.1516754681358872
 40
0.1647045449412186
 40
0.1812953088990704
 40
0.2133776479607502
 40
0.2350206707620207
 40
0.2558697324180767
 40
0.2815757196296764
 40
0.3148783877043663
 40
0.3544415212278059
 40
0.3866595716049144
 40
0.4137368000232884
 40
0.4433105927852281
 40
0.4751674765271678
 40
0.5073622977703592
 40
0.5527753312596793
 40
0.592698863095186
 40
0.6318214101045847
 40
0.6510409212954206
 40
0.6736894113467161
 40
0.6990581061021404
 40
0.7236754849361751
 40
0.744817532050064
 40
0.7606633961152074
 40
0.7761533844830051
 40
0.7931081393011086
 40
0.8133185341186443
 40
0.8352399744238288
 40
0.8574972557370976
 40
0.8756121139706186
 40
0.8892307624647289
 40
0.9029951049437432
 40
0.9192222541926394
 40
0.9407760757291928
 40
0.9677001943197314
 40
1.0
 40
1.0
 40
1.0
 40
1.0
 10
76.21705994900425
 20
-173.641966179539
 30
0.0
 10
78.30734048673432
 20
-173.4051217523223
 30
0.0
 10
82.15660379615356
 20
-172.9689714139968
 30
0.0
 10
87.5229004271291
 20
-172.2176805154519
 30
0.0
 10
91.94985723758421
 20
-171.5262186529647
 30
0.0
 10
95.57450822227246
 20
-170.9059284962854
 30
0.0
 10
98.46580151521725
 20
-170.3759273850393
 30
0.0
 10
100.8163521827796
 20
-169.9217020226421
 30
0.0
 10
102.919255424539
 20
-169.4989082780915
 30
0.0
 10
105.242095162443
 20
-169.013573633343
 30
0.0
 10
108.8157473150047
 20
-168.2310479401209
 30
0.0
 10
112.908226547336
 20
-167.2657565921876
 30
0.0
 10
117.1747449018048
 20
-166.1786336791542
 30
0.0
 10
121.0436294602808
 20
-165.1348312918895
 30
0.0
 10
125.6002683054217
 20
-163.8287099009648
 30
0.0
 10
131.1770150223717
 20
-162.1079867387349
 30
0.0
 10
137.0909909500544
 20
-160.1191752560383
 30
0.0
 10
142.613188148491
 20
-158.1046547771721
 30
0.0
 10
147.5190195425218
 20
-156.1959499841921
 30
0.0
 10
152.3680748964823
 20
-154.1936454781637
 30
0.0
 10
157.4389589513379
 20
-151.9638887157109
 30
0.0
 10
163.2969555262105
 20
-149.2184000893498
 30
0.0
 10
169.4892093636093
 20
-146.0892868153786
 30
0.0
 10
175.9172687887369
 20
-142.5669515504296
 30
0.0
 10
180.8909773523959
 20
-139.6336068858284
 30
0.0
 10
184.9311858319004
 20
-137.120213240036
 30
0.0
 10
188.2452839283856
 20
-134.9792114750972
 30
0.0
 10
191.781867618889
 20
-132.5942385323333
 30
0.0
 10
195.1924866740564
 20
-130.1898148261014
 30
0.0
 10
198.1077196155995
 20
-128.0498347534826
 30
0.0
 10
200.5587199854906
 20
-126.1910454020179
 30
0.0
 10
202.7908133564294
 20
-124.4510328147907
 30
0.0
 10
205.1952353797371
 20
-122.5225544791535
 30
0.0
 10
207.8579912508178
 20
-120.3161209572056
 30
0.0
 10
210.7129945199137
 20
-117.8611722389316
 30
0.0
 10
213.4262071044873
 20
-115.4357034870337
 30
0.0
 10
215.7413047192397
 20
-113.2908850334199
 30
0.0
 10
217.6624523985635
 20
-111.4602097307442
 30
0.0
 10
219.4820434138425
 20
-109.6834109528628
 30
0.0
 10
221.5998979538136
 20
-107.5595749226637
 30
0.0
 10
224.2095746253082
 20
-104.8495823604049
 30
0.0
 10
227.3969189565895
 20
-101.4042833101235
 30
0.0
 10
229.6432588200159
 20
-98.79770012277251
 30
0.0
 10
230.8683775870321
 20
-97.37611025892097
 30
0.0
  0
SPLINE
  5
107
330
100
100
AcDbEntity
  8
0
  6
Continuous
 62
     7
370
    25
100
AcDbSpline
210
0.0
220
0.0
230
1.0
 70
     8
 71
     3
 72
    48
 73
    44
 74
     0
 42
0.000000001
 43
0.00000001
 40
0.0
 40
0.0
 40
0.0
 40
0.0
 40
0.0217429688935752
 40
0.0388994546009786
 40
0.0514986143234162
 40
0.0612354281581339
 40
0.0729665069479173
 40
0.0869880529520056
 40
0.1023363729047962
 40
0.1207504916278101
 40
0.1358691610405879
 40
0.1495683205990236
 40
0.1624898777603045
 40
0.1821184679620552
 40
0.2048018609059412
 40
0.2321771243727601
 40
0.2590163178039899
 40
0.2817607065227268
 40
0.3065896583126898
 40
0.3305331152743601
 40
0.3576492224175041
 40
0.3891887114852365
 40
0.4228141996534378
 40
0.4557508167641445
 40
0.4868237826723092
 40
0.5300751628524917
 40
0.5729540140814725
 40
0.6174702541649396
 40
0.66392948172848
 40
0.7127252629116443
 40
0.7547828226038201
 40
0.7950846052940406
 40
0.8312854789821746
 40
0.8486625549716794
 40
0.8659329086791173
 40
0.8796289266125369
 40
0.88573524417601
 40
0.8944781020388574
 40
0.9058289312735867
 40
0.919749510835332
 40
0.9422225936087837
 40
0.9690328756873157
 40
1.0
 40
1.0
 40
1.0
 40
1.0
 10
-239.6761606784714
 20
20.05272658543963
 30
0.0
 10
-239.0919280283278
 20
18.69600595931421
 30
0.0
 10
-238.0467013363379
 20
16.26875268675066
 30
0.0
 10
-236.617491336196
 20
13.07440838990891
 30
0.0
 10
-235.503166728826
 20
10.63352207601659
 30
0.0
 10
-234.5299305492906
 20
8.537437559667412
 30
0.0
 10
-233.5037450958634
 20
6.361443825593789
 30
0.0
 10
-232.297262301543
 20
3.85042140503699
 30
0.0
 10
-230.8703264396848
 20
0.9423783875460029
 30
0.0
 10
-229.3823216721511
 20
-2.018378607067654
 30
0.0
 10
-227.9186068654261
 20
-4.863098591939501
 30
0.0
 10
-226.6054272112181
 20
-7.364696125598737
 30
0.0
 10
-225.1302986232875
 20
-10.12375467939952
 30
0.0
 10
-223.3400326972586
 20
-13.39867153484819
 30
0.0
 10
-221.0326182372218
 20
-17.50061093360723
 30
0.0
 10
-218.4236348641759
 20
-21.9860329200197
 30
0.0
 10
-215.741154434358
 20
-26.43542504716438
 30
0.0
 10
-213.0874404938618
 20
-30.69652164943023
 30
0.0
 10
-210.4813276108189
 20
-34.7540554218185
 30
0.0
 10
-207.6562351930235
 20
-39.01654126327698
 30
0.0
 10
-204.5136103166287
 20
-43.60581159196688
 30
0.0
 10
-200.9140971312168
 20
-48.66982242441816
 30
0.0
 10
-196.9830996054989
 20
-53.97645887334726
 30
0.0
 10
-192.9658027449461
 20
-59.17614003656514
 30
0.0
 10
-188.441943889234
 20
-64.79964535767124
 30
0.0
 10
-183.3598829373545
 20
-70.82807245466077
 30
0.0
 10
-177.519227848458
 20
-77.38983634996383
 30
0.0
 10
-171.3550699547325
 20
-83.94215799674411
 30
0.0
 10
-164.7263760821873
 20
-90.5911589173026
 30
0.0
 10
-158.0219379609737
 20
-96.91598673129265
 30
0.0
 10
-151.4461049210866
 20
-102.7625474569257
 30
0.0
 10
-145.367140077186
 20
-107.8813242622168
 30
0.0
 10
-140.4533584393931
 20
-111.8124999098556
 30
0.0
 10
-136.6953212876213
 20
-114.7115599618005
 30
0.0
 10
-134.1097482285123
 20
-116.659324414365
 30
0.0
 10
-132.1076502676707
 20
-118.1354515420605
 30
0.0
 10
-130.5688399453775
 20
-119.2544343314201
 30
0.0
 10
-129.1545159186692
 20
-120.2722995956983
 30
0.0
 10
-127.3085704759009
 20
-121.5821397420345
 30
0.0
 10
-124.6985415910436
 20
-123.4016016813556
 30
0.0
 10
-121.2030540825989
 20
-125.7737653653506
 30
0.0
 10
-116.7012558862553
 20
-128.730111092059
 30
0.0
 10
-113.3837634949267
 20
-130.7890008462783
 30
0.0
 10
-111.6056774625936
 20
-131.8925099677039
 30
0.0
  0
SPLINE
  5
108
330
100
100
AcDbEntity
  8
0
  6
Continuous
 62
     7
370
    25
100
AcDbSpline
210
0.0
220
0.0
230
1.0
 70
    11
 71
     3
 72
    35
 73
    31
 74
     0
 42
0.000000001
 43
0.00000001
 40
0.0
 40
0.0
 40
0.0
 40
0.0
 40
0.0062500000000001
 40
0.0083333333333333
 40
0.0416666666666666
 40
0.0833333333333334
 40
0.1250000000000001
 40
0.1666666666666666
 40
0.2083333333333334
 40
0.25
 40
0.2916666666666666
 40
0.3333333333333334
 40
0.375
 40
0.4166666666666666
 40
0.4583333333333334
 40
0.5000000000020915
 40
0.5416666666666667
 40
0.5833333333333333
 40
0.625
 40
0.6666666666666667
 40
0.7083333333333333
 40
0.7500000000009739
 40
0.7916666666666666
 40
0.8333333333333334
 40
0.875
 40
0.9166666666666666
 40
0.9583333333333334
 40
0.9916666666666667
 40
0.99375
 40
1.0
 40
1.0
 40
1.0
 40
1.0
 10
-23.33452377915602
 20
-84.51416358121526
 30
0.0
 10
-23.02420512370817
 20
-84.3350204345943
 30
0.0
 10
-22.60165605361349
 20
-84.10123776285728
 30
0.0
 10
-20.43393413010219
 20
-82.96682922062551
 30
0.0
 10
-16.00090673983254
 20
-81.14122987914475
 30
0.0
 10
-8.42429702353653
 20
-79.34370581917823
 30
0.0
 10
0.0000000000000798
 20
-78.70173294061878
 30
0.0
 10
8.42429702353668
 20
-79.34370581917827
 30
0.0
 10
16.54209314813952
 20
-81.26962445485671
 30
0.0
 10
23.62755254018597
 20
-84.34500167818514
 30
0.0
 10
28.95483936605334
 20
-88.43535031969466
 30
0.0
 10
32.29098977313673
 20
-93.12165427164354
 30
0.0
 10
33.40303990883118
 20
-97.98489742629003
 30
0.0
 10
32.29098977313669
 20
-102.8481405809365
 30
0.0
 10
28.95483936605327
 20
-107.5344445328854
 30
0.0
 10
23.62755254018586
 20
-111.6247931743949
 30
0.0
 10
16.54209314813939
 20
-114.7001703977233
 30
0.0
 10
8.424297023536534
 20
-116.6260890334017
 30
0.0
 10
-0.0000000000000729
 20
-117.2680619119612
 30
0.0
 10
-8.424297023536674
 20
-116.6260890334017
 30
0.0
 10
-16.54209314813952
 20
-114.7001703977233
 30
0.0
 10
-23.62755254018596
 20
-111.6247931743949
 30
0.0
 10
-28.95483936605334
 20
-107.5344445328853
 30
0.0
 10
-32.29098977313674
 20
-102.8481405809365
 30
0.0
 10
-33.40303990883118
 20
-97.98489742628999
 30
0.0
 10
-32.29098977313669
 20
-93.12165427164346
 30
0.0
 10
-29.17724939319217
 20
-88.74777058315784
 30
0.0
 10
-26.01487592973228
 20
-86.18863834341659
 30
0.0
 10
-24.04980977903677
 20
-84.93723911375507
 30
0.0
 10
-23.64484243460387
 20
-84.69330672783622
 30
0.0
 10
-23.33452377915602
 20
-84.51416358121526
 30
0.0
  0
LWPOLYLINE
  5
109
330
100
100
AcDbEntity
  8
0
  6
Continuous
 62
     7
370
    25
100
AcDbPolyline
 90
       95
 70
   128
 43
0.0
 10
-205.0609665441
 20
118.3791762143
 10
-213.3500224242
 20
113.116874783
 10
-220.7815617734
 20
107.4078431352
 10
-227.3299859885
 20
101.2856070516
 10
-232.9696964666
 20
94.7836923129
 10
-237.6769787354
 20
87.9338120577
 10
-241.4406440249
 20
80.7556289802
 10
-244.2546133282
 20
73.2638898893
 10
-246.2458433927
 20
64.6784027028
 10
-247.0726710209
 20
55.753721945
 10
-246.7282250896
 20
46.5335526212
 10
-245.2061267876
 20
37.0714857078
 10
-242.5
 20
27.4211663241
 10
-238.3390797186
 20
17.0412211131
 10
-232.8924701074
 20
6.5807560795
 10
-226.2135503726
 20
-3.8893307807
 10
-218.3553524136
 20
-14.2987104951
 10
-209.3594341463
 20
-24.5958529499
 10
-199.2535255353
 20
-34.7518836063
 10
-188.7326118149
 20
-44.1735916493
 10
-177.2751389347
 20
-53.4196127021
 10
-164.9360326522
 20
-62.4434242208
 10
-151.7835003948
 20
-71.1888824406
 10
-137.885822331
 20
-79.599790903
 10
-122.413505586
 20
-88.0955610197
 10
-106.2959319226
 20
-96.1047592857
 10
-89.6492405717
 20
-103.5803584915
 10
-72.5886726261
 20
-110.475744618
 10
-55.1997973572
 20
-116.7579542327
 10
-37.5324248346
 20
-122.4104750032
 10
-20.6623758983
 20
-127.1492951117
 10
-3.6322347326
 20
-131.3004627246
 10
13.4734507884
 20
-134.841890035
 10
30.5518419843
 20
-137.747768745
 10
47.5
 20
-139.9922701807
 10
62.7090376739
 20
-141.4407646398
 10
77.6555544012
 20
-142.3240857777
 10
92.2697333964
 20
-142.6449990737
 10
106.4817578744
 20
-142.4062700071
 10
120.2260835144
 20
-141.6107349631
 10
133.4655693417
 20
-140.2617017116
 10
146.174661306
 20
-138.3626703197
 10
157.3369302365
 20
-136.141723243
 10
168.0117421872
 20
-133.4644977765
 10
178.1660485654
 20
-130.3383292796
 10
187.7555095953
 20
-126.7744644286
 10
196.7353930106
 20
-122.784285861
 10
205.0609665447
 20
-118.3791762139
 10
213.3500224247
 20
-113.1168747826
 10
220.7815617738
 20
-107.4078431347
 10
227.3299859889
 20
-101.2856070511
 10
232.9696964668
 20
-94.7836923124
 10
237.6769787355
 20
-87.9338120574
 10
241.440644025
 20
-80.75562898
 10
244.2546133283
 20
-73.2638898891
 10
246.2458433928
 20
-64.6784027027
 10
247.0726710209
 20
-55.7537219449
 10
246.7282250896
 20
-46.5335526212
 10
245.2061267876
 20
-37.0714857078
 10
242.5
 20
-27.4211663241
 10
238.3390797186
 20
-17.0412211131
 10
232.8924701074
 20
-6.5807560795
 10
226.2135503726
 20
3.8893307807
 10
218.3553524137
 20
14.298710495
 10
209.3594341464
 20
24.5958529498
 10
199.2535255355
 20
34.7518836062
 10
188.7326118152
 20
44.1735916491
 10
177.275138935
 20
53.4196127018
 10
164.9360326526
 20
62.4434242206
 10
151.7835003952
 20
71.1888824403
 10
137.8858223314
 20
79.5997909027
 10
122.4135055865
 20
88.0955610195
 10
106.2959319231
 20
96.1047592855
 10
89.6492405721
 20
103.5803584914
 10
72.5886726265
 20
110.4757446178
 10
55.1997973575
 20
116.7579542326
 10
37.5324248348
 20
122.4104750031
 10
20.6623758984
 20
127.1492951116
 10
3.6322347326
 20
131.3004627246
 10
-13.4734507884
 20
134.841890035
 10
-30.5518419843
 20
137.747768745
 10
-47.5
 20
139.9922701807
 10
-62.7090376739
 20
141.4407646398
 10
-77.6555544012
 20
142.3240857777
 10
-92.2697333964
 20
142.6449990737
 10
-106.4817578742
 20
142.4062700071
 10
-120.2260835141
 20
141.6107349632
 10
-133.4655693413
 20
140.2617017116
 10
-146.1746613054
 20
138.3626703198
 10
-157.3369302358
 20
136.1417232431
 10
-168.0117421865
 20
133.4644977767
 10
-178.1660485646
 20
130.3383292798
 10
-187.7555095946
 20
126.7744644289
 10
-196.7353930099
 20
122.7842858613
 10
-205.0609665441
 20
118.3791762143
  0
SPLINE
  5
10A
330
100
100
AcDbEntity
  8
0
  6
Continuous
 62
     7
370
    25
100
AcDbSpline
210
0.0
220
0.0
230
1.0
 70
     8
 71
     3
 72
    22
 73
    18
 74
     0
 42
0.000000001
 43
0.00000001
 40
0.0
 40
0.0
 40
0.0
 40
0.0
 40
0.0252477906242849
 40
0.0794049105377836
 40
0.1348174327071001
 40
0.1914565183711044
 40
0.2492814187870131
 40
0.3244893194593467
 40
0.4012946859417627
 40
0.4793978578499948
 40
0.558544279946182
 40
0.6387524313318297
 40
0.7186348201881175
 40
0.7995954741272104
 40
0.8813109480306694
 40
0.9633944926829215
 40
1.0
 40
1.0
 40
1.0
 40
1.0
 10
76.43944003974532
 20
-173.5540502168452
 30
0.0
 10
74.70692350843676
 20
-173.7544638989158
 30
0.0
 10
69.25811722589958
 20
-174.3847697633844
 30
0.0
 10
59.85084612920927
 20
-174.910102448201
 30
0.0
 10
48.22707511292502
 20
-175.1712607496447
 30
0.0
 10
36.33765224521511
 20
-174.9231275158549
 30
0.0
 10
23.12984663939112
 20
-174.1307881946987
 30
0.0
 10
8.668689493850037
 20
-172.6112672946036
 30
0.0
 10
-6.907243812118407
 20
-170.2246137410736
 30
0.0
 10
-22.38621051226618
 20
-167.1132044497058
 30
0.0
 10
-37.64599910995616
 20
-163.3004982555935
 30
0.0
 10
-52.5038394652909
 20
-158.8332589412997
 30
0.0
 10
-66.89098753837696
 20
-153.7401697079451
 30
0.0
 10
-80.74772951121743
 20
-148.0690311448028
 30
0.0
 10
-93.98845215170154
 20
-141.7952089265197
 30
0.0
 10
-104.3654704631622
 20
-136.3324705034386
 30
0.0
 10
-109.9751581407741
 20
-132.7965091264498
 30
0.0
 10
-111.70527106966
 20
-131.7059649026092
 30
0.0
  0
SPLINE
  5
10B
330
100
100
AcDbEntity
  8
0
  6
Continuous
 62
     7
370
    25
100
AcDbSpline
210
0.0
220
0.0
230
1.0
 70
     8
 71
     3
 72
    17
 73
    13
 74
     0
 42
0.000000001
 43
0.00000001
 40
0.0
 40
0.0
 40
0.0
 40
0.0
 40
0.0400025834830439
 40
0.1470255163200567
 40
0.2588890868961319
 40
0.3733181563885827
 40
0.4898496238118039
 40
0.6080831955029995
 40
0.7280051585081692
 40
0.847493993589385
 40
0.968612383383841
 40
1.0
 40
1.0
 40
1.0
 40
1.0
 10
42.3851654176275
 20
-174.9677682980913
 30
0.0
 10
40.69658152668035
 20
-174.9962878587168
 30
0.0
 10
34.49035940801484
 20
-175.1011086668023
 30
0.0
 10
23.62281123793176
 20
-174.5723590698931
 30
0.0
 10
9.79998932225877
 20
-173.3846640739286
 30
0.0
 10
-4.15295570679762
 20
-171.4635350361825
 30
0.0
 10
-18.03474588899981
 20
-168.896201489681
 30
0.0
 10
-31.73115123580359
 20
-165.6757074758209
 30
0.0
 10
-45.09264830159199
 20
-161.8520338297039
 30
0.0
 10
-57.99724647193384
 20
-157.3938924724921
 30
0.0
 10
-67.45184679957926
 20
-153.7404172893011
 30
0.0
 10
-72.40912554085185
 20
-151.4069818987114
 30
0.0
 10
-73.42939463223149
 20
-150.9267321225733
 30
0.0
  0
SPLINE
  5
10C
330
100
100
AcDbEntity
  8
0
  6
Continuous
 62
     7
370
    25
100
AcDbSpline
210
0.0
220
0.0
230
1.0
 70
     8
 71
     3
 72
    22
 73
    18
 74
     0
 42
0.000000001
 43
0.00000001
 40
0.0
 40
0.0
 40
0.0
 40
0.0
 40
0.0680236770682705
 40
0.1357306794974119
 40
0.2023757326562375
 40
0.2678910686487286
 40
0.3334064046412197
 40
0.4000514578000453
 40
0.4677584602291867
 40
0.5357821372974572
 40
0.6038058143657278
 40
0.6715128167948691
 40
0.7381578699536948
 40
0.8036732059461859
 40
0.8691885419385745
 40
0.9358335950967519
 40
1.0
 40
1.0
 40
1.0
 40
1.0
 10
-16.26345596729056
 20
-96.76161225918634
 30
0.0
 10
-15.11636065293938
 20
-96.17588213046788
 30
0.0
 10
-12.8275101647642
 20
-95.00714865707344
 30
0.0
 10
-8.749790305000966
 20
-93.79810110425176
 30
0.0
 10
-4.444819364652165
 20
-93.02982818448787
 30
0.0
 10
0.000558744377252
 20
-92.77503849407901
 30
0.0
 10
4.442565117666915
 20
-93.03095322295738
 30
0.0
 10
8.757880985003329
 20
-93.79347973860713
 30
0.0
 10
12.79688394781261
 20
-95.0248121429296
 30
0.0
 10
16.37824495995098
 20
-96.69536278548252
 30
0.0
 10
19.27194078407376
 20
-98.76279344008762
 30
0.0
 10
21.40520638600731
 20
-101.0945835845209
 30
0.0
 10
22.72498703347835
 20
-103.5853233022604
 30
0.0
 10
23.17230304029665
 20
-106.1512426282842
 30
0.0
 10
22.71594543539825
 20
-108.7115071381862
 30
0.0
 10
21.46490837905397
 20
-111.1751664373212
 30
0.0
 10
19.98766771243135
 20
-112.6450610280668
 30
0.0
 10
19.26304294210321
 20
-113.3660823580988
 30
0.0
  0
SPLINE
  5
10D
330
100
100
AcDbEntity
  8
0
  6
Continuous
 62
     7
370
    25
100
AcDbSpline
210
0.0
220
0.0
230
1.0
 70
     8
 71
     3
 72
    14
 73
    10
 74
     0
 42
0.000000001
 43
0.00000001
 40
0.0
 40
0.0
 40
0.0
 40
0.0
 40
0.1382247648292393
 40
0.2817889369858898
 40
0.4229195165185656
 40
0.5640500960511386
 40
0.707614268207139
 40
0.8534660500301499
 40
1.0
 40
1.0
 40
1.0
 40
1.0
 10
-19.26304294211939
 20
-113.3660823580757
 30
0.0
 10
-19.98765566022323
 20
-112.6450679838909
 30
0.0
 10
-21.46487175686978
 20
-111.1751875735022
 30
0.0
 10
-22.71609746426975
 20
-108.7114193960506
 30
0.0
 10
-23.17174441023871
 20
-106.1515650367903
 30
0.0
 10
-22.72708879037075
 20
-103.5841102914587
 30
0.0
 10
-21.39715738569203
 20
-101.099228995395
 30
0.0
 10
-19.30255645534075
 20
-98.74512387037078
 30
0.0
 10
-17.27806391806832
 20
-97.42381038625743
 30
0.0
 10
-16.26345596729056
 20
-96.76161225918634
 30
0.0
  0
SPLINE
  5
10E
330
100
100
AcDbEntity
  8
0
  6
Continuous
 62
     7
370
    25
100
AcDbSpline
210
0.0
220
0.0
230
1.0
 70
     8
 71
     3
 72
    17
 73
    13
 74
     0
 42
0.000000001
 43
0.00000001
 40
0.0
 40
0.0
 40
0.0
 40
0.0
 40
0.1064324833930154
 40
0.212369485363639
 40
0.3166449203189473
 40
0.4191527559804974
 40
0.5216605916420476
 40
0.6259360265973559
 40
0.7318730285679795
 40
0.8383055119609949
 40
0.9447379953540104
 40
1.0
 40
1.0
 40
1.0
 40
1.0
 10
-16.26345596729056
 20
-109.0097244374725
 30
0.0
 10
-15.11635989997567
 20
-108.4239940807291
 30
0.0
 10
-12.82750790937839
 20
-107.2552601523461
 30
0.0
 10
-8.749799218957559
 20
-106.0462159820106
 30
0.0
 10
-4.44478675188165
 20
-105.2779304864326
 30
0.0
 10
0.0004392223148138
 20
-105.023186868024
 30
0.0
 10
4.443014715116182
 20
-105.2789292466669
 30
0.0
 10
8.756159206357271
 20
-106.0421133345378
 30
0.0
 10
12.80343300419666
 20
-107.2709410270443
 30
0.0
 10
16.35369023026128
 20
-108.9509110353829
 30
0.0
 10
18.88497806647582
 20
-110.6601702468584
 30
0.0
 10
19.91196795475125
 20
-111.8632033838603
 30
0.0
 10
20.26296025303894
 20
-112.2743616342903
 30
0.0
  0
SPLINE
  5
10F
330
100
100
AcDbEntity
  8
0
  6
Continuous
 62
     7
370
    25
100
AcDbSpline
210
0.0
220
0.0
230
1.0
 70
     8
 71
     3
 72
     9
 73
     5
 74
     0
 42
0.000000001
 43
0.00000001
 40
0.0
 40
0.0
 40
0.0
 40
0.0
 40
0.3417680176746314
 40
1.0
 40
1.0
 40
1.0
 40
1.0
 10
-20.26296025303937
 20
-112.2743616342907
 30
0.0
 10
-19.91463668134775
 20
-111.8614639460328
 30
0.0
 10
-18.89545538386536
 20
-110.6533412812288
 30
0.0
 10
-17.30822305170162
 20
-109.6621549687737
 30
0.0
 10
-16.26345596729056
 20
-109.0097244374725
 30
0.0
  0
VIEWPORT
  5
13E
330
100
100
AcDbEntity
  8
0
100
AcDbViewport
 10
0.0
 20
0.0
 30
0.0
 40
205.6
 41
156.0
 68
     1
 69
     1
 12
0.0
 22
-16.2157043767
 13
0.0
 23
0.0
 14
10.0
 24
10.0
 15
10.0
 25
10.0
 16
0.0
 26
0.0
 36
1.0
 17
0.0
 27
0.0
 37
0.0
 42
50.0
 43
0.0
 44
0.0
 45
382.433885339
 50
0.0
 51
0.0
 72
   100
 90
   557152
  1

281
     0
 71
     1
 74
     0
110
0.0
120
0.0
130
0.0
111
1.0
121
0.0
131
0.0
112
0.0
122
1.0
132
0.0
 79
     0
146
0.0
170
     0
 61
     5
348
2F
292
     1
282
     1
141
0.0
142
0.0
 63
   256
361
13F
  0
ENDBLK
  5
103
330
100
100
AcDbEntity
  8
0
100
AcDbBlockEnd
  0
BLOCK
  5
112
330
110
100
AcDbEntity
  8
0
100
AcDbBlockBegin
  2
*Paper_Space7
 70
     0
 10
0.0
 20
0.0
 30
0.0
  3
*Paper_Space7
  1

  0
SPLINE
  5
114
330
110
100
AcDbEntity
  8
0
  6
Continuous
 62
     7
370
    25
100
AcDbSpline
210
0.0
220
0.0
230
1.0
 70
     8
 71
     3
 72
    85
 73
    81
 74
     0
 42
0.000000001
 43
0.00000001
 40
0.0
 40
0.0
 40
0.0
 40
0.0
 40
0.0090178311841484
 40
0.0163405190626115
 40
0.0219634964488448
 40
0.0260106937525567
 40
0.030154777175612
 40
0.0349124102703938
 40
0.0402901765096986
 40
0.0551326825597299
 40
0.06858415439109
 40
0.0798634712304597
 40
0.090365908379209
 40
0.1008129132700917
 40
0.112868400193337
 40
0.1259964974156439
 40
0.1443596850755928
 40
0.1602417438856627
 40
0.1729924703216366
 40
0.1848168813021901
 40
0.1963714604590154
 40
0.2093892557560627
 40
0.2240396551548748
 40
0.2403827067574459
 40
0.258477106062873
 40
0.2781321520063156
 40
0.2981386461372694
 40
0.3182987446917533
 40
0.3385796654271447
 40
0.358949563686047
 40
0.3947655729712463
 40
0.4307720431096636
 40
0.4668373839902166
 40
0.5019243055600839
 40
0.5272112941444421
 40
0.5516322675482074
 40
0.5751239022254181
 40
0.5976348482048306
 40
0.6191247715365181
 40
0.6399408850050927
 40
0.6595462699380319
 40
0.6806244363611271
 40
0.7031115923899787
 40
0.7141794192456609
 40
0.7255329066934839
 40
0.7371590739473064
 40
0.7477501661420359
 40
0.756226480277755
 40
0.7615616093142098
 40
0.7655588421858991
 40
0.7700583437108519
 40
0.7762680914566445
 40
0.7841677058125348
 40
0.7935459521781328
 40
0.8035430812354047
 40
0.8130369809099819
 40
0.822033878501035
 40
0.834039164585873
 40
0.8450677378501188
 40
0.8551634518825908
 40
0.8643524026976375
 40
0.8737457594060234
 40
0.8815540954599186
 40
0.8901366119741115
 40
0.8979666526274755
 40
0.9046804606634689
 40
0.9110614484285116
 40
0.9187367639876106
 40
0.9277143749088351
 40
0.9363726239684299
 40
0.9444869486135353
 40
0.95148230005212
 40
0.9601245677826674
 40
0.9703848963632564
 40
0.9797632718393177
 40
0.9876520999749119
 40
0.9948966749100122
 40
0.9980169099879783
 40
0.9994728731558943
 40
1.0
 40
1.0
 40
1.0
 40
1.0
 10
210.9851941925677
 20
-86.35289889220695
 30
0.0
 10
210.2112440842637
 20
-86.78728274532838
 30
0.0
 10
208.8088285544097
 20
-87.57439635252238
 30
0.0
 10
206.7533313064386
 20
-88.6296971182878
 30
0.0
 10
205.0831887688505
 20
-89.44621709361694
 30
0.0
 10
203.6410329489791
 20
-90.12279506175929
 30
0.0
 10
202.2271088916834
 20
-90.7636125465973
 30
0.0
 10
200.6158172853599
 20
-91.46675338006749
 30
0.0
 10
197.7006003767603
 20
-92.68550887319236
 30
0.0
 10
193.5430990442706
 20
-94.28262117080143
 30
0.0
 10
188.2857552207005
 20
-96.07654423956141
 30
0.0
 10
183.3582818099336
 20
-97.59197726666203
 30
0.0
 10
178.6727297481727
 20
-98.90661878573093
 30
0.0
 10
173.702403105551
 20
-100.1818639795526
 30
0.0
 10
168.1744834653831
 20
-101.4678821317565
 30
0.0
 10
161.2359363165418
 20
-102.9111618785649
 30
0.0
 10
153.4599723832592
 20
-104.3095761497878
 30
0.0
 10
145.5668253454322
 20
-105.5110710104053
 30
0.0
 10
138.6594261302184
 20
-106.4157875177837
 30
0.0
 10
132.4215829209807
 20
-107.1256397610066
 30
0.0
 10
126.0783559564426
 20
-107.7488690523759
 30
0.0
 10
119.192412325214
 20
-108.3177199371428
 30
0.0
 10
111.416204932973
 20
-108.8292144102268
 30
0.0
 10
102.6972915007693
 20
-109.2449679530868
 30
0.0
 10
93.05211086513543
 20
-109.5224281198974
 30
0.0
 10
82.72957858583463
 20
-109.6185280090665
 30
0.0
 10
72.03033976353662
 20
-109.5116012872394
 30
0.0
 10
61.22834039825685
 20
-109.2023729912546
 30
0.0
 10
50.38554805025367
 20
-108.6962078614927
 30
0.0
 10
36.79938640392763
 20
-107.8222856823495
 30
0.0
 10
20.52212429983008
 20
-106.3867183894882
 30
0.0
 10
1.692525544863849
 20
-104.1718864736219
 30
0.0
 10
-16.74115996484983
 20
-101.4726155144507
 30
0.0
 10
-33.06249553721921
 20
-98.62556819063195
 30
0.0
 10
-47.18774036211101
 20
-95.82853995557363
 30
0.0
 10
-59.2087717357123
 20
-93.21175832817742
 30
0.0
 10
-70.60034369998658
 20
-90.51143691516262
 30
0.0
 10
-81.3450646493582
 20
-87.75862830639784
 30
0.0
 10
-91.4914723791495
 20
-84.96529711547751
 30
0.0
 10
-101.0139343220929
 20
-82.16395110610758
 30
0.0
 10
-110.3013135590024
 20
-79.26001702673554
 30
0.0
 10
-119.6600996034591
 20
-76.15338326756493
 30
0.0
 10
-127.5798586515959
 20
-73.35349031680863
 30
0.0
 10
-133.9734719849029
 20
-70.98112359830384
 30
0.0
 10
-138.7603292402752
 20
-69.14660471586157
 30
0.0
 10
-143.4171865025572
 20
-67.30149566336632
 30
0.0
 10
-147.6169582299397
 20
-65.58258146360654
 30
0.0
 10
-150.9132211269122
 20
-64.1950322030599
 30
0.0
 10
-153.2936484914437
 20
-63.17226442975292
 30
0.0
 10
-155.1264706266886
 20
-62.37375281778916
 30
0.0
 10
-157.053665478139
 20
-61.52342492909569
 30
0.0
 10
-159.4697946791851
 20
-60.44019744795638
 30
0.0
 10
-162.4844440179759
 20
-59.05967241696456
 30
0.0
 10
-165.9377002744148
 20
-57.43625490566788
 30
0.0
 10
-169.5341479883307
 20
-55.69429031289976
 30
0.0
 10
-173.0198728896059
 20
-53.95366584268084
 30
0.0
 10
-176.6846734653487
 20
-52.06900779560196
 30
0.0
 10
-180.4506050328346
 20
-50.06537099415018
 30
0.0
 10
-184.24375531205
 20
-47.96875935046427
 30
0.0
 10
-187.6240352546975
 20
-46.03219007700523
 30
0.0
 10
-190.7394238762812
 20
-44.18650153403079
 30
0.0
 10
-193.520264936691
 20
-42.48371949943269
 30
0.0
 10
-196.1599601151284
 20
-40.81621154263877
 30
0.0
 10
-198.5762775787476
 20
-39.24259494162216
 30
0.0
 10
-200.8212528808939
 20
-37.73384681200963
 30
0.0
 10
-202.7981586436055
 20
-36.36648762278281
 30
0.0
 10
-204.7000064407296
 20
-35.01560178956957
 30
0.0
 10
-206.7367681829026
 20
-33.52602686380535
 30
0.0
 10
-208.8954676639101
 20
-31.88957324114043
 30
0.0
 10
-210.9985881976997
 20
-30.23022452682909
 30
0.0
 10
-212.8436681306147
 20
-28.7147873563468
 30
0.0
 10
-214.5622819686269
 20
-27.24918667917614
 30
0.0
 10
-216.3099017396853
 20
-25.69813872317193
 30
0.0
 10
-218.0915494263596
 20
-24.03254396882738
 30
0.0
 10
-219.6747005740551
 20
-22.46289005203689
 30
0.0
 10
-220.9726993866621
 20
-21.10084010503043
 30
0.0
 10
-221.7702814463281
 20
-20.21850944960212
 30
0.0
 10
-222.2186741861938
 20
-19.70861849393974
 30
0.0
 10
-222.37450447301
 20
-19.52794664585874
 30
0.0
 10
-222.3643142084523
 20
-19.54358998703919
 30
0.0
 10
-222.3616055255563
 20
-19.547748156874
 30
0.0
  0
SPLINE
  5
115
330
110
100
AcDbEntity
  8
0
  6
Continuous
 62
     7
370
    25
100
AcDbSpline
210
0.0
220
0.0
230
1.0
 70
     8
 71
     3
 72
    13
 73
     9
 74
     0
 42
0.000000001
 43
0.00000001
 40
0.0
 40
0.0
 40
0.0
 40
0.0
 40
0.0612456920476901
 40
0.1761310870046661
 40
0.3076094651852932
 40
0.4848455203256739
 40
0.7155038533642816
 40
1.0
 40
1.0
 40
1.0
 40
1.0
 10
217.2856145855146
 20
-82.27924545653259
 30
0.0
 10
217.2854594878137
 20
-82.27243875326536
 30
0.0
 10
217.2850134560076
 20
-82.25286395534421
 30
0.0
 10
216.9167838780817
 20
-82.52806268459216
 30
0.0
 10
216.1416405694186
 20
-83.08769824334775
 30
0.0
 10
214.9421293130242
 20
-83.91675435356429
 30
0.0
 10
213.2358712718533
 20
-85.02926269970673
 30
0.0
 10
211.7859300831062
 20
-85.88198148912612
 30
0.0
 10
210.9851941925677
 20
-86.35289889220694
 30
0.0
  0
SPLINE
  5
116
330
110
100
AcDbEntity
  8
0
  6
Continuous
 62
     7
370
    25
100
AcDbSpline
210
0.0
220
0.0
230
1.0
 70
     8
 71
     3
 72
    44
 73
    40
 74
     0
 42
0.000000001
 43
0.00000001
 40
0.0
 40
0.0
 40
0.0
 40
0.0
 40
0.0337919807428949
 40
0.059789692009952
 40
0.0779533560930924
 40
0.0909856058769419
 40
0.1040555965849565
 40
0.1557475253432394
 40
0.2045423678220875
 40
0.2519097382056961
 40
0.2977175231058622
 40
0.3486127106884597
 40
0.4076921354595325
 40
0.4569821290736701
 40
0.4992855644523031
 40
0.5274083922617372
 40
0.557598067143989
 40
0.582683532379488
 40
0.6039698801441669
 40
0.6249304125458639
 40
0.6529531041434646
 40
0.675169026876413
 40
0.6947627347531052
 40
0.7117168923553858
 40
0.72612218167799
 40
0.7429455629819232
 40
0.7649581340145287
 40
0.7877532020611949
 40
0.805296499598902
 40
0.8200996967400808
 40
0.8402267566602057
 40
0.8638518896207548
 40
0.8835061265104057
 40
0.8963759248658193
 40
0.9099307963620187
 40
0.9245630043248826
 40
0.9429223443650131
 40
0.9680780899581921
 40
0.9999999999999999
 40
0.9999999999999999
 40
0.9999999999999999
 40
0.9999999999999999
 10
131.6430529524403
 20
-148.7103598535918
 30
0.0
 10
133.3387932852221
 20
-148.1707953131223
 30
0.0
 10
136.339143960055
 20
-147.2161191744367
 30
0.0
 10
140.2369180892405
 20
-145.8917556452314
 30
0.0
 10
143.0881590439107
 20
-144.8905754814585
 30
0.0
 10
145.2842698526291
 20
-144.0992524109346
 30
0.0
 10
149.1347208967415
 20
-142.6830158661315
 30
0.0
 10
154.71845327547
 20
-140.5233724707903
 30
0.0
 10
161.9079832420825
 20
-137.5245808988847
 30
0.0
 10
168.7309591454714
 20
-134.473389381214
 30
0.0
 10
175.5704733679731
 20
-131.2080187471574
 30
0.0
 10
182.8620097152126
 20
-127.4893929085271
 30
0.0
 10
190.1881152453234
 20
-123.4698167314837
 30
0.0
 10
196.9843695097393
 20
-119.4693340576622
 30
0.0
 10
202.3101382531783
 20
-116.1451215906153
 30
0.0
 10
206.7038221628837
 20
-113.2777340873556
 30
0.0
 10
210.3105055316001
 20
-110.8363999879421
 30
0.0
 10
213.5784780307919
 20
-108.5465155598835
 30
0.0
 10
216.4229557773755
 20
-106.4950515258708
 30
0.0
 10
219.3572295234382
 20
-104.3226421744028
 30
0.0
 10
222.2940741112596
 20
-102.0815706055223
 30
0.0
 10
225.1415680599001
 20
-99.840183877189
 30
0.0
 10
227.5104141966226
 20
-97.92677624795796
 30
0.0
 10
229.5441235058977
 20
-96.24659364616171
 30
0.0
 10
231.4501831491065
 20
-94.64104874955238
 30
0.0
 10
233.5321805944192
 20
-92.85316539733022
 30
0.0
 10
235.915032540417
 20
-90.75732896310457
 30
0.0
 10
238.2968719208945
 20
-88.60348463897752
 30
0.0
 10
240.3812479776736
 20
-86.67072359573804
 30
0.0
 10
242.3437643833354
 20
-84.81381951329692
 30
0.0
 10
244.5045677848412
 20
-82.72419992549385
 30
0.0
 10
246.8131997983078
 20
-80.42961377636665
 30
0.0
 10
248.8284578581771
 20
-78.37124640681834
 30
0.0
 10
250.4611708080953
 20
-76.6690170263823
 30
0.0
 10
251.9020511098399
 20
-75.141404782498
 30
0.0
 10
253.5198619212829
 20
-73.39544948558375
 30
0.0
 10
255.5141879527301
 20
-71.1960627265759
 30
0.0
 10
258.0630250789899
 20
-68.31317053205179
 30
0.0
 10
259.9398173076792
 20
-66.08559591442604
 30
0.0
 10
260.9894538427623
 20
-64.83977676218186
 30
0.0
  0
SPLINE
  5
117
330
110
100
AcDbEntity
  8
0
  6
Continuous
 62
     7
370
    25
100
AcDbSpline
210
0.0
220
0.0
230
1.0
 70
     8
 71
     3
 72
    50
 73
    46
 74
     0
 42
0.000000001
 43
0.00000001
 40
0.0
 40
0.0
 40
0.0
 40
0.0
 40
0.0313608642734305
 40
0.0558959800076882
 40
0.0736262779772149
 40
0.0848064602865152
 40
0.0942797436047456
 40
0.1039561418901935
 40
0.113835178728785
 40
0.1290488942345942
 40
0.1474314543326505
 40
0.1678382944952566
 40
0.1849655740668608
 40
0.2034397299343965
 40
0.2245244867228434
 40
0.2499385108271979
 40
0.2754604286103818
 40
0.2986914089486205
 40
0.3175054769585235
 40
0.3384640447566034
 40
0.3638733669983619
 40
0.3904158661738635
 40
0.4152963709112863
 40
0.4345987302793437
 40
0.4527610250531921
 40
0.4725210719275562
 40
0.4977312272802297
 40
0.5341432156065989
 40
0.5639612303563687
 40
0.5892363607343908
 40
0.6133387053384608
 40
0.6396551496069693
 40
0.6703490100359523
 40
0.7031772139342425
 40
0.7360090280154857
 40
0.7682585969284879
 40
0.8090839822968134
 40
0.8460350531236684
 40
0.8836310580413276
 40
0.8984594274704907
 40
0.9124525802284531
 40
0.9259567865735904
 40
0.9442780205438034
 40
0.9690171391838729
 40
1.0
 40
1.0
 40
1.0
 40
1.0
 10
-264.584700938408
 20
9.951461457693823
 30
0.0
 10
-263.6680696122098
 20
8.352011919147584
 30
0.0
 10
-262.034313417327
 20
5.501235912134583
 30
0.0
 10
-259.8149447305656
 20
1.78452424548127
 30
0.0
 10
-258.1784248170241
 20
-0.8982165495296859
 30
0.0
 10
-256.9895430246643
 20
-2.815320104977245
 30
0.0
 10
-256.0430820487198
 20
-4.324451363551911
 30
0.0
 10
-255.1306287829033
 20
-5.764174301849042
 30
0.0
 10
-254.0297285213664
 20
-7.482860249401618
 30
0.0
 10
-252.6405589166493
 20
-9.622300999190376
 30
0.0
 10
-250.8936565866159
 20
-12.26446335767577
 30
0.0
 10
-249.0587562599487
 20
-14.98274998915296
 30
0.0
 10
-247.1955033465542
 20
-17.68851493637937
 30
0.0
 10
-245.2865460218765
 20
-20.40896356019396
 30
0.0
 10
-243.0705929407731
 20
-23.50197233778095
 30
0.0
 10
-240.5747759671912
 20
-26.90203791393696
 30
0.0
 10
-237.9615924310362
 20
-30.36915748549127
 30
0.0
 10
-235.5429897560956
 20
-33.49839019411037
 30
0.0
 10
-233.2640990174439
 20
-36.3839923257035
 30
0.0
 10
-230.8737528987321
 20
-39.34999862559629
 30
0.0
 10
-228.155351399442
 20
-42.64423050835722
 30
0.0
 10
-225.251371592614
 20
-46.07148948814081
 30
0.0
 10
-222.5392997955196
 20
-49.18992744086993
 30
0.0
 10
-220.1185369367864
 20
-51.91178135843843
 30
0.0
 10
-217.8749096534237
 20
-54.38707633961913
 30
0.0
 10
-215.3737687823833
 20
-57.09398932821114
 30
0.0
 10
-212.1132419078753
 20
-60.54335402713358
 30
0.0
 10
-208.3867345180237
 20
-64.36449291180517
 30
0.0
 10
-204.5970406297
 20
-68.12220216072821
 30
0.0
 10
-201.2744481458087
 20
-71.32620723699301
 30
0.0
 10
-198.0637733774076
 20
-74.34587784040377
 30
0.0
 10
-194.5857425781033
 20
-77.5345465776841
 30
0.0
 10
-190.6843189061178
 20
-81.00937191251545
 30
0.0
 10
-186.4436980612917
 20
-84.66602402916861
 30
0.0
 10
-182.0751444729957
 20
-88.30836239694447
 30
0.0
 10
-177.2884164156137
 20
-92.16765857363343
 30
0.0
 10
-172.2430261103887
 20
-96.08390864905397
 30
0.0
 10
-166.876229950329
 20
-100.0828159089255
 30
0.0
 10
-162.6621169575726
 20
-103.1006336643746
 30
0.0
 10
-159.5012091837679
 20
-105.3010724454339
 30
0.0
 10
-157.4766147113226
 20
-106.6884739718715
 30
0.0
 10
-155.2752732132867
 20
-108.1745629583979
 30
0.0
 10
-152.5470616067509
 20
-109.983320678596
 30
0.0
 10
-148.9480351386316
 20
-112.3180664015855
 30
0.0
 10
-146.1981755309852
 20
-114.0299290136006
 30
0.0
 10
-144.6691825138837
 20
-114.9817688721629
 30
0.0
  0
SPLINE
  5
119
330
110
100
AcDbEntity
  8
0
  6
Continuous
 62
     7
370
    25
100
AcDbSpline
210
0.0
220
0.0
230
1.0
 70
     8
 71
     3
 72
    41
 73
    37
 74
     0
 42
0.000000001
 43
0.00000001
 40
0.0
 40
0.0
 40
0.0
 40
0.0
 40
0.0165394949264399
 40
0.0518722361909608
 40
0.0835792385562369
 40
0.1112018394087319
 40
0.1343615583321161
 40
0.1536908526202369
 40
0.1743912912105978
 40
0.1991781370320446
 40
0.2249339210513398
 40
0.2464269871565248
 40
0.2636550523798222
 40
0.2847290771578005
 40
0.3103229148633395
 40
0.3404236520866384
 40
0.3749849335455257
 40
0.4139349069540273
 40
0.4571726695151157
 40
0.5031877080314899
 40
0.5575223826814236
 40
0.6065139359258677
 40
0.6503840085676956
 40
0.6893188844055256
 40
0.7234581837490709
 40
0.7575136338262405
 40
0.7961625999843501
 40
0.8212907159743169
 40
0.8422217158644114
 40
0.8583071729831111
 40
0.8747322161211888
 40
0.8957802688001005
 40
0.9209350825579703
 40
0.9506185304593752
 40
0.985190567197453
 40
1.0
 40
1.0
 40
1.0
 40
1.0
 10
-88.21944657593373
 20
-142.7532245346448
 30
0.0
 10
-87.32147242914333
 20
-143.0983374473821
 30
0.0
 10
-84.50518769718178
 20
-144.1807029368771
 30
0.0
 10
-79.96047404604613
 20
-145.79114691909
 30
0.0
 10
-74.92078334723396
 20
-147.5068795732854
 30
0.0
 10
-70.50612163588401
 20
-148.9278453359048
 30
0.0
 10
-66.68574842785273
 20
-150.1024665106725
 30
0.0
 10
-63.18116648534831
 20
-151.1360887760773
 30
0.0
 10
-59.59360915662194
 20
-152.1516172382262
 30
0.0
 10
-55.64816261583539
 20
-153.2155731772153
 30
0.0
 10
-51.64209789343294
 20
-154.2369266202903
 30
0.0
 10
-48.03851712972784
 20
-155.1069932890522
 30
0.0
 10
-44.68554769209091
 20
-155.8798167306385
 30
0.0
 10
-41.11524084445659
 20
-156.664487948501
 30
0.0
 10
-36.84212297520581
 20
-157.5488977728853
 30
0.0
 10
-31.81224399408864
 20
-158.5143222155523
 30
0.0
 10
-26.01782962231907
 20
-159.5268330633452
 30
0.0
 10
-19.45197825138915
 20
-160.5476556454575
 30
0.0
 10
-12.19183206179254
 20
-161.5216740603024
 30
0.0
 10
-3.997823603412429
 20
-162.4330060989426
 30
0.0
 10
4.588122876538897
 20
-163.1683601631015
 30
0.0
 10
13.0984724712356
 20
-163.674584909798
 30
0.0
 10
20.74442851263036
 20
-163.9508257012856
 30
0.0
 10
27.53853531017086
 20
-164.0558567345293
 30
0.0
 10
33.75952519974548
 20
-164.0394514525129
 30
0.0
 10
39.9446008646846
 20
-163.9195019008163
 30
0.0
 10
45.60223823957246
 20
-163.7092073070607
 30
0.0
 10
50.50045943690859
 20
-163.450404460626
 30
0.0
 10
54.09401021806866
 20
-163.219502555979
 30
0.0
 10
57.15525896916331
 20
-162.9946155324947
 30
0.0
 10
60.23982588516692
 20
-162.743252316062
 30
0.0
 10
63.88205740236275
 20
-162.4121597116595
 30
0.0
 10
68.31103504836736
 20
-161.9569775386571
 30
0.0
 10
73.48354325583168
 20
-161.3456454060154
 30
0.0
 10
78.00927164664836
 20
-160.7585990109356
 30
0.0
 10
80.8013561005319
 20
-160.3256341872267
 30
0.0
 10
81.63869827530876
 20
-160.195788649574
 30
0.0
  0
SPLINE
  5
11B
330
110
100
AcDbEntity
  8
0
  6
Continuous
 62
     7
370
    25
100
AcDbSpline
210
0.0
220
0.0
230
1.0
 70
     8
 71
     3
 72
    24
 73
    20
 74
     0
 42
0.000000001
 43
0.00000001
 40
0.0
 40
0.0
 40
0.0
 40
0.0
 40
0.0604843475773667
 40
0.1206871188012117
 40
0.1799456407350508
 40
0.2381996564631444
 40
0.2964536721912381
 40
0.3557121941250771
 40
0.4159149653489221
 40
0.4763993129262888
 40
0.5368836605036554
 40
0.5970864317275004
 40
0.6563449536613394
 40
0.714598969389433
 40
0.7728529851174356
 40
0.8321115070506983
 40
0.8923142782739647
 40
0.9527986258512228
 40
0.9999999999999999
 40
0.9999999999999999
 40
0.9999999999999999
 40
0.9999999999999999
 10
-29.18579801535491
 20
-94.92800155968666
 30
0.0
 10
-28.04339618928482
 20
-93.96130172287536
 30
0.0
 10
-25.76391082779875
 20
-92.03240238406507
 30
0.0
 10
-21.06190167694424
 20
-89.66374022983015
 30
0.0
 10
-15.72480333959319
 20
-87.78452237945567
 30
0.0
 10
-9.81828178871906
 20
-86.5026236627599
 30
0.0
 10
-3.541463278628572
 20
-85.84602876046252
 30
0.0
 10
2.933603705987444
 20
-85.83664930178253
 30
0.0
 10
9.374079314704932
 20
-86.46091013741177
 30
0.0
 10
15.50964040843239
 20
-87.72220117634022
 30
0.0
 10
20.99405806562669
 20
-89.61897065611606
 30
0.0
 10
25.62970844069696
 20
-92.00496709472284
 30
0.0
 10
29.26866286172562
 20
-94.76310760161425
 30
0.0
 10
31.76060111742419
 20
-97.80291125247724
 30
0.0
 10
33.03298193247525
 20
-101.035700181724
 30
0.0
 10
33.05821805260405
 20
-104.3729785960078
 30
0.0
 10
31.82004328809594
 20
-107.6803972131192
 30
0.0
 10
29.64148356246763
 20
-110.6426229911446
 30
0.0
 10
27.34605613170216
 20
-112.2737144903954
 30
0.0
 10
26.33991225994007
 20
-112.9886631288314
 30
0.0
  0
SPLINE
  5
11C
330
110
100
AcDbEntity
  8
0
  6
Continuous
 62
     7
370
    25
100
AcDbSpline
210
0.0
220
0.0
230
1.0
 70
     8
 71
     3
 72
     9
 73
     5
 74
     0
 42
0.000000001
 43
0.00000001
 40
0.0
 40
0.0
 40
0.0
 40
0.0
 40
0.1703278645902615
 40
1.0
 40
1.0
 40
1.0
 40
1.0
 10
-31.88905875352276
 20
-98.74965723278126
 30
0.0
 10
-31.81287805436486
 20
-98.52103264175065
 30
0.0
 10
-31.36561888546042
 20
-97.17877081289129
 30
0.0
 10
-30.17424649260416
 20
-95.94862186453852
 30
0.0
 10
-29.18579801535491
 20
-94.92800155968666
 30
0.0
  0
LWPOLYLINE
  5
11D
330
110
100
AcDbEntity
  8
0
  6
Continuous
 62
     7
370
    25
100
AcDbPolyline
 90
       95
 70
   128
 43
0.0
 10
-256.4812552865
 20
69.7061094583
 10
-261.7079611243
 20
63.9597188842
 10
-265.8868378793
 20
57.9630059046
 10
-269.0105828935
 20
51.7484409003
 10
-271.0718935092
 20
45.3484942523
 10
-272.0643396772
 20
38.793804684
 10
-271.987292452
 20
32.1028340583
 10
-270.8424894035
 20
25.2890767825
 10
-268.352030195
 20
17.6682132847
 10
-264.5755708946
 20
9.9353737783
 10
-259.5289090268
 20
2.1288560285
 10
-253.2333707099
 20
-5.7046906729
 10
-245.7103123412
 20
-13.5185712944
 10
-236.4240513679
 20
-21.7330404303
 10
-225.8682678522
 20
-29.8205507393
 10
-214.1302349145
 20
-37.7287920275
 10
-201.2966027185
 20
-45.4058862796
 10
-187.4334407867
 20
-52.8142333772
 10
-172.582015739
 20
-59.9334403092
 10
-157.7098254079
 20
-66.3636044881
 10
-142.0327556253
 20
-72.5015418757
 10
-125.6270851333
 20
-78.3159542524
 10
-108.5867045228
 20
-83.7693631686
 10
-91.0056008408
 20
-88.824256327
 10
-71.8766962063
 20
-93.7119338488
 10
-52.3802840032
 20
-98.0867138344
 10
-32.6513834124
 20
-101.9261802603
 10
-12.8239441374
 20
-105.2081326578
 10
7.003416477
 20
-107.9174918449
 10
26.7746621235
 20
-110.0477609073
 10
45.3166561833
 20
-111.5205227996
 10
63.7109215875
 20
-112.4680375916
 10
81.8653814291
 20
-112.8843406821
 10
99.6685804796
 20
-112.7630788313
 10
117.0089573794
 20
-112.0978966707
 10
132.28052653
 20
-111.0187996577
 10
147.012111881
 20
-109.4979077137
 10
161.1384267483
 20
-107.5481991954
 10
174.5941844479
 20
-105.1826524594
 10
187.3182164096
 20
-102.4136563338
 10
199.2767312831
 20
-99.2496804592
 10
210.4471060425
 20
-95.6975956746
 10
219.9749635259
 20
-92.1064392096
 10
228.8036545742
 20
-88.2005249969
 10
236.9053583764
 20
-83.9911330691
 10
244.2434679957
 20
-79.4945950337
 10
250.7810710825
 20
-74.7274180952
 10
256.4812552869
 20
-69.7061094579
 10
261.7079611246
 20
-63.9597188838
 10
265.8868378795
 20
-57.9630059041
 10
269.0105828937
 20
-51.7484408999
 10
271.0718935092
 20
-45.3484942519
 10
272.0643396772
 20
-38.7938046837
 10
271.987292452
 20
-32.102834058
 10
270.8424894035
 20
-25.2890767823
 10
268.352030195
 20
-17.6682132846
 10
264.5755708946
 20
-9.9353737783
 10
259.5289090268
 20
-2.1288560285
 10
253.2333707099
 20
5.7046906729
 10
245.7103123412
 20
13.5185712944
 10
236.4240513679
 20
21.7330404303
 10
225.8682678522
 20
29.8205507393
 10
214.1302349145
 20
37.7287920275
 10
201.2966027186
 20
45.4058862796
 10
187.4334407869
 20
52.8142333772
 10
172.5820157393
 20
59.9334403091
 10
157.7098254083
 20
66.3636044879
 10
142.0327556257
 20
72.5015418755
 10
125.6270851338
 20
78.3159542522
 10
108.5867045233
 20
83.7693631684
 10
91.0056008414
 20
88.8242563268
 10
71.8766962068
 20
93.7119338487
 10
52.3802840038
 20
98.0867138343
 10
32.6513834129
 20
101.9261802602
 10
12.8239441378
 20
105.2081326578
 10
-7.0034164767
 20
107.9174918448
 10
-26.7746621233
 20
110.0477609073
 10
-45.3166561832
 20
111.5205227996
 10
-63.7109215875
 20
112.4680375916
 10
-81.8653814291
 20
112.8843406821
 10
-99.6685804796
 20
112.7630788313
 10
-117.0089573794
 20
112.0978966707
 10
-132.28052653
 20
111.0187996577
 10
-147.012111881
 20
109.4979077137
 10
-161.1384267482
 20
107.5481991954
 10
-174.5941844478
 20
105.1826524595
 10
-187.3182164094
 20
102.4136563338
 10
-199.2767312827
 20
99.2496804593
 10
-210.447106042
 20
95.6975956748
 10
-219.9749635253
 20
92.1064392098
 10
-228.8036545736
 20
88.2005249972
 10
-236.9053583758
 20
83.9911330694
 10
-244.2434679952
 20
79.4945950341
 10
-250.781071082
 20
74.7274180955
 10
-256.4812552865
 20
69.7061094583
  0
SPLINE
  5
11E
330
110
100
AcDbEntity
  8
0
  6
Continuous
 62
     7
370
    25
100
AcDbSpline
210
0.0
220
0.0
230
1.0
 70
     8
 71
     3
 72
    28
 73
    24
 74
     0
 42
0.000000001
 43
0.00000001
 40
0.0
 40
0.0
 40
0.0
 40
0.0
 40
0.0092099625190811
 40
0.0454032819242548
 40
0.0824257580066277
 40
0.1203064425768966
 40
0.1590256211017578
 40
0.1985554372373454
 40
0.2499684870504492
 40
0.3024735842220657
 40
0.3558658772123222
 40
0.4099713489165354
 40
0.4648026318767345
 40
0.5194112195482806
 40
0.5747569225483813
 40
0.6306186297991119
 40
0.6867319547598607
 40
0.7438635779081488
 40
0.800729433284139
 40
0.8570502373403517
 40
0.9126014461117196
 40
0.9673791144568771
 40
1.0
 40
1.0
 40
1.0
 40
1.0
 10
131.7472751958839
 20
-148.6221351144757
 30
0.0
 10
130.9571615859772
 20
-148.8870497837613
 30
0.0
 10
127.062058765693
 20
-150.1930263705853
 30
0.0
 10
119.5045766613582
 20
-152.1499051561118
 30
0.0
 10
109.0954819708986
 20
-154.5079500960807
 30
0.0
 10
98.09603189911203
 20
-156.4730446499027
 30
0.0
 10
86.61785674494232
 20
-158.077407627026
 30
0.0
 10
73.5916921606096
 20
-159.409249258841
 30
0.0
 10
58.99907891871452
 20
-160.3147539405088
 30
0.0
 10
42.89672476059197
 20
-160.6498087204428
 30
0.0
 10
26.51652346770747
 20
-160.3525929055132
 30
0.0
 10
9.986647271985394
 20
-159.4243506958363
 30
0.0
 10
-6.493457491202171
 20
-157.8765103101419
 30
0.0
 10
-22.84647528179035
 20
-155.7257538182266
 30
0.0
 10
-38.97953622866034
 20
-152.9934910892827
 30
0.0
 10
-54.86640536037819
 20
-149.6844945576916
 30
0.0
 10
-70.45252275801819
 20
-145.7939555442832
 30
0.0
 10
-85.56998547682475
 20
-141.3319005968169
 30
0.0
 10
-100.0761725027648
 20
-136.3426430881407
 30
0.0
 10
-113.7757216501902
 20
-130.9140024665039
 30
0.0
 10
-126.515033956408
 20
-125.0674398615487
 30
0.0
 10
-136.8629255585923
 20
-119.7240412351508
 30
0.0
 10
-142.5709925624824
 20
-116.1753720919897
 30
0.0
 10
-144.7014877723275
 20
-114.8508566990069
 30
0.0
  0
SPLINE
  5
11F
330
110
100
AcDbEntity
  8
0
  6
Continuous
 62
     7
370
    25
100
AcDbSpline
210
0.0
220
0.0
230
1.0
 70
     8
 71
     3
 72
    25
 73
    21
 74
     0
 42
0.000000001
 43
0.00000001
 40
0.0
 40
0.0
 40
0.0
 40
0.0
 40
0.0227970782601551
 40
0.0727005901107448
 40
0.1241452683095696
 40
0.1770729078662104
 40
0.2323944598553159
 40
0.2889847661041806
 40
0.3466148024084149
 40
0.4050866056012502
 40
0.4643933940119984
 40
0.5234859812414366
 40
0.5833844563512933
 40
0.6438441842868597
 40
0.7045773303733386
 40
0.766412620882543
 40
0.8279591125360707
 40
0.8889127276580255
 40
0.9490242806380386
 40
1.0
 40
1.0
 40
1.0
 40
1.0
 10
111.9178990379205
 20
-153.7915878884991
 30
0.0
 10
110.1868508629068
 20
-154.2961256668094
 30
0.0
 10
104.6664845072943
 20
-155.9051123008746
 30
0.0
 10
94.68029534445895
 20
-158.0472083990839
 30
0.0
 10
82.02054593218544
 20
-160.258095950015
 30
0.0
 10
68.61522999076396
 20
-161.9276688488738
 30
0.0
 10
54.61508148310324
 20
-163.0548379811023
 30
0.0
 10
40.1378428839481
 20
-163.6131576285692
 30
0.0
 10
25.40172079791402
 20
-163.5952960670106
 30
0.0
 10
10.52082466609184
 20
-162.9933950436095
 30
0.0
 10
-4.323912126867863
 20
-161.807579768729
 30
0.0
 10
-19.06119359111592
 20
-160.0446685994191
 30
0.0
 10
-33.60642979152991
 20
-157.7160240892458
 30
0.0
 10
-47.93606244261004
 20
-154.8184574636192
 30
0.0
 10
-62.0032916214474
 20
-151.3393097544145
 30
0.0
 10
-75.65576762860663
 20
-147.2757856779582
 30
0.0
 10
-88.77793657881226
 20
-142.6803361993269
 30
0.0
 10
-101.1552196398768
 20
-137.6204538732013
 30
0.0
 10
-112.2631958707284
 20
-132.4473260879632
 30
0.0
 10
-118.8539892106706
 20
-128.761702494742
 30
0.0
 10
-121.878371973759
 20
-127.0704438113575
 30
0.0
  0
SPLINE
  5
120
330
110
100
AcDbEntity
  8
0
  6
Continuous
 62
     7
370
    25
100
AcDbSpline
210
0.0
220
0.0
230
1.0
 70
     8
 71
     3
 72
    17
 73
    13
 74
     0
 42
0.000000001
 43
0.00000001
 40
0.0
 40
0.0
 40
0.0
 40
0.0
 40
0.0766053536247717
 40
0.1864902454899132
 40
0.2963751373550547
 40
0.4081548351733412
 40
0.5217156759708576
 40
0.6358076558970983
 40
0.7498996358233391
 40
0.8634604766208555
 40
0.975240174439142
 40
0.9999999999999999
 40
0.9999999999999999
 40
0.9999999999999999
 40
0.9999999999999999
 10
-13.4106225501428
 20
-101.8729086167803
 30
0.0
 10
-12.57994629183021
 20
-101.5615074321864
 30
0.0
 10
-10.55772444955334
 20
-100.8034235566757
 30
0.0
 10
-6.832387060782585
 20
-100.0391910553605
 30
0.0
 10
-2.471148538312868
 20
-99.57125309986604
 30
0.0
 10
2.045213562866695
 20
-99.56759319524095
 30
0.0
 10
6.53406674463255
 20
-100.0016709374033
 30
0.0
 10
10.80667895164408
 20
-100.8818732467738
 30
0.0
 10
14.6438578707398
 20
-102.2004064311521
 30
0.0
 10
17.82016415776093
 20
-103.8759602548103
 30
0.0
 10
19.86115624924336
 20
-105.2759041214634
 30
0.0
 10
20.54453500974689
 20
-106.1494555289354
 30
0.0
 10
20.66845765487783
 20
-106.3078637314263
 30
0.0
  0
LINE
  5
121
330
110
100
AcDbEntity
  8
0
  6
Continuous
 62
     7
370
    25
100
AcDbLine
 10
-91.9577993285
 20
-141.3284098488
 30
0.0
 11
-89.2871335579
 21
-142.3462923395
 31
0.0
  0
LINE
  5
122
330
110
100
AcDbEntity
  8
0
  6
Continuous
 62
     7
370
    25
100
AcDbLine
 10
82.6985088684
 20
-160.0341614043
 30
0.0
 11
85.8757409917
 21
-159.5496151286
 31
0.0
  0
VIEWPORT
  5
140
330
110
100
AcDbEntity
  8
0
100
AcDbViewport
 10
0.0
 20
0.0
 30
0.0
 40
205.6
 41
156.0
 68
     1
 69
     1
 12
0.0
 22
-16.2157043767
 13
0.0
 23
0.0
 14
10.0
 24
10.0
 15
10.0
 25
10.0
 16
0.0
 26
0.0
 36
1.0
 17
0.0
 27
0.0
 37
0.0
 42
50.0
 43
0.0
 44
0.0
 45
382.433885339
 50
0.0
 51
0.0
 72
   100
 90
   557152
  1

281
     0
 71
     1
 74
     0
110
0.0
120
0.0
130
0.0
111
1.0
121
0.0
131
0.0
112
0.0
122
1.0
132
0.0
 79
     0
146
0.0
170
     0
 61
     5
348
2F
292
     1
282
     1
141
0.0
142
0.0
 63
   256
361
141
  0
ENDBLK
  5
113
330
110
100
AcDbEntity
  8
0
100
AcDbBlockEnd
  0
BLOCK
  5
125
330
123
100
AcDbEntity
  8
0
100
AcDbBlockBegin
  2
*Paper_Space8
 70
     0
 10
0.0
 20
0.0
 30
0.0
  3
*Paper_Space8
  1

  0
SPLINE
  5
127
330
123
100
AcDbEntity
  8
0
  6
Continuous
 62
     7
370
    25
100
AcDbSpline
210
0.0
220
0.0
230
1.0
 70
     8
 71
     3
 72
    82
 73
    78
 74
     0
 42
0.000000001
 43
0.00000001
 40
0.0
 40
0.0
 40
0.0
 40
0.0
 40
0.0118096668404544
 40
0.0223230740205835
 40
0.0314987455002083
 40
0.0392937057805407
 40
0.045754876540896
 40
0.0535659595868448
 40
0.0600918926790627
 40
0.0653133950669324
 40
0.0707550215944825
 40
0.0774504279265568
 40
0.0854320418738025
 40
0.0998041997135201
 40
0.1138916692964475
 40
0.1274502139155235
 40
0.146899427107233
 40
0.1657224930452791
 40
0.1856356434660644
 40
0.2067200309306418
 40
0.228985640807105
 40
0.2524328197535021
 40
0.2821110497323154
 40
0.3126877583600534
 40
0.3435341112742883
 40
0.3746413860290216
 40
0.4059974880866331
 40
0.4375723550035971
 40
0.469268630590974
 40
0.5009733000697565
 40
0.5318793610748974
 40
0.5611614345044786
 40
0.5810413786013406
 40
0.6000343383004824
 40
0.6181259320276489
 40
0.6353068584506221
 40
0.6516056214645523
 40
0.6685131428635449
 40
0.6867962523971965
 40
0.6976182488694913
 40
0.7088485669576529
 40
0.7204785920628778
 40
0.7324994340373355
 40
0.7440464264091227
 40
0.7536258409366184
 40
0.7612395457080957
 40
0.7649620799336803
 40
0.7679526732420529
 40
0.7709713936440772
 40
0.7756780121920818
 40
0.7821165566060897
 40
0.7901052795394912
 40
0.799700519945052
 40
0.8094697493573594
 40
0.8185275007010054
 40
0.832484796576916
 40
0.8444148618158159
 40
0.8543679146572701
 40
0.8634374714706139
 40
0.872668042396632
 40
0.8820488445129986
 40
0.8900428263855409
 40
0.8981555182860352
 40
0.9064046309987974
 40
0.9154511900983028
 40
0.9260698605087483
 40
0.9364189651980083
 40
0.9446665987044173
 40
0.9500995255470659
 40
0.9568275847975491
 40
0.9647805048555236
 40
0.9720534749093103
 40
0.9775989017702738
 40
0.9834670441678208
 40
0.991235473037561
 40
0.9999941635040241
 40
1.0
 40
1.0
 40
1.0
 40
1.0
 10
216.7896199227642
 20
-54.17283490993753
 30
0.0
 10
215.3117897141283
 20
-54.57831567037407
 30
0.0
 10
212.5183397732523
 20
-55.34477057138286
 30
0.0
 10
208.3078194844237
 20
-56.38130142888168
 30
0.0
 10
204.4896188421422
 20
-57.26061469836984
 30
0.0
 10
201.1157016379105
 20
-57.98984107196531
 30
0.0
 10
197.8273628550158
 20
-58.66456714854991
 30
0.0
 10
194.6674361891309
 20
-59.27959138083745
 30
0.0
 10
191.6392553204288
 20
-59.83887966320235
 30
0.0
 10
188.9349492926835
 20
-60.31732917497782
 30
0.0
 10
186.157666466406
 20
-60.78980039512369
 30
0.0
 10
182.8934200256253
 20
-61.3207314894146
 30
0.0
 10
178.1131775872553
 20
-62.05697873792496
 30
0.0
 10
172.0069400882979
 20
-62.92143153065309
 30
0.0
 10
164.8376453897457
 20
-63.83140990972502
 30
0.0
 10
156.6762383997087
 20
-64.75959858884256
 30
0.0
 10
147.5487704369582
 20
-65.66313246945256
 30
0.0
 10
137.1440206579547
 20
-66.52830308406982
 30
0.0
 10
126.3099705300556
 20
-67.26654388535488
 30
0.0
 10
114.7397920284742
 20
-67.88625046263691
 30
0.0
 10
102.4327239490645
 20
-68.36958111657383
 30
0.0
 10
88.47162734536887
 20
-68.72108436212305
 30
0.0
 10
72.91987737650373
 20
-68.87195479863043
 30
0.0
 10
55.98527692880586
 20
-68.75391505903582
 30
0.0
 10
38.82081697595942
 20
-68.35515474429376
 30
0.0
 10
21.58854857572633
 20
-67.68259919157565
 30
0.0
 10
4.335816781300323
 20
-66.74262564099433
 30
0.0
 10
-12.87676428382684
 20
-65.54322990627571
 30
0.0
 10
-29.97353239860194
 20
-64.09482254865725
 30
0.0
 10
-46.74184057521346
 20
-62.42063490049092
 30
0.0
 10
-62.85068427864176
 20
-60.56664502982265
 30
0.0
 10
-76.66507263500472
 20
-58.76563028920554
 30
0.0
 10
-88.25225571027774
 20
-57.10719383446376
 30
0.0
 10
-97.81626140936764
 20
-55.63980034074491
 30
0.0
 10
-106.8095838574914
 20
-54.16918359294213
 30
0.0
 10
-115.2428089604096
 20
-52.70660464999848
 30
0.0
 10
-123.3691202861313
 20
-51.21802668274803
 30
0.0
 10
-131.5513040790092
 20
-49.63681881121126
 30
0.0
 10
-138.7429260945872
 20
-48.16641308366098
 30
0.0
 10
-144.9546287004731
 20
-46.83569016233088
 30
0.0
 10
-150.0813653831337
 20
-45.69793327025597
 30
0.0
 10
-155.3233150727796
 20
-44.49113380155628
 30
0.0
 10
-160.5399506124807
 20
-43.24349172865949
 30
0.0
 10
-165.381439422589
 20
-42.04042481283315
 30
0.0
 10
-169.5197305935033
 20
-40.97593462576381
 30
0.0
 10
-172.4936779032225
 20
-40.18895184619394
 30
0.0
 10
-174.5109959921492
 20
-39.6449831703401
 30
0.0
 10
-175.8728737736324
 20
-39.27362520372311
 30
0.0
 10
-177.3579818439435
 20
-38.8645888210349
 30
0.0
 10
-179.3016432444433
 20
-38.32233639297667
 30
0.0
 10
-181.9015540582472
 20
-37.58339326144236
 30
0.0
 10
-185.1243893695835
 20
-36.64490450331611
 30
0.0
 10
-188.7383414071502
 20
-35.56053313778067
 30
0.0
 10
-192.4258085088693
 20
-34.41642609331696
 30
0.0
 10
-196.5978168911651
 20
-33.07838971714352
 30
0.0
 10
-200.9334638976717
 20
-31.62921448964948
 30
0.0
 10
-205.2372684548413
 20
-30.11988370338248
 30
0.0
 10
-208.833992094807
 20
-28.80437236507688
 30
0.0
 10
-212.0052571619883
 20
-27.59997262727281
 30
0.0
 10
-215.0078679913087
 20
-26.41617691191522
 30
0.0
 10
-217.7876612352461
 20
-25.2760991545924
 30
0.0
 10
-220.3526197748551
 20
-24.18279570968961
 30
0.0
 10
-222.6954450361492
 20
-23.14640363555228
 30
0.0
 10
-225.030745641119
 20
-22.07172718560512
 30
0.0
 10
-227.4370647478044
 20
-20.91494772285363
 30
0.0
 10
-229.8437071223578
 20
-19.6970377105533
 30
0.0
 10
-232.0053770758902
 20
-18.53758664213605
 30
0.0
 10
-233.6268779248472
 20
-17.61781518954213
 30
0.0
 10
-234.8425671375027
 20
-16.89851139853089
 30
0.0
 10
-235.9161713360589
 20
-16.23863736847137
 30
0.0
 10
-236.9664708659402
 20
-15.56091245458584
 30
0.0
 10
-237.8411879996518
 20
-14.9640677846785
 30
0.0
 10
-238.5196771816885
 20
-14.47605940873689
 30
0.0
 10
-239.0187963750399
 20
-14.09718756063483
 30
0.0
 10
-239.3735811399069
 20
-13.81765763214535
 30
0.0
 10
-239.5554804728116
 20
-13.64902593925797
 30
0.0
 10
-239.4907774241264
 20
-13.71447080325636
 30
0.0
 10
-239.4907343369084
 20
-13.71451438446582
 30
0.0
  0
SPLINE
  5
128
330
123
100
AcDbEntity
  8
0
  6
Continuous
 62
     7
370
    25
100
AcDbSpline
210
0.0
220
0.0
230
1.0
 70
     8
 71
     3
 72
    23
 73
    19
 74
     0
 42
0.000000001
 43
0.00000001
 40
0.0
 40
0.0
 40
0.0
 40
0.0
 40
0.0532459292426287
 40
0.1132677931336892
 40
0.1666816474722605
 40
0.2326794858213518
 40
0.2853025628683668
 40
0.3452971995681962
 40
0.4098017744942586
 40
0.4623506100115585
 40
0.5003520987394149
 40
0.531842817760497
 40
0.57305822749754
 40
0.624553937563402
 40
0.690504676597913
 40
0.7746849043060159
 40
0.8776051031359526
 40
1.0
 40
1.0
 40
1.0
 40
1.0
 10
238.3578852546687
 20
-45.73569967469722
 30
0.0
 10
238.3570695056221
 20
-45.73508028872939
 30
0.0
 10
238.3553341974855
 20
-45.73376269539089
 30
0.0
 10
238.1854900291428
 20
-45.85024135232953
 30
0.0
 10
237.8023904809318
 20
-46.09488809617462
 30
0.0
 10
237.2630835401968
 20
-46.41711698808277
 30
0.0
 10
236.5239177184652
 20
-46.82976760925744
 30
0.0
 10
235.6497752603455
 20
-47.28929629824304
 30
0.0
 10
234.6408063884368
 20
-47.7872115430749
 30
0.0
 10
233.662879907837
 20
-48.24342566274849
 30
0.0
 10
232.8204149294919
 20
-48.62071108679785
 30
0.0
 10
231.9527632038378
 20
-48.99677426666083
 30
0.0
 10
230.9076389703905
 20
-49.43406848301579
 30
0.0
 10
229.5006946055695
 20
-49.99779834923427
 30
0.0
 10
227.5290911810553
 20
-50.74703228315708
 30
0.0
 10
224.8057359711586
 20
-51.7115437268001
 30
0.0
 10
221.2187763550339
 20
-52.88876334284407
 30
0.0
 10
218.3486954636602
 20
-53.72083810114798
 30
0.0
 10
216.7896199227642
 20
-54.17283490993752
 30
0.0
  0
SPLINE
  5
129
330
123
100
AcDbEntity
  8
0
  6
Continuous
 62
     7
370
    25
100
AcDbSpline
210
0.0
220
0.0
230
1.0
 70
     8
 71
     3
 72
    40
 73
    36
 74
     0
 42
0.000000001
 43
0.00000001
 40
0.0
 40
0.0
 40
0.0
 40
0.0
 40
0.0300821649946362
 40
0.0528397288699446
 40
0.0682558322975411
 40
0.080660000409248
 40
0.0949460962671426
 40
0.1274253358727864
 40
0.1611241168390673
 40
0.1830961813945669
 40
0.2010388013138151
 40
0.2209556743830792
 40
0.2478641296944064
 40
0.2760474043640785
 40
0.3108841733709155
 40
0.3407673037826497
 40
0.3722092929550525
 40
0.4052862709398231
 40
0.4398998160911909
 40
0.4760561563970226
 40
0.5202851930158037
 40
0.5586654161701595
 40
0.5926631331610346
 40
0.6274431353868586
 40
0.6664004122858388
 40
0.7087096975424274
 40
0.7286999686300134
 40
0.7465637445384761
 40
0.7625819838765069
 40
0.7835049028089334
 40
0.8122130389578014
 40
0.84797252672016
 40
0.8912085323713752
 40
0.941895433327998
 40
1.0
 40
1.0
 40
1.0
 40
1.0
 10
175.0733569718699
 20
-115.4725755987035
 30
0.0
 10
176.2837411142268
 20
-114.8445761605453
 30
0.0
 10
178.4097971983558
 20
-113.7414866705212
 30
0.0
 10
181.1365456618156
 20
-112.2727584336844
 30
0.0
 10
183.1483849167632
 20
-111.1687668860401
 30
0.0
 10
184.8147919422209
 20
-110.2402428814711
 30
0.0
 10
187.1477236815303
 20
-108.9218975996634
 30
0.0
 10
190.3006294745171
 20
-107.0956235969737
 30
0.0
 10
193.721548695448
 20
-105.0443473994062
 30
0.0
 10
196.5554525049617
 20
-103.2953195262413
 30
0.0
 10
198.8448529884086
 20
-101.8530073019854
 30
0.0
 10
201.3042242292325
 20
-100.2733153329916
 30
0.0
 10
204.1312124664019
 20
-98.4137911004823
 30
0.0
 10
207.4926503458948
 20
-96.14028018405952
 30
0.0
 10
210.9294833504337
 20
-93.74093924159472
 30
0.0
 10
214.442432508089
 20
-91.20797377805414
 30
0.0
 10
217.8558712199921
 20
-88.67078233681167
 30
0.0
 10
221.3963425661494
 20
-85.95392290008549
 30
0.0
 10
225.0496822813877
 20
-83.05566710480949
 30
0.0
 10
229.0309656477986
 20
-79.78617892839837
 30
0.0
 10
233.0738690607737
 20
-76.33365324622163
 30
0.0
 10
236.9779680811676
 20
-72.8628575541716
 30
0.0
 10
240.5075084875753
 20
-69.61249369104802
 30
0.0
 10
243.9910293537777
 20
-66.2955250593713
 30
0.0
 10
247.6752168005555
 20
-62.65968498103522
 30
0.0
 10
250.8256729712439
 20
-59.4250927299882
 30
0.0
 10
253.2795363089648
 20
-56.82773666810824
 30
0.0
 10
254.9113160709478
 20
-55.06816213809112
 30
0.0
 10
256.5550821906288
 20
-53.26585654511893
 30
0.0
 10
258.4989484213533
 20
-51.09537750078395
 30
0.0
 10
260.9909064305564
 20
-48.24376321852997
 30
0.0
 10
264.0765222818444
 20
-44.59886770405245
 30
0.0
 10
267.7044115360977
 20
-40.13619929520623
 30
0.0
 10
271.8473728384611
 20
-34.81278297779084
 30
0.0
 10
274.679522167498
 20
-30.90006698690588
 30
0.0
 10
276.1921482318494
 20
-28.81031976576291
 30
0.0
  0
SPLINE
  5
12A
330
123
100
AcDbEntity
  8
0
  6
Continuous
 62
     7
370
    25
100
AcDbSpline
210
0.0
220
0.0
230
1.0
 70
     8
 71
     3
 72
    47
 73
    43
 74
     0
 42
0.000000001
 43
0.00000001
 40
0.0
 40
0.0
 40
0.0
 40
0.0
 40
0.0495774630455691
 40
0.092269592513379
 40
0.1280903979254059
 40
0.1570558617974488
 40
0.1791818842568066
 40
0.1949846201026407
 40
0.2101285006992032
 40
0.2565430008806542
 40
0.310306700078799
 40
0.3409333399989265
 40
0.3736541541380071
 40
0.4039875645719603
 40
0.4292488269478653
 40
0.4518716087907156
 40
0.4755972279744945
 40
0.5012425444107707
 40
0.523860027726243
 40
0.5498280609318486
 40
0.5766109519123294
 40
0.5986232829720941
 40
0.6158361986314027
 40
0.6347892640028505
 40
0.65743478056165
 40
0.6830472666734982
 40
0.7060919090081974
 40
0.7261359615327806
 40
0.7436134988773122
 40
0.7585307777630008
 40
0.772075210104561
 40
0.7894416003260261
 40
0.8129269474173387
 40
0.8382335331030479
 40
0.8580475669551633
 40
0.8728561445283091
 40
0.8861898286751515
 40
0.8988415398549396
 40
0.9132563538273348
 40
0.9349809687173766
 40
0.9639338141764298
 40
1.0
 40
1.0
 40
1.0
 40
1.0
 10
-276.8081847572259
 20
7.94595632412004
 30
0.0
 10
-275.5529131002567
 20
5.882913256495023
 30
0.0
 10
-273.2167023067416
 20
2.043343187886487
 30
0.0
 10
-269.8333866722715
 20
-3.200749539470471
 30
0.0
 10
-266.9245570128781
 20
-7.55525689948703
 30
0.0
 10
-264.5207462068947
 20
-11.04138315870852
 30
0.0
 10
-262.6407293515843
 20
-13.70319790962228
 30
0.0
 10
-261.132752029307
 20
-15.80043697563083
 30
0.0
 10
-258.9151635192979
 20
-18.84030669005658
 30
0.0
 10
-255.5494014778764
 20
-23.32396078676424
 30
0.0
 10
-251.6212986175435
 20
-28.3210145344271
 30
0.0
 10
-248.0237528905298
 20
-32.72520483153246
 30
0.0
 10
-245.0964941374614
 20
-36.20771450384372
 30
0.0
 10
-242.2922709249086
 20
-39.45052721100069
 30
0.0
 10
-239.7796105889901
 20
-42.28474760042722
 30
0.0
 10
-237.4535320270967
 20
-44.85316091485071
 30
0.0
 10
-235.0757626049476
 20
-47.42510503060264
 30
0.0
 10
-232.6629773835199
 20
-49.97754248059867
 30
0.0
 10
-230.1637068175335
 20
-52.56517563604089
 30
0.0
 10
-227.6066504021431
 20
-55.1563665876408
 30
0.0
 10
-225.0453482454794
 20
-57.69208345021647
 30
0.0
 10
-222.7561824549504
 20
-59.91006110875841
 30
0.0
 10
-220.7192182323595
 20
-61.84969054389411
 30
0.0
 10
-218.6462724607864
 20
-63.7922063606178
 30
0.0
 10
-216.2577863016455
 20
-65.98954529286249
 30
0.0
 10
-213.6979456159814
 20
-68.29462570753059
 30
0.0
 10
-211.2076845792415
 20
-70.48900868820436
 30
0.0
 10
-208.9948953410434
 20
-72.40175318370085
 30
0.0
 10
-207.0670431862721
 20
-74.0404720116574
 30
0.0
 10
-205.3681878416953
 20
-75.46373341496037
 30
0.0
 10
-203.6659556594931
 20
-76.87172628583829
 30
0.0
 10
-201.6363514055067
 20
-78.5273619907786
 30
0.0
 10
-199.1483969866077
 20
-80.51992846821001
 30
0.0
 10
-196.5438562541202
 20
-82.56034657643025
 30
0.0
 10
-194.2504468361112
 20
-84.32052307442004
 30
0.0
 10
-192.4072759548519
 20
-85.71296461674989
 30
0.0
 10
-190.8334374307223
 20
-86.88674135505576
 30
0.0
 10
-189.2695297011516
 20
-88.03925811937809
 30
0.0
 10
-187.3765985829081
 20
-89.41714644604208
 30
0.0
 10
-184.8341016473865
 20
-91.23638980024622
 30
0.0
 10
-181.4168032759457
 20
-93.62992195112102
 30
0.0
 10
-178.814553031183
 20
-95.38157632522187
 30
0.0
 10
-177.3710796506112
 20
-96.35322248648781
 30
0.0
  0
SPLINE
  5
12B
330
123
100
AcDbEntity
  8
0
  6
Continuous
 62
     7
370
    25
100
AcDbSpline
210
0.0
220
0.0
230
1.0
 70
     8
 71
     3
 72
    71
 73
    67
 74
     0
 42
0.000000001
 43
0.00000001
 40
0.0
 40
0.0
 40
0.0
 40
0.0
 40
0.0131587893926003
 40
0.0237626429661282
 40
0.0318730346422776
 40
0.0390545258186812
 40
0.0462845685432332
 40
0.0535353274579171
 40
0.0866586722105435
 40
0.1009310240339115
 40
0.1149313283861771
 40
0.1285615783361442
 40
0.1428414098156759
 40
0.1630703768053959
 40
0.1834661561167495
 40
0.1987141433594567
 40
0.2155373470792342
 40
0.2337198230012096
 40
0.2495308133041036
 40
0.2654974140816078
 40
0.2863084171718902
 40
0.3077461757117208
 40
0.3263040935707247
 40
0.3402427541166234
 40
0.3535388311170396
 40
0.3640297005444476
 40
0.3712063597566778
 40
0.3773986923946858
 40
0.3861797996333102
 40
0.3977571290321281
 40
0.4121186627943354
 40
0.4292400144516834
 40
0.4490789694414378
 40
0.4715675545792605
 40
0.4963717065031903
 40
0.5265541756254933
 40
0.5536403059995548
 40
0.5778057642724541
 40
0.5991997237666868
 40
0.6179458802737033
 40
0.6341358369123624
 40
0.6484419994835263
 40
0.6655677922757152
 40
0.6844982881173294
 40
0.7031839994338819
 40
0.7221176054960288
 40
0.7424804496984727
 40
0.7544572352658556
 40
0.7669279434481269
 40
0.782356561395483
 40
0.7973224250015359
 40
0.8075318753843674
 40
0.8180779559262125
 40
0.8327855310591089
 40
0.8489506449765045
 40
0.8633036380853993
 40
0.881580506806204
 40
0.9002458040456099
 40
0.9197082075829363
 40
0.9367618032792544
 40
0.9537700315691322
 40
0.9587257462644105
 40
0.9653080076659718
 40
0.9743720727767615
 40
0.985931150193371
 40
1.0
 40
1.0
 40
1.0
 40
1.0
 10
-148.6674536164968
 20
-113.4805030082843
 30
0.0
 10
-147.4888083116067
 20
-114.0976300791755
 30
0.0
 10
-145.3603657377362
 20
-115.2120616437211
 30
0.0
 10
-142.4699590666451
 20
-116.6739329423084
 30
0.0
 10
-140.1022085888753
 20
-117.8483142934833
 30
0.0
 10
-138.0359418887614
 20
-118.8546926075364
 30
0.0
 10
-136.0477906983994
 20
-119.806978159097
 30
0.0
 10
-131.6732859247969
 20
-121.8669326251056
 30
0.0
 10
-126.6105799356681
 20
-124.1386977483786
 30
0.0
 10
-120.8732305345169
 20
-126.5676894377955
 30
0.0
 10
-116.9396203967704
 20
-128.1746141562594
 30
0.0
 10
-112.9779445644774
 20
-129.7361692490354
 30
0.0
 10
-108.4079920615647
 20
-131.4718027431265
 30
0.0
 10
-103.1870397454361
 20
-133.3635220656789
 30
0.0
 10
-97.81188289820517
 20
-135.2019225861854
 30
0.0
 10
-92.74196078091208
 20
-136.8462276542213
 30
0.0
 10
-87.86266427123837
 20
-138.3521080741425
 30
0.0
 10
-82.89797732201978
 20
-139.799900779144
 30
0.0
 10
-78.00151832659665
 20
-141.1477616648902
 30
0.0
 10
-72.82489603093748
 20
-142.4944250656563
 30
0.0
 10
-67.06793278183221
 20
-143.8922523426981
 30
0.0
 10
-61.00612797202026
 20
-145.2442470928215
 30
0.0
 10
-55.62228595084543
 20
-146.3455355038213
 30
0.0
 10
-51.0265715584999
 20
-147.2172255341008
 30
0.0
 10
-47.22857894466267
 20
-147.890212665275
 30
0.0
 10
-44.09880507099073
 20
-148.4106811160108
 30
0.0
 10
-41.6781375813997
 20
-148.7934738341512
 30
0.0
 10
-39.44906529361369
 20
-149.132205338152
 30
0.0
 10
-36.81161079605613
 20
-149.5147539945884
 30
0.0
 10
-33.36271750008138
 20
-149.9825017305466
 30
0.0
 10
-29.0744626819433
 20
-150.5118507103038
 30
0.0
 10
-23.93332945320743
 20
-151.0721873026028
 30
0.0
 10
-17.93416882760357
 20
-151.6278741403743
 30
0.0
 10
-11.10428984172778
 20
-152.1365628183016
 30
0.0
 10
-3.156682424219074
 20
-152.5717232589884
 30
0.0
 10
5.323314339156632
 20
-152.8435640818226
 30
0.0
 10
13.77838635579134
 20
-152.9154279683591
 30
0.0
 10
21.33959980332139
 20
-152.8210452369227
 30
0.0
 10
28.03811600138318
 20
-152.61282398777
 30
0.0
 10
33.90448160554439
 20
-152.3347716282924
 30
0.0
 10
39.02907299389883
 20
-152.0195123135162
 30
0.0
 10
43.97643111335825
 20
-151.6543824778853
 30
0.0
 10
49.19566214558773
 20
-151.2034425046307
 30
0.0
 10
54.8585601595492
 20
-150.6319190217928
 30
0.0
 10
60.70602393530736
 20
-149.9518712480672
 30
0.0
 10
66.6911013928704
 20
-149.1615476978729
 30
0.0
 10
71.97044429272528
 20
-148.3764348855679
 30
0.0
 10
76.57774684577343
 20
-147.6277848359895
 30
0.0
 10
80.6690895888806
 20
-146.9199967801136
 30
0.0
 10
85.05810570292627
 20
-146.1077108876473
 30
0.0
 10
89.2094459721334
 20
-145.2841395424079
 30
0.0
 10
92.8547209234909
 20
-144.5201164129051
 30
0.0
 10
96.46277049590809
 20
-143.7302060397953
 30
0.0
 10
100.6675060004161
 20
-142.7613760665283
 30
0.0
 10
105.2472842840869
 20
-141.6405994223227
 30
0.0
 10
110.1711125075542
 20
-140.364605068065
 30
0.0
 10
115.3175988102955
 20
-138.9504039423951
 30
0.0
 10
120.9583189801796
 20
-137.2983882971676
 30
0.0
 10
126.4445712001148
 20
-135.5868462624695
 30
0.0
 10
131.736855277312
 20
-133.8368708537411
 30
0.0
 10
135.5733219739485
 20
-132.4999311404923
 30
0.0
 10
138.3693332149597
 20
-131.4927765684934
 30
0.0
 10
140.3810578499564
 20
-130.7557440567355
 30
0.0
 10
143.0303614300086
 20
-129.7620146770476
 30
0.0
 10
146.3993207070234
 20
-128.4636760577811
 30
0.0
 10
148.8750857512707
 20
-127.4635833921665
 30
0.0
 10
150.2341955325889
 20
-126.9145669468379
 30
0.0
  0
LWPOLYLINE
  5
12C
330
123
100
AcDbEntity
  8
0
  6
Continuous
 62
     7
370
    25
100
AcDbPolyline
 90
       95
 70
   128
 43
0.0
 10
-271.27016055
 20
34.1768277414
 10
-275.0746329628
 20
30.2705949475
 10
-277.7791439733
 20
26.2468637205
 10
-279.3842561533
 20
22.1267886155
 10
-279.8905320748
 20
17.9315241873
 10
-279.2989596923
 20
13.68101264
 10
-277.613354906
 20
9.3871364701
 10
-274.838687254
 20
5.0584902787
 10
-270.5346204326
 20
0.2670661745
 10
-264.9275270611
 20
-4.5431742615
 10
-258.0422934644
 20
-9.3482877916
 10
-249.911300494
 20
-14.1191959485
 10
-240.5669700473
 20
-18.8267921406
 10
-229.3766752897
 20
-23.7188537953
 10
-216.9571674847
 20
-28.476964017
 10
-203.4076280603
 20
-33.0711316406
 10
-188.8265163486
 20
-37.4716173329
 10
-173.2884357533
 20
-41.6570015366
 10
-156.8392395408
 20
-45.6158913299
 10
-140.5351499012
 20
-49.1314085633
 10
-123.502658417
 20
-52.4260206795
 10
-105.8249835114
 20
-55.4827768295
 10
-87.6043061492
 20
-58.2814842751
 10
-68.9429111493
 20
-60.8019325227
 10
-48.7858492728
 20
-63.1510861075
 10
-28.3874596994
 20
-65.1556742862
 10
-7.887112807
 20
-66.8068757963
 10
12.576934108
 20
-68.0959636512
 10
32.9031966581
 20
-69.0173254694
 10
53.0345075829
 20
-69.5691024571
 10
71.7879054518
 20
-69.7493705031
 10
90.268392538
 20
-69.5984152045
 10
108.383166544
 20
-69.1162076788
 10
126.0201026147
 20
-68.3032695485
 10
143.0669700697
 20
-67.1601254514
 10
157.9614165631
 20
-65.8365753662
 10
172.2137877362
 20
-64.2515918665
 10
185.76242091
 20
-62.4162054462
 10
198.5456534059
 20
-60.3414465992
 10
210.5057671664
 20
-58.0377971844
 10
221.6112679775
 20
-55.5120917352
 10
231.8413594388
 20
-52.769676887
 10
240.4321858469
 20
-50.0699860756
 10
248.2535320625
 20
-47.1970196919
 10
255.2805043203
 20
-44.1591706388
 10
261.4807052729
 20
-40.9684387917
 10
266.8214767423
 20
-37.6369494069
 10
271.2701605503
 20
-34.1768277411
 10
275.074632963
 20
-30.2705949472
 10
277.7791439734
 20
-26.2468637203
 10
279.3842561533
 20
-22.1267886152
 10
279.8905320747
 20
-17.931524187
 10
279.2989596922
 20
-13.6810126398
 10
277.6133549059
 20
-9.3871364699
 10
274.8386872539
 20
-5.0584902786
 10
270.5346204326
 20
-0.2670661744
 10
264.9275270611
 20
4.5431742615
 10
258.0422934644
 20
9.3482877916
 10
249.911300494
 20
14.1191959485
 10
240.5669700473
 20
18.8267921406
 10
229.3766752898
 20
23.7188537953
 10
216.9571674847
 20
28.476964017
 10
203.4076280604
 20
33.0711316406
 10
188.8265163487
 20
37.4716173329
 10
173.2884357535
 20
41.6570015366
 10
156.8392395411
 20
45.6158913298
 10
140.5351499016
 20
49.1314085632
 10
123.5026584175
 20
52.4260206794
 10
105.8249835119
 20
55.4827768294
 10
87.6043061498
 20
58.281484275
 10
68.9429111499
 20
60.8019325226
 10
48.7858492733
 20
63.1510861074
 10
28.3874596999
 20
65.1556742862
 10
7.8871128075
 20
66.8068757962
 10
-12.5769341076
 20
68.0959636512
 10
-32.9031966578
 20
69.0173254694
 10
-53.0345075827
 20
69.5691024571
 10
-71.7879054517
 20
69.7493705031
 10
-90.2683925379
 20
69.5984152045
 10
-108.383166544
 20
69.1162076788
 10
-126.0201026147
 20
68.3032695485
 10
-143.0669700697
 20
67.1601254514
 10
-157.9614165631
 20
65.8365753662
 10
-172.2137877362
 20
64.2515918665
 10
-185.76242091
 20
62.4162054463
 10
-198.5456534058
 20
60.3414465993
 10
-210.5057671662
 20
58.0377971845
 10
-221.6112679772
 20
55.5120917353
 10
-231.8413594384
 20
52.7696768872
 10
-240.4321858464
 20
50.0699860758
 10
-248.253532062
 20
47.1970196921
 10
-255.2805043197
 20
44.1591706391
 10
-261.4807052724
 20
40.9684387919
 10
-266.8214767419
 20
37.6369494072
 10
-271.27016055
 20
34.1768277414
  0
SPLINE
  5
12D
330
123
100
AcDbEntity
  8
0
  6
Continuous
 62
     7
370
    25
100
AcDbSpline
210
0.0
220
0.0
230
1.0
 70
     8
 71
     3
 72
    36
 73
    32
 74
     0
 42
0.000000001
 43
0.00000001
 40
0.0
 40
0.0
 40
0.0
 40
0.0
 40
0.0217069648551195
 40
0.0485213579681265
 40
0.0756599477788502
 40
0.1032569823906058
 40
0.1298111231317398
 40
0.1569735955612808
 40
0.184765714272162
 40
0.21317301520028
 40
0.2421750608370639
 40
0.2798955402820342
 40
0.3184172277877876
 40
0.3575898288604726
 40
0.3972856714665463
 40
0.4375140237887692
 40
0.4775789901012404
 40
0.5181847596475285
 40
0.5591691087139999
 40
0.6003380634534129
 40
0.6422541183160739
 40
0.6839751859560641
 40
0.7252963629616946
 40
0.7660529069951818
 40
0.8062419236041573
 40
0.8451978031377718
 40
0.8836463199041267
 40
0.9214614258153305
 40
0.9585012571110811
 40
0.9892413773310199
 40
1.0
 40
1.0
 40
1.0
 40
1.0
 10
175.0572605871322
 20
-115.4325083223829
 30
0.0
 10
173.3801862516889
 20
-116.273677507669
 30
0.0
 10
169.6314390310469
 20
-118.1539344401069
 30
0.0
 10
162.7650608272882
 20
-120.8367367238626
 30
0.0
 10
154.698629680006
 20
-123.5152898774994
 30
0.0
 10
145.957462443185
 20
-125.9315694121643
 30
0.0
 10
136.653976260064
 20
-128.1008326428783
 30
0.0
 10
126.8521228434873
 20
-130.028720688158
 30
0.0
 10
116.4210671941797
 20
-131.7493931383843
 30
0.0
 10
105.4140618376177
 20
-133.2524103919116
 30
0.0
 10
92.80941083502131
 20
-134.6459338798057
 30
0.0
 10
78.54663229823412
 20
-135.829840664199
 30
0.0
 10
62.64895192736481
 20
-136.7098930940289
 30
0.0
 10
46.32338767642977
 20
-137.1953143171985
 30
0.0
 10
29.69757452296654
 20
-137.2816723232748
 30
0.0
 10
12.97212891286265
 20
-136.9680554111397
 30
0.0
 10
-3.772201299098825
 20
-136.261987842054
 30
0.0
 10
-20.43813241782264
 20
-135.1733898094765
 30
0.0
 10
-36.99841888362578
 20
-133.7042204248867
 30
0.0
 10
-53.40031970158123
 20
-131.8492255168716
 30
0.0
 10
-69.47389636896014
 20
-129.6075830034993
 30
0.0
 10
-85.0704041460638
 20
-127.0030950923182
 30
0.0
 10
-99.9621712810643
 20
-124.0795423664819
 30
0.0
 10
-114.0381705567022
 20
-120.8610602469798
 30
0.0
 10
-127.1419631271858
 20
-117.3889113416999
 30
0.0
 10
-139.2351187689623
 20
-113.687495505102
 30
0.0
 10
-150.2636359147803
 20
-109.7843623352038
 30
0.0
 10
-160.2447335270278
 20
-105.6912171065755
 30
0.0
 10
-168.5541401793072
 20
-101.6340166153884
 30
0.0
 10
-174.1978548858202
 20
-98.49575793586264
 30
0.0
 10
-176.6850752680544
 20
-96.7528753839686
 30
0.0
 10
-177.3298915618558
 20
-96.3010299923535
 30
0.0
  0
SPLINE
  5
12E
330
123
100
AcDbEntity
  8
0
  6
Continuous
 62
     7
370
    25
100
AcDbSpline
210
0.0
220
0.0
230
1.0
 70
     8
 71
     3
 72
    36
 73
    32
 74
     0
 42
0.000000001
 43
0.00000001
 40
0.0
 40
0.0
 40
0.0
 40
0.0
 40
0.0128698220944997
 40
0.037970044352512
 40
0.0633390077848097
 40
0.0890759160293477
 40
0.1153123515289744
 40
0.1470346960346538
 40
0.1797609593246086
 40
0.2134979053063341
 40
0.2482073636833799
 40
0.2844867277775324
 40
0.3215981292256779
 40
0.3593913760646725
 40
0.3977366458736657
 40
0.4366294912955025
 40
0.4753818655561603
 40
0.5146627336638187
 40
0.5543116662035233
 40
0.5941399038474822
 40
0.6346909176493525
 40
0.6750525398224934
 40
0.7150253590286451
 40
0.7544459616403776
 40
0.7932989349920885
 40
0.8309269003156844
 40
0.8680192955453019
 40
0.9044484680942674
 40
0.9400726205948641
 40
0.9754039144825412
 40
0.9999999999999999
 40
0.9999999999999999
 40
0.9999999999999999
 40
0.9999999999999999
 10
162.1737994255629
 20
-120.9599102476221
 30
0.0
 10
161.3702249123695
 20
-121.4635575948583
 30
0.0
 10
158.9994260246723
 20
-122.9494765121645
 30
0.0
 10
154.1353332883113
 20
-125.29945391971
 30
0.0
 10
147.6976329645942
 20
-127.994644114179
 30
0.0
 10
140.436605073634
 20
-130.5445677015062
 30
0.0
 10
131.9468564613184
 20
-133.0905221889265
 30
0.0
 10
122.0873174734282
 20
-135.5769409095938
 30
0.0
 10
110.7928927186809
 20
-137.9359128340982
 30
0.0
 10
98.64909958641351
 20
-140.0185208699437
 30
0.0
 10
85.67325035343326
 20
-141.8087106002391
 30
0.0
 10
71.96490526956659
 20
-143.2703729900738
 30
0.0
 10
57.65124797092991
 20
-144.3847483654833
 30
0.0
 10
42.94549151092539
 20
-145.1312474511994
 30
0.0
 10
27.96213168583332
 20
-145.4968327229867
 30
0.0
 10
12.88310627001332
 20
-145.4688620167536
 30
0.0
 10
-2.217180302594435
 20
-145.0451235206131
 30
0.0
 10
-17.25021130419802
 20
-144.2258992156215
 30
0.0
 10
-32.19190705804071
 20
-143.0052152093282
 30
0.0
 10
-46.99647210871554
 20
-141.3690846987141
 30
0.0
 10
-61.51268591352486
 20
-139.3056066182496
 30
0.0
 10
-75.60866938191974
 20
-136.8441278362614
 30
0.0
 10
-89.08086555540531
 20
-134.0339016927364
 30
0.0
 10
-101.83020784106
 20
-130.9059751533009
 30
0.0
 10
-113.7150982223902
 20
-127.5093389500577
 30
0.0
 10
-124.6985442454726
 20
-123.8768187300685
 30
0.0
 10
-134.7329675592585
 20
-120.0444230576256
 30
0.0
 10
-143.8251787907475
 20
-116.0275556116448
 30
0.0
 10
-151.8780134305302
 20
-111.8332625618508
 30
0.0
 10
-158.3134637545656
 20
-107.924496461774
 30
0.0
 10
-161.5627302423428
 20
-105.3398302756691
 30
0.0
 10
-162.896331631152
 20
-104.2790017999612
 30
0.0
  0
SPLINE
  5
12F
330
123
100
AcDbEntity
  8
0
  6
Continuous
 62
     7
370
    25
100
AcDbSpline
210
0.0
220
0.0
230
1.0
 70
     8
 71
     3
 72
    16
 73
    12
 74
     0
 42
0.000000001
 43
0.00000001
 40
0.0
 40
0.0
 40
0.0
 40
0.0
 40
0.0684596842286442
 40
0.1761493230087724
 40
0.2904831277519579
 40
0.4110054648452232
 40
0.5366552310954726
 40
0.6662929819609235
 40
0.799725518646346
 40
0.9366302192173844
 40
1.0
 40
1.0
 40
1.0
 40
1.0
 10
54.33694554808742
 20
-150.6694349051918
 30
0.0
 10
53.03446776522538
 20
-150.9599206867387
 30
0.0
 10
49.68314381054783
 20
-151.7073514460196
 30
0.0
 10
43.50742805989917
 20
-152.5586165543919
 30
0.0
 10
35.98067005413058
 20
-153.2877607562858
 30
0.0
 10
27.8169865659662
 20
-153.712867995232
 30
0.0
 10
19.22559276427771
 20
-153.8538620714934
 30
0.0
 10
10.33525586274346
 20
-153.7075996116793
 30
0.0
 10
1.286566584135597
 20
-153.2590711705643
 30
0.0
 10
-6.179022376301248
 20
-152.7076850023119
 30
0.0
 10
-10.51128941716261
 20
-152.2133794972487
 30
0.0
 10
-11.88208219523177
 20
-152.0569739917455
 30
0.0
  0
VIEWPORT
  5
142
330
123
100
AcDbEntity
  8
0
100
AcDbViewport
 10
0.0
 20
0.0
 30
0.0
 40
205.6
 41
156.0
 68
     1
 69
     1
 12
0.0
 22
-16.2157043767
 13
0.0
 23
0.0
 14
10.0
 24
10.0
 15
10.0
 25
10.0
 16
0.0
 26
0.0
 36
1.0
 17
0.0
 27
0.0
 37
0.0
 42
50.0
 43
0.0
 44
0.0
 45
382.433885339
 50
0.0
 51
0.0
 72
   100
 90
   557152
  1

281
     0
 71
     1
 74
     0
110
0.0
120
0.0
130
0.0
111
1.0
121
0.0
131
0.0
112
0.0
122
1.0
132
0.0
 79
     0
146
0.0
170
     0
 61
     5
348
2F
292
     1
282
     1
141
0.0
142
0.0
 63
   256
361
143
  0
ENDBLK
  5
126
330
123
100
AcDbEntity
  8
0
100
AcDbBlockEnd
  0
ENDSEC
  0
SECTION
  2
ENTITIES
  0
SPLINE
  5
73
330
1F
100
AcDbEntity
  8
0
  6
Continuous
 62
     7
370
    25
100
AcDbSpline
210
0.0
220
0.0
230
1.0
 70
     8
 71
     3
 72
    78
 73
    74
 74
     0
 42
0.000000001
 43
0.00000001
 40
0.0
 40
0.0
 40
0.0
 40
0.0
 40
0.0143115764367417
 40
0.0259167973700482
 40
0.0348152675156765
 40
0.0401906376085473
 40
0.0438599769192268
 40
0.0473660537330041
 40
0.0510112066876117
 40
0.0547965624155953
 40
0.0587233389864197
 40
0.0683894659376608
 40
0.077707455173187
 40
0.0852158670448839
 40
0.0933445182303179
 40
0.1027451868572017
 40
0.1134566296112305
 40
0.1226944202311446
 40
0.1307315441732885
 40
0.1368927902189937
 40
0.1411405334428051
 40
0.1448802779420629
 40
0.1496066320294521
 40
0.1557621244964806
 40
0.1633783476635801
 40
0.1724960222261288
 40
0.182968204317371
 40
0.193668673277691
 40
0.2232706540577097
 40
0.2530769098417578
 40
0.2870811836606255
 40
0.3210758538023132
 40
0.3548205289000336
 40
0.3881165387167592
 40
0.4207810208342644
 40
0.4526693760593812
 40
0.4850661027209979
 40
0.5196040475493621
 40
0.5501673706217275
 40
0.5822785890997294
 40
0.6158921103063264
 40
0.6363702680421376
 40
0.6570114786857004
 40
0.6756556926050212
 40
0.6918760014564997
 40
0.7031024789162662
 40
0.7127736261334007
 40
0.7208916648754773
 40
0.7274599515630416
 40
0.7325314392326756
 40
0.7375743694364998
 40
0.7448895548926563
 40
0.7544631141790217
 40
0.7656409035824061
 40
0.7766527240752678
 40
0.7962552894062886
 40
0.814810811811399
 40
0.8318466174931405
 40
0.8481722947871646
 40
0.8662992904117558
 40
0.8853861493956153
 40
0.9039902368615336
 40
0.9167580919144142
 40
0.9293508320041496
 40
0.9415213743459712
 40
0.952913703604099
 40
0.9653765179799148
 40
0.9741847017821391
 40
0.9829431050239208
 40
0.9904418279674116
 40
0.9966934644816428
 40
0.9992678743549716
 40
1.0
 40
1.0
 40
1.0
 40
1.0
 10
171.199102698234
 20
-122.2118308285306
 30
0.0
 10
169.6393995388636
 20
-122.8927041078449
 30
0.0
 10
166.81493705442
 20
-124.1256957976609
 30
0.0
 10
162.7496469029089
 20
-125.6671343875515
 30
0.0
 10
159.6145962154883
 20
-126.7641923428838
 30
0.0
 10
157.3769255899522
 20
-127.4984363772858
 30
0.0
 10
155.7643481196623
 20
-128.0065717733687
 30
0.0
 10
154.3548903259631
 20
-128.4361515930807
 30
0.0
 10
152.9141682088463
 20
-128.8608260736177
 30
0.0
 10
151.4007343198961
 20
-129.2914675410471
 30
0.0
 10
149.0589437142312
 20
-129.9334800390945
 30
0.0
 10
145.9141314927768
 20
-130.7396572161153
 30
0.0
 10
142.1877066042677
 20
-131.605930019985
 30
0.0
 10
138.606138462051
 20
-132.3659856329261
 30
0.0
 10
134.9516270290672
 20
-133.0753390644628
 30
0.0
 10
130.7657594686167
 20
-133.8061487483123
 30
0.0
 10
126.3500492583986
 20
-134.4826156521829
 30
0.0
 10
122.0871825363335
 20
-135.0495050984262
 30
0.0
 10
118.4855912546323
 20
-135.4680933076893
 30
0.0
 10
115.6315978955442
 20
-135.7618747467238
 30
0.0
 10
113.4328704670238
 20
-135.9673728085322
 30
0.0
 10
111.4456545878828
 20
-136.1389018204253
 30
0.0
 10
109.1489096152279
 20
-136.3199847249994
 30
0.0
 10
106.2327861386309
 20
-136.5224362441209
 30
0.0
 10
102.6108173070187
 20
-136.7318053508722
 30
0.0
 10
98.290800983224
 20
-136.9223400286654
 30
0.0
 10
93.46628023074095
 20
-137.0604727207082
 30
0.0
 10
85.36116305674771
 20
-137.1622510211299
 30
0.0
 10
74.13767747960121
 20
-136.9728453101328
 30
0.0
 10
59.22256809012137
 20
-136.1267275262828
 30
0.0
 10
43.72365967235624
 20
-134.6248380956818
 30
0.0
 10
27.81395916542823
 20
-132.4364892967214
 30
0.0
 10
12.28375840748275
 20
-129.7151462286252
 30
0.0
 10
-2.738380749908232
 20
-126.5474484142163
 30
0.0
 10
-17.1546634146215
 20
-123.0141093980974
 30
0.0
 10
-31.0882671069177
 20
-119.1348380360001
 30
0.0
 10
-44.92069031023638
 20
-114.8252287061546
 30
0.0
 10
-58.19253977961018
 20
-110.228945698666
 30
0.0
 10
-71.04580782719316
 20
-105.3374389075722
 30
0.0
 10
-83.40920235173544
 20
-100.2157307208003
 30
0.0
 10
-94.12566010426903
 20
-95.38732995451517
 30
0.0
 10
-103.1567318379142
 20
-91.03781204093875
 30
0.0
 10
-110.2177570067539
 20
-87.46272460397606
 30
0.0
 10
-116.6310180237709
 20
-84.05738716536484
 30
0.0
 10
-121.8455180104019
 20
-81.16885535787128
 30
0.0
 10
-125.9713307193503
 20
-78.80536862524875
 30
0.0
 10
-129.1510384774311
 20
-76.9364474275944
 30
0.0
 10
-131.7862592720782
 20
-75.35344572774466
 30
0.0
 10
-133.899328826674
 20
-74.06109485443713
 30
0.0
 10
-135.6642241701508
 20
-72.9662153137307
 30
0.0
 10
-137.484871584862
 20
-71.82274298988858
 30
0.0
 10
-139.7531146459865
 20
-70.37657935966274
 30
0.0
 10
-142.6180033062057
 20
-68.51199053806822
 30
0.0
 10
-145.8092737090946
 20
-66.38144596311163
 30
0.0
 10
-149.931702463569
 20
-63.55270465631173
 30
0.0
 10
-154.656388685467
 20
-60.18413750684624
 30
0.0
 10
-159.7763228179468
 20
-56.35114888425738
 30
0.0
 10
-164.4187877024291
 20
-52.70862602914664
 30
0.0
 10
-168.8467390595119
 20
-49.07263252773977
 30
0.0
 10
-173.2485333082976
 20
-45.27751546953586
 30
0.0
 10
-177.6194059236359
 20
-41.29590737450096
 30
0.0
 10
-181.3674362566742
 20
-37.67401200129138
 30
0.0
 10
-184.4672427026741
 20
-34.51833142582217
 30
0.0
 10
-186.988109832951
 20
-31.83606336832377
 30
0.0
 10
-189.2971919404013
 20
-29.26554259672619
 30
0.0
 10
-191.4789004584029
 20
-26.72432749249541
 30
0.0
 10
-193.3338405645317
 20
-24.45745122909485
 30
0.0
 10
-194.9490995983497
 20
-22.39280782546806
 30
0.0
 10
-196.2345465433971
 20
-20.68419373894907
 30
0.0
 10
-197.3116287749361
 20
-19.19637097911493
 30
0.0
 10
-198.0504138696711
 20
-18.14620423612441
 30
0.0
 10
-198.4377004172502
 20
-17.57886170727382
 30
0.0
 10
-198.4406322673312
 20
-17.58407532812022
 30
0.0
 10
-198.4412814309708
 20
-17.58522971630202
 30
0.0
  0
SPLINE
  5
74
330
1F
100
AcDbEntity
  8
0
  6
Continuous
 62
     7
370
    25
100
AcDbSpline
210
0.0
220
0.0
230
1.0
 70
     8
 71
     3
 72
    15
 73
    11
 74
     0
 42
0.000000001
 43
0.00000001
 40
0.0
 40
0.0
 40
0.0
 40
0.0
 40
0.0712007651798398
 40
0.196816344016565
 40
0.2629295171577407
 40
0.3465480932551584
 40
0.4621216168526699
 40
0.6095669346001685
 40
0.7888366195510793
 40
1.0
 40
1.0
 40
1.0
 40
1.0
 10
185.0508496737165
 20
-114.6223169613507
 30
0.0
 10
184.9856923506502
 20
-114.6580808104771
 30
0.0
 10
184.8055815599948
 20
-114.7569408440067
 30
0.0
 10
184.2292382704201
 20
-115.1169194222449
 30
0.0
 10
183.1458070327527
 20
-115.8201234002529
 30
0.0
 10
181.8730714842882
 20
-116.6173971128583
 30
0.0
 10
180.1545984644866
 20
-117.6460421538434
 30
0.0
 10
177.8118985270036
 20
-118.9624651735719
 30
0.0
 10
174.8136142761224
 20
-120.5322401541666
 30
0.0
 10
172.4678144546372
 20
-121.6222860481109
 30
0.0
 10
171.199102698234
 20
-122.2118308285306
 30
0.0
  0
SPLINE
  5
75
330
1F
100
AcDbEntity
  8
0
  6
Continuous
 62
     7
370
    25
100
AcDbSpline
210
0.0
220
0.0
230
1.0
 70
     8
 71
     3
 72
    48
 73
    44
 74
     0
 42
0.000000001
 43
0.00000001
 40
0.0
 40
0.0
 40
0.0
 40
0.0
 40
0.0365214752606303
 40
0.0672545011012115
 40
0.0922136969457952
 40
0.1117719566876764
 40
0.1279673258201574
 40
0.1409885210442052
 40
0.1516754681358872
 40
0.1647045449412186
 40
0.1812953088990704
 40
0.2133776479607502
 40
0.2350206707620207
 40
0.2558697324180767
 40
0.2815757196296764
 40
0.3148783877043663
 40
0.3544415212278059
 40
0.3866595716049144
 40
0.4137368000232884
 40
0.4433105927852281
 40
0.4751674765271678
 40
0.5073622977703592
 40
0.5527753312596793
 40
0.592698863095186
 40
0.6318214101045847
 40
0.6510409212954206
 40
0.6736894113467161
 40
0.6990581061021404
 40
0.7236754849361751
 40
0.744817532050064
 40
0.7606633961152074
 40
0.7761533844830051
 40
0.7931081393011086
 40
0.8133185341186443
 40
0.8352399744238288
 40
0.8574972557370976
 40
0.8756121139706186
 40
0.8892307624647289
 40
0.9029951049437432
 40
0.9192222541926394
 40
0.9407760757291928
 40
0.9677001943197314
 40
1.0
 40
1.0
 40
1.0
 40
1.0
 10
76.21705994900425
 20
-173.641966179539
 30
0.0
 10
78.30734048673432
 20
-173.4051217523223
 30
0.0
 10
82.15660379615356
 20
-172.9689714139968
 30
0.0
 10
87.5229004271291
 20
-172.2176805154519
 30
0.0
 10
91.94985723758421
 20
-171.5262186529647
 30
0.0
 10
95.57450822227246
 20
-170.9059284962854
 30
0.0
 10
98.46580151521725
 20
-170.3759273850393
 30
0.0
 10
100.8163521827796
 20
-169.9217020226421
 30
0.0
 10
102.919255424539
 20
-169.4989082780915
 30
0.0
 10
105.242095162443
 20
-169.013573633343
 30
0.0
 10
108.8157473150047
 20
-168.2310479401209
 30
0.0
 10
112.908226547336
 20
-167.2657565921876
 30
0.0
 10
117.1747449018048
 20
-166.1786336791542
 30
0.0
 10
121.0436294602808
 20
-165.1348312918895
 30
0.0
 10
125.6002683054217
 20
-163.8287099009648
 30
0.0
 10
131.1770150223717
 20
-162.1079867387349
 30
0.0
 10
137.0909909500544
 20
-160.1191752560383
 30
0.0
 10
142.613188148491
 20
-158.1046547771721
 30
0.0
 10
147.5190195425218
 20
-156.1959499841921
 30
0.0
 10
152.3680748964823
 20
-154.1936454781637
 30
0.0
 10
157.4389589513379
 20
-151.9638887157109
 30
0.0
 10
163.2969555262105
 20
-149.2184000893498
 30
0.0
 10
169.4892093636093
 20
-146.0892868153786
 30
0.0
 10
175.9172687887369
 20
-142.5669515504296
 30
0.0
 10
180.8909773523959
 20
-139.6336068858284
 30
0.0
 10
184.9311858319004
 20
-137.120213240036
 30
0.0
 10
188.2452839283856
 20
-134.9792114750972
 30
0.0
 10
191.781867618889
 20
-132.5942385323333
 30
0.0
 10
195.1924866740564
 20
-130.1898148261014
 30
0.0
 10
198.1077196155995
 20
-128.0498347534826
 30
0.0
 10
200.5587199854906
 20
-126.1910454020179
 30
0.0
 10
202.7908133564294
 20
-124.4510328147907
 30
0.0
 10
205.1952353797371
 20
-122.5225544791535
 30
0.0
 10
207.8579912508178
 20
-120.3161209572056
 30
0.0
 10
210.7129945199137
 20
-117.8611722389316
 30
0.0
 10
213.4262071044873
 20
-115.4357034870337
 30
0.0
 10
215.7413047192397
 20
-113.2908850334199
 30
0.0
 10
217.6624523985635
 20
-111.4602097307442
 30
0.0
 10
219.4820434138425
 20
-109.6834109528628
 30
0.0
 10
221.5998979538136
 20
-107.5595749226637
 30
0.0
 10
224.2095746253082
 20
-104.8495823604049
 30
0.0
 10
227.3969189565895
 20
-101.4042833101235
 30
0.0
 10
229.6432588200159
 20
-98.79770012277251
 30
0.0
 10
230.8683775870321
 20
-97.37611025892097
 30
0.0
  0
SPLINE
  5
76
330
1F
100
AcDbEntity
  8
0
  6
Continuous
 62
     7
370
    25
100
AcDbSpline
210
0.0
220
0.0
230
1.0
 70
     8
 71
     3
 72
    48
 73
    44
 74
     0
 42
0.000000001
 43
0.00000001
 40
0.0
 40
0.0
 40
0.0
 40
0.0
 40
0.0217429688935752
 40
0.0388994546009786
 40
0.0514986143234162
 40
0.0612354281581339
 40
0.0729665069479173
 40
0.0869880529520056
 40
0.1023363729047962
 40
0.1207504916278101
 40
0.1358691610405879
 40
0.1495683205990236
 40
0.1624898777603045
 40
0.1821184679620552
 40
0.2048018609059412
 40
0.2321771243727601
 40
0.2590163178039899
 40
0.2817607065227268
 40
0.3065896583126898
 40
0.3305331152743601
 40
0.3576492224175041
 40
0.3891887114852365
 40
0.4228141996534378
 40
0.4557508167641445
 40
0.4868237826723092
 40
0.5300751628524917
 40
0.5729540140814725
 40
0.6174702541649396
 40
0.66392948172848
 40
0.7127252629116443
 40
0.7547828226038201
 40
0.7950846052940406
 40
0.8312854789821746
 40
0.8486625549716794
 40
0.8659329086791173
 40
0.8796289266125369
 40
0.88573524417601
 40
0.8944781020388574
 40
0.9058289312735867
 40
0.919749510835332
 40
0.9422225936087837
 40
0.9690328756873157
 40
1.0
 40
1.0
 40
1.0
 40
1.0
 10
-239.6761606784714
 20
20.05272658543963
 30
0.0
 10
-239.0919280283278
 20
18.69600595931421
 30
0.0
 10
-238.0467013363379
 20
16.26875268675066
 30
0.0
 10
-236.617491336196
 20
13.07440838990891
 30
0.0
 10
-235.503166728826
 20
10.63352207601659
 30
0.0
 10
-234.5299305492906
 20
8.537437559667412
 30
0.0
 10
-233.5037450958634
 20
6.361443825593789
 30
0.0
 10
-232.297262301543
 20
3.85042140503699
 30
0.0
 10
-230.8703264396848
 20
0.9423783875460029
 30
0.0
 10
-229.3823216721511
 20
-2.018378607067654
 30
0.0
 10
-227.9186068654261
 20
-4.863098591939501
 30
0.0
 10
-226.6054272112181
 20
-7.364696125598737
 30
0.0
 10
-225.1302986232875
 20
-10.12375467939952
 30
0.0
 10
-223.3400326972586
 20
-13.39867153484819
 30
0.0
 10
-221.0326182372218
 20
-17.50061093360723
 30
0.0
 10
-218.4236348641759
 20
-21.9860329200197
 30
0.0
 10
-215.741154434358
 20
-26.43542504716438
 30
0.0
 10
-213.0874404938618
 20
-30.69652164943023
 30
0.0
 10
-210.4813276108189
 20
-34.7540554218185
 30
0.0
 10
-207.6562351930235
 20
-39.01654126327698
 30
0.0
 10
-204.5136103166287
 20
-43.60581159196688
 30
0.0
 10
-200.9140971312168
 20
-48.66982242441816
 30
0.0
 10
-196.9830996054989
 20
-53.97645887334726
 30
0.0
 10
-192.9658027449461
 20
-59.17614003656514
 30
0.0
 10
-188.441943889234
 20
-64.79964535767124
 30
0.0
 10
-183.3598829373545
 20
-70.82807245466077
 30
0.0
 10
-177.519227848458
 20
-77.38983634996383
 30
0.0
 10
-171.3550699547325
 20
-83.94215799674411
 30
0.0
 10
-164.7263760821873
 20
-90.5911589173026
 30
0.0
 10
-158.0219379609737
 20
-96.91598673129265
 30
0.0
 10
-151.4461049210866
 20
-102.7625474569257
 30
0.0
 10
-145.367140077186
 20
-107.8813242622168
 30
0.0
 10
-140.4533584393931
 20
-111.8124999098556
 30
0.0
 10
-136.6953212876213
 20
-114.7115599618005
 30
0.0
 10
-134.1097482285123
 20
-116.659324414365
 30
0.0
 10
-132.1076502676707
 20
-118.1354515420605
 30
0.0
 10
-130.5688399453775
 20
-119.2544343314201
 30
0.0
 10
-129.1545159186692
 20
-120.2722995956983
 30
0.0
 10
-127.3085704759009
 20
-121.5821397420345
 30
0.0
 10
-124.6985415910436
 20
-123.4016016813556
 30
0.0
 10
-121.2030540825989
 20
-125.7737653653506
 30
0.0
 10
-116.7012558862553
 20
-128.730111092059
 30
0.0
 10
-113.3837634949267
 20
-130.7890008462783
 30
0.0
 10
-111.6056774625936
 20
-131.8925099677039
 30
0.0
  0
SPLINE
  5
77
330
1F
100
AcDbEntity
  8
0
  6
Continuous
 62
     7
370
    25
100
AcDbSpline
210
0.0
220
0.0
230
1.0
 70
    11
 71
     3
 72
    35
 73
    31
 74
     0
 42
0.000000001
 43
0.00000001
 40
0.0
 40
0.0
 40
0.0
 40
0.0
 40
0.0062500000000001
 40
0.0083333333333333
 40
0.0416666666666666
 40
0.0833333333333334
 40
0.1250000000000001
 40
0.1666666666666666
 40
0.2083333333333334
 40
0.25
 40
0.2916666666666666
 40
0.3333333333333334
 40
0.375
 40
0.4166666666666666
 40
0.4583333333333334
 40
0.5000000000020915
 40
0.5416666666666667
 40
0.5833333333333333
 40
0.625
 40
0.6666666666666667
 40
0.7083333333333333
 40
0.7500000000009739
 40
0.7916666666666666
 40
0.8333333333333334
 40
0.875
 40
0.9166666666666666
 40
0.9583333333333334
 40
0.9916666666666667
 40
0.99375
 40
1.0
 40
1.0
 40
1.0
 40
1.0
 10
-23.33452377915602
 20
-84.51416358121526
 30
0.0
 10
-23.02420512370817
 20
-84.3350204345943
 30
0.0
 10
-22.60165605361349
 20
-84.10123776285728
 30
0.0
 10
-20.43393413010219
 20
-82.96682922062551
 30
0.0
 10
-16.00090673983254
 20
-81.14122987914475
 30
0.0
 10
-8.42429702353653
 20
-79.34370581917823
 30
0.0
 10
0.0000000000000798
 20
-78.70173294061878
 30
0.0
 10
8.42429702353668
 20
-79.34370581917827
 30
0.0
 10
16.54209314813952
 20
-81.26962445485671
 30
0.0
 10
23.62755254018597
 20
-84.34500167818514
 30
0.0
 10
28.95483936605334
 20
-88.43535031969466
 30
0.0
 10
32.29098977313673
 20
-93.12165427164354
 30
0.0
 10
33.40303990883118
 20
-97.98489742629003
 30
0.0
 10
32.29098977313669
 20
-102.8481405809365
 30
0.0
 10
28.95483936605327
 20
-107.5344445328854
 30
0.0
 10
23.62755254018586
 20
-111.6247931743949
 30
0.0
 10
16.54209314813939
 20
-114.7001703977233
 30
0.0
 10
8.424297023536534
 20
-116.6260890334017
 30
0.0
 10
-0.0000000000000729
 20
-117.2680619119612
 30
0.0
 10
-8.424297023536674
 20
-116.6260890334017
 30
0.0
 10
-16.54209314813952
 20
-114.7001703977233
 30
0.0
 10
-23.62755254018596
 20
-111.6247931743949
 30
0.0
 10
-28.95483936605334
 20
-107.5344445328853
 30
0.0
 10
-32.29098977313674
 20
-102.8481405809365
 30
0.0
 10
-33.40303990883118
 20
-97.98489742628999
 30
0.0
 10
-32.29098977313669
 20
-93.12165427164346
 30
0.0
 10
-29.17724939319217
 20
-88.74777058315784
 30
0.0
 10
-26.01487592973228
 20
-86.18863834341659
 30
0.0
 10
-24.04980977903677
 20
-84.93723911375507
 30
0.0
 10
-23.64484243460387
 20
-84.69330672783622
 30
0.0
 10
-23.33452377915602
 20
-84.51416358121526
 30
0.0
  0
LWPOLYLINE
  5
78
330
1F
100
AcDbEntity
  8
0
  6
Continuous
 62
     7
370
    25
100
AcDbPolyline
 90
       95
 70
   128
 43
0.0
 10
-205.0609665441
 20
118.3791762143
 10
-213.3500224242
 20
113.116874783
 10
-220.7815617734
 20
107.4078431352
 10
-227.3299859885
 20
101.2856070516
 10
-232.9696964666
 20
94.7836923129
 10
-237.6769787354
 20
87.9338120577
 10
-241.4406440249
 20
80.7556289802
 10
-244.2546133282
 20
73.2638898893
 10
-246.2458433927
 20
64.6784027028
 10
-247.0726710209
 20
55.753721945
 10
-246.7282250896
 20
46.5335526212
 10
-245.2061267876
 20
37.0714857078
 10
-242.5
 20
27.4211663241
 10
-238.3390797186
 20
17.0412211131
 10
-232.8924701074
 20
6.5807560795
 10
-226.2135503726
 20
-3.8893307807
 10
-218.3553524136
 20
-14.2987104951
 10
-209.3594341463
 20
-24.5958529499
 10
-199.2535255353
 20
-34.7518836063
 10
-188.7326118149
 20
-44.1735916493
 10
-177.2751389347
 20
-53.4196127021
 10
-164.9360326522
 20
-62.4434242208
 10
-151.7835003948
 20
-71.1888824406
 10
-137.885822331
 20
-79.599790903
 10
-122.413505586
 20
-88.0955610197
 10
-106.2959319226
 20
-96.1047592857
 10
-89.6492405717
 20
-103.5803584915
 10
-72.5886726261
 20
-110.475744618
 10
-55.1997973572
 20
-116.7579542327
 10
-37.5324248346
 20
-122.4104750032
 10
-20.6623758983
 20
-127.1492951117
 10
-3.6322347326
 20
-131.3004627246
 10
13.4734507884
 20
-134.841890035
 10
30.5518419843
 20
-137.747768745
 10
47.5
 20
-139.9922701807
 10
62.7090376739
 20
-141.4407646398
 10
77.6555544012
 20
-142.3240857777
 10
92.2697333964
 20
-142.6449990737
 10
106.4817578744
 20
-142.4062700071
 10
120.2260835144
 20
-141.6107349631
 10
133.4655693417
 20
-140.2617017116
 10
146.174661306
 20
-138.3626703197
 10
157.3369302365
 20
-136.141723243
 10
168.0117421872
 20
-133.4644977765
 10
178.1660485654
 20
-130.3383292796
 10
187.7555095953
 20
-126.7744644286
 10
196.7353930106
 20
-122.784285861
 10
205.0609665447
 20
-118.3791762139
 10
213.3500224247
 20
-113.1168747826
 10
220.7815617738
 20
-107.4078431347
 10
227.3299859889
 20
-101.2856070511
 10
232.9696964668
 20
-94.7836923124
 10
237.6769787355
 20
-87.9338120574
 10
241.440644025
 20
-80.75562898
 10
244.2546133283
 20
-73.2638898891
 10
246.2458433928
 20
-64.6784027027
 10
247.0726710209
 20
-55.7537219449
 10
246.7282250896
 20
-46.5335526212
 10
245.2061267876
 20
-37.0714857078
 10
242.5
 20
-27.4211663241
 10
238.3390797186
 20
-17.0412211131
 10
232.8924701074
 20
-6.5807560795
 10
226.2135503726
 20
3.8893307807
 10
218.3553524137
 20
14.298710495
 10
209.3594341464
 20
24.5958529498
 10
199.2535255355
 20
34.7518836062
 10
188.7326118152
 20
44.1735916491
 10
177.275138935
 20
53.4196127018
 10
164.9360326526
 20
62.4434242206
 10
151.7835003952
 20
71.1888824403
 10
137.8858223314
 20
79.5997909027
 10
122.4135055865
 20
88.0955610195
 10
106.2959319231
 20
96.1047592855
 10
89.6492405721
 20
103.5803584914
 10
72.5886726265
 20
110.4757446178
 10
55.1997973575
 20
116.7579542326
 10
37.5324248348
 20
122.4104750031
 10
20.6623758984
 20
127.1492951116
 10
3.6322347326
 20
131.3004627246
 10
-13.4734507884
 20
134.841890035
 10
-30.5518419843
 20
137.747768745
 10
-47.5
 20
139.9922701807
 10
-62.7090376739
 20
141.4407646398
 10
-77.6555544012
 20
142.3240857777
 10
-92.2697333964
 20
142.6449990737
 10
-106.4817578742
 20
142.4062700071
 10
-120.2260835141
 20
141.6107349632
 10
-133.4655693413
 20
140.2617017116
 10
-146.1746613054
 20
138.3626703198
 10
-157.3369302358
 20
136.1417232431
 10
-168.0117421865
 20
133.4644977767
 10
-178.1660485646
 20
130.3383292798
 10
-187.7555095946
 20
126.7744644289
 10
-196.7353930099
 20
122.7842858613
 10
-205.0609665441
 20
118.3791762143
  0
SPLINE
  5
79
330
1F
100
AcDbEntity
  8
0
  6
Continuous
 62
     7
370
    25
100
AcDbSpline
210
0.0
220
0.0
230
1.0
 70
     8
 71
     3
 72
    22
 73
    18
 74
     0
 42
0.000000001
 43
0.00000001
 40
0.0
 40
0.0
 40
0.0
 40
0.0
 40
0.0252477906242849
 40
0.0794049105377836
 40
0.1348174327071001
 40
0.1914565183711044
 40
0.2492814187870131
 40
0.3244893194593467
 40
0.4012946859417627
 40
0.4793978578499948
 40
0.558544279946182
 40
0.6387524313318297
 40
0.7186348201881175
 40
0.7995954741272104
 40
0.8813109480306694
 40
0.9633944926829215
 40
1.0
 40
1.0
 40
1.0
 40
1.0
 10
76.43944003974532
 20
-173.5540502168452
 30
0.0
 10
74.70692350843676
 20
-173.7544638989158
 30
0.0
 10
69.25811722589958
 20
-174.3847697633844
 30
0.0
 10
59.85084612920927
 20
-174.910102448201
 30
0.0
 10
48.22707511292502
 20
-175.1712607496447
 30
0.0
 10
36.33765224521511
 20
-174.9231275158549
 30
0.0
 10
23.12984663939112
 20
-174.1307881946987
 30
0.0
 10
8.668689493850037
 20
-172.6112672946036
 30
0.0
 10
-6.907243812118407
 20
-170.2246137410736
 30
0.0
 10
-22.38621051226618
 20
-167.1132044497058
 30
0.0
 10
-37.64599910995616
 20
-163.3004982555935
 30
0.0
 10
-52.5038394652909
 20
-158.8332589412997
 30
0.0
 10
-66.89098753837696
 20
-153.7401697079451
 30
0.0
 10
-80.74772951121743
 20
-148.0690311448028
 30
0.0
 10
-93.98845215170154
 20
-141.7952089265197
 30
0.0
 10
-104.3654704631622
 20
-136.3324705034386
 30
0.0
 10
-109.9751581407741
 20
-132.7965091264498
 30
0.0
 10
-111.70527106966
 20
-131.7059649026092
 30
0.0
  0
SPLINE
  5
7A
330
1F
100
AcDbEntity
  8
0
  6
Continuous
 62
     7
370
    25
100
AcDbSpline
210
0.0
220
0.0
230
1.0
 70
     8
 71
     3
 72
    17
 73
    13
 74
     0
 42
0.000000001
 43
0.00000001
 40
0.0
 40
0.0
 40
0.0
 40
0.0
 40
0.0400025834830439
 40
0.1470255163200567
 40
0.2588890868961319
 40
0.3733181563885827
 40
0.4898496238118039
 40
0.6080831955029995
 40
0.7280051585081692
 40
0.847493993589385
 40
0.968612383383841
 40
1.0
 40
1.0
 40
1.0
 40
1.0
 10
42.3851654176275
 20
-174.9677682980913
 30
0.0
 10
40.69658152668035
 20
-174.9962878587168
 30
0.0
 10
34.49035940801484
 20
-175.1011086668023
 30
0.0
 10
23.62281123793176
 20
-174.5723590698931
 30
0.0
 10
9.79998932225877
 20
-173.3846640739286
 30
0.0
 10
-4.15295570679762
 20
-171.4635350361825
 30
0.0
 10
-18.03474588899981
 20
-168.896201489681
 30
0.0
 10
-31.73115123580359
 20
-165.6757074758209
 30
0.0
 10
-45.09264830159199
 20
-161.8520338297039
 30
0.0
 10
-57.99724647193384
 20
-157.3938924724921
 30
0.0
 10
-67.45184679957926
 20
-153.7404172893011
 30
0.0
 10
-72.40912554085185
 20
-151.4069818987114
 30
0.0
 10
-73.42939463223149
 20
-150.9267321225733
 30
0.0
  0
SPLINE
  5
7B
330
1F
100
AcDbEntity
  8
0
  6
Continuous
 62
     7
370
    25
100
AcDbSpline
210
0.0
220
0.0
230
1.0
 70
     8
 71
     3
 72
    22
 73
    18
 74
     0
 42
0.000000001
 43
0.00000001
 40
0.0
 40
0.0
 40
0.0
 40
0.0
 40
0.0680236770682705
 40
0.1357306794974119
 40
0.2023757326562375
 40
0.2678910686487286
 40
0.3334064046412197
 40
0.4000514578000453
 40
0.4677584602291867
 40
0.5357821372974572
 40
0.6038058143657278
 40
0.6715128167948691
 40
0.7381578699536948
 40
0.8036732059461859
 40
0.8691885419385745
 40
0.9358335950967519
 40
1.0
 40
1.0
 40
1.0
 40
1.0
 10
-16.26345596729056
 20
-96.76161225918634
 30
0.0
 10
-15.11636065293938
 20
-96.17588213046788
 30
0.0
 10
-12.8275101647642
 20
-95.00714865707344
 30
0.0
 10
-8.749790305000966
 20
-93.79810110425176
 30
0.0
 10
-4.444819364652165
 20
-93.02982818448787
 30
0.0
 10
0.000558744377252
 20
-92.77503849407901
 30
0.0
 10
4.442565117666915
 20
-93.03095322295738
 30
0.0
 10
8.757880985003329
 20
-93.79347973860713
 30
0.0
 10
12.79688394781261
 20
-95.0248121429296
 30
0.0
 10
16.37824495995098
 20
-96.69536278548252
 30
0.0
 10
19.27194078407376
 20
-98.76279344008762
 30
0.0
 10
21.40520638600731
 20
-101.0945835845209
 30
0.0
 10
22.72498703347835
 20
-103.5853233022604
 30
0.0
 10
23.17230304029665
 20
-106.1512426282842
 30
0.0
 10
22.71594543539825
 20
-108.7115071381862
 30
0.0
 10
21.46490837905397
 20
-111.1751664373212
 30
0.0
 10
19.98766771243135
 20
-112.6450610280668
 30
0.0
 10
19.26304294210321
 20
-113.3660823580988
 30
0.0
  0
SPLINE
  5
7C
330
1F
100
AcDbEntity
  8
0
  6
Continuous
 62
     7
370
    25
100
AcDbSpline
210
0.0
220
0.0
230
1.0
 70
     8
 71
     3
 72
    14
 73
    10
 74
     0
 42
0.000000001
 43
0.00000001
 40
0.0
 40
0.0
 40
0.0
 40
0.0
 40
0.1382247648292393
 40
0.2817889369858898
 40
0.4229195165185656
 40
0.5640500960511386
 40
0.707614268207139
 40
0.8534660500301499
 40
1.0
 40
1.0
 40
1.0
 40
1.0
 10
-19.26304294211939
 20
-113.3660823580757
 30
0.0
 10
-19.98765566022323
 20
-112.6450679838909
 30
0.0
 10
-21.46487175686978
 20
-111.1751875735022
 30
0.0
 10
-22.71609746426975
 20
-108.7114193960506
 30
0.0
 10
-23.17174441023871
 20
-106.1515650367903
 30
0.0
 10
-22.72708879037075
 20
-103.5841102914587
 30
0.0
 10
-21.39715738569203
 20
-101.099228995395
 30
0.0
 10
-19.30255645534075
 20
-98.74512387037078
 30
0.0
 10
-17.27806391806832
 20
-97.42381038625743
 30
0.0
 10
-16.26345596729056
 20
-96.76161225918634
 30
0.0
  0
SPLINE
  5
7D
330
1F
100
AcDbEntity
  8
0
  6
Continuous
 62
     7
370
    25
100
AcDbSpline
210
0.0
220
0.0
230
1.0
 70
     8
 71
     3
 72
    17
 73
    13
 74
     0
 42
0.000000001
 43
0.00000001
 40
0.0
 40
0.0
 40
0.0
 40
0.0
 40
0.1064324833930154
 40
0.212369485363639
 40
0.3166449203189473
 40
0.4191527559804974
 40
0.5216605916420476
 40
0.6259360265973559
 40
0.7318730285679795
 40
0.8383055119609949
 40
0.9447379953540104
 40
1.0
 40
1.0
 40
1.0
 40
1.0
 10
-16.26345596729056
 20
-109.0097244374725
 30
0.0
 10
-15.11635989997567
 20
-108.4239940807291
 30
0.0
 10
-12.82750790937839
 20
-107.2552601523461
 30
0.0
 10
-8.749799218957559
 20
-106.0462159820106
 30
0.0
 10
-4.44478675188165
 20
-105.2779304864326
 30
0.0
 10
0.0004392223148138
 20
-105.023186868024
 30
0.0
 10
4.443014715116182
 20
-105.2789292466669
 30
0.0
 10
8.756159206357271
 20
-106.0421133345378
 30
0.0
 10
12.80343300419666
 20
-107.2709410270443
 30
0.0
 10
16.35369023026128
 20
-108.9509110353829
 30
0.0
 10
18.88497806647582
 20
-110.6601702468584
 30
0.0
 10
19.91196795475125
 20
-111.8632033838603
 30
0.0
 10
20.26296025303894
 20
-112.2743616342903
 30
0.0
  0
SPLINE
  5
7E
330
1F
100
AcDbEntity
  8
0
  6
Continuous
 62
     7
370
    25
100
AcDbSpline
210
0.0
220
0.0
230
1.0
 70
     8
 71
     3
 72
     9
 73
     5
 74
     0
 42
0.000000001
 43
0.00000001
 40
0.0
 40
0.0
 40
0.0
 40
0.0
 40
0.3417680176746314
 40
1.0
 40
1.0
 40
1.0
 40
1.0
 10
-20.26296025303937
 20
-112.2743616342907
 30
0.0
 10
-19.91463668134775
 20
-111.8614639460328
 30
0.0
 10
-18.89545538386536
 20
-110.6533412812288
 30
0.0
 10
-17.30822305170162
 20
-109.6621549687737
 30
0.0
 10
-16.26345596729056
 20
-109.0097244374725
 30
0.0
  0
SPLINE
  5
7F
330
1B
100
AcDbEntity
 67
     1
  8
0
  6
Continuous
 62
     7
370
    25
100
AcDbSpline
210
0.0
220
0.0
230
1.0
 70
    11
 71
     3
 72
    35
 73
    31
 74
     0
 42
0.000000001
 43
0.00000001
 40
0.0
 40
0.0
 40
0.0
 40
0.0
 40
0.0062500000000001
 40
0.0083333333333333
 40
0.0416666666666666
 40
0.0833333333333334
 40
0.1250000000000001
 40
0.1666666666666666
 40
0.2083333333333334
 40
0.25
 40
0.2916666666666666
 40
0.3333333333333334
 40
0.375
 40
0.4166666666666666
 40
0.4583333333333334
 40
0.5000000000020915
 40
0.5416666666666667
 40
0.5833333333333333
 40
0.625
 40
0.6666666666666667
 40
0.7083333333333333
 40
0.7500000000009739
 40
0.7916666666666666
 40
0.8333333333333334
 40
0.875
 40
0.9166666666666666
 40
0.9583333333333334
 40
0.9916666666666667
 40
0.99375
 40
1.0
 40
1.0
 40
1.0
 40
1.0
 10
-33.0
 20
0.0000000000000064
 30
0.0
 10
-33.0
 20
0.4388568511917402
 30
0.0
 10
-32.98756784255959
 20
1.023999319447375
 30
0.0
 10
-32.84426857135496
 20
3.946321791925901
 30
0.0
 10
-31.94578056316644
 20
9.317081241428124
 30
0.0
 10
-28.7900553918828
 20
16.87630028773806
 30
0.0
 10
-23.61951603177938
 20
23.61951603177941
 30
0.0
 10
-16.87630028773803
 20
28.79005539188281
 30
0.0
 10
-8.777137023834543
 20
32.17118950397243
 30
0.0
 10
0.0000000000000134
 20
33.41440524801379
 30
0.0
 10
8.777137023834566
 20
32.17118950397242
 30
0.0
 10
16.87630028773805
 20
28.7900553918828
 30
0.0
 10
23.61951603177941
 20
23.61951603177939
 30
0.0
 10
28.79005539188281
 20
16.87630028773804
 30
0.0
 10
32.17118950397243
 20
8.777137023834543
 30
0.0
 10
33.4144052480138
 20
-0.0000000000000213
 30
0.0
 10
32.17118950397242
 20
-8.777137023834568
 30
0.0
 10
28.7900553918828
 20
-16.87630028773805
 30
0.0
 10
23.6195160317794
 20
-23.61951603177942
 30
0.0
 10
16.87630028773804
 20
-28.79005539188282
 30
0.0
 10
8.77713702383455
 20
-32.17118950397244
 30
0.0
 10
0.0000000000000043
 20
-33.4144052480138
 30
0.0
 10
-8.777137023834559
 20
-32.17118950397242
 30
0.0
 10
-16.87630028773805
 20
-28.79005539188281
 30
0.0
 10
-23.61951603177941
 20
-23.6195160317794
 30
0.0
 10
-28.79005539188281
 20
-16.87630028773804
 30
0.0
 10
-31.94578056316646
 20
-9.317081241428106
 30
0.0
 10
-32.84426857135495
 20
-3.94632179192588
 30
0.0
 10
-32.98756784255959
 20
-1.023999319447354
 30
0.0
 10
-33.0
 20
-0.4388568511917196
 30
0.0
 10
-33.0
 20
0.0000000000000064
 30
0.0
  0
LWPOLYLINE
  5
80
330
1B
100
AcDbEntity
 67
     1
  8
0
  6
Continuous
 62
     7
370
    25
100
AcDbPolyline
 90
       95
 70
   128
 43
0.0
 10
-290.0
 20
0.0
 10
-289.4155725304
 20
-12.3069227145
 10
-287.6775994761
 20
-24.5546795057
 10
-284.8090448687
 20
-36.6841044503
 10
-280.8328727399
 20
-48.6360316251
 10
-275.7711591383
 20
-60.3548476531
 10
-269.6400768022
 20
-71.8085564859
 10
-262.4533902603
 20
-82.9747965807
 10
-253.3452316928
 20
-94.8989797112
 10
-242.9982456625
 20
-106.4152765871
 10
-231.4611068333
 20
-117.4652953087
 10
-218.7949470903
 20
-127.9788829897
 10
-205.0609665441
 20
-137.8858223314
 10
-189.4045893288
 20
-147.6577696529
 10
-172.7404655435
 20
-156.619224257
 10
-155.1931813536
 20
-164.7210895759
 10
-136.8863803569
 20
-171.9147204432
 10
-117.912566519
 20
-178.1663846615
 10
-98.3267156615
 20
-183.4603225012
 10
-79.3468671896
 20
-187.5613521012
 10
-59.9199664418
 20
-190.7849393113
 10
-40.1418362151
 20
-193.1129380857
 10
-20.1294756835
 20
-194.5248091194
 10
0.0000000006
 20
-195.0
 10
21.3468585125
 20
-194.4656983299
 10
42.5539916116
 20
-192.8791401616
 10
63.4816738849
 20
-190.2648457578
 10
83.9913211068
 20
-186.6472064093
 10
103.9820504958
 20
-182.0463525587
 10
123.3984154279
 20
-176.4772796577
 10
141.1318159809
 20
-170.3528282072
 10
158.2586164628
 20
-163.3953720834
 10
174.6919776386
 20
-155.6376408017
 10
190.3275695745
 20
-147.1207402849
 10
205.0609665441
 20
-137.8858223314
 10
217.5896086199
 20
-128.9056370581
 10
229.240352219
 20
-119.4188139912
 10
239.9672167925
 20
-109.4781084267
 10
249.7242217915
 20
-99.1362756603
 10
258.4684946075
 20
-88.4431367504
 10
266.1778242181
 20
-77.4290059453
 10
272.8384283353
 20
-66.1162398411
 10
278.0109560879
 20
-55.5029354853
 10
282.2799145305
 20
-44.6754300914
 10
285.630919696
 20
-33.6660774604
 10
288.0463944305
 20
-22.5200063505
 10
289.5086505824
 20
-11.282789588
 10
290.0
 20
0.0000000009
 10
289.4155725303
 20
12.3069227153
 10
287.6775994759
 20
24.5546795065
 10
284.8090448684
 20
36.6841044511
 10
280.8328727396
 20
48.6360316258
 10
275.771159138
 20
60.3548476537
 10
269.640076802
 20
71.8085564863
 10
262.4533902601
 20
82.974796581
 10
253.3452316927
 20
94.8989797114
 10
242.9982456624
 20
106.4152765871
 10
231.4611068333
 20
117.4652953087
 10
218.7949470903
 20
127.9788829897
 10
205.0609665441
 20
137.8858223314
 10
189.4045893288
 20
147.6577696529
 10
172.7404655435
 20
156.619224257
 10
155.1931813536
 20
164.7210895759
 10
136.886380357
 20
171.9147204432
 10
117.9125665192
 20
178.1663846614
 10
98.3267156618
 20
183.4603225011
 10
79.34686719
 20
187.5613521011
 10
59.9199664423
 20
190.7849393112
 10
40.1418362156
 20
193.1129380856
 10
20.129475684
 20
194.5248091193
 10
0.0
 20
195.0
 10
-21.3468585119
 20
194.46569833
 10
-42.553991611
 20
192.8791401617
 10
-63.4816738844
 20
190.2648457579
 10
-83.9913211064
 20
186.6472064094
 10
-103.9820504955
 20
182.0463525588
 10
-123.3984154277
 20
176.4772796578
 10
-141.1318159808
 20
170.3528282072
 10
-158.2586164628
 20
163.3953720834
 10
-174.6919776386
 20
155.6376408017
 10
-190.3275695745
 20
147.1207402849
 10
-205.0609665441
 20
137.8858223314
 10
-217.5896086199
 20
128.9056370581
 10
-229.240352219
 20
119.4188139913
 10
-239.9672167925
 20
109.4781084267
 10
-249.7242217915
 20
99.1362756604
 10
-258.4684946073
 20
88.4431367507
 10
-266.1778242179
 20
77.4290059457
 10
-272.838428335
 20
66.1162398416
 10
-278.0109560875
 20
55.5029354859
 10
-282.2799145302
 20
44.6754300921
 10
-285.6309196957
 20
33.6660774612
 10
-288.0463944303
 20
22.5200063514
 10
-289.5086505823
 20
11.2827895888
 10
-290.0
 20
0.0
  0
SPLINE
  5
81
330
1B
100
AcDbEntity
 67
     1
  8
0
  6
Continuous
 62
     7
370
    25
100
AcDbSpline
210
0.0
220
0.0
230
1.0
 70
    11
 71
     3
 72
    35
 73
    31
 74
     0
 42
0.000000001
 43
0.00000001
 40
0.0
 40
0.0
 40
0.0
 40
0.0
 40
0.0062500000000001
 40
0.0083333333333333
 40
0.0416666666666666
 40
0.0833333333333334
 40
0.1250000000000001
 40
0.1666666666666666
 40
0.2083333333333334
 40
0.25
 40
0.2916666666666666
 40
0.3333333333333334
 40
0.375
 40
0.4166666666666666
 40
0.4583333333333334
 40
0.5000000000020915
 40
0.5416666666666667
 40
0.5833333333333333
 40
0.625
 40
0.6666666666666667
 40
0.7083333333333333
 40
0.7500000000009739
 40
0.7916666666666666
 40
0.8333333333333334
 40
0.875
 40
0.9166666666666666
 40
0.9583333333333334
 40
0.9916666666666667
 40
0.99375
 40
1.0
 40
1.0
 40
1.0
 40
1.0
 10
-23.0
 20
0.0000000000000066
 30
0.0
 10
-23.0
 20
0.3058699265881849
 30
0.0
 10
-22.99133516299608
 20
0.7136964953724153
 30
0.0
 10
-22.89145991336859
 20
2.75046670346351
 30
0.0
 10
-22.26524099857055
 20
6.493723289480213
 30
0.0
 10
-20.06579618222134
 20
11.76226989751441
 30
0.0
 10
-16.46208693124018
 20
16.4620869312402
 30
0.0
 10
-11.76226989751438
 20
20.06579618222135
 30
0.0
 10
-6.117398531763469
 20
22.42234419973835
 30
0.0
 10
0.0000000000000087
 20
23.28882790013082
 30
0.0
 10
6.117398531763485
 20
22.42234419973835
 30
0.0
 10
11.7622698975144
 20
20.06579618222134
 30
0.0
 10
16.4620869312402
 20
16.46208693124018
 30
0.0
 10
20.06579618222136
 20
11.76226989751439
 30
0.0
 10
22.42234419973837
 20
6.117398531763469
 30
0.0
 10
23.28882790013084
 20
-0.0000000000000145
 30
0.0
 10
22.42234419973837
 20
-6.117398531763485
 30
0.0
 10
20.06579618222135
 20
-11.7622698975144
 30
0.0
 10
16.46208693124019
 20
-16.4620869312402
 30
0.0
 10
11.76226989751439
 20
-20.06579618222136
 30
0.0
 10
6.117398531763475
 20
-22.42234419973836
 30
0.0
 10
0.000000000000003
 20
-23.28882790013082
 30
0.0
 10
-6.11739853176348
 20
-22.42234419973835
 30
0.0
 10
-11.7622698975144
 20
-20.06579618222135
 30
0.0
 10
-16.4620869312402
 20
-16.46208693124019
 30
0.0
 10
-20.06579618222135
 20
-11.76226989751439
 30
0.0
 10
-22.26524099857056
 20
-6.493723289480199
 30
0.0
 10
-22.89145991336859
 20
-2.750466703463492
 30
0.0
 10
-22.99133516299607
 20
-0.7136964953723968
 30
0.0
 10
-23.0
 20
-0.3058699265881663
 30
0.0
 10
-23.0
 20
0.0000000000000066
 30
0.0
  0
VIEWPORT
  5
130
330
1B
100
AcDbEntity
 67
     1
  8
0
100
AcDbViewport
 10
0.0
 20
0.0
 30
0.0
 40
205.6
 41
156.0
 68
     1
 69
     1
 12
0.0
 22
-16.2157043767
 13
0.0
 23
0.0
 14
10.0
 24
10.0
 15
10.0
 25
10.0
 16
0.0
 26
0.0
 36
1.0
 17
0.0
 27
0.0
 37
0.0
 42
50.0
 43
0.0
 44
0.0
 45
382.433885339
 50
0.0
 51
0.0
 72
   100
 90
   557152
  1

281
     0
 71
     1
 74
     0
110
0.0
120
0.0
130
0.0
111
1.0
121
0.0
131
0.0
112
0.0
122
1.0
132
0.0
 79
     0
146
0.0
170
     0
 61
     5
348
2F
292
     1
282
     1
141
0.0
142
0.0
 63
   256
361
131
  0
ENDSEC
  0
SECTION
  2
OBJECTS
  0
DICTIONARY
  5
C
330
0
100
AcDbDictionary
281
     1
  3
ACAD_DETAILVIEWSTYLE
350
14C
  3
ACAD_GROUP
350
D
  3
ACAD_LAYOUT
350
1A
  3
ACAD_MATERIAL
350
43
  3
ACAD_MLEADERSTYLE
350
6B
  3
ACAD_MLINESTYLE
350
17
  3
ACAD_PLOTSETTINGS
350
19
  3
ACAD_PLOTSTYLENAME
350
E
  3
ACAD_SCALELIST
350
47
  3
ACAD_SECTIONVIEWSTYLE
350
14D
  3
ACAD_TABLESTYLE
350
69
  3
ACAD_VISUALSTYLE
350
2A
  3
ACDB_RECOMPOSE_DATA
350
149
  3
AcDbVariableDictionary
350
144
  0
SUN
  5
6D
330
29
100
AcDbSun
 90
        1
290
     0
 63
     7
421
 16777215
 40
1.0
291
     1
 91
  2455826
 92
 54000000
292
     0
 70
     2
 71
   256
280
     1
  0
SUN
  5
133
330
132
100
AcDbSun
 90
        1
290
     0
 63
     7
421
 16777215
 40
1.0
291
     1
 91
  2455826
 92
 54000000
292
     0
 70
     2
 71
   256
280
     1
  0
SUN
  5
135
330
134
100
AcDbSun
 90
        1
290
     0
 63
     7
421
 16777215
 40
1.0
291
     1
 91
  2455826
 92
 54000000
292
     0
 70
     2
 71
   256
280
     1
  0
SUN
  5
137
330
136
100
AcDbSun
 90
        1
290
     0
 63
     7
421
 16777215
 40
1.0
291
     1
 91
  2455826
 92
 54000000
292
     0
 70
     2
 71
   256
280
     1
  0
SUN
  5
139
330
138
100
AcDbSun
 90
        1
290
     0
 63
     7
421
 16777215
 40
1.0
291
     1
 91
  2455826
 92
 54000000
292
     0
 70
     2
 71
   256
280
     1
  0
SUN
  5
13B
330
13A
100
AcDbSun
 90
        1
290
     0
 63
     7
421
 16777215
 40
1.0
291
     1
 91
  2455826
 92
 54000000
292
     0
 70
     2
 71
   256
280
     1
  0
SUN
  5
13D
330
13C
100
AcDbSun
 90
        1
290
     0
 63
     7
421
 16777215
 40
1.0
291
     1
 91
  2455826
 92
 54000000
292
     0
 70
     2
 71
   256
280
     1
  0
SUN
  5
13F
330
13E
100
AcDbSun
 90
        1
290
     0
 63
     7
421
 16777215
 40
1.0
291
     1
 91
  2455826
 92
 54000000
292
     0
 70
     2
 71
   256
280
     1
  0
SUN
  5
141
330
140
100
AcDbSun
 90
        1
290
     0
 63
     7
421
 16777215
 40
1.0
291
     1
 91
  2455826
 92
 54000000
292
     0
 70
     2
 71
   256
280
     1
  0
SUN
  5
143
330
142
100
AcDbSun
 90
        1
290
     0
 63
     7
421
 16777215
 40
1.0
291
     1
 91
  2455826
 92
 54000000
292
     0
 70
     2
 71
   256
280
     1
  0
SUN
  5
131
330
130
100
AcDbSun
 90
        1
290
     0
 63
     7
421
 16777215
 40
1.0
291
     1
 91
  2455826
 92
 54000000
292
     0
 70
     2
 71
   256
280
     1
  0
DICTIONARY
  5
14C
102
{ACAD_REACTORS
330
C
102
}
330
C
100
AcDbDictionary
281
     1
  0
DICTIONARY
  5
D
102
{ACAD_REACTORS
330
C
102
}
330
C
100
AcDbDictionary
281
     1
  0
DICTIONARY
  5
1A
102
{ACAD_REACTORS
330
C
102
}
330
C
100
AcDbDictionary
281
     1
  3
_Dimetrisch
350
124
  3
_Isometrisch
350
101
  3
_Links
350
96
  3
_Normal auf
350
B4
  3
_Oben
350
1E
  3
_Rechts
350
E1
  3
_Rückseite
350
CB
  3
_Trimetrisch
350
111
  3
_Unten
350
F6
  3
_Vorderseite
350
26
  3
Model
350
22
  0
DICTIONARY
  5
43
102
{ACAD_REACTORS
330
C
102
}
330
C
100
AcDbDictionary
281
     1
  3
ByBlock
350
45
  3
ByLayer
350
44
  3
Global
350
46
  0
DICTIONARY
  5
6B
102
{ACAD_REACTORS
330
C
102
}
330
C
100
AcDbDictionary
281
     1
  3
Standard
350
6C
  0
DICTIONARY
  5
17
102
{ACAD_REACTORS
330
C
102
}
330
C
100
AcDbDictionary
281
     1
  3
Standard
350
18
  0
DICTIONARY
  5
19
102
{ACAD_REACTORS
330
C
102
}
330
C
100
AcDbDictionary
281
     1
  0
ACDBDICTIONARYWDFLT
  5
E
102
{ACAD_REACTORS
330
C
102
}
330
C
100
AcDbDictionary
281
     1
  3
Normal
350
F
100
AcDbDictionaryWithDefault
340
F
  0
DICTIONARY
  5
47
102
{ACAD_REACTORS
330
C
102
}
330
C
100
AcDbDictionary
281
     1
  3
A0
350
48
  3
A1
350
49
  3
A2
350
4A
  3
A3
350
4B
  3
A4
350
4C
  3
A5
350
4D
  3
A6
350
4E
  3
A7
350
4F
  3
A8
350
50
  3
A9
350
51
  3
B0
350
52
  3
B1
350
53
  3
B2
350
54
  3
B3
350
55
  3
B4
350
56
  3
B5
350
57
  3
B6
350
58
  3
B7
350
59
  3
B8
350
5A
  3
B9
350
5B
  3
C0
350
5C
  3
C1
350
5D
  3
C2
350
5E
  3
C3
350
5F
  3
C4
350
60
  3
C5
350
61
  3
C6
350
62
  3
C7
350
63
  3
C8
350
64
  3
C9
350
65
  3
D0
350
66
  3
D1
350
67
  3
D2
350
68
  0
DICTIONARY
  5
14D
102
{ACAD_REACTORS
330
C
102
}
330
C
100
AcDbDictionary
281
     1
  0
DICTIONARY
  5
69
102
{ACAD_REACTORS
330
C
102
}
330
C
100
AcDbDictionary
281
     1
  3
Standard
350
6A
  0
DICTIONARY
  5
2A
102
{ACAD_REACTORS
330
C
102
}
330
C
100
AcDbDictionary
281
     1
  3
2dWireframe
350
2F
  3
Basic
350
32
  3
Brighten
350
36
  3
ColorChange
350
3A
  3
Conceptual
350
34
  3
Dim
350
35
  3
EdgeColorOff
350
3D
  3
Facepattern
350
39
  3
Flat
350
2B
  3
FlatWithEdges
350
2C
  3
Gouraud
350
2D
  3
GouraudWithEdges
350
2E
  3
Hidden
350
31
  3
JitterOff
350
3B
  3
Linepattern
350
38
  3
OverhangOff
350
3C
  3
Realistic
350
33
  3
Shaded
350
42
  3
Shaded with edges
350
41
  3
Shades of Gray
350
3E
  3
Sketchy
350
3F
  3
Thicken
350
37
  3
Wireframe
350
30
  3
X-Ray
350
40
  0
XRECORD
  5
149
102
{ACAD_REACTORS
330
C
102
}
330
C
100
AcDbXrecord
280
     1
 90
        1
330
6A
  0
DICTIONARY
  5
144
102
{ACAD_REACTORS
330
C
102
}
330
C
100
AcDbDictionary
281
     1
  3
CANNOSCALE
350
145
  3
CMLEADERSTYLE
350
14B
  3
CTABLESTYLE
350
14A
  0
LAYOUT
  5
124
102
{ACAD_REACTORS
330
1A
102
}
330
1A
100
AcDbPlotSettings
  1

  2
none_device
  4
ISO_A4_(210.00_x_297.00_MM)
  6

 40
7.5
 41
20.0
 42
7.5
 43
20.0
 44
210.0
 45
297.0
 46
0.0
 47
0.0
 48
0.0
 49
0.0
140
0.0
141
0.0
142
1.0
143
2.2568093385
 70
   688
 72
     1
 73
     1
 74
     1
  7

 75
     0
 76
     0
 77
     2
 78
   300
147
0.4431034483
148
290.0
149
195.0
100
AcDbLayout
  1
_Dimetrisch
 70
     1
 71
    10
 10
0.0
 20
0.0
 11
0.0
 21
0.0
 12
0.0
 22
0.0
 32
0.0
 14
0.0
 24
0.0
 34
0.0
 15
0.0
 25
0.0
 35
0.0
146
0.0
 13
0.0
 23
0.0
 33
0.0
 16
1.0
 26
0.0
 36
0.0
 17
0.0
 27
1.0
 37
0.0
 76
     0
330
123
331
142
  0
LAYOUT
  5
101
102
{ACAD_REACTORS
330
1A
102
}
330
1A
100
AcDbPlotSettings
  1

  2
none_device
  4
ISO_A4_(210.00_x_297.00_MM)
  6

 40
7.5
 41
20.0
 42
7.5
 43
20.0
 44
210.0
 45
297.0
 46
0.0
 47
0.0
 48
0.0
 49
0.0
140
0.0
141
0.0
142
1.0
143
2.2568093385
 70
   688
 72
     1
 73
     1
 74
     1
  7

 75
     0
 76
     0
 77
     2
 78
   300
147
0.4431034483
148
290.0
149
195.0
100
AcDbLayout
  1
_Isometrisch
 70
     1
 71
     8
 10
0.0
 20
0.0
 11
0.0
 21
0.0
 12
0.0
 22
0.0
 32
0.0
 14
0.0
 24
0.0
 34
0.0
 15
0.0
 25
0.0
 35
0.0
146
0.0
 13
0.0
 23
0.0
 33
0.0
 16
1.0
 26
0.0
 36
0.0
 17
0.0
 27
1.0
 37
0.0
 76
     0
330
100
331
13E
  0
LAYOUT
  5
96
102
{ACAD_REACTORS
330
1A
102
}
330
1A
100
AcDbPlotSettings
  1

  2
none_device
  4
ISO_A4_(210.00_x_297.00_MM)
  6

 40
7.5
 41
20.0
 42
7.5
 43
20.0
 44
210.0
 45
297.0
 46
0.0
 47
0.0
 48
0.0
 49
0.0
140
0.0
141
0.0
142
1.0
143
2.2568093385
 70
   688
 72
     1
 73
     1
 74
     1
  7

 75
     0
 76
     0
 77
     2
 78
   300
147
0.4431034483
148
290.0
149
195.0
100
AcDbLayout
  1
_Links
 70
     1
 71
     3
 10
0.0
 20
0.0
 11
0.0
 21
0.0
 12
0.0
 22
0.0
 32
0.0
 14
0.0
 24
0.0
 34
0.0
 15
0.0
 25
0.0
 35
0.0
146
0.0
 13
0.0
 23
0.0
 33
0.0
 16
1.0
 26
0.0
 36
0.0
 17
0.0
 27
1.0
 37
0.0
 76
     0
330
95
331
134
  0
LAYOUT
  5
B4
102
{ACAD_REACTORS
330
1A
102
}
330
1A
100
AcDbPlotSettings
  1

  2
none_device
  4
ISO_A4_(210.00_x_297.00_MM)
  6

 40
7.5
 41
20.0
 42
7.5
 43
20.0
 44
210.0
 45
297.0
 46
0.0
 47
0.0
 48
0.0
 49
0.0
140
0.0
141
0.0
142
1.0
143
2.2568093385
 70
   688
 72
     1
 73
     1
 74
     1
  7

 75
     0
 76
     0
 77
     2
 78
   300
147
0.4431034483
148
290.0
149
195.0
100
AcDbLayout
  1
_Normal auf
 70
     1
 71
     4
 10
0.0
 20
0.0
 11
0.0
 21
0.0
 12
0.0
 22
0.0
 32
0.0
 14
0.0
 24
0.0
 34
0.0
 15
0.0
 25
0.0
 35
0.0
146
0.0
 13
0.0
 23
0.0
 33
0.0
 16
1.0
 26
0.0
 36
0.0
 17
0.0
 27
1.0
 37
0.0
 76
     0
330
B3
331
136
  0
LAYOUT
  5
1E
102
{ACAD_REACTORS
330
1A
102
}
330
1A
100
AcDbPlotSettings
  1

  2
none_device
  4
ISO_A4_(210.00_x_297.00_MM)
  6

 40
7.5
 41
20.0
 42
7.5
 43
20.0
 44
210.0
 45
297.0
 46
0.0
 47
0.0
 48
0.0
 49
0.0
140
0.0
141
0.0
142
1.0
143
2.2568093385
 70
   688
 72
     1
 73
     1
 74
     1
  7

 75
     0
 76
     0
 77
     2
 78
   300
147
0.4431034483
148
290.0
149
195.0
100
AcDbLayout
  1
_Oben
 70
     1
 71
     1
 10
-335.1361867704
 20
-211.9260700389
 11
335.1361867704
 21
262.0038910506
 12
0.0
 22
0.0
 32
0.0
 14
-290.0
 24
-195.0
 34
0.0
 15
290.0
 25
195.0
 35
0.0
146
0.0
 13
0.0
 23
0.0
 33
0.0
 16
1.0
 26
0.0
 36
0.0
 17
0.0
 27
1.0
 37
0.0
 76
     0
330
1B
331
130
  0
LAYOUT
  5
E1
102
{ACAD_REACTORS
330
1A
102
}
330
1A
100
AcDbPlotSettings
  1

  2
none_device
  4
ISO_A4_(210.00_x_297.00_MM)
  6

 40
7.5
 41
20.0
 42
7.5
 43
20.0
 44
210.0
 45
297.0
 46
0.0
 47
0.0
 48
0.0
 49
0.0
140
0.0
141
0.0
142
1.0
143
2.2568093385
 70
   688
 72
     1
 73
     1
 74
     1
  7

 75
     0
 76
     0
 77
     2
 78
   300
147
0.4431034483
148
290.0
149
195.0
100
AcDbLayout
  1
_Rechts
 70
     1
 71
     6
 10
0.0
 20
0.0
 11
0.0
 21
0.0
 12
0.0
 22
0.0
 32
0.0
 14
0.0
 24
0.0
 34
0.0
 15
0.0
 25
0.0
 35
0.0
146
0.0
 13
0.0
 23
0.0
 33
0.0
 16
1.0
 26
0.0
 36
0.0
 17
0.0
 27
1.0
 37
0.0
 76
     0
330
E0
331
13A
  0
LAYOUT
  5
CB
102
{ACAD_REACTORS
330
1A
102
}
330
1A
100
AcDbPlotSettings
  1

  2
none_device
  4
ISO_A4_(210.00_x_297.00_MM)
  6

 40
7.5
 41
20.0
 42
7.5
 43
20.0
 44
210.0
 45
297.0
 46
0.0
 47
0.0
 48
0.0
 49
0.0
140
0.0
141
0.0
142
1.0
143
2.2568093385
 70
   688
 72
     1
 73
     1
 74
     1
  7

 75
     0
 76
     0
 77
     2
 78
   300
147
0.4431034483
148
290.0
149
195.0
100
AcDbLayout
  1
_Rückseite
 70
     1
 71
     5
 10
0.0
 20
0.0
 11
0.0
 21
0.0
 12
0.0
 22
0.0
 32
0.0
 14
0.0
 24
0.0
 34
0.0
 15
0.0
 25
0.0
 35
0.0
146
0.0
 13
0.0
 23
0.0
 33
0.0
 16
1.0
 26
0.0
 36
0.0
 17
0.0
 27
1.0
 37
0.0
 76
     0
330
CA
331
138
  0
LAYOUT
  5
111
102
{ACAD_REACTORS
330
1A
102
}
330
1A
100
AcDbPlotSettings
  1

  2
none_device
  4
ISO_A4_(210.00_x_297.00_MM)
  6

 40
7.5
 41
20.0
 42
7.5
 43
20.0
 44
210.0
 45
297.0
 46
0.0
 47
0.0
 48
0.0
 49
0.0
140
0.0
141
0.0
142
1.0
143
2.2568093385
 70
   688
 72
     1
 73
     1
 74
     1
  7

 75
     0
 76
     0
 77
     2
 78
   300
147
0.4431034483
148
290.0
149
195.0
100
AcDbLayout
  1
_Trimetrisch
 70
     1
 71
     9
 10
0.0
 20
0.0
 11
0.0
 21
0.0
 12
0.0
 22
0.0
 32
0.0
 14
0.0
 24
0.0
 34
0.0
 15
0.0
 25
0.0
 35
0.0
146
0.0
 13
0.0
 23
0.0
 33
0.0
 16
1.0
 26
0.0
 36
0.0
 17
0.0
 27
1.0
 37
0.0
 76
     0
330
110
331
140
  0
LAYOUT
  5
F6
102
{ACAD_REACTORS
330
1A
102
}
330
1A
100
AcDbPlotSettings
  1

  2
none_device
  4
ISO_A4_(210.00_x_297.00_MM)
  6

 40
7.5
 41
20.0
 42
7.5
 43
20.0
 44
210.0
 45
297.0
 46
0.0
 47
0.0
 48
0.0
 49
0.0
140
0.0
141
0.0
142
1.0
143
2.2568093385
 70
   688
 72
     1
 73
     1
 74
     1
  7

 75
     0
 76
     0
 77
     2
 78
   300
147
0.4431034483
148
290.0
149
195.0
100
AcDbLayout
  1
_Unten
 70
     1
 71
     7
 10
0.0
 20
0.0
 11
0.0
 21
0.0
 12
0.0
 22
0.0
 32
0.0
 14
0.0
 24
0.0
 34
0.0
 15
0.0
 25
0.0
 35
0.0
146
0.0
 13
0.0
 23
0.0
 33
0.0
 16
1.0
 26
0.0
 36
0.0
 17
0.0
 27
1.0
 37
0.0
 76
     0
330
F5
331
13C
  0
LAYOUT
  5
26
102
{ACAD_REACTORS
330
1A
102
}
330
1A
100
AcDbPlotSettings
  1

  2
none_device
  4
ISO_A4_(210.00_x_297.00_MM)
  6

 40
7.5
 41
20.0
 42
7.5
 43
20.0
 44
210.0
 45
297.0
 46
0.0
 47
0.0
 48
0.0
 49
0.0
140
0.0
141
0.0
142
1.0
143
2.2568093385
 70
   688
 72
     1
 73
     1
 74
     1
  7

 75
     0
 76
     0
 77
     2
 78
   300
147
0.4431034483
148
290.0
149
195.0
100
AcDbLayout
  1
_Vorderseite
 70
     1
 71
     2
 10
0.0
 20
0.0
 11
0.0
 21
0.0
 12
0.0
 22
0.0
 32
0.0
 14
0.0
 24
0.0
 34
0.0
 15
0.0
 25
0.0
 35
0.0
146
0.0
 13
0.0
 23
0.0
 33
0.0
 16
1.0
 26
0.0
 36
0.0
 17
0.0
 27
1.0
 37
0.0
 76
     0
330
23
331
132
  0
LAYOUT
  5
22
102
{ACAD_REACTORS
330
1A
102
}
330
1A
100
AcDbPlotSettings
  1

  2
none_device
  4
ANSI_A_(11.00_x_8.50_Inches)
  6

 40
6.35
 41
19.05
 42
6.35000508
 43
19.05000254
 44
279.4
 45
215.9
 46
133.34999746
 47
97.9770065316
 48
0.0
 49
0.0
140
0.0
141
0.0
142
0.0220380505
143
1.0
 70
  1696
 72
     0
 73
     0
 74
     0
  7

 75
     0
 76
     0
 77
     2
 78
   300
147
0.0179189148
148
-1300.4909072572
149
0.0
100
AcDbLayout
  1
Model
 70
     1
 71
     0
 10
0.0
 20
0.0
 11
420.0
 21
297.0
 12
0.0
 22
0.0
 32
0.0
 14
-247.0726710209
 24
-175.0764078272
 34
0.0
 15
247.0726710209
 25
142.6449990737
 35
0.0
146
0.0
 13
0.0
 23
0.0
 33
0.0
 16
1.0
 26
0.0
 36
0.0
 17
0.0
 27
1.0
 37
0.0
 76
     0
330
1F
331
29
  0
MATERIAL
  5
45
102
{ACAD_REACTORS
330
43
102
}
330
43
100
AcDbMaterial
  1
ByBlock
 72
     1
 94
      127
  0
MATERIAL
  5
44
102
{ACAD_REACTORS
330
43
102
}
330
43
100
AcDbMaterial
  1
ByLayer
 72
     1
 94
      127
  0
MATERIAL
  5
46
102
{ACAD_REACTORS
330
43
102
}
330
43
100
AcDbMaterial
  1
Global
 72
     1
 94
      127
  0
MLEADERSTYLE
  5
6C
102
{ACAD_REACTORS
330
6B
102
}
330
6B
100
AcDbMLeaderStyle
170
     2
171
     1
172
     0
 90
        2
 40
0.0
 41
0.0
173
     1
 91
-1056964608
340
14
 92
       -2
290
     1
 42
2.0
291
     1
 43
8.0
  3
Standard
341
0
 44
4.0
300

342
11
174
     1
178
     6
175
     1
176
     0
 93
-1056964608
 45
4.0
292
     0
297
     0
 46
4.0
343
0
 94
-1056964608
 47
1.0
 49
1.0
140
1.0
293
     1
141
0.0
294
     1
177
     0
142
1.0
295
     0
296
     0
143
3.75
1001
ACAD_MLEADERVER
1070
     2
  0
MLINESTYLE
  5
18
102
{ACAD_REACTORS
330
17
102
}
330
17
100
AcDbMlineStyle
  2
Standard
 70
     0
  3

 62
   256
 51
90.0
 52
90.0
 71
     2
 49
0.5
 62
   256
  6
BYLAYER
 49
-0.5
 62
   256
  6
BYLAYER
  0
ACDBPLACEHOLDER
  5
F
102
{ACAD_REACTORS
330
E
102
}
330
E
  0
SCALE
  5
48
102
{ACAD_REACTORS
330
47
102
}
330
47
100
AcDbScale
 70
     0
300
1:1
140
1.0
141
1.0
290
     1
  0
SCALE
  5
49
102
{ACAD_REACTORS
330
47
102
}
330
47
100
AcDbScale
 70
     0
300
1:2
140
1.0
141
2.0
290
     0
  0
SCALE
  5
4A
102
{ACAD_REACTORS
330
47
102
}
330
47
100
AcDbScale
 70
     0
300
1:4
140
1.0
141
4.0
290
     0
  0
SCALE
  5
4B
102
{ACAD_REACTORS
330
47
102
}
330
47
100
AcDbScale
 70
     0
300
1:5
140
1.0
141
5.0
290
     0
  0
SCALE
  5
4C
102
{ACAD_REACTORS
330
47
102
}
330
47
100
AcDbScale
 70
     0
300
1:8
140
1.0
141
8.0
290
     0
  0
SCALE
  5
4D
102
{ACAD_REACTORS
330
47
102
}
330
47
100
AcDbScale
 70
     0
300
1:10
140
1.0
141
10.0
290
     0
  0
SCALE
  5
4E
102
{ACAD_REACTORS
330
47
102
}
330
47
100
AcDbScale
 70
     0
300
1:16
140
1.0
141
16.0
290
     0
  0
SCALE
  5
4F
102
{ACAD_REACTORS
330
47
102
}
330
47
100
AcDbScale
 70
     0
300
1:20
140
1.0
141
20.0
290
     0
  0
SCALE
  5
50
102
{ACAD_REACTORS
330
47
102
}
330
47
100
AcDbScale
 70
     0
300
1:30
140
1.0
141
30.0
290
     0
  0
SCALE
  5
51
102
{ACAD_REACTORS
330
47
102
}
330
47
100
AcDbScale
 70
     0
300
1:40
140
1.0
141
40.0
290
     0
  0
SCALE
  5
52
102
{ACAD_REACTORS
330
47
102
}
330
47
100
AcDbScale
 70
     0
300
1:50
140
1.0
141
50.0
290
     0
  0
SCALE
  5
53
102
{ACAD_REACTORS
330
47
102
}
330
47
100
AcDbScale
 70
     0
300
1:100
140
1.0
141
100.0
290
     0
  0
SCALE
  5
54
102
{ACAD_REACTORS
330
47
102
}
330
47
100
AcDbScale
 70
     0
300
2:1
140
2.0
141
1.0
290
     0
  0
SCALE
  5
55
102
{ACAD_REACTORS
330
47
102
}
330
47
100
AcDbScale
 70
     0
300
4:1
140
4.0
141
1.0
290
     0
  0
SCALE
  5
56
102
{ACAD_REACTORS
330
47
102
}
330
47
100
AcDbScale
 70
     0
300
8:1
140
8.0
141
1.0
290
     0
  0
SCALE
  5
57
102
{ACAD_REACTORS
330
47
102
}
330
47
100
AcDbScale
 70
     0
300
10:1
140
10.0
141
1.0
290
     0
  0
SCALE
  5
58
102
{ACAD_REACTORS
330
47
102
}
330
47
100
AcDbScale
 70
     0
300
100:1
140
100.0
141
1.0
290
     0
  0
SCALE
  5
59
102
{ACAD_REACTORS
330
47
102
}
330
47
100
AcDbScale
 70
     0
300
1/128" = 1'-0"
140
0.0078125
141
12.0
290
     0
  0
SCALE
  5
5A
102
{ACAD_REACTORS
330
47
102
}
330
47
100
AcDbScale
 70
     0
300
1/64" = 1'-0"
140
0.015625
141
12.0
290
     0
  0
SCALE
  5
5B
102
{ACAD_REACTORS
330
47
102
}
330
47
100
AcDbScale
 70
     0
300
1/32" = 1'-0"
140
0.03125
141
12.0
290
     0
  0
SCALE
  5
5C
102
{ACAD_REACTORS
330
47
102
}
330
47
100
AcDbScale
 70
     0
300
1/16" = 1'-0"
140
0.0625
141
12.0
290
     0
  0
SCALE
  5
5D
102
{ACAD_REACTORS
330
47
102
}
330
47
100
AcDbScale
 70
     0
300
3/32" = 1'-0"
140
0.09375
141
12.0
290
     0
  0
SCALE
  5
5E
102
{ACAD_REACTORS
330
47
102
}
330
47
100
AcDbScale
 70
     0
300
1/8" = 1'-0"
140
0.125
141
12.0
290
     0
  0
SCALE
  5
5F
102
{ACAD_REACTORS
330
47
102
}
330
47
100
AcDbScale
 70
     0
300
3/16" = 1'-0"
140
0.1875
141
12.0
290
     0
  0
SCALE
  5
60
102
{ACAD_REACTORS
330
47
102
}
330
47
100
AcDbScale
 70
     0
300
1/4" = 1'-0"
140
0.25
141
12.0
290
     0
  0
SCALE
  5
61
102
{ACAD_REACTORS
330
47
102
}
330
47
100
AcDbScale
 70
     0
300
3/8" = 1'-0"
140
0.375
141
12.0
290
     0
  0
SCALE
  5
62
102
{ACAD_REACTORS
330
47
102
}
330
47
100
AcDbScale
 70
     0
300
1/2" = 1'-0"
140
0.5
141
12.0
290
     0
  0
SCALE
  5
63
102
{ACAD_REACTORS
330
47
102
}
330
47
100
AcDbScale
 70
     0
300
3/4" = 1'-0"
140
0.75
141
12.0
290
     0
  0
SCALE
  5
64
102
{ACAD_REACTORS
330
47
102
}
330
47
100
AcDbScale
 70
     0
300
1" = 1'-0"
140
1.0
141
12.0
290
     0
  0
SCALE
  5
65
102
{ACAD_REACTORS
330
47
102
}
330
47
100
AcDbScale
 70
     0
300
1-1/2" = 1'-0"
140
1.5
141
12.0
290
     0
  0
SCALE
  5
66
102
{ACAD_REACTORS
330
47
102
}
330
47
100
AcDbScale
 70
     0
300
3" = 1'-0"
140
3.0
141
12.0
290
     0
  0
SCALE
  5
67
102
{ACAD_REACTORS
330
47
102
}
330
47
100
AcDbScale
 70
     0
300
6" = 1'-0"
140
6.0
141
12.0
290
     0
  0
SCALE
  5
68
102
{ACAD_REACTORS
330
47
102
}
330
47
100
AcDbScale
 70
     0
300
1'-0" = 1'-0"
140
12.0
141
12.0
290
     0
  0
TABLESTYLE
  5
6A
102
{ACAD_REACTORS
330
69
102
}
102
{ACAD_XDICTIONARY
360
146
102
}
330
69
100
AcDbTableStyle
  3
Standard
 70
     0
 71
     0
 40
0.06
 41
0.06
280
     0
281
     0
  7
Standard
140
4.5
170
     2
 62
     0
 63
   257
283
     0
 90
        4
 91
        0
  1

274
    -2
284
     1
 64
     0
275
    -2
285
     1
 65
     0
276
    -2
286
     1
 66
     0
277
    -2
287
     1
 67
     0
278
    -2
288
     1
 68
     0
279
    -2
289
     1
 69
     0
  7
Standard
140
6.0
170
     5
 62
     0
 63
   257
283
     0
 90
        4
 91
        0
  1

274
    -2
284
     1
 64
     0
275
    -2
285
     1
 65
     0
276
    -2
286
     1
 66
     0
277
    -2
287
     1
 67
     0
278
    -2
288
     1
 68
     0
279
    -2
289
     1
 69
     0
  7
Standard
140
4.5
170
     5
 62
     0
 63
   257
283
     0
 90
        4
 91
        0
  1

274
    -2
284
     1
 64
     0
275
    -2
285
     1
 65
     0
276
    -2
286
     1
 66
     0
277
    -2
287
     1
 67
     0
278
    -2
288
     1
 68
     0
279
    -2
289
     1
 69
     0
  0
VISUALSTYLE
  5
2F
102
{ACAD_REACTORS
330
2A
102
}
330
2A
100
AcDbVisualStyle
  2
2dWireframe
 70
     4
 71
     0
 72
     2
 73
     0
 90
        0
 40
0.6
 41
30.0
 62
     5
 63
     7
421
 16777215
 74
     1
 91
        4
 64
     7
 65
   257
 75
     1
175
     1
 42
1.0
 92
        0
 66
   257
 43
1.0
 76
     1
 77
     6
 78
     2
 67
     7
 79
     5
170
     0
171
     0
290
     0
174
     0
 93
        1
 44
0.0
173
     0
291
     0
 45
0.0
  0
VISUALSTYLE
  5
32
102
{ACAD_REACTORS
330
2A
102
}
330
2A
100
AcDbVisualStyle
  2
Basic
 70
     7
 71
     1
 72
     0
 73
     1
 90
        0
 40
0.6
 41
30.0
 62
     5
 63
     7
421
 16777215
 74
     0
 91
        4
 64
     7
 65
   257
 75
     1
175
     1
 42
1.0
 92
        8
 66
     7
 43
1.0
 76
     1
 77
     6
 78
     2
 67
     7
 79
     5
170
     0
171
     0
290
     0
174
     0
 93
        1
 44
0.0
173
     0
291
     1
 45
0.0
  0
VISUALSTYLE
  5
36
102
{ACAD_REACTORS
330
2A
102
}
330
2A
100
AcDbVisualStyle
  2
Brighten
 70
    12
 71
     2
 72
     2
 73
     0
 90
        0
 40
0.6
 41
30.0
 62
     5
 63
     7
421
 16777215
 74
     1
 91
        4
 64
     7
 65
   257
 75
     1
175
     1
 42
1.0
 92
        8
 66
     7
 43
1.0
 76
     1
 77
     6
 78
     2
 67
     7
 79
     5
170
     0
171
     0
290
     0
174
     0
 93
        1
 44
50.0
173
     0
291
     1
 45
0.0
  0
VISUALSTYLE
  5
3A
102
{ACAD_REACTORS
330
2A
102
}
330
2A
100
AcDbVisualStyle
  2
ColorChange
 70
    16
 71
     2
 72
     2
 73
     3
 90
        0
 40
0.6
 41
30.0
 62
     5
 63
     8
421
  8421504
 74
     1
 91
        4
 64
     7
 65
   257
 75
     1
175
     1
 42
1.0
 92
        8
 66
     8
424
  8421504
 43
1.0
 76
     1
 77
     6
 78
     2
 67
     7
 79
     5
170
     0
171
     0
290
     0
174
     0
 93
        1
 44
0.0
173
     0
291
     1
 45
0.0
  0
VISUALSTYLE
  5
34
102
{ACAD_REACTORS
330
2A
102
}
330
2A
100
AcDbVisualStyle
  2
Conceptual
 70
     9
 71
     3
 72
     2
 73
     0
 90
        0
 40
0.6
 41
30.0
 62
     5
 63
     7
421
 16777215
 74
     2
 91
        2
 64
     7
 65
   257
 75
     1
175
     1
 42
179.0
 92
        8
 66
     7
 43
1.0
 76
     1
 77
     6
 78
     2
 67
     7
 79
     3
170
     0
171
     0
290
     0
174
     0
 93
        1
 44
0.0
173
     0
291
     0
 45
0.0
  0
VISUALSTYLE
  5
35
102
{ACAD_REACTORS
330
2A
102
}
330
2A
100
AcDbVisualStyle
  2
Dim
 70
    11
 71
     2
 72
     2
 73
     0
 90
        0
 40
0.6
 41
30.0
 62
     5
 63
     7
421
 16777215
 74
     1
 91
        4
 64
     7
 65
   257
 75
     1
175
     1
 42
1.0
 92
        8
 66
     7
 43
1.0
 76
     1
 77
     6
 78
     2
 67
     7
 79
     5
170
     0
171
     0
290
     0
174
     0
 93
        1
 44
-50.0
173
     0
291
     1
 45
0.0
  0
VISUALSTYLE
  5
3D
102
{ACAD_REACTORS
330
2A
102
}
330
2A
100
AcDbVisualStyle
  2
EdgeColorOff
 70
    22
 71
     2
 72
     2
 73
     0
 90
        0
 40
0.6
 41
30.0
 62
     5
 63
     7
421
 16777215
 74
     1
 91
        4
 64
     7
 65
   257
 75
     1
175
     1
 42
1.0
 92
        8
 66
     7
 43
1.0
 76
     1
 77
     6
 78
     2
 67
     7
 79
     5
170
     0
171
     0
290
     0
174
     0
 93
        1
 44
0.0
173
     0
291
     1
 45
0.0
  0
VISUALSTYLE
  5
39
102
{ACAD_REACTORS
330
2A
102
}
330
2A
100
AcDbVisualStyle
  2
Facepattern
 70
    15
 71
     2
 72
     2
 73
     0
 90
        0
 40
0.6
 41
30.0
 62
     5
 63
     7
421
 16777215
 74
     1
 91
        4
 64
     7
 65
   257
 75
     1
175
     1
 42
1.0
 92
        8
 66
     7
 43
1.0
 76
     1
 77
     6
 78
     2
 67
     7
 79
     5
170
     0
171
     0
290
     0
174
     0
 93
        1
 44
0.0
173
     0
291
     1
 45
0.0
  0
VISUALSTYLE
  5
2B
102
{ACAD_REACTORS
330
2A
102
}
330
2A
100
AcDbVisualStyle
  2
Flat
 70
     0
 71
     2
 72
     1
 73
     1
 90
        2
 40
0.6
 41
30.0
 62
     5
 63
     7
421
 16777215
 74
     0
 91
        0
 64
     7
 65
   257
 75
     1
175
     1
 42
1.0
 92
        8
 66
     7
 43
1.0
 76
     1
 77
     6
 78
     2
 67
     7
 79
     5
170
     0
171
     0
290
     0
174
     0
 93
       13
 44
0.0
173
     0
291
     1
 45
0.0
  0
VISUALSTYLE
  5
2C
102
{ACAD_REACTORS
330
2A
102
}
330
2A
100
AcDbVisualStyle
  2
FlatWithEdges
 70
     1
 71
     2
 72
     1
 73
     1
 90
        2
 40
0.6
 41
30.0
 62
     5
 63
     7
421
 16777215
 74
     1
 91
        0
 64
     7
 65
   257
 75
     1
175
     1
 42
1.0
 92
        0
 66
   257
 43
1.0
 76
     1
 77
     6
 78
     2
 67
     7
 79
     5
170
     0
171
     0
290
     0
174
     0
 93
       13
 44
0.0
173
     0
291
     1
 45
0.0
  0
VISUALSTYLE
  5
2D
102
{ACAD_REACTORS
330
2A
102
}
330
2A
100
AcDbVisualStyle
  2
Gouraud
 70
     2
 71
     2
 72
     2
 73
     1
 90
        2
 40
0.6
 41
30.0
 62
     5
 63
     7
421
 16777215
 74
     0
 91
        0
 64
     7
 65
   257
 75
     1
175
     1
 42
1.0
 92
        0
 66
     7
 43
1.0
 76
     1
 77
     6
 78
     2
 67
     7
 79
     5
170
     0
171
     0
290
     0
174
     0
 93
       13
 44
0.0
173
     0
291
     1
 45
0.0
  0
VISUALSTYLE
  5
2E
102
{ACAD_REACTORS
330
2A
102
}
330
2A
100
AcDbVisualStyle
  2
GouraudWithEdges
 70
     3
 71
     2
 72
     2
 73
     1
 90
        2
 40
0.6
 41
30.0
 62
     5
 63
     7
421
 16777215
 74
     1
 91
        0
 64
     7
 65
   257
 75
     1
175
     1
 42
1.0
 92
        0
 66
   257
 43
1.0
 76
     1
 77
     6
 78
     2
 67
     7
 79
     5
170
     0
171
     0
290
     0
174
     0
 93
       13
 44
0.0
173
     0
291
     1
 45
0.0
  0
VISUALSTYLE
  5
31
102
{ACAD_REACTORS
330
2A
102
}
330
2A
100
AcDbVisualStyle
  2
Hidden
 70
     6
 71
     1
 72
     2
 73
     2
 90
        0
 40
0.6
 41
30.0
 62
     5
 63
     7
421
 16777215
 74
     2
 91
        2
 64
     7
 65
   257
 75
     2
175
     1
 42
40.0
 92
        0
 66
   257
 43
1.0
 76
     1
 77
     6
 78
     2
 67
     7
 79
     3
170
     0
171
     0
290
     0
174
     0
 93
        1
 44
0.0
173
     0
291
     0
 45
0.0
  0
VISUALSTYLE
  5
3B
102
{ACAD_REACTORS
330
2A
102
}
330
2A
100
AcDbVisualStyle
  2
JitterOff
 70
    20
 71
     2
 72
     2
 73
     0
 90
        0
 40
0.6
 41
30.0
 62
     5
 63
     7
421
 16777215
 74
     1
 91
        4
 64
     7
 65
   257
 75
     1
175
     1
 42
1.0
 92
       10
 66
     7
 43
1.0
 76
     1
 77
     6
 78
     2
 67
     7
 79
     5
170
     0
171
     0
290
     0
174
     0
 93
        1
 44
0.0
173
     0
291
     1
 45
0.0
  0
VISUALSTYLE
  5
38
102
{ACAD_REACTORS
330
2A
102
}
330
2A
100
AcDbVisualStyle
  2
Linepattern
 70
    14
 71
     2
 72
     2
 73
     0
 90
        0
 40
0.6
 41
30.0
 62
     5
 63
     7
421
 16777215
 74
     1
 91
        4
 64
     7
 65
   257
 75
     7
175
     7
 42
1.0
 92
        8
 66
     7
 43
1.0
 76
     1
 77
     6
 78
     2
 67
     7
 79
     5
170
     0
171
     0
290
     0
174
     0
 93
        1
 44
0.0
173
     0
291
     1
 45
0.0
  0
VISUALSTYLE
  5
3C
102
{ACAD_REACTORS
330
2A
102
}
330
2A
100
AcDbVisualStyle
  2
OverhangOff
 70
    21
 71
     2
 72
     2
 73
     0
 90
        0
 40
0.6
 41
30.0
 62
     5
 63
     7
421
 16777215
 74
     1
 91
        4
 64
     7
 65
   257
 75
     1
175
     1
 42
1.0
 92
        9
 66
     7
 43
1.0
 76
     1
 77
     6
 78
     2
 67
     7
 79
     5
170
     0
171
     0
290
     0
174
     0
 93
        1
 44
0.0
173
     0
291
     1
 45
0.0
  0
VISUALSTYLE
  5
33
102
{ACAD_REACTORS
330
2A
102
}
330
2A
100
AcDbVisualStyle
  2
Realistic
 70
     8
 71
     2
 72
     3
 73
     0
 90
        2
 40
0.6
 41
30.0
 62
     5
 63
     7
421
 16777215
 74
     0
 91
        0
 64
     7
 65
   257
 75
     1
175
     1
 42
1.0
 92
        8
 66
   257
 43
1.0
 76
     1
 77
     6
 78
     2
 67
     7
 79
     3
170
     0
171
     0
290
     0
174
     0
 93
       13
 44
0.0
173
     0
291
     0
 45
0.0
  0
VISUALSTYLE
  5
42
102
{ACAD_REACTORS
330
2A
102
}
330
2A
100
AcDbVisualStyle
  2
Shaded
 70
    27
 71
     2
 72
     2
 73
     1
 90
        2
 40
0.6
 41
30.0
 62
     5
 63
     7
421
 16777215
 74
     0
 91
        4
 64
     7
 65
   257
 75
     1
175
     1
 42
1.0
 92
        8
 66
   257
 43
1.0
 76
     1
 77
     6
 78
     2
 67
     8
425
  7895160
 79
     3
170
     0
171
     0
290
     0
174
     0
 93
        5
 44
0.0
173
     0
291
     0
 45
0.0
  0
VISUALSTYLE
  5
41
102
{ACAD_REACTORS
330
2A
102
}
330
2A
100
AcDbVisualStyle
  2
Shaded with edges
 70
    26
 71
     2
 72
     2
 73
     1
 90
        2
 40
0.6
 41
30.0
 62
     5
 63
     7
421
 16777215
 74
     1
 91
       10
 64
     7
 65
   257
 75
     2
175
     1
 42
1.0
 92
        8
 66
   257
 43
1.0
 76
     1
 77
     6
 78
     2
 67
     7
 79
     3
170
     0
171
     0
290
     0
174
     0
 93
        5
 44
0.0
173
     0
291
     0
 45
0.0
  0
VISUALSTYLE
  5
3E
102
{ACAD_REACTORS
330
2A
102
}
330
2A
100
AcDbVisualStyle
  2
Shades of Gray
 70
    23
 71
     2
 72
     2
 73
     3
 90
        0
 40
0.6
 41
30.0
 62
     5
 63
     7
421
 16777215
 74
     2
 91
        2
 64
     7
 65
     7
 75
     1
175
     1
 42
40.0
 92
        8
 66
     7
 43
1.0
 76
     1
 77
     6
 78
     2
 67
     7
 79
     3
170
     0
171
     0
290
     0
174
     0
 93
        1
 44
0.0
173
     0
291
     0
 45
0.0
  0
VISUALSTYLE
  5
3F
102
{ACAD_REACTORS
330
2A
102
}
330
2A
100
AcDbVisualStyle
  2
Sketchy
 70
    24
 71
     1
 72
     2
 73
     2
 90
        0
 40
0.6
 41
30.0
 62
     5
 63
     7
421
 16777215
 74
     2
 91
        2
 64
     7
 65
     7
 75
     1
175
     1
 42
40.0
 92
       11
 66
     7
 43
1.0
 76
     1
 77
     6
 78
     2
 67
     7
 79
     6
170
     0
171
     0
290
     0
174
     0
 93
        1
 44
0.0
173
     0
291
     0
 45
0.0
  0
VISUALSTYLE
  5
37
102
{ACAD_REACTORS
330
2A
102
}
330
2A
100
AcDbVisualStyle
  2
Thicken
 70
    13
 71
     2
 72
     2
 73
     0
 90
        0
 40
0.6
 41
30.0
 62
     5
 63
     7
421
 16777215
 74
     1
 91
        4
 64
     7
 65
   257
 75
     1
175
     1
 42
1.0
 92
       12
 66
     7
 43
1.0
 76
     1
 77
     6
 78
     2
 67
     7
 79
     5
170
     0
171
     0
290
     0
174
     0
 93
        1
 44
0.0
173
     0
291
     1
 45
0.0
  0
VISUALSTYLE
  5
30
102
{ACAD_REACTORS
330
2A
102
}
330
2A
100
AcDbVisualStyle
  2
Wireframe
 70
     5
 71
     0
 72
     2
 73
     0
 90
        0
 40
0.6
 41
30.0
 62
     5
 63
     7
421
 16777215
 74
     1
 91
        4
 64
     7
 65
   257
 75
     1
175
     1
 42
1.0
 92
        0
 66
   257
 43
1.0
 76
     1
 77
     6
 78
     2
 67
     7
 79
     3
170
     0
171
     0
290
     0
174
     0
 93
        1
 44
0.0
173
     0
291
     0
 45
0.0
  0
VISUALSTYLE
  5
40
102
{ACAD_REACTORS
330
2A
102
}
330
2A
100
AcDbVisualStyle
  2
X-Ray
 70
    25
 71
     2
 72
     2
 73
     1
 90
        1
 40
0.5
 41
30.0
 62
     5
 63
     7
421
 16777215
 74
     1
 91
        0
 64
     7
 65
   257
 75
     1
175
     1
 42
1.0
 92
        8
 66
     7
 43
1.0
 76
     1
 77
     6
 78
     2
 67
     7
 79
     3
170
     0
171
     0
290
     0
174
     0
 93
       13
 44
0.0
173
     0
291
     0
 45
0.0
  0
DICTIONARYVAR
  5
145
102
{ACAD_REACTORS
330
144
102
}
330
144
100
DictionaryVariables
280
     0
  1
1:1
  0
DICTIONARYVAR
  5
14B
102
{ACAD_REACTORS
330
144
102
}
330
144
100
DictionaryVariables
280
     0
  1
Standard
  0
DICTIONARYVAR
  5
14A
102
{ACAD_REACTORS
330
144
102
}
330
144
100
DictionaryVariables
280
     0
  1
Standard
  0
DICTIONARY
  5
146
330
6A
100
AcDbDictionary
280
     1
281
     1
  3
ACAD_ROUNDTRIP_2008_TABLESTYLE_CELLSTYLEMAP
360
147
  0
CELLSTYLEMAP
  5
147
102
{ACAD_REACTORS
330
146
102
}
330
146
100
AcDbCellStyleMap
 90
        3
300
CELLSTYLE
  1
TABLEFORMAT_BEGIN
 90
        5
170
     1
 91
        0
 92
    32768
 62
   257
 93
        1
300
CONTENTFORMAT
  1
CONTENTFORMAT_BEGIN
 90
        0
 91
        0
 92
        4
 93
        0
300

 40
0.0
140
1.0
 94
        5
 62
     0
340
11
144
6.0
309
CONTENTFORMAT_END
171
     1
301
MARGIN
  1
CELLMARGIN_BEGIN
 40
1.5
 40
1.5
 40
1.5
 40
1.5
 40
1.5
 40
1.5
309
CELLMARGIN_END
 94
        6
 95
        1
302
GRIDFORMAT
  1
GRIDFORMAT_BEGIN
 90
        0
 91
        1
 62
     0
 92
       -2
340
14
 93
        0
 40
0.045
309
GRIDFORMAT_END
 95
        2
302
GRIDFORMAT
  1
GRIDFORMAT_BEGIN
 90
        0
 91
        1
 62
     0
 92
       -2
340
14
 93
        0
 40
0.045
309
GRIDFORMAT_END
 95
        4
302
GRIDFORMAT
  1
GRIDFORMAT_BEGIN
 90
        0
 91
        1
 62
     0
 92
       -2
340
14
 93
        0
 40
0.045
309
GRIDFORMAT_END
 95
        8
302
GRIDFORMAT
  1
GRIDFORMAT_BEGIN
 90
        0
 91
        1
 62
     0
 92
       -2
340
14
 93
        0
 40
0.045
309
GRIDFORMAT_END
 95
       16
302
GRIDFORMAT
  1
GRIDFORMAT_BEGIN
 90
        0
 91
        1
 62
     0
 92
       -2
340
14
 93
        0
 40
0.045
309
GRIDFORMAT_END
 95
       32
302
GRIDFORMAT
  1
GRIDFORMAT_BEGIN
 90
        0
 91
        1
 62
     0
 92
       -2
340
14
 93
        0
 40
0.045
309
GRIDFORMAT_END
309
TABLEFORMAT_END
  1
CELLSTYLE_BEGIN
 90
        1
 91
        1
300
_TITLE
309
CELLSTYLE_END
300
CELLSTYLE
  1
TABLEFORMAT_BEGIN
 90
        5
170
     1
 91
        0
 92
        0
 62
   257
 93
        1
300
CONTENTFORMAT
  1
CONTENTFORMAT_BEGIN
 90
        0
 91
        0
 92
        4
 93
        0
300

 40
0.0
140
1.0
 94
        5
 62
     0
340
11
144
4.5
309
CONTENTFORMAT_END
171
     1
301
MARGIN
  1
CELLMARGIN_BEGIN
 40
1.5
 40
1.5
 40
1.5
 40
1.5
 40
1.5
 40
1.5
309
CELLMARGIN_END
 94
        6
 95
        1
302
GRIDFORMAT
  1
GRIDFORMAT_BEGIN
 90
        0
 91
        1
 62
     0
 92
       -2
340
14
 93
        0
 40
0.045
309
GRIDFORMAT_END
 95
        2
302
GRIDFORMAT
  1
GRIDFORMAT_BEGIN
 90
        0
 91
        1
 62
     0
 92
       -2
340
14
 93
        0
 40
0.045
309
GRIDFORMAT_END
 95
        4
302
GRIDFORMAT
  1
GRIDFORMAT_BEGIN
 90
        0
 91
        1
 62
     0
 92
       -2
340
14
 93
        0
 40
0.045
309
GRIDFORMAT_END
 95
        8
302
GRIDFORMAT
  1
GRIDFORMAT_BEGIN
 90
        0
 91
        1
 62
     0
 92
       -2
340
14
 93
        0
 40
0.045
309
GRIDFORMAT_END
 95
       16
302
GRIDFORMAT
  1
GRIDFORMAT_BEGIN
 90
        0
 91
        1
 62
     0
 92
       -2
340
14
 93
        0
 40
0.045
309
GRIDFORMAT_END
 95
       32
302
GRIDFORMAT
  1
GRIDFORMAT_BEGIN
 90
        0
 91
        1
 62
     0
 92
       -2
340
14
 93
        0
 40
0.045
309
GRIDFORMAT_END
309
TABLEFORMAT_END
  1
CELLSTYLE_BEGIN
 90
        2
 91
        1
300
_HEADER
309
CELLSTYLE_END
300
CELLSTYLE
  1
TABLEFORMAT_BEGIN
 90
        5
170
     1
 91
        0
 92
        0
 62
   257
 93
        1
300
CONTENTFORMAT
  1
CONTENTFORMAT_BEGIN
 90
        0
 91
        0
 92
        4
 93
        0
300

 40
0.0
140
1.0
 94
        2
 62
     0
340
11
144
4.5
309
CONTENTFORMAT_END
171
     1
301
MARGIN
  1
CELLMARGIN_BEGIN
 40
1.5
 40
1.5
 40
1.5
 40
1.5
 40
1.5
 40
1.5
309
CELLMARGIN_END
 94
        6
 95
        1
302
GRIDFORMAT
  1
GRIDFORMAT_BEGIN
 90
        0
 91
        1
 62
     0
 92
       -2
340
14
 93
        0
 40
0.045
309
GRIDFORMAT_END
 95
        2
302
GRIDFORMAT
  1
GRIDFORMAT_BEGIN
 90
        0
 91
        1
 62
     0
 92
       -2
340
14
 93
        0
 40
0.045
309
GRIDFORMAT_END
 95
        4
302
GRIDFORMAT
  1
GRIDFORMAT_BEGIN
 90
        0
 91
        1
 62
     0
 92
       -2
340
14
 93
        0
 40
0.045
309
GRIDFORMAT_END
 95
        8
302
GRIDFORMAT
  1
GRIDFORMAT_BEGIN
 90
        0
 91
        1
 62
     0
 92
       -2
340
14
 93
        0
 40
0.045
309
GRIDFORMAT_END
 95
       16
302
GRIDFORMAT
  1
GRIDFORMAT_BEGIN
 90
        0
 91
        1
 62
     0
 92
       -2
340
14
 93
        0
 40
0.045
309
GRIDFORMAT_END
 95
       32
302
GRIDFORMAT
  1
GRIDFORMAT_BEGIN
 90
        0
 91
        1
 62
     0
 92
       -2
340
14
 93
        0
 40
0.045
309
GRIDFORMAT_END
309
TABLEFORMAT_END
  1
CELLSTYLE_BEGIN
 90
        3
 91
        2
300
_DATA
309
CELLSTYLE_END
  0
ENDSEC
  0
EOF
