  0
SECTION
  2
HEADER
  9
$ACADVER
  1
AC1021
  9
$ACADMAINTVER
 70
    25
  9
$DWGCODEPAGE
  3
ANSI_1252
  9
$INSBASE
 10
0.0
 20
0.0
 30
0.0
  9
$EXTMIN
 10
-247.0726710209
 20
-176.9042680685
 30
0.0
  9
$EXTMAX
 10
247.0726710209
 20
142.6449990737
 30
0.0
  9
$LIMMIN
 10
0.0
 20
0.0
  9
$LIMMAX
 10
420.0
 20
297.0
  9
$ORTHOMODE
 70
     0
  9
$REGENMODE
 70
     1
  9
$FILLMODE
 70
     1
  9
$QTEXTMODE
 70
     0
  9
$MIRRTEXT
 70
     1
  9
$LTSCALE
 40
1.0
  9
$ATTMODE
 70
     1
  9
$TEXTSIZE
 40
3.5
  9
$TRACEWID
 40
1.0
  9
$TEXTSTYLE
  7
Standard
  9
$CLAYER
  8
0
  9
$CELTYPE
  6
ByLayer
  9
$CECOLOR
 62
   256
  9
$CELTSCALE
 40
1.0
  9
$DISPSILH
 70
     0
  9
$DIMSCALE
 40
1.0
  9
$DIMASZ
 40
8.0
  9
$DIMEXO
 40
1.0
  9
$DIMDLI
 40
3.75
  9
$DIMRND
 40
0.0
  9
$DIMDLE
 40
0.0
  9
$DIMEXE
 40
1.0
  9
$DIMTP
 40
0.0
  9
$DIMTM
 40
0.0
  9
$DIMTXT
 40
16.9333333333
  9
$DIMCEN
 40
2.5
  9
$DIMTSZ
 40
0.0
  9
$DIMTOL
 70
     0
  9
$DIMLIM
 70
     0
  9
$DIMTIH
 70
     1
  9
$DIMTOH
 70
     1
  9
$DIMSE1
 70
     0
  9
$DIMSE2
 70
     0
  9
$DIMTAD
 70
     1
  9
$DIMZIN
 70
     0
  9
$DIMBLK
  1

  9
$DIMASO
 70
     1
  9
$DIMSHO
 70
     1
  9
$DIMPOST
  1

  9
$DIMAPOST
  1

  9
$DIMALT
 70
     0
  9
$DIMALTD
 70
     3
  9
$DIMALTF
 40
0.0393700787
  9
$DIMLFAC
 40
1.0
  9
$DIMTOFL
 70
     1
  9
$DIMTVP
 40
0.0
  9
$DIMTIX
 70
     0
  9
$DIMSOXD
 70
     0
  9
$DIMSAH
 70
     0
  9
$DIMBLK1
  1

  9
$DIMBLK2
  1

  9
$DIMSTYLE
  2
ISO-25
  9
$DIMCLRD
 70
     0
  9
$DIMCLRE
 70
     0
  9
$DIMCLRT
 70
     0
  9
$DIMTFAC
 40
1.0
  9
$DIMGAP
 40
1.524
  9
$DIMJUST
 70
     0
  9
$DIMSD1
 70
     0
  9
$DIMSD2
 70
     0
  9
$DIMTOLJ
 70
     0
  9
$DIMTZIN
 70
     0
  9
$DIMALTZ
 70
     0
  9
$DIMALTTZ
 70
     0
  9
$DIMUPT
 70
     0
  9
$DIMDEC
 70
     2
  9
$DIMTDEC
 70
     2
  9
$DIMALTU
 70
     2
  9
$DIMALTTD
 70
     3
  9
$DIMTXSTY
  7
Standard
  9
$DIMAUNIT
 70
     0
  9
$DIMADEC
 70
     2
  9
$DIMALTRND
 40
0.0
  9
$DIMAZIN
 70
     0
  9
$DIMDSEP
 70
    44
  9
$DIMATFIT
 70
     3
  9
$DIMFRAC
 70
     0
  9
$DIMLDRBLK
  1

  9
$DIMLUNIT
 70
     2
  9
$DIMLWD
 70
    -2
  9
$DIMLWE
 70
    -2
  9
$DIMTMOVE
 70
     0
  9
$DIMFXL
 40
1.0
  9
$DIMFXLON
 70
     0
  9
$DIMJOGANG
 40
0.7853981634
  9
$DIMTFILL
 70
     0
  9
$DIMTFILLCLR
 70
     0
  9
$DIMARCSYM
 70
     0
  9
$DIMLTYPE
  6

  9
$DIMLTEX1
  6

  9
$DIMLTEX2
  6

  9
$LUNITS
 70
     2
  9
$LUPREC
 70
     2
  9
$SKETCHINC
 40
1.0
  9
$FILLETRAD
 40
10.0
  9
$AUNITS
 70
     0
  9
$AUPREC
 70
     2
  9
$MENU
  1
.
  9
$ELEVATION
 40
0.0
  9
$PELEVATION
 40
0.0
  9
$THICKNESS
 40
0.0
  9
$LIMCHECK
 70
     0
  9
$CHAMFERA
 40
0.0
  9
$CHAMFERB
 40
0.0
  9
$CHAMFERC
 40
0.0
  9
$CHAMFERD
 40
0.0
  9
$SKPOLY
 70
     0
  9
$TDCREATE
 40
2458225.576487998
  9
$TDUCREATE
 40
2458225.493154665
  9
$TDUPDATE
 40
2458225.576515729
  9
$TDUUPDATE
 40
2458225.493182396
  9
$TDINDWG
 40
0.0000000116
  9
$TDUSRTIMER
 40
0.0000000116
  9
$USRTIMER
 70
     1
  9
$ANGBASE
 50
0.0
  9
$ANGDIR
 70
     0
  9
$PDMODE
 70
     0
  9
$PDSIZE
 40
-1.0
  9
$PLINEWID
 40
0.0
  9
$SPLFRAME
 70
     0
  9
$SPLINETYPE
 70
     6
  9
$SPLINESEGS
 70
     8
  9
$HANDSEED
  5
102
  9
$SURFTAB1
 70
     6
  9
$SURFTAB2
 70
     6
  9
$SURFTYPE
 70
     6
  9
$SURFU
 70
     6
  9
$SURFV
 70
     6
  9
$UCSBASE
  2

  9
$UCSNAME
  2

  9
$UCSORG
 10
0.0
 20
0.0
 30
0.0
  9
$UCSXDIR
 10
1.0
 20
0.0
 30
0.0
  9
$UCSYDIR
 10
0.0
 20
1.0
 30
0.0
  9
$UCSORTHOREF
  2

  9
$UCSORTHOVIEW
 70
     0
  9
$UCSORGTOP
 10
0.0
 20
0.0
 30
0.0
  9
$UCSORGBOTTOM
 10
0.0
 20
0.0
 30
0.0
  9
$UCSORGLEFT
 10
0.0
 20
0.0
 30
0.0
  9
$UCSORGRIGHT
 10
0.0
 20
0.0
 30
0.0
  9
$UCSORGFRONT
 10
0.0
 20
0.0
 30
0.0
  9
$UCSORGBACK
 10
0.0
 20
0.0
 30
0.0
  9
$PUCSBASE
  2

  9
$PUCSNAME
  2

  9
$PUCSORG
 10
0.0
 20
0.0
 30
0.0
  9
$PUCSXDIR
 10
1.0
 20
0.0
 30
0.0
  9
$PUCSYDIR
 10
0.0
 20
1.0
 30
0.0
  9
$PUCSORTHOREF
  2

  9
$PUCSORTHOVIEW
 70
     0
  9
$PUCSORGTOP
 10
0.0
 20
0.0
 30
0.0
  9
$PUCSORGBOTTOM
 10
0.0
 20
0.0
 30
0.0
  9
$PUCSORGLEFT
 10
0.0
 20
0.0
 30
0.0
  9
$PUCSORGRIGHT
 10
0.0
 20
0.0
 30
0.0
  9
$PUCSORGFRONT
 10
0.0
 20
0.0
 30
0.0
  9
$PUCSORGBACK
 10
0.0
 20
0.0
 30
0.0
  9
$USERI1
 70
     0
  9
$USERI2
 70
     0
  9
$USERI3
 70
     0
  9
$USERI4
 70
     0
  9
$USERI5
 70
     0
  9
$USERR1
 40
0.0
  9
$USERR2
 40
0.0
  9
$USERR3
 40
0.0
  9
$USERR4
 40
0.0
  9
$USERR5
 40
0.0
  9
$WORLDVIEW
 70
     1
  9
$SHADEDGE
 70
     3
  9
$SHADEDIF
 70
    70
  9
$TILEMODE
 70
     1
  9
$MAXACTVP
 70
    64
  9
$PINSBASE
 10
0.0
 20
0.0
 30
0.0
  9
$PLIMCHECK
 70
     0
  9
$PEXTMIN
 10
-290.0
 20
-195.0
 30
0.0
  9
$PEXTMAX
 10
290.0
 20
195.0
 30
0.0
  9
$PLIMMIN
 10
-335.1361867704
 20
-211.9260700389
  9
$PLIMMAX
 10
335.1361867704
 20
262.0038910506
  9
$UNITMODE
 70
     0
  9
$VISRETAIN
 70
     1
  9
$PLINEGEN
 70
     0
  9
$PSLTSCALE
 70
     1
  9
$TREEDEPTH
 70
  3020
  9
$CMLSTYLE
  2
Standard
  9
$CMLJUST
 70
     0
  9
$CMLSCALE
 40
20.0
  9
$PROXYGRAPHICS
 70
     1
  9
$MEASUREMENT
 70
     1
  9
$CELWEIGHT
370
    -1
  9
$ENDCAPS
280
     0
  9
$JOINSTYLE
280
     0
  9
$LWDISPLAY
290
     1
  9
$INSUNITS
 70
     4
  9
$HYPERLINKBASE
  1

  9
$STYLESHEET
  1

  9
$XEDIT
290
     1
  9
$CEPSNTYPE
380
     0
  9
$PSTYLEMODE
290
     1
  9
$FINGERPRINTGUID
  2
{9D5CC86F-C967-424E-AB01-6A19364C969C}
  9
$VERSIONGUID
  2
{FAEB1C32-E019-11D5-929B-00C0DF256EC4}
  9
$EXTNAMES
290
     1
  9
$PSVPSCALE
 40
0.0
  9
$OLESTARTUP
290
     0
  9
$SORTENTS
280
   127
  9
$INDEXCTL
280
     0
  9
$HIDETEXT
280
     1
  9
$XCLIPFRAME
290
     0
  9
$HALOGAP
280
     0
  9
$OBSCOLOR
 70
   257
  9
$OBSLTYPE
280
     0
  9
$INTERSECTIONDISPLAY
280
     0
  9
$INTERSECTIONCOLOR
 70
   257
  9
$DIMASSOC
280
     2
  9
$PROJECTNAME
  1

  9
$CAMERADISPLAY
290
     0
  9
$LENSLENGTH
 40
50.0
  9
$CAMERAHEIGHT
 40
0.0
  9
$STEPSPERSEC
 40
2.0
  9
$STEPSIZE
 40
6.0
  9
$3DDWFPREC
 40
2.0
  9
$PSOLWIDTH
 40
5.0
  9
$PSOLHEIGHT
 40
80.0
  9
$LOFTANG1
 40
1.5707963268
  9
$LOFTANG2
 40
1.5707963268
  9
$LOFTMAG1
 40
0.0
  9
$LOFTMAG2
 40
0.0
  9
$LOFTPARAM
 70
     7
  9
$LOFTNORMALS
280
     1
  9
$LATITUDE
 40
37.795
  9
$LONGITUDE
 40
-122.394
  9
$NORTHDIRECTION
 40
0.0
  9
$TIMEZONE
 70
 -8000
  9
$LIGHTGLYPHDISPLAY
280
     1
  9
$TILEMODELIGHTSYNCH
280
     1
  9
$CMATERIAL
347
44
  9
$SOLIDHIST
280
     0
  9
$SHOWHIST
280
     1
  9
$DWFFRAME
280
     2
  9
$DGNFRAME
280
     2
  9
$REALWORLDSCALE
290
     1
  9
$INTERFERECOLOR
 62
   256
  9
$CSHADOW
280
     0
  9
$SHADOWPLANELOCATION
 40
0.0
  0
ENDSEC
  0
SECTION
  2
CLASSES
  0
CLASS
  1
ACDBDICTIONARYWDFLT
  2
AcDbDictionaryWithDefault
  3
ObjectDBX Classes
 90
        0
 91
        4
280
     0
281
     0
  0
CLASS
  1
VISUALSTYLE
  2
AcDbVisualStyle
  3
ObjectDBX Classes
 90
     4095
 91
        4
280
     0
281
     0
  0
CLASS
  1
MATERIAL
  2
AcDbMaterial
  3
ObjectDBX Classes
 90
     1153
 91
        4
280
     0
281
     0
  0
CLASS
  1
SCALE
  2
AcDbScale
  3
ObjectDBX Classes
 90
     1153
 91
        4
280
     0
281
     0
  0
CLASS
  1
TABLESTYLE
  2
AcDbTableStyle
  3
ObjectDBX Classes
 90
     4095
 91
        4
280
     0
281
     0
  0
CLASS
  1
MLEADERSTYLE
  2
AcDbMLeaderStyle
  3
ACDB_MLEADERSTYLE_CLASS
 90
     4095
 91
        4
280
     0
281
     0
  0
CLASS
  1
SUN
  2
AcDbSun
  3
SCENEOE
 90
     1153
 91
        4
280
     0
281
     0
  0
CLASS
  1
DICTIONARYVAR
  2
AcDbDictionaryVar
  3
ObjectDBX Classes
 90
        0
 91
        4
280
     0
281
     0
  0
CLASS
  1
CELLSTYLEMAP
  2
AcDbCellStyleMap
  3
ObjectDBX Classes
 90
     1152
 91
        4
280
     0
281
     0
  0
ENDSEC
  0
SECTION
  2
TABLES
  0
TABLE
  2
VPORT
  5
8
330
0
100
AcDbSymbolTable
 70
     1
  0
VPORT
  5
29
330
8
100
AcDbSymbolTableRecord
100
AcDbViewportTableRecord
  2
*Active
 70
     0
 10
0.0
 20
0.0
 11
1.0
 21
1.0
 12
0.0
 22
-17.1296344974
 13
0.0
 23
0.0
 14
10.0
 24
10.0
 15
10.0
 25
10.0
 16
0.0
 26
0.0
 36
1.0
 17
0.0
 27
0.0
 37
0.0
 40
325.9402524851
 41
1.5463823355
 42
50.0
 43
0.0
 44
0.0
 50
0.0
 51
0.0
 71
     0
 72
   100
 73
     1
 74
     3
 75
     0
 76
     0
 77
     0
 78
     0
281
     0
 65
     1
110
0.0
120
0.0
130
0.0
111
1.0
121
0.0
131
0.0
112
0.0
122
1.0
132
0.0
 79
     0
146
0.0
348
2F
 60
     3
 61
     5
292
     1
282
     1
141
0.0
142
0.0
 63
   250
361
6D
  0
ENDTAB
  0
TABLE
  2
LTYPE
  5
5
330
0
100
AcDbSymbolTable
 70
     6
  0
LTYPE
  5
14
330
5
100
AcDbSymbolTableRecord
100
AcDbLinetypeTableRecord
  2
ByBlock
 70
     0
  3

 72
    65
 73
     0
 40
0.0
  0
LTYPE
  5
15
330
5
100
AcDbSymbolTableRecord
100
AcDbLinetypeTableRecord
  2
ByLayer
 70
     0
  3

 72
    65
 73
     0
 40
0.0
  0
LTYPE
  5
16
330
5
100
AcDbSymbolTableRecord
100
AcDbLinetypeTableRecord
  2
Continuous
 70
     0
  3
Solid line
 72
    65
 73
     0
 40
0.0
  0
LTYPE
  5
6E
330
5
100
AcDbSymbolTableRecord
100
AcDbLinetypeTableRecord
  2
HIDDEN
 70
     0
  3
Hidden __ __ __ __ __ __ __ __ __ __ __ __ __ __
 72
    65
 73
     2
 40
1.905
 49
1.27
 74
     0
 49
-0.635
 74
     0
  0
LTYPE
  5
6F
330
5
100
AcDbSymbolTableRecord
100
AcDbLinetypeTableRecord
  2
PHANTOM
 70
     0
  3
Phantom ______  __  __  ______  __  __  ______
 72
    65
 73
     6
 40
12.7
 49
6.35
 74
     0
 49
-1.27
 74
     0
 49
1.27
 74
     0
 49
-1.27
 74
     0
 49
1.27
 74
     0
 49
-1.27
 74
     0
  0
LTYPE
  5
70
330
5
100
AcDbSymbolTableRecord
100
AcDbLinetypeTableRecord
  2
CENTER
 70
     0
  3
Center ____ _ ____ _ ____ _ ____ _ ____ _ ____
 72
    65
 73
     4
 40
10.16
 49
6.35
 74
     0
 49
-1.27
 74
     0
 49
1.27
 74
     0
 49
-1.27
 74
     0
  0
LTYPE
  5
71
330
5
100
AcDbSymbolTableRecord
100
AcDbLinetypeTableRecord
  2
CENTERX2
 70
     0
  3
Center (2x) ________  __  ________  __  _____
 72
    65
 73
     4
 40
20.32
 49
12.7
 74
     0
 49
-2.54
 74
     0
 49
2.54
 74
     0
 49
-2.54
 74
     0
  0
LTYPE
  5
72
330
5
100
AcDbSymbolTableRecord
100
AcDbLinetypeTableRecord
  2
DOT2
 70
     0
  3
Dot (.5x) ........................................
 72
    65
 73
     2
 40
0.635
 49
0.0
 74
     0
 49
-0.635
 74
     0
  0
ENDTAB
  0
TABLE
  2
LAYER
  5
2
330
0
100
AcDbSymbolTable
 70
     1
  0
LAYER
  5
10
330
2
100
AcDbSymbolTableRecord
100
AcDbLayerTableRecord
  2
0
 70
     0
 62
     7
  6
Continuous
370
    -3
390
F
347
46
  0
ENDTAB
  0
TABLE
  2
STYLE
  5
3
330
0
100
AcDbSymbolTable
 70
     1
  0
STYLE
  5
11
330
3
100
AcDbSymbolTableRecord
100
AcDbTextStyleTableRecord
  2
Standard
 70
     0
 40
0.0
 41
1.0
 50
0.0
 71
     0
 42
3.5
  3
txt
  4

  0
ENDTAB
  0
TABLE
  2
VIEW
  5
6
330
0
100
AcDbSymbolTable
 70
     0
  0
ENDTAB
  0
TABLE
  2
UCS
  5
7
330
0
100
AcDbSymbolTable
 70
     0
  0
ENDTAB
  0
TABLE
  2
APPID
  5
9
330
0
100
AcDbSymbolTable
 70
     2
  0
APPID
  5
12
330
9
100
AcDbSymbolTableRecord
100
AcDbRegAppTableRecord
  2
ACAD
 70
     0
  0
APPID
  5
FC
330
9
100
AcDbSymbolTableRecord
100
AcDbRegAppTableRecord
  2
ACAD_MLEADERVER
 70
     0
  0
ENDTAB
  0
TABLE
  2
DIMSTYLE
  5
A
330
0
100
AcDbSymbolTable
 70
     1
100
AcDbDimStyleTable
  0
DIMSTYLE
105
27
330
A
100
AcDbSymbolTableRecord
100
AcDbDimStyleTableRecord
  2
ISO-25
 70
     0
 41
2.5
 42
0.625
 43
3.75
 44
1.25
 73
     0
 74
     0
 77
     1
 78
     8
140
2.5
141
2.5
143
0.0393700787
147
0.625
171
     3
172
     1
178
     0
271
     2
272
     2
274
     3
278
    44
283
     0
284
     8
340
11
  0
ENDTAB
  0
TABLE
  2
BLOCK_RECORD
  5
1
330
0
100
AcDbSymbolTable
 70
     9
  0
BLOCK_RECORD
  5
1F
330
1
100
AcDbSymbolTableRecord
100
AcDbBlockTableRecord
  2
*Model_Space
340
22
 70
     0
280
     1
281
     0
  0
BLOCK_RECORD
  5
1B
330
1
100
AcDbSymbolTableRecord
100
AcDbBlockTableRecord
  2
*Paper_Space
340
1E
 70
     0
280
     1
281
     0
  0
BLOCK_RECORD
  5
23
330
1
100
AcDbSymbolTableRecord
100
AcDbBlockTableRecord
  2
*Paper_Space0
340
26
 70
     0
280
     1
281
     0
  0
BLOCK_RECORD
  5
86
330
1
100
AcDbSymbolTableRecord
100
AcDbBlockTableRecord
  2
*Paper_Space1
340
87
 70
     0
280
     1
281
     0
  0
BLOCK_RECORD
  5
97
330
1
100
AcDbSymbolTableRecord
100
AcDbBlockTableRecord
  2
*Paper_Space2
340
98
 70
     0
280
     1
281
     0
  0
BLOCK_RECORD
  5
A3
330
1
100
AcDbSymbolTableRecord
100
AcDbBlockTableRecord
  2
*Paper_Space3
340
A4
 70
     0
280
     1
281
     0
  0
BLOCK_RECORD
  5
AF
330
1
100
AcDbSymbolTableRecord
100
AcDbBlockTableRecord
  2
*Paper_Space4
340
B0
 70
     0
280
     1
281
     0
  0
BLOCK_RECORD
  5
BC
330
1
100
AcDbSymbolTableRecord
100
AcDbBlockTableRecord
  2
*Paper_Space5
340
BD
 70
     0
280
     1
281
     0
  0
BLOCK_RECORD
  5
C4
330
1
100
AcDbSymbolTableRecord
100
AcDbBlockTableRecord
  2
*Paper_Space6
340
C5
 70
     0
280
     1
281
     0
  0
BLOCK_RECORD
  5
D0
330
1
100
AcDbSymbolTableRecord
100
AcDbBlockTableRecord
  2
*Paper_Space7
340
D1
 70
     0
280
     1
281
     0
  0
BLOCK_RECORD
  5
DB
330
1
100
AcDbSymbolTableRecord
100
AcDbBlockTableRecord
  2
*Paper_Space8
340
DC
 70
     0
280
     1
281
     0
  0
ENDTAB
  0
ENDSEC
  0
SECTION
  2
BLOCKS
  0
BLOCK
  5
20
330
1F
100
AcDbEntity
  8
0
100
AcDbBlockBegin
  2
*Model_Space
 70
     0
 10
0.0
 20
0.0
 30
0.0
  3
*Model_Space
  1

  0
ENDBLK
  5
21
330
1F
100
AcDbEntity
  8
0
100
AcDbBlockEnd
  0
BLOCK
  5
1C
330
1B
100
AcDbEntity
 67
     1
  8
0
100
AcDbBlockBegin
  2
*Paper_Space
 70
     0
 10
0.0
 20
0.0
 30
0.0
  3
*Paper_Space
  1

  0
ENDBLK
  5
1D
330
1B
100
AcDbEntity
 67
     1
  8
0
100
AcDbBlockEnd
  0
BLOCK
  5
24
330
23
100
AcDbEntity
  8
0
100
AcDbBlockBegin
  2
*Paper_Space0
 70
     0
 10
0.0
 20
0.0
 30
0.0
  3
*Paper_Space0
  1

  0
SPLINE
  5
7E
330
23
100
AcDbEntity
  8
0
  6
Continuous
 62
     7
370
    25
100
AcDbSpline
210
0.0
220
0.0
230
1.0
 70
     8
 71
     3
 72
    33
 73
    29
 74
     0
 42
0.000000001
 43
0.00000001
 40
0.0
 40
0.0
 40
0.0
 40
0.0
 40
0.0566907272696022
 40
0.1150444722685879
 40
0.1690934166332191
 40
0.2188576242222072
 40
0.2643510014778011
 40
0.3055824804302265
 40
0.3349924899474974
 40
0.3617755999601682
 40
0.385932024543833
 40
0.4074613081040873
 40
0.4266136676386281
 40
0.4471904449916804
 40
0.4738607808924104
 40
0.5040343176893215
 40
0.5377189053546607
 40
0.5749249616796994
 40
0.6156792130768332
 40
0.6600051114942781
 40
0.6955947538756612
 40
0.7331873581469085
 40
0.7727737004831986
 40
0.8143408769111403
 40
0.8578723239004017
 40
0.9033450056025253
 40
0.9507318212372132
 40
1.0
 40
1.0
 40
1.0
 40
1.0
 10
80.97966917598332
 20
-135.7899273897239
 30
0.0
 10
85.85824390806488
 20
-135.0109370986144
 30
0.0
 10
95.75850595279144
 20
-133.4301049015453
 30
0.0
 10
110.1674425032562
 20
-130.3223869175417
 30
0.0
 10
123.868062032036
 20
-126.8558671552964
 30
0.0
 10
136.3557249813229
 20
-123.1976375970318
 30
0.0
 10
147.6542239431466
 20
-119.4794876374041
 30
0.0
 10
157.1674360179933
 20
-116.0260697423546
 30
0.0
 10
165.0736744808395
 20
-112.9338099648476
 30
0.0
 10
171.5429950187649
 20
-110.2563189277821
 30
0.0
 10
177.3339444493849
 20
-107.7382776596962
 30
0.0
 10
182.4785529303498
 20
-105.4031965826323
 30
0.0
 10
187.3073019029833
 20
-103.1283210240521
 30
0.0
 10
192.5067274161889
 20
-100.5903635053664
 30
0.0
 10
198.5194572099317
 20
-97.53112811049165
 30
0.0
 10
205.4795108671941
 20
-93.81772285041828
 30
0.0
 10
213.1491029753183
 20
-89.48966162679163
 30
0.0
 10
221.5290926863718
 20
-84.54621700242338
 30
0.0
 10
230.4347155124806
 20
-78.68367139350981
 30
0.0
 10
238.7950017692887
 20
-72.29150719032472
 30
0.0
 10
246.530058200657
 20
-65.57570333453707
 30
0.0
 10
253.5670413027302
 20
-58.70950852621547
 30
0.0
 10
260.5250669566112
 20
-51.04270446795411
 30
0.0
 10
267.2987003388944
 20
-42.53900991220231
 30
0.0
 10
273.7827885850166
 20
-33.17860740400554
 30
0.0
 10
279.8373814363644
 20
-22.94345287041842
 30
0.0
 10
285.4107787801458
 20
-11.8644964850398
 30
0.0
 10
288.4505369055165
 20
-4.005821152980399
 30
0.0
 10
289.9999999999999
 20
0.0
 30
0.0
  0
SPLINE
  5
7F
330
23
100
AcDbEntity
  8
0
  6
Continuous
 62
     7
370
    25
100
AcDbSpline
210
0.0
220
0.0
230
1.0
 70
     8
 71
     3
 72
    32
 73
    28
 74
     0
 42
0.000000001
 43
0.00000001
 40
0.0
 40
0.0
 40
0.0
 40
0.0
 40
0.0427493079516748
 40
0.0836218854462413
 40
0.122593832999367
 40
0.1596466108321589
 40
0.2060332328107541
 40
0.2489537283945207
 40
0.2883912413024454
 40
0.3194159122825195
 40
0.3478717203393533
 40
0.3737597763130071
 40
0.397082650345232
 40
0.4178441251267949
 40
0.4364683228695478
 40
0.4567281874023785
 40
0.4870145402858692
 40
0.521616087626775
 40
0.5605279895428278
 40
0.6037472398302074
 40
0.6512736751080861
 40
0.7031109261068725
 40
0.7559422312096424
 40
0.8126251253527741
 40
0.8731772076569098
 40
0.9376229922480931
 40
1.0
 40
1.0
 40
1.0
 40
1.0
 10
-290.0000000000001
 20
0.0
 30
0.0
 10
-288.6660695642915
 20
-3.479395631639168
 30
0.0
 10
-286.0567693572758
 20
-10.2854385098066
 30
0.0
 10
-281.4043648921634
 20
-19.91385544406088
 30
0.0
 10
-276.4428236296543
 20
-28.81512611429123
 30
0.0
 10
-270.6847331501157
 20
-37.80101977041677
 30
0.0
 10
-264.1451669641214
 20
-46.6713031734677
 30
0.0
 10
-256.8606706126958
 20
-55.21363879088936
 30
0.0
 10
-249.9712506446914
 20
-62.30367342875751
 30
0.0
 10
-243.6281222410954
 20
-68.14417604173435
 30
0.0
 10
-237.9226930582528
 20
-72.92087348034
 30
0.0
 10
-232.5508598569759
 20
-77.03996590122728
 30
0.0
 10
-227.5707498859228
 20
-80.55953492993888
 30
0.0
 10
-223.0021887182004
 20
-83.55893432476788
 30
0.0
 10
-218.5657157200176
 20
-86.2668128777966
 30
0.0
 10
-213.3824806080122
 20
-89.34264726398396
 30
0.0
 10
-206.9346714378449
 20
-93.01420823119567
 30
0.0
 10
-198.9756029132087
 20
-97.31200912019591
 30
0.0
 10
-189.9036007831932
 20
-101.9143048999921
 30
0.0
 10
-179.68467448464
 20
-106.7358383784854
 30
0.0
 10
-168.2845888948345
 20
-111.6800143574129
 30
0.0
 10
-155.9401487448838
 20
-116.5335083656745
 30
0.0
 10
-142.6738500971525
 20
-121.1972085645314
 30
0.0
 10
-128.5136650675726
 20
-125.5797515651529
 30
0.0
 10
-113.2048549982277
 20
-129.6233205873391
 30
0.0
 10
-97.25850795220978
 20
-133.1682091764943
 30
0.0
 10
-86.34622837652775
 20
-134.9235307111487
 30
0.0
 10
-80.97909101022627
 20
-135.7868747753452
 30
0.0
  0
SPLINE
  5
80
330
23
100
AcDbEntity
  8
0
  6
Continuous
 62
     7
370
    25
100
AcDbSpline
210
0.0
220
0.0
230
1.0
 70
     8
 71
     3
 72
    16
 73
    12
 74
     0
 42
0.000000001
 43
0.00000001
 40
0.0
 40
0.0
 40
0.0
 40
0.0
 40
0.0656858167135465
 40
0.1481007067548371
 40
0.2843067235584428
 40
0.4038985473541062
 40
0.5156426061993657
 40
0.6341321011955741
 40
0.7558376605605177
 40
0.8793494531420476
 40
1.0
 40
1.0
 40
1.0
 40
1.0
 10
-80.97837788298159
 20
-135.8271426873665
 30
0.0
 10
-80.68613323642809
 20
-135.873844604366
 30
0.0
 10
-80.0272141445236
 20
-135.9791426315579
 30
0.0
 10
-78.80137899156236
 20
-136.360919458346
 30
0.0
 10
-77.41456288897764
 20
-137.0081926401285
 30
0.0
 10
-76.0558493015092
 20
-137.9657786315482
 30
0.0
 10
-74.92061559726426
 20
-139.0652159685844
 30
0.0
 10
-73.9619483797607
 20
-140.3360100220351
 30
0.0
 10
-73.20203564460398
 20
-141.7926031169783
 30
0.0
 10
-72.66842420129868
 20
-143.3632892290954
 30
0.0
 10
-72.54206520585599
 20
-144.4577121585878
 30
0.0
 10
-72.479626084673
 20
-144.9985110600083
 30
0.0
  0
SPLINE
  5
81
330
23
100
AcDbEntity
  8
0
  6
Continuous
 62
     7
370
    25
100
AcDbSpline
210
0.0
220
0.0
230
1.0
 70
     8
 71
     3
 72
    18
 73
    14
 74
     0
 42
0.000000001
 43
0.00000001
 40
0.0
 40
0.0
 40
0.0
 40
0.0
 40
0.0933780039045921
 40
0.2170094512742165
 40
0.3339394151838301
 40
0.4448014156409273
 40
0.5497911525300057
 40
0.6487951410058886
 40
0.7414249431040142
 40
0.827005070775964
 40
0.9045319519074654
 40
0.9726220262650077
 40
1.0
 40
1.0
 40
1.0
 40
1.0
 10
72.48491920940738
 20
-145.0006258281031
 30
0.0
 10
72.5172016137882
 20
-144.5799878748051
 30
0.0
 10
72.59222556554944
 20
-143.6024299102595
 30
0.0
 10
73.03949859269898
 20
-142.1516652143883
 30
0.0
 10
73.71527487755871
 20
-140.7143388055683
 30
0.0
 10
74.56515431463785
 20
-139.4700690411708
 30
0.0
 10
75.5295043695591
 20
-138.4224200814402
 30
0.0
 10
76.56533231703827
 20
-137.5701436483118
 30
0.0
 10
77.6277768028431
 20
-136.9061878213577
 30
0.0
 10
78.67392833123304
 20
-136.4147045741364
 30
0.0
 10
79.66303064118932
 20
-136.0822350521618
 30
0.0
 10
80.42217369595834
 20
-135.8948040642415
 30
0.0
 10
80.84870058853714
 20
-135.8370593849096
 30
0.0
 10
80.97101839324361
 20
-135.8204995793446
 30
0.0
  0
SPLINE
  5
82
330
23
100
AcDbEntity
  8
0
  6
Continuous
 62
     7
370
    25
100
AcDbSpline
210
0.0
220
0.0
230
1.0
 70
    24
 71
     3
 72
    21
 73
    17
 74
     0
 42
0.000000001
 43
0.00000001
 40
0.5000000000020915
 40
0.5000000000020915
 40
0.5000000000020915
 40
0.5000000000020915
 40
0.5416666666666667
 40
0.5833333333333333
 40
0.625
 40
0.6666666666666667
 40
0.7083333333333333
 40
0.7500000000009739
 40
0.7916666666666666
 40
0.8333333333333334
 40
0.875
 40
0.9166666666666666
 40
0.9583333333333334
 40
0.9916666666666667
 40
0.99375
 40
1.0
 40
1.0
 40
1.0
 40
1.0
 10
289.9999999999999
 20
0.0
 30
0.0
 10
290.0000000001716
 20
0.0
 30
0.0
 10
283.1914952762036
 20
0.0
 30
0.0
 10
254.2143952860994
 20
0.0
 30
0.0
 10
207.4681364742389
 20
0.0
 30
0.0
 10
146.2788580815368
 20
0.0
 30
0.0
 10
76.32195028835913
 20
0.0
 30
0.0
 10
-0.0000000000000729
 20
0.0
 30
0.0
 10
-76.3219502883593
 20
0.0
 30
0.0
 10
-146.2788580815369
 20
0.0
 30
0.0
 10
-207.4681364742391
 20
0.0
 30
0.0
 10
-254.2143952860996
 20
0.0
 30
0.0
 10
-281.2596886097432
 20
0.0
 30
0.0
 10
-288.7146899587347
 20
0.0
 30
0.0
 10
-289.8978724291358
 20
0.0
 30
0.0
 10
-290.0000000000001
 20
0.0
 30
0.0
 10
-290.0000000000001
 20
0.0
 30
0.0
  0
SPLINE
  5
83
330
23
100
AcDbEntity
  8
0
  6
Continuous
 62
     7
370
    25
100
AcDbSpline
210
0.0
220
0.0
230
1.0
 70
     8
 71
     3
 72
     9
 73
     5
 74
     0
 42
0.000000001
 43
0.00000001
 40
0.0
 40
0.0
 40
0.0
 40
0.0
 40
0.9979265615239664
 40
1.0
 40
1.0
 40
1.0
 40
1.0
 10
80.97097674066974
 20
-135.8202136679261
 30
0.0
 10
80.98134084734308
 20
-135.8203935745813
 30
0.0
 10
80.99172648800338
 20
-135.8205738550369
 30
0.0
 10
80.98483653135281
 20
-135.8204553987288
 30
0.0
 10
80.98482224545161
 20
-135.820455153117
 30
0.0
  0
SPLINE
  5
84
330
23
100
AcDbEntity
  8
0
  6
Continuous
 62
     7
370
    25
100
AcDbSpline
210
0.0
220
0.0
230
1.0
 70
    24
 71
     3
 72
    31
 73
    27
 74
     0
 42
0.000000001
 43
0.00000001
 40
0.0
 40
0.0
 40
0.0
 40
0.0
 40
0.0318265826974223
 40
0.0653390737872226
 40
0.0999842174839515
 40
0.136453669451781
 40
0.1752752195322894
 40
0.2164919566019999
 40
0.2599396271326722
 40
0.3052357089873766
 40
0.3519694383837858
 40
0.4000711681693097
 40
0.4494245948283683
 40
0.4994557394785806
 40
0.5494868841288519
 40
0.5988403107881681
 40
0.6469420405742022
 40
0.6936757699711072
 40
0.7389718518260258
 40
0.7824195223567273
 40
0.8236362594264149
 40
0.8624578095067539
 40
0.8989272614741928
 40
0.9335724051705494
 40
0.9670848962602053
 40
1.0
 40
1.0
 40
1.0
 40
1.0
 10
72.47917727207222
 20
-145.0
 30
0.0
 10
72.35734828440343
 20
-145.0
 30
0.0
 10
72.10723681970764
 20
-145.0
 30
0.0
 10
70.15511957273331
 20
-144.9999999999999
 30
0.0
 10
67.08875287149597
 20
-145.0000000000001
 30
0.0
 10
62.84572575469584
 20
-144.9999999999999
 30
0.0
 10
57.53593073305773
 20
-145.0
 30
0.0
 10
51.23561390213722
 20
-145.0
 30
0.0
 10
44.05963919505623
 20
-145.0
 30
0.0
 10
36.17003861196623
 20
-145.0
 30
0.0
 10
27.69912592219755
 20
-145.0
 30
0.0
 10
18.7604572773486
 20
-145.0000000000001
 30
0.0
 10
9.475887217416018
 20
-145.0000000000001
 30
0.0
 10
-0.0000000042673048
 20
-145.0000000000001
 30
0.0
 10
-9.475887199613291
 20
-145.0
 30
0.0
 10
-18.7604573369421
 20
-145.0
 30
0.0
 10
-27.69912570864836
 20
-145.0
 30
0.0
 10
-36.17003937360143
 20
-145.0
 30
0.0
 10
-44.05963649407644
 20
-145.0
 30
0.0
 10
-51.23562332770066
 20
-145.0
 30
0.0
 10
-57.535898325402
 20
-144.9999999999999
 30
0.0
 10
-62.8458362223185
 20
-145.0000000000001
 30
0.0
 10
-67.08837561549609
 20
-144.9999999999999
 30
0.0
 10
-70.15643389954069
 20
-145.0
 30
0.0
 10
-72.12378932198239
 20
-145.0
 30
0.0
 10
-72.37535054238198
 20
-145.0
 30
0.0
 10
-72.50000000000001
 20
-145.0
 30
0.0
  0
SPLINE
  5
85
330
23
100
AcDbEntity
  8
0
  6
Continuous
 62
     1
370
    25
100
AcDbSpline
210
0.0
220
0.0
230
1.0
 70
     8
 71
     3
 72
    38
 73
    34
 74
     0
 42
0.000000001
 43
0.00000001
 40
0.0
 40
0.0
 40
0.0
 40
0.0
 40
0.0271739519747156
 40
0.0578044293122987
 40
0.0892607901711473
 40
0.1220777804597246
 40
0.1555969757800395
 40
0.1810239187240528
 40
0.2066479938699678
 40
0.2328056974388373
 40
0.259113817977929
 40
0.2953433080613717
 40
0.33184192147904
 40
0.3690808828086824
 40
0.4065348479452337
 40
0.4441494080338559
 40
0.4819419154779052
 40
0.5202780991879178
 40
0.5587980747454115
 40
0.6036789279255144
 40
0.6488887994369433
 40
0.6953044032560636
 40
0.7422306091701866
 40
0.7660390357615842
 40
0.7899524080273721
 40
0.8142421535629607
 40
0.8386867145354001
 40
0.8767335560991798
 40
0.8961965929025961
 40
0.9158122947802018
 40
0.9476692926060961
 40
0.9804369574665364
 40
1.0
 40
1.0
 40
1.0
 40
1.0
 10
-80.98486502888484
 20
-135.8204558886682
 30
0.0
 10
-80.89644996159393
 20
-135.8188674232204
 30
0.0
 10
-80.70837343477457
 20
-135.8154884395974
 30
0.0
 10
-79.13811365432856
 20
-135.7894226596819
 30
0.0
 10
-76.49879136962909
 20
-135.7489203841843
 30
0.0
 10
-72.78496154072661
 20
-135.6974642781837
 30
0.0
 10
-68.5431417038708
 20
-135.646725126402
 30
0.0
 10
-64.14998327427521
 20
-135.6016303880475
 30
0.0
 10
-59.82394541681947
 20
-135.5625070170026
 30
0.0
 10
-55.18038089191227
 20
-135.5251697031242
 30
0.0
 10
-49.65341325940984
 20
-135.4872492656163
 30
0.0
 10
-43.21244800446653
 20
-135.4508717419963
 30
0.0
 10
-35.80242800898317
 20
-135.4172588787121
 30
0.0
 10
-28.11088238749371
 20
-135.3902249969885
 30
0.0
 10
-20.19739076858396
 20
-135.3700369635977
 30
0.0
 10
-12.14823044538748
 20
-135.3567856404602
 30
0.0
 10
-3.98032966051947
 20
-135.3500814157324
 30
0.0
 10
4.271727540040082
 20
-135.3501848719187
 30
0.0
 10
13.01213254841173
 20
-135.3576295865013
 30
0.0
 10
22.17516821824908
 20
-135.3738544422255
 30
0.0
 10
31.74465038078027
 20
-135.4013740194854
 30
0.0
 10
41.20033935717559
 20
-135.4401570097711
 30
0.0
 10
48.87311049102831
 20
-135.4821024378447
 30
0.0
 10
54.7784693311126
 20
-135.5223426610756
 30
0.0
 10
59.0882912623568
 20
-135.5564036071673
 30
0.0
 10
63.21162681254941
 20
-135.592795574036
 30
0.0
 10
67.81190099369246
 20
-135.6385279935183
 30
0.0
 10
71.6904848353416
 20
-135.6839475664166
 30
0.0
 10
74.78807839706954
 20
-135.7250857908407
 30
0.0
 10
77.25135121979648
 20
-135.7603076480129
 30
0.0
 10
79.47592211236497
 20
-135.7948117695643
 30
0.0
 10
80.78567512250139
 20
-135.8168887790198
 30
0.0
 10
80.92055422909664
 20
-135.8193089308223
 30
0.0
 10
80.97097674066974
 20
-135.8202136679261
 30
0.0
  0
VIEWPORT
  5
E6
330
23
100
AcDbEntity
  8
0
100
AcDbViewport
 10
0.0
 20
0.0
 30
0.0
 40
205.6
 41
156.0
 68
     1
 69
     1
 12
0.0
 22
-17.1296344974
 13
0.0
 23
0.0
 14
10.0
 24
10.0
 15
10.0
 25
10.0
 16
0.0
 26
0.0
 36
1.0
 17
0.0
 27
0.0
 37
0.0
 42
50.0
 43
0.0
 44
0.0
 45
382.433885339
 50
0.0
 51
0.0
 72
   100
 90
   557152
  1

281
     0
 71
     1
 74
     0
110
0.0
120
0.0
130
0.0
111
1.0
121
0.0
131
0.0
112
0.0
122
1.0
132
0.0
 79
     0
146
0.0
170
     0
 61
     5
348
2F
292
     1
282
     1
141
0.0
142
0.0
 63
   256
361
E7
  0
ENDBLK
  5
25
330
23
100
AcDbEntity
  8
0
100
AcDbBlockEnd
  0
BLOCK
  5
88
330
86
100
AcDbEntity
  8
0
100
AcDbBlockBegin
  2
*Paper_Space1
 70
     0
 10
0.0
 20
0.0
 30
0.0
  3
*Paper_Space1
  1

  0
SPLINE
  5
8A
330
86
100
AcDbEntity
  8
0
  6
Continuous
 62
     7
370
    25
100
AcDbSpline
210
0.0
220
0.0
230
1.0
 70
     8
 71
     3
 72
    30
 73
    26
 74
     0
 42
0.000000001
 43
0.00000001
 40
0.0
 40
0.0
 40
0.0
 40
0.0
 40
0.0453776796816326
 40
0.0986456100232233
 40
0.1485039806909812
 40
0.1949381959478849
 40
0.2379365137847068
 40
0.2774908261857588
 40
0.3135962823580235
 40
0.3462500072934379
 40
0.3754506445854429
 40
0.4011982002713106
 40
0.4235840642106956
 40
0.4470308304008665
 40
0.4797955095713425
 40
0.5176001853087345
 40
0.5604303106632504
 40
0.60825318821159
 40
0.6610222433179532
 40
0.7087794810363703
 40
0.7599874886184596
 40
0.8146697400376687
 40
0.8728621929460983
 40
0.9346160216957492
 40
1.0
 40
1.0
 40
1.0
 40
1.0
 10
55.1218550611461
 20
-135.3118990559306
 30
0.0
 10
58.12620789883459
 20
-134.5830579648138
 30
0.0
 10
64.65730910273204
 20
-132.9986452194368
 30
0.0
 10
74.28658204825857
 20
-129.8723590441231
 30
0.0
 10
83.81269385578891
 20
-126.2554450675736
 30
0.0
 10
92.49329617426518
 20
-122.4165344807835
 30
0.0
 10
100.3525183963105
 20
-118.4840030384016
 30
0.0
 10
107.4140618969247
 20
-114.5483019013141
 30
0.0
 10
113.7079107782577
 20
-110.6963460475308
 30
0.0
 10
119.267342682045
 20
-107.0049201917568
 30
0.0
 10
124.126386060426
 20
-103.5406959694077
 30
0.0
 10
128.3235983305333
 20
-100.3573300452693
 30
0.0
 10
132.1307555339721
 20
-97.31124423996428
 30
0.0
 10
136.2272177693102
 20
-93.86423572099417
 30
0.0
 10
141.0009366343182
 20
-89.59427780005117
 30
0.0
 10
146.5599114746032
 20
-84.22918637440785
 30
0.0
 10
152.5885947191073
 20
-77.88427602229847
 30
0.0
 10
158.9664329015231
 20
-70.47963658572283
 30
0.0
 10
165.1403989686701
 20
-62.47426876051021
 30
0.0
 10
171.0029802824281
 20
-53.95808531352482
 30
0.0
 10
176.4719787856885
 20
-45.02998482760306
 30
0.0
 10
181.7642069437238
 20
-35.1788325798474
 30
0.0
 10
186.7358865178302
 20
-24.36754525613036
 30
0.0
 10
191.3219582982249
 20
-12.59184640807567
 30
0.0
 10
193.7508686438597
 20
-4.276425189099847
 30
0.0
 10
195.0000000000001
 20
0.0
 30
0.0
  0
SPLINE
  5
8B
330
86
100
AcDbEntity
  8
0
  6
Continuous
 62
     7
370
    25
100
AcDbSpline
210
0.0
220
0.0
230
1.0
 70
     8
 71
     3
 72
    30
 73
    26
 74
     0
 42
0.000000001
 43
0.00000001
 40
0.0
 40
0.0
 40
0.0
 40
0.0
 40
0.0567322400397419
 40
0.1098972822890034
 40
0.1595441433896352
 40
0.2057088663158202
 40
0.2484163063578047
 40
0.2876822333285916
 40
0.3235151356264159
 40
0.3559177259857276
 40
0.3848881365786786
 40
0.4104214208939395
 40
0.4326551574840526
 40
0.4561823588926273
 40
0.4890281141740255
 40
0.5269128024197389
 40
0.5698414017766603
 40
0.6178169921600742
 40
0.6708387639465976
 40
0.7188756977562633
 40
0.7704053723703751
 40
0.8254172096317394
 40
0.8838948826858213
 40
0.9458173836429422
 40
1.0
 40
1.0
 40
1.0
 40
1.0
 10
-195.0
 20
0.0
 30
0.0
 10
-193.9261042042216
 20
-3.713522879169956
 30
0.0
 10
-191.8458368053852
 20
-10.90707053131497
 30
0.0
 10
-188.0452912110423
 20
-21.09853457967381
 30
0.0
 10
-184.0171302961299
 20
-30.41663746045419
 30
0.0
 10
-179.8209231107244
 20
-38.87261482803354
 30
0.0
 10
-175.5724300225388
 20
-46.50073213441323
 30
0.0
 10
-171.3609066176055
 20
-53.33430517467096
 30
0.0
 10
-167.2694785270541
 20
-59.40961767941562
 30
0.0
 10
-163.3709278272522
 20
-64.76337209967329
 30
0.0
 10
-159.7295746373669
 20
-69.43206025485225
 30
0.0
 10
-156.3949822386075
 20
-73.4583257890448
 30
0.0
 10
-153.2019889018514
 20
-77.11809287478496
 30
0.0
 10
-149.5830676955524
 20
-81.06525072139644
 30
0.0
 10
-145.1016410848339
 20
-85.66511627889425
 30
0.0
 10
-139.490708522394
 20
-91.00289979139879
 30
0.0
 10
-132.8758679473735
 20
-96.77014661849618
 30
0.0
 10
-125.1760220410558
 20
-102.8458429519171
 30
0.0
 10
-116.8721148790186
 20
-108.695669594414
 30
0.0
 10
-108.0591407008463
 20
-114.2148244125683
 30
0.0
 10
-98.84311164393041
 20
-119.3182543374988
 30
0.0
 10
-88.70940168649426
 20
-124.1997988768338
 30
0.0
 10
-77.6355408126164
 20
-128.7015178339241
 30
0.0
 10
-66.36483407179148
 20
-132.5419398942625
 30
0.0
 10
-58.68110376001061
 20
-134.4276609914623
 30
0.0
 10
-55.09534784067633
 20
-135.3076678777178
 30
0.0
  0
SPLINE
  5
8C
330
86
100
AcDbEntity
  8
0
  6
Continuous
 62
     7
370
    25
100
AcDbSpline
210
0.0
220
0.0
230
1.0
 70
     8
 71
     3
 72
    18
 73
    14
 74
     0
 42
0.000000001
 43
0.00000001
 40
0.0
 40
0.0
 40
0.0
 40
0.0
 40
0.0160745129832687
 40
0.1485284842443834
 40
0.2731946876423101
 40
0.3912287907075895
 40
0.5031388688869015
 40
0.6090356241874456
 40
0.7087285046372395
 40
0.8017459544587444
 40
0.8873139062335438
 40
0.9643086266274312
 40
1.0
 40
1.0
 40
1.0
 40
1.0
 10
47.53003244153984
 20
-144.9972667592908
 30
0.0
 10
47.52490689089117
 20
-144.9266215226893
 30
0.0
 10
47.47754680791032
 20
-144.2738596055831
 30
0.0
 10
47.68655636543254
 20
-143.0703747466137
 30
0.0
 10
48.13317206220086
 20
-141.4796477499755
 30
0.0
 10
48.81831784902086
 20
-140.0660621824788
 30
0.0
 10
49.65512870057292
 20
-138.8409781801716
 30
0.0
 10
50.60560503241636
 20
-137.8087115475281
 30
0.0
 10
51.62212983512208
 20
-136.9687147391973
 30
0.0
 10
52.66059601543284
 20
-136.3112414978804
 30
0.0
 10
53.67956721144449
 20
-135.829426750731
 30
0.0
 10
54.50197422069363
 20
-135.5281133890376
 30
0.0
 10
54.98535097253373
 20
-135.4149046818585
 30
0.0
 10
55.13845220759206
 20
-135.3790477797164
 30
0.0
  0
SPLINE
  5
8D
330
86
100
AcDbEntity
  8
0
  6
Continuous
 62
     7
370
    25
100
AcDbSpline
210
0.0
220
0.0
230
1.0
 70
     8
 71
     3
 72
    17
 73
    13
 74
     0
 42
0.000000001
 43
0.00000001
 40
0.0
 40
0.0
 40
0.0
 40
0.0
 40
0.0264934047750379
 40
0.1093944515225565
 40
0.2466689520826937
 40
0.3682966267937761
 40
0.482677897169712
 40
0.6039840058711781
 40
0.728615632834723
 40
0.8551156344988672
 40
0.9825805197906328
 40
1.0
 40
1.0
 40
1.0
 40
1.0
 10
-55.11507983724637
 20
-135.3892883385761
 30
0.0
 10
-55.00112793909059
 20
-135.4133918217959
 30
0.0
 10
-54.53060686018227
 20
-135.5129180000656
 30
0.0
 10
-53.50962036261713
 20
-135.8906918330855
 30
0.0
 10
-52.16458401504018
 20
-136.5728829045949
 30
0.0
 10
-50.85245670140072
 20
-137.5708777017678
 30
0.0
 10
-49.7582332099891
 20
-138.7051252916345
 30
0.0
 10
-48.84714403017701
 20
-140.0075860881262
 30
0.0
 10
-48.12739140194143
 20
-141.4888798517284
 30
0.0
 10
-47.68350246384295
 20
-143.093078230755
 30
0.0
 10
-47.48280599089097
 20
-144.2853463793353
 30
0.0
 10
-47.52628647446945
 20
-144.9209164964971
 30
0.0
 10
-47.53151414289709
 20
-144.9973312362054
 30
0.0
  0
SPLINE
  5
8E
330
86
100
AcDbEntity
  8
0
  6
Continuous
 62
     7
370
    25
100
AcDbSpline
210
0.0
220
0.0
230
1.0
 70
    24
 71
     3
 72
    15
 73
    11
 74
     0
 42
0.000000001
 43
0.00000001
 40
0.7500000000009739
 40
0.7500000000009739
 40
0.7500000000009739
 40
0.7500000000009739
 40
0.7916666666666666
 40
0.8333333333333334
 40
0.875
 40
0.9166666666666666
 40
0.9583333333333334
 40
0.9916666666666667
 40
0.99375
 40
1.0
 40
1.0
 40
1.0
 40
1.0
 10
195.0000000000001
 20
0.0
 30
0.0
 10
195.0000000000536
 20
0.0
 30
0.0
 10
190.4218675131345
 20
0.0
 30
0.0
 10
170.9372657958255
 20
0.0
 30
0.0
 10
139.5044365947469
 20
0.0
 30
0.0
 10
98.35992181344712
 20
0.0
 30
0.0
 10
54.45593140531495
 20
0.0
 30
0.0
 10
23.07256972886447
 20
0.0
 30
0.0
 10
5.987325410552257
 20
0.0
 30
0.0
 10
2.565996604522375
 20
0.0
 30
0.0
 10
-0.0000000000000382
 20
0.0
 30
0.0
  0
SPLINE
  5
91
330
86
100
AcDbEntity
  8
0
  6
Continuous
 62
     7
370
    25
100
AcDbSpline
210
0.0
220
0.0
230
1.0
 70
    24
 71
     3
 72
    19
 73
    15
 74
     0
 42
0.000000001
 43
0.00000001
 40
0.0
 40
0.0
 40
0.0
 40
0.0
 40
0.0659793253792766
 40
0.1331561318494688
 40
0.2026033748788156
 40
0.2757074992584801
 40
0.3535264757601935
 40
0.4361466773458
 40
0.5232388528278412
 40
0.6140362249622535
 40
0.707715405268805
 40
0.8041367839140396
 40
0.903067226967508
 40
1.0
 40
1.0
 40
1.0
 40
1.0
 10
-0.0000000000000042
 20
-145.0
 30
0.0
 10
-2.089998796977163
 20
-145.0
 30
0.0
 10
-6.307928485948061
 20
-144.9999999999999
 30
0.0
 10
-12.47031397513213
 20
-145.0
 30
0.0
 10
-18.37950262672974
 20
-145.0
 30
0.0
 10
-23.95107762596368
 20
-145.0
 30
0.0
 10
-29.1186612555424
 20
-145.0
 30
0.0
 10
-33.80244459364712
 20
-145.0
 30
0.0
 10
-37.8881677428833
 20
-145.0
 30
0.0
 10
-41.32083440906094
 20
-145.0
 30
0.0
 10
-44.0485144083322
 20
-145.0
 30
0.0
 10
-46.01080354538228
 20
-145.0000000000001
 30
0.0
 10
-47.25082757038881
 20
-145.0
 30
0.0
 10
-47.40827432668588
 20
-145.0
 30
0.0
 10
-47.48619478055074
 20
-145.0
 30
0.0
  0
SPLINE
  5
92
330
86
100
AcDbEntity
  8
0
  6
Continuous
 62
     7
370
    25
100
AcDbSpline
210
0.0
220
0.0
230
1.0
 70
    24
 71
     3
 72
    20
 73
    16
 74
     0
 42
0.000000001
 43
0.00000001
 40
0.0
 40
0.0
 40
0.0
 40
0.0
 40
0.0031215460602204
 40
0.1027630244698319
 40
0.2010547671691053
 40
0.2968536441175281
 40
0.3899280265097982
 40
0.4801392058409187
 40
0.5666691094718431
 40
0.6487559105145142
 40
0.7260724834451873
 40
0.7987046435971379
 40
0.8677035314248958
 40
0.9344466407561779
 40
1.0
 40
1.0
 40
1.0
 40
1.0
 10
47.48707646831375
 20
-145.0
 30
0.0
 10
47.49150322745596
 20
-145.0
 30
0.0
 10
47.6372345891844
 20
-145.0000000000002
 30
0.0
 10
47.16592330112965
 20
-144.9999999999999
 30
0.0
 10
46.03649772168598
 20
-145.0
 30
0.0
 10
44.0419123125119
 20
-145.0
 30
0.0
 10
41.32252463703288
 20
-145.0
 30
0.0
 10
37.88774028485709
 20
-145.0
 30
0.0
 10
33.80255092083291
 20
-144.9999999999999
 30
0.0
 10
29.11863514217485
 20
-145.0
 30
0.0
 10
23.95108399750454
 20
-145.0
 30
0.0
 10
18.37950105597885
 20
-144.9999999999999
 30
0.0
 10
12.47031437017091
 20
-145.0
 30
0.0
 10
6.307928390584941
 20
-144.9999999999999
 30
0.0
 10
2.089998765380592
 20
-145.0
 30
0.0
 10
-0.0000000000000042
 20
-145.0
 30
0.0
  0
SPLINE
  5
93
330
86
100
AcDbEntity
  8
0
  6
Continuous
 62
     1
370
    25
100
AcDbSpline
210
0.0
220
0.0
230
1.0
 70
     8
 71
     3
 72
    23
 73
    19
 74
     0
 42
0.000000001
 43
0.00000001
 40
0.0
 40
0.0
 40
0.0
 40
0.0
 40
0.0542874724558924
 40
0.1154803087544958
 40
0.1783230754332732
 40
0.2438840751006791
 40
0.3108479232148
 40
0.361645262740352
 40
0.4128364282721788
 40
0.4650936639265913
 40
0.5176513990127919
 40
0.5900298092942986
 40
0.6629458677473925
 40
0.7373409755826477
 40
0.8121656128899624
 40
0.8873110829581952
 40
0.9628120520044692
 40
1.0
 40
1.0
 40
1.0
 40
1.0
 10
-0.0000000000000063
 20
-135.8204558886682
 30
0.0
 10
1.956023440100276
 20
-135.8188674232188
 30
0.0
 10
6.116876406267321
 20
-135.8154884395925
 30
0.0
 10
12.38639362478692
 20
-135.7894226597044
 30
0.0
 10
18.70436464610134
 20
-135.7489203840963
 30
0.0
 10
24.71100811245451
 20
-135.6974642785309
 30
0.0
 10
29.79212561951007
 20
-135.6467251252129
 30
0.0
 10
34.00929667270338
 20
-135.6016303913199
 30
0.0
 10
37.50048534976376
 20
-135.5625070044615
 30
0.0
 10
40.66929018793235
 20
-135.5251697511508
 30
0.0
 10
43.86410732368962
 20
-135.4872490565973
 30
0.0
 10
46.92708917945892
 20
-135.4508728590948
 30
0.0
 10
49.71544393576038
 20
-135.417254683625
 30
0.0
 10
51.93108895336864
 20
-135.390241030008
 30
0.0
 10
53.58950010157172
 20
-135.3699766784905
 30
0.0
 10
54.66053779402274
 20
-135.3570120983175
 30
0.0
 10
55.19018139689227
 20
-135.3505766470534
 30
0.0
 10
55.14635862398498
 20
-135.3511093025066
 30
0.0
 10
55.13189687350696
 20
-135.3512850816677
 30
0.0
  0
SPLINE
  5
94
330
86
100
AcDbEntity
  8
0
  6
Continuous
 62
     1
370
    25
100
AcDbSpline
210
0.0
220
0.0
230
1.0
 70
     8
 71
     3
 72
    23
 73
    19
 74
     0
 42
0.000000001
 43
0.00000001
 40
0.0
 40
0.0
 40
0.0
 40
0.0
 40
0.0418594559760421
 40
0.1289771841607052
 40
0.2166451220261
 40
0.3062372690092919
 40
0.3966055613179809
 40
0.4508304123293866
 40
0.5052914258547997
 40
0.5606150853275768
 40
0.6163051170316816
 40
0.6987570560469464
 40
0.7408796352046867
 40
0.783321367762379
 40
0.8501088416264467
 40
0.9187813173389481
 40
0.9591362676324927
 40
0.9999999999999999
 40
0.9999999999999999
 40
0.9999999999999999
 40
0.9999999999999999
 10
-55.10664087294235
 20
-135.3515928347873
 30
0.0
 10
-55.12285413387301
 20
-135.3513964217338
 30
0.0
 10
-55.17281036699028
 20
-135.3507912346384
 30
0.0
 10
-54.45508879546914
 20
-135.3594876561908
 30
0.0
 10
-52.99128141339965
 20
-135.3772715182964
 30
0.0
 10
-50.66258610899329
 20
-135.4057417319036
 30
0.0
 10
-47.87796140912737
 20
-135.439480889617
 30
0.0
 10
-44.96438274433828
 20
-135.4742029633572
 30
0.0
 10
-42.21246585435775
 20
-135.5068078499855
 30
0.0
 10
-39.05523997041451
 20
-135.5444300583069
 30
0.0
 10
-34.89134121311432
 20
-135.5921470757004
 30
0.0
 10
-30.44403564272282
 20
-135.6401185934574
 30
0.0
 10
-25.84780455912702
 20
-135.685908049768
 30
0.0
 10
-21.39063560719061
 20
-135.7265716455799
 30
0.0
 10
-15.72351145669984
 20
-135.7703707632076
 30
0.0
 10
-9.693708832196425
 20
-135.8017309631138
 30
0.0
 10
-4.383381525687707
 20
-135.8178092784095
 30
0.0
 10
-1.467216465929806
 20
-135.8195700086398
 30
0.0
 10
-0.0000000000000063
 20
-135.8204558886682
 30
0.0
  0
LINE
  5
95
330
86
100
AcDbEntity
  8
0
  6
Continuous
 62
     7
370
    25
100
AcDbLine
 10
-195.0
 20
0.0
 30
0.0
 11
0.0
 21
0.0
 31
0.0
  0
LINE
  5
96
330
86
100
AcDbEntity
  8
0
  6
Continuous
 62
     7
370
    25
100
AcDbLine
 10
-55.106765216
 20
-135.3515913203
 30
0.0
 11
-55.1066408729
 21
-135.3515928348
 31
0.0
  0
VIEWPORT
  5
E8
330
86
100
AcDbEntity
  8
0
100
AcDbViewport
 10
0.0
 20
0.0
 30
0.0
 40
205.6
 41
156.0
 68
     1
 69
     1
 12
0.0
 22
-17.1296344974
 13
0.0
 23
0.0
 14
10.0
 24
10.0
 15
10.0
 25
10.0
 16
0.0
 26
0.0
 36
1.0
 17
0.0
 27
0.0
 37
0.0
 42
50.0
 43
0.0
 44
0.0
 45
382.433885339
 50
0.0
 51
0.0
 72
   100
 90
   557152
  1

281
     0
 71
     1
 74
     0
110
0.0
120
0.0
130
0.0
111
1.0
121
0.0
131
0.0
112
0.0
122
1.0
132
0.0
 79
     0
146
0.0
170
     0
 61
     5
348
2F
292
     1
282
     1
141
0.0
142
0.0
 63
   256
361
E9
  0
ENDBLK
  5
89
330
86
100
AcDbEntity
  8
0
100
AcDbBlockEnd
  0
BLOCK
  5
99
330
97
100
AcDbEntity
  8
0
100
AcDbBlockBegin
  2
*Paper_Space2
 70
     0
 10
0.0
 20
0.0
 30
0.0
  3
*Paper_Space2
  1

  0
SPLINE
  5
9B
330
97
100
AcDbEntity
  8
0
  6
Continuous
 62
     7
370
    25
100
AcDbSpline
210
0.0
220
0.0
230
1.0
 70
     8
 71
     3
 72
    33
 73
    29
 74
     0
 42
0.000000001
 43
0.00000001
 40
0.0
 40
0.0
 40
0.0
 40
0.0
 40
0.0566907272696022
 40
0.1150444722685879
 40
0.1690934166332191
 40
0.2188576242222072
 40
0.2643510014778011
 40
0.3055824804302265
 40
0.3349924899474974
 40
0.3617755999601682
 40
0.385932024543833
 40
0.4074613081040873
 40
0.4266136676386281
 40
0.4471904449916804
 40
0.4738607808924104
 40
0.5040343176893215
 40
0.5377189053546607
 40
0.5749249616796994
 40
0.6156792130768332
 40
0.6600051114942781
 40
0.6955947538756612
 40
0.7331873581469085
 40
0.7727737004831986
 40
0.8143408769111403
 40
0.8578723239004017
 40
0.9033450056025253
 40
0.9507318212372132
 40
1.0
 40
1.0
 40
1.0
 40
1.0
 10
80.97966917598332
 20
-135.7899273897239
 30
0.0
 10
85.85824390806488
 20
-135.0109370986144
 30
0.0
 10
95.75850595279144
 20
-133.4301049015453
 30
0.0
 10
110.1674425032562
 20
-130.3223869175417
 30
0.0
 10
123.868062032036
 20
-126.8558671552964
 30
0.0
 10
136.3557249813229
 20
-123.1976375970318
 30
0.0
 10
147.6542239431466
 20
-119.4794876374041
 30
0.0
 10
157.1674360179933
 20
-116.0260697423546
 30
0.0
 10
165.0736744808395
 20
-112.9338099648476
 30
0.0
 10
171.5429950187649
 20
-110.2563189277821
 30
0.0
 10
177.3339444493849
 20
-107.7382776596962
 30
0.0
 10
182.4785529303498
 20
-105.4031965826323
 30
0.0
 10
187.3073019029833
 20
-103.1283210240521
 30
0.0
 10
192.5067274161889
 20
-100.5903635053664
 30
0.0
 10
198.5194572099317
 20
-97.53112811049165
 30
0.0
 10
205.4795108671941
 20
-93.81772285041828
 30
0.0
 10
213.1491029753183
 20
-89.48966162679163
 30
0.0
 10
221.5290926863718
 20
-84.54621700242338
 30
0.0
 10
230.4347155124806
 20
-78.68367139350981
 30
0.0
 10
238.7950017692887
 20
-72.29150719032472
 30
0.0
 10
246.530058200657
 20
-65.57570333453707
 30
0.0
 10
253.5670413027302
 20
-58.70950852621547
 30
0.0
 10
260.5250669566112
 20
-51.04270446795411
 30
0.0
 10
267.2987003388944
 20
-42.53900991220231
 30
0.0
 10
273.7827885850166
 20
-33.17860740400554
 30
0.0
 10
279.8373814363644
 20
-22.94345287041842
 30
0.0
 10
285.4107787801458
 20
-11.8644964850398
 30
0.0
 10
288.4505369055165
 20
-4.005821152980399
 30
0.0
 10
289.9999999999999
 20
0.0
 30
0.0
  0
SPLINE
  5
9C
330
97
100
AcDbEntity
  8
0
  6
Continuous
 62
     7
370
    25
100
AcDbSpline
210
0.0
220
0.0
230
1.0
 70
     8
 71
     3
 72
    32
 73
    28
 74
     0
 42
0.000000001
 43
0.00000001
 40
0.0
 40
0.0
 40
0.0
 40
0.0
 40
0.0427493079516748
 40
0.0836218854462413
 40
0.122593832999367
 40
0.1596466108321589
 40
0.2060332328107541
 40
0.2489537283945207
 40
0.2883912413024454
 40
0.3194159122825195
 40
0.3478717203393533
 40
0.3737597763130071
 40
0.397082650345232
 40
0.4178441251267949
 40
0.4364683228695478
 40
0.4567281874023785
 40
0.4870145402858692
 40
0.521616087626775
 40
0.5605279895428278
 40
0.6037472398302074
 40
0.6512736751080861
 40
0.7031109261068725
 40
0.7559422312096424
 40
0.8126251253527741
 40
0.8731772076569098
 40
0.9376229922480931
 40
1.0
 40
1.0
 40
1.0
 40
1.0
 10
-290.0000000000001
 20
0.0
 30
0.0
 10
-288.6660695642915
 20
-3.479395631639168
 30
0.0
 10
-286.0567693572758
 20
-10.2854385098066
 30
0.0
 10
-281.4043648921634
 20
-19.91385544406088
 30
0.0
 10
-276.4428236296543
 20
-28.81512611429123
 30
0.0
 10
-270.6847331501157
 20
-37.80101977041677
 30
0.0
 10
-264.1451669641214
 20
-46.6713031734677
 30
0.0
 10
-256.8606706126958
 20
-55.21363879088936
 30
0.0
 10
-249.9712506446914
 20
-62.30367342875751
 30
0.0
 10
-243.6281222410954
 20
-68.14417604173435
 30
0.0
 10
-237.9226930582528
 20
-72.92087348034
 30
0.0
 10
-232.5508598569759
 20
-77.03996590122728
 30
0.0
 10
-227.5707498859228
 20
-80.55953492993888
 30
0.0
 10
-223.0021887182004
 20
-83.55893432476788
 30
0.0
 10
-218.5657157200176
 20
-86.2668128777966
 30
0.0
 10
-213.3824806080122
 20
-89.34264726398396
 30
0.0
 10
-206.9346714378449
 20
-93.01420823119567
 30
0.0
 10
-198.9756029132087
 20
-97.31200912019591
 30
0.0
 10
-189.9036007831932
 20
-101.9143048999921
 30
0.0
 10
-179.68467448464
 20
-106.7358383784854
 30
0.0
 10
-168.2845888948345
 20
-111.6800143574129
 30
0.0
 10
-155.9401487448838
 20
-116.5335083656745
 30
0.0
 10
-142.6738500971525
 20
-121.1972085645314
 30
0.0
 10
-128.5136650675726
 20
-125.5797515651529
 30
0.0
 10
-113.2048549982277
 20
-129.6233205873391
 30
0.0
 10
-97.25850795220978
 20
-133.1682091764943
 30
0.0
 10
-86.34622837652775
 20
-134.9235307111487
 30
0.0
 10
-80.97909101022627
 20
-135.7868747753452
 30
0.0
  0
SPLINE
  5
9D
330
97
100
AcDbEntity
  8
0
  6
Continuous
 62
     7
370
    25
100
AcDbSpline
210
0.0
220
0.0
230
1.0
 70
     8
 71
     3
 72
    16
 73
    12
 74
     0
 42
0.000000001
 43
0.00000001
 40
0.0
 40
0.0
 40
0.0
 40
0.0
 40
0.0656858167135465
 40
0.1481007067548371
 40
0.2843067235584428
 40
0.4038985473541062
 40
0.5156426061993657
 40
0.6341321011955741
 40
0.7558376605605177
 40
0.8793494531420476
 40
1.0
 40
1.0
 40
1.0
 40
1.0
 10
-80.97837788298159
 20
-135.8271426873665
 30
0.0
 10
-80.68613323642809
 20
-135.873844604366
 30
0.0
 10
-80.0272141445236
 20
-135.9791426315579
 30
0.0
 10
-78.80137899156236
 20
-136.360919458346
 30
0.0
 10
-77.41456288897764
 20
-137.0081926401285
 30
0.0
 10
-76.0558493015092
 20
-137.9657786315482
 30
0.0
 10
-74.92061559726426
 20
-139.0652159685844
 30
0.0
 10
-73.9619483797607
 20
-140.3360100220351
 30
0.0
 10
-73.20203564460398
 20
-141.7926031169783
 30
0.0
 10
-72.66842420129868
 20
-143.3632892290954
 30
0.0
 10
-72.54206520585599
 20
-144.4577121585878
 30
0.0
 10
-72.479626084673
 20
-144.9985110600083
 30
0.0
  0
SPLINE
  5
9E
330
97
100
AcDbEntity
  8
0
  6
Continuous
 62
     7
370
    25
100
AcDbSpline
210
0.0
220
0.0
230
1.0
 70
     8
 71
     3
 72
    18
 73
    14
 74
     0
 42
0.000000001
 43
0.00000001
 40
0.0
 40
0.0
 40
0.0
 40
0.0
 40
0.0933780039045921
 40
0.2170094512742165
 40
0.3339394151838301
 40
0.4448014156409273
 40
0.5497911525300057
 40
0.6487951410058886
 40
0.7414249431040142
 40
0.827005070775964
 40
0.9045319519074654
 40
0.9726220262650077
 40
1.0
 40
1.0
 40
1.0
 40
1.0
 10
72.48491920940738
 20
-145.0006258281031
 30
0.0
 10
72.5172016137882
 20
-144.5799878748051
 30
0.0
 10
72.59222556554944
 20
-143.6024299102595
 30
0.0
 10
73.03949859269898
 20
-142.1516652143883
 30
0.0
 10
73.71527487755871
 20
-140.7143388055683
 30
0.0
 10
74.56515431463785
 20
-139.4700690411708
 30
0.0
 10
75.5295043695591
 20
-138.4224200814402
 30
0.0
 10
76.56533231703827
 20
-137.5701436483118
 30
0.0
 10
77.6277768028431
 20
-136.9061878213577
 30
0.0
 10
78.67392833123304
 20
-136.4147045741364
 30
0.0
 10
79.66303064118932
 20
-136.0822350521618
 30
0.0
 10
80.42217369595834
 20
-135.8948040642415
 30
0.0
 10
80.84870058853714
 20
-135.8370593849096
 30
0.0
 10
80.97101839324361
 20
-135.8204995793446
 30
0.0
  0
SPLINE
  5
9F
330
97
100
AcDbEntity
  8
0
  6
Continuous
 62
     7
370
    25
100
AcDbSpline
210
0.0
220
0.0
230
1.0
 70
    24
 71
     3
 72
    21
 73
    17
 74
     0
 42
0.000000001
 43
0.00000001
 40
0.5000000000020915
 40
0.5000000000020915
 40
0.5000000000020915
 40
0.5000000000020915
 40
0.5416666666666667
 40
0.5833333333333333
 40
0.625
 40
0.6666666666666667
 40
0.7083333333333333
 40
0.7500000000009739
 40
0.7916666666666666
 40
0.8333333333333334
 40
0.875
 40
0.9166666666666666
 40
0.9583333333333334
 40
0.9916666666666667
 40
0.99375
 40
1.0
 40
1.0
 40
1.0
 40
1.0
 10
289.9999999999999
 20
0.0
 30
0.0
 10
290.0000000001716
 20
0.0
 30
0.0
 10
283.1914952762036
 20
0.0
 30
0.0
 10
254.2143952860994
 20
0.0
 30
0.0
 10
207.4681364742389
 20
0.0
 30
0.0
 10
146.2788580815368
 20
0.0
 30
0.0
 10
76.32195028835913
 20
0.0
 30
0.0
 10
-0.0000000000000729
 20
0.0
 30
0.0
 10
-76.3219502883593
 20
0.0
 30
0.0
 10
-146.2788580815369
 20
0.0
 30
0.0
 10
-207.4681364742391
 20
0.0
 30
0.0
 10
-254.2143952860996
 20
0.0
 30
0.0
 10
-281.2596886097432
 20
0.0
 30
0.0
 10
-288.7146899587347
 20
0.0
 30
0.0
 10
-289.8978724291358
 20
0.0
 30
0.0
 10
-290.0000000000001
 20
0.0
 30
0.0
 10
-290.0000000000001
 20
0.0
 30
0.0
  0
SPLINE
  5
A0
330
97
100
AcDbEntity
  8
0
  6
Continuous
 62
     7
370
    25
100
AcDbSpline
210
0.0
220
0.0
230
1.0
 70
     8
 71
     3
 72
     9
 73
     5
 74
     0
 42
0.000000001
 43
0.00000001
 40
0.0
 40
0.0
 40
0.0
 40
0.0
 40
0.9979265615239664
 40
1.0
 40
1.0
 40
1.0
 40
1.0
 10
80.97097674066974
 20
-135.8202136679261
 30
0.0
 10
80.98134084734308
 20
-135.8203935745813
 30
0.0
 10
80.99172648800338
 20
-135.8205738550369
 30
0.0
 10
80.98483653135281
 20
-135.8204553987288
 30
0.0
 10
80.98482224545161
 20
-135.820455153117
 30
0.0
  0
SPLINE
  5
A1
330
97
100
AcDbEntity
  8
0
  6
Continuous
 62
     7
370
    25
100
AcDbSpline
210
0.0
220
0.0
230
1.0
 70
    24
 71
     3
 72
    31
 73
    27
 74
     0
 42
0.000000001
 43
0.00000001
 40
0.0
 40
0.0
 40
0.0
 40
0.0
 40
0.0318265826974223
 40
0.0653390737872226
 40
0.0999842174839515
 40
0.136453669451781
 40
0.1752752195322894
 40
0.2164919566019999
 40
0.2599396271326722
 40
0.3052357089873766
 40
0.3519694383837858
 40
0.4000711681693097
 40
0.4494245948283683
 40
0.4994557394785806
 40
0.5494868841288519
 40
0.5988403107881681
 40
0.6469420405742022
 40
0.6936757699711072
 40
0.7389718518260258
 40
0.7824195223567273
 40
0.8236362594264149
 40
0.8624578095067539
 40
0.8989272614741928
 40
0.9335724051705494
 40
0.9670848962602053
 40
1.0
 40
1.0
 40
1.0
 40
1.0
 10
72.47917727207222
 20
-145.0
 30
0.0
 10
72.35734828440343
 20
-145.0
 30
0.0
 10
72.10723681970764
 20
-145.0
 30
0.0
 10
70.15511957273331
 20
-144.9999999999999
 30
0.0
 10
67.08875287149597
 20
-145.0000000000001
 30
0.0
 10
62.84572575469584
 20
-144.9999999999999
 30
0.0
 10
57.53593073305773
 20
-145.0
 30
0.0
 10
51.23561390213722
 20
-145.0
 30
0.0
 10
44.05963919505623
 20
-145.0
 30
0.0
 10
36.17003861196623
 20
-145.0
 30
0.0
 10
27.69912592219755
 20
-145.0
 30
0.0
 10
18.7604572773486
 20
-145.0000000000001
 30
0.0
 10
9.475887217416018
 20
-145.0000000000001
 30
0.0
 10
-0.0000000042673048
 20
-145.0000000000001
 30
0.0
 10
-9.475887199613291
 20
-145.0
 30
0.0
 10
-18.7604573369421
 20
-145.0
 30
0.0
 10
-27.69912570864836
 20
-145.0
 30
0.0
 10
-36.17003937360143
 20
-145.0
 30
0.0
 10
-44.05963649407644
 20
-145.0
 30
0.0
 10
-51.23562332770066
 20
-145.0
 30
0.0
 10
-57.535898325402
 20
-144.9999999999999
 30
0.0
 10
-62.8458362223185
 20
-145.0000000000001
 30
0.0
 10
-67.08837561549609
 20
-144.9999999999999
 30
0.0
 10
-70.15643389954069
 20
-145.0
 30
0.0
 10
-72.12378932198239
 20
-145.0
 30
0.0
 10
-72.37535054238198
 20
-145.0
 30
0.0
 10
-72.50000000000001
 20
-145.0
 30
0.0
  0
SPLINE
  5
A2
330
97
100
AcDbEntity
  8
0
  6
Continuous
 62
     1
370
    25
100
AcDbSpline
210
0.0
220
0.0
230
1.0
 70
     8
 71
     3
 72
    38
 73
    34
 74
     0
 42
0.000000001
 43
0.00000001
 40
0.0
 40
0.0
 40
0.0
 40
0.0
 40
0.0271739519747156
 40
0.0578044293122987
 40
0.0892607901711473
 40
0.1220777804597246
 40
0.1555969757800395
 40
0.1810239187240528
 40
0.2066479938699678
 40
0.2328056974388373
 40
0.259113817977929
 40
0.2953433080613717
 40
0.33184192147904
 40
0.3690808828086824
 40
0.4065348479452337
 40
0.4441494080338559
 40
0.4819419154779052
 40
0.5202780991879178
 40
0.5587980747454115
 40
0.6036789279255144
 40
0.6488887994369433
 40
0.6953044032560636
 40
0.7422306091701866
 40
0.7660390357615842
 40
0.7899524080273721
 40
0.8142421535629607
 40
0.8386867145354001
 40
0.8767335560991798
 40
0.8961965929025961
 40
0.9158122947802018
 40
0.9476692926060961
 40
0.9804369574665364
 40
1.0
 40
1.0
 40
1.0
 40
1.0
 10
-80.98486502888484
 20
-135.8204558886682
 30
0.0
 10
-80.89644996159393
 20
-135.8188674232204
 30
0.0
 10
-80.70837343477457
 20
-135.8154884395974
 30
0.0
 10
-79.13811365432856
 20
-135.7894226596819
 30
0.0
 10
-76.49879136962909
 20
-135.7489203841843
 30
0.0
 10
-72.78496154072661
 20
-135.6974642781837
 30
0.0
 10
-68.5431417038708
 20
-135.646725126402
 30
0.0
 10
-64.14998327427521
 20
-135.6016303880475
 30
0.0
 10
-59.82394541681947
 20
-135.5625070170026
 30
0.0
 10
-55.18038089191227
 20
-135.5251697031242
 30
0.0
 10
-49.65341325940984
 20
-135.4872492656163
 30
0.0
 10
-43.21244800446653
 20
-135.4508717419963
 30
0.0
 10
-35.80242800898317
 20
-135.4172588787121
 30
0.0
 10
-28.11088238749371
 20
-135.3902249969885
 30
0.0
 10
-20.19739076858396
 20
-135.3700369635977
 30
0.0
 10
-12.14823044538748
 20
-135.3567856404602
 30
0.0
 10
-3.98032966051947
 20
-135.3500814157324
 30
0.0
 10
4.271727540040082
 20
-135.3501848719187
 30
0.0
 10
13.01213254841173
 20
-135.3576295865013
 30
0.0
 10
22.17516821824908
 20
-135.3738544422255
 30
0.0
 10
31.74465038078027
 20
-135.4013740194854
 30
0.0
 10
41.20033935717559
 20
-135.4401570097711
 30
0.0
 10
48.87311049102831
 20
-135.4821024378447
 30
0.0
 10
54.7784693311126
 20
-135.5223426610756
 30
0.0
 10
59.0882912623568
 20
-135.5564036071673
 30
0.0
 10
63.21162681254941
 20
-135.592795574036
 30
0.0
 10
67.81190099369246
 20
-135.6385279935183
 30
0.0
 10
71.6904848353416
 20
-135.6839475664166
 30
0.0
 10
74.78807839706954
 20
-135.7250857908407
 30
0.0
 10
77.25135121979648
 20
-135.7603076480129
 30
0.0
 10
79.47592211236497
 20
-135.7948117695643
 30
0.0
 10
80.78567512250139
 20
-135.8168887790198
 30
0.0
 10
80.92055422909664
 20
-135.8193089308223
 30
0.0
 10
80.97097674066974
 20
-135.8202136679261
 30
0.0
  0
VIEWPORT
  5
EA
330
97
100
AcDbEntity
  8
0
100
AcDbViewport
 10
0.0
 20
0.0
 30
0.0
 40
205.6
 41
156.0
 68
     1
 69
     1
 12
0.0
 22
-17.1296344974
 13
0.0
 23
0.0
 14
10.0
 24
10.0
 15
10.0
 25
10.0
 16
0.0
 26
0.0
 36
1.0
 17
0.0
 27
0.0
 37
0.0
 42
50.0
 43
0.0
 44
0.0
 45
382.433885339
 50
0.0
 51
0.0
 72
   100
 90
   557152
  1

281
     0
 71
     1
 74
     0
110
0.0
120
0.0
130
0.0
111
1.0
121
0.0
131
0.0
112
0.0
122
1.0
132
0.0
 79
     0
146
0.0
170
     0
 61
     5
348
2F
292
     1
282
     1
141
0.0
142
0.0
 63
   256
361
EB
  0
ENDBLK
  5
9A
330
97
100
AcDbEntity
  8
0
100
AcDbBlockEnd
  0
BLOCK
  5
A5
330
A3
100
AcDbEntity
  8
0
100
AcDbBlockBegin
  2
*Paper_Space3
 70
     0
 10
0.0
 20
0.0
 30
0.0
  3
*Paper_Space3
  1

  0
SPLINE
  5
A7
330
A3
100
AcDbEntity
  8
0
  6
Continuous
 62
     7
370
    25
100
AcDbSpline
210
0.0
220
0.0
230
1.0
 70
     8
 71
     3
 72
    33
 73
    29
 74
     0
 42
0.000000001
 43
0.00000001
 40
0.0
 40
0.0
 40
0.0
 40
0.0
 40
0.0566906425190108
 40
0.1150443927607253
 40
0.1690933419813243
 40
0.2188575540413225
 40
0.2643509353842188
 40
0.3055824180410419
 40
0.3349924302006233
 40
0.3617755426195939
 40
0.3859319693735663
 40
0.407461254868096
 40
0.4266136161233596
 40
0.4471903953251103
 40
0.4738607336220072
 40
0.5040342731298267
 40
0.5377188638215205
 40
0.5749249234892965
 40
0.6156791785479512
 40
0.6600050809478072
 40
0.6955947265267031
 40
0.7331873341754173
 40
0.7727736800683
 40
0.8143408602307997
 40
0.8578723111310965
 40
0.903344996918663
 40
0.9507318168107677
 40
1.0
 40
1.0
 40
1.0
 40
1.0
 10
80.97969233346628
 20
-135.7899234807537
 30
0.0
 10
85.85825932809979
 20
-135.0109343920397
 30
0.0
 10
95.75851362936156
 20
-133.4301033642685
 30
0.0
 10
110.1674424980814
 20
-130.3223868890749
 30
0.0
 10
123.8680620332637
 20
-126.8558671620487
 30
0.0
 10
136.3557249810345
 20
-123.1976375954457
 30
0.0
 10
147.6542239432139
 20
-119.4794876377748
 30
0.0
 10
157.1674360179813
 20
-116.0260697422891
 30
0.0
 10
165.0736744808422
 20
-112.9338099648613
 30
0.0
 10
171.5429950187643
 20
-110.2563189277791
 30
0.0
 10
177.3339444493852
 20
-107.7382776596968
 30
0.0
 10
182.4785529303501
 20
-105.4031965826323
 30
0.0
 10
187.3073019029837
 20
-103.1283210240521
 30
0.0
 10
192.5067274161892
 20
-100.5903635053664
 30
0.0
 10
198.519457209932
 20
-97.53112811049165
 30
0.0
 10
205.4795108671943
 20
-93.81772285041829
 30
0.0
 10
213.1491029753184
 20
-89.4896616267917
 30
0.0
 10
221.529092686372
 20
-84.54621700242342
 30
0.0
 10
230.4347155124805
 20
-78.68367139350991
 30
0.0
 10
238.7950017692884
 20
-72.29150719032458
 30
0.0
 10
246.5300582006567
 20
-65.57570333453701
 30
0.0
 10
253.5670413027302
 20
-58.70950852621542
 30
0.0
 10
260.5250669566115
 20
-51.04270446795427
 30
0.0
 10
267.2987003388948
 20
-42.53900991220232
 30
0.0
 10
273.7827885850173
 20
-33.17860740400562
 30
0.0
 10
279.8373814363645
 20
-22.94345287041838
 30
0.0
 10
285.4107787801462
 20
-11.86449648503987
 30
0.0
 10
288.4505369055167
 20
-4.005821152980412
 30
0.0
 10
290.0000000000001
 20
0.0
 30
0.0
  0
SPLINE
  5
A8
330
A3
100
AcDbEntity
  8
0
  6
Continuous
 62
     7
370
    25
100
AcDbSpline
210
0.0
220
0.0
230
1.0
 70
     8
 71
     3
 72
    32
 73
    28
 74
     0
 42
0.000000001
 43
0.00000001
 40
0.0
 40
0.0
 40
0.0
 40
0.0
 40
0.0427493062790287
 40
0.0836218821743796
 40
0.1225938282026554
 40
0.1596466045856887
 40
0.2060332247493211
 40
0.2489537186537427
 40
0.2883912300186007
 40
0.3194158997847763
 40
0.3478717067282238
 40
0.3737597616889595
 40
0.3970826348086338
 40
0.417844108777866
 40
0.4364683057919124
 40
0.4567281695320383
 40
0.4870145212305192
 40
0.5216160672175754
 40
0.5605279676111279
 40
0.6037472162074737
 40
0.6512736496257917
 40
0.7031108985963486
 40
0.7559422016319953
 40
0.8126250935573042
 40
0.8731771734922275
 40
0.9376229555618493
 40
1.0
 40
1.0
 40
1.0
 40
1.0
 10
-290.0
 20
0.0
 30
0.0
 10
-288.6660695642914
 20
-3.479395631639168
 30
0.0
 10
-286.0567693572756
 20
-10.28543850980659
 30
0.0
 10
-281.4043648921628
 20
-19.91385544406081
 30
0.0
 10
-276.4428236296541
 20
-28.81512611429123
 30
0.0
 10
-270.6847331501153
 20
-37.80101977041672
 30
0.0
 10
-264.1451669641208
 20
-46.67130317346754
 30
0.0
 10
-256.8606706126957
 20
-55.21363879088943
 30
0.0
 10
-249.9712506446915
 20
-62.30367342875741
 30
0.0
 10
-243.6281222410958
 20
-68.14417604173451
 30
0.0
 10
-237.9226930582529
 20
-72.92087348033994
 30
0.0
 10
-232.5508598569761
 20
-77.03996590122723
 30
0.0
 10
-227.5707498859229
 20
-80.55953492993889
 30
0.0
 10
-223.0021887182004
 20
-83.55893432476773
 30
0.0
 10
-218.5657157200175
 20
-86.26681287779665
 30
0.0
 10
-213.3824806080121
 20
-89.34264726398384
 30
0.0
 10
-206.9346714378448
 20
-93.01420823119577
 30
0.0
 10
-198.9756029132084
 20
-97.31200912019531
 30
0.0
 10
-189.9036007831936
 20
-101.9143048999948
 30
0.0
 10
-179.6846744846376
 20
-106.7358383784737
 30
0.0
 10
-168.2845888948438
 20
-111.6800143574629
 30
0.0
 10
-155.9401487448457
 20
-116.5335083654678
 30
0.0
 10
-142.6738500973024
 20
-121.1972085653409
 30
0.0
 10
-128.5136650669511
 20
-125.5797515617937
 30
0.0
 10
-113.2048550007861
 20
-129.6233206011673
 30
0.0
 10
-97.25850461228809
 20
-133.1682098622987
 30
0.0
 10
-86.34622166422142
 20
-134.9235319073031
 30
0.0
 10
-80.97908092846818
 20
-135.7868764977014
 30
0.0
  0
SPLINE
  5
A9
330
A3
100
AcDbEntity
  8
0
  6
Continuous
 62
     7
370
    25
100
AcDbSpline
210
0.0
220
0.0
230
1.0
 70
     8
 71
     3
 72
    16
 73
    12
 74
     0
 42
0.000000001
 43
0.00000001
 40
0.0
 40
0.0
 40
0.0
 40
0.0
 40
0.0922946713628004
 40
0.181466609625582
 40
0.3075599508476404
 40
0.416999481181117
 40
0.530226769631626
 40
0.6490434479437271
 40
0.7708825340419961
 40
0.8943973446079252
 40
1.0
 40
1.0
 40
1.0
 40
1.0
 10
-80.97197475478228
 20
-135.8251410513622
 30
0.0
 10
-80.56134255202542
 20
-135.8956567643927
 30
0.0
 10
-79.75397163302127
 20
-136.0343023349336
 30
0.0
 10
-78.44253265659488
 20
-136.4997129642429
 30
0.0
 10
-77.13495377017912
 20
-137.1706176372099
 30
0.0
 10
-75.86669831714204
 20
-138.1095580211417
 30
0.0
 10
-74.77642375160062
 20
-139.2038509526931
 30
0.0
 10
-73.83572193474919
 20
-140.5014488711765
 30
0.0
 10
-73.10425784145609
 20
-141.976658742807
 30
0.0
 10
-72.61705232766504
 20
-143.49418675361
 30
0.0
 10
-72.51688175071506
 20
-144.5241791045227
 30
0.0
 10
-72.47071207581118
 20
-144.9989134371285
 30
0.0
  0
SPLINE
  5
AA
330
A3
100
AcDbEntity
  8
0
  6
Continuous
 62
     7
370
    25
100
AcDbSpline
210
0.0
220
0.0
230
1.0
 70
     8
 71
     3
 72
    18
 73
    14
 74
     0
 42
0.000000001
 43
0.00000001
 40
0.0
 40
0.0
 40
0.0
 40
0.0
 40
0.0687148385364537
 40
0.1939226205100917
 40
0.3122280169050696
 40
0.4243762191481911
 40
0.5306331944868462
 40
0.6309405107673847
 40
0.72496217858591
 40
0.8120798228273649
 40
0.891356064671996
 40
0.9614825797714729
 40
1.0
 40
1.0
 40
1.0
 40
1.0
 10
72.51582965851875
 20
-145.0003963480689
 30
0.0
 10
72.53040458199771
 20
-144.690801996995
 30
0.0
 10
72.57153699844481
 20
-143.8170846291879
 30
0.0
 10
72.95652341316737
 20
-142.4507235286108
 30
0.0
 10
73.59131807594179
 20
-140.9770907117503
 30
0.0
 10
74.4141168528152
 20
-139.6952634827282
 30
0.0
 10
75.35936697376226
 20
-138.609557152047
 30
0.0
 10
76.3850781548164
 20
-137.720006233248
 30
0.0
 10
77.44574225212578
 20
-137.0206299241763
 30
0.0
 10
78.4983212704832
 20
-136.4972125778806
 30
0.0
 10
79.50168625388126
 20
-136.1360831948324
 30
0.0
 10
80.32202516945154
 20
-135.9202935241988
 30
0.0
 10
80.80604266397886
 20
-135.8486873265929
 30
0.0
 10
80.97764087770686
 20
-135.8233008565997
 30
0.0
  0
SPLINE
  5
AC
330
A3
100
AcDbEntity
  8
0
  6
Continuous
 62
     7
370
    25
100
AcDbSpline
210
0.0
220
0.0
230
1.0
 70
    24
 71
     3
 72
    32
 73
    28
 74
     0
 42
0.000000001
 43
0.00000001
 40
0.0
 40
0.0
 40
0.0
 40
0.0
 40
0.0328433557323719
 40
0.0662827966357524
 40
0.1008524212012336
 40
0.1372423774292343
 40
0.1759793046906583
 40
0.2171061979372607
 40
0.2604591616788582
 40
0.3056565075964281
 40
0.3522883672863947
 40
0.4002852454121876
 40
0.4495310919753106
 40
0.4994531792467234
 40
0.5493752665181364
 40
0.5986211130812593
 40
0.6466179912070521
 40
0.6932498508970187
 40
0.7384471968145884
 40
0.781800160556186
 40
0.8229270538027652
 40
0.8616639810640204
 40
0.8980539372916312
 40
0.9326235618567408
 40
0.9660630027599773
 40
0.9989063584923329
 40
0.9999999999999999
 40
0.9999999999999999
 40
0.9999999999999999
 40
0.9999999999999999
 10
72.50000000000001
 20
-145.0
 30
0.0
 10
72.37535054238197
 20
-144.9999999999999
 30
0.0
 10
72.1237893219824
 20
-145.0
 30
0.0
 10
70.15643389954052
 20
-144.9999999999999
 30
0.0
 10
67.08837561549672
 20
-145.0
 30
0.0
 10
62.84583622231593
 20
-144.9999999999999
 30
0.0
 10
57.53589832541234
 20
-145.0
 30
0.0
 10
51.23562332765966
 20
-144.9999999999999
 30
0.0
 10
44.05963649425188
 20
-145.0
 30
0.0
 10
36.17003937296933
 20
-145.0
 30
0.0
 10
27.69912571130714
 20
-145.0000000000001
 30
0.0
 10
18.76045732697092
 20
-145.0
 30
0.0
 10
9.475887238642347
 20
-145.0
 30
0.0
 10
-0.0000001428201797
 20
-144.9999999999999
 30
0.0
 10
-9.475886671230807
 20
-145.0
 30
0.0
 10
-18.76045926285618
 20
-145.0
 30
0.0
 10
-27.69911880379872
 20
-145.0
 30
0.0
 10
-36.17006402687738
 20
-144.9999999999999
 30
0.0
 10
-44.05954907193564
 20
-145.0000000000001
 30
0.0
 10
-51.23592840566761
 20
-145.0
 30
0.0
 10
-57.53484938471544
 20
-145.0
 30
0.0
 10
-62.84941173717941
 20
-144.9999999999999
 30
0.0
 10
-67.07616494386366
 20
-145.0000000000001
 30
0.0
 10
-70.19897481725376
 20
-145.0
 30
0.0
 10
-71.97166216151268
 20
-145.0
 30
0.0
 10
-72.7094892652007
 20
-144.9999999999999
 30
0.0
 10
-72.48622834485064
 20
-145.0
 30
0.0
 10
-72.47903361846375
 20
-145.0
 30
0.0
  0
SPLINE
  5
AD
330
A3
100
AcDbEntity
  8
0
  6
Continuous
 62
     1
370
    25
100
AcDbSpline
210
0.0
220
0.0
230
1.0
 70
     8
 71
     3
 72
    38
 73
    34
 74
     0
 42
0.000000001
 43
0.00000001
 40
0.0
 40
0.0
 40
0.0
 40
0.0
 40
0.0307390857488158
 40
0.0624056815633914
 40
0.0936804414550809
 40
0.1256924318434682
 40
0.1482406813971215
 40
0.1709676522844623
 40
0.1941761019212809
 40
0.2175199976606443
 40
0.2494279150262499
 40
0.2815808352699857
 40
0.3143823793701033
 40
0.3473651534220148
 40
0.3903871837307478
 40
0.4337194455399465
 40
0.4779455366574878
 40
0.5224552650682885
 40
0.5658754216134619
 40
0.6095698069633556
 40
0.6542232331750968
 40
0.6992634962825781
 40
0.7262895857894489
 40
0.7534333805388916
 40
0.7810071247700082
 40
0.8087634717843878
 40
0.8498581625447715
 40
0.8708523851815083
 40
0.892005676366939
 40
0.9252930752794488
 40
0.9595199738443537
 40
0.9796331964413002
 40
1.0
 40
1.0
 40
1.0
 40
1.0
 10
-80.98481745386022
 20
-135.8204550707379
 30
0.0
 10
-80.87197586582442
 20
-135.8184284080049
 30
0.0
 10
-80.64288784845095
 20
-135.81431393075
 30
0.0
 10
-78.84095921433344
 20
-135.784678539273
 30
0.0
 10
-76.05368232208666
 20
-135.7424330288046
 30
0.0
 10
-72.69188173465254
 20
-135.6966542358147
 30
0.0
 10
-69.15696396369059
 20
-135.6541450377175
 30
0.0
 10
-65.70327032338692
 20
-135.6171249983355
 30
0.0
 10
-61.93472276630927
 20
-135.5811258783533
 30
0.0
 10
-57.40167639173472
 20
-135.5423723581253
 30
0.0
 10
-52.05427586626255
 20
-135.5025930690948
 30
0.0
 10
-45.83710113131608
 20
-135.4649784107498
 30
0.0
 10
-39.32128052273908
 20
-135.4325126805257
 30
0.0
 10
-31.88263393871314
 20
-135.4024457656137
 30
0.0
 10
-23.53035525538855
 20
-135.3772323613769
 30
0.0
 10
-14.23703799897318
 20
-135.3591634995712
 30
0.0
 10
-4.748323004214745
 20
-135.3500171662859
 30
0.0
 10
4.776928860703254
 20
-135.3500591106286
 30
0.0
 10
14.23327672692495
 20
-135.3591748374526
 30
0.0
 10
23.61215851096343
 20
-135.3773576932325
 30
0.0
 10
32.94438948151004
 20
-135.405717815697
 30
0.0
 10
40.88803033587294
 20
-135.4394845339425
 30
0.0
 10
47.41467911262116
 20
-135.4742021981615
 30
0.0
 10
52.62226177249288
 20
-135.5068080588051
 30
0.0
 10
57.65885160093903
 20
-135.5444300022139
 30
0.0
 10
63.22226669567291
 20
-135.5921470993789
 30
0.0
 10
67.95542920804465
 20
-135.6401185899423
 30
0.0
 10
71.81159435912222
 20
-135.6859080504349
 30
0.0
 10
74.92630544218358
 20
-135.7265716452833
 30
0.0
 10
77.92827544614529
 20
-135.7703707633061
 30
0.0
 10
79.89015515645598
 20
-135.8017309630991
 30
0.0
 10
80.8373934909026
 20
-135.8178092784125
 30
0.0
 10
80.93550298555928
 20
-135.8195700086409
 30
0.0
 10
80.98486502888485
 20
-135.8204558886683
 30
0.0
  0
LINE
  5
AE
330
A3
100
AcDbEntity
  8
0
  6
Continuous
 62
     7
370
    25
100
AcDbLine
 10
-290.0
 20
0.0
 30
0.0
 11
290.0
 21
0.0
 31
0.0
  0
VIEWPORT
  5
EC
330
A3
100
AcDbEntity
  8
0
100
AcDbViewport
 10
0.0
 20
0.0
 30
0.0
 40
205.6
 41
156.0
 68
     1
 69
     1
 12
0.0
 22
-17.1296344974
 13
0.0
 23
0.0
 14
10.0
 24
10.0
 15
10.0
 25
10.0
 16
0.0
 26
0.0
 36
1.0
 17
0.0
 27
0.0
 37
0.0
 42
50.0
 43
0.0
 44
0.0
 45
382.433885339
 50
0.0
 51
0.0
 72
   100
 90
   557152
  1

281
     0
 71
     1
 74
     0
110
0.0
120
0.0
130
0.0
111
1.0
121
0.0
131
0.0
112
0.0
122
1.0
132
0.0
 79
     0
146
0.0
170
     0
 61
     5
348
2F
292
     1
282
     1
141
0.0
142
0.0
 63
   256
361
ED
  0
ENDBLK
  5
A6
330
A3
100
AcDbEntity
  8
0
100
AcDbBlockEnd
  0
BLOCK
  5
B1
330
AF
100
AcDbEntity
  8
0
100
AcDbBlockBegin
  2
*Paper_Space4
 70
     0
 10
0.0
 20
0.0
 30
0.0
  3
*Paper_Space4
  1

  0
SPLINE
  5
B3
330
AF
100
AcDbEntity
  8
0
  6
Continuous
 62
     7
370
    25
100
AcDbSpline
210
0.0
220
0.0
230
1.0
 70
     8
 71
     3
 72
    30
 73
    26
 74
     0
 42
0.000000001
 43
0.00000001
 40
0.0
 40
0.0
 40
0.0
 40
0.0
 40
0.0454917947028851
 40
0.0987533574257081
 40
0.1486057680515654
 40
0.195034432588202
 40
0.2380276104300235
 40
0.2775771945305692
 40
0.3136783346766834
 40
0.3463281562039795
 40
0.3755253028680427
 40
0.4012697807054235
 40
0.4236529686510831
 40
0.4470969320278637
 40
0.4798576945268141
 40
0.5176578511142936
 40
0.560482856579445
 40
0.6083000174075993
 40
0.6610627645304628
 40
0.7088142933752436
 40
0.7600161795805864
 40
0.8146918943138726
 40
0.8728773909288452
 40
0.9346238376601519
 40
1.0
 40
1.0
 40
1.0
 40
1.0
 10
55.09818403636814
 20
-135.3179341911026
 30
0.0
 10
58.11046486167466
 20
-134.5872189277155
 30
0.0
 10
64.64950881346749
 20
-133.0009859366241
 30
0.0
 10
74.28659487610982
 20
-129.8724059105757
 30
0.0
 10
83.81269076120695
 20
-126.2554337615433
 30
0.0
 10
92.49329691459663
 20
-122.4165371855786
 30
0.0
 10
100.3525182208925
 20
-118.4840023975131
 30
0.0
 10
107.4140619380252
 20
-114.5483020514747
 30
0.0
 10
113.7079107687556
 20
-110.696346012815
 30
0.0
 10
119.2673426842063
 20
-107.0049201996535
 30
0.0
 10
124.1263860599445
 20
-103.5406959676487
 30
0.0
 10
128.3235983306373
 20
-100.3573300456498
 30
0.0
 10
132.1307555339446
 20
-97.31124423986435
 30
0.0
 10
136.2272177693209
 20
-93.86423572103354
 30
0.0
 10
141.0009366343143
 20
-89.59427780003716
 30
0.0
 10
146.5599114746043
 20
-84.22918637441232
 30
0.0
 10
152.5885947191069
 20
-77.88427602229706
 30
0.0
 10
158.966432901523
 20
-70.47963658572318
 30
0.0
 10
165.1403989686699
 20
-62.47426876051006
 30
0.0
 10
171.0029802824279
 20
-53.9580853135248
 30
0.0
 10
176.4719787856885
 20
-45.02998482760304
 30
0.0
 10
181.7642069437236
 20
-35.17883257984734
 30
0.0
 10
186.7358865178301
 20
-24.3675452561303
 30
0.0
 10
191.3219582982246
 20
-12.59184640807565
 30
0.0
 10
193.7508686438596
 20
-4.276425189099847
 30
0.0
 10
195.0
 20
0.0
 30
0.0
  0
SPLINE
  5
B4
330
AF
100
AcDbEntity
  8
0
  6
Continuous
 62
     7
370
    25
100
AcDbSpline
210
0.0
220
0.0
230
1.0
 70
     8
 71
     3
 72
    30
 73
    26
 74
     0
 42
0.000000001
 43
0.00000001
 40
0.0
 40
0.0
 40
0.0
 40
0.0
 40
0.0567390148460842
 40
0.1099104059168477
 40
0.1595631957075726
 40
0.2057334314965929
 40
0.248445971542305
 40
0.287716587540898
 40
0.3235537689042693
 40
0.3559602286908155
 40
0.3849340988496373
 40
0.4104704322787078
 40
0.4327068239598156
 40
0.4562368349213574
 40
0.4890865125515125
 40
0.5269757248813448
 40
0.5699094506522241
 40
0.6178907701472294
 40
0.6709188736462947
 40
0.718961543893013
 40
0.7704973720375716
 40
0.8255157786595626
 40
0.8840004349547438
 40
0.9459303305247326
 40
1.0
 40
1.0
 40
1.0
 40
1.0
 10
-195.0000000000001
 20
0.0
 30
0.0
 10
-193.9261042042217
 20
-3.713522879169942
 30
0.0
 10
-191.8458368053853
 20
-10.90707053131496
 30
0.0
 10
-188.0452912110426
 20
-21.09853457967388
 30
0.0
 10
-184.01713029613
 20
-30.4166374604542
 30
0.0
 10
-179.8209231107245
 20
-38.87261482803357
 30
0.0
 10
-175.5724300225389
 20
-46.50073213441327
 30
0.0
 10
-171.3609066176055
 20
-53.33430517467102
 30
0.0
 10
-167.2694785270541
 20
-59.40961767941541
 30
0.0
 10
-163.3709278272526
 20
-64.763372099674
 30
0.0
 10
-159.7295746373663
 20
-69.43206025485006
 30
0.0
 10
-156.3949822386096
 20
-73.45832578905176
 30
0.0
 10
-153.201988901845
 20
-77.11809287476204
 30
0.0
 10
-149.5830676955828
 20
-81.06525072150379
 30
0.0
 10
-145.1016410846598
 20
-85.6651162782759
 30
0.0
 10
-139.4907085231898
 20
-91.00289979422425
 30
0.0
 10
-132.8758679438102
 20
-96.77014660584311
 30
0.0
 10
-125.1760220567074
 20
-102.8458430074911
 30
0.0
 10
-116.8721148166176
 20
-108.6956693728446
 30
0.0
 10
-108.059140915129
 20
-114.2148251734279
 30
0.0
 10
-98.84311075152682
 20
-119.3182511688152
 30
0.0
 10
-88.70940535639409
 20
-124.199811907654
 30
0.0
 10
-77.63552582137582
 20
-128.7014646040887
 30
0.0
 10
-66.3725987643349
 20
-132.5395131458384
 30
0.0
 10
-58.69680245692994
 20
-134.4234086750756
 30
0.0
 10
-55.11896344400826
 20
-135.3015292831318
 30
0.0
  0
SPLINE
  5
B5
330
AF
100
AcDbEntity
  8
0
  6
Continuous
 62
     7
370
    25
100
AcDbSpline
210
0.0
220
0.0
230
1.0
 70
     8
 71
     3
 72
    17
 73
    13
 74
     0
 42
0.000000001
 43
0.00000001
 40
0.0
 40
0.0
 40
0.0
 40
0.0
 40
0.1143323201808143
 40
0.2411352995608267
 40
0.361060665689072
 40
0.4747621848329399
 40
0.5824432323976635
 40
0.6839896716866378
 40
0.7790054239156622
 40
0.8668003439515178
 40
0.9463482976356307
 40
0.9999999999999999
 40
0.9999999999999999
 40
0.9999999999999999
 40
0.9999999999999999
 10
47.53359556651223
 20
-145.0033330838122
 30
0.0
 10
47.55135004090009
 20
-144.4996652679089
 30
0.0
 10
47.58879553744288
 20
-143.4373926797647
 30
0.0
 10
47.99460031017844
 20
-141.8895636966656
 30
0.0
 10
48.61711994030072
 20
-140.4270855504927
 30
0.0
 10
49.418857354166
 20
-139.1507759683963
 30
0.0
 10
50.34314291540912
 20
-138.0666303936299
 30
0.0
 10
51.34639301905759
 20
-137.1755547856765
 30
0.0
 10
52.38320215922713
 20
-136.4701730489118
 30
0.0
 10
53.41164495867527
 20
-135.9431403116309
 30
0.0
 10
54.31869371506703
 20
-135.5864438475641
 30
0.0
 10
54.88647659740052
 20
-135.4412636297326
 30
0.0
 10
55.1151747721124
 20
-135.3827862577382
 30
0.0
  0
SPLINE
  5
B6
330
AF
100
AcDbEntity
  8
0
  6
Continuous
 62
     7
370
    25
100
AcDbSpline
210
0.0
220
0.0
230
1.0
 70
     8
 71
     3
 72
    17
 73
    13
 74
     0
 42
0.000000001
 43
0.00000001
 40
0.0
 40
0.0
 40
0.0
 40
0.0
 40
0.0406357283084321
 40
0.1322557551731075
 40
0.2525139276312026
 40
0.3666440767446386
 40
0.4786176075843394
 40
0.5975044880929598
 40
0.7198729236642856
 40
0.8442013654180395
 40
0.9695548816880352
 40
1.0
 40
1.0
 40
1.0
 40
1.0
 10
-55.32320639742895
 20
-135.3454640391162
 30
0.0
 10
-55.14510074374363
 20
-135.3809227144365
 30
0.0
 10
-54.56542618863386
 20
-135.4963288872094
 30
0.0
 10
-53.50356726342434
 20
-135.8928202500893
 30
0.0
 10
-52.20346508588684
 20
-136.5576394524278
 30
0.0
 10
-50.95513061673685
 20
-137.4829338737692
 30
0.0
 10
-49.86375872868853
 20
-138.5785073862536
 30
0.0
 10
-48.93411427216861
 20
-139.8605792366503
 30
0.0
 10
-48.19155251850337
 20
-141.3256097567315
 30
0.0
 10
-47.71648593267211
 20
-142.9196189950278
 30
0.0
 10
-47.49391589071512
 20
-144.1665283952132
 30
0.0
 10
-47.53349557582732
 20
-144.8618691313089
 30
0.0
 10
-47.54122997092792
 20
-144.9977479279002
 30
0.0
  0
SPLINE
  5
B7
330
AF
100
AcDbEntity
  8
0
  6
Continuous
 62
     7
370
    25
100
AcDbSpline
210
0.0
220
0.0
230
1.0
 70
    24
 71
     3
 72
    19
 73
    15
 74
     0
 42
0.000000001
 43
0.00000001
 40
0.25
 40
0.25
 40
0.25
 40
0.25
 40
0.2916666666666666
 40
0.3333333333333334
 40
0.375
 40
0.4166666666666666
 40
0.4583333333333334
 40
0.5000000000020915
 40
0.5416666666666667
 40
0.5833333333333333
 40
0.625
 40
0.6666666666666667
 40
0.7083333333333333
 40
0.7500000000009739
 40
0.7500000000009739
 40
0.7500000000009739
 40
0.7500000000009739
 10
195.0
 20
0.0
 30
0.0
 10
195.0
 20
0.0
 30
0.0
 10
190.4218675129826
 20
0.0
 30
0.0
 10
170.9372657958255
 20
0.0
 30
0.0
 10
139.5044365947469
 20
0.0
 30
0.0
 10
98.35992181344709
 20
0.0
 30
0.0
 10
51.31993209044835
 20
0.0
 30
0.0
 10
-0.0000000000000792
 20
0.0
 30
0.0
 10
-51.31993209044843
 20
0.0
 30
0.0
 10
-98.35992181344717
 20
0.0
 30
0.0
 10
-139.504436594747
 20
0.0
 30
0.0
 10
-170.9372657958255
 20
0.0
 30
0.0
 10
-190.4218675128309
 20
0.0
 30
0.0
 10
-194.9999999999465
 20
0.0
 30
0.0
 10
-195.0000000000001
 20
0.0
 30
0.0
  0
SPLINE
  5
B9
330
AF
100
AcDbEntity
  8
0
  6
Continuous
 62
     7
370
    25
100
AcDbSpline
210
0.0
220
0.0
230
1.0
 70
    24
 71
     3
 72
    32
 73
    28
 74
     0
 42
0.000000001
 43
0.00000001
 40
0.0
 40
0.0
 40
0.0
 40
0.0
 40
0.0016718166896954
 40
0.0516431193169435
 40
0.1009375145685224
 40
0.148981710095591
 40
0.1956595414925382
 40
0.2409014449112806
 40
0.2842971478822189
 40
0.3254645858014302
 40
0.364239701603336
 40
0.4006655326259014
 40
0.4352692374241715
 40
0.4687416443765644
 40
0.5016173785114978
 40
0.5344931126464639
 40
0.5679655195991453
 40
0.6025692243981593
 40
0.6389950554215054
 40
0.6777701712237495
 40
0.7189376091430069
 40
0.7623333121139301
 40
0.8075752155325657
 40
0.8542530469292655
 40
0.9022972424560795
 40
0.9515916377075299
 40
1.0
 40
1.0
 40
1.0
 40
1.0
 10
47.48619871218171
 20
-145.0
 30
0.0
 10
47.49093443736552
 20
-145.0
 30
0.0
 10
47.63722297619047
 20
-144.9999999999998
 30
0.0
 10
47.16615068823517
 20
-145.0000000000002
 30
0.0
 10
46.03643879133417
 20
-144.9999999999999
 30
0.0
 10
44.04192745458855
 20
-145.0
 30
0.0
 10
41.32252076043835
 20
-145.0
 30
0.0
 10
37.88774126523596
 20
-145.0
 30
0.0
 10
33.8025506769835
 20
-145.0
 30
0.0
 10
29.11863520202384
 20
-145.0
 30
0.0
 10
23.95108398310748
 20
-145.0
 30
0.0
 10
18.37950105908008
 20
-145.0000000000001
 30
0.0
 10
12.47031437149042
 20
-145.0
 30
0.0
 10
6.307928383569213
 20
-145.0
 30
0.0
 10
0.0000000274125784
 20
-145.0
 30
0.0
 10
-6.307928492982834
 20
-145.0
 30
0.0
 10
-12.4703139737341
 20
-144.9999999999999
 30
0.0
 10
-18.37950262394123
 20
-145.0
 30
0.0
 10
-23.95107763909274
 20
-145.0
 30
0.0
 10
-29.11866120089071
 20
-145.0
 30
0.0
 10
-33.80244481633336
 20
-145.0
 30
0.0
 10
-37.88816684757224
 20
-145.0
 30
0.0
 10
-41.32083794923402
 20
-145.0
 30
0.0
 10
-44.04850058021868
 20
-145.0
 30
0.0
 10
-46.01085736183193
 20
-145.0
 30
0.0
 10
-47.25155376692823
 20
-145.0
 30
0.0
 10
-47.4090590530114
 20
-145.0
 30
0.0
 10
-47.48709751521412
 20
-145.0000000000001
 30
0.0
  0
SPLINE
  5
BA
330
AF
100
AcDbEntity
  8
0
  6
Continuous
 62
     1
370
    25
100
AcDbSpline
210
0.0
220
0.0
230
1.0
 70
     8
 71
     3
 72
    39
 73
    35
 74
     0
 42
0.000000001
 43
0.00000001
 40
0.0
 40
0.0
 40
0.0
 40
0.0
 40
0.0182293162615359
 40
0.0567646479348625
 40
0.1016633930157292
 40
0.1468912875921696
 40
0.1933253951454793
 40
0.2402703083470077
 40
0.2640882262465185
 40
0.2880111316573606
 40
0.3123105603804537
 40
0.3367648662580842
 40
0.3748268753212632
 40
0.394297671128762
 40
0.4139211928708876
 40
0.4457908905944744
 40
0.4785716183930366
 40
0.4992464828373084
 40
0.5300342857095175
 40
0.5617484408674316
 40
0.593070171612958
 40
0.625130240084975
 40
0.6477123543441523
 40
0.6704734583545419
 40
0.6937167642364428
 40
0.7170957196443233
 40
0.7490515587886417
 40
0.7812527687753662
 40
0.8141035767719579
 40
0.8471358869055051
 40
0.8902225310275623
 40
0.9336198725797523
 40
0.9779123858622875
 40
1.0
 40
1.0
 40
1.0
 40
1.0
 10
-55.13157399037377
 20
-135.3512890180333
 30
0.0
 10
-55.14282851676496
 20
-135.351152496962
 30
0.0
 10
-55.17787422111857
 20
-135.3507273811518
 30
0.0
 10
-54.58615758783089
 20
-135.3579092516456
 30
0.0
 10
-53.27751354516847
 20
-135.3737741481916
 30
0.0
 10
-51.01837362533085
 20
-135.4013962688468
 30
0.0
 10
-47.82749614032292
 20
-135.4401507738016
 30
0.0
 10
-44.29897296916674
 20
-135.4821032352967
 30
0.0
 10
-40.90542848802299
 20
-135.5223424967895
 30
0.0
 10
-38.02605856558469
 20
-135.5564037006894
 30
0.0
 10
-34.80851103528018
 20
-135.5927953631916
 30
0.0
 10
-30.58264223184485
 20
-135.6385289258332
 30
0.0
 10
-26.11031046531938
 20
-135.6839431232504
 30
0.0
 10
-21.50224133004033
 20
-135.7250936381882
 30
0.0
 10
-17.02582734381422
 20
-135.760269551677
 30
0.0
 10
-11.36792477743817
 20
-135.7950590775497
 30
0.0
 10
-5.331069699293877
 20
-135.8163880361097
 30
0.0
 10
0.7264082565096565
 20
-135.8228027801386
 30
0.0
 10
6.71477923174835
 20
-135.8133457915939
 30
0.0
 10
13.26599053842978
 20
-135.7849378115044
 30
0.0
 10
19.53015264180524
 20
-135.7423613029408
 30
0.0
 10
24.74531970104347
 20
-135.6966673749547
 30
0.0
 10
29.0507339161618
 20
-135.6541420223068
 30
0.0
 10
32.57809678278365
 20
-135.6171258301068
 30
0.0
 10
35.85326052511677
 20
-135.5811256439086
 30
0.0
 10
39.23188484319051
 20
-135.5423724918225
 30
0.0
 10
42.56660847001184
 20
-135.502592784174
 30
0.0
 10
45.74205224129236
 20
-135.4649793912633
 30
0.0
 10
48.45538751280771
 20
-135.4325089591547
 30
0.0
 10
50.93041905722473
 20
-135.40246151926
 30
0.0
 10
53.00120658978133
 20
-135.3771531089222
 30
0.0
 10
54.45716285233022
 20
-135.3594616137385
 30
0.0
 10
55.18224822048836
 20
-135.350676617821
 30
0.0
 10
55.12561094973649
 20
-135.3513629478748
 30
0.0
 10
55.10676521637024
 20
-135.3515913203409
 30
0.0
  0
LINE
  5
BB
330
AF
100
AcDbEntity
  8
0
  6
Continuous
 62
     7
370
    25
100
AcDbLine
 10
-55.1318968708
 20
-135.3512850817
 30
0.0
 11
-55.1315739904
 21
-135.351289018
 31
0.0
  0
VIEWPORT
  5
EE
330
AF
100
AcDbEntity
  8
0
100
AcDbViewport
 10
0.0
 20
0.0
 30
0.0
 40
205.6
 41
156.0
 68
     1
 69
     1
 12
0.0
 22
-17.1296344974
 13
0.0
 23
0.0
 14
10.0
 24
10.0
 15
10.0
 25
10.0
 16
0.0
 26
0.0
 36
1.0
 17
0.0
 27
0.0
 37
0.0
 42
50.0
 43
0.0
 44
0.0
 45
382.433885339
 50
0.0
 51
0.0
 72
   100
 90
   557152
  1

281
     0
 71
     1
 74
     0
110
0.0
120
0.0
130
0.0
111
1.0
121
0.0
131
0.0
112
0.0
122
1.0
132
0.0
 79
     0
146
0.0
170
     0
 61
     5
348
2F
292
     1
282
     1
141
0.0
142
0.0
 63
   256
361
EF
  0
ENDBLK
  5
B2
330
AF
100
AcDbEntity
  8
0
100
AcDbBlockEnd
  0
BLOCK
  5
BE
330
BC
100
AcDbEntity
  8
0
100
AcDbBlockBegin
  2
*Paper_Space5
 70
     0
 10
0.0
 20
0.0
 30
0.0
  3
*Paper_Space5
  1

  0
SPLINE
  5
C0
330
BC
100
AcDbEntity
  8
0
  6
Continuous
 62
     7
370
    25
100
AcDbSpline
210
0.0
220
0.0
230
1.0
 70
    11
 71
     3
 72
    35
 73
    31
 74
     0
 42
0.000000001
 43
0.00000001
 40
0.0
 40
0.0
 40
0.0
 40
0.0
 40
0.0062500000000001
 40
0.0083333333333333
 40
0.0416666666666666
 40
0.0833333333333334
 40
0.1250000000000001
 40
0.1666666666666666
 40
0.2083333333333334
 40
0.25
 40
0.2916666666666666
 40
0.3333333333333334
 40
0.375
 40
0.4166666666666666
 40
0.4583333333333334
 40
0.5000000000020915
 40
0.5416666666666667
 40
0.5833333333333333
 40
0.625
 40
0.6666666666666667
 40
0.7083333333333333
 40
0.7500000000009739
 40
0.7916666666666666
 40
0.8333333333333334
 40
0.875
 40
0.9166666666666666
 40
0.9583333333333334
 40
0.9916666666666667
 40
0.99375
 40
1.0
 40
1.0
 40
1.0
 40
1.0
 10
-72.50000000000001
 20
-0.0000000000000042
 30
0.0
 10
-72.50000000000001
 20
-0.6250504549477823
 30
0.0
 10
-72.47446810728394
 20
-1.458451061544805
 30
0.0
 10
-72.17867248968363
 20
-5.620241344210597
 30
0.0
 10
-70.31492215243578
 20
-13.26490636796133
 30
0.0
 10
-63.55359882152489
 20
-23.95946813404482
 30
0.0
 10
-51.86703411855981
 20
-33.98184993974606
 30
0.0
 10
-36.56971452038422
 20
-41.638564745137
 30
0.0
 10
-19.08048757208984
 20
-46.38481388136757
 30
0.0
 10
-0.0000000000000191
 20
-48.0575930593162
 30
0.0
 10
19.0804875720898
 20
-46.38481388136756
 30
0.0
 10
36.5697145203842
 20
-41.63856474513701
 30
0.0
 10
51.86703411855976
 20
-33.98184993974606
 30
0.0
 10
63.55359882152488
 20
-23.95946813404482
 30
0.0
 10
70.7978738189294
 20
-12.50100909895539
 30
0.0
 10
73.35106309053529
 20
0.000000000000007
 30
0.0
 10
70.79787381892939
 20
12.50100909895539
 30
0.0
 10
63.55359882152489
 20
23.95946813404482
 30
0.0
 10
51.86703411855976
 20
33.98184993974606
 30
0.0
 10
36.56971452038419
 20
41.63856474513701
 30
0.0
 10
19.0804875720898
 20
46.38481388136754
 30
0.0
 10
-0.0000000000000078
 20
48.05759305931623
 30
0.0
 10
-19.08048757208982
 20
46.38481388136756
 30
0.0
 10
-36.56971452038422
 20
41.63856474513699
 30
0.0
 10
-51.86703411855977
 20
33.98184993974605
 30
0.0
 10
-63.55359882152488
 20
23.95946813404482
 30
0.0
 10
-70.3149221524358
 20
13.26490636796133
 30
0.0
 10
-72.17867248968366
 20
5.620241344210579
 30
0.0
 10
-72.47446810728394
 20
1.458451061544785
 30
0.0
 10
-72.50000000000001
 20
0.6250504549477628
 30
0.0
 10
-72.50000000000001
 20
-0.0000000000000042
 30
0.0
  0
SPLINE
  5
C1
330
BC
100
AcDbEntity
  8
0
  6
Continuous
 62
     7
370
    25
100
AcDbSpline
210
0.0
220
0.0
230
1.0
 70
    11
 71
     3
 72
   158
 73
   154
 74
     0
 42
0.000000001
 43
0.00000001
 40
0.0
 40
0.0
 40
0.0
 40
0.0
 40
0.0078124999999999
 40
0.0078124999999999
 40
0.0117187499999999
 40
0.0117187499999999
 40
0.0156249999999998
 40
0.0156249999999998
 40
0.0312499999999997
 40
0.0312499999999997
 40
0.0390624999999996
 40
0.0390624999999996
 40
0.0429687499999996
 40
0.0429687499999996
 40
0.0468749999999995
 40
0.0468749999999995
 40
0.0624999999999995
 40
0.0624999999999995
 40
0.0703124999999995
 40
0.0703124999999995
 40
0.0781249999999994
 40
0.0781249999999994
 40
0.0937499999999994
 40
0.0937499999999994
 40
0.1249999999999995
 40
0.1249999999999995
 40
0.1328124999999995
 40
0.1328124999999995
 40
0.1406249999999995
 40
0.1406249999999995
 40
0.1562499999999995
 40
0.1562499999999995
 40
0.1874999999999996
 40
0.1874999999999996
 40
0.2031249999999996
 40
0.2031249999999996
 40
0.2187499999999996
 40
0.2187499999999996
 40
0.2499999999999996
 40
0.2499999999999996
 40
0.2656249999999996
 40
0.2656249999999996
 40
0.2734374999999996
 40
0.2734374999999996
 40
0.2812499999999997
 40
0.2812499999999997
 40
0.3124999999999997
 40
0.3124999999999997
 40
0.3437499999999997
 40
0.3437499999999997
 40
0.3593749999999997
 40
0.3593749999999997
 40
0.3671874999999997
 40
0.3671874999999997
 40
0.3749999999999997
 40
0.3749999999999997
 40
0.4062499999999997
 40
0.4062499999999997
 40
0.4140624999999996
 40
0.4140624999999996
 40
0.4218749999999995
 40
0.4218749999999995
 40
0.4374999999999994
 40
0.4374999999999994
 40
0.4531249999999994
 40
0.4531249999999994
 40
0.4609374999999993
 40
0.4609374999999993
 40
0.4687499999999993
 40
0.4687499999999993
 40
0.4843749999999993
 40
0.4843749999999993
 40
0.4882812499999993
 40
0.4882812499999993
 40
0.4921874999999993
 40
0.4921874999999993
 40
0.4999999999999993
 40
0.4999999999999993
 40
0.5156249999999992
 40
0.5156249999999992
 40
0.5312499999999992
 40
0.5312499999999992
 40
0.5468749999999991
 40
0.5468749999999991
 40
0.5624999999999991
 40
0.5624999999999991
 40
0.578124999999999
 40
0.578124999999999
 40
0.593749999999999
 40
0.593749999999999
 40
0.601562499999999
 40
0.601562499999999
 40
0.609374999999999
 40
0.609374999999999
 40
0.6249999999999991
 40
0.6249999999999991
 40
0.6406249999999991
 40
0.6406249999999991
 40
0.6562499999999992
 40
0.6562499999999992
 40
0.6718749999999992
 40
0.6718749999999992
 40
0.6796874999999993
 40
0.6796874999999993
 40
0.6874999999999993
 40
0.6874999999999993
 40
0.7187499999999994
 40
0.7187499999999994
 40
0.7499999999999996
 40
0.7499999999999996
 40
0.7578124999999996
 40
0.7578124999999996
 40
0.7656249999999996
 40
0.7656249999999996
 40
0.7812499999999997
 40
0.7812499999999997
 40
0.8124999999999997
 40
0.8124999999999997
 40
0.8437499999999997
 40
0.8437499999999997
 40
0.8515624999999997
 40
0.8515624999999997
 40
0.8593749999999997
 40
0.8593749999999997
 40
0.8749999999999998
 40
0.8749999999999998
 40
0.8906249999999998
 40
0.8906249999999998
 40
0.8984374999999999
 40
0.8984374999999999
 40
0.9062499999999999
 40
0.9062499999999999
 40
0.9218749999999999
 40
0.9218749999999999
 40
0.9375
 40
0.9375
 40
0.9453125
 40
0.9453125
 40
0.94921875
 40
0.94921875
 40
0.9531249999999999
 40
0.9531249999999999
 40
0.96875
 40
0.96875
 40
0.9765625
 40
0.9765625
 40
0.984375
 40
0.984375
 40
0.9921875000000001
 40
0.9921875000000001
 40
0.99609375
 40
0.99609375
 40
1.0
 40
1.0
 40
1.0
 40
1.0
 10
-80.98486502888488
 20
-0.0000000000000061
 30
0.0
 10
-80.98486502888484
 20
1.139950588673373
 30
0.0
 10
-80.93355320562277
 20
2.275964030580567
 30
0.0
 10
-80.78169946023853
 20
3.974238318272973
 30
0.0
 10
-80.71858536956316
 20
4.539370937401514
 30
0.0
 10
-80.56753675895166
 20
5.667731766523197
 30
0.0
 10
-80.4794702719672
 20
6.231468583290588
 30
0.0
 10
-79.98103009233228
 20
9.026444414935812
 30
0.0
 10
-79.39597337827139
 20
11.20138407436731
 30
0.0
 10
-78.2623045186181
 20
14.37989324563747
 30
0.0
 10
-77.84148503422523
 20
15.42533121681092
 30
0.0
 10
-77.14712673340634
 20
16.97280583777279
 30
0.0
 10
-76.90514709181113
 20
17.48518190043611
 30
0.0
 10
-76.40028563126268
 20
18.50308617077824
 30
0.0
 10
-76.137296428765
 20
19.00870292610417
 30
0.0
 10
-74.78136782452127
 20
21.50063470702696
 30
0.0
 10
-73.55837947481847
 20
23.39501982176118
 30
0.0
 10
-71.54276783555792
 20
26.10668645609823
 30
0.0
 10
-70.84058775501062
 20
26.98883643137975
 30
0.0
 10
-69.37884023440338
 20
28.7119778077862
 30
0.0
 10
-68.61807316050339
 20
29.55419339300506
 30
0.0
 10
-66.26132679474377
 20
32.01387818201884
 30
0.0
 10
-64.60996809451882
 20
33.54635611590309
 30
0.0
 10
-59.45047569528338
 20
37.86891832955278
 30
0.0
 10
-55.73742272055217
 20
40.38479172085238
 30
0.0
 10
-50.81325417033515
 20
43.15116975993082
 30
0.0
 10
-49.81245146266413
 20
43.68629233793428
 30
0.0
 10
-47.79952333933082
 20
44.71202694097705
 30
0.0
 10
-46.7859295303378
 20
45.20355458073526
 30
0.0
 10
-43.72504228212654
 20
46.6179597254287
 30
0.0
 10
-41.65771761758808
 20
47.48088270261589
 30
0.0
 10
-35.38234364534924
 20
49.84996027826287
 30
0.0
 10
-31.10111561514765
 20
51.13708711608171
 30
0.0
 10
-24.54766245729262
 20
52.67386211666058
 30
0.0
 10
-22.34067055269454
 20
53.12018159958836
 30
0.0
 10
-17.88563814716042
 20
53.88420243503322
 30
0.0
 10
-15.65594884686718
 20
54.19893104391137
 30
0.0
 10
-8.960727735646392
 20
54.95260498920283
 30
0.0
 10
-4.489108062183131
 20
55.20306147853781
 30
0.0
 10
2.230438274990994
 20
55.20359284947766
 30
0.0
 10
4.472323968584579
 20
55.14070439913952
 30
0.0
 10
7.838200321716742
 20
54.95200714932306
 30
0.0
 10
8.960668121771434
 20
54.87334822741058
 30
0.0
 10
11.20663360461293
 20
54.6841437716498
 30
0.0
 10
12.33177898329729
 20
54.57340251380343
 30
0.0
 10
17.93806742310285
 20
53.94092482188535
 30
0.0
 10
22.35007696272901
 20
53.18715696853211
 30
0.0
 10
31.0203862555751
 20
51.15803178862007
 30
0.0
 10
35.2787577670514
 20
49.88291780608309
 30
0.0
 10
41.53646224517253
 20
47.52960726500878
 30
0.0
 10
43.60066788311423
 20
46.67154784107041
 30
0.0
 10
46.66117507766419
 20
45.26297160817554
 30
0.0
 10
47.67536020364574
 20
44.77314045851109
 30
0.0
 10
49.69095144222005
 20
43.7501142878226
 30
0.0
 10
50.69434429615868
 20
43.21573084860645
 30
0.0
 10
55.63374993775458
 20
40.45138121825224
 30
0.0
 10
59.36214843880841
 20
37.93456376333105
 30
0.0
 10
63.68355693604182
 20
34.32447501901193
 30
0.0
 10
64.53075065337258
 20
33.57907146182371
 30
0.0
 10
66.18839801177013
 20
32.03798319325526
 30
0.0
 10
67.00122149103426
 20
31.23976398087284
 30
0.0
 10
69.35889535995966
 20
28.78465764295133
 30
0.0
 10
70.82254716881451
 20
27.06954774729915
 30
0.0
 10
73.51023713757363
 20
23.46564727380963
 30
0.0
 10
74.73444505828388
 20
21.57697967119692
 30
0.0
 10
76.36501802715443
 20
18.59484115312923
 30
0.0
 10
76.87598865903954
 20
17.57131999374166
 30
0.0
 10
77.80977197247965
 20
15.50133838080624
 30
0.0
 10
78.2337536176062
 20
14.45358277388126
 30
0.0
 10
79.37527152992133
 20
11.27151558070943
 30
0.0
 10
79.96333774070844
 20
9.098688462999306
 30
0.0
 10
80.46593882108307
 20
6.313491790941177
 30
0.0
 10
80.55476566675735
 20
5.752973703285369
 30
0.0
 10
80.70832244561142
 20
4.624768676322159
 30
0.0
 10
80.77305842041162
 20
4.056565272200737
 30
0.0
 10
80.92902941608334
 20
2.352343083955553
 30
0.0
 10
80.98265608366694
 20
1.213252032374812
 30
0.0
 10
80.98908272123465
 20
-2.213048291185732
 30
0.0
 10
80.78813506824642
 20
-4.463346865056716
 30
0.0
 10
80.01056876747633
 20
-8.896291936347685
 30
0.0
 10
79.43372139045627
 20
-11.07989764330327
 30
0.0
 10
77.91010864746922
 20
-15.38237241055273
 30
0.0
 10
76.98320854757081
 20
-17.44448346763266
 30
0.0
 10
74.83563539621144
 20
-21.4101210902724
 30
0.0
 10
73.61477967791421
 20
-23.31354907557492
 30
0.0
 10
70.90203238373975
 20
-26.97410462696856
 30
0.0
 10
69.43763153290918
 20
-28.69454350914867
 30
0.0
 10
66.33173541647675
 20
-31.94454709776883
 30
0.0
 10
64.68935730434752
 20
-33.47521548440252
 30
0.0
 10
62.10676643827197
 20
-35.6456710519488
 30
0.0
 10
61.22596754133713
 20
-36.34812834807028
 30
0.0
 10
59.42603702219284
 20
-37.71260950690333
 30
0.0
 10
58.50561857899586
 20
-38.37547207857236
 30
0.0
 10
55.69682590552608
 20
-40.29951289609388
 30
0.0
 10
53.77865570062724
 20
-41.48437638700204
 30
0.0
 10
49.86364648268062
 20
-43.68548840957953
 30
0.0
 10
47.86689417261726
 20
-44.70192180065581
 30
0.0
 10
43.80302990106083
 20
-46.58398092029566
 30
0.0
 10
41.73586786889552
 20
-47.44949928293683
 30
0.0
 10
37.53547704359128
 20
-49.0389286622269
 30
0.0
 10
35.40216924492134
 20
-49.76267061113528
 30
0.0
 10
32.15446060346405
 20
-50.74594398205896
 30
0.0
 10
31.06555206572702
 20
-51.05606824929444
 30
0.0
 10
28.88670999209293
 20
-51.63917551952588
 30
0.0
 10
27.79512467220137
 20
-51.91266653314938
 30
0.0
 10
22.32679626692289
 20
-53.19331061855569
 30
0.0
 10
17.91908025216859
 20
-53.94197144804653
 30
0.0
 10
9.044463431456695
 20
-54.94535187193554
 30
0.0
 10
4.577595577570881
 20
-55.20034570706171
 30
0.0
 10
-1.043725580602182
 20
-55.20414963137745
 30
0.0
 10
-2.169897890622403
 20
-55.18898607514501
 30
0.0
 10
-4.426065891134013
 20
-55.12674993611903
 30
0.0
 10
-5.557121969888908
 20
-55.07957554712475
 30
0.0
 10
-8.935897340913764
 20
-54.89108086242443
 30
0.0
 10
-11.17528008951997
 20
-54.70288293429064
 30
0.0
 10
-17.85436825869381
 20
-53.95231524839975
 30
0.0
 10
-22.25535993257296
 20
-53.20562108086979
 30
0.0
 10
-30.94539309604046
 20
-51.17921357474857
 30
0.0
 10
-35.23453472421112
 20
-49.89997687680962
 30
0.0
 10
-40.51464706171662
 20
-47.9137697374298
 30
0.0
 10
-41.56818826384274
 20
-47.49635799104405
 30
0.0
 10
-43.65901221242069
 20
-46.62369446158576
 30
0.0
 10
-44.6939723452871
 20
-46.16948923684054
 30
0.0
 10
-47.76664733992429
 20
-44.75180001250933
 30
0.0
 10
-49.77230935309368
 20
-43.73350337531659
 30
0.0
 10
-53.69027159031411
 20
-41.5372552773035
 30
0.0
 10
-55.60246251675667
 20
-40.35911777540627
 30
0.0
 10
-58.39131706606291
 20
-38.45607398644049
 30
0.0
 10
-59.30771950293329
 20
-37.79912504157608
 30
0.0
 10
-61.11235327791523
 20
-36.43705016614486
 30
0.0
 10
-62.00245881813279
 20
-35.7303877491287
 30
0.0
 10
-64.61412894519427
 20
-33.54387343680693
 30
0.0
 10
-66.26713133393939
 20
-32.00708823635986
 30
0.0
 10
-69.37979626134009
 20
-28.75992724452151
 30
0.0
 10
-70.83942739346672
 20
-27.0495237065344
 30
0.0
 10
-72.86175189642029
 20
-24.33385924024896
 30
0.0
 10
-73.50791955239544
 20
-23.40354988897582
 30
0.0
 10
-74.4315071002664
 20
-21.96708276126691
 30
0.0
 10
-74.73142325367787
 20
-21.4818360237071
 30
0.0
 10
-75.31081163796246
 20
-20.50507053031821
 30
0.0
 10
-75.59088046493895
 20
-20.01263961607268
 30
0.0
 10
-76.94248575141621
 20
-17.52998645775407
 30
0.0
 10
-77.8682627966173
 20
-15.47846070150782
 30
0.0
 10
-79.00667250281897
 20
-12.29591290480496
 30
0.0
 10
-79.34437002622141
 20
-11.21749396592933
 30
0.0
 10
-79.93153314667323
 20
-9.023544609502958
 30
0.0
 10
-80.18108327025611
 20
-7.905440015144864
 30
0.0
 10
-80.58016390723286
 20
-5.666048499946652
 30
0.0
 10
-80.7309874570425
 20
-4.540801764412222
 30
0.0
 10
-80.88274746408712
 20
-2.844445479529566
 30
0.0
 10
-80.9209076708501
 20
-2.277577436037732
 30
0.0
 10
-80.97196628450483
 20
-1.140962833428332
 30
0.0
 10
-80.9848650288849
 20
-0.5699752943367017
 30
0.0
 10
-80.98486502888488
 20
-0.0000000000000101
 30
0.0
  0
CIRCLE
  5
C2
330
BC
100
AcDbEntity
  8
0
  6
Continuous
 62
     7
370
    25
100
AcDbCircle
 10
0.0
 20
0.0
 30
0.0
 40
23.04
  0
LWPOLYLINE
  5
C3
330
BC
100
AcDbEntity
  8
0
  6
Continuous
 62
     7
370
    25
100
AcDbPolyline
 90
       95
 70
   128
 43
0.0
 10
-290.0
 20
0.0
 10
-289.4155725304
 20
12.3069227145
 10
-287.6775994761
 20
24.5546795057
 10
-284.8090448687
 20
36.6841044503
 10
-280.8328727399
 20
48.6360316251
 10
-275.7711591383
 20
60.3548476531
 10
-269.6400768022
 20
71.8085564859
 10
-262.4533902603
 20
82.9747965807
 10
-253.3452316928
 20
94.8989797112
 10
-242.9982456625
 20
106.4152765871
 10
-231.4611068333
 20
117.4652953087
 10
-218.7949470903
 20
127.9788829897
 10
-205.0609665441
 20
137.8858223314
 10
-189.4045893288
 20
147.6577696529
 10
-172.7404655435
 20
156.619224257
 10
-155.1931813536
 20
164.7210895759
 10
-136.8863803569
 20
171.9147204432
 10
-117.912566519
 20
178.1663846615
 10
-98.3267156615
 20
183.4603225012
 10
-79.3468671896
 20
187.5613521012
 10
-59.9199664418
 20
190.7849393113
 10
-40.1418362151
 20
193.1129380857
 10
-20.1294756835
 20
194.5248091194
 10
0.0000000006
 20
195.0
 10
21.3468585125
 20
194.4656983299
 10
42.5539916116
 20
192.8791401616
 10
63.4816738849
 20
190.2648457578
 10
83.9913211068
 20
186.6472064093
 10
103.9820504958
 20
182.0463525587
 10
123.3984154279
 20
176.4772796577
 10
141.1318159809
 20
170.3528282072
 10
158.2586164628
 20
163.3953720834
 10
174.6919776386
 20
155.6376408017
 10
190.3275695745
 20
147.1207402849
 10
205.0609665441
 20
137.8858223314
 10
217.5896086199
 20
128.9056370581
 10
229.240352219
 20
119.4188139912
 10
239.9672167925
 20
109.4781084267
 10
249.7242217915
 20
99.1362756603
 10
258.4684946075
 20
88.4431367504
 10
266.1778242181
 20
77.4290059453
 10
272.8384283353
 20
66.1162398411
 10
278.0109560879
 20
55.5029354853
 10
282.2799145305
 20
44.6754300914
 10
285.630919696
 20
33.6660774604
 10
288.0463944305
 20
22.5200063505
 10
289.5086505824
 20
11.282789588
 10
290.0
 20
-0.0000000009
 10
289.4155725303
 20
-12.3069227153
 10
287.6775994759
 20
-24.5546795065
 10
284.8090448684
 20
-36.6841044511
 10
280.8328727396
 20
-48.6360316258
 10
275.771159138
 20
-60.3548476537
 10
269.640076802
 20
-71.8085564863
 10
262.4533902601
 20
-82.974796581
 10
253.3452316927
 20
-94.8989797114
 10
242.9982456624
 20
-106.4152765871
 10
231.4611068333
 20
-117.4652953087
 10
218.7949470903
 20
-127.9788829897
 10
205.0609665441
 20
-137.8858223314
 10
189.4045893288
 20
-147.6577696529
 10
172.7404655435
 20
-156.619224257
 10
155.1931813536
 20
-164.7210895759
 10
136.886380357
 20
-171.9147204432
 10
117.9125665192
 20
-178.1663846614
 10
98.3267156618
 20
-183.4603225011
 10
79.34686719
 20
-187.5613521011
 10
59.9199664423
 20
-190.7849393112
 10
40.1418362156
 20
-193.1129380856
 10
20.129475684
 20
-194.5248091193
 10
0.0
 20
-195.0
 10
-21.3468585119
 20
-194.46569833
 10
-42.553991611
 20
-192.8791401617
 10
-63.4816738844
 20
-190.2648457579
 10
-83.9913211064
 20
-186.6472064094
 10
-103.9820504955
 20
-182.0463525588
 10
-123.3984154277
 20
-176.4772796578
 10
-141.1318159808
 20
-170.3528282072
 10
-158.2586164628
 20
-163.3953720834
 10
-174.6919776386
 20
-155.6376408017
 10
-190.3275695745
 20
-147.1207402849
 10
-205.0609665441
 20
-137.8858223314
 10
-217.5896086199
 20
-128.9056370581
 10
-229.240352219
 20
-119.4188139913
 10
-239.9672167925
 20
-109.4781084267
 10
-249.7242217915
 20
-99.1362756604
 10
-258.4684946073
 20
-88.4431367507
 10
-266.1778242179
 20
-77.4290059457
 10
-272.838428335
 20
-66.1162398416
 10
-278.0109560875
 20
-55.5029354859
 10
-282.2799145302
 20
-44.6754300921
 10
-285.6309196957
 20
-33.6660774612
 10
-288.0463944303
 20
-22.5200063514
 10
-289.5086505823
 20
-11.2827895888
 10
-290.0
 20
0.0
  0
VIEWPORT
  5
F0
330
BC
100
AcDbEntity
  8
0
100
AcDbViewport
 10
0.0
 20
0.0
 30
0.0
 40
205.6
 41
156.0
 68
     1
 69
     1
 12
0.0
 22
-17.1296344974
 13
0.0
 23
0.0
 14
10.0
 24
10.0
 15
10.0
 25
10.0
 16
0.0
 26
0.0
 36
1.0
 17
0.0
 27
0.0
 37
0.0
 42
50.0
 43
0.0
 44
0.0
 45
382.433885339
 50
0.0
 51
0.0
 72
   100
 90
   557152
  1

281
     0
 71
     1
 74
     0
110
0.0
120
0.0
130
0.0
111
1.0
121
0.0
131
0.0
112
0.0
122
1.0
132
0.0
 79
     0
146
0.0
170
     0
 61
     5
348
2F
292
     1
282
     1
141
0.0
142
0.0
 63
   256
361
F1
  0
ENDBLK
  5
BF
330
BC
100
AcDbEntity
  8
0
100
AcDbBlockEnd
  0
BLOCK
  5
C6
330
C4
100
AcDbEntity
  8
0
100
AcDbBlockBegin
  2
*Paper_Space6
 70
     0
 10
0.0
 20
0.0
 30
0.0
  3
*Paper_Space6
  1

  0
SPLINE
  5
C8
330
C4
100
AcDbEntity
  8
0
  6
Continuous
 62
     7
370
    25
100
AcDbSpline
210
0.0
220
0.0
230
1.0
 70
     8
 71
     3
 72
    70
 73
    66
 74
     0
 42
0.000000001
 43
0.00000001
 40
0.0
 40
0.0
 40
0.0
 40
0.0
 40
0.0203199777514228
 40
0.0389526051424887
 40
0.0558679350242803
 40
0.0713227031690634
 40
0.0921379816173602
 40
0.1136203269401903
 40
0.1358431664274175
 40
0.1635736180312705
 40
0.1925023095567413
 40
0.2224678868617207
 40
0.2531680809650345
 40
0.2845531756693829
 40
0.3165506119878446
 40
0.34906867283444
 40
0.3820086546585275
 40
0.4152736502197466
 40
0.4482944851361145
 40
0.4709065031864489
 40
0.4926369966205653
 40
0.5134591574006568
 40
0.5333473352291211
 40
0.5522745782377777
 40
0.5702060925486174
 40
0.5867910086526911
 40
0.5937868157375368
 40
0.5999112850753879
 40
0.6051612478488317
 40
0.6095343426406442
 40
0.6137351049531665
 40
0.6188333049527132
 40
0.6257094921503497
 40
0.6343653328739994
 40
0.6448013947381894
 40
0.6568250704817737
 40
0.6772255551301756
 40
0.6951477943906099
 40
0.710588470690251
 40
0.7235525157023233
 40
0.7341116368376053
 40
0.7436889713529963
 40
0.7528749496771798
 40
0.7616699788030574
 40
0.7703556992619206
 40
0.780774714173321
 40
0.792997785479338
 40
0.8071575004525866
 40
0.8223863053151262
 40
0.8373897783952041
 40
0.85866246215339
 40
0.8794343889368492
 40
0.8989259231432517
 40
0.9165309397471686
 40
0.9267302229073788
 40
0.9369183257899718
 40
0.9472332819121927
 40
0.9584839021285627
 40
0.9714067701910597
 40
0.9812622874130228
 40
0.9898389841155807
 40
0.9968794587365649
 40
0.9983706072961889
 40
0.9996106290530073
 40
1.0
 40
1.0
 40
1.0
 40
1.0
 10
165.1653309926755
 20
-127.4793015910303
 30
0.0
 10
162.4883859949477
 20
-128.3233704816547
 30
0.0
 10
157.3567867993066
 20
-129.9414176375997
 30
0.0
 10
149.4993713311417
 20
-131.8927127309726
 30
0.0
 10
142.0815378229088
 20
-133.4428262921011
 30
0.0
 10
134.1100221766787
 20
-134.8161941900591
 30
0.0
 10
125.2818514828352
 20
-136.0095218970401
 30
0.0
 10
115.2520115979139
 20
-136.9678685132588
 30
0.0
 10
104.0267087968122
 20
-137.6216860040254
 30
0.0
 10
91.5500632200718
 20
-137.8614074694482
 30
0.0
 10
77.84122759698825
 20
-137.5751105529346
 30
0.0
 10
63.72964437700409
 20
-136.7378247205229
 30
0.0
 10
49.35957509534382
 20
-135.3506969174708
 30
0.0
 10
34.859862921275
 20
-133.4219117445543
 30
0.0
 10
20.31320354053327
 20
-130.9773348950623
 30
0.0
 10
5.80073579682111
 20
-128.0466176172634
 30
0.0
 10
-8.598155130502313
 20
-124.6585335706321
 30
0.0
 10
-22.73922356542851
 20
-120.8596217580919
 30
0.0
 10
-35.0948673152491
 20
-117.1283720093555
 30
0.0
 10
-45.61688350641698
 20
-113.656406104443
 30
0.0
 10
-54.32012530700407
 20
-110.5884153068367
 30
0.0
 10
-62.50963333333134
 20
-107.5228535209497
 30
0.0
 10
-70.19159011830855
 20
-104.4851848747585
 30
0.0
 10
-77.3718585799245
 20
-101.4996440909759
 30
0.0
 10
-84.01638364236014
 20
-98.60663960484503
 30
0.0
 10
-89.0896910119314
 20
-96.30298942791941
 30
0.0
 10
-92.67719249650055
 20
-94.62746036229049
 30
0.0
 10
-94.88061047528876
 20
-93.58222011139996
 30
0.0
 10
-96.75763701906129
 20
-92.67978089408047
 30
0.0
 10
-98.39638426751591
 20
-91.8829403407421
 30
0.0
 10
-100.0069893187505
 20
-91.09188108716698
 30
0.0
 10
-101.8992044170276
 20
-90.15238358396117
 30
0.0
 10
-104.2964366851324
 20
-88.94548112663593
 30
0.0
 10
-107.2877054760017
 20
-87.41217043425239
 30
0.0
 10
-110.8341567162225
 20
-85.55371248538938
 30
0.0
 10
-115.6578086107456
 20
-82.95946957192875
 30
0.0
 10
-121.2180781979551
 20
-79.85467640865865
 30
0.0
 10
-127.0160550645548
 20
-76.4686583601016
 30
0.0
 10
-131.9041630794196
 20
-73.5006476136807
 30
0.0
 10
-135.9358955592925
 20
-70.9702864593036
 30
0.0
 10
-139.3003626960987
 20
-68.799986542144
 30
0.0
 10
-142.2353086746946
 20
-66.86165575921734
 30
0.0
 10
-144.9542839619079
 20
-65.02592668487395
 30
0.0
 10
-147.5475511751958
 20
-63.23747072484156
 30
0.0
 10
-150.2218845038775
 20
-61.35429363997925
 30
0.0
 10
-153.1647860537055
 20
-59.23400193689553
 30
0.0
 10
-156.5504991033236
 20
-56.72705552897509
 30
0.0
 10
-160.2873137209363
 20
-53.86905100928903
 30
0.0
 10
-164.1668896500106
 20
-50.79026575777434
 30
0.0
 10
-168.5365906828794
 20
-47.18398882000989
 30
0.0
 10
-173.1957549342968
 20
-43.14685785342237
 30
0.0
 10
-177.9895259566966
 20
-38.7388686240982
 30
0.0
 10
-182.2664501766295
 20
-34.56203954152794
 30
0.0
 10
-185.5678204634658
 20
-31.1431258543781
 30
0.0
 10
-188.0923906452689
 20
-28.40537187917027
 30
0.0
 10
-190.0654364801742
 20
-26.18941097137974
 30
0.0
 10
-192.0522019831144
 20
-23.87364691619293
 30
0.0
 10
-194.073422506039
 20
-21.41943677695519
 30
0.0
 10
-195.8963268973212
 20
-19.10240287473627
 30
0.0
 10
-197.4641001470859
 20
-17.02440966586905
 30
0.0
 10
-198.6832833452093
 20
-15.34971934397404
 30
0.0
 10
-199.4727672506924
 20
-14.23156318075876
 30
0.0
 10
-199.9043179112032
 20
-13.60891681182658
 30
0.0
 10
-200.0112724236714
 20
-13.45850247960947
 30
0.0
 10
-200.0021206443907
 20
-13.47901497207038
 30
0.0
 10
-199.9999336719335
 20
-13.48391677910314
 30
0.0
  0
SPLINE
  5
C9
330
C4
100
AcDbEntity
  8
0
  6
Continuous
 62
     7
370
    25
100
AcDbSpline
210
0.0
220
0.0
230
1.0
 70
     8
 71
     3
 72
    26
 73
    22
 74
     0
 42
0.000000001
 43
0.00000001
 40
0.0
 40
0.0
 40
0.0
 40
0.0
 40
0.0204359439607353
 40
0.055511430715967
 40
0.106622399745032
 40
0.1572621720873123
 40
0.2017794730284073
 40
0.2472354012383678
 40
0.2907636225829046
 40
0.3409206651142374
 40
0.3974632085421049
 40
0.4500978942942494
 40
0.4981801182570788
 40
0.5372799897481875
 40
0.5772694782309312
 40
0.6191996871403609
 40
0.665639204802916
 40
0.7256774371913447
 40
0.8012264007747744
 40
0.8925398522826974
 40
1.0
 40
1.0
 40
1.0
 40
1.0
 10
201.8181482299212
 20
-106.7506522103435
 30
0.0
 10
201.8112356890649
 20
-106.7397481697905
 30
0.0
 10
201.792458722679
 20
-106.7101288435267
 30
0.0
 10
201.3868380146686
 20
-107.1135180696638
 30
0.0
 10
200.4805298835147
 20
-108.0050321311124
 30
0.0
 10
199.2913900444903
 20
-109.109345918406
 30
0.0
 10
198.0994928470138
 20
-110.1549328210471
 30
0.0
 10
196.8700697970438
 20
-111.1794823115178
 30
0.0
 10
195.4912672541341
 20
-112.2690479814879
 30
0.0
 10
193.9241057851369
 20
-113.4408564102309
 30
0.0
 10
192.1653689277398
 20
-114.6765287089381
 30
0.0
 10
190.3351014806995
 20
-115.8833502457727
 30
0.0
 10
188.6253892326596
 20
-116.9468532367042
 30
0.0
 10
186.9922476935879
 20
-117.9122189277792
 30
0.0
 10
185.3770350671809
 20
-118.8234170912407
 30
0.0
 10
183.6015573628689
 20
-119.7779958479787
 30
0.0
 10
181.4686173244626
 20
-120.8670169442887
 30
0.0
 10
178.7088309250638
 20
-122.1912369058359
 30
0.0
 10
175.1068573684141
 20
-123.7825567955995
 30
0.0
 10
170.5542292320277
 20
-125.6186001639952
 30
0.0
 10
167.0563433537102
 20
-126.826364897399
 30
0.0
 10
165.1653309926755
 20
-127.4793015910303
 30
0.0
  0
SPLINE
  5
CA
330
C4
100
AcDbEntity
  8
0
  6
Continuous
 62
     7
370
    25
100
AcDbSpline
210
0.0
220
0.0
230
1.0
 70
     8
 71
     3
 72
   121
 73
   117
 74
     0
 42
0.000000001
 43
0.00000001
 40
0.0
 40
0.0
 40
0.0
 40
0.0
 40
0.0081612262213168
 40
0.0143538102231643
 40
0.0185731504747363
 40
0.0220879576566497
 40
0.0259803171468531
 40
0.0316825800658172
 40
0.038208854142252
 40
0.0453030311603857
 40
0.0541001669546966
 40
0.0618062452497209
 40
0.0684450508272983
 40
0.0748140205278821
 40
0.0839963589878791
 40
0.0947202747365331
 40
0.107349923507788
 40
0.119682858430168
 40
0.1317109852394262
 40
0.150418433056321
 40
0.1677932867104559
 40
0.1853148952897127
 40
0.2036103350776239
 40
0.2226506168263702
 40
0.2402402151894093
 40
0.2564066585555154
 40
0.2668636141372417
 40
0.276937424722437
 40
0.2879635950237532
 40
0.3011596398251424
 40
0.3137975647752084
 40
0.3252619665269278
 40
0.3353280043257645
 40
0.3433239842583621
 40
0.3519487706433803
 40
0.36065641235783
 40
0.3694244808923725
 40
0.3773293318700725
 40
0.3863614226018167
 40
0.3952040145191289
 40
0.4027866414049955
 40
0.410810457292332
 40
0.4175597296730205
 40
0.4240724517465522
 40
0.4303641810419317
 40
0.436825647042279
 40
0.4439943013517182
 40
0.451861173234771
 40
0.4678637706454098
 40
0.4857009375610754
 40
0.5054260602832419
 40
0.5209000290422199
 40
0.536338452071363
 40
0.5507188166681573
 40
0.5640561879783987
 40
0.5763704282695
 40
0.5876848900032388
 40
0.595902385013629
 40
0.6036028877981132
 40
0.6108084865265317
 40
0.6175336112454319
 40
0.6245654767735584
 40
0.6330994376904714
 40
0.6397657499982193
 40
0.6456380868939632
 40
0.6506131077123294
 40
0.6558716793391048
 40
0.6624067560696932
 40
0.6699615690815834
 40
0.6763723661791259
 40
0.681773472250951
 40
0.686704099661606
 40
0.6925015719628523
 40
0.6992273966427458
 40
0.7073641504456003
 40
0.7138676156129458
 40
0.7198409018440328
 40
0.7273123785909497
 40
0.7339450698549679
 40
0.7397422007654751
 40
0.7445239468252286
 40
0.7490490943819037
 40
0.7545834037878604
 40
0.7613002549311936
 40
0.7681952039214914
 40
0.7742157248943999
 40
0.7794518708261149
 40
0.7842896352007306
 40
0.7886302586660014
 40
0.7930187424364709
 40
0.7979785146242637
 40
0.8041332208934396
 40
0.8107726942663676
 40
0.8211186188850679
 40
0.8291317847643032
 40
0.8369484410702893
 40
0.8451117650307678
 40
0.8534627596630245
 40
0.8617433143479476
 40
0.8702165244858007
 40
0.8857817292066943
 40
0.901501595541082
 40
0.916807239266057
 40
0.9333506066076775
 40
0.9430866265685656
 40
0.9528272460503603
 40
0.9619596493621104
 40
0.9697782786138716
 40
0.9726926738821281
 40
0.9756052791440751
 40
0.9784881602666097
 40
0.9813051338929392
 40
0.9840691742354795
 40
0.9877875682130546
 40
0.9930944056900374
 40
1.0
 40
1.0
 40
1.0
 40
1.0
 10
-241.0078982416182
 20
23.32088237933955
 30
0.0
 10
-240.4000148585981
 20
21.78194411568116
 30
0.0
 10
-239.3308810690097
 20
19.07528862265963
 30
0.0
 10
-237.8677683015629
 20
15.61036192781049
 30
0.0
 10
-236.7421620874967
 20
13.02812658032321
 30
0.0
 10
-235.783533062458
 20
10.88586292134417
 30
0.0
 10
-234.6823413993242
 20
8.482533018791614
 30
0.0
 10
-233.2958311914466
 20
5.546442276427456
 30
0.0
 10
-231.5861263338796
 20
2.058041624178768
 30
0.0
 10
-229.5409500627871
 20
-1.951399780799674
 30
0.0
 10
-227.3094363325648
 20
-6.133790998037673
 30
0.0
 10
-225.0483543113156
 20
-10.18486545315433
 30
0.0
 10
-222.9864145381738
 20
-13.74317489700332
 30
0.0
 10
-220.717554727929
 20
-17.53168300395105
 30
0.0
 10
-217.9567785484174
 20
-21.96732942716379
 30
0.0
 10
-214.4311327307702
 20
-27.36887181797312
 30
0.0
 10
-210.4237590430032
 20
-33.18752033126021
 30
0.0
 10
-206.126186183713
 20
-39.09259501825333
 30
0.0
 10
-200.9638321183989
 20
-45.82720457860906
 30
0.0
 10
-194.9779172496979
 20
-53.15644305797329
 30
0.0
 10
-188.0432283563477
 20
-61.0641163018668
 30
0.0
 10
-180.9194083009256
 20
-68.66677775726512
 30
0.0
 10
-173.329024150413
 20
-76.25180186793314
 30
0.0
 10
-165.4867521084104
 20
-83.58419580669508
 30
0.0
 10
-157.7290050902085
 20
-90.39094585857444
 30
0.0
 10
-151.0691746635667
 20
-95.90786454162703
 30
0.0
 10
-145.4411119911292
 20
-100.3660762488621
 30
0.0
 10
-140.5363494863597
 20
-104.1200442204856
 30
0.0
 10
-135.136287847471
 20
-108.1104760891566
 30
0.0
 10
-129.2253206791505
 20
-112.3031026693976
 30
0.0
 10
-123.1933858044383
 20
-116.4038892473069
 30
0.0
 10
-117.3011382880984
 20
-120.2372028618719
 30
0.0
 10
-112.5441047069197
 20
-123.2187621648496
 30
0.0
 10
-108.1898424096852
 20
-125.8653081695068
 30
0.0
 10
-103.8928288913682
 20
-128.3994156166889
 30
0.0
 10
-99.43686752910594
 20
-130.9435183695083
 30
0.0
 10
-95.06543124590708
 20
-133.3585350735707
 30
0.0
 10
-90.6304165884708
 20
-135.7319321171132
 30
0.0
 10
-86.15670067340461
 20
-138.0492102310246
 30
0.0
 10
-81.69195766744619
 20
-140.2821308092829
 30
0.0
 10
-77.35887292235405
 20
-142.3788400065781
 30
0.0
 10
-73.36469194638947
 20
-144.2504218910994
 30
0.0
 10
-69.54457537790931
 20
-145.9856156099416
 30
0.0
 10
-66.02092688729707
 20
-147.541201913734
 30
0.0
 10
-62.53794751985547
 20
-149.0362427219402
 30
0.0
 10
-58.92917785336351
 20
-150.541650900791
 30
0.0
 10
-55.02313663702162
 20
-152.1209623497296
 30
0.0
 10
-49.34700184469681
 20
-154.3360405802921
 30
0.0
 10
-41.68017548329426
 20
-157.1573218553155
 30
0.0
 10
-31.81151381356179
 20
-160.4824165315823
 30
0.0
 10
-21.93850410505779
 20
-163.474786484925
 30
0.0
 10
-12.40759807984261
 20
-166.0645515999127
 30
0.0
 10
-3.769063890696311
 20
-168.1775321782293
 30
0.0
 10
4.571611069546677
 20
-170.0002825060808
 30
0.0
 10
12.38768733977306
 20
-171.5177069725351
 30
0.0
 10
19.6636452847304
 20
-172.7641284804072
 30
0.0
 10
25.96878451324289
 20
-173.7096154516459
 30
0.0
 10
31.37851587797467
 20
-174.4236262195581
 30
0.0
 10
35.97717302341789
 20
-174.962895073746
 30
0.0
 10
40.2770271046051
 20
-175.4082191370535
 30
0.0
 10
44.436044779824
 20
-175.7858731604213
 30
0.0
 10
48.83399691559894
 20
-176.1301362633909
 30
0.0
 10
53.21049390437545
 20
-176.4110444841204
 30
0.0
 10
57.36647731188116
 20
-176.6203713870776
 30
0.0
 10
60.82842105100899
 20
-176.7549919185462
 30
0.0
 10
64.01404273274252
 20
-176.8469692252993
 30
0.0
 10
67.31540708487121
 20
-176.9110250536481
 30
0.0
 10
71.11868362329265
 20
-176.9432769478047
 30
0.0
 10
75.15552700220448
 20
-176.9243476364536
 30
0.0
 10
78.97316199034893
 20
-176.8558757444914
 30
0.0
 10
82.26273124620148
 20
-176.7596203579943
 30
0.0
 10
85.42696805246392
 20
-176.6357013261944
 30
0.0
 10
88.92120865062944
 20
-176.4623509492042
 30
0.0
 10
93.09543696241201
 20
-176.2017136235407
 30
0.0
 10
97.434005500712
 20
-175.8638305875551
 30
0.0
 10
101.6181567554205
 20
-175.4689360384189
 30
0.0
 10
105.6735910444811
 20
-175.0213477747841
 30
0.0
 10
109.7743484793413
 20
-174.4976176695818
 30
0.0
 10
113.840940789506
 20
-173.9010640455619
 30
0.0
 10
117.3549932300957
 20
-173.3248529215881
 30
0.0
 10
120.4360442273262
 20
-172.7728841395162
 30
0.0
 10
123.4571397628951
 20
-172.1902110108114
 30
0.0
 10
126.857827446789
 20
-171.4826779242239
 30
0.0
 10
130.7240165622001
 20
-170.6047167739352
 30
0.0
 10
134.6749494822262
 20
-169.6209840570642
 30
0.0
 10
138.3155673685303
 20
-168.636002731134
 30
0.0
 10
141.5269173921389
 20
-167.704358506277
 30
0.0
 10
144.3891105193759
 20
-166.8223997973755
 30
0.0
 10
147.0601289811618
 20
-165.9544903343954
 30
0.0
 10
149.7490171754198
 20
-165.0365298694872
 30
0.0
 10
152.7774143034087
 20
-163.9477621792578
 30
0.0
 10
156.2209081441128
 20
-162.6331885166633
 30
0.0
 10
160.6687587845555
 20
-160.8167903143654
 30
0.0
 10
165.4106533923042
 20
-158.7047685291622
 30
0.0
 10
170.2944467248397
 20
-156.3213288888073
 30
0.0
 10
174.6999535206172
 20
-154.0001103473845
 30
0.0
 10
179.089518723779
 20
-151.505344876261
 30
0.0
 10
183.4752805223906
 20
-148.8144373400197
 30
0.0
 10
187.821559313447
 20
-145.9403465108933
 30
0.0
 10
193.2869323209097
 20
-142.0498652020539
 30
0.0
 10
199.7702925319365
 20
-136.9327366152818
 30
0.0
 10
206.964109306304
 20
-130.4568440800083
 30
0.0
 10
213.870824585689
 20
-123.3891907793398
 30
0.0
 10
219.4939570084678
 20
-116.8279605438999
 30
0.0
 10
224.0517002585987
 20
-110.8957176607827
 30
0.0
 10
227.4836601028431
 20
-106.0445807995795
 30
0.0
 10
230.5121612840615
 20
-101.4008337822581
 30
0.0
 10
232.648798392071
 20
-97.87079434086277
 30
0.0
 10
234.0648030765751
 20
-95.41594405995679
 30
0.0
 10
234.9507256225299
 20
-93.83876237403268
 30
0.0
 10
235.8090869453258
 20
-92.26936816308421
 30
0.0
 10
236.6354921084954
 20
-90.71772043784243
 30
0.0
 10
237.5251706144378
 20
-89.00316334070843
 30
0.0
 10
238.6248720021209
 20
-86.81541378017405
 30
0.0
 10
240.0645498755126
 20
-83.83545010560383
 30
0.0
 10
241.0984802723086
 20
-81.5183115476154
 30
0.0
 10
241.6831225441816
 20
-80.20807136608626
 30
0.0
  0
LWPOLYLINE
  5
CB
330
C4
100
AcDbEntity
  8
0
  6
Continuous
 62
     7
370
    25
100
AcDbPolyline
 90
       95
 70
   128
 43
0.0
 10
-205.0609665441
 20
118.3791762143
 10
-213.3500224242
 20
113.116874783
 10
-220.7815617734
 20
107.4078431352
 10
-227.3299859885
 20
101.2856070516
 10
-232.9696964666
 20
94.7836923129
 10
-237.6769787354
 20
87.9338120577
 10
-241.4406440249
 20
80.7556289802
 10
-244.2546133282
 20
73.2638898893
 10
-246.2458433927
 20
64.6784027028
 10
-247.0726710209
 20
55.753721945
 10
-246.7282250896
 20
46.5335526212
 10
-245.2061267876
 20
37.0714857078
 10
-242.5
 20
27.4211663241
 10
-238.3390797186
 20
17.0412211131
 10
-232.8924701074
 20
6.5807560795
 10
-226.2135503726
 20
-3.8893307807
 10
-218.3553524136
 20
-14.2987104951
 10
-209.3594341463
 20
-24.5958529499
 10
-199.2535255353
 20
-34.7518836063
 10
-188.7326118149
 20
-44.1735916493
 10
-177.2751389347
 20
-53.4196127021
 10
-164.9360326522
 20
-62.4434242208
 10
-151.7835003948
 20
-71.1888824406
 10
-137.885822331
 20
-79.599790903
 10
-122.413505586
 20
-88.0955610197
 10
-106.2959319226
 20
-96.1047592857
 10
-89.6492405717
 20
-103.5803584915
 10
-72.5886726261
 20
-110.475744618
 10
-55.1997973572
 20
-116.7579542327
 10
-37.5324248346
 20
-122.4104750032
 10
-20.6623758983
 20
-127.1492951117
 10
-3.6322347326
 20
-131.3004627246
 10
13.4734507884
 20
-134.841890035
 10
30.5518419843
 20
-137.747768745
 10
47.5
 20
-139.9922701807
 10
62.7090376739
 20
-141.4407646398
 10
77.6555544012
 20
-142.3240857777
 10
92.2697333964
 20
-142.6449990737
 10
106.4817578744
 20
-142.4062700071
 10
120.2260835144
 20
-141.6107349631
 10
133.4655693417
 20
-140.2617017116
 10
146.174661306
 20
-138.3626703197
 10
157.3369302365
 20
-136.141723243
 10
168.0117421872
 20
-133.4644977765
 10
178.1660485654
 20
-130.3383292796
 10
187.7555095953
 20
-126.7744644286
 10
196.7353930106
 20
-122.784285861
 10
205.0609665447
 20
-118.3791762139
 10
213.3500224247
 20
-113.1168747826
 10
220.7815617738
 20
-107.4078431347
 10
227.3299859889
 20
-101.2856070511
 10
232.9696964668
 20
-94.7836923124
 10
237.6769787355
 20
-87.9338120574
 10
241.440644025
 20
-80.75562898
 10
244.2546133283
 20
-73.2638898891
 10
246.2458433928
 20
-64.6784027027
 10
247.0726710209
 20
-55.7537219449
 10
246.7282250896
 20
-46.5335526212
 10
245.2061267876
 20
-37.0714857078
 10
242.5
 20
-27.4211663241
 10
238.3390797186
 20
-17.0412211131
 10
232.8924701074
 20
-6.5807560795
 10
226.2135503726
 20
3.8893307807
 10
218.3553524137
 20
14.298710495
 10
209.3594341464
 20
24.5958529498
 10
199.2535255355
 20
34.7518836062
 10
188.7326118152
 20
44.1735916491
 10
177.275138935
 20
53.4196127018
 10
164.9360326526
 20
62.4434242206
 10
151.7835003952
 20
71.1888824403
 10
137.8858223314
 20
79.5997909027
 10
122.4135055865
 20
88.0955610195
 10
106.2959319231
 20
96.1047592855
 10
89.6492405721
 20
103.5803584914
 10
72.5886726265
 20
110.4757446178
 10
55.1997973575
 20
116.7579542326
 10
37.5324248348
 20
122.4104750031
 10
20.6623758984
 20
127.1492951116
 10
3.6322347326
 20
131.3004627246
 10
-13.4734507884
 20
134.841890035
 10
-30.5518419843
 20
137.747768745
 10
-47.5
 20
139.9922701807
 10
-62.7090376739
 20
141.4407646398
 10
-77.6555544012
 20
142.3240857777
 10
-92.2697333964
 20
142.6449990737
 10
-106.4817578742
 20
142.4062700071
 10
-120.2260835141
 20
141.6107349632
 10
-133.4655693413
 20
140.2617017116
 10
-146.1746613054
 20
138.3626703198
 10
-157.3369302358
 20
136.1417232431
 10
-168.0117421865
 20
133.4644977767
 10
-178.1660485646
 20
130.3383292798
 10
-187.7555095946
 20
126.7744644289
 10
-196.7353930099
 20
122.7842858613
 10
-205.0609665441
 20
118.3791762143
  0
SPLINE
  5
CC
330
C4
100
AcDbEntity
  8
0
  6
Continuous
 62
     7
370
    25
100
AcDbSpline
210
0.0
220
0.0
230
1.0
 70
    11
 71
     3
 72
    51
 73
    47
 74
     0
 42
0.000000001
 43
0.00000001
 40
0.0
 40
0.0
 40
0.0
 40
0.0
 40
0.0310648973638021
 40
0.0623486162817331
 40
0.0775024269656176
 40
0.0936042455768724
 40
0.1078686634006422
 40
0.1247316746622769
 40
0.1403211871224075
 40
0.1560249094152767
 40
0.1871938616271204
 40
0.2185824363675491
 40
0.2498802169133889
 40
0.2812517254276339
 40
0.312618883374355
 40
0.3437853115353245
 40
0.3594426521010968
 40
0.3750977238745066
 40
0.3906281590550712
 40
0.4061989857539554
 40
0.4219001648669791
 40
0.4375005927418684
 40
0.4687508802820736
 40
0.5001000012670569
 40
0.5312406688530128
 40
0.5625124498415466
 40
0.5775775929910223
 40
0.593644012920701
 40
0.60930017066454
 40
0.6249241042360953
 40
0.6404524683242304
 40
0.6560463303685496
 40
0.6873474265488381
 40
0.7186941293266048
 40
0.7499546113113535
 40
0.7813808102042604
 40
0.8126217571176421
 40
0.8439365197792494
 40
0.8594744481028963
 40
0.8750946040212967
 40
0.8929819885268114
 40
0.9063028870347297
 40
0.9218779572115718
 40
0.9375869165253549
 40
0.9687383320091949
 40
1.0
 40
1.0
 40
1.0
 40
1.0
 10
-24.80337647176072
 20
-83.5567687588889
 30
0.0
 10
-23.21268454157722
 20
-82.63845817982138
 30
0.0
 10
-19.67880947890932
 20
-80.97072352012913
 30
0.0
 10
-14.6688953356897
 20
-79.40197100925637
 30
0.0
 10
-10.3899846865834
 20
-78.47318298854353
 30
0.0
 10
-7.181392199279206
 20
-77.97179133469916
 30
0.0
 10
-3.79377894465252
 20
-77.63480475735838
 30
0.0
 10
-0.4117970408781986
 20
-77.49439142873065
 30
0.0
 10
3.066019944229777
 20
-77.55798168848575
 30
0.0
 10
7.521770827045625
 20
-77.90054639464424
 30
0.0
 10
12.93235727752957
 20
-78.81225202526697
 30
0.0
 10
18.91177689411056
 20
-80.61350577409159
 30
0.0
 10
24.20001309606936
 20
-83.08362475096564
 30
0.0
 10
28.54862617294643
 20
-86.1692614425381
 30
0.0
 10
31.84231965205148
 20
-89.71631557565381
 30
0.0
 10
33.62270746128129
 20
-92.9489268303111
 30
0.0
 10
34.39624702257383
 20
-95.62159326737662
 30
0.0
 10
34.64182709797772
 20
-97.65169791427682
 30
0.0
 10
34.54706980308281
 20
-99.68108420700564
 30
0.0
 10
34.11216448939648
 20
-101.6931806545287
 30
0.0
 10
33.33876523505842
 20
-103.6668735825353
 30
0.0
 10
31.8720302873561
 20
-106.2161715660649
 30
0.0
 10
29.25643370938396
 20
-109.2059195050705
 30
0.0
 10
24.97066321469909
 20
-112.3071851485929
 30
0.0
 10
19.65214041874146
 20
-114.7467077369766
 30
0.0
 10
14.64118780810463
 20
-116.1730314984112
 30
0.0
 10
10.37039363009469
 20
-116.9462700943642
 30
0.0
 10
7.072424770283043
 20
-117.3304922592955
 30
0.0
 10
3.672900271878032
 20
-117.513282537049
 30
0.0
 10
0.2850583417145711
 20
-117.4924218680785
 30
0.0
 10
-3.090781495559892
 20
-117.2744446111054
 30
0.0
 10
-7.543225388202705
 20
-116.7302015553121
 30
0.0
 10
-12.95188305299084
 20
-115.590285187555
 30
0.0
 10
-18.93198033400488
 20
-113.5942592483911
 30
0.0
 10
-24.21630052735517
 20
-111.0494208432667
 30
0.0
 10
-28.55671756304724
 20
-108.0388271556952
 30
0.0
 10
-31.8506014388456
 20
-104.6793733864512
 30
0.0
 10
-33.62645632185418
 20
-101.6761331404835
 30
0.0
 10
-34.3972774651582
 20
-99.20428282653101
 30
0.0
 10
-34.65412611670796
 20
-97.2405637874734
 30
0.0
 10
-34.53335044112495
 20
-95.35897892747514
 30
0.0
 10
-34.07209345054424
 20
-93.49418911199352
 30
0.0
 10
-33.33528484861505
 20
-91.74098247461525
 30
0.0
 10
-31.87033717093824
 20
-89.34854828283486
 30
0.0
 10
-29.25623068256267
 20
-86.50253983209606
 30
0.0
 10
-26.40414412969588
 20
-84.48089608173348
 30
0.0
 10
-24.80337647176072
 20
-83.55676875888888
 30
0.0
  0
SPLINE
  5
CD
330
C4
100
AcDbEntity
  8
0
  6
Continuous
 62
     7
370
    25
100
AcDbSpline
210
0.0
220
0.0
230
1.0
 70
     8
 71
     3
 72
    16
 73
    12
 74
     0
 42
0.000000001
 43
0.00000001
 40
0.0
 40
0.0
 40
0.0
 40
0.0
 40
0.1143439588267944
 40
0.232270677355854
 40
0.3425335996759391
 40
0.4559760480554494
 40
0.5665327522117648
 40
0.6802843361995639
 40
0.7910392987083903
 40
0.9050317901176719
 40
1.0
 40
1.0
 40
1.0
 40
1.0
 10
-16.29174023853802
 20
-96.71787773318601
 30
0.0
 10
-17.17908229033786
 20
-97.27582091126729
 30
0.0
 10
-18.98156964106956
 20
-98.40918940076754
 30
0.0
 10
-20.94336507937667
 20
-100.3292831932246
 30
0.0
 10
-22.31937688355799
 20
-102.3821893616342
 30
0.0
 10
-23.03026102399242
 20
-104.4678596784135
 30
0.0
 10
-23.09547786414084
 20
-106.5789944129925
 30
0.0
 10
-22.51176031267923
 20
-108.6347710388941
 30
0.0
 10
-21.26740379749677
 20
-110.6352999336732
 30
0.0
 10
-19.56317786887394
 20
-112.4548689341695
 30
0.0
 10
-18.02492659966347
 20
-113.5166713016336
 30
0.0
 10
-17.32582400054713
 20
-113.9992379730871
 30
0.0
  0
LWPOLYLINE
  5
CE
330
C4
100
AcDbEntity
  8
0
  6
Continuous
 62
     7
370
    25
100
AcDbPolyline
 90
       21
 70
   128
 43
0.0
 10
15.65834911
 20
-115.8111263718
 10
17.3640982858
 20
-114.8590204316
 10
19.6881661263
 20
-112.9727506999
 10
21.3896410189
 20
-110.9310838572
 10
22.5305037445
 20
-108.6723055008
 10
23.0171459802
 20
-106.3602506483
 10
22.856274998
 20
-103.9405094257
 10
22.0608066619
 20
-101.6302878478
 10
20.6069565854
 20
-99.3941824596
 10
18.6174986964
 20
-97.4406352757
 10
16.0334922148
 20
-95.7076463141
 10
13.086851714
 20
-94.3362409504
 10
9.6825893438
 20
-93.2919674692
 10
6.1078352348
 20
-92.6627535372
 10
2.2585198822
 20
-92.4061255912
 10
-1.565673086
 20
-92.5170637368
 10
-5.4562122959
 20
-92.9863109953
 10
-9.0865533585
 20
-93.777472008
 10
-12.5602832448
 20
-94.9256568189
 10
-16.2917402385
 20
-96.7178777332
 10
-16.2917402385
 20
-96.7178777332
  0
LWPOLYLINE
  5
CF
330
C4
100
AcDbEntity
  8
0
  6
Continuous
 62
     7
370
    25
100
AcDbPolyline
 90
       19
 70
   128
 43
0.0
 10
20.4181403414
 20
-112.2362629375
 10
19.8314963022
 20
-111.6278060414
 10
18.2051714851
 20
-110.2463194283
 10
16.2917402385
 20
-108.9933962752
 10
14.1213785162
 20
-107.8887959287
 10
11.7283142189
 20
-106.9499385959
 10
9.1502874002
 20
-106.191630618
 10
6.4279550831
 20
-105.6258309647
 10
3.6042500745
 20
-105.2614626346
 10
0.7237038892
 20
-105.1042719339
 10
-2.1682555389
 20
-105.1567378538
 10
-5.0260202818
 20
-105.4180329755
 10
-7.8045216825
 20
-105.8840365187
 10
-10.459941114
 20
-106.5473993293
 10
-12.9504010257
 20
-107.3976597794
 10
-15.2366253771
 20
-108.4214087538
 10
-17.2825590443
 20
-109.6025011196
 10
-19.0559364313
 20
-110.9223103447
 10
-20.0570092022
 20
-111.8529326556
  0
VIEWPORT
  5
F2
330
C4
100
AcDbEntity
  8
0
100
AcDbViewport
 10
0.0
 20
0.0
 30
0.0
 40
205.6
 41
156.0
 68
     1
 69
     1
 12
0.0
 22
-17.1296344974
 13
0.0
 23
0.0
 14
10.0
 24
10.0
 15
10.0
 25
10.0
 16
0.0
 26
0.0
 36
1.0
 17
0.0
 27
0.0
 37
0.0
 42
50.0
 43
0.0
 44
0.0
 45
382.433885339
 50
0.0
 51
0.0
 72
   100
 90
   557152
  1

281
     0
 71
     1
 74
     0
110
0.0
120
0.0
130
0.0
111
1.0
121
0.0
131
0.0
112
0.0
122
1.0
132
0.0
 79
     0
146
0.0
170
     0
 61
     5
348
2F
292
     1
282
     1
141
0.0
142
0.0
 63
   256
361
F3
  0
ENDBLK
  5
C7
330
C4
100
AcDbEntity
  8
0
100
AcDbBlockEnd
  0
BLOCK
  5
D2
330
D0
100
AcDbEntity
  8
0
100
AcDbBlockBegin
  2
*Paper_Space7
 70
     0
 10
0.0
 20
0.0
 30
0.0
  3
*Paper_Space7
  1

  0
SPLINE
  5
D4
330
D0
100
AcDbEntity
  8
0
  6
Continuous
 62
     7
370
    25
100
AcDbSpline
210
0.0
220
0.0
230
1.0
 70
     8
 71
     3
 72
    75
 73
    71
 74
     0
 42
0.000000001
 43
0.00000001
 40
0.0
 40
0.0
 40
0.0
 40
0.0
 40
0.0117558739159178
 40
0.0214434439669276
 40
0.0290144627180266
 40
0.0347698017743245
 40
0.0402432985908555
 40
0.0507262141066855
 40
0.0608544189310305
 40
0.0767937368661491
 40
0.0943650531313971
 40
0.1137010543565407
 40
0.1317859391560983
 40
0.1513422693277281
 40
0.1719698451462555
 40
0.1927326496780837
 40
0.2135652467908249
 40
0.2344266190644112
 40
0.255267300866687
 40
0.2843086852203133
 40
0.3130691480465377
 40
0.3414190188788776
 40
0.3692323913035557
 40
0.3963935961370479
 40
0.4228639114027881
 40
0.4486059987431034
 40
0.4735781304454239
 40
0.4977105198734303
 40
0.5212681530865212
 40
0.5475682523849031
 40
0.5759448352804417
 40
0.6063127046252443
 40
0.6169676233707864
 40
0.6272227614810845
 40
0.6361205382706523
 40
0.6436554543579296
 40
0.6498342887333963
 40
0.6548129707023183
 40
0.6605143369381793
 40
0.66881119007058
 40
0.6788628779308019
 40
0.6906102674528358
 40
0.7029043077949346
 40
0.7151938329385854
 40
0.7274732394155067
 40
0.7467432839601584
 40
0.7659694732573263
 40
0.7843340029181916
 40
0.7967312582599172
 40
0.808402450896937
 40
0.8193587658914572
 40
0.829467967770932
 40
0.8386515571049269
 40
0.8478672781815142
 40
0.858353223786896
 40
0.8703181450495139
 40
0.8825683882789196
 40
0.8949531669626118
 40
0.9072007413719906
 40
0.9175497584122051
 40
0.9265711568148537
 40
0.9350757658035225
 40
0.9452156020544795
 40
0.9564320156751106
 40
0.967688935030599
 40
0.9850996946004957
 40
0.993609804230027
 40
0.9973613177625068
 40
0.999113133636027
 40
1.0
 40
1.0
 40
1.0
 40
1.0
 10
214.9463682549996
 20
-87.24331850851254
 30
0.0
 10
213.6115605725458
 20
-87.89996228317493
 30
0.0
 10
211.1767884790335
 20
-89.09772130040446
 30
0.0
 10
207.6048298258285
 20
-90.65716093319782
 30
0.0
 10
204.6430915693205
 20
-91.86705702392727
 30
0.0
 10
202.0996727853775
 20
-92.84742950663622
 30
0.0
 10
199.0865442616238
 20
-93.95465107775271
 30
0.0
 10
195.3364911086376
 20
-95.24213609213416
 30
0.0
 10
189.8553077918656
 20
-96.965363523683
 30
0.0
 10
183.0352642349565
 20
-98.88116412358383
 30
0.0
 10
174.4535887039264
 20
-100.9631580629767
 30
0.0
 10
165.2174593262968
 20
-102.8609951711811
 30
0.0
 10
155.4006663608973
 20
-104.5520155747111
 30
0.0
 10
145.15942826776
 20
-106.0094906337655
 30
0.0
 10
134.2776227276332
 20
-107.2426402432035
 30
0.0
 10
123.038296168291
 20
-108.2086473092727
 30
0.0
 10
111.6619874650185
 20
-108.895817024422
 30
0.0
 10
100.2092637609473
 20
-109.3115622259744
 30
0.0
 10
87.21613284308891
 20
-109.49369416897
 30
0.0
 10
72.75715684486671
 20
-109.3355577929894
 30
0.0
 10
56.95460177608458
 20
-108.7371712356791
 30
0.0
 10
41.45606756627085
 20
-107.7575011387077
 30
0.0
 10
26.36064723719081
 20
-106.439260330873
 30
0.0
 10
11.72882048008053
 20
-104.825873184561
 30
0.0
 10
-2.391920273376619
 20
-102.9595480766541
 30
0.0
 10
-15.97559151068757
 20
-100.8791766091648
 30
0.0
 10
-28.99547221252464
 20
-98.62262536647927
 30
0.0
 10
-41.47980970684173
 20
-96.21680492719497
 30
0.0
 10
-54.03200412827212
 20
-93.56031059734022
 30
0.0
 10
-67.06614949511186
 20
-90.53753882348875
 30
0.0
 10
-80.94197972693817
 20
-87.00371769930042
 30
0.0
 10
-91.9913087039012
 20
-83.90697684173232
 30
0.0
 10
-100.0046003190114
 20
-81.51475699960588
 30
0.0
 10
-104.6197564753335
 20
-80.09318298365932
 30
0.0
 10
-108.7214336942188
 20
-78.79352780574217
 30
0.0
 10
-112.1745273854262
 20
-77.67269863618574
 30
0.0
 10
-115.0142716102194
 20
-76.73234316204602
 30
0.0
 10
-117.569463628612
 20
-75.87234864655895
 30
0.0
 10
-120.4273914917744
 20
-74.8954202769182
 30
0.0
 10
-124.0209933540308
 20
-73.6419261660092
 30
0.0
 10
-128.4742059910382
 20
-72.04702543532092
 30
0.0
 10
-133.460643550784
 20
-70.20432994964311
 30
0.0
 10
-138.7026636367893
 20
-68.19899766340379
 30
0.0
 10
-143.9436491080595
 20
-66.12150327098958
 30
0.0
 10
-150.0807049027458
 20
-63.60010822025673
 30
0.0
 10
-157.04118191621
 20
-60.604686972322
 30
0.0
 10
-164.6236346320532
 20
-57.14792957965278
 30
0.0
 10
-171.0916732076676
 20
-54.02435329339146
 30
0.0
 10
-176.4312831833033
 20
-51.31801084536018
 30
0.0
 10
-180.7363591852111
 20
-49.05014163844603
 30
0.0
 10
-184.6649796726278
 20
-46.90246217850205
 30
0.0
 10
-188.2083764784719
 20
-44.89593343218043
 30
0.0
 10
-191.4686704626626
 20
-42.98787200415646
 30
0.0
 10
-194.6846055178689
 20
-41.04458492375127
 30
0.0
 10
-198.1091402171976
 20
-38.90179764778205
 30
0.0
 10
-201.7463197881371
 20
-36.53080677588567
 30
0.0
 10
-205.4351082483518
 20
-34.01318582923584
 30
0.0
 10
-208.9978004731938
 20
-31.45998984626301
 30
0.0
 10
-212.225879559648
 20
-29.02412580098774
 30
0.0
 10
-215.0039793433136
 20
-26.81989229415293
 30
0.0
 10
-217.3363412259386
 20
-24.88298234590994
 30
0.0
 10
-219.5228240694377
 20
-22.98685993666245
 30
0.0
 10
-221.7419877348975
 20
-20.96664103532294
 30
0.0
 10
-223.9987161529482
 20
-18.78665374552894
 30
0.0
 10
-226.5203745403281
 20
-16.18009994999618
 30
0.0
 10
-228.5525248743099
 20
-13.88087021856503
 30
0.0
 10
-229.975662114385
 20
-12.10148926473754
 30
0.0
 10
-230.4170280415634
 20
-11.53684811667615
 30
0.0
 10
-230.6542919238821
 20
-11.22410088676451
 30
0.0
 10
-230.6536282331594
 20
-11.23345368875364
 30
0.0
 10
-230.6534051653835
 20
-11.23659718416025
 30
0.0
  0
SPLINE
  5
D5
330
D0
100
AcDbEntity
  8
0
  6
Continuous
 62
     7
370
    25
100
AcDbSpline
210
0.0
220
0.0
230
1.0
 70
     8
 71
     3
 72
    20
 73
    16
 74
     0
 42
0.000000001
 43
0.00000001
 40
0.0
 40
0.0
 40
0.0
 40
0.0
 40
0.0157090592649284
 40
0.0936381346968793
 40
0.1670647466342134
 40
0.2258044577301645
 40
0.305548218298801
 40
0.3956819185058273
 40
0.4516605488371429
 40
0.5105382352085737
 40
0.572365290921143
 40
0.6406539720454699
 40
0.733138563052624
 40
0.852706376276967
 40
1.0
 40
1.0
 40
1.0
 40
1.0
 10
231.6753612365919
 20
-75.69016528696078
 30
0.0
 10
231.6828093333605
 20
-75.67652554203217
 30
0.0
 10
231.7272057467097
 20
-75.5952221201456
 30
0.0
 10
231.2391157982183
 20
-76.13202971680022
 30
0.0
 10
230.5951923468479
 20
-76.75958353426296
 30
0.0
 10
229.8070656503907
 20
-77.4995819279328
 30
0.0
 10
228.8041026599116
 20
-78.38276645508469
 30
0.0
 10
227.7206599110613
 20
-79.27125869218062
 30
0.0
 10
226.6457810491795
 20
-80.10238429316367
 30
0.0
 10
225.6517155408231
 20
-80.83716486107993
 30
0.0
 10
224.519701360517
 20
-81.63571801726579
 30
0.0
 10
223.0977692707005
 20
-82.59151619114823
 30
0.0
 10
221.1209828683146
 20
-83.84104502773755
 30
0.0
 10
218.4028742580008
 20
-85.44132274331447
 30
0.0
 10
216.1756694104131
 20
-86.60244142793326
 30
0.0
 10
214.9463682549996
 20
-87.24331850851254
 30
0.0
  0
SPLINE
  5
D6
330
D0
100
AcDbEntity
  8
0
  6
Continuous
 62
     7
370
    25
100
AcDbSpline
210
0.0
220
0.0
230
1.0
 70
     8
 71
     3
 72
   129
 73
   125
 74
     0
 42
0.000000001
 43
0.00000001
 40
0.0
 40
0.0
 40
0.0
 40
0.0
 40
0.0085792674060581
 40
0.0154522356910589
 40
0.0206069759934126
 40
0.0246398908796587
 40
0.0281277255877071
 40
0.0320600981770395
 40
0.0365400466670771
 40
0.0417778472883193
 40
0.0478902512178516
 40
0.0542376565190019
 40
0.0595478496483073
 40
0.0638254692117159
 40
0.0682047395076833
 40
0.0733813662194772
 40
0.0800287358226051
 40
0.0873136223315892
 40
0.0933230178377429
 40
0.0984509053818592
 40
0.1032172631543559
 40
0.1088107243209768
 40
0.1148470574333211
 40
0.1223563711637116
 40
0.1305850460226869
 40
0.1418982280517879
 40
0.1511070123678744
 40
0.1598097158278348
 40
0.1685477022913716
 40
0.1774872294040964
 40
0.1867605547090211
 40
0.1965722127478438
 40
0.2149231919362644
 40
0.2321269804865445
 40
0.2501375638567879
 40
0.2612819149394398
 40
0.2718154648707339
 40
0.2822889896002895
 40
0.2938076593963922
 40
0.3036616563369969
 40
0.3135662034987943
 40
0.3222978150300084
 40
0.3299278294483845
 40
0.3372221151164078
 40
0.3459965105256729
 40
0.356166619681433
 40
0.364515308501024
 40
0.3718758975271734
 40
0.3817318058100371
 40
0.3893267410350867
 40
0.3946408752583332
 40
0.4010984105532533
 40
0.4079622282341719
 40
0.4145772755803676
 40
0.4209506741525147
 40
0.4270896869464854
 40
0.4358594175353169
 40
0.4432917637950999
 40
0.4496802024714279
 40
0.4585639335008808
 40
0.4682286686174151
 40
0.4796264298217196
 40
0.4929066327042095
 40
0.5052868456462177
 40
0.5189160543590637
 40
0.5324375679659583
 40
0.5448701956802956
 40
0.5562556886790564
 40
0.5666305275724484
 40
0.5760231910721718
 40
0.5877759672861572
 40
0.598942893780971
 40
0.6100029973584231
 40
0.6225876299139883
 40
0.6282716061239482
 40
0.6333952169879903
 40
0.639075228183577
 40
0.6460105335715274
 40
0.6531311520564852
 40
0.6591808982058514
 40
0.6629707957855007
 40
0.6676092001021234
 40
0.673175814560062
 40
0.6794695678469564
 40
0.6848280875780108
 40
0.688885038193394
 40
0.6924436039552296
 40
0.7043769737393512
 40
0.7167544775466488
 40
0.7303400437525607
 40
0.7440103065362635
 40
0.7525305854019178
 40
0.760999223962573
 40
0.7698067215143692
 40
0.7796550994704802
 40
0.7899868390641801
 40
0.7990084473136035
 40
0.8069471467857735
 40
0.8211664648958785
 40
0.8359459930295938
 40
0.8514056518241331
 40
0.8677084717316214
 40
0.8772508130226041
 40
0.8869257368736716
 40
0.8958251709855644
 40
0.9036253034687008
 40
0.9093239582823872
 40
0.915088536610126
 40
0.9213268187808994
 40
0.9288589823868514
 40
0.9357601004610031
 40
0.9418056751049536
 40
0.9470425373091529
 40
0.9516430232654663
 40
0.9563043892257886
 40
0.9618081560179806
 40
0.9659185552617638
 40
0.9703179148255793
 40
0.9740190059721998
 40
0.976964751628219
 40
0.9801720862458172
 40
0.9850749702829679
 40
0.9916839667165713
 40
1.0
 40
1.0
 40
1.0
 40
1.0
 10
-268.4930605963091
 20
18.01692679899653
 30
0.0
 10
-267.78233973872
 20
16.28407039366261
 30
0.0
 10
-266.5022506958883
 20
13.16299905660731
 30
0.0
 10
-264.6597624304813
 20
9.062064794159497
 30
0.0
 10
-263.1686419407723
 20
5.894033930664011
 30
0.0
 10
-261.9549449540297
 20
3.413663196969674
 30
0.0
 10
-260.8323259493175
 20
1.186789077750827
 30
0.0
 10
-259.6398089057048
 20
-1.111113394412437
 30
0.0
 10
-258.238921225259
 20
-3.72559733670616
 30
0.0
 10
-256.5698949677156
 20
-6.730484966016498
 30
0.0
 10
-254.6477277627335
 20
-10.05290512098535
 30
0.0
 10
-252.656903501907
 20
-13.34810818273123
 30
0.0
 10
-250.8214790249845
 20
-16.26907427042446
 30
0.0
 10
-249.1788305364991
 20
-18.80236161646588
 30
0.0
 10
-247.5222128517138
 20
-21.2872451474579
 30
0.0
 10
-245.5440283295012
 20
-24.1667330960365
 30
0.0
 10
-243.1576011186689
 20
-27.51674558017077
 30
0.0
 10
-240.600151879804
 20
-30.96055859721899
 30
0.0
 10
-238.1824474309636
 20
-34.09276034410555
 30
0.0
 10
-236.0580248275334
 20
-36.75926568215075
 30
0.0
 10
-233.9573020788047
 20
-39.32422757974259
 30
0.0
 10
-231.6996359646194
 20
-42.00351375863195
 30
0.0
 10
-229.0208652741706
 20
-45.08445157503722
 30
0.0
 10
-225.9169981333128
 20
-48.52887392007825
 30
0.0
 10
-221.9799562228262
 20
-52.72393274074943
 30
0.0
 10
-217.6967841625201
 20
-57.06826385471873
 30
0.0
 10
-213.2433108933113
 20
-61.36406762947375
 30
0.0
 10
-209.1091053155741
 20
-65.18455817569469
 30
0.0
 10
-204.9501762064234
 20
-68.87380735796333
 30
0.0
 10
-200.6381254999216
 20
-72.54707495170466
 30
0.0
 10
-196.0883897908681
 20
-76.2682177229585
 30
0.0
 10
-189.9246067104947
 20
-81.10410367351402
 30
0.0
 10
-182.2939250876034
 20
-86.74062494799539
 30
0.0
 10
-173.1143960149658
 20
-93.04808602031447
 30
0.0
 10
-164.8132145264034
 20
-98.36877485133583
 30
0.0
 10
-157.5618018809994
 20
-102.7888101305422
 30
0.0
 10
-151.6326307253171
 20
-106.2625700407932
 30
0.0
 10
-145.5766798754576
 20
-109.6758067993116
 30
0.0
 10
-139.5910711705374
 20
-112.9119910234753
 30
0.0
 10
-133.6615588170112
 20
-115.9881386279668
 30
0.0
 10
-128.2201570326133
 20
-118.7029524394747
 30
0.0
 10
-123.1669910034275
 20
-121.1309270077909
 30
0.0
 10
-118.5894868947411
 20
-123.2573781350622
 30
0.0
 10
-113.9800791576503
 20
-125.3324931244308
 30
0.0
 10
-108.8580848911126
 20
-127.5604063589131
 30
0.0
 10
-103.4863794293634
 20
-129.8020963978322
 30
0.0
 10
-98.36644358894092
 20
-131.8515513667099
 30
0.0
 10
-93.29214491035934
 20
-133.8114347724575
 30
0.0
 10
-88.26344865070823
 20
-135.6756377178198
 30
0.0
 10
-83.73753346412566
 20
-137.2844892149678
 30
0.0
 10
-79.8904785860868
 20
-138.6100294343704
 30
0.0
 10
-76.14036072672195
 20
-139.8646697583323
 30
0.0
 10
-72.10542806350925
 20
-141.1690681028003
 30
0.0
 10
-68.07072962841855
 20
-142.4276560868176
 30
0.0
 10
-64.16766362189252
 20
-143.6027621356161
 30
0.0
 10
-59.81162202181402
 20
-144.8688301791873
 30
0.0
 10
-55.21757979363056
 20
-146.1472461922936
 30
0.0
 10
-50.55073886738587
 20
-147.3831732165769
 30
0.0
 10
-45.85949970098841
 20
-148.5725301539277
 30
0.0
 10
-40.69996580575302
 20
-149.8170828134431
 30
0.0
 10
-34.48329265077745
 20
-151.224634541365
 30
0.0
 10
-27.37392641074792
 20
-152.7161576839692
 30
0.0
 10
-19.67164221847617
 20
-154.1839546455872
 30
0.0
 10
-11.45301411926
 20
-155.5859205945826
 30
0.0
 10
-3.119708527057237
 20
-156.8382544335451
 30
0.0
 10
5.294112402374513
 20
-157.9235568703634
 30
0.0
 10
13.28174343359925
 20
-158.7900044299296
 30
0.0
 10
20.62887621223592
 20
-159.4476869459843
 30
0.0
 10
27.34111993244999
 20
-159.9316364446721
 30
0.0
 10
34.13918175304963
 20
-160.3140136663714
 30
0.0
 10
41.10196460891019
 20
-160.5878530163409
 30
0.0
 10
48.41951463331499
 20
-160.7411410325181
 30
0.0
 10
55.89058418413848
 20
-160.7636499005508
 30
0.0
 10
62.18574700633309
 20
-160.6612700197529
 30
0.0
 10
67.2090042754386
 20
-160.5030908881998
 30
0.0
 10
70.7445489813385
 20
-160.3595384305046
 30
0.0
 10
74.53868525515871
 20
-160.170864690987
 30
0.0
 10
78.76097974890351
 20
-159.9159373360863
 30
0.0
 10
83.06650933472956
 20
-159.6046209705253
 30
0.0
 10
86.69625983979198
 20
-159.3013205500838
 30
0.0
 10
89.78518149553126
 20
-159.0171563997672
 30
0.0
 10
92.76305797421766
 20
-158.721660981878
 30
0.0
 10
96.27236719918811
 20
-158.3425739288094
 30
0.0
 10
99.93605714890904
 20
-157.9091065411579
 30
0.0
 10
103.2817719049459
 20
-157.4790987855103
 30
0.0
 10
106.0448704619169
 20
-157.1009278622181
 30
0.0
 10
110.1965785577691
 20
-156.5045223078238
 30
0.0
 10
116.0835746394501
 20
-155.5772349189575
 30
0.0
 10
124.0535089092623
 20
-154.1457633935254
 30
0.0
 10
132.3392877514988
 20
-152.4574720524708
 30
0.0
 10
139.765070979128
 20
-150.7517449128075
 30
0.0
 10
146.092578656429
 20
-149.1617317766824
 30
0.0
 10
151.3729092717385
 20
-147.7451596219672
 30
0.0
 10
157.051923206554
 20
-146.1283380447387
 30
0.0
 10
163.1266024827527
 20
-144.2401273888034
 30
0.0
 10
169.1785292266322
 20
-142.1681503682408
 30
0.0
 10
174.7794809943401
 20
-140.0713680029612
 30
0.0
 10
181.1147418742591
 20
-137.509553202345
 30
0.0
 10
188.5097061925191
 20
-134.2114872371461
 30
0.0
 10
197.2068669615995
 20
-129.8105451417965
 30
0.0
 10
206.0498933969476
 20
-124.7177066427188
 30
0.0
 10
213.6132977571933
 20
-119.7376660502766
 30
0.0
 10
219.8854520626175
 20
-115.1351869616199
 30
0.0
 10
224.7041873972354
 20
-111.3048355903119
 30
0.0
 10
229.0827983591201
 20
-107.5441002082229
 30
0.0
 10
232.686451604747
 20
-104.2246851839253
 30
0.0
 10
235.7018289889326
 20
-101.2847205016631
 30
0.0
 10
238.4058032193387
 20
-98.51775742415653
 30
0.0
 10
241.3116316652551
 20
-95.3893749665116
 30
0.0
 10
244.2882594086505
 20
-91.99145420948588
 30
0.0
 10
247.1337489085336
 20
-88.53554368262475
 30
0.0
 10
249.5749349509336
 20
-85.39898170479641
 30
0.0
 10
251.641246488966
 20
-82.60873859304087
 30
0.0
 10
253.4737263167255
 20
-80.02301675769392
 30
0.0
 10
255.2879137481678
 20
-77.35332834416705
 30
0.0
 10
256.9856544618847
 20
-74.73546381801069
 30
0.0
 10
258.5996050126457
 20
-72.13250155688532
 30
0.0
 10
259.9654065635207
 20
-69.83885464448721
 30
0.0
 10
261.1655991549947
 20
-67.74288430435294
 30
0.0
 10
262.2100180740339
 20
-65.85827653582366
 30
0.0
 10
263.3540003315908
 20
-63.7302038643752
 30
0.0
 10
264.8274277653067
 20
-60.87057950035253
 30
0.0
 10
266.7287773935332
 20
-56.97366548855241
 30
0.0
 10
268.0412642295424
 20
-53.98289687281009
 30
0.0
 10
268.7725648982345
 20
-52.31647932972379
 30
0.0
  0
LWPOLYLINE
  5
D7
330
D0
100
AcDbEntity
  8
0
  6
Continuous
 62
     7
370
    25
100
AcDbPolyline
 90
       95
 70
   128
 43
0.0
 10
-256.4812552865
 20
69.7061094583
 10
-261.7079611243
 20
63.9597188842
 10
-265.8868378793
 20
57.9630059046
 10
-269.0105828935
 20
51.7484409003
 10
-271.0718935092
 20
45.3484942523
 10
-272.0643396772
 20
38.793804684
 10
-271.987292452
 20
32.1028340583
 10
-270.8424894035
 20
25.2890767825
 10
-268.352030195
 20
17.6682132847
 10
-264.5755708946
 20
9.9353737783
 10
-259.5289090268
 20
2.1288560285
 10
-253.2333707099
 20
-5.7046906729
 10
-245.7103123412
 20
-13.5185712944
 10
-236.4240513679
 20
-21.7330404303
 10
-225.8682678522
 20
-29.8205507393
 10
-214.1302349145
 20
-37.7287920275
 10
-201.2966027185
 20
-45.4058862796
 10
-187.4334407867
 20
-52.8142333772
 10
-172.582015739
 20
-59.9334403092
 10
-157.7098254079
 20
-66.3636044881
 10
-142.0327556253
 20
-72.5015418757
 10
-125.6270851333
 20
-78.3159542524
 10
-108.5867045228
 20
-83.7693631686
 10
-91.0056008408
 20
-88.824256327
 10
-71.8766962063
 20
-93.7119338488
 10
-52.3802840032
 20
-98.0867138344
 10
-32.6513834124
 20
-101.9261802603
 10
-12.8239441374
 20
-105.2081326578
 10
7.003416477
 20
-107.9174918449
 10
26.7746621235
 20
-110.0477609073
 10
45.3166561833
 20
-111.5205227996
 10
63.7109215875
 20
-112.4680375916
 10
81.8653814291
 20
-112.8843406821
 10
99.6685804796
 20
-112.7630788313
 10
117.0089573794
 20
-112.0978966707
 10
132.28052653
 20
-111.0187996577
 10
147.012111881
 20
-109.4979077137
 10
161.1384267483
 20
-107.5481991954
 10
174.5941844479
 20
-105.1826524594
 10
187.3182164096
 20
-102.4136563338
 10
199.2767312831
 20
-99.2496804592
 10
210.4471060425
 20
-95.6975956746
 10
219.9749635259
 20
-92.1064392096
 10
228.8036545742
 20
-88.2005249969
 10
236.9053583764
 20
-83.9911330691
 10
244.2434679957
 20
-79.4945950337
 10
250.7810710825
 20
-74.7274180952
 10
256.4812552869
 20
-69.7061094579
 10
261.7079611246
 20
-63.9597188838
 10
265.8868378795
 20
-57.9630059041
 10
269.0105828937
 20
-51.7484408999
 10
271.0718935092
 20
-45.3484942519
 10
272.0643396772
 20
-38.7938046837
 10
271.987292452
 20
-32.102834058
 10
270.8424894035
 20
-25.2890767823
 10
268.352030195
 20
-17.6682132846
 10
264.5755708946
 20
-9.9353737783
 10
259.5289090268
 20
-2.1288560285
 10
253.2333707099
 20
5.7046906729
 10
245.7103123412
 20
13.5185712944
 10
236.4240513679
 20
21.7330404303
 10
225.8682678522
 20
29.8205507393
 10
214.1302349145
 20
37.7287920275
 10
201.2966027186
 20
45.4058862796
 10
187.4334407869
 20
52.8142333772
 10
172.5820157393
 20
59.9334403091
 10
157.7098254083
 20
66.3636044879
 10
142.0327556257
 20
72.5015418755
 10
125.6270851338
 20
78.3159542522
 10
108.5867045233
 20
83.7693631684
 10
91.0056008414
 20
88.8242563268
 10
71.8766962068
 20
93.7119338487
 10
52.3802840038
 20
98.0867138343
 10
32.6513834129
 20
101.9261802602
 10
12.8239441378
 20
105.2081326578
 10
-7.0034164767
 20
107.9174918448
 10
-26.7746621233
 20
110.0477609073
 10
-45.3166561832
 20
111.5205227996
 10
-63.7109215875
 20
112.4680375916
 10
-81.8653814291
 20
112.8843406821
 10
-99.6685804796
 20
112.7630788313
 10
-117.0089573794
 20
112.0978966707
 10
-132.28052653
 20
111.0187996577
 10
-147.012111881
 20
109.4979077137
 10
-161.1384267482
 20
107.5481991954
 10
-174.5941844478
 20
105.1826524595
 10
-187.3182164094
 20
102.4136563338
 10
-199.2767312827
 20
99.2496804593
 10
-210.447106042
 20
95.6975956748
 10
-219.9749635253
 20
92.1064392098
 10
-228.8036545736
 20
88.2005249972
 10
-236.9053583758
 20
83.9911330694
 10
-244.2434679952
 20
79.4945950341
 10
-250.781071082
 20
74.7274180955
 10
-256.4812552865
 20
69.7061094583
  0
SPLINE
  5
D8
330
D0
100
AcDbEntity
  8
0
  6
Continuous
 62
     7
370
    25
100
AcDbSpline
210
0.0
220
0.0
230
1.0
 70
     8
 71
     3
 72
    26
 73
    22
 74
     0
 42
0.000000001
 43
0.00000001
 40
0.0
 40
0.0
 40
0.0
 40
0.0
 40
0.0336612927579866
 40
0.0674800465049475
 40
0.1015797174418625
 40
0.1354288239434872
 40
0.2031478964013835
 40
0.270588366611242
 40
0.3383900409201493
 40
0.406005902337119
 40
0.4740981983276966
 40
0.5419935314034775
 40
0.6100488050528257
 40
0.6780946408690125
 40
0.7232519268694012
 40
0.7683528724534868
 40
0.8136668369095182
 40
0.8810505613800603
 40
0.9151116598659382
 40
0.9489541952859492
 40
1.0
 40
1.0
 40
1.0
 40
1.0
 10
-31.02297448428139
 20
-94.31380681949167
 30
0.0
 10
-30.46850688267965
 20
-93.80916166079474
 30
0.0
 10
-29.35697798773858
 20
-92.79751071137348
 30
0.0
 10
-27.30852290415804
 20
-91.37852808399991
 30
0.0
 10
-25.01577016206037
 20
-90.05084192754988
 30
0.0
 10
-21.63807881117334
 20
-88.43190586063697
 30
0.0
 10
-16.89804106611201
 20
-86.71825270042793
 30
0.0
 10
-10.57372385846422
 20
-85.26195799757058
 30
0.0
 10
-3.876764664060592
 20
-84.47796349102002
 30
0.0
 10
2.944332472079623
 20
-84.39660153187387
 30
0.0
 10
9.62853719421247
 20
-85.00320470000882
 30
0.0
 10
15.96342988786408
 20
-86.29702859270772
 30
0.0
 10
21.6777281519322
 20
-88.27224620203236
 30
0.0
 10
26.05064098289196
 20
-90.5349609518649
 30
0.0
 10
29.24617226395504
 20
-92.80987581570032
 30
0.0
 10
31.50192378983679
 20
-94.936661407714
 30
0.0
 10
33.50126185418205
 20
-97.5744874623782
 30
0.0
 10
34.59063157012749
 20
-100.166033466122
 30
0.0
 10
34.89127083327798
 20
-102.5750934560717
 30
0.0
 10
34.82347551614303
 20
-104.6962935126992
 30
0.0
 10
34.20814106538501
 20
-106.1554848358055
 30
0.0
 10
33.83812273121077
 20
-107.0329386204134
 30
0.0
  0
SPLINE
  5
D9
330
D0
100
AcDbEntity
  8
0
  6
Continuous
 62
     7
370
    25
100
AcDbSpline
210
0.0
220
0.0
230
1.0
 70
     8
 71
     3
 72
    10
 73
     6
 74
     0
 42
0.000000001
 43
0.00000001
 40
0.0
 40
0.0
 40
0.0
 40
0.0
 40
0.0483203620262265
 40
0.5249439528502703
 40
0.9999999999999999
 40
0.9999999999999999
 40
0.9999999999999999
 40
0.9999999999999999
 10
-33.60312193101328
 20
-97.69497866848886
 30
0.0
 10
-33.58344059989755
 20
-97.63813750172991
 30
0.0
 10
-33.36962606457509
 20
-97.02062501813445
 30
0.0
 10
-32.4743942935173
 20
-95.88356463163166
 30
0.0
 10
-31.50624953271529
 20
-94.83648452987156
 30
0.0
 10
-31.0229744842814
 20
-94.31380681949169
 30
0.0
  0
SPLINE
  5
DA
330
D0
100
AcDbEntity
  8
0
  6
Continuous
 62
     7
370
    25
100
AcDbSpline
210
0.0
220
0.0
230
1.0
 70
     8
 71
     3
 72
    18
 73
    14
 74
     0
 42
0.000000001
 43
0.00000001
 40
0.0
 40
0.0
 40
0.0
 40
0.0
 40
0.0869809579907217
 40
0.1869415857721267
 40
0.2840139015068627
 40
0.3839288512872741
 40
0.4805969639018684
 40
0.5800694815417846
 40
0.676714877314452
 40
0.7761363745760717
 40
0.8732555572063307
 40
0.9731895784799673
 40
0.9999999999999999
 40
0.9999999999999999
 40
0.9999999999999999
 40
0.9999999999999999
 10
20.78361227774571
 20
-105.769349756744
 30
0.0
 10
20.25921163418018
 20
-105.1971166083876
 30
0.0
 10
19.13215704484671
 20
-103.9672592389558
 30
0.0
 10
16.74034008495116
 20
-102.3469776450557
 30
0.0
 10
13.81582203191137
 20
-100.9360254369692
 30
0.0
 10
10.51754618857975
 20
-99.86995118800563
 30
0.0
 10
6.8994690004588
 20
-99.13124651141311
 30
0.0
 10
3.125668415895776
 20
-98.77906790509333
 30
0.0
 10
-0.76540750192031
 20
-98.8180790948827
 30
0.0
 10
-4.611797081772623
 20
-99.2123163878158
 30
0.0
 10
-8.34160364284426
 20
-99.95026903986434
 30
0.0
 10
-11.06121895156883
 20
-100.6688899739664
 30
0.0
 10
-12.39999059151258
 20
-101.2205133343089
 30
0.0
 10
-12.68318274727746
 20
-101.3371989615844
 30
0.0
  0
VIEWPORT
  5
F4
330
D0
100
AcDbEntity
  8
0
100
AcDbViewport
 10
0.0
 20
0.0
 30
0.0
 40
205.6
 41
156.0
 68
     1
 69
     1
 12
0.0
 22
-17.1296344974
 13
0.0
 23
0.0
 14
10.0
 24
10.0
 15
10.0
 25
10.0
 16
0.0
 26
0.0
 36
1.0
 17
0.0
 27
0.0
 37
0.0
 42
50.0
 43
0.0
 44
0.0
 45
382.433885339
 50
0.0
 51
0.0
 72
   100
 90
   557152
  1

281
     0
 71
     1
 74
     0
110
0.0
120
0.0
130
0.0
111
1.0
121
0.0
131
0.0
112
0.0
122
1.0
132
0.0
 79
     0
146
0.0
170
     0
 61
     5
348
2F
292
     1
282
     1
141
0.0
142
0.0
 63
   256
361
F5
  0
ENDBLK
  5
D3
330
D0
100
AcDbEntity
  8
0
100
AcDbBlockEnd
  0
BLOCK
  5
DD
330
DB
100
AcDbEntity
  8
0
100
AcDbBlockBegin
  2
*Paper_Space8
 70
     0
 10
0.0
 20
0.0
 30
0.0
  3
*Paper_Space8
  1

  0
SPLINE
  5
DF
330
DB
100
AcDbEntity
  8
0
  6
Continuous
 62
     7
370
    25
100
AcDbSpline
210
0.0
220
0.0
230
1.0
 70
     8
 71
     3
 72
    78
 73
    74
 74
     0
 42
0.000000001
 43
0.00000001
 40
0.0
 40
0.0
 40
0.0
 40
0.0
 40
0.0124715216515668
 40
0.0229312565872145
 40
0.0313261376141667
 40
0.037777597824473
 40
0.0438334966276757
 40
0.0619728958214319
 40
0.0789177853109333
 40
0.0940485602560095
 40
0.1093240857780454
 40
0.1252633711645267
 40
0.1475767881956827
 40
0.1710504070237321
 40
0.1956775777084281
 40
0.2214762801946093
 40
0.2484391723449916
 40
0.2763991972210997
 40
0.3052159868235668
 40
0.3348186610610386
 40
0.3651912260291954
 40
0.3963450806861559
 40
0.4228757530072113
 40
0.4486975404263231
 40
0.4731189605963815
 40
0.4960455664017694
 40
0.5174061602726112
 40
0.5371496926456195
 40
0.5509219381015363
 40
0.5641658632773435
 40
0.5786188235105035
 40
0.5944564169560771
 40
0.6116520956536844
 40
0.6236301075774656
 40
0.636162154514551
 40
0.649232996843943
 40
0.6622433501428548
 40
0.6733760087273759
 40
0.6825273253929935
 40
0.6875776263735125
 40
0.6917522394513882
 40
0.6950567977612984
 40
0.6976127669994446
 40
0.7009918943643872
 40
0.7055855068238689
 40
0.7114327741784666
 40
0.7185159708291744
 40
0.7261355894264444
 40
0.753782704707569
 40
0.7820497770376418
 40
0.7981891945930004
 40
0.8138433709766809
 40
0.8290055588502417
 40
0.84354636816397
 40
0.8567870676133603
 40
0.8662278290562235
 40
0.8755846060763625
 40
0.8859659648274495
 40
0.8973160144077049
 40
0.9095026439153404
 40
0.9176635878371769
 40
0.9260113477411931
 40
0.9333895426148023
 40
0.9395250172665233
 40
0.9445373820193645
 40
0.9504326588309184
 40
0.9581372911988185
 40
0.9663833139794987
 40
0.9725908088149321
 40
0.9784288079557102
 40
0.986887650674677
 40
0.9956562381209991
 40
1.0
 40
1.0
 40
1.0
 40
1.0
 10
238.3689574158508
 20
-47.60593030962237
 30
0.0
 10
237.1826998643352
 20
-48.1035215613831
 30
0.0
 10
235.00154049563
 20
-49.01843739831669
 30
0.0
 10
231.5820278377369
 20
-50.27555223286897
 30
0.0
 10
228.6023128887985
 20
-51.29376346383192
 30
0.0
 10
225.9062204231536
 20
-52.15729620752831
 30
0.0
 10
221.7790159020009
 20
-53.41017240188872
 30
0.0
 10
215.8253856544429
 20
-55.04314446510234
 30
0.0
 10
207.9892423960664
 20
-56.90553620579734
 30
0.0
 10
200.1535842460587
 20
-58.54414620750376
 30
0.0
 10
192.1618162528922
 20
-60.02534587847083
 30
0.0
 10
182.614643643602
 20
-61.58899780426653
 30
0.0
 10
171.2217069503632
 20
-63.18801593999224
 30
0.0
 10
157.8686216875963
 20
-64.73342615935951
 30
0.0
 10
143.5487530531229
 20
-66.06275662051225
 30
0.0
 10
128.2987386634253
 20
-67.14609464829184
 30
0.0
 10
112.1992352224629
 20
-67.96139453786239
 30
0.0
 10
95.36245002020507
 20
-68.49274989389905
 30
0.0
 10
77.91798778608279
 20
-68.72581231075256
 30
0.0
 10
59.96614251005186
 20
-68.64876524614233
 30
0.0
 10
41.57725603588053
 20
-68.2517247884549
 30
0.0
 10
23.89251042966339
 20
-67.568849867379
 30
0.0
 10
7.237398512854362
 20
-66.66897885808486
 30
0.0
 10
-7.957306718386965
 20
-65.64034614359495
 30
0.0
 10
-22.31212581251051
 20
-64.48362001686198
 30
0.0
 10
-35.66316461761128
 20
-63.24620465485885
 30
0.0
 10
-47.97871209562155
 20
-61.96416560039749
 30
0.0
 10
-58.4210430320194
 20
-60.76453795258632
 30
0.0
 10
-67.23158336062149
 20
-59.67303841689337
 30
0.0
 10
-74.97767233496916
 20
-58.65606913077075
 30
0.0
 10
-83.04481609021695
 20
-57.53537807224043
 30
0.0
 10
-91.76062815858054
 20
-56.25062709380794
 30
0.0
 10
-99.93142171232
 20
-54.96902606902772
 30
0.0
 10
-107.4228945554931
 20
-53.72975924889547
 30
0.0
 10
-114.1110248132535
 20
-52.57392059717643
 30
0.0
 10
-120.912725594897
 20
-51.3443501516106
 30
0.0
 10
-127.3955795837515
 20
-50.11804144445003
 30
0.0
 10
-133.1307590161692
 20
-48.98689668475448
 30
0.0
 10
-137.4512930247836
 20
-48.10440413585272
 30
0.0
 10
-140.5618603944459
 20
-47.45330371386638
 30
0.0
 10
-142.671908157258
 20
-47.0045593680771
 30
0.0
 10
-144.3544474401815
 20
-46.64209592145346
 30
0.0
 10
-145.8972505290408
 20
-46.30636510674903
 30
0.0
 10
-147.6462913314828
 20
-45.92185216482903
 30
0.0
 10
-149.9307037087191
 20
-45.4127194386087
 30
0.0
 10
-152.8087222217351
 20
-44.75967400695818
 30
0.0
 10
-156.1574765613909
 20
-43.98270872105225
 30
0.0
 10
-162.992598741155
 20
-42.35605570203793
 30
0.0
 10
-172.997879519269
 20
-39.82550270135417
 30
0.0
 10
-183.8588235757415
 20
-36.79273059822363
 30
0.0
 10
-192.5345178391661
 20
-34.1650272236417
 30
0.0
 10
-199.084616776357
 20
-32.05941720071299
 30
0.0
 10
-205.1785938499166
 20
-29.98018847195043
 30
0.0
 10
-210.7204711431758
 20
-27.97272808133595
 30
0.0
 10
-215.3142363909327
 20
-26.20808541797066
 30
0.0
 10
-219.1048747274223
 20
-24.67672093661757
 30
0.0
 10
-222.4107672893895
 20
-23.28167279065094
 30
0.0
 10
-225.7593542496785
 20
-21.79971583869318
 30
0.0
 10
-229.2153719743868
 20
-20.18263991730408
 30
0.0
 10
-232.2091211244462
 20
-18.69033278951648
 30
0.0
 10
-234.7415749813577
 20
-17.35335654731677
 30
0.0
 10
-236.7304953688077
 20
-16.2498246133276
 30
0.0
 10
-238.436046094088
 20
-15.25468347422174
 30
0.0
 10
-239.7830563482461
 20
-14.43192684859924
 30
0.0
 10
-240.9213265413697
 20
-13.70866670535403
 30
0.0
 10
-242.0290165718827
 20
-12.97695328255668
 30
0.0
 10
-243.2128539654887
 20
-12.15481977409083
 30
0.0
 10
-244.2831436721769
 20
-11.36149390579886
 30
0.0
 10
-245.1378906525547
 20
-10.68323729788385
 30
0.0
 10
-245.7747020491112
 20
-10.14597322070417
 30
0.0
 10
-246.2713846050569
 20
-9.698826154156473
 30
0.0
 10
-246.573302809112
 20
-9.391773855015627
 30
0.0
 10
-246.5582595690985
 20
-9.412837140213709
 30
0.0
 10
-246.5532761560667
 20
-9.419814829186135
 30
0.0
  0
SPLINE
  5
E0
330
DB
100
AcDbEntity
  8
0
  6
Continuous
 62
     7
370
    25
100
AcDbSpline
210
0.0
220
0.0
230
1.0
 70
     8
 71
     3
 72
    18
 73
    14
 74
     0
 42
0.000000001
 43
0.00000001
 40
0.0
 40
0.0
 40
0.0
 40
0.0
 40
0.0097030949612853
 40
0.1422301689341697
 40
0.2915976244462722
 40
0.3735441297296017
 40
0.4481826127945215
 40
0.5035173678204099
 40
0.5447533271357314
 40
0.6100770097052254
 40
0.7073701102269206
 40
0.8371112405758891
 40
1.0
 40
1.0
 40
1.0
 40
1.0
 10
247.3036089405271
 20
-42.72055160221242
 30
0.0
 10
247.3061869708433
 20
-42.71792351775927
 30
0.0
 10
247.3439763245348
 20
-42.67940045916453
 30
0.0
 10
247.1872653485025
 20
-42.82027164541446
 30
0.0
 10
246.767601293424
 20
-43.1359198663103
 30
0.0
 10
246.1846150735993
 20
-43.53700818191962
 30
0.0
 10
245.7030298746466
 20
-43.84858442163639
 30
0.0
 10
245.2660973554396
 20
-44.11939720533402
 30
0.0
 10
244.7642917532039
 20
-44.42048415318443
 30
0.0
 10
243.9571058892434
 20
-44.88619978098148
 30
0.0
 10
242.6966091005591
 20
-45.56832773497527
 30
0.0
 10
240.8371308304904
 20
-46.5053448440537
 30
0.0
 10
239.2515507109064
 20
-47.21237232589847
 30
0.0
 10
238.3689574158508
 20
-47.60593030962237
 30
0.0
  0
SPLINE
  5
E1
330
DB
100
AcDbEntity
  8
0
  6
Continuous
 62
     7
370
    25
100
AcDbSpline
210
0.0
220
0.0
230
1.0
 70
     8
 71
     3
 72
   145
 73
   141
 74
     0
 42
0.000000001
 43
0.00000001
 40
0.0
 40
0.0
 40
0.0
 40
0.0
 40
0.0077436143866724
 40
0.0141642125503456
 40
0.0192562357466296
 40
0.0230156262006297
 40
0.0255757928982658
 40
0.0307955094676544
 40
0.0369886946586003
 40
0.0435279287841754
 40
0.0510960208366446
 40
0.0590346002010557
 40
0.066478197752827
 40
0.0752273946676599
 40
0.0835243952581524
 40
0.0918373364330377
 40
0.0998736312546527
 40
0.1053820200400197
 40
0.1104609210361752
 40
0.116775407915363
 40
0.124433168983326
 40
0.1386792328220087
 40
0.1516893812268002
 40
0.1639209792393345
 40
0.1712917218794982
 40
0.1797237575279629
 40
0.1883932694235377
 40
0.1952145819054565
 40
0.2002034214865062
 40
0.2065348969057844
 40
0.2139117345060912
 40
0.2202808750918182
 40
0.2253401844936788
 40
0.2297514376147965
 40
0.2353232464990027
 40
0.2419587533543844
 40
0.247931335428197
 40
0.2525766784201469
 40
0.2657227783000655
 40
0.2806332049192558
 40
0.2976226749591758
 40
0.3136069561871938
 40
0.3284896819112678
 40
0.3336978173346769
 40
0.3389290854034581
 40
0.3449944636311716
 40
0.3517620384425229
 40
0.3585417379189795
 40
0.3639346751423554
 40
0.3683733430503818
 40
0.3731051318740516
 40
0.3790064941692306
 40
0.3848858171402344
 40
0.3898827592917716
 40
0.3931412632166604
 40
0.3975133141347121
 40
0.4026405510317235
 40
0.4064876128970669
 40
0.4097990162448076
 40
0.4144511149670017
 40
0.4191524169456516
 40
0.4230789856425037
 40
0.4289902787234026
 40
0.4356397678120794
 40
0.4418620863414352
 40
0.4466659128874126
 40
0.4504149811084312
 40
0.4548519843528646
 40
0.4603228813801695
 40
0.4668313523252511
 40
0.4743764796626412
 40
0.4829515262933977
 40
0.4925412481865873
 40
0.5032556230092446
 40
0.5143112801999388
 40
0.5244469900456737
 40
0.533667582916221
 40
0.5420127302670672
 40
0.5516739704067668
 40
0.5599579902356906
 40
0.5669145890964863
 40
0.5775988894725027
 40
0.5907223853465753
 40
0.6048775190178286
 40
0.619291370482093
 40
0.6334670570168535
 40
0.6498143637334305
 40
0.662824023256372
 40
0.6724963843148654
 40
0.6835869010841725
 40
0.694283501235625
 40
0.7045458230884513
 40
0.7144193300804131
 40
0.7238507310579338
 40
0.7343662474816263
 40
0.7463617336579893
 40
0.752244838202633
 40
0.7570326631079276
 40
0.7616092176967675
 40
0.7667834465040761
 40
0.7732439604198408
 40
0.7794626924929177
 40
0.7849277594634956
 40
0.7886439787262447
 40
0.7922738935240414
 40
0.7971839157226006
 40
0.8029959780234693
 40
0.8077306162719289
 40
0.8112755845520985
 40
0.8146567682467886
 40
0.820224414847596
 40
0.8264731014158432
 40
0.8341513643263282
 40
0.8427622685400065
 40
0.8500742325350267
 40
0.8564726723963935
 40
0.8633091365814777
 40
0.8701349306641115
 40
0.876156403747232
 40
0.8829012020752736
 40
0.8907193551940265
 40
0.8970208286305825
 40
0.9029236299239205
 40
0.9100845532043669
 40
0.9177030541296477
 40
0.924816860808744
 40
0.9303182902635159
 40
0.9363140344578386
 40
0.942863881971403
 40
0.9498730471342565
 40
0.9561153818593787
 40
0.9588078740587364
 40
0.9612147007032192
 40
0.9633359809068165
 40
0.9654412066935029
 40
0.9685255023537622
 40
0.9738876050297754
 40
0.9809223649973398
 40
0.9896275067117318
 40
1.0
 40
1.0
 40
1.0
 40
1.0
 10
-278.7195034204999
 20
11.87038430900962
 30
0.0
 10
-278.0979808355818
 20
10.24677320978634
 30
0.0
 10
-276.9611243809562
 20
7.276949099215988
 30
0.0
 10
-275.2767598281175
 20
3.296031227644977
 30
0.0
 10
-273.8794186927562
 20
0.1666243016007901
 30
0.0
 10
-272.7958856557531
 20
-2.153282646009905
 30
0.0
 10
-271.6732621203936
 20
-4.485512803433026
 30
0.0
 10
-270.2735613530818
 20
-7.288781874738803
 30
0.0
 10
-268.3999991935178
 20
-10.85088454929878
 30
0.0
 10
-266.1898112595999
 20
-14.82396072967752
 30
0.0
 10
-263.6814652675689
 20
-19.07078418255299
 30
0.0
 10
-260.9490777299463
 20
-23.41324356066521
 30
0.0
 10
-257.9533054782392
 20
-27.89479391710309
 30
0.0
 10
-254.7856091904697
 20
-32.35004700004959
 30
0.0
 10
-251.373615938953
 20
-36.8559400885752
 30
0.0
 10
-247.9401955110876
 20
-41.1270570519113
 30
0.0
 10
-244.7966229973826
 20
-44.81954365629554
 30
0.0
 10
-242.0522218873075
 20
-47.89697494591701
 30
0.0
 10
-239.5200090272385
 20
-50.63682419142003
 30
0.0
 10
-236.6153871758071
 20
-53.66279106981111
 30
0.0
 10
-232.2131109085933
 20
-58.04333673050464
 30
0.0
 10
-226.6099855140488
 20
-63.23641507938138
 30
0.0
 10
-220.073216229437
 20
-68.79743192518784
 30
0.0
 10
-214.5427029487919
 20
-73.15322247519691
 30
0.0
 10
-209.7253435303395
 20
-76.73290896438566
 30
0.0
 10
-205.4472096703219
 20
-79.77028052411121
 30
0.0
 10
-201.1864592456933
 20
-82.64164770174058
 30
0.0
 10
-197.4131577886295
 20
-85.09568170700169
 30
0.0
 10
-194.0117620675758
 20
-87.26161567230778
 30
0.0
 10
-190.5174617154588
 20
-89.43847060633681
 30
0.0
 10
-186.742240827012
 20
-91.72962110483417
 30
0.0
 10
-183.1673133774728
 20
-93.84195749671231
 30
0.0
 10
-180.1164337222646
 20
-95.6041192820844
 30
0.0
 10
-177.2217208004119
 20
-97.24461053989315
 30
0.0
 10
-174.0258977511734
 20
-99.01987932684865
 30
0.0
 10
-170.5172098339552
 20
-100.9212978144767
 30
0.0
 10
-167.1607943775581
 20
-102.6936054114329
 30
0.0
 10
-162.5051697874932
 20
-105.0979255099749
 30
0.0
 10
-156.0480844940506
 20
-108.3083832255739
 30
0.0
 10
-147.0583064398928
 20
-112.511222277567
 30
0.0
 10
-137.3836245152382
 20
-116.7156078846665
 30
0.0
 10
-127.6194400100114
 20
-120.6371353773933
 30
0.0
 10
-120.1977716137293
 20
-123.3969019390575
 30
0.0
 10
-114.9618318066309
 20
-125.2452205348704
 30
0.0
 10
-111.5417550064166
 20
-126.4194691660097
 30
0.0
 10
-107.7878718306024
 20
-127.6694641521224
 30
0.0
 10
-103.700604516474
 20
-128.9829983350041
 30
0.0
 10
-99.73635403270175
 20
-130.2089583525436
 30
0.0
 10
-96.25111954232187
 20
-131.2492648819753
 30
0.0
 10
-93.18380093511017
 20
-132.1383766574734
 30
0.0
 10
-90.00762033699993
 20
-133.0336602413687
 30
0.0
 10
-86.52530180788614
 20
-133.9833420583433
 30
0.0
 10
-82.97497796390232
 20
-134.9159346796446
 30
0.0
 10
-79.97220668671682
 20
-135.6771180088599
 30
0.0
 10
-77.28476680010131
 20
-136.3397645493889
 30
0.0
 10
-74.57736863492417
 20
-136.9901964092317
 30
0.0
 10
-71.7327079698431
 20
-137.6514456179166
 30
0.0
 10
-69.10643827069605
 20
-138.2427010660036
 30
0.0
 10
-66.57674568939349
 20
-138.7976163403954
 30
0.0
 10
-63.83295309629673
 20
-139.3818443888519
 30
0.0
 10
-60.95623162444129
 20
-139.972516665957
 30
0.0
 10
-57.85582855436954
 20
-140.5884874562011
 30
0.0
 10
-54.38068928596414
 20
-141.2528555014891
 30
0.0
 10
-50.35562352986554
 20
-141.9841020755218
 30
0.0
 10
-46.54530918632466
 20
-142.6394947471059
 30
0.0
 10
-43.34429750229968
 20
-143.1638880446585
 30
0.0
 10
-40.52204363204874
 20
-143.6082976332327
 30
0.0
 10
-37.59826940015937
 20
-144.0510155828634
 30
0.0
 10
-34.09958239603282
 20
-144.5555344852996
 30
0.0
 10
-29.94022701189938
 20
-145.119059671095
 30
0.0
 10
-25.10166432043172
 20
-145.7252316101175
 30
0.0
 10
-19.56999080848051
 20
-146.3544637986986
 30
0.0
 10
-13.30808964641135
 20
-146.9872505660818
 30
0.0
 10
-6.449738597306024
 20
-147.584312226831
 30
0.0
 10
0.5870680223301096
 20
-148.0915076917464
 30
0.0
 10
7.337434263670093
 20
-148.4777499500343
 30
0.0
 10
13.51340568257245
 20
-148.7455081747866
 30
0.0
 10
19.60077153327492
 20
-148.9313033795693
 30
0.0
 10
25.48999118296499
 20
-149.0321641320674
 30
0.0
 10
31.07126107835867
 20
-149.0519167626496
 30
0.0
 10
36.8801559990842
 20
-149.0048654847212
 30
0.0
 10
43.73276365613962
 20
-148.8574925500257
 30
0.0
 10
52.2092698646287
 20
-148.5218592796606
 30
0.0
 10
61.52439931434973
 20
-147.9505801609151
 30
0.0
 10
70.94097184792476
 20
-147.1552111065176
 30
0.0
 10
80.92151450556953
 20
-146.0774121976335
 30
0.0
 10
90.52605312197873
 20
-144.7919395899808
 30
0.0
 10
99.10990945340234
 20
-143.4244233655482
 30
0.0
 10
106.500813370432
 20
-142.0971675475721
 30
0.0
 10
113.3587983203142
 20
-140.7360762407352
 30
0.0
 10
120.3108894124055
 20
-139.2157162860237
 30
0.0
 10
126.9641595033949
 20
-137.6289460826251
 30
0.0
 10
133.3107399429435
 20
-135.9924506034266
 30
0.0
 10
139.6752094329883
 20
-134.2312511407235
 30
0.0
 10
146.4502312984729
 20
-132.2222102576127
 30
0.0
 10
152.4303254930385
 20
-130.312776353901
 30
0.0
 10
157.1784618438527
 20
-128.7091608147039
 30
0.0
 10
160.3584856013152
 20
-127.5997534639532
 30
0.0
 10
163.384418339162
 20
-126.5142772400161
 30
0.0
 10
166.7418140268952
 20
-125.2750981720252
 30
0.0
 10
170.4138264849734
 20
-123.8741203185865
 30
0.0
 10
174.1333211748254
 20
-122.4040263776476
 30
0.0
 10
177.2757979736672
 20
-121.1217356509179
 30
0.0
 10
179.8806084225304
 20
-120.0323442166204
 30
0.0
 10
182.3613074442557
 20
-118.9745072923382
 30
0.0
 10
185.2527562708807
 20
-117.7137644785882
 30
0.0
 10
188.3547270812107
 20
-116.3234889113561
 30
0.0
 10
191.1767239534628
 20
-115.0244528444026
 30
0.0
 10
193.5020882552865
 20
-113.9314976971842
 30
0.0
 10
196.0176954986487
 20
-112.7290655677369
 30
0.0
 10
199.0868261582775
 20
-111.2237750039118
 30
0.0
 10
202.9690243222611
 20
-109.208339888966
 30
0.0
 10
207.3955766324069
 20
-106.7674394253536
 30
0.0
 10
211.9508913532673
 20
-104.0693345841849
 30
0.0
 10
216.1851820348615
 20
-101.3822422080048
 30
0.0
 10
220.0132082932219
 20
-98.80534393860532
 30
0.0
 10
223.6829332553752
 20
-96.19126250095032
 30
0.0
 10
227.2116180689073
 20
-93.52720143096121
 30
0.0
 10
230.6517438653402
 20
-90.78473963771917
 30
0.0
 10
234.187245561444
 20
-87.81066337064095
 30
0.0
 10
237.6790756443572
 20
-84.68821841877677
 30
0.0
 10
240.9390438990889
 20
-81.59528931679071
 30
0.0
 10
244.0116764985965
 20
-78.52713323433434
 30
0.0
 10
247.2024793064837
 20
-75.1611986799399
 30
0.0
 10
250.4677099419201
 20
-71.49419047121668
 30
0.0
 10
253.3782420844645
 20
-68.01335419343359
 30
0.0
 10
255.9683797909589
 20
-64.74274800161666
 30
0.0
 10
258.4021903083464
 20
-61.51173513700265
 30
0.0
 10
260.9460308752367
 20
-57.9421906623549
 30
0.0
 10
263.4180190464411
 20
-54.25507134030682
 30
0.0
 10
265.3253025311284
 20
-51.23094900280623
 30
0.0
 10
266.6412005187374
 20
-49.05462054995676
 30
0.0
 10
267.4640055807349
 20
-47.66017819507626
 30
0.0
 10
268.2076069738854
 20
-46.37207083511423
 30
0.0
 10
269.0142468139646
 20
-44.94566932966763
 30
0.0
 10
270.1553156993953
 20
-42.87545170117655
 30
0.0
 10
271.7762274940734
 20
-39.80867226648359
 30
0.0
 10
273.8743670281099
 20
-35.56988828056939
 30
0.0
 10
276.3140252939746
 20
-30.24532671809834
 30
0.0
 10
277.8954269332357
 20
-26.26700911922023
 30
0.0
 10
278.7552336067047
 20
-24.10400135713608
 30
0.0
  0
LWPOLYLINE
  5
E2
330
DB
100
AcDbEntity
  8
0
  6
Continuous
 62
     7
370
    25
100
AcDbPolyline
 90
       95
 70
   128
 43
0.0
 10
-271.27016055
 20
34.1768277414
 10
-275.0746329628
 20
30.2705949475
 10
-277.7791439733
 20
26.2468637205
 10
-279.3842561533
 20
22.1267886155
 10
-279.8905320748
 20
17.9315241873
 10
-279.2989596923
 20
13.68101264
 10
-277.613354906
 20
9.3871364701
 10
-274.838687254
 20
5.0584902787
 10
-270.5346204326
 20
0.2670661745
 10
-264.9275270611
 20
-4.5431742615
 10
-258.0422934644
 20
-9.3482877916
 10
-249.911300494
 20
-14.1191959485
 10
-240.5669700473
 20
-18.8267921406
 10
-229.3766752897
 20
-23.7188537953
 10
-216.9571674847
 20
-28.476964017
 10
-203.4076280603
 20
-33.0711316406
 10
-188.8265163486
 20
-37.4716173329
 10
-173.2884357533
 20
-41.6570015366
 10
-156.8392395408
 20
-45.6158913299
 10
-140.5351499012
 20
-49.1314085633
 10
-123.502658417
 20
-52.4260206795
 10
-105.8249835114
 20
-55.4827768295
 10
-87.6043061492
 20
-58.2814842751
 10
-68.9429111493
 20
-60.8019325227
 10
-48.7858492728
 20
-63.1510861075
 10
-28.3874596994
 20
-65.1556742862
 10
-7.887112807
 20
-66.8068757963
 10
12.576934108
 20
-68.0959636512
 10
32.9031966581
 20
-69.0173254694
 10
53.0345075829
 20
-69.5691024571
 10
71.7879054518
 20
-69.7493705031
 10
90.268392538
 20
-69.5984152045
 10
108.383166544
 20
-69.1162076788
 10
126.0201026147
 20
-68.3032695485
 10
143.0669700697
 20
-67.1601254514
 10
157.9614165631
 20
-65.8365753662
 10
172.2137877362
 20
-64.2515918665
 10
185.76242091
 20
-62.4162054462
 10
198.5456534059
 20
-60.3414465992
 10
210.5057671664
 20
-58.0377971844
 10
221.6112679775
 20
-55.5120917352
 10
231.8413594388
 20
-52.769676887
 10
240.4321858469
 20
-50.0699860756
 10
248.2535320625
 20
-47.1970196919
 10
255.2805043203
 20
-44.1591706388
 10
261.4807052729
 20
-40.9684387917
 10
266.8214767423
 20
-37.6369494069
 10
271.2701605503
 20
-34.1768277411
 10
275.074632963
 20
-30.2705949472
 10
277.7791439734
 20
-26.2468637203
 10
279.3842561533
 20
-22.1267886152
 10
279.8905320747
 20
-17.931524187
 10
279.2989596922
 20
-13.6810126398
 10
277.6133549059
 20
-9.3871364699
 10
274.8386872539
 20
-5.0584902786
 10
270.5346204326
 20
-0.2670661744
 10
264.9275270611
 20
4.5431742615
 10
258.0422934644
 20
9.3482877916
 10
249.911300494
 20
14.1191959485
 10
240.5669700473
 20
18.8267921406
 10
229.3766752898
 20
23.7188537953
 10
216.9571674847
 20
28.476964017
 10
203.4076280604
 20
33.0711316406
 10
188.8265163487
 20
37.4716173329
 10
173.2884357535
 20
41.6570015366
 10
156.8392395411
 20
45.6158913298
 10
140.5351499016
 20
49.1314085632
 10
123.5026584175
 20
52.4260206794
 10
105.8249835119
 20
55.4827768294
 10
87.6043061498
 20
58.281484275
 10
68.9429111499
 20
60.8019325226
 10
48.7858492733
 20
63.1510861074
 10
28.3874596999
 20
65.1556742862
 10
7.8871128075
 20
66.8068757962
 10
-12.5769341076
 20
68.0959636512
 10
-32.9031966578
 20
69.0173254694
 10
-53.0345075827
 20
69.5691024571
 10
-71.7879054517
 20
69.7493705031
 10
-90.2683925379
 20
69.5984152045
 10
-108.383166544
 20
69.1162076788
 10
-126.0201026147
 20
68.3032695485
 10
-143.0669700697
 20
67.1601254514
 10
-157.9614165631
 20
65.8365753662
 10
-172.2137877362
 20
64.2515918665
 10
-185.76242091
 20
62.4162054463
 10
-198.5456534058
 20
60.3414465993
 10
-210.5057671662
 20
58.0377971845
 10
-221.6112679772
 20
55.5120917353
 10
-231.8413594384
 20
52.7696768872
 10
-240.4321858464
 20
50.0699860758
 10
-248.253532062
 20
47.1970196921
 10
-255.2805043197
 20
44.1591706391
 10
-261.4807052724
 20
40.9684387919
 10
-266.8214767419
 20
37.6369494072
 10
-271.27016055
 20
34.1768277414
  0
SPLINE
  5
E3
330
DB
100
AcDbEntity
  8
0
  6
Continuous
 62
     7
370
    25
100
AcDbSpline
210
0.0
220
0.0
230
1.0
 70
     8
 71
     3
 72
    25
 73
    21
 74
     0
 42
0.000000001
 43
0.00000001
 40
0.0
 40
0.0
 40
0.0
 40
0.0
 40
0.0276333607374337
 40
0.0727939063394062
 40
0.120332469408712
 40
0.1709370331564326
 40
0.2246637646803349
 40
0.281298556657981
 40
0.340342784850436
 40
0.4012610115442409
 40
0.4639624504682195
 40
0.5282954979729543
 40
0.5935119626316973
 40
0.6587284272905171
 40
0.7230614747955876
 40
0.7857629137202312
 40
0.8466811404146825
 40
0.9057253686074165
 40
0.9623601605851009
 40
0.9999999999999999
 40
0.9999999999999999
 40
0.9999999999999999
 40
0.9999999999999999
 10
63.5968024187078
 20
-147.7378578040912
 30
0.0
 10
62.80736383803399
 20
-148.1016530650423
 30
0.0
 10
60.72776452152971
 20
-149.0599902866355
 30
0.0
 10
56.22516363371012
 20
-150.3371025511656
 30
0.0
 10
50.32831955111995
 20
-151.5840113743929
 30
0.0
 10
43.522146927375
 20
-152.5666748941242
 30
0.0
 10
35.97635594924654
 20
-153.2854508093564
 30
0.0
 10
27.81835634473081
 20
-153.7133941342087
 30
0.0
 10
19.22467845876364
 20
-153.8542506162335
 30
0.0
 10
10.33757356974254
 20
-153.7053944411545
 30
0.0
 10
1.27789633214553
 20
-153.2678451633837
 30
0.0
 10
-7.832822577036215
 20
-152.5491683196314
 30
0.0
 10
-16.84269024256478
 20
-151.5611434126683
 30
0.0
 10
-25.56045765266758
 20
-150.3156549483149
 30
0.0
 10
-33.82019868677427
 20
-148.8460616720586
 30
0.0
 10
-41.48096936696047
 20
-147.1762923684563
 30
0.0
 10
-48.44961292735297
 20
-145.3301603959639
 30
0.0
 10
-54.58717944654821
 20
-143.3239352668623
 30
0.0
 10
-59.44547089246198
 20
-141.4241468264824
 30
0.0
 10
-61.82837619446737
 20
-140.1164139034988
 30
0.0
 10
-62.77976864844466
 20
-139.5942919233693
 30
0.0
  0
VIEWPORT
  5
F6
330
DB
100
AcDbEntity
  8
0
100
AcDbViewport
 10
0.0
 20
0.0
 30
0.0
 40
205.6
 41
156.0
 68
     1
 69
     1
 12
0.0
 22
-17.1296344974
 13
0.0
 23
0.0
 14
10.0
 24
10.0
 15
10.0
 25
10.0
 16
0.0
 26
0.0
 36
1.0
 17
0.0
 27
0.0
 37
0.0
 42
50.0
 43
0.0
 44
0.0
 45
382.433885339
 50
0.0
 51
0.0
 72
   100
 90
   557152
  1

281
     0
 71
     1
 74
     0
110
0.0
120
0.0
130
0.0
111
1.0
121
0.0
131
0.0
112
0.0
122
1.0
132
0.0
 79
     0
146
0.0
170
     0
 61
     5
348
2F
292
     1
282
     1
141
0.0
142
0.0
 63
   256
361
F7
  0
ENDBLK
  5
DE
330
DB
100
AcDbEntity
  8
0
100
AcDbBlockEnd
  0
ENDSEC
  0
SECTION
  2
ENTITIES
  0
SPLINE
  5
73
330
1F
100
AcDbEntity
  8
0
  6
Continuous
 62
     7
370
    25
100
AcDbSpline
210
0.0
220
0.0
230
1.0
 70
     8
 71
     3
 72
    70
 73
    66
 74
     0
 42
0.000000001
 43
0.00000001
 40
0.0
 40
0.0
 40
0.0
 40
0.0
 40
0.0203199777514228
 40
0.0389526051424887
 40
0.0558679350242803
 40
0.0713227031690634
 40
0.0921379816173602
 40
0.1136203269401903
 40
0.1358431664274175
 40
0.1635736180312705
 40
0.1925023095567413
 40
0.2224678868617207
 40
0.2531680809650345
 40
0.2845531756693829
 40
0.3165506119878446
 40
0.34906867283444
 40
0.3820086546585275
 40
0.4152736502197466
 40
0.4482944851361145
 40
0.4709065031864489
 40
0.4926369966205653
 40
0.5134591574006568
 40
0.5333473352291211
 40
0.5522745782377777
 40
0.5702060925486174
 40
0.5867910086526911
 40
0.5937868157375368
 40
0.5999112850753879
 40
0.6051612478488317
 40
0.6095343426406442
 40
0.6137351049531665
 40
0.6188333049527132
 40
0.6257094921503497
 40
0.6343653328739994
 40
0.6448013947381894
 40
0.6568250704817737
 40
0.6772255551301756
 40
0.6951477943906099
 40
0.710588470690251
 40
0.7235525157023233
 40
0.7341116368376053
 40
0.7436889713529963
 40
0.7528749496771798
 40
0.7616699788030574
 40
0.7703556992619206
 40
0.780774714173321
 40
0.792997785479338
 40
0.8071575004525866
 40
0.8223863053151262
 40
0.8373897783952041
 40
0.85866246215339
 40
0.8794343889368492
 40
0.8989259231432517
 40
0.9165309397471686
 40
0.9267302229073788
 40
0.9369183257899718
 40
0.9472332819121927
 40
0.9584839021285627
 40
0.9714067701910597
 40
0.9812622874130228
 40
0.9898389841155807
 40
0.9968794587365649
 40
0.9983706072961889
 40
0.9996106290530073
 40
1.0
 40
1.0
 40
1.0
 40
1.0
 10
165.1653309926755
 20
-127.4793015910303
 30
0.0
 10
162.4883859949477
 20
-128.3233704816547
 30
0.0
 10
157.3567867993066
 20
-129.9414176375997
 30
0.0
 10
149.4993713311417
 20
-131.8927127309726
 30
0.0
 10
142.0815378229088
 20
-133.4428262921011
 30
0.0
 10
134.1100221766787
 20
-134.8161941900591
 30
0.0
 10
125.2818514828352
 20
-136.0095218970401
 30
0.0
 10
115.2520115979139
 20
-136.9678685132588
 30
0.0
 10
104.0267087968122
 20
-137.6216860040254
 30
0.0
 10
91.5500632200718
 20
-137.8614074694482
 30
0.0
 10
77.84122759698825
 20
-137.5751105529346
 30
0.0
 10
63.72964437700409
 20
-136.7378247205229
 30
0.0
 10
49.35957509534382
 20
-135.3506969174708
 30
0.0
 10
34.859862921275
 20
-133.4219117445543
 30
0.0
 10
20.31320354053327
 20
-130.9773348950623
 30
0.0
 10
5.80073579682111
 20
-128.0466176172634
 30
0.0
 10
-8.598155130502313
 20
-124.6585335706321
 30
0.0
 10
-22.73922356542851
 20
-120.8596217580919
 30
0.0
 10
-35.0948673152491
 20
-117.1283720093555
 30
0.0
 10
-45.61688350641698
 20
-113.656406104443
 30
0.0
 10
-54.32012530700407
 20
-110.5884153068367
 30
0.0
 10
-62.50963333333134
 20
-107.5228535209497
 30
0.0
 10
-70.19159011830855
 20
-104.4851848747585
 30
0.0
 10
-77.3718585799245
 20
-101.4996440909759
 30
0.0
 10
-84.01638364236014
 20
-98.60663960484503
 30
0.0
 10
-89.0896910119314
 20
-96.30298942791941
 30
0.0
 10
-92.67719249650055
 20
-94.62746036229049
 30
0.0
 10
-94.88061047528876
 20
-93.58222011139996
 30
0.0
 10
-96.75763701906129
 20
-92.67978089408047
 30
0.0
 10
-98.39638426751591
 20
-91.8829403407421
 30
0.0
 10
-100.0069893187505
 20
-91.09188108716698
 30
0.0
 10
-101.8992044170276
 20
-90.15238358396117
 30
0.0
 10
-104.2964366851324
 20
-88.94548112663593
 30
0.0
 10
-107.2877054760017
 20
-87.41217043425239
 30
0.0
 10
-110.8341567162225
 20
-85.55371248538938
 30
0.0
 10
-115.6578086107456
 20
-82.95946957192875
 30
0.0
 10
-121.2180781979551
 20
-79.85467640865865
 30
0.0
 10
-127.0160550645548
 20
-76.4686583601016
 30
0.0
 10
-131.9041630794196
 20
-73.5006476136807
 30
0.0
 10
-135.9358955592925
 20
-70.9702864593036
 30
0.0
 10
-139.3003626960987
 20
-68.799986542144
 30
0.0
 10
-142.2353086746946
 20
-66.86165575921734
 30
0.0
 10
-144.9542839619079
 20
-65.02592668487395
 30
0.0
 10
-147.5475511751958
 20
-63.23747072484156
 30
0.0
 10
-150.2218845038775
 20
-61.35429363997925
 30
0.0
 10
-153.1647860537055
 20
-59.23400193689553
 30
0.0
 10
-156.5504991033236
 20
-56.72705552897509
 30
0.0
 10
-160.2873137209363
 20
-53.86905100928903
 30
0.0
 10
-164.1668896500106
 20
-50.79026575777434
 30
0.0
 10
-168.5365906828794
 20
-47.18398882000989
 30
0.0
 10
-173.1957549342968
 20
-43.14685785342237
 30
0.0
 10
-177.9895259566966
 20
-38.7388686240982
 30
0.0
 10
-182.2664501766295
 20
-34.56203954152794
 30
0.0
 10
-185.5678204634658
 20
-31.1431258543781
 30
0.0
 10
-188.0923906452689
 20
-28.40537187917027
 30
0.0
 10
-190.0654364801742
 20
-26.18941097137974
 30
0.0
 10
-192.0522019831144
 20
-23.87364691619293
 30
0.0
 10
-194.073422506039
 20
-21.41943677695519
 30
0.0
 10
-195.8963268973212
 20
-19.10240287473627
 30
0.0
 10
-197.4641001470859
 20
-17.02440966586905
 30
0.0
 10
-198.6832833452093
 20
-15.34971934397404
 30
0.0
 10
-199.4727672506924
 20
-14.23156318075876
 30
0.0
 10
-199.9043179112032
 20
-13.60891681182658
 30
0.0
 10
-200.0112724236714
 20
-13.45850247960947
 30
0.0
 10
-200.0021206443907
 20
-13.47901497207038
 30
0.0
 10
-199.9999336719335
 20
-13.48391677910314
 30
0.0
  0
SPLINE
  5
74
330
1F
100
AcDbEntity
  8
0
  6
Continuous
 62
     7
370
    25
100
AcDbSpline
210
0.0
220
0.0
230
1.0
 70
     8
 71
     3
 72
    26
 73
    22
 74
     0
 42
0.000000001
 43
0.00000001
 40
0.0
 40
0.0
 40
0.0
 40
0.0
 40
0.0204359439607353
 40
0.055511430715967
 40
0.106622399745032
 40
0.1572621720873123
 40
0.2017794730284073
 40
0.2472354012383678
 40
0.2907636225829046
 40
0.3409206651142374
 40
0.3974632085421049
 40
0.4500978942942494
 40
0.4981801182570788
 40
0.5372799897481875
 40
0.5772694782309312
 40
0.6191996871403609
 40
0.665639204802916
 40
0.7256774371913447
 40
0.8012264007747744
 40
0.8925398522826974
 40
1.0
 40
1.0
 40
1.0
 40
1.0
 10
201.8181482299212
 20
-106.7506522103435
 30
0.0
 10
201.8112356890649
 20
-106.7397481697905
 30
0.0
 10
201.792458722679
 20
-106.7101288435267
 30
0.0
 10
201.3868380146686
 20
-107.1135180696638
 30
0.0
 10
200.4805298835147
 20
-108.0050321311124
 30
0.0
 10
199.2913900444903
 20
-109.109345918406
 30
0.0
 10
198.0994928470138
 20
-110.1549328210471
 30
0.0
 10
196.8700697970438
 20
-111.1794823115178
 30
0.0
 10
195.4912672541341
 20
-112.2690479814879
 30
0.0
 10
193.9241057851369
 20
-113.4408564102309
 30
0.0
 10
192.1653689277398
 20
-114.6765287089381
 30
0.0
 10
190.3351014806995
 20
-115.8833502457727
 30
0.0
 10
188.6253892326596
 20
-116.9468532367042
 30
0.0
 10
186.9922476935879
 20
-117.9122189277792
 30
0.0
 10
185.3770350671809
 20
-118.8234170912407
 30
0.0
 10
183.6015573628689
 20
-119.7779958479787
 30
0.0
 10
181.4686173244626
 20
-120.8670169442887
 30
0.0
 10
178.7088309250638
 20
-122.1912369058359
 30
0.0
 10
175.1068573684141
 20
-123.7825567955995
 30
0.0
 10
170.5542292320277
 20
-125.6186001639952
 30
0.0
 10
167.0563433537102
 20
-126.826364897399
 30
0.0
 10
165.1653309926755
 20
-127.4793015910303
 30
0.0
  0
SPLINE
  5
75
330
1F
100
AcDbEntity
  8
0
  6
Continuous
 62
     7
370
    25
100
AcDbSpline
210
0.0
220
0.0
230
1.0
 70
     8
 71
     3
 72
   121
 73
   117
 74
     0
 42
0.000000001
 43
0.00000001
 40
0.0
 40
0.0
 40
0.0
 40
0.0
 40
0.0081612262213168
 40
0.0143538102231643
 40
0.0185731504747363
 40
0.0220879576566497
 40
0.0259803171468531
 40
0.0316825800658172
 40
0.038208854142252
 40
0.0453030311603857
 40
0.0541001669546966
 40
0.0618062452497209
 40
0.0684450508272983
 40
0.0748140205278821
 40
0.0839963589878791
 40
0.0947202747365331
 40
0.107349923507788
 40
0.119682858430168
 40
0.1317109852394262
 40
0.150418433056321
 40
0.1677932867104559
 40
0.1853148952897127
 40
0.2036103350776239
 40
0.2226506168263702
 40
0.2402402151894093
 40
0.2564066585555154
 40
0.2668636141372417
 40
0.276937424722437
 40
0.2879635950237532
 40
0.3011596398251424
 40
0.3137975647752084
 40
0.3252619665269278
 40
0.3353280043257645
 40
0.3433239842583621
 40
0.3519487706433803
 40
0.36065641235783
 40
0.3694244808923725
 40
0.3773293318700725
 40
0.3863614226018167
 40
0.3952040145191289
 40
0.4027866414049955
 40
0.410810457292332
 40
0.4175597296730205
 40
0.4240724517465522
 40
0.4303641810419317
 40
0.436825647042279
 40
0.4439943013517182
 40
0.451861173234771
 40
0.4678637706454098
 40
0.4857009375610754
 40
0.5054260602832419
 40
0.5209000290422199
 40
0.536338452071363
 40
0.5507188166681573
 40
0.5640561879783987
 40
0.5763704282695
 40
0.5876848900032388
 40
0.595902385013629
 40
0.6036028877981132
 40
0.6108084865265317
 40
0.6175336112454319
 40
0.6245654767735584
 40
0.6330994376904714
 40
0.6397657499982193
 40
0.6456380868939632
 40
0.6506131077123294
 40
0.6558716793391048
 40
0.6624067560696932
 40
0.6699615690815834
 40
0.6763723661791259
 40
0.681773472250951
 40
0.686704099661606
 40
0.6925015719628523
 40
0.6992273966427458
 40
0.7073641504456003
 40
0.7138676156129458
 40
0.7198409018440328
 40
0.7273123785909497
 40
0.7339450698549679
 40
0.7397422007654751
 40
0.7445239468252286
 40
0.7490490943819037
 40
0.7545834037878604
 40
0.7613002549311936
 40
0.7681952039214914
 40
0.7742157248943999
 40
0.7794518708261149
 40
0.7842896352007306
 40
0.7886302586660014
 40
0.7930187424364709
 40
0.7979785146242637
 40
0.8041332208934396
 40
0.8107726942663676
 40
0.8211186188850679
 40
0.8291317847643032
 40
0.8369484410702893
 40
0.8451117650307678
 40
0.8534627596630245
 40
0.8617433143479476
 40
0.8702165244858007
 40
0.8857817292066943
 40
0.901501595541082
 40
0.916807239266057
 40
0.9333506066076775
 40
0.9430866265685656
 40
0.9528272460503603
 40
0.9619596493621104
 40
0.9697782786138716
 40
0.9726926738821281
 40
0.9756052791440751
 40
0.9784881602666097
 40
0.9813051338929392
 40
0.9840691742354795
 40
0.9877875682130546
 40
0.9930944056900374
 40
1.0
 40
1.0
 40
1.0
 40
1.0
 10
-241.0078982416182
 20
23.32088237933955
 30
0.0
 10
-240.4000148585981
 20
21.78194411568116
 30
0.0
 10
-239.3308810690097
 20
19.07528862265963
 30
0.0
 10
-237.8677683015629
 20
15.61036192781049
 30
0.0
 10
-236.7421620874967
 20
13.02812658032321
 30
0.0
 10
-235.783533062458
 20
10.88586292134417
 30
0.0
 10
-234.6823413993242
 20
8.482533018791614
 30
0.0
 10
-233.2958311914466
 20
5.546442276427456
 30
0.0
 10
-231.5861263338796
 20
2.058041624178768
 30
0.0
 10
-229.5409500627871
 20
-1.951399780799674
 30
0.0
 10
-227.3094363325648
 20
-6.133790998037673
 30
0.0
 10
-225.0483543113156
 20
-10.18486545315433
 30
0.0
 10
-222.9864145381738
 20
-13.74317489700332
 30
0.0
 10
-220.717554727929
 20
-17.53168300395105
 30
0.0
 10
-217.9567785484174
 20
-21.96732942716379
 30
0.0
 10
-214.4311327307702
 20
-27.36887181797312
 30
0.0
 10
-210.4237590430032
 20
-33.18752033126021
 30
0.0
 10
-206.126186183713
 20
-39.09259501825333
 30
0.0
 10
-200.9638321183989
 20
-45.82720457860906
 30
0.0
 10
-194.9779172496979
 20
-53.15644305797329
 30
0.0
 10
-188.0432283563477
 20
-61.0641163018668
 30
0.0
 10
-180.9194083009256
 20
-68.66677775726512
 30
0.0
 10
-173.329024150413
 20
-76.25180186793314
 30
0.0
 10
-165.4867521084104
 20
-83.58419580669508
 30
0.0
 10
-157.7290050902085
 20
-90.39094585857444
 30
0.0
 10
-151.0691746635667
 20
-95.90786454162703
 30
0.0
 10
-145.4411119911292
 20
-100.3660762488621
 30
0.0
 10
-140.5363494863597
 20
-104.1200442204856
 30
0.0
 10
-135.136287847471
 20
-108.1104760891566
 30
0.0
 10
-129.2253206791505
 20
-112.3031026693976
 30
0.0
 10
-123.1933858044383
 20
-116.4038892473069
 30
0.0
 10
-117.3011382880984
 20
-120.2372028618719
 30
0.0
 10
-112.5441047069197
 20
-123.2187621648496
 30
0.0
 10
-108.1898424096852
 20
-125.8653081695068
 30
0.0
 10
-103.8928288913682
 20
-128.3994156166889
 30
0.0
 10
-99.43686752910594
 20
-130.9435183695083
 30
0.0
 10
-95.06543124590708
 20
-133.3585350735707
 30
0.0
 10
-90.6304165884708
 20
-135.7319321171132
 30
0.0
 10
-86.15670067340461
 20
-138.0492102310246
 30
0.0
 10
-81.69195766744619
 20
-140.2821308092829
 30
0.0
 10
-77.35887292235405
 20
-142.3788400065781
 30
0.0
 10
-73.36469194638947
 20
-144.2504218910994
 30
0.0
 10
-69.54457537790931
 20
-145.9856156099416
 30
0.0
 10
-66.02092688729707
 20
-147.541201913734
 30
0.0
 10
-62.53794751985547
 20
-149.0362427219402
 30
0.0
 10
-58.92917785336351
 20
-150.541650900791
 30
0.0
 10
-55.02313663702162
 20
-152.1209623497296
 30
0.0
 10
-49.34700184469681
 20
-154.3360405802921
 30
0.0
 10
-41.68017548329426
 20
-157.1573218553155
 30
0.0
 10
-31.81151381356179
 20
-160.4824165315823
 30
0.0
 10
-21.93850410505779
 20
-163.474786484925
 30
0.0
 10
-12.40759807984261
 20
-166.0645515999127
 30
0.0
 10
-3.769063890696311
 20
-168.1775321782293
 30
0.0
 10
4.571611069546677
 20
-170.0002825060808
 30
0.0
 10
12.38768733977306
 20
-171.5177069725351
 30
0.0
 10
19.6636452847304
 20
-172.7641284804072
 30
0.0
 10
25.96878451324289
 20
-173.7096154516459
 30
0.0
 10
31.37851587797467
 20
-174.4236262195581
 30
0.0
 10
35.97717302341789
 20
-174.962895073746
 30
0.0
 10
40.2770271046051
 20
-175.4082191370535
 30
0.0
 10
44.436044779824
 20
-175.7858731604213
 30
0.0
 10
48.83399691559894
 20
-176.1301362633909
 30
0.0
 10
53.21049390437545
 20
-176.4110444841204
 30
0.0
 10
57.36647731188116
 20
-176.6203713870776
 30
0.0
 10
60.82842105100899
 20
-176.7549919185462
 30
0.0
 10
64.01404273274252
 20
-176.8469692252993
 30
0.0
 10
67.31540708487121
 20
-176.9110250536481
 30
0.0
 10
71.11868362329265
 20
-176.9432769478047
 30
0.0
 10
75.15552700220448
 20
-176.9243476364536
 30
0.0
 10
78.97316199034893
 20
-176.8558757444914
 30
0.0
 10
82.26273124620148
 20
-176.7596203579943
 30
0.0
 10
85.42696805246392
 20
-176.6357013261944
 30
0.0
 10
88.92120865062944
 20
-176.4623509492042
 30
0.0
 10
93.09543696241201
 20
-176.2017136235407
 30
0.0
 10
97.434005500712
 20
-175.8638305875551
 30
0.0
 10
101.6181567554205
 20
-175.4689360384189
 30
0.0
 10
105.6735910444811
 20
-175.0213477747841
 30
0.0
 10
109.7743484793413
 20
-174.4976176695818
 30
0.0
 10
113.840940789506
 20
-173.9010640455619
 30
0.0
 10
117.3549932300957
 20
-173.3248529215881
 30
0.0
 10
120.4360442273262
 20
-172.7728841395162
 30
0.0
 10
123.4571397628951
 20
-172.1902110108114
 30
0.0
 10
126.857827446789
 20
-171.4826779242239
 30
0.0
 10
130.7240165622001
 20
-170.6047167739352
 30
0.0
 10
134.6749494822262
 20
-169.6209840570642
 30
0.0
 10
138.3155673685303
 20
-168.636002731134
 30
0.0
 10
141.5269173921389
 20
-167.704358506277
 30
0.0
 10
144.3891105193759
 20
-166.8223997973755
 30
0.0
 10
147.0601289811618
 20
-165.9544903343954
 30
0.0
 10
149.7490171754198
 20
-165.0365298694872
 30
0.0
 10
152.7774143034087
 20
-163.9477621792578
 30
0.0
 10
156.2209081441128
 20
-162.6331885166633
 30
0.0
 10
160.6687587845555
 20
-160.8167903143654
 30
0.0
 10
165.4106533923042
 20
-158.7047685291622
 30
0.0
 10
170.2944467248397
 20
-156.3213288888073
 30
0.0
 10
174.6999535206172
 20
-154.0001103473845
 30
0.0
 10
179.089518723779
 20
-151.505344876261
 30
0.0
 10
183.4752805223906
 20
-148.8144373400197
 30
0.0
 10
187.821559313447
 20
-145.9403465108933
 30
0.0
 10
193.2869323209097
 20
-142.0498652020539
 30
0.0
 10
199.7702925319365
 20
-136.9327366152818
 30
0.0
 10
206.964109306304
 20
-130.4568440800083
 30
0.0
 10
213.870824585689
 20
-123.3891907793398
 30
0.0
 10
219.4939570084678
 20
-116.8279605438999
 30
0.0
 10
224.0517002585987
 20
-110.8957176607827
 30
0.0
 10
227.4836601028431
 20
-106.0445807995795
 30
0.0
 10
230.5121612840615
 20
-101.4008337822581
 30
0.0
 10
232.648798392071
 20
-97.87079434086277
 30
0.0
 10
234.0648030765751
 20
-95.41594405995679
 30
0.0
 10
234.9507256225299
 20
-93.83876237403268
 30
0.0
 10
235.8090869453258
 20
-92.26936816308421
 30
0.0
 10
236.6354921084954
 20
-90.71772043784243
 30
0.0
 10
237.5251706144378
 20
-89.00316334070843
 30
0.0
 10
238.6248720021209
 20
-86.81541378017405
 30
0.0
 10
240.0645498755126
 20
-83.83545010560383
 30
0.0
 10
241.0984802723086
 20
-81.5183115476154
 30
0.0
 10
241.6831225441816
 20
-80.20807136608626
 30
0.0
  0
LWPOLYLINE
  5
76
330
1F
100
AcDbEntity
  8
0
  6
Continuous
 62
     7
370
    25
100
AcDbPolyline
 90
       95
 70
   128
 43
0.0
 10
-205.0609665441
 20
118.3791762143
 10
-213.3500224242
 20
113.116874783
 10
-220.7815617734
 20
107.4078431352
 10
-227.3299859885
 20
101.2856070516
 10
-232.9696964666
 20
94.7836923129
 10
-237.6769787354
 20
87.9338120577
 10
-241.4406440249
 20
80.7556289802
 10
-244.2546133282
 20
73.2638898893
 10
-246.2458433927
 20
64.6784027028
 10
-247.0726710209
 20
55.753721945
 10
-246.7282250896
 20
46.5335526212
 10
-245.2061267876
 20
37.0714857078
 10
-242.5
 20
27.4211663241
 10
-238.3390797186
 20
17.0412211131
 10
-232.8924701074
 20
6.5807560795
 10
-226.2135503726
 20
-3.8893307807
 10
-218.3553524136
 20
-14.2987104951
 10
-209.3594341463
 20
-24.5958529499
 10
-199.2535255353
 20
-34.7518836063
 10
-188.7326118149
 20
-44.1735916493
 10
-177.2751389347
 20
-53.4196127021
 10
-164.9360326522
 20
-62.4434242208
 10
-151.7835003948
 20
-71.1888824406
 10
-137.885822331
 20
-79.599790903
 10
-122.413505586
 20
-88.0955610197
 10
-106.2959319226
 20
-96.1047592857
 10
-89.6492405717
 20
-103.5803584915
 10
-72.5886726261
 20
-110.475744618
 10
-55.1997973572
 20
-116.7579542327
 10
-37.5324248346
 20
-122.4104750032
 10
-20.6623758983
 20
-127.1492951117
 10
-3.6322347326
 20
-131.3004627246
 10
13.4734507884
 20
-134.841890035
 10
30.5518419843
 20
-137.747768745
 10
47.5
 20
-139.9922701807
 10
62.7090376739
 20
-141.4407646398
 10
77.6555544012
 20
-142.3240857777
 10
92.2697333964
 20
-142.6449990737
 10
106.4817578744
 20
-142.4062700071
 10
120.2260835144
 20
-141.6107349631
 10
133.4655693417
 20
-140.2617017116
 10
146.174661306
 20
-138.3626703197
 10
157.3369302365
 20
-136.141723243
 10
168.0117421872
 20
-133.4644977765
 10
178.1660485654
 20
-130.3383292796
 10
187.7555095953
 20
-126.7744644286
 10
196.7353930106
 20
-122.784285861
 10
205.0609665447
 20
-118.3791762139
 10
213.3500224247
 20
-113.1168747826
 10
220.7815617738
 20
-107.4078431347
 10
227.3299859889
 20
-101.2856070511
 10
232.9696964668
 20
-94.7836923124
 10
237.6769787355
 20
-87.9338120574
 10
241.440644025
 20
-80.75562898
 10
244.2546133283
 20
-73.2638898891
 10
246.2458433928
 20
-64.6784027027
 10
247.0726710209
 20
-55.7537219449
 10
246.7282250896
 20
-46.5335526212
 10
245.2061267876
 20
-37.0714857078
 10
242.5
 20
-27.4211663241
 10
238.3390797186
 20
-17.0412211131
 10
232.8924701074
 20
-6.5807560795
 10
226.2135503726
 20
3.8893307807
 10
218.3553524137
 20
14.298710495
 10
209.3594341464
 20
24.5958529498
 10
199.2535255355
 20
34.7518836062
 10
188.7326118152
 20
44.1735916491
 10
177.275138935
 20
53.4196127018
 10
164.9360326526
 20
62.4434242206
 10
151.7835003952
 20
71.1888824403
 10
137.8858223314
 20
79.5997909027
 10
122.4135055865
 20
88.0955610195
 10
106.2959319231
 20
96.1047592855
 10
89.6492405721
 20
103.5803584914
 10
72.5886726265
 20
110.4757446178
 10
55.1997973575
 20
116.7579542326
 10
37.5324248348
 20
122.4104750031
 10
20.6623758984
 20
127.1492951116
 10
3.6322347326
 20
131.3004627246
 10
-13.4734507884
 20
134.841890035
 10
-30.5518419843
 20
137.747768745
 10
-47.5
 20
139.9922701807
 10
-62.7090376739
 20
141.4407646398
 10
-77.6555544012
 20
142.3240857777
 10
-92.2697333964
 20
142.6449990737
 10
-106.4817578742
 20
142.4062700071
 10
-120.2260835141
 20
141.6107349632
 10
-133.4655693413
 20
140.2617017116
 10
-146.1746613054
 20
138.3626703198
 10
-157.3369302358
 20
136.1417232431
 10
-168.0117421865
 20
133.4644977767
 10
-178.1660485646
 20
130.3383292798
 10
-187.7555095946
 20
126.7744644289
 10
-196.7353930099
 20
122.7842858613
 10
-205.0609665441
 20
118.3791762143
  0
SPLINE
  5
77
330
1F
100
AcDbEntity
  8
0
  6
Continuous
 62
     7
370
    25
100
AcDbSpline
210
0.0
220
0.0
230
1.0
 70
    11
 71
     3
 72
    51
 73
    47
 74
     0
 42
0.000000001
 43
0.00000001
 40
0.0
 40
0.0
 40
0.0
 40
0.0
 40
0.0310648973638021
 40
0.0623486162817331
 40
0.0775024269656176
 40
0.0936042455768724
 40
0.1078686634006422
 40
0.1247316746622769
 40
0.1403211871224075
 40
0.1560249094152767
 40
0.1871938616271204
 40
0.2185824363675491
 40
0.2498802169133889
 40
0.2812517254276339
 40
0.312618883374355
 40
0.3437853115353245
 40
0.3594426521010968
 40
0.3750977238745066
 40
0.3906281590550712
 40
0.4061989857539554
 40
0.4219001648669791
 40
0.4375005927418684
 40
0.4687508802820736
 40
0.5001000012670569
 40
0.5312406688530128
 40
0.5625124498415466
 40
0.5775775929910223
 40
0.593644012920701
 40
0.60930017066454
 40
0.6249241042360953
 40
0.6404524683242304
 40
0.6560463303685496
 40
0.6873474265488381
 40
0.7186941293266048
 40
0.7499546113113535
 40
0.7813808102042604
 40
0.8126217571176421
 40
0.8439365197792494
 40
0.8594744481028963
 40
0.8750946040212967
 40
0.8929819885268114
 40
0.9063028870347297
 40
0.9218779572115718
 40
0.9375869165253549
 40
0.9687383320091949
 40
1.0
 40
1.0
 40
1.0
 40
1.0
 10
-24.80337647176072
 20
-83.5567687588889
 30
0.0
 10
-23.21268454157722
 20
-82.63845817982138
 30
0.0
 10
-19.67880947890932
 20
-80.97072352012913
 30
0.0
 10
-14.6688953356897
 20
-79.40197100925637
 30
0.0
 10
-10.3899846865834
 20
-78.47318298854353
 30
0.0
 10
-7.181392199279206
 20
-77.97179133469916
 30
0.0
 10
-3.79377894465252
 20
-77.63480475735838
 30
0.0
 10
-0.4117970408781986
 20
-77.49439142873065
 30
0.0
 10
3.066019944229777
 20
-77.55798168848575
 30
0.0
 10
7.521770827045625
 20
-77.90054639464424
 30
0.0
 10
12.93235727752957
 20
-78.81225202526697
 30
0.0
 10
18.91177689411056
 20
-80.61350577409159
 30
0.0
 10
24.20001309606936
 20
-83.08362475096564
 30
0.0
 10
28.54862617294643
 20
-86.1692614425381
 30
0.0
 10
31.84231965205148
 20
-89.71631557565381
 30
0.0
 10
33.62270746128129
 20
-92.9489268303111
 30
0.0
 10
34.39624702257383
 20
-95.62159326737662
 30
0.0
 10
34.64182709797772
 20
-97.65169791427682
 30
0.0
 10
34.54706980308281
 20
-99.68108420700564
 30
0.0
 10
34.11216448939648
 20
-101.6931806545287
 30
0.0
 10
33.33876523505842
 20
-103.6668735825353
 30
0.0
 10
31.8720302873561
 20
-106.2161715660649
 30
0.0
 10
29.25643370938396
 20
-109.2059195050705
 30
0.0
 10
24.97066321469909
 20
-112.3071851485929
 30
0.0
 10
19.65214041874146
 20
-114.7467077369766
 30
0.0
 10
14.64118780810463
 20
-116.1730314984112
 30
0.0
 10
10.37039363009469
 20
-116.9462700943642
 30
0.0
 10
7.072424770283043
 20
-117.3304922592955
 30
0.0
 10
3.672900271878032
 20
-117.513282537049
 30
0.0
 10
0.2850583417145711
 20
-117.4924218680785
 30
0.0
 10
-3.090781495559892
 20
-117.2744446111054
 30
0.0
 10
-7.543225388202705
 20
-116.7302015553121
 30
0.0
 10
-12.95188305299084
 20
-115.590285187555
 30
0.0
 10
-18.93198033400488
 20
-113.5942592483911
 30
0.0
 10
-24.21630052735517
 20
-111.0494208432667
 30
0.0
 10
-28.55671756304724
 20
-108.0388271556952
 30
0.0
 10
-31.8506014388456
 20
-104.6793733864512
 30
0.0
 10
-33.62645632185418
 20
-101.6761331404835
 30
0.0
 10
-34.3972774651582
 20
-99.20428282653101
 30
0.0
 10
-34.65412611670796
 20
-97.2405637874734
 30
0.0
 10
-34.53335044112495
 20
-95.35897892747514
 30
0.0
 10
-34.07209345054424
 20
-93.49418911199352
 30
0.0
 10
-33.33528484861505
 20
-91.74098247461525
 30
0.0
 10
-31.87033717093824
 20
-89.34854828283486
 30
0.0
 10
-29.25623068256267
 20
-86.50253983209606
 30
0.0
 10
-26.40414412969588
 20
-84.48089608173348
 30
0.0
 10
-24.80337647176072
 20
-83.55676875888888
 30
0.0
  0
SPLINE
  5
78
330
1F
100
AcDbEntity
  8
0
  6
Continuous
 62
     7
370
    25
100
AcDbSpline
210
0.0
220
0.0
230
1.0
 70
     8
 71
     3
 72
    16
 73
    12
 74
     0
 42
0.000000001
 43
0.00000001
 40
0.0
 40
0.0
 40
0.0
 40
0.0
 40
0.1143439588267944
 40
0.232270677355854
 40
0.3425335996759391
 40
0.4559760480554494
 40
0.5665327522117648
 40
0.6802843361995639
 40
0.7910392987083903
 40
0.9050317901176719
 40
1.0
 40
1.0
 40
1.0
 40
1.0
 10
-16.29174023853802
 20
-96.71787773318601
 30
0.0
 10
-17.17908229033786
 20
-97.27582091126729
 30
0.0
 10
-18.98156964106956
 20
-98.40918940076754
 30
0.0
 10
-20.94336507937667
 20
-100.3292831932246
 30
0.0
 10
-22.31937688355799
 20
-102.3821893616342
 30
0.0
 10
-23.03026102399242
 20
-104.4678596784135
 30
0.0
 10
-23.09547786414084
 20
-106.5789944129925
 30
0.0
 10
-22.51176031267923
 20
-108.6347710388941
 30
0.0
 10
-21.26740379749677
 20
-110.6352999336732
 30
0.0
 10
-19.56317786887394
 20
-112.4548689341695
 30
0.0
 10
-18.02492659966347
 20
-113.5166713016336
 30
0.0
 10
-17.32582400054713
 20
-113.9992379730871
 30
0.0
  0
LWPOLYLINE
  5
79
330
1F
100
AcDbEntity
  8
0
  6
Continuous
 62
     7
370
    25
100
AcDbPolyline
 90
       21
 70
   128
 43
0.0
 10
15.65834911
 20
-115.8111263718
 10
17.3640982858
 20
-114.8590204316
 10
19.6881661263
 20
-112.9727506999
 10
21.3896410189
 20
-110.9310838572
 10
22.5305037445
 20
-108.6723055008
 10
23.0171459802
 20
-106.3602506483
 10
22.856274998
 20
-103.9405094257
 10
22.0608066619
 20
-101.6302878478
 10
20.6069565854
 20
-99.3941824596
 10
18.6174986964
 20
-97.4406352757
 10
16.0334922148
 20
-95.7076463141
 10
13.086851714
 20
-94.3362409504
 10
9.6825893438
 20
-93.2919674692
 10
6.1078352348
 20
-92.6627535372
 10
2.2585198822
 20
-92.4061255912
 10
-1.565673086
 20
-92.5170637368
 10
-5.4562122959
 20
-92.9863109953
 10
-9.0865533585
 20
-93.777472008
 10
-12.5602832448
 20
-94.9256568189
 10
-16.2917402385
 20
-96.7178777332
 10
-16.2917402385
 20
-96.7178777332
  0
LWPOLYLINE
  5
7A
330
1F
100
AcDbEntity
  8
0
  6
Continuous
 62
     7
370
    25
100
AcDbPolyline
 90
       19
 70
   128
 43
0.0
 10
20.4181403414
 20
-112.2362629375
 10
19.8314963022
 20
-111.6278060414
 10
18.2051714851
 20
-110.2463194283
 10
16.2917402385
 20
-108.9933962752
 10
14.1213785162
 20
-107.8887959287
 10
11.7283142189
 20
-106.9499385959
 10
9.1502874002
 20
-106.191630618
 10
6.4279550831
 20
-105.6258309647
 10
3.6042500745
 20
-105.2614626346
 10
0.7237038892
 20
-105.1042719339
 10
-2.1682555389
 20
-105.1567378538
 10
-5.0260202818
 20
-105.4180329755
 10
-7.8045216825
 20
-105.8840365187
 10
-10.459941114
 20
-106.5473993293
 10
-12.9504010257
 20
-107.3976597794
 10
-15.2366253771
 20
-108.4214087538
 10
-17.2825590443
 20
-109.6025011196
 10
-19.0559364313
 20
-110.9223103447
 10
-20.0570092022
 20
-111.8529326556
  0
LWPOLYLINE
  5
7B
330
1B
100
AcDbEntity
 67
     1
  8
0
  6
Continuous
 62
     7
370
    25
100
AcDbPolyline
 90
       95
 70
   128
 43
0.0
 10
-290.0
 20
0.0
 10
-289.4155725304
 20
-12.3069227145
 10
-287.6775994761
 20
-24.5546795057
 10
-284.8090448687
 20
-36.6841044503
 10
-280.8328727399
 20
-48.6360316251
 10
-275.7711591383
 20
-60.3548476531
 10
-269.6400768022
 20
-71.8085564859
 10
-262.4533902603
 20
-82.9747965807
 10
-253.3452316928
 20
-94.8989797112
 10
-242.9982456625
 20
-106.4152765871
 10
-231.4611068333
 20
-117.4652953087
 10
-218.7949470903
 20
-127.9788829897
 10
-205.0609665441
 20
-137.8858223314
 10
-189.4045893288
 20
-147.6577696529
 10
-172.7404655435
 20
-156.619224257
 10
-155.1931813536
 20
-164.7210895759
 10
-136.8863803569
 20
-171.9147204432
 10
-117.912566519
 20
-178.1663846615
 10
-98.3267156615
 20
-183.4603225012
 10
-79.3468671896
 20
-187.5613521012
 10
-59.9199664418
 20
-190.7849393113
 10
-40.1418362151
 20
-193.1129380857
 10
-20.1294756835
 20
-194.5248091194
 10
0.0000000006
 20
-195.0
 10
21.3468585125
 20
-194.4656983299
 10
42.5539916116
 20
-192.8791401616
 10
63.4816738849
 20
-190.2648457578
 10
83.9913211068
 20
-186.6472064093
 10
103.9820504958
 20
-182.0463525587
 10
123.3984154279
 20
-176.4772796577
 10
141.1318159809
 20
-170.3528282072
 10
158.2586164628
 20
-163.3953720834
 10
174.6919776386
 20
-155.6376408017
 10
190.3275695745
 20
-147.1207402849
 10
205.0609665441
 20
-137.8858223314
 10
217.5896086199
 20
-128.9056370581
 10
229.240352219
 20
-119.4188139912
 10
239.9672167925
 20
-109.4781084267
 10
249.7242217915
 20
-99.1362756603
 10
258.4684946075
 20
-88.4431367504
 10
266.1778242181
 20
-77.4290059453
 10
272.8384283353
 20
-66.1162398411
 10
278.0109560879
 20
-55.5029354853
 10
282.2799145305
 20
-44.6754300914
 10
285.630919696
 20
-33.6660774604
 10
288.0463944305
 20
-22.5200063505
 10
289.5086505824
 20
-11.282789588
 10
290.0
 20
0.0000000009
 10
289.4155725303
 20
12.3069227153
 10
287.6775994759
 20
24.5546795065
 10
284.8090448684
 20
36.6841044511
 10
280.8328727396
 20
48.6360316258
 10
275.771159138
 20
60.3548476537
 10
269.640076802
 20
71.8085564863
 10
262.4533902601
 20
82.974796581
 10
253.3452316927
 20
94.8989797114
 10
242.9982456624
 20
106.4152765871
 10
231.4611068333
 20
117.4652953087
 10
218.7949470903
 20
127.9788829897
 10
205.0609665441
 20
137.8858223314
 10
189.4045893288
 20
147.6577696529
 10
172.7404655435
 20
156.619224257
 10
155.1931813536
 20
164.7210895759
 10
136.886380357
 20
171.9147204432
 10
117.9125665192
 20
178.1663846614
 10
98.3267156618
 20
183.4603225011
 10
79.34686719
 20
187.5613521011
 10
59.9199664423
 20
190.7849393112
 10
40.1418362156
 20
193.1129380856
 10
20.129475684
 20
194.5248091193
 10
0.0
 20
195.0
 10
-21.3468585119
 20
194.46569833
 10
-42.553991611
 20
192.8791401617
 10
-63.4816738844
 20
190.2648457579
 10
-83.9913211064
 20
186.6472064094
 10
-103.9820504955
 20
182.0463525588
 10
-123.3984154277
 20
176.4772796578
 10
-141.1318159808
 20
170.3528282072
 10
-158.2586164628
 20
163.3953720834
 10
-174.6919776386
 20
155.6376408017
 10
-190.3275695745
 20
147.1207402849
 10
-205.0609665441
 20
137.8858223314
 10
-217.5896086199
 20
128.9056370581
 10
-229.240352219
 20
119.4188139913
 10
-239.9672167925
 20
109.4781084267
 10
-249.7242217915
 20
99.1362756604
 10
-258.4684946073
 20
88.4431367507
 10
-266.1778242179
 20
77.4290059457
 10
-272.838428335
 20
66.1162398416
 10
-278.0109560875
 20
55.5029354859
 10
-282.2799145302
 20
44.6754300921
 10
-285.6309196957
 20
33.6660774612
 10
-288.0463944303
 20
22.5200063514
 10
-289.5086505823
 20
11.2827895888
 10
-290.0
 20
0.0
  0
SPLINE
  5
7C
330
1B
100
AcDbEntity
 67
     1
  8
0
  6
Continuous
 62
     7
370
    25
100
AcDbSpline
210
0.0
220
0.0
230
1.0
 70
    11
 71
     3
 72
    51
 73
    47
 74
     0
 42
0.000000001
 43
0.00000001
 40
0.0
 40
0.0
 40
0.0
 40
0.0
 40
0.0310648973638021
 40
0.0623486162817331
 40
0.0775024269656176
 40
0.0936042455768724
 40
0.1078686634006422
 40
0.1247316746622769
 40
0.1403211871224075
 40
0.1560249094152767
 40
0.1871938616271204
 40
0.2185824363675491
 40
0.2498802169133889
 40
0.2812517254276339
 40
0.312618883374355
 40
0.3437853115353245
 40
0.3594426521010968
 40
0.3750977238745066
 40
0.3906281590550712
 40
0.4061989857539554
 40
0.4219001648669791
 40
0.4375005927418684
 40
0.4687508802820736
 40
0.5001000012670569
 40
0.5312406688530128
 40
0.5625124498415466
 40
0.5775775929910223
 40
0.593644012920701
 40
0.60930017066454
 40
0.6249241042360953
 40
0.6404524683242304
 40
0.6560463303685496
 40
0.6873474265488381
 40
0.7186941293266048
 40
0.7499546113113535
 40
0.7813808102042604
 40
0.8126217571176421
 40
0.8439365197792494
 40
0.8594744481028963
 40
0.8750946040212967
 40
0.8929819885268114
 40
0.9063028870347297
 40
0.9218779572115718
 40
0.9375869165253549
 40
0.9687383320091949
 40
1.0
 40
1.0
 40
1.0
 40
1.0
 10
-35.07727139900982
 20
0.0000000000000064
 30
0.0
 10
-35.07729941705229
 20
2.24960611926543
 30
0.0
 10
-34.5946107574968
 20
6.76457150106694
 30
0.0
 10
-32.88861094705148
 20
12.14366021828759
 30
0.0
 10
-30.90771222864744
 20
16.21405497203235
 30
0.0
 10
-29.17519064101616
 20
19.01916839607507
 30
0.0
 10
-27.10398265246702
 20
21.73876901629385
 30
0.0
 10
-24.79187064907779
 20
24.20950168892264
 30
0.0
 10
-22.15754422279429
 20
26.49355121043036
 30
0.0
 10
-18.46423524360753
 20
29.10162556027766
 30
0.0
 10
-13.38275817414687
 20
31.67187322948351
 30
0.0
 10
-6.831239369907833
 20
33.57653074213304
 30
0.0
 10
-0.0210404239761204
 20
34.24502715404387
 30
0.0
 10
6.788722017276352
 20
33.58513230362395
 30
0.0
 10
13.34558678648162
 20
31.68625352286888
 30
0.0
 10
18.4254997731109
 20
29.12418912233613
 30
0.0
 10
22.12319179437338
 20
26.52044723968571
 30
0.0
 10
24.68889132788772
 20
24.30205037945617
 30
0.0
 10
27.0147250145699
 20
21.84220964119983
 30
0.0
 10
29.08364519622605
 20
19.15824046658036
 30
0.0
 10
30.87386808334995
 20
16.27426586484235
 30
0.0
 10
32.86604996924092
 20
12.20780752350418
 30
0.0
 10
34.59259591891416
 20
6.782249419566083
 30
0.0
 10
35.32060862067674
 20
-0.0067580409982699
 30
0.0
 10
34.58834512602569
 20
-6.796021616180979
 30
0.0
 10
32.87735157735558
 20
-12.17158520988233
 30
0.0
 10
30.89736384199772
 20
-16.23141252317017
 30
0.0
 10
29.11604526368568
 20
-19.11412623468789
 30
0.0
 10
27.02523009708919
 20
-21.83096471935536
 30
0.0
 10
24.69712667321469
 20
-24.29399330029428
 30
0.0
 10
22.13743124030013
 20
-26.50845634965265
 30
0.0
 10
18.44535467484926
 20
-29.11308632288249
 30
0.0
 10
13.36338491384019
 20
-31.68011358565
 30
0.0
 10
6.806845909506443
 20
-33.58070926043679
 30
0.0
 10
-0.0018579031876059
 20
-34.24516273310075
 30
0.0
 10
-6.803535465795244
 20
-33.58176180872407
 30
0.0
 10
-13.36461373243119
 20
-31.67893879212425
 30
0.0
 10
-18.43743452284059
 20
-29.11755606207208
 30
0.0
 10
-22.13318619457902
 20
-26.51191010535814
 30
0.0
 10
-24.81914361800102
 20
-24.18919152843506
 30
0.0
 10
-27.13141402605703
 20
-21.70611852196479
 30
0.0
 10
-29.17685383945654
 20
-19.00836281674666
 30
0.0
 10
-30.87983503652149
 20
-16.26337690196027
 30
0.0
 10
-32.86745485959256
 20
-12.20400820495172
 30
0.0
 10
-34.59088191621088
 20
-6.783676298985174
 30
0.0
 10
-35.07724320349602
 20
-2.263855527573889
 30
0.0
 10
-35.07727139900981
 20
0.0000000000000064
 30
0.0
  0
SPLINE
  5
7D
330
1B
100
AcDbEntity
 67
     1
  8
0
  6
Continuous
 62
     7
370
    25
100
AcDbSpline
210
0.0
220
0.0
230
1.0
 70
    11
 71
     3
 72
   122
 73
   118
 74
     0
 42
0.000000001
 43
0.00000001
 40
0.0
 40
0.0
 40
0.0
 40
0.0
 40
0.0312499999999999
 40
0.0312499999999999
 40
0.0468749999999999
 40
0.0468749999999999
 40
0.0624999999999998
 40
0.0624999999999998
 40
0.0937499999999997
 40
0.0937499999999997
 40
0.1093749999999996
 40
0.1093749999999996
 40
0.1249999999999996
 40
0.1249999999999996
 40
0.1562499999999995
 40
0.1562499999999995
 40
0.1718749999999995
 40
0.1718749999999995
 40
0.1874999999999994
 40
0.1874999999999994
 40
0.2031249999999994
 40
0.2031249999999994
 40
0.2109374999999994
 40
0.2109374999999994
 40
0.2187499999999993
 40
0.2187499999999993
 40
0.2499999999999993
 40
0.2499999999999993
 40
0.2656249999999992
 40
0.2656249999999992
 40
0.2734374999999992
 40
0.2734374999999992
 40
0.2812499999999992
 40
0.2812499999999992
 40
0.3124999999999992
 40
0.3124999999999992
 40
0.3203124999999992
 40
0.3203124999999992
 40
0.3281249999999991
 40
0.3281249999999991
 40
0.3437499999999991
 40
0.3437499999999991
 40
0.3749999999999991
 40
0.3749999999999991
 40
0.3828124999999992
 40
0.3828124999999992
 40
0.3906249999999992
 40
0.3906249999999992
 40
0.4062499999999993
 40
0.4062499999999993
 40
0.4218749999999994
 40
0.4218749999999994
 40
0.4374999999999994
 40
0.4374999999999994
 40
0.4687499999999996
 40
0.4687499999999996
 40
0.4843749999999997
 40
0.4843749999999997
 40
0.4999999999999998
 40
0.4999999999999998
 40
0.5312499999999999
 40
0.5312499999999999
 40
0.546875
 40
0.546875
 40
0.5625
 40
0.5625
 40
0.5781250000000001
 40
0.5781250000000001
 40
0.5859375000000002
 40
0.5859375000000002
 40
0.5937500000000003
 40
0.5937500000000003
 40
0.6250000000000004
 40
0.6250000000000004
 40
0.6406250000000006
 40
0.6406250000000006
 40
0.6484375000000006
 40
0.6484375000000006
 40
0.6562500000000007
 40
0.6562500000000007
 40
0.6875000000000008
 40
0.6875000000000008
 40
0.6953125000000008
 40
0.6953125000000008
 40
0.7031250000000008
 40
0.7031250000000008
 40
0.7187500000000008
 40
0.7187500000000008
 40
0.7500000000000007
 40
0.7500000000000007
 40
0.7578125000000007
 40
0.7578125000000007
 40
0.7656250000000007
 40
0.7656250000000007
 40
0.7812500000000006
 40
0.7812500000000006
 40
0.7968750000000006
 40
0.7968750000000006
 40
0.8125000000000004
 40
0.8125000000000004
 40
0.8437500000000003
 40
0.8437500000000003
 40
0.8593750000000002
 40
0.8593750000000002
 40
0.8750000000000002
 40
0.8750000000000002
 40
0.9062500000000001
 40
0.9062500000000001
 40
0.9218750000000001
 40
0.9218750000000001
 40
0.9375
 40
0.9375
 40
0.953125
 40
0.953125
 40
0.96875
 40
0.96875
 40
1.0
 40
1.0
 40
1.0
 40
1.0
 10
-23.04000000000001
 20
0.0000000000000061
 30
0.0
 10
-23.04000000000001
 20
-1.523178665489497
 30
0.0
 10
-22.8904614433649
 20
-3.019599974727293
 30
0.0
 10
-22.45195421285033
 20
-5.226256241178727
 30
0.0
 10
-22.26981441477779
 20
-5.955427641504856
 30
0.0
 10
-21.8320949791804
 20
-7.400768965579872
 30
0.0
 10
-21.57478951931987
 20
-8.120477644810276
 30
0.0
 10
-20.70621686704564
 20
-10.21677948211403
 30
0.0
 10
-19.99796401156617
 20
-11.54063535796873
 30
0.0
 10
-18.74509091107731
 20
-13.4174876189181
 30
0.0
 10
-18.29525889635257
 20
-14.0251114927088
 30
0.0
 10
-17.3303160255124
 20
-15.20132878808126
 30
0.0
 10
-16.82286890056955
 20
-15.76063972486392
 30
0.0
 10
-15.22818826287784
 20
-17.35523588319054
 30
0.0
 10
-14.06931115465986
 20
-18.30797041259619
 30
0.0
 10
-12.18454251962373
 20
-19.56910697595229
 30
0.0
 10
-11.52975976934289
 20
-19.96185492992787
 30
0.0
 10
-10.19889135188762
 20
-20.67350061732738
 30
0.0
 10
-9.519600522616827
 20
-20.99479843413081
 30
0.0
 10
-8.133726764272815
 20
-21.56958145917857
 30
0.0
 10
-7.427139124650987
 20
-21.82306650758767
 30
0.0
 10
-6.34653418716213
 20
-22.15185907895906
 30
0.0
 10
-5.982872545946503
 20
-22.25286885459682
 30
0.0
 10
-5.248513209583882
 20
-22.43742510293348
 30
0.0
 10
-4.876783719763939
 20
-22.52116521241146
 30
0.0
 10
-3.014077985024171
 20
-22.89248272873822
 30
0.0
 10
-1.517503211191361
 20
-23.03903310596212
 30
0.0
 10
0.736623767839873
 20
-23.04047636308877
 30
0.0
 10
1.489554359901687
 20
-23.0042952257181
 30
0.0
 10
2.621352177762193
 20
-22.89353195808624
 30
0.0
 10
3.000004312570866
 20
-22.84700352226971
 30
0.0
 10
3.7507514470329
 20
-22.73581886373634
 30
0.0
 10
4.123354836374111
 20
-22.6711659755101
 30
0.0
 10
5.972765283553935
 20
-22.30343524213243
 30
0.0
 10
7.409127240520874
 20
-21.8682296402829
 30
0.0
 10
9.150740219301696
 20
-21.14822966746869
 30
0.0
 10
9.496347920086386
 20
-20.9953503851866
 30
0.0
 10
10.18204104487613
 20
-20.67151184061152
 30
0.0
 10
10.52254406233927
 20
-20.50027023311037
 30
0.0
 10
11.52460934373763
 20
-19.96493506555745
 30
0.0
 10
12.17040994624049
 20
-19.57769395921144
 30
0.0
 10
14.04305081900063
 20
-18.32724310351506
 30
0.0
 10
15.20575354691872
 20
-17.37617961329284
 30
0.0
 10
16.54863498479607
 20
-16.03522185908801
 30
0.0
 10
16.81124042386506
 20
-15.75966064131607
 30
0.0
 10
17.31955845749195
 20
-15.19926323727438
 30
0.0
 10
17.56599997547697
 20
-14.9137140324123
 30
0.0
 10
18.28253364883117
 20
-14.0412623683012
 30
0.0
 10
18.7298889495542
 20
-13.43859233004818
 30
0.0
 10
19.56450400666031
 20
-12.19158262282772
 30
0.0
 10
19.95176485517585
 20
-11.54724347850858
 30
0.0
 10
20.66501053811551
 20
-10.21611923617592
 30
0.0
 10
20.99231130233879
 20
-9.525583505965448
 30
0.0
 10
21.86176216218209
 20
-7.429270148397608
 30
0.0
 10
22.29790225266782
 20
-5.9924432947008
 30
0.0
 10
22.74039860573568
 20
-3.779143637080831
 30
0.0
 10
22.85236340321872
 20
-3.031628169126426
 30
0.0
 10
23.00265289507273
 20
-1.516325247898259
 30
0.0
 10
23.03972341548706
 20
-0.7609370667370767
 30
0.0
 10
23.04054855211459
 20
1.496610685635558
 30
0.0
 10
22.89504721110281
 20
2.991147591003644
 30
0.0
 10
22.45429452625172
 20
5.217125166774323
 30
0.0
 10
22.26896674975125
 20
5.95863180443126
 30
0.0
 10
21.83086055013185
 20
7.404437907296081
 30
0.0
 10
21.57756929001472
 20
8.112551543519679
 30
0.0
 10
21.00379902367483
 20
9.499758711921409
 30
0.0
 10
20.68331870628069
 20
10.17884996173355
 30
0.0
 10
20.15172053366603
 20
11.17548765581567
 30
0.0
 10
19.96602866344007
 20
11.50402346272891
 30
0.0
 10
19.57738982931917
 20
12.15362760212763
 30
0.0
 10
19.37385393204962
 20
12.4755564122249
 30
0.0
 10
18.32002349042061
 20
14.05433466623219
 30
0.0
 10
17.36637223552049
 20
15.21525129639847
 30
0.0
 10
15.77565041349783
 20
16.80874008335867
 30
0.0
 10
15.21850326927266
 20
17.31507969585444
 30
0.0
 10
14.34131395008543
 20
18.03639711369066
 30
0.0
 10
14.04116437648864
 20
18.27104193223982
 30
0.0
 10
13.43256273972488
 20
18.72302135288518
 30
0.0
 10
13.12380980919069
 20
18.94067437828046
 30
0.0
 10
11.55815344944936
 20
19.988035567027
 30
0.0
 10
10.23622684347221
 20
20.69620987900812
 30
0.0
 10
8.496494726453985
 20
21.41945768623766
 30
0.0
 10
8.144145990919565
 20
21.55593288015924
 30
0.0
 10
7.430468576680496
 20
21.81223264561207
 30
0.0
 10
7.068462118316736
 20
21.93221609750476
 30
0.0
 10
5.980615445214099
 20
22.26316414078125
 30
0.0
 10
5.249585072841704
 20
22.44655412649585
 30
0.0
 10
3.039572079541377
 20
22.8879868912955
 30
0.0
 10
1.543821765693425
 20
23.03833714412545
 30
0.0
 10
-0.3546814648654121
 20
23.04039873372733
 30
0.0
 10
-0.7358765777536317
 20
23.03136119068767
 30
0.0
 10
-1.492651239777707
 20
22.99471906568966
 30
0.0
 10
-1.86930590237505
 20
22.96713365741187
 30
0.0
 10
-2.994151171030007
 20
22.85704247581742
 30
0.0
 10
-3.737234781451258
 20
22.7472659839662
 30
0.0
 10
-5.209908526461483
 20
22.45577624360598
 30
0.0
 10
-5.939499448851063
 20
22.27406412699732
 30
0.0
 10
-7.384945010874676
 20
21.83744888082966
 30
0.0
 10
-8.104498133927615
 20
21.58079795892686
 30
0.0
 10
-10.20149788385792
 20
20.71375299440137
 30
0.0
 10
-11.52508905344363
 20
20.00684303000092
 30
0.0
 10
-13.40156888348564
 20
18.75645256679458
 30
0.0
 10
-14.00878296428641
 20
18.30775302228409
 30
0.0
 10
-15.18543518484963
 20
17.34423186861166
 30
0.0
 10
-15.74543048017186
 20
16.83710749702686
 30
0.0
 10
-17.34158647721001
 20
15.24374159919078
 30
0.0
 10
-18.29554905132953
 20
14.08548175020062
 30
0.0
 10
-19.55850270814276
 20
12.20156340891536
 30
0.0
 10
-19.95212613170774
 20
11.54662901439947
 30
0.0
 10
-20.66546334591393
 20
10.21521431348526
 30
0.0
 10
-20.98749280490906
 20
9.535720548525326
 30
0.0
 10
-21.56355899910646
 20
8.149708209974879
 30
0.0
 10
-21.81759504114486
 20
7.443188341138542
 30
0.0
 10
-22.25700283055954
 20
6.002860240045152
 30
0.0
 10
-22.44275847412408
 20
5.267115628197736
 30
0.0
 10
-22.89046873330912
 20
3.03006617816959
 30
0.0
 10
-23.04
 20
1.523178665489513
 30
0.0
 10
-23.04000000000001
 20
0.0000000000000081
 30
0.0
  0
VIEWPORT
  5
E4
330
1B
100
AcDbEntity
 67
     1
  8
0
100
AcDbViewport
 10
0.0
 20
0.0
 30
0.0
 40
205.6
 41
156.0
 68
     1
 69
     1
 12
0.0
 22
-17.1296344974
 13
0.0
 23
0.0
 14
10.0
 24
10.0
 15
10.0
 25
10.0
 16
0.0
 26
0.0
 36
1.0
 17
0.0
 27
0.0
 37
0.0
 42
50.0
 43
0.0
 44
0.0
 45
382.433885339
 50
0.0
 51
0.0
 72
   100
 90
   557152
  1

281
     0
 71
     1
 74
     0
110
0.0
120
0.0
130
0.0
111
1.0
121
0.0
131
0.0
112
0.0
122
1.0
132
0.0
 79
     0
146
0.0
170
     0
 61
     5
348
2F
292
     1
282
     1
141
0.0
142
0.0
 63
   256
361
E5
  0
ENDSEC
  0
SECTION
  2
OBJECTS
  0
DICTIONARY
  5
C
330
0
100
AcDbDictionary
281
     1
  3
ACAD_DETAILVIEWSTYLE
350
100
  3
ACAD_GROUP
350
D
  3
ACAD_LAYOUT
350
1A
  3
ACAD_MATERIAL
350
43
  3
ACAD_MLEADERSTYLE
350
6B
  3
ACAD_MLINESTYLE
350
17
  3
ACAD_PLOTSETTINGS
350
19
  3
ACAD_PLOTSTYLENAME
350
E
  3
ACAD_SCALELIST
350
47
  3
ACAD_SECTIONVIEWSTYLE
350
101
  3
ACAD_TABLESTYLE
350
69
  3
ACAD_VISUALSTYLE
350
2A
  3
ACDB_RECOMPOSE_DATA
350
FD
  3
AcDbVariableDictionary
350
F8
  0
SUN
  5
6D
330
29
100
AcDbSun
 90
        1
290
     0
 63
     7
421
 16777215
 40
1.0
291
     1
 91
  2455826
 92
 54000000
292
     0
 70
     2
 71
   256
280
     1
  0
SUN
  5
E7
330
E6
100
AcDbSun
 90
        1
290
     0
 63
     7
421
 16777215
 40
1.0
291
     1
 91
  2455826
 92
 54000000
292
     0
 70
     2
 71
   256
280
     1
  0
SUN
  5
E9
330
E8
100
AcDbSun
 90
        1
290
     0
 63
     7
421
 16777215
 40
1.0
291
     1
 91
  2455826
 92
 54000000
292
     0
 70
     2
 71
   256
280
     1
  0
SUN
  5
EB
330
EA
100
AcDbSun
 90
        1
290
     0
 63
     7
421
 16777215
 40
1.0
291
     1
 91
  2455826
 92
 54000000
292
     0
 70
     2
 71
   256
280
     1
  0
SUN
  5
ED
330
EC
100
AcDbSun
 90
        1
290
     0
 63
     7
421
 16777215
 40
1.0
291
     1
 91
  2455826
 92
 54000000
292
     0
 70
     2
 71
   256
280
     1
  0
SUN
  5
EF
330
EE
100
AcDbSun
 90
        1
290
     0
 63
     7
421
 16777215
 40
1.0
291
     1
 91
  2455826
 92
 54000000
292
     0
 70
     2
 71
   256
280
     1
  0
SUN
  5
F1
330
F0
100
AcDbSun
 90
        1
290
     0
 63
     7
421
 16777215
 40
1.0
291
     1
 91
  2455826
 92
 54000000
292
     0
 70
     2
 71
   256
280
     1
  0
SUN
  5
F3
330
F2
100
AcDbSun
 90
        1
290
     0
 63
     7
421
 16777215
 40
1.0
291
     1
 91
  2455826
 92
 54000000
292
     0
 70
     2
 71
   256
280
     1
  0
SUN
  5
F5
330
F4
100
AcDbSun
 90
        1
290
     0
 63
     7
421
 16777215
 40
1.0
291
     1
 91
  2455826
 92
 54000000
292
     0
 70
     2
 71
   256
280
     1
  0
SUN
  5
F7
330
F6
100
AcDbSun
 90
        1
290
     0
 63
     7
421
 16777215
 40
1.0
291
     1
 91
  2455826
 92
 54000000
292
     0
 70
     2
 71
   256
280
     1
  0
SUN
  5
E5
330
E4
100
AcDbSun
 90
        1
290
     0
 63
     7
421
 16777215
 40
1.0
291
     1
 91
  2455826
 92
 54000000
292
     0
 70
     2
 71
   256
280
     1
  0
DICTIONARY
  5
100
102
{ACAD_REACTORS
330
C
102
}
330
C
100
AcDbDictionary
281
     1
  0
DICTIONARY
  5
D
102
{ACAD_REACTORS
330
C
102
}
330
C
100
AcDbDictionary
281
     1
  0
DICTIONARY
  5
1A
102
{ACAD_REACTORS
330
C
102
}
330
C
100
AcDbDictionary
281
     1
  3
_Dimetrisch
350
DC
  3
_Isometrisch
350
C5
  3
_Links
350
87
  3
_Normal auf
350
98
  3
_Oben
350
1E
  3
_Rechts
350
B0
  3
_Rückseite
350
A4
  3
_Trimetrisch
350
D1
  3
_Unten
350
BD
  3
_Vorderseite
350
26
  3
Model
350
22
  0
DICTIONARY
  5
43
102
{ACAD_REACTORS
330
C
102
}
330
C
100
AcDbDictionary
281
     1
  3
ByBlock
350
45
  3
ByLayer
350
44
  3
Global
350
46
  0
DICTIONARY
  5
6B
102
{ACAD_REACTORS
330
C
102
}
330
C
100
AcDbDictionary
281
     1
  3
Standard
350
6C
  0
DICTIONARY
  5
17
102
{ACAD_REACTORS
330
C
102
}
330
C
100
AcDbDictionary
281
     1
  3
Standard
350
18
  0
DICTIONARY
  5
19
102
{ACAD_REACTORS
330
C
102
}
330
C
100
AcDbDictionary
281
     1
  0
ACDBDICTIONARYWDFLT
  5
E
102
{ACAD_REACTORS
330
C
102
}
330
C
100
AcDbDictionary
281
     1
  3
Normal
350
F
100
AcDbDictionaryWithDefault
340
F
  0
DICTIONARY
  5
47
102
{ACAD_REACTORS
330
C
102
}
330
C
100
AcDbDictionary
281
     1
  3
A0
350
48
  3
A1
350
49
  3
A2
350
4A
  3
A3
350
4B
  3
A4
350
4C
  3
A5
350
4D
  3
A6
350
4E
  3
A7
350
4F
  3
A8
350
50
  3
A9
350
51
  3
B0
350
52
  3
B1
350
53
  3
B2
350
54
  3
B3
350
55
  3
B4
350
56
  3
B5
350
57
  3
B6
350
58
  3
B7
350
59
  3
B8
350
5A
  3
B9
350
5B
  3
C0
350
5C
  3
C1
350
5D
  3
C2
350
5E
  3
C3
350
5F
  3
C4
350
60
  3
C5
350
61
  3
C6
350
62
  3
C7
350
63
  3
C8
350
64
  3
C9
350
65
  3
D0
350
66
  3
D1
350
67
  3
D2
350
68
  0
DICTIONARY
  5
101
102
{ACAD_REACTORS
330
C
102
}
330
C
100
AcDbDictionary
281
     1
  0
DICTIONARY
  5
69
102
{ACAD_REACTORS
330
C
102
}
330
C
100
AcDbDictionary
281
     1
  3
Standard
350
6A
  0
DICTIONARY
  5
2A
102
{ACAD_REACTORS
330
C
102
}
330
C
100
AcDbDictionary
281
     1
  3
2dWireframe
350
2F
  3
Basic
350
32
  3
Brighten
350
36
  3
ColorChange
350
3A
  3
Conceptual
350
34
  3
Dim
350
35
  3
EdgeColorOff
350
3D
  3
Facepattern
350
39
  3
Flat
350
2B
  3
FlatWithEdges
350
2C
  3
Gouraud
350
2D
  3
GouraudWithEdges
350
2E
  3
Hidden
350
31
  3
JitterOff
350
3B
  3
Linepattern
350
38
  3
OverhangOff
350
3C
  3
Realistic
350
33
  3
Shaded
350
42
  3
Shaded with edges
350
41
  3
Shades of Gray
350
3E
  3
Sketchy
350
3F
  3
Thicken
350
37
  3
Wireframe
350
30
  3
X-Ray
350
40
  0
XRECORD
  5
FD
102
{ACAD_REACTORS
330
C
102
}
330
C
100
AcDbXrecord
280
     1
 90
        1
330
6A
  0
DICTIONARY
  5
F8
102
{ACAD_REACTORS
330
C
102
}
330
C
100
AcDbDictionary
281
     1
  3
CANNOSCALE
350
F9
  3
CMLEADERSTYLE
350
FF
  3
CTABLESTYLE
350
FE
  0
LAYOUT
  5
DC
102
{ACAD_REACTORS
330
1A
102
}
330
1A
100
AcDbPlotSettings
  1

  2
none_device
  4
ISO_A4_(210.00_x_297.00_MM)
  6

 40
7.5
 41
20.0
 42
7.5
 43
20.0
 44
210.0
 45
297.0
 46
0.0
 47
0.0
 48
0.0
 49
0.0
140
0.0
141
0.0
142
1.0
143
2.2568093385
 70
   688
 72
     1
 73
     1
 74
     1
  7

 75
     0
 76
     0
 77
     2
 78
   300
147
0.4431034483
148
290.0
149
195.0
100
AcDbLayout
  1
_Dimetrisch
 70
     1
 71
    10
 10
0.0
 20
0.0
 11
0.0
 21
0.0
 12
0.0
 22
0.0
 32
0.0
 14
0.0
 24
0.0
 34
0.0
 15
0.0
 25
0.0
 35
0.0
146
0.0
 13
0.0
 23
0.0
 33
0.0
 16
1.0
 26
0.0
 36
0.0
 17
0.0
 27
1.0
 37
0.0
 76
     0
330
DB
331
F6
  0
LAYOUT
  5
C5
102
{ACAD_REACTORS
330
1A
102
}
330
1A
100
AcDbPlotSettings
  1

  2
none_device
  4
ISO_A4_(210.00_x_297.00_MM)
  6

 40
7.5
 41
20.0
 42
7.5
 43
20.0
 44
210.0
 45
297.0
 46
0.0
 47
0.0
 48
0.0
 49
0.0
140
0.0
141
0.0
142
1.0
143
2.2568093385
 70
   688
 72
     1
 73
     1
 74
     1
  7

 75
     0
 76
     0
 77
     2
 78
   300
147
0.4431034483
148
290.0
149
195.0
100
AcDbLayout
  1
_Isometrisch
 70
     1
 71
     8
 10
0.0
 20
0.0
 11
0.0
 21
0.0
 12
0.0
 22
0.0
 32
0.0
 14
0.0
 24
0.0
 34
0.0
 15
0.0
 25
0.0
 35
0.0
146
0.0
 13
0.0
 23
0.0
 33
0.0
 16
1.0
 26
0.0
 36
0.0
 17
0.0
 27
1.0
 37
0.0
 76
     0
330
C4
331
F2
  0
LAYOUT
  5
87
102
{ACAD_REACTORS
330
1A
102
}
330
1A
100
AcDbPlotSettings
  1

  2
none_device
  4
ISO_A4_(210.00_x_297.00_MM)
  6

 40
7.5
 41
20.0
 42
7.5
 43
20.0
 44
210.0
 45
297.0
 46
0.0
 47
0.0
 48
0.0
 49
0.0
140
0.0
141
0.0
142
1.0
143
2.2568093385
 70
   688
 72
     1
 73
     1
 74
     1
  7

 75
     0
 76
     0
 77
     2
 78
   300
147
0.4431034483
148
290.0
149
195.0
100
AcDbLayout
  1
_Links
 70
     1
 71
     3
 10
0.0
 20
0.0
 11
0.0
 21
0.0
 12
0.0
 22
0.0
 32
0.0
 14
0.0
 24
0.0
 34
0.0
 15
0.0
 25
0.0
 35
0.0
146
0.0
 13
0.0
 23
0.0
 33
0.0
 16
1.0
 26
0.0
 36
0.0
 17
0.0
 27
1.0
 37
0.0
 76
     0
330
86
331
E8
  0
LAYOUT
  5
98
102
{ACAD_REACTORS
330
1A
102
}
330
1A
100
AcDbPlotSettings
  1

  2
none_device
  4
ISO_A4_(210.00_x_297.00_MM)
  6

 40
7.5
 41
20.0
 42
7.5
 43
20.0
 44
210.0
 45
297.0
 46
0.0
 47
0.0
 48
0.0
 49
0.0
140
0.0
141
0.0
142
1.0
143
2.2568093385
 70
   688
 72
     1
 73
     1
 74
     1
  7

 75
     0
 76
     0
 77
     2
 78
   300
147
0.4431034483
148
290.0
149
195.0
100
AcDbLayout
  1
_Normal auf
 70
     1
 71
     4
 10
0.0
 20
0.0
 11
0.0
 21
0.0
 12
0.0
 22
0.0
 32
0.0
 14
0.0
 24
0.0
 34
0.0
 15
0.0
 25
0.0
 35
0.0
146
0.0
 13
0.0
 23
0.0
 33
0.0
 16
1.0
 26
0.0
 36
0.0
 17
0.0
 27
1.0
 37
0.0
 76
     0
330
97
331
EA
  0
LAYOUT
  5
1E
102
{ACAD_REACTORS
330
1A
102
}
330
1A
100
AcDbPlotSettings
  1

  2
none_device
  4
ISO_A4_(210.00_x_297.00_MM)
  6

 40
7.5
 41
20.0
 42
7.5
 43
20.0
 44
210.0
 45
297.0
 46
0.0
 47
0.0
 48
0.0
 49
0.0
140
0.0
141
0.0
142
1.0
143
2.2568093385
 70
   688
 72
     1
 73
     1
 74
     1
  7

 75
     0
 76
     0
 77
     2
 78
   300
147
0.4431034483
148
290.0
149
195.0
100
AcDbLayout
  1
_Oben
 70
     1
 71
     1
 10
-335.1361867704
 20
-211.9260700389
 11
335.1361867704
 21
262.0038910506
 12
0.0
 22
0.0
 32
0.0
 14
-290.0
 24
-195.0
 34
0.0
 15
290.0
 25
195.0
 35
0.0
146
0.0
 13
0.0
 23
0.0
 33
0.0
 16
1.0
 26
0.0
 36
0.0
 17
0.0
 27
1.0
 37
0.0
 76
     0
330
1B
331
E4
  0
LAYOUT
  5
B0
102
{ACAD_REACTORS
330
1A
102
}
330
1A
100
AcDbPlotSettings
  1

  2
none_device
  4
ISO_A4_(210.00_x_297.00_MM)
  6

 40
7.5
 41
20.0
 42
7.5
 43
20.0
 44
210.0
 45
297.0
 46
0.0
 47
0.0
 48
0.0
 49
0.0
140
0.0
141
0.0
142
1.0
143
2.2568093385
 70
   688
 72
     1
 73
     1
 74
     1
  7

 75
     0
 76
     0
 77
     2
 78
   300
147
0.4431034483
148
290.0
149
195.0
100
AcDbLayout
  1
_Rechts
 70
     1
 71
     6
 10
0.0
 20
0.0
 11
0.0
 21
0.0
 12
0.0
 22
0.0
 32
0.0
 14
0.0
 24
0.0
 34
0.0
 15
0.0
 25
0.0
 35
0.0
146
0.0
 13
0.0
 23
0.0
 33
0.0
 16
1.0
 26
0.0
 36
0.0
 17
0.0
 27
1.0
 37
0.0
 76
     0
330
AF
331
EE
  0
LAYOUT
  5
A4
102
{ACAD_REACTORS
330
1A
102
}
330
1A
100
AcDbPlotSettings
  1

  2
none_device
  4
ISO_A4_(210.00_x_297.00_MM)
  6

 40
7.5
 41
20.0
 42
7.5
 43
20.0
 44
210.0
 45
297.0
 46
0.0
 47
0.0
 48
0.0
 49
0.0
140
0.0
141
0.0
142
1.0
143
2.2568093385
 70
   688
 72
     1
 73
     1
 74
     1
  7

 75
     0
 76
     0
 77
     2
 78
   300
147
0.4431034483
148
290.0
149
195.0
100
AcDbLayout
  1
_Rückseite
 70
     1
 71
     5
 10
0.0
 20
0.0
 11
0.0
 21
0.0
 12
0.0
 22
0.0
 32
0.0
 14
0.0
 24
0.0
 34
0.0
 15
0.0
 25
0.0
 35
0.0
146
0.0
 13
0.0
 23
0.0
 33
0.0
 16
1.0
 26
0.0
 36
0.0
 17
0.0
 27
1.0
 37
0.0
 76
     0
330
A3
331
EC
  0
LAYOUT
  5
D1
102
{ACAD_REACTORS
330
1A
102
}
330
1A
100
AcDbPlotSettings
  1

  2
none_device
  4
ISO_A4_(210.00_x_297.00_MM)
  6

 40
7.5
 41
20.0
 42
7.5
 43
20.0
 44
210.0
 45
297.0
 46
0.0
 47
0.0
 48
0.0
 49
0.0
140
0.0
141
0.0
142
1.0
143
2.2568093385
 70
   688
 72
     1
 73
     1
 74
     1
  7

 75
     0
 76
     0
 77
     2
 78
   300
147
0.4431034483
148
290.0
149
195.0
100
AcDbLayout
  1
_Trimetrisch
 70
     1
 71
     9
 10
0.0
 20
0.0
 11
0.0
 21
0.0
 12
0.0
 22
0.0
 32
0.0
 14
0.0
 24
0.0
 34
0.0
 15
0.0
 25
0.0
 35
0.0
146
0.0
 13
0.0
 23
0.0
 33
0.0
 16
1.0
 26
0.0
 36
0.0
 17
0.0
 27
1.0
 37
0.0
 76
     0
330
D0
331
F4
  0
LAYOUT
  5
BD
102
{ACAD_REACTORS
330
1A
102
}
330
1A
100
AcDbPlotSettings
  1

  2
none_device
  4
ISO_A4_(210.00_x_297.00_MM)
  6

 40
7.5
 41
20.0
 42
7.5
 43
20.0
 44
210.0
 45
297.0
 46
0.0
 47
0.0
 48
0.0
 49
0.0
140
0.0
141
0.0
142
1.0
143
2.2568093385
 70
   688
 72
     1
 73
     1
 74
     1
  7

 75
     0
 76
     0
 77
     2
 78
   300
147
0.4431034483
148
290.0
149
195.0
100
AcDbLayout
  1
_Unten
 70
     1
 71
     7
 10
0.0
 20
0.0
 11
0.0
 21
0.0
 12
0.0
 22
0.0
 32
0.0
 14
0.0
 24
0.0
 34
0.0
 15
0.0
 25
0.0
 35
0.0
146
0.0
 13
0.0
 23
0.0
 33
0.0
 16
1.0
 26
0.0
 36
0.0
 17
0.0
 27
1.0
 37
0.0
 76
     0
330
BC
331
F0
  0
LAYOUT
  5
26
102
{ACAD_REACTORS
330
1A
102
}
330
1A
100
AcDbPlotSettings
  1

  2
none_device
  4
ISO_A4_(210.00_x_297.00_MM)
  6

 40
7.5
 41
20.0
 42
7.5
 43
20.0
 44
210.0
 45
297.0
 46
0.0
 47
0.0
 48
0.0
 49
0.0
140
0.0
141
0.0
142
1.0
143
2.2568093385
 70
   688
 72
     1
 73
     1
 74
     1
  7

 75
     0
 76
     0
 77
     2
 78
   300
147
0.4431034483
148
290.0
149
195.0
100
AcDbLayout
  1
_Vorderseite
 70
     1
 71
     2
 10
0.0
 20
0.0
 11
0.0
 21
0.0
 12
0.0
 22
0.0
 32
0.0
 14
0.0
 24
0.0
 34
0.0
 15
0.0
 25
0.0
 35
0.0
146
0.0
 13
0.0
 23
0.0
 33
0.0
 16
1.0
 26
0.0
 36
0.0
 17
0.0
 27
1.0
 37
0.0
 76
     0
330
23
331
E6
  0
LAYOUT
  5
22
102
{ACAD_REACTORS
330
1A
102
}
330
1A
100
AcDbPlotSettings
  1

  2
none_device
  4
ANSI_A_(11.00_x_8.50_Inches)
  6

 40
6.35
 41
19.05
 42
6.35000508
 43
19.05000254
 44
279.4
 45
215.9
 46
133.34999746
 47
98.4885939806
 48
0.0
 49
0.0
140
0.0
141
0.0
142
0.0220380505
143
1.0
 70
  1696
 72
     0
 73
     0
 74
     0
  7

 75
     0
 76
     0
 77
     2
 78
   300
147
0.0179189148
148
-1300.4909072572
149
0.0
100
AcDbLayout
  1
Model
 70
     1
 71
     0
 10
0.0
 20
0.0
 11
420.0
 21
297.0
 12
0.0
 22
0.0
 32
0.0
 14
-247.0726710209
 24
-176.9042680685
 34
0.0
 15
247.0726710209
 25
142.6449990737
 35
0.0
146
0.0
 13
0.0
 23
0.0
 33
0.0
 16
1.0
 26
0.0
 36
0.0
 17
0.0
 27
1.0
 37
0.0
 76
     0
330
1F
331
29
  0
MATERIAL
  5
45
102
{ACAD_REACTORS
330
43
102
}
330
43
100
AcDbMaterial
  1
ByBlock
 72
     1
 94
      127
  0
MATERIAL
  5
44
102
{ACAD_REACTORS
330
43
102
}
330
43
100
AcDbMaterial
  1
ByLayer
 72
     1
 94
      127
  0
MATERIAL
  5
46
102
{ACAD_REACTORS
330
43
102
}
330
43
100
AcDbMaterial
  1
Global
 72
     1
 94
      127
  0
MLEADERSTYLE
  5
6C
102
{ACAD_REACTORS
330
6B
102
}
330
6B
100
AcDbMLeaderStyle
170
     2
171
     1
172
     0
 90
        2
 40
0.0
 41
0.0
173
     1
 91
-1056964608
340
14
 92
       -2
290
     1
 42
2.0
291
     1
 43
8.0
  3
Standard
341
0
 44
4.0
300

342
11
174
     1
178
     6
175
     1
176
     0
 93
-1056964608
 45
4.0
292
     0
297
     0
 46
4.0
343
0
 94
-1056964608
 47
1.0
 49
1.0
140
1.0
293
     1
141
0.0
294
     1
177
     0
142
1.0
295
     0
296
     0
143
3.75
1001
ACAD_MLEADERVER
1070
     2
  0
MLINESTYLE
  5
18
102
{ACAD_REACTORS
330
17
102
}
330
17
100
AcDbMlineStyle
  2
Standard
 70
     0
  3

 62
   256
 51
90.0
 52
90.0
 71
     2
 49
0.5
 62
   256
  6
BYLAYER
 49
-0.5
 62
   256
  6
BYLAYER
  0
ACDBPLACEHOLDER
  5
F
102
{ACAD_REACTORS
330
E
102
}
330
E
  0
SCALE
  5
48
102
{ACAD_REACTORS
330
47
102
}
330
47
100
AcDbScale
 70
     0
300
1:1
140
1.0
141
1.0
290
     1
  0
SCALE
  5
49
102
{ACAD_REACTORS
330
47
102
}
330
47
100
AcDbScale
 70
     0
300
1:2
140
1.0
141
2.0
290
     0
  0
SCALE
  5
4A
102
{ACAD_REACTORS
330
47
102
}
330
47
100
AcDbScale
 70
     0
300
1:4
140
1.0
141
4.0
290
     0
  0
SCALE
  5
4B
102
{ACAD_REACTORS
330
47
102
}
330
47
100
AcDbScale
 70
     0
300
1:5
140
1.0
141
5.0
290
     0
  0
SCALE
  5
4C
102
{ACAD_REACTORS
330
47
102
}
330
47
100
AcDbScale
 70
     0
300
1:8
140
1.0
141
8.0
290
     0
  0
SCALE
  5
4D
102
{ACAD_REACTORS
330
47
102
}
330
47
100
AcDbScale
 70
     0
300
1:10
140
1.0
141
10.0
290
     0
  0
SCALE
  5
4E
102
{ACAD_REACTORS
330
47
102
}
330
47
100
AcDbScale
 70
     0
300
1:16
140
1.0
141
16.0
290
     0
  0
SCALE
  5
4F
102
{ACAD_REACTORS
330
47
102
}
330
47
100
AcDbScale
 70
     0
300
1:20
140
1.0
141
20.0
290
     0
  0
SCALE
  5
50
102
{ACAD_REACTORS
330
47
102
}
330
47
100
AcDbScale
 70
     0
300
1:30
140
1.0
141
30.0
290
     0
  0
SCALE
  5
51
102
{ACAD_REACTORS
330
47
102
}
330
47
100
AcDbScale
 70
     0
300
1:40
140
1.0
141
40.0
290
     0
  0
SCALE
  5
52
102
{ACAD_REACTORS
330
47
102
}
330
47
100
AcDbScale
 70
     0
300
1:50
140
1.0
141
50.0
290
     0
  0
SCALE
  5
53
102
{ACAD_REACTORS
330
47
102
}
330
47
100
AcDbScale
 70
     0
300
1:100
140
1.0
141
100.0
290
     0
  0
SCALE
  5
54
102
{ACAD_REACTORS
330
47
102
}
330
47
100
AcDbScale
 70
     0
300
2:1
140
2.0
141
1.0
290
     0
  0
SCALE
  5
55
102
{ACAD_REACTORS
330
47
102
}
330
47
100
AcDbScale
 70
     0
300
4:1
140
4.0
141
1.0
290
     0
  0
SCALE
  5
56
102
{ACAD_REACTORS
330
47
102
}
330
47
100
AcDbScale
 70
     0
300
8:1
140
8.0
141
1.0
290
     0
  0
SCALE
  5
57
102
{ACAD_REACTORS
330
47
102
}
330
47
100
AcDbScale
 70
     0
300
10:1
140
10.0
141
1.0
290
     0
  0
SCALE
  5
58
102
{ACAD_REACTORS
330
47
102
}
330
47
100
AcDbScale
 70
     0
300
100:1
140
100.0
141
1.0
290
     0
  0
SCALE
  5
59
102
{ACAD_REACTORS
330
47
102
}
330
47
100
AcDbScale
 70
     0
300
1/128" = 1'-0"
140
0.0078125
141
12.0
290
     0
  0
SCALE
  5
5A
102
{ACAD_REACTORS
330
47
102
}
330
47
100
AcDbScale
 70
     0
300
1/64" = 1'-0"
140
0.015625
141
12.0
290
     0
  0
SCALE
  5
5B
102
{ACAD_REACTORS
330
47
102
}
330
47
100
AcDbScale
 70
     0
300
1/32" = 1'-0"
140
0.03125
141
12.0
290
     0
  0
SCALE
  5
5C
102
{ACAD_REACTORS
330
47
102
}
330
47
100
AcDbScale
 70
     0
300
1/16" = 1'-0"
140
0.0625
141
12.0
290
     0
  0
SCALE
  5
5D
102
{ACAD_REACTORS
330
47
102
}
330
47
100
AcDbScale
 70
     0
300
3/32" = 1'-0"
140
0.09375
141
12.0
290
     0
  0
SCALE
  5
5E
102
{ACAD_REACTORS
330
47
102
}
330
47
100
AcDbScale
 70
     0
300
1/8" = 1'-0"
140
0.125
141
12.0
290
     0
  0
SCALE
  5
5F
102
{ACAD_REACTORS
330
47
102
}
330
47
100
AcDbScale
 70
     0
300
3/16" = 1'-0"
140
0.1875
141
12.0
290
     0
  0
SCALE
  5
60
102
{ACAD_REACTORS
330
47
102
}
330
47
100
AcDbScale
 70
     0
300
1/4" = 1'-0"
140
0.25
141
12.0
290
     0
  0
SCALE
  5
61
102
{ACAD_REACTORS
330
47
102
}
330
47
100
AcDbScale
 70
     0
300
3/8" = 1'-0"
140
0.375
141
12.0
290
     0
  0
SCALE
  5
62
102
{ACAD_REACTORS
330
47
102
}
330
47
100
AcDbScale
 70
     0
300
1/2" = 1'-0"
140
0.5
141
12.0
290
     0
  0
SCALE
  5
63
102
{ACAD_REACTORS
330
47
102
}
330
47
100
AcDbScale
 70
     0
300
3/4" = 1'-0"
140
0.75
141
12.0
290
     0
  0
SCALE
  5
64
102
{ACAD_REACTORS
330
47
102
}
330
47
100
AcDbScale
 70
     0
300
1" = 1'-0"
140
1.0
141
12.0
290
     0
  0
SCALE
  5
65
102
{ACAD_REACTORS
330
47
102
}
330
47
100
AcDbScale
 70
     0
300
1-1/2" = 1'-0"
140
1.5
141
12.0
290
     0
  0
SCALE
  5
66
102
{ACAD_REACTORS
330
47
102
}
330
47
100
AcDbScale
 70
     0
300
3" = 1'-0"
140
3.0
141
12.0
290
     0
  0
SCALE
  5
67
102
{ACAD_REACTORS
330
47
102
}
330
47
100
AcDbScale
 70
     0
300
6" = 1'-0"
140
6.0
141
12.0
290
     0
  0
SCALE
  5
68
102
{ACAD_REACTORS
330
47
102
}
330
47
100
AcDbScale
 70
     0
300
1'-0" = 1'-0"
140
12.0
141
12.0
290
     0
  0
TABLESTYLE
  5
6A
102
{ACAD_REACTORS
330
69
102
}
102
{ACAD_XDICTIONARY
360
FA
102
}
330
69
100
AcDbTableStyle
  3
Standard
 70
     0
 71
     0
 40
0.06
 41
0.06
280
     0
281
     0
  7
Standard
140
4.5
170
     2
 62
     0
 63
   257
283
     0
 90
        4
 91
        0
  1

274
    -2
284
     1
 64
     0
275
    -2
285
     1
 65
     0
276
    -2
286
     1
 66
     0
277
    -2
287
     1
 67
     0
278
    -2
288
     1
 68
     0
279
    -2
289
     1
 69
     0
  7
Standard
140
6.0
170
     5
 62
     0
 63
   257
283
     0
 90
        4
 91
        0
  1

274
    -2
284
     1
 64
     0
275
    -2
285
     1
 65
     0
276
    -2
286
     1
 66
     0
277
    -2
287
     1
 67
     0
278
    -2
288
     1
 68
     0
279
    -2
289
     1
 69
     0
  7
Standard
140
4.5
170
     5
 62
     0
 63
   257
283
     0
 90
        4
 91
        0
  1

274
    -2
284
     1
 64
     0
275
    -2
285
     1
 65
     0
276
    -2
286
     1
 66
     0
277
    -2
287
     1
 67
     0
278
    -2
288
     1
 68
     0
279
    -2
289
     1
 69
     0
  0
VISUALSTYLE
  5
2F
102
{ACAD_REACTORS
330
2A
102
}
330
2A
100
AcDbVisualStyle
  2
2dWireframe
 70
     4
 71
     0
 72
     2
 73
     0
 90
        0
 40
0.6
 41
30.0
 62
     5
 63
     7
421
 16777215
 74
     1
 91
        4
 64
     7
 65
   257
 75
     1
175
     1
 42
1.0
 92
        0
 66
   257
 43
1.0
 76
     1
 77
     6
 78
     2
 67
     7
 79
     5
170
     0
171
     0
290
     0
174
     0
 93
        1
 44
0.0
173
     0
291
     0
 45
0.0
  0
VISUALSTYLE
  5
32
102
{ACAD_REACTORS
330
2A
102
}
330
2A
100
AcDbVisualStyle
  2
Basic
 70
     7
 71
     1
 72
     0
 73
     1
 90
        0
 40
0.6
 41
30.0
 62
     5
 63
     7
421
 16777215
 74
     0
 91
        4
 64
     7
 65
   257
 75
     1
175
     1
 42
1.0
 92
        8
 66
     7
 43
1.0
 76
     1
 77
     6
 78
     2
 67
     7
 79
     5
170
     0
171
     0
290
     0
174
     0
 93
        1
 44
0.0
173
     0
291
     1
 45
0.0
  0
VISUALSTYLE
  5
36
102
{ACAD_REACTORS
330
2A
102
}
330
2A
100
AcDbVisualStyle
  2
Brighten
 70
    12
 71
     2
 72
     2
 73
     0
 90
        0
 40
0.6
 41
30.0
 62
     5
 63
     7
421
 16777215
 74
     1
 91
        4
 64
     7
 65
   257
 75
     1
175
     1
 42
1.0
 92
        8
 66
     7
 43
1.0
 76
     1
 77
     6
 78
     2
 67
     7
 79
     5
170
     0
171
     0
290
     0
174
     0
 93
        1
 44
50.0
173
     0
291
     1
 45
0.0
  0
VISUALSTYLE
  5
3A
102
{ACAD_REACTORS
330
2A
102
}
330
2A
100
AcDbVisualStyle
  2
ColorChange
 70
    16
 71
     2
 72
     2
 73
     3
 90
        0
 40
0.6
 41
30.0
 62
     5
 63
     8
421
  8421504
 74
     1
 91
        4
 64
     7
 65
   257
 75
     1
175
     1
 42
1.0
 92
        8
 66
     8
424
  8421504
 43
1.0
 76
     1
 77
     6
 78
     2
 67
     7
 79
     5
170
     0
171
     0
290
     0
174
     0
 93
        1
 44
0.0
173
     0
291
     1
 45
0.0
  0
VISUALSTYLE
  5
34
102
{ACAD_REACTORS
330
2A
102
}
330
2A
100
AcDbVisualStyle
  2
Conceptual
 70
     9
 71
     3
 72
     2
 73
     0
 90
        0
 40
0.6
 41
30.0
 62
     5
 63
     7
421
 16777215
 74
     2
 91
        2
 64
     7
 65
   257
 75
     1
175
     1
 42
179.0
 92
        8
 66
     7
 43
1.0
 76
     1
 77
     6
 78
     2
 67
     7
 79
     3
170
     0
171
     0
290
     0
174
     0
 93
        1
 44
0.0
173
     0
291
     0
 45
0.0
  0
VISUALSTYLE
  5
35
102
{ACAD_REACTORS
330
2A
102
}
330
2A
100
AcDbVisualStyle
  2
Dim
 70
    11
 71
     2
 72
     2
 73
     0
 90
        0
 40
0.6
 41
30.0
 62
     5
 63
     7
421
 16777215
 74
     1
 91
        4
 64
     7
 65
   257
 75
     1
175
     1
 42
1.0
 92
        8
 66
     7
 43
1.0
 76
     1
 77
     6
 78
     2
 67
     7
 79
     5
170
     0
171
     0
290
     0
174
     0
 93
        1
 44
-50.0
173
     0
291
     1
 45
0.0
  0
VISUALSTYLE
  5
3D
102
{ACAD_REACTORS
330
2A
102
}
330
2A
100
AcDbVisualStyle
  2
EdgeColorOff
 70
    22
 71
     2
 72
     2
 73
     0
 90
        0
 40
0.6
 41
30.0
 62
     5
 63
     7
421
 16777215
 74
     1
 91
        4
 64
     7
 65
   257
 75
     1
175
     1
 42
1.0
 92
        8
 66
     7
 43
1.0
 76
     1
 77
     6
 78
     2
 67
     7
 79
     5
170
     0
171
     0
290
     0
174
     0
 93
        1
 44
0.0
173
     0
291
     1
 45
0.0
  0
VISUALSTYLE
  5
39
102
{ACAD_REACTORS
330
2A
102
}
330
2A
100
AcDbVisualStyle
  2
Facepattern
 70
    15
 71
     2
 72
     2
 73
     0
 90
        0
 40
0.6
 41
30.0
 62
     5
 63
     7
421
 16777215
 74
     1
 91
        4
 64
     7
 65
   257
 75
     1
175
     1
 42
1.0
 92
        8
 66
     7
 43
1.0
 76
     1
 77
     6
 78
     2
 67
     7
 79
     5
170
     0
171
     0
290
     0
174
     0
 93
        1
 44
0.0
173
     0
291
     1
 45
0.0
  0
VISUALSTYLE
  5
2B
102
{ACAD_REACTORS
330
2A
102
}
330
2A
100
AcDbVisualStyle
  2
Flat
 70
     0
 71
     2
 72
     1
 73
     1
 90
        2
 40
0.6
 41
30.0
 62
     5
 63
     7
421
 16777215
 74
     0
 91
        0
 64
     7
 65
   257
 75
     1
175
     1
 42
1.0
 92
        8
 66
     7
 43
1.0
 76
     1
 77
     6
 78
     2
 67
     7
 79
     5
170
     0
171
     0
290
     0
174
     0
 93
       13
 44
0.0
173
     0
291
     1
 45
0.0
  0
VISUALSTYLE
  5
2C
102
{ACAD_REACTORS
330
2A
102
}
330
2A
100
AcDbVisualStyle
  2
FlatWithEdges
 70
     1
 71
     2
 72
     1
 73
     1
 90
        2
 40
0.6
 41
30.0
 62
     5
 63
     7
421
 16777215
 74
     1
 91
        0
 64
     7
 65
   257
 75
     1
175
     1
 42
1.0
 92
        0
 66
   257
 43
1.0
 76
     1
 77
     6
 78
     2
 67
     7
 79
     5
170
     0
171
     0
290
     0
174
     0
 93
       13
 44
0.0
173
     0
291
     1
 45
0.0
  0
VISUALSTYLE
  5
2D
102
{ACAD_REACTORS
330
2A
102
}
330
2A
100
AcDbVisualStyle
  2
Gouraud
 70
     2
 71
     2
 72
     2
 73
     1
 90
        2
 40
0.6
 41
30.0
 62
     5
 63
     7
421
 16777215
 74
     0
 91
        0
 64
     7
 65
   257
 75
     1
175
     1
 42
1.0
 92
        0
 66
     7
 43
1.0
 76
     1
 77
     6
 78
     2
 67
     7
 79
     5
170
     0
171
     0
290
     0
174
     0
 93
       13
 44
0.0
173
     0
291
     1
 45
0.0
  0
VISUALSTYLE
  5
2E
102
{ACAD_REACTORS
330
2A
102
}
330
2A
100
AcDbVisualStyle
  2
GouraudWithEdges
 70
     3
 71
     2
 72
     2
 73
     1
 90
        2
 40
0.6
 41
30.0
 62
     5
 63
     7
421
 16777215
 74
     1
 91
        0
 64
     7
 65
   257
 75
     1
175
     1
 42
1.0
 92
        0
 66
   257
 43
1.0
 76
     1
 77
     6
 78
     2
 67
     7
 79
     5
170
     0
171
     0
290
     0
174
     0
 93
       13
 44
0.0
173
     0
291
     1
 45
0.0
  0
VISUALSTYLE
  5
31
102
{ACAD_REACTORS
330
2A
102
}
330
2A
100
AcDbVisualStyle
  2
Hidden
 70
     6
 71
     1
 72
     2
 73
     2
 90
        0
 40
0.6
 41
30.0
 62
     5
 63
     7
421
 16777215
 74
     2
 91
        2
 64
     7
 65
   257
 75
     2
175
     1
 42
40.0
 92
        0
 66
   257
 43
1.0
 76
     1
 77
     6
 78
     2
 67
     7
 79
     3
170
     0
171
     0
290
     0
174
     0
 93
        1
 44
0.0
173
     0
291
     0
 45
0.0
  0
VISUALSTYLE
  5
3B
102
{ACAD_REACTORS
330
2A
102
}
330
2A
100
AcDbVisualStyle
  2
JitterOff
 70
    20
 71
     2
 72
     2
 73
     0
 90
        0
 40
0.6
 41
30.0
 62
     5
 63
     7
421
 16777215
 74
     1
 91
        4
 64
     7
 65
   257
 75
     1
175
     1
 42
1.0
 92
       10
 66
     7
 43
1.0
 76
     1
 77
     6
 78
     2
 67
     7
 79
     5
170
     0
171
     0
290
     0
174
     0
 93
        1
 44
0.0
173
     0
291
     1
 45
0.0
  0
VISUALSTYLE
  5
38
102
{ACAD_REACTORS
330
2A
102
}
330
2A
100
AcDbVisualStyle
  2
Linepattern
 70
    14
 71
     2
 72
     2
 73
     0
 90
        0
 40
0.6
 41
30.0
 62
     5
 63
     7
421
 16777215
 74
     1
 91
        4
 64
     7
 65
   257
 75
     7
175
     7
 42
1.0
 92
        8
 66
     7
 43
1.0
 76
     1
 77
     6
 78
     2
 67
     7
 79
     5
170
     0
171
     0
290
     0
174
     0
 93
        1
 44
0.0
173
     0
291
     1
 45
0.0
  0
VISUALSTYLE
  5
3C
102
{ACAD_REACTORS
330
2A
102
}
330
2A
100
AcDbVisualStyle
  2
OverhangOff
 70
    21
 71
     2
 72
     2
 73
     0
 90
        0
 40
0.6
 41
30.0
 62
     5
 63
     7
421
 16777215
 74
     1
 91
        4
 64
     7
 65
   257
 75
     1
175
     1
 42
1.0
 92
        9
 66
     7
 43
1.0
 76
     1
 77
     6
 78
     2
 67
     7
 79
     5
170
     0
171
     0
290
     0
174
     0
 93
        1
 44
0.0
173
     0
291
     1
 45
0.0
  0
VISUALSTYLE
  5
33
102
{ACAD_REACTORS
330
2A
102
}
330
2A
100
AcDbVisualStyle
  2
Realistic
 70
     8
 71
     2
 72
     3
 73
     0
 90
        2
 40
0.6
 41
30.0
 62
     5
 63
     7
421
 16777215
 74
     0
 91
        0
 64
     7
 65
   257
 75
     1
175
     1
 42
1.0
 92
        8
 66
   257
 43
1.0
 76
     1
 77
     6
 78
     2
 67
     7
 79
     3
170
     0
171
     0
290
     0
174
     0
 93
       13
 44
0.0
173
     0
291
     0
 45
0.0
  0
VISUALSTYLE
  5
42
102
{ACAD_REACTORS
330
2A
102
}
330
2A
100
AcDbVisualStyle
  2
Shaded
 70
    27
 71
     2
 72
     2
 73
     1
 90
        2
 40
0.6
 41
30.0
 62
     5
 63
     7
421
 16777215
 74
     0
 91
        4
 64
     7
 65
   257
 75
     1
175
     1
 42
1.0
 92
        8
 66
   257
 43
1.0
 76
     1
 77
     6
 78
     2
 67
     8
425
  7895160
 79
     3
170
     0
171
     0
290
     0
174
     0
 93
        5
 44
0.0
173
     0
291
     0
 45
0.0
  0
VISUALSTYLE
  5
41
102
{ACAD_REACTORS
330
2A
102
}
330
2A
100
AcDbVisualStyle
  2
Shaded with edges
 70
    26
 71
     2
 72
     2
 73
     1
 90
        2
 40
0.6
 41
30.0
 62
     5
 63
     7
421
 16777215
 74
     1
 91
       10
 64
     7
 65
   257
 75
     2
175
     1
 42
1.0
 92
        8
 66
   257
 43
1.0
 76
     1
 77
     6
 78
     2
 67
     7
 79
     3
170
     0
171
     0
290
     0
174
     0
 93
        5
 44
0.0
173
     0
291
     0
 45
0.0
  0
VISUALSTYLE
  5
3E
102
{ACAD_REACTORS
330
2A
102
}
330
2A
100
AcDbVisualStyle
  2
Shades of Gray
 70
    23
 71
     2
 72
     2
 73
     3
 90
        0
 40
0.6
 41
30.0
 62
     5
 63
     7
421
 16777215
 74
     2
 91
        2
 64
     7
 65
     7
 75
     1
175
     1
 42
40.0
 92
        8
 66
     7
 43
1.0
 76
     1
 77
     6
 78
     2
 67
     7
 79
     3
170
     0
171
     0
290
     0
174
     0
 93
        1
 44
0.0
173
     0
291
     0
 45
0.0
  0
VISUALSTYLE
  5
3F
102
{ACAD_REACTORS
330
2A
102
}
330
2A
100
AcDbVisualStyle
  2
Sketchy
 70
    24
 71
     1
 72
     2
 73
     2
 90
        0
 40
0.6
 41
30.0
 62
     5
 63
     7
421
 16777215
 74
     2
 91
        2
 64
     7
 65
     7
 75
     1
175
     1
 42
40.0
 92
       11
 66
     7
 43
1.0
 76
     1
 77
     6
 78
     2
 67
     7
 79
     6
170
     0
171
     0
290
     0
174
     0
 93
        1
 44
0.0
173
     0
291
     0
 45
0.0
  0
VISUALSTYLE
  5
37
102
{ACAD_REACTORS
330
2A
102
}
330
2A
100
AcDbVisualStyle
  2
Thicken
 70
    13
 71
     2
 72
     2
 73
     0
 90
        0
 40
0.6
 41
30.0
 62
     5
 63
     7
421
 16777215
 74
     1
 91
        4
 64
     7
 65
   257
 75
     1
175
     1
 42
1.0
 92
       12
 66
     7
 43
1.0
 76
     1
 77
     6
 78
     2
 67
     7
 79
     5
170
     0
171
     0
290
     0
174
     0
 93
        1
 44
0.0
173
     0
291
     1
 45
0.0
  0
VISUALSTYLE
  5
30
102
{ACAD_REACTORS
330
2A
102
}
330
2A
100
AcDbVisualStyle
  2
Wireframe
 70
     5
 71
     0
 72
     2
 73
     0
 90
        0
 40
0.6
 41
30.0
 62
     5
 63
     7
421
 16777215
 74
     1
 91
        4
 64
     7
 65
   257
 75
     1
175
     1
 42
1.0
 92
        0
 66
   257
 43
1.0
 76
     1
 77
     6
 78
     2
 67
     7
 79
     3
170
     0
171
     0
290
     0
174
     0
 93
        1
 44
0.0
173
     0
291
     0
 45
0.0
  0
VISUALSTYLE
  5
40
102
{ACAD_REACTORS
330
2A
102
}
330
2A
100
AcDbVisualStyle
  2
X-Ray
 70
    25
 71
     2
 72
     2
 73
     1
 90
        1
 40
0.5
 41
30.0
 62
     5
 63
     7
421
 16777215
 74
     1
 91
        0
 64
     7
 65
   257
 75
     1
175
     1
 42
1.0
 92
        8
 66
     7
 43
1.0
 76
     1
 77
     6
 78
     2
 67
     7
 79
     3
170
     0
171
     0
290
     0
174
     0
 93
       13
 44
0.0
173
     0
291
     0
 45
0.0
  0
DICTIONARYVAR
  5
F9
102
{ACAD_REACTORS
330
F8
102
}
330
F8
100
DictionaryVariables
280
     0
  1
1:1
  0
DICTIONARYVAR
  5
FF
102
{ACAD_REACTORS
330
F8
102
}
330
F8
100
DictionaryVariables
280
     0
  1
Standard
  0
DICTIONARYVAR
  5
FE
102
{ACAD_REACTORS
330
F8
102
}
330
F8
100
DictionaryVariables
280
     0
  1
Standard
  0
DICTIONARY
  5
FA
330
6A
100
AcDbDictionary
280
     1
281
     1
  3
ACAD_ROUNDTRIP_2008_TABLESTYLE_CELLSTYLEMAP
360
FB
  0
CELLSTYLEMAP
  5
FB
102
{ACAD_REACTORS
330
FA
102
}
330
FA
100
AcDbCellStyleMap
 90
        3
300
CELLSTYLE
  1
TABLEFORMAT_BEGIN
 90
        5
170
     1
 91
        0
 92
    32768
 62
   257
 93
        1
300
CONTENTFORMAT
  1
CONTENTFORMAT_BEGIN
 90
        0
 91
        0
 92
        4
 93
        0
300

 40
0.0
140
1.0
 94
        5
 62
     0
340
11
144
6.0
309
CONTENTFORMAT_END
171
     1
301
MARGIN
  1
CELLMARGIN_BEGIN
 40
1.5
 40
1.5
 40
1.5
 40
1.5
 40
1.5
 40
1.5
309
CELLMARGIN_END
 94
        6
 95
        1
302
GRIDFORMAT
  1
GRIDFORMAT_BEGIN
 90
        0
 91
        1
 62
     0
 92
       -2
340
14
 93
        0
 40
0.045
309
GRIDFORMAT_END
 95
        2
302
GRIDFORMAT
  1
GRIDFORMAT_BEGIN
 90
        0
 91
        1
 62
     0
 92
       -2
340
14
 93
        0
 40
0.045
309
GRIDFORMAT_END
 95
        4
302
GRIDFORMAT
  1
GRIDFORMAT_BEGIN
 90
        0
 91
        1
 62
     0
 92
       -2
340
14
 93
        0
 40
0.045
309
GRIDFORMAT_END
 95
        8
302
GRIDFORMAT
  1
GRIDFORMAT_BEGIN
 90
        0
 91
        1
 62
     0
 92
       -2
340
14
 93
        0
 40
0.045
309
GRIDFORMAT_END
 95
       16
302
GRIDFORMAT
  1
GRIDFORMAT_BEGIN
 90
        0
 91
        1
 62
     0
 92
       -2
340
14
 93
        0
 40
0.045
309
GRIDFORMAT_END
 95
       32
302
GRIDFORMAT
  1
GRIDFORMAT_BEGIN
 90
        0
 91
        1
 62
     0
 92
       -2
340
14
 93
        0
 40
0.045
309
GRIDFORMAT_END
309
TABLEFORMAT_END
  1
CELLSTYLE_BEGIN
 90
        1
 91
        1
300
_TITLE
309
CELLSTYLE_END
300
CELLSTYLE
  1
TABLEFORMAT_BEGIN
 90
        5
170
     1
 91
        0
 92
        0
 62
   257
 93
        1
300
CONTENTFORMAT
  1
CONTENTFORMAT_BEGIN
 90
        0
 91
        0
 92
        4
 93
        0
300

 40
0.0
140
1.0
 94
        5
 62
     0
340
11
144
4.5
309
CONTENTFORMAT_END
171
     1
301
MARGIN
  1
CELLMARGIN_BEGIN
 40
1.5
 40
1.5
 40
1.5
 40
1.5
 40
1.5
 40
1.5
309
CELLMARGIN_END
 94
        6
 95
        1
302
GRIDFORMAT
  1
GRIDFORMAT_BEGIN
 90
        0
 91
        1
 62
     0
 92
       -2
340
14
 93
        0
 40
0.045
309
GRIDFORMAT_END
 95
        2
302
GRIDFORMAT
  1
GRIDFORMAT_BEGIN
 90
        0
 91
        1
 62
     0
 92
       -2
340
14
 93
        0
 40
0.045
309
GRIDFORMAT_END
 95
        4
302
GRIDFORMAT
  1
GRIDFORMAT_BEGIN
 90
        0
 91
        1
 62
     0
 92
       -2
340
14
 93
        0
 40
0.045
309
GRIDFORMAT_END
 95
        8
302
GRIDFORMAT
  1
GRIDFORMAT_BEGIN
 90
        0
 91
        1
 62
     0
 92
       -2
340
14
 93
        0
 40
0.045
309
GRIDFORMAT_END
 95
       16
302
GRIDFORMAT
  1
GRIDFORMAT_BEGIN
 90
        0
 91
        1
 62
     0
 92
       -2
340
14
 93
        0
 40
0.045
309
GRIDFORMAT_END
 95
       32
302
GRIDFORMAT
  1
GRIDFORMAT_BEGIN
 90
        0
 91
        1
 62
     0
 92
       -2
340
14
 93
        0
 40
0.045
309
GRIDFORMAT_END
309
TABLEFORMAT_END
  1
CELLSTYLE_BEGIN
 90
        2
 91
        1
300
_HEADER
309
CELLSTYLE_END
300
CELLSTYLE
  1
TABLEFORMAT_BEGIN
 90
        5
170
     1
 91
        0
 92
        0
 62
   257
 93
        1
300
CONTENTFORMAT
  1
CONTENTFORMAT_BEGIN
 90
        0
 91
        0
 92
        4
 93
        0
300

 40
0.0
140
1.0
 94
        2
 62
     0
340
11
144
4.5
309
CONTENTFORMAT_END
171
     1
301
MARGIN
  1
CELLMARGIN_BEGIN
 40
1.5
 40
1.5
 40
1.5
 40
1.5
 40
1.5
 40
1.5
309
CELLMARGIN_END
 94
        6
 95
        1
302
GRIDFORMAT
  1
GRIDFORMAT_BEGIN
 90
        0
 91
        1
 62
     0
 92
       -2
340
14
 93
        0
 40
0.045
309
GRIDFORMAT_END
 95
        2
302
GRIDFORMAT
  1
GRIDFORMAT_BEGIN
 90
        0
 91
        1
 62
     0
 92
       -2
340
14
 93
        0
 40
0.045
309
GRIDFORMAT_END
 95
        4
302
GRIDFORMAT
  1
GRIDFORMAT_BEGIN
 90
        0
 91
        1
 62
     0
 92
       -2
340
14
 93
        0
 40
0.045
309
GRIDFORMAT_END
 95
        8
302
GRIDFORMAT
  1
GRIDFORMAT_BEGIN
 90
        0
 91
        1
 62
     0
 92
       -2
340
14
 93
        0
 40
0.045
309
GRIDFORMAT_END
 95
       16
302
GRIDFORMAT
  1
GRIDFORMAT_BEGIN
 90
        0
 91
        1
 62
     0
 92
       -2
340
14
 93
        0
 40
0.045
309
GRIDFORMAT_END
 95
       32
302
GRIDFORMAT
  1
GRIDFORMAT_BEGIN
 90
        0
 91
        1
 62
     0
 92
       -2
340
14
 93
        0
 40
0.045
309
GRIDFORMAT_END
309
TABLEFORMAT_END
  1
CELLSTYLE_BEGIN
 90
        3
 91
        2
300
_DATA
309
CELLSTYLE_END
  0
ENDSEC
  0
EOF
