  0
SECTION
  2
HEADER
  9
$ACADVER
  1
AC1021
  9
$ACADMAINTVER
 70
    25
  9
$DWGCODEPAGE
  3
ANSI_1252
  9
$INSBASE
 10
0.0
 20
0.0
 30
0.0
  9
$EXTMIN
 10
-247.0963848388
 20
-176.9042296022
 30
0.0
  9
$EXTMAX
 10
247.0963848388
 20
142.6457066682
 30
0.0
  9
$LIMMIN
 10
0.0
 20
0.0
  9
$LIMMAX
 10
420.0
 20
297.0
  9
$ORTHOMODE
 70
     0
  9
$REGENMODE
 70
     1
  9
$FILLMODE
 70
     1
  9
$QTEXTMODE
 70
     0
  9
$MIRRTEXT
 70
     1
  9
$LTSCALE
 40
1.0
  9
$ATTMODE
 70
     1
  9
$TEXTSIZE
 40
3.5
  9
$TRACEWID
 40
1.0
  9
$TEXTSTYLE
  7
Standard
  9
$CLAYER
  8
0
  9
$CELTYPE
  6
ByLayer
  9
$CECOLOR
 62
   256
  9
$CELTSCALE
 40
1.0
  9
$DISPSILH
 70
     0
  9
$DIMSCALE
 40
1.0
  9
$DIMASZ
 40
8.0
  9
$DIMEXO
 40
1.0
  9
$DIMDLI
 40
3.75
  9
$DIMRND
 40
0.0
  9
$DIMDLE
 40
0.0
  9
$DIMEXE
 40
1.0
  9
$DIMTP
 40
0.0
  9
$DIMTM
 40
0.0
  9
$DIMTXT
 40
16.9333333333
  9
$DIMCEN
 40
2.5
  9
$DIMTSZ
 40
0.0
  9
$DIMTOL
 70
     0
  9
$DIMLIM
 70
     0
  9
$DIMTIH
 70
     1
  9
$DIMTOH
 70
     1
  9
$DIMSE1
 70
     0
  9
$DIMSE2
 70
     0
  9
$DIMTAD
 70
     1
  9
$DIMZIN
 70
     0
  9
$DIMBLK
  1

  9
$DIMASO
 70
     1
  9
$DIMSHO
 70
     1
  9
$DIMPOST
  1

  9
$DIMAPOST
  1

  9
$DIMALT
 70
     0
  9
$DIMALTD
 70
     3
  9
$DIMALTF
 40
0.0393700787
  9
$DIMLFAC
 40
1.0
  9
$DIMTOFL
 70
     1
  9
$DIMTVP
 40
0.0
  9
$DIMTIX
 70
     0
  9
$DIMSOXD
 70
     0
  9
$DIMSAH
 70
     0
  9
$DIMBLK1
  1

  9
$DIMBLK2
  1

  9
$DIMSTYLE
  2
ISO-25
  9
$DIMCLRD
 70
     0
  9
$DIMCLRE
 70
     0
  9
$DIMCLRT
 70
     0
  9
$DIMTFAC
 40
1.0
  9
$DIMGAP
 40
1.524
  9
$DIMJUST
 70
     0
  9
$DIMSD1
 70
     0
  9
$DIMSD2
 70
     0
  9
$DIMTOLJ
 70
     0
  9
$DIMTZIN
 70
     0
  9
$DIMALTZ
 70
     0
  9
$DIMALTTZ
 70
     0
  9
$DIMUPT
 70
     0
  9
$DIMDEC
 70
     2
  9
$DIMTDEC
 70
     2
  9
$DIMALTU
 70
     2
  9
$DIMALTTD
 70
     3
  9
$DIMTXSTY
  7
Standard
  9
$DIMAUNIT
 70
     0
  9
$DIMADEC
 70
     2
  9
$DIMALTRND
 40
0.0
  9
$DIMAZIN
 70
     0
  9
$DIMDSEP
 70
    44
  9
$DIMATFIT
 70
     3
  9
$DIMFRAC
 70
     0
  9
$DIMLDRBLK
  1

  9
$DIMLUNIT
 70
     2
  9
$DIMLWD
 70
    -2
  9
$DIMLWE
 70
    -2
  9
$DIMTMOVE
 70
     0
  9
$DIMFXL
 40
1.0
  9
$DIMFXLON
 70
     0
  9
$DIMJOGANG
 40
0.7853981634
  9
$DIMTFILL
 70
     0
  9
$DIMTFILLCLR
 70
     0
  9
$DIMARCSYM
 70
     0
  9
$DIMLTYPE
  6

  9
$DIMLTEX1
  6

  9
$DIMLTEX2
  6

  9
$LUNITS
 70
     2
  9
$LUPREC
 70
     2
  9
$SKETCHINC
 40
1.0
  9
$FILLETRAD
 40
10.0
  9
$AUNITS
 70
     0
  9
$AUPREC
 70
     2
  9
$MENU
  1
.
  9
$ELEVATION
 40
0.0
  9
$PELEVATION
 40
0.0
  9
$THICKNESS
 40
0.0
  9
$LIMCHECK
 70
     0
  9
$CHAMFERA
 40
0.0
  9
$CHAMFERB
 40
0.0
  9
$CHAMFERC
 40
0.0
  9
$CHAMFERD
 40
0.0
  9
$SKPOLY
 70
     0
  9
$TDCREATE
 40
2458221.682476991
  9
$TDUCREATE
 40
2458221.599143657
  9
$TDUPDATE
 40
2458221.682506285
  9
$TDUUPDATE
 40
2458221.599172951
  9
$TDINDWG
 40
0.0000000116
  9
$TDUSRTIMER
 40
0.0000000116
  9
$USRTIMER
 70
     1
  9
$ANGBASE
 50
0.0
  9
$ANGDIR
 70
     0
  9
$PDMODE
 70
     0
  9
$PDSIZE
 40
-1.0
  9
$PLINEWID
 40
0.0
  9
$SPLFRAME
 70
     0
  9
$SPLINETYPE
 70
     6
  9
$SPLINESEGS
 70
     8
  9
$HANDSEED
  5
1AD
  9
$SURFTAB1
 70
     6
  9
$SURFTAB2
 70
     6
  9
$SURFTYPE
 70
     6
  9
$SURFU
 70
     6
  9
$SURFV
 70
     6
  9
$UCSBASE
  2

  9
$UCSNAME
  2

  9
$UCSORG
 10
0.0
 20
0.0
 30
0.0
  9
$UCSXDIR
 10
1.0
 20
0.0
 30
0.0
  9
$UCSYDIR
 10
0.0
 20
1.0
 30
0.0
  9
$UCSORTHOREF
  2

  9
$UCSORTHOVIEW
 70
     0
  9
$UCSORGTOP
 10
0.0
 20
0.0
 30
0.0
  9
$UCSORGBOTTOM
 10
0.0
 20
0.0
 30
0.0
  9
$UCSORGLEFT
 10
0.0
 20
0.0
 30
0.0
  9
$UCSORGRIGHT
 10
0.0
 20
0.0
 30
0.0
  9
$UCSORGFRONT
 10
0.0
 20
0.0
 30
0.0
  9
$UCSORGBACK
 10
0.0
 20
0.0
 30
0.0
  9
$PUCSBASE
  2

  9
$PUCSNAME
  2

  9
$PUCSORG
 10
0.0
 20
0.0
 30
0.0
  9
$PUCSXDIR
 10
1.0
 20
0.0
 30
0.0
  9
$PUCSYDIR
 10
0.0
 20
1.0
 30
0.0
  9
$PUCSORTHOREF
  2

  9
$PUCSORTHOVIEW
 70
     0
  9
$PUCSORGTOP
 10
0.0
 20
0.0
 30
0.0
  9
$PUCSORGBOTTOM
 10
0.0
 20
0.0
 30
0.0
  9
$PUCSORGLEFT
 10
0.0
 20
0.0
 30
0.0
  9
$PUCSORGRIGHT
 10
0.0
 20
0.0
 30
0.0
  9
$PUCSORGFRONT
 10
0.0
 20
0.0
 30
0.0
  9
$PUCSORGBACK
 10
0.0
 20
0.0
 30
0.0
  9
$USERI1
 70
     0
  9
$USERI2
 70
     0
  9
$USERI3
 70
     0
  9
$USERI4
 70
     0
  9
$USERI5
 70
     0
  9
$USERR1
 40
0.0
  9
$USERR2
 40
0.0
  9
$USERR3
 40
0.0
  9
$USERR4
 40
0.0
  9
$USERR5
 40
0.0
  9
$WORLDVIEW
 70
     1
  9
$SHADEDGE
 70
     3
  9
$SHADEDIF
 70
    70
  9
$TILEMODE
 70
     1
  9
$MAXACTVP
 70
    64
  9
$PINSBASE
 10
0.0
 20
0.0
 30
0.0
  9
$PLIMCHECK
 70
     0
  9
$PEXTMIN
 10
-290.0
 20
-195.0
 30
0.0
  9
$PEXTMAX
 10
290.0
 20
195.0
 30
0.0
  9
$PLIMMIN
 10
-335.1361867704
 20
-211.9260700389
  9
$PLIMMAX
 10
335.1361867704
 20
262.0038910506
  9
$UNITMODE
 70
     0
  9
$VISRETAIN
 70
     1
  9
$PLINEGEN
 70
     0
  9
$PSLTSCALE
 70
     1
  9
$TREEDEPTH
 70
  3020
  9
$CMLSTYLE
  2
Standard
  9
$CMLJUST
 70
     0
  9
$CMLSCALE
 40
20.0
  9
$PROXYGRAPHICS
 70
     1
  9
$MEASUREMENT
 70
     1
  9
$CELWEIGHT
370
    -1
  9
$ENDCAPS
280
     0
  9
$JOINSTYLE
280
     0
  9
$LWDISPLAY
290
     1
  9
$INSUNITS
 70
     4
  9
$HYPERLINKBASE
  1

  9
$STYLESHEET
  1

  9
$XEDIT
290
     1
  9
$CEPSNTYPE
380
     0
  9
$PSTYLEMODE
290
     1
  9
$FINGERPRINTGUID
  2
{ECA763D1-9088-4E56-BB25-AAC9E14FD58E}
  9
$VERSIONGUID
  2
{FAEB1C32-E019-11D5-929B-00C0DF256EC4}
  9
$EXTNAMES
290
     1
  9
$PSVPSCALE
 40
0.0
  9
$OLESTARTUP
290
     0
  9
$SORTENTS
280
   127
  9
$INDEXCTL
280
     0
  9
$HIDETEXT
280
     1
  9
$XCLIPFRAME
290
     0
  9
$HALOGAP
280
     0
  9
$OBSCOLOR
 70
   257
  9
$OBSLTYPE
280
     0
  9
$INTERSECTIONDISPLAY
280
     0
  9
$INTERSECTIONCOLOR
 70
   257
  9
$DIMASSOC
280
     2
  9
$PROJECTNAME
  1

  9
$CAMERADISPLAY
290
     0
  9
$LENSLENGTH
 40
50.0
  9
$CAMERAHEIGHT
 40
0.0
  9
$STEPSPERSEC
 40
2.0
  9
$STEPSIZE
 40
6.0
  9
$3DDWFPREC
 40
2.0
  9
$PSOLWIDTH
 40
5.0
  9
$PSOLHEIGHT
 40
80.0
  9
$LOFTANG1
 40
1.5707963268
  9
$LOFTANG2
 40
1.5707963268
  9
$LOFTMAG1
 40
0.0
  9
$LOFTMAG2
 40
0.0
  9
$LOFTPARAM
 70
     7
  9
$LOFTNORMALS
280
     1
  9
$LATITUDE
 40
37.795
  9
$LONGITUDE
 40
-122.394
  9
$NORTHDIRECTION
 40
0.0
  9
$TIMEZONE
 70
 -8000
  9
$LIGHTGLYPHDISPLAY
280
     1
  9
$TILEMODELIGHTSYNCH
280
     1
  9
$CMATERIAL
347
44
  9
$SOLIDHIST
280
     0
  9
$SHOWHIST
280
     1
  9
$DWFFRAME
280
     2
  9
$DGNFRAME
280
     2
  9
$REALWORLDSCALE
290
     1
  9
$INTERFERECOLOR
 62
   256
  9
$CSHADOW
280
     0
  9
$SHADOWPLANELOCATION
 40
0.0
  0
ENDSEC
  0
SECTION
  2
CLASSES
  0
CLASS
  1
ACDBDICTIONARYWDFLT
  2
AcDbDictionaryWithDefault
  3
ObjectDBX Classes
 90
        0
 91
        4
280
     0
281
     0
  0
CLASS
  1
VISUALSTYLE
  2
AcDbVisualStyle
  3
ObjectDBX Classes
 90
     4095
 91
        4
280
     0
281
     0
  0
CLASS
  1
MATERIAL
  2
AcDbMaterial
  3
ObjectDBX Classes
 90
     1153
 91
        4
280
     0
281
     0
  0
CLASS
  1
SCALE
  2
AcDbScale
  3
ObjectDBX Classes
 90
     1153
 91
        4
280
     0
281
     0
  0
CLASS
  1
TABLESTYLE
  2
AcDbTableStyle
  3
ObjectDBX Classes
 90
     4095
 91
        4
280
     0
281
     0
  0
CLASS
  1
MLEADERSTYLE
  2
AcDbMLeaderStyle
  3
ACDB_MLEADERSTYLE_CLASS
 90
     4095
 91
        4
280
     0
281
     0
  0
CLASS
  1
SUN
  2
AcDbSun
  3
SCENEOE
 90
     1153
 91
        4
280
     0
281
     0
  0
CLASS
  1
DICTIONARYVAR
  2
AcDbDictionaryVar
  3
ObjectDBX Classes
 90
        0
 91
        4
280
     0
281
     0
  0
CLASS
  1
CELLSTYLEMAP
  2
AcDbCellStyleMap
  3
ObjectDBX Classes
 90
     1152
 91
        4
280
     0
281
     0
  0
ENDSEC
  0
SECTION
  2
TABLES
  0
TABLE
  2
VPORT
  5
8
330
0
100
AcDbSymbolTable
 70
     1
  0
VPORT
  5
29
330
8
100
AcDbSymbolTableRecord
100
AcDbViewportTableRecord
  2
*Active
 70
     0
 10
0.0
 20
0.0
 11
1.0
 21
1.0
 12
0.0
 22
-17.129261467
 13
0.0
 23
0.0
 14
10.0
 24
10.0
 15
10.0
 25
10.0
 16
0.0
 26
0.0
 36
1.0
 17
0.0
 27
0.0
 37
0.0
 40
325.9409349958
 41
1.5465275176
 42
50.0
 43
0.0
 44
0.0
 50
0.0
 51
0.0
 71
     0
 72
   100
 73
     1
 74
     3
 75
     0
 76
     0
 77
     0
 78
     0
281
     0
 65
     1
110
0.0
120
0.0
130
0.0
111
1.0
121
0.0
131
0.0
112
0.0
122
1.0
132
0.0
 79
     0
146
0.0
348
2F
 60
     3
 61
     5
292
     1
282
     1
141
0.0
142
0.0
 63
   250
361
6D
  0
ENDTAB
  0
TABLE
  2
LTYPE
  5
5
330
0
100
AcDbSymbolTable
 70
     6
  0
LTYPE
  5
14
330
5
100
AcDbSymbolTableRecord
100
AcDbLinetypeTableRecord
  2
ByBlock
 70
     0
  3

 72
    65
 73
     0
 40
0.0
  0
LTYPE
  5
15
330
5
100
AcDbSymbolTableRecord
100
AcDbLinetypeTableRecord
  2
ByLayer
 70
     0
  3

 72
    65
 73
     0
 40
0.0
  0
LTYPE
  5
16
330
5
100
AcDbSymbolTableRecord
100
AcDbLinetypeTableRecord
  2
Continuous
 70
     0
  3
Solid line
 72
    65
 73
     0
 40
0.0
  0
LTYPE
  5
6E
330
5
100
AcDbSymbolTableRecord
100
AcDbLinetypeTableRecord
  2
HIDDEN
 70
     0
  3
Hidden __ __ __ __ __ __ __ __ __ __ __ __ __ __
 72
    65
 73
     2
 40
1.905
 49
1.27
 74
     0
 49
-0.635
 74
     0
  0
LTYPE
  5
6F
330
5
100
AcDbSymbolTableRecord
100
AcDbLinetypeTableRecord
  2
PHANTOM
 70
     0
  3
Phantom ______  __  __  ______  __  __  ______
 72
    65
 73
     6
 40
12.7
 49
6.35
 74
     0
 49
-1.27
 74
     0
 49
1.27
 74
     0
 49
-1.27
 74
     0
 49
1.27
 74
     0
 49
-1.27
 74
     0
  0
LTYPE
  5
70
330
5
100
AcDbSymbolTableRecord
100
AcDbLinetypeTableRecord
  2
CENTER
 70
     0
  3
Center ____ _ ____ _ ____ _ ____ _ ____ _ ____
 72
    65
 73
     4
 40
10.16
 49
6.35
 74
     0
 49
-1.27
 74
     0
 49
1.27
 74
     0
 49
-1.27
 74
     0
  0
LTYPE
  5
71
330
5
100
AcDbSymbolTableRecord
100
AcDbLinetypeTableRecord
  2
CENTERX2
 70
     0
  3
Center (2x) ________  __  ________  __  _____
 72
    65
 73
     4
 40
20.32
 49
12.7
 74
     0
 49
-2.54
 74
     0
 49
2.54
 74
     0
 49
-2.54
 74
     0
  0
LTYPE
  5
72
330
5
100
AcDbSymbolTableRecord
100
AcDbLinetypeTableRecord
  2
DOT2
 70
     0
  3
Dot (.5x) ........................................
 72
    65
 73
     2
 40
0.635
 49
0.0
 74
     0
 49
-0.635
 74
     0
  0
ENDTAB
  0
TABLE
  2
LAYER
  5
2
330
0
100
AcDbSymbolTable
 70
     1
  0
LAYER
  5
10
330
2
100
AcDbSymbolTableRecord
100
AcDbLayerTableRecord
  2
0
 70
     0
 62
     7
  6
Continuous
370
    -3
390
F
347
46
  0
ENDTAB
  0
TABLE
  2
STYLE
  5
3
330
0
100
AcDbSymbolTable
 70
     1
  0
STYLE
  5
11
330
3
100
AcDbSymbolTableRecord
100
AcDbTextStyleTableRecord
  2
Standard
 70
     0
 40
0.0
 41
1.0
 50
0.0
 71
     0
 42
3.5
  3
txt
  4

  0
ENDTAB
  0
TABLE
  2
VIEW
  5
6
330
0
100
AcDbSymbolTable
 70
     0
  0
ENDTAB
  0
TABLE
  2
UCS
  5
7
330
0
100
AcDbSymbolTable
 70
     0
  0
ENDTAB
  0
TABLE
  2
APPID
  5
9
330
0
100
AcDbSymbolTable
 70
     2
  0
APPID
  5
12
330
9
100
AcDbSymbolTableRecord
100
AcDbRegAppTableRecord
  2
ACAD
 70
     0
  0
APPID
  5
1A7
330
9
100
AcDbSymbolTableRecord
100
AcDbRegAppTableRecord
  2
ACAD_MLEADERVER
 70
     0
  0
ENDTAB
  0
TABLE
  2
DIMSTYLE
  5
A
330
0
100
AcDbSymbolTable
 70
     1
100
AcDbDimStyleTable
  0
DIMSTYLE
105
27
330
A
100
AcDbSymbolTableRecord
100
AcDbDimStyleTableRecord
  2
ISO-25
 70
     0
 41
2.5
 42
0.625
 43
3.75
 44
1.25
 73
     0
 74
     0
 77
     1
 78
     8
140
2.5
141
2.5
143
0.0393700787
147
0.625
171
     3
172
     1
178
     0
271
     2
272
     2
274
     3
278
    44
283
     0
284
     8
340
11
  0
ENDTAB
  0
TABLE
  2
BLOCK_RECORD
  5
1
330
0
100
AcDbSymbolTable
 70
     9
  0
BLOCK_RECORD
  5
1F
330
1
100
AcDbSymbolTableRecord
100
AcDbBlockTableRecord
  2
*Model_Space
340
22
 70
     0
280
     1
281
     0
  0
BLOCK_RECORD
  5
1B
330
1
100
AcDbSymbolTableRecord
100
AcDbBlockTableRecord
  2
*Paper_Space
340
1E
 70
     0
280
     1
281
     0
  0
BLOCK_RECORD
  5
23
330
1
100
AcDbSymbolTableRecord
100
AcDbBlockTableRecord
  2
*Paper_Space0
340
26
 70
     0
280
     1
281
     0
  0
BLOCK_RECORD
  5
B7
330
1
100
AcDbSymbolTableRecord
100
AcDbBlockTableRecord
  2
*Paper_Space1
340
B8
 70
     0
280
     1
281
     0
  0
BLOCK_RECORD
  5
D1
330
1
100
AcDbSymbolTableRecord
100
AcDbBlockTableRecord
  2
*Paper_Space2
340
D2
 70
     0
280
     1
281
     0
  0
BLOCK_RECORD
  5
E6
330
1
100
AcDbSymbolTableRecord
100
AcDbBlockTableRecord
  2
*Paper_Space3
340
E7
 70
     0
280
     1
281
     0
  0
BLOCK_RECORD
  5
F6
330
1
100
AcDbSymbolTableRecord
100
AcDbBlockTableRecord
  2
*Paper_Space4
340
F7
 70
     0
280
     1
281
     0
  0
BLOCK_RECORD
  5
10A
330
1
100
AcDbSymbolTableRecord
100
AcDbBlockTableRecord
  2
*Paper_Space5
340
10B
 70
     0
280
     1
281
     0
  0
BLOCK_RECORD
  5
112
330
1
100
AcDbSymbolTableRecord
100
AcDbBlockTableRecord
  2
*Paper_Space6
340
113
 70
     0
280
     1
281
     0
  0
BLOCK_RECORD
  5
13B
330
1
100
AcDbSymbolTableRecord
100
AcDbBlockTableRecord
  2
*Paper_Space7
340
13C
 70
     0
280
     1
281
     0
  0
BLOCK_RECORD
  5
15C
330
1
100
AcDbSymbolTableRecord
100
AcDbBlockTableRecord
  2
*Paper_Space8
340
15D
 70
     0
280
     1
281
     0
  0
ENDTAB
  0
ENDSEC
  0
SECTION
  2
BLOCKS
  0
BLOCK
  5
20
330
1F
100
AcDbEntity
  8
0
100
AcDbBlockBegin
  2
*Model_Space
 70
     0
 10
0.0
 20
0.0
 30
0.0
  3
*Model_Space
  1

  0
ENDBLK
  5
21
330
1F
100
AcDbEntity
  8
0
100
AcDbBlockEnd
  0
BLOCK
  5
1C
330
1B
100
AcDbEntity
 67
     1
  8
0
100
AcDbBlockBegin
  2
*Paper_Space
 70
     0
 10
0.0
 20
0.0
 30
0.0
  3
*Paper_Space
  1

  0
ENDBLK
  5
1D
330
1B
100
AcDbEntity
 67
     1
  8
0
100
AcDbBlockEnd
  0
BLOCK
  5
24
330
23
100
AcDbEntity
  8
0
100
AcDbBlockBegin
  2
*Paper_Space0
 70
     0
 10
0.0
 20
0.0
 30
0.0
  3
*Paper_Space0
  1

  0
SPLINE
  5
A6
330
23
100
AcDbEntity
  8
0
  6
Continuous
 62
     7
370
    25
100
AcDbSpline
210
0.0
220
0.0
230
1.0
 70
     8
 71
     3
 72
    33
 73
    29
 74
     0
 42
0.000000001
 43
0.00000001
 40
0.0
 40
0.0
 40
0.0
 40
0.0
 40
0.0566902021383261
 40
0.1150443539393538
 40
0.1690942865449493
 40
0.2188598322427168
 40
0.2643547349699466
 40
0.3055878219286914
 40
0.3349991123667554
 40
0.3617835023951741
 40
0.3859412022000016
 40
0.40747176006944
 40
0.4266249752295315
 40
0.4472017420224
 40
0.4738722063970438
 40
0.5040459583905891
 40
0.5377307604772174
 40
0.5749369153583169
 40
0.6156908204806024
 40
0.660015644179283
 40
0.6956040214146982
 40
0.7331950215881987
 40
0.772779522537762
 40
0.8143447656371938
 40
0.8578743788803036
 40
0.9033455834561941
 40
0.9507315920415029
 40
1.0
 40
1.0
 40
1.0
 40
1.0
 10
81.00416794284905
 20
-135.7862408708077
 30
0.0
 10
85.88218430068989
 20
-135.0070136990267
 30
0.0
 10
95.78139473257512
 20
-133.4256877702393
 30
0.0
 10
110.1888532983979
 20
-130.3173877764937
 30
0.0
 10
123.8882072207208
 20
-126.8503554203903
 30
0.0
 10
136.3748099568937
 20
-123.1917000408135
 30
0.0
 10
147.6724146201111
 20
-119.4731921694669
 30
0.0
 10
157.1849123801828
 20
-116.0194900155064
 30
0.0
 10
165.0905880346516
 20
-112.9270025564218
 30
0.0
 10
171.5594756298441
 20
-110.2493262990725
 30
0.0
 10
177.350063337742
 20
-107.7311169448484
 30
0.0
 10
182.4943456236641
 20
-105.3958946169549
 30
0.0
 10
187.3226991818994
 20
-103.1209332339045
 30
0.0
 10
192.5215937078326
 20
-100.5829443081202
 30
0.0
 10
198.533645397704
 20
-97.5237222018356
 30
0.0
 10
205.4929298765482
 20
-93.81035900435123
 30
0.0
 10
213.1616503230638
 20
-89.48236122410603
 30
0.0
 10
221.5407125871736
 20
-84.53915350868942
 30
0.0
 10
230.4448407941149
 20
-78.67637515255008
 30
0.0
 10
238.8037142731243
 20
-72.28440294982535
 30
0.0
 10
246.5373405587889
 20
-65.56895597242512
 30
0.0
 10
253.5729803073112
 20
-58.70330964899728
 30
0.0
 10
260.5296629086646
 20
-51.03724688735991
 30
0.0
 10
267.3020206659932
 20
-42.53448135848587
 30
0.0
 10
273.7849602188254
 20
-33.17515498689969
 30
0.0
 10
279.8385894780121
 20
-22.94115918153746
 30
0.0
 10
285.4112511399948
 20
-11.86335312970564
 30
0.0
 10
288.4506854796368
 20
-4.005463324490588
 30
0.0
 10
289.9999999999999
 20
0.0
 30
0.0
  0
SPLINE
  5
A7
330
23
100
AcDbEntity
  8
0
  6
Continuous
 62
     7
370
    25
100
AcDbSpline
210
0.0
220
0.0
230
1.0
 70
     8
 71
     3
 72
    32
 73
    28
 74
     0
 42
0.000000001
 43
0.00000001
 40
0.0
 40
0.0
 40
0.0
 40
0.0
 40
0.0427497963551726
 40
0.0836220114987239
 40
0.1225930099542511
 40
0.1596444660994567
 40
0.2060290536820008
 40
0.2489474729411567
 40
0.2883830594759711
 40
0.3194062817769078
 40
0.3478608537194844
 40
0.3737478723631353
 40
0.3970698751914499
 40
0.417830598590933
 40
0.4364546929444825
 40
0.4567153231536226
 40
0.4870027060148169
 40
0.5216053753478778
 40
0.5605185421255395
 40
0.6037392297263157
 40
0.651267272603276
 40
0.7031062560385253
 40
0.755939220070733
 40
0.8126236583834884
 40
0.8731769661470833
 40
0.937623375402553
 40
1.0
 40
1.0
 40
1.0
 40
1.0
 10
-290.0000000000001
 20
0.0
 30
0.0
 10
-288.6661870421602
 20
-3.479107876715931
 30
0.0
 10
-286.0571425084512
 20
-10.28452038570066
 30
0.0
 10
-281.4052987669418
 20
-19.91200070225837
 30
0.0
 10
-276.444481568526
 20
-28.81230516006268
 30
0.0
 10
-270.6873531132069
 20
-37.79716660712993
 30
0.0
 10
-264.1489733271043
 20
-46.6664352107539
 30
0.0
 10
-256.8658746023747
 20
-55.207869534788
 30
0.0
 10
-249.9778048586757
 20
-62.29724483343896
 30
0.0
 10
-243.6359209798192
 20
-68.1372981046527
 30
0.0
 10
-237.9315988110762
 20
-72.9137127504946
 30
0.0
 10
-232.5607909666979
 20
-77.03263754890655
 30
0.0
 10
-227.5816081006125
 20
-80.55211398040453
 30
0.0
 10
-223.0138679566282
 20
-83.55154686684281
 30
0.0
 10
-218.577995299681
 20
-86.25945136827922
 30
0.0
 10
-213.3952214236321
 20
-89.33523298778246
 30
0.0
 10
-206.9479572829318
 20
-93.00684313830453
 30
0.0
 10
-198.9895549435729
 20
-97.30470075095452
 30
0.0
 10
-189.9183138316477
 20
-101.9071019448834
 30
0.0
 10
-179.7002308727897
 20
-106.7287934854796
 30
0.0
 10
-168.3010732267069
 20
-111.6731953505708
 30
0.0
 10
-155.9576339008999
 20
-116.5269894318117
 30
0.0
 10
-142.6924242753308
 20
-121.1910655096957
 30
0.0
 10
-128.5334463541561
 20
-125.5740614002944
 30
0.0
 10
-113.2260297911818
 20
-129.6181875592644
 30
0.0
 10
-97.28128081687817
 20
-133.1637139563792
 30
0.0
 10
-86.37012913470465
 20
-134.9195825846961
 30
0.0
 10
-81.00358969996705
 20
-135.7831887841659
 30
0.0
  0
SPLINE
  5
A8
330
23
100
AcDbEntity
  8
0
  6
Continuous
 62
     7
370
    25
100
AcDbSpline
210
0.0
220
0.0
230
1.0
 70
     8
 71
     3
 72
    17
 73
    13
 74
     0
 42
0.000000001
 43
0.00000001
 40
0.0
 40
0.0
 40
0.0
 40
0.0
 40
0.0681025058977574
 40
0.1454598369462648
 40
0.2713675775870477
 40
0.3829031158622079
 40
0.4891355967524872
 40
0.6016663563362803
 40
0.7172694869118561
 40
0.8345964143386237
 40
0.952812622671925
 40
1.0
 40
1.0
 40
1.0
 40
1.0
 10
-81.00270229573232
 20
-135.8222624555368
 30
0.0
 10
-80.68397652213092
 20
-135.8748177677421
 30
0.0
 10
-80.0032115715983
 20
-135.987070423401
 30
0.0
 10
-78.77432320251727
 20
-136.3789246248374
 30
0.0
 10
-77.41884801681044
 20
-137.0192337975412
 30
0.0
 10
-76.08218533375171
 20
-137.9619941851585
 30
0.0
 10
-74.95219259965333
 20
-139.0535325667544
 30
0.0
 10
-73.99433255321937
 20
-140.323501276755
 30
0.0
 10
-73.22456605692977
 20
-141.7787325711871
 30
0.0
 10
-72.71598470669878
 20
-143.3661243264673
 30
0.0
 10
-72.4677803406581
 20
-144.697370371465
 30
0.0
 10
-72.50331148176966
 20
-145.4814407920012
 30
0.0
 10
-72.51344802963119
 20
-145.7051253429599
 30
0.0
  0
SPLINE
  5
A9
330
23
100
AcDbEntity
  8
0
  6
Continuous
 62
     7
370
    25
100
AcDbSpline
210
0.0
220
0.0
230
1.0
 70
     8
 71
     3
 72
    19
 73
    15
 74
     0
 42
0.000000001
 43
0.00000001
 40
0.0
 40
0.0
 40
0.0
 40
0.0
 40
0.0147771184422204
 40
0.1394384017918367
 40
0.2568415428258665
 40
0.3678841809695915
 40
0.4731647054509636
 40
0.5728668162119958
 40
0.6668809195261189
 40
0.7548362636646762
 40
0.8360892212893121
 40
0.9096841809377804
 40
0.9743043234076858
 40
0.9999999999999999
 40
0.9999999999999999
 40
0.9999999999999999
 40
0.9999999999999999
 10
72.46801013015188
 20
-145.7059772009134
 30
0.0
 10
72.46298127765377
 20
-145.6360025163667
 30
0.0
 10
72.41552851086944
 20
-144.9757142323389
 30
0.0
 10
72.61066273753227
 20
-143.7551235038439
 30
0.0
 10
73.0573910807789
 20
-142.139085780764
 30
0.0
 10
73.74712035993221
 20
-140.7033050719111
 30
0.0
 10
74.59450809032852
 20
-139.4600796012495
 30
0.0
 10
75.56007985974082
 20
-138.4135936414841
 30
0.0
 10
76.59588199937649
 20
-137.5624052030254
 30
0.0
 10
77.65828638074031
 20
-136.8994718135456
 30
0.0
 10
78.70408930368458
 20
-136.4088886954355
 30
0.0
 10
79.69261570244498
 20
-136.0772098934895
 30
0.0
 10
80.44982413180774
 20
-135.8905297476931
 30
0.0
 10
80.87458679888101
 20
-135.8331272511484
 30
0.0
 10
80.9954356627338
 20
-135.8167957158524
 30
0.0
  0
SPLINE
  5
AD
330
23
100
AcDbEntity
  8
0
  6
Continuous
 62
     7
370
    25
100
AcDbSpline
210
0.0
220
0.0
230
1.0
 70
     8
 71
     3
 72
     9
 73
     5
 74
     0
 42
0.000000001
 43
0.00000001
 40
0.0
 40
0.0
 40
0.0
 40
0.0
 40
0.9979306381862432
 40
1.0
 40
1.0
 40
1.0
 40
1.0
 10
80.99539590627259
 20
-135.8165221890985
 30
0.0
 10
81.00581142618091
 20
-135.8167009462512
 30
0.0
 10
81.01624854426281
 20
-135.8168800740842
 30
0.0
 10
81.00933626709751
 20
-135.8167625687929
 30
0.0
 10
81.0093219630951
 20
-135.8167623256319
 30
0.0
  0
SPLINE
  5
B0
330
23
100
AcDbEntity
  8
0
  6
Continuous
 62
     1
370
    25
100
AcDbSpline
210
0.0
220
0.0
230
1.0
 70
     8
 71
     3
 72
    38
 73
    34
 74
     0
 42
0.000000001
 43
0.00000001
 40
0.0
 40
0.0
 40
0.0
 40
0.0
 40
0.0271700900559839
 40
0.0577691596436811
 40
0.0891927433283532
 40
0.1219869940265059
 40
0.1554822314738349
 40
0.1810090774045905
 40
0.206541908439753
 40
0.2327768611399202
 40
0.2590163527173575
 40
0.295383808126537
 40
0.3317590112093314
 40
0.3691105970475627
 40
0.4064667631289913
 40
0.4441757126376962
 40
0.4818861196938807
 40
0.5203205371400735
 40
0.5587551002992532
 40
0.6038039270888876
 40
0.6488449598231785
 40
0.6955238824335248
 40
0.7421839397841963
 40
0.7660583521975304
 40
0.7899296524505028
 40
0.8143111579296956
 40
0.8386880692574145
 40
0.8767339828430658
 40
0.8962742153446878
 40
0.9158109446492715
 40
0.9476438282901474
 40
0.9803862922264389
 40
1.0
 40
1.0
 40
1.0
 40
1.0
 10
-81.00936480080782
 20
-135.8167630538445
 30
0.0
 10
-80.92086458398508
 20
-135.8151910559838
 30
0.0
 10
-80.73269505110545
 20
-135.811848667527
 30
0.0
 10
-79.16254111254416
 20
-135.7860750709199
 30
0.0
 10
-76.52477447969653
 20
-135.7460354613481
 30
0.0
 10
-72.81336850011242
 20
-135.6951490283403
 30
0.0
 10
-68.56884951436875
 20
-135.6448445966353
 30
0.0
 10
-64.1755020464662
 20
-135.6002022317801
 30
0.0
 10
-59.84401254748857
 20
-135.5612829177651
 30
0.0
 10
-55.204118764701
 20
-135.5244550809039
 30
0.0
 10
-49.66778482173796
 20
-135.4865347678576
 30
0.0
 10
-43.22935995600327
 20
-135.4504036286056
 30
0.0
 10
-35.8093427815865
 20
-135.416965705846
 30
0.0
 10
-28.12410086184766
 20
-135.390062532058
 30
0.0
 10
-20.20173501255074
 20
-135.3699165497698
 30
0.0
 10
-12.15750152232061
 20
-135.3566739069234
 30
0.0
 10
-3.980293267730846
 20
-135.3500099204765
 30
0.0
 10
4.268140535229047
 20
-135.3501081112151
 30
0.0
 10
13.02291077942115
 20
-135.3575351252167
 30
0.0
 10
22.18135716234039
 20
-135.3737584097582
 30
0.0
 10
31.77032589389732
 20
-135.4012215287042
 30
0.0
 10
41.21610730221745
 20
-135.4396778025876
 30
0.0
 10
48.89312728904957
 20
-135.4814582057961
 30
0.0
 10
54.78462211734489
 20
-135.5215038064544
 30
0.0
 10
59.10287757743057
 20
-135.5551856064504
 30
0.0
 10
63.22637283533972
 20
-135.5913355752919
 30
0.0
 10
67.82906816022523
 20
-135.6366394963085
 30
0.0
 10
71.7106077872595
 20
-135.6816494716234
 30
0.0
 10
74.80853747961392
 20
-135.7223840555592
 30
0.0
 10
77.27307918168887
 20
-135.7572327455205
 30
0.0
 10
79.49644593982642
 20
-135.7913437323594
 30
0.0
 10
80.80923929574575
 20
-135.8132195205786
 30
0.0
 10
80.9446632749941
 20
-135.8156221240201
 30
0.0
 10
80.99539590627259
 20
-135.8165221890985
 30
0.0
  0
SPLINE
  5
B1
330
23
100
AcDbEntity
  8
0
  6
Continuous
 62
     1
370
    25
100
AcDbSpline
210
0.0
220
0.0
230
1.0
 70
     8
 71
     3
 72
    37
 73
    33
 74
     0
 42
0.000000001
 43
0.00000001
 40
0.0
 40
0.0
 40
0.0
 40
0.0
 40
0.0174467530857638
 40
0.0464245691008242
 40
0.0762380471693921
 40
0.1123542803168306
 40
0.1495097982839899
 40
0.1733947016694935
 40
0.1972845696060648
 40
0.2217377200423407
 40
0.246194526101493
 40
0.2931197418120036
 40
0.3400645785600033
 40
0.3889409977917878
 40
0.4378278031322276
 40
0.4777133046185008
 40
0.5175986174253544
 40
0.5582754181073417
 40
0.5989504077678175
 40
0.6368752943602226
 40
0.6747955734192214
 40
0.7136910524933849
 40
0.752576425863548
 40
0.7781421102691646
 40
0.8037034417405626
 40
0.8299152356503584
 40
0.8561193001658538
 40
0.8872872704009299
 40
0.9190549331898356
 40
0.9470112901783229
 40
0.9756586423590808
 40
1.0
 40
1.0
 40
1.0
 40
1.0
 10
72.48808493950955
 20
-145.7046999653148
 30
0.0
 10
72.44913853564239
 20
-145.7035527565219
 30
0.0
 10
72.34550492492579
 20
-145.7005001155166
 30
0.0
 10
71.32882175095125
 20
-145.6727099994051
 30
0.0
 10
69.16846031903624
 20
-145.6189729951742
 30
0.0
 10
65.78607895687394
 20
-145.5445432296163
 30
0.0
 10
61.78538896446642
 20
-145.472352776716
 30
0.0
 10
57.85475821003549
 20
-145.4129278903573
 30
0.0
 10
54.27233985091797
 20
-145.3648645219023
 30
0.0
 10
50.45774922869806
 20
-145.3194729994327
 30
0.0
 10
45.21290957579824
 20
-145.265457549873
 30
0.0
 10
38.40938835335312
 20
-145.2093990544879
 30
0.0
 10
29.85010510522633
 20
-145.1561013766887
 30
0.0
 10
20.92201514614165
 20
-145.1167926947858
 30
0.0
 10
12.27847981689258
 20
-145.0935053963557
 30
0.0
 10
4.134671516776214
 20
-145.0829701450976
 30
0.0
 10
-3.50971911722571
 20
-145.0825484142133
 30
0.0
 10
-11.18732064216626
 20
-145.0917050425814
 30
0.0
 10
-18.6867347090086
 20
-145.1102353020668
 30
0.0
 10
-25.92185024348953
 20
-145.1378439395824
 30
0.0
 10
-32.91714350352925
 20
-145.1743304633017
 30
0.0
 10
-39.78672948816332
 20
-145.2204774858709
 30
0.0
 10
-45.69704346889794
 20
-145.2703215726334
 30
0.0
 10
-50.6203632350269
 20
-145.3212057535249
 30
0.0
 10
-54.6606029633375
 20
-145.3696686392155
 30
0.0
 10
-58.49692513869847
 20
-145.4219650130546
 30
0.0
 10
-62.29483655936727
 20
-145.4811388395684
 30
0.0
 10
-65.8895366630026
 20
-145.5473481158537
 30
0.0
 10
-68.89861602347628
 20
-145.6128542216146
 30
0.0
 10
-71.03660888254944
 20
-145.6651901828985
 30
0.0
 10
-72.28222708038383
 20
-145.6986164866163
 30
0.0
 10
-72.431451132854
 20
-145.7030175622594
 30
0.0
 10
-72.50000000000001
 20
-145.7050392788966
 30
0.0
  0
LINE
  5
B2
330
23
100
AcDbEntity
  8
0
  6
Continuous
 62
     7
370
    25
100
AcDbLine
 10
72.5
 20
-165.0
 30
0.0
 11
72.5
 21
-145.7050392789
 31
0.0
  0
LINE
  5
B3
330
23
100
AcDbEntity
  8
0
  6
Continuous
 62
     7
370
    25
100
AcDbLine
 10
-72.5
 20
-145.7050392789
 30
0.0
 11
-72.5
 21
-165.0
 31
0.0
  0
LINE
  5
B4
330
23
100
AcDbEntity
  8
0
  6
Continuous
 62
     7
370
    25
100
AcDbLine
 10
290.0
 20
0.0
 30
0.0
 11
-290.0
 21
0.0
 31
0.0
  0
LINE
  5
B5
330
23
100
AcDbEntity
  8
0
  6
Continuous
 62
     7
370
    25
100
AcDbLine
 10
72.5
 20
-145.7050392789
 30
0.0
 11
72.4880849395
 21
-145.7046999653
 31
0.0
  0
LINE
  5
B6
330
23
100
AcDbEntity
  8
0
  6
Continuous
 62
     7
370
    25
100
AcDbLine
 10
72.5
 20
-165.0
 30
0.0
 11
-72.5
 21
-165.0
 31
0.0
  0
VIEWPORT
  5
191
330
23
100
AcDbEntity
  8
0
100
AcDbViewport
 10
0.0
 20
0.0
 30
0.0
 40
205.6
 41
156.0
 68
     1
 69
     1
 12
0.0
 22
-17.129261467
 13
0.0
 23
0.0
 14
10.0
 24
10.0
 15
10.0
 25
10.0
 16
0.0
 26
0.0
 36
1.0
 17
0.0
 27
0.0
 37
0.0
 42
50.0
 43
0.0
 44
0.0
 45
382.4705910073
 50
0.0
 51
0.0
 72
   100
 90
   557152
  1

281
     0
 71
     1
 74
     0
110
0.0
120
0.0
130
0.0
111
1.0
121
0.0
131
0.0
112
0.0
122
1.0
132
0.0
 79
     0
146
0.0
170
     0
 61
     5
348
2F
292
     1
282
     1
141
0.0
142
0.0
 63
   256
361
192
  0
ENDBLK
  5
25
330
23
100
AcDbEntity
  8
0
100
AcDbBlockEnd
  0
BLOCK
  5
B9
330
B7
100
AcDbEntity
  8
0
100
AcDbBlockBegin
  2
*Paper_Space1
 70
     0
 10
0.0
 20
0.0
 30
0.0
  3
*Paper_Space1
  1

  0
SPLINE
  5
BB
330
B7
100
AcDbEntity
  8
0
  6
Continuous
 62
     7
370
    25
100
AcDbSpline
210
0.0
220
0.0
230
1.0
 70
     8
 71
     3
 72
    30
 73
    26
 74
     0
 42
0.000000001
 43
0.00000001
 40
0.0
 40
0.0
 40
0.0
 40
0.0
 40
0.0454665012070852
 40
0.0987297937367815
 40
0.1485843308842623
 40
0.1950153462819562
 40
0.2380109690174662
 40
0.2775630043121414
 40
0.3136665471164884
 40
0.3463186914548059
 40
0.3755180695103278
 40
0.401264690918765
 40
0.4236496752519629
 40
0.4470941454272802
 40
0.4798558304828114
 40
0.5176571388113494
 40
0.5604833568850629
 40
0.6083013759038246
 40
0.6610641391157259
 40
0.7088150882720103
 40
0.7600160137845248
 40
0.8146906610415969
 40
0.8728753988420498
 40
0.9346219890360401
 40
1.0
 40
1.0
 40
1.0
 40
1.0
 10
55.12222378465002
 20
-135.3121836232897
 30
0.0
 10
58.13238873618007
 20
-134.5816481090495
 30
0.0
 10
64.66891468139485
 20
-132.995301706237
 30
0.0
 10
74.30313710750595
 20
-129.8666006787358
 30
0.0
 10
83.82815250526647
 20
-126.2490683359972
 30
0.0
 10
92.5078088410598
 20
-122.4096969953387
 30
0.0
 10
100.3661965670743
 20
-118.4767694653202
 30
0.0
 10
107.4270048694586
 20
-114.5407371973283
 30
0.0
 10
113.720209365145
 20
-110.6885019822136
 30
0.0
 10
119.279084114307
 20
-106.9968397839949
 30
0.0
 10
124.1376547687991
 20
-103.5324100847239
 30
0.0
 10
128.3344624699073
 20
-100.3488695687235
 30
0.0
 10
132.1411760985634
 20
-97.30268855729739
 30
0.0
 10
136.2370681222089
 20
-93.8556670760397
 30
0.0
 10
141.0100526158876
 20
-89.58578679671926
 30
0.0
 10
146.5681738910703
 20
-84.22083467952139
 30
0.0
 10
152.595899470783
 20
-77.87617260906278
 30
0.0
 10
158.9726509828254
 20
-70.47197070899192
 30
0.0
 10
165.1454884481774
 20
-62.46725303786148
 30
0.0
 10
171.0069422702909
 20
-53.95193918618357
 30
0.0
 10
176.4748742215014
 20
-45.02488054728654
 30
0.0
 10
181.7661061250022
 20
-35.17494632845707
 30
0.0
 10
186.73693513371
 20
-24.36498009372251
 30
0.0
 10
191.3223549547254
 20
-12.59058094588057
 30
0.0
 10
193.750992958271
 20
-4.27603101095124
 30
0.0
 10
195.0000000000001
 20
0.0
 30
0.0
  0
SPLINE
  5
BC
330
B7
100
AcDbEntity
  8
0
  6
Continuous
 62
     7
370
    25
100
AcDbSpline
210
0.0
220
0.0
230
1.0
 70
     8
 71
     3
 72
    30
 73
    26
 74
     0
 42
0.000000001
 43
0.00000001
 40
0.0
 40
0.0
 40
0.0
 40
0.0
 40
0.056727467122545
 40
0.1098867159060498
 40
0.1595273330840034
 40
0.2056857763501991
 40
0.2483871874878111
 40
0.2876475180258025
 40
0.3234753564615839
 40
0.3558734490107553
 40
0.3848399103843365
 40
0.4103697412839968
 40
0.4326008098508979
 40
0.4561266959458493
 40
0.4889704601972695
 40
0.5268527834029144
 40
0.5697787094983034
 40
0.6177513596769656
 40
0.6707699203892382
 40
0.7188039232390845
 40
0.7703303524554636
 40
0.8253385097964947
 40
0.8838118913357317
 40
0.9457292465631171
 40
1.0
 40
1.0
 40
1.0
 40
1.0
 10
-195.0
 20
0.0
 30
0.0
 10
-193.9262022558894
 20
-3.713206651631995
 30
0.0
 10
-191.8461497939533
 20
-10.90605528608434
 30
0.0
 10
-188.0460972081353
 20
-21.09646107542008
 30
0.0
 10
-184.018578232434
 20
-30.41346456307918
 30
0.0
 10
-179.8231222265244
 20
-38.86838667799287
 30
0.0
 10
-175.5754473035204
 20
-46.49554761607682
 30
0.0
 10
-171.364764286026
 20
-53.32828832596238
 30
0.0
 10
-167.2741647744069
 20
-59.40290020298672
 30
0.0
 10
-163.3764078248991
 20
-64.75608152487968
 30
0.0
 10
-159.7357939213538
 20
-69.42430685927746
 30
0.0
 10
-156.4018624106481
 20
-73.4502188214025
 30
0.0
 10
-153.2094180281585
 20
-77.10978298260615
 30
0.0
 10
-149.5910134969078
 20
-81.05685173402797
 30
0.0
 10
-145.1101461992496
 20
-85.65670946914601
 30
0.0
 10
-139.4999108009679
 20
-90.99451416214299
 30
0.0
 10
-132.8858766924069
 20
-96.76183863359188
 30
0.0
 10
-125.1869398398943
 20
-102.837692370869
 30
0.0
 10
-116.883979036924
 20
-108.6877607922674
 30
0.0
 10
-108.0719843961548
 20
-114.2072443020619
 30
0.0
 10
-98.8569672598661
 20
-119.3110837152076
 30
0.0
 10
-88.72436636863512
 20
-124.1931233637436
 30
0.0
 10
-77.65176444615408
 20
-128.6955331760012
 30
0.0
 10
-66.37629679058251
 20
-132.5385291563859
 30
0.0
 10
-58.68725155627508
 20
-134.4262831320483
 30
0.0
 10
-55.09574565370529
 20
-135.3080414439828
 30
0.0
  0
SPLINE
  5
BD
330
B7
100
AcDbEntity
  8
0
  6
Continuous
 62
     7
370
    25
100
AcDbSpline
210
0.0
220
0.0
230
1.0
 70
     8
 71
     3
 72
    18
 73
    14
 74
     0
 42
0.000000001
 43
0.00000001
 40
0.0
 40
0.0
 40
0.0
 40
0.0
 40
0.0298891399252021
 40
0.1610417264798034
 40
0.2845441256822689
 40
0.401497969508633
 40
0.512380822145681
 40
0.6172840361840325
 40
0.7160022335206988
 40
0.8080504723365847
 40
0.8926410117616885
 40
0.9686354547159495
 40
1.0
 40
1.0
 40
1.0
 40
1.0
 10
47.5414510134312
 20
-145.0786127383535
 30
0.0
 10
47.53247060523174
 20
-144.9463479204651
 30
0.0
 10
47.48408445412291
 20
-144.2337093273645
 30
0.0
 10
47.70399266807284
 20
-142.9748377522907
 30
0.0
 10
48.16800829147798
 20
-141.3937082144326
 30
0.0
 10
48.86257487462945
 20
-139.9907163934693
 30
0.0
 10
49.70730006292895
 20
-138.7765829363132
 30
0.0
 10
50.66273898306839
 20
-137.7553732562744
 30
0.0
 10
51.68175209424406
 20
-136.9262106340986
 30
0.0
 10
52.7201698781152
 20
-136.2788040346074
 30
0.0
 10
53.73676397626343
 20
-135.8065433335829
 30
0.0
 10
54.53932503760007
 20
-135.5166827469943
 30
0.0
 10
55.00309697305644
 20
-135.4100118447268
 30
0.0
 10
55.13858628894681
 20
-135.3788483213035
 30
0.0
  0
SPLINE
  5
BE
330
B7
100
AcDbEntity
  8
0
  6
Continuous
 62
     7
370
    25
100
AcDbSpline
210
0.0
220
0.0
230
1.0
 70
     8
 71
     3
 72
    17
 73
    13
 74
     0
 42
0.000000001
 43
0.00000001
 40
0.0
 40
0.0
 40
0.0
 40
0.0
 40
0.0362429926537533
 40
0.1200543593243771
 40
0.2519604217558745
 40
0.3688563312152384
 40
0.4830518551229475
 40
0.6037314434383614
 40
0.7276742160896723
 40
0.8534427860950735
 40
0.980150943750984
 40
1.0
 40
1.0
 40
1.0
 40
1.0
 10
-55.11640133444472
 20
-135.3917685686233
 30
0.0
 10
-54.95982617305654
 20
-135.4262974620412
 30
0.0
 10
-54.44117334363513
 20
-135.5406738938407
 30
0.0
 10
-53.3963994993865
 20
-135.9403171485877
 30
0.0
 10
-52.08869268620921
 20
-136.625565361213
 30
0.0
 10
-50.81133267072883
 20
-137.6092324397179
 30
0.0
 10
-49.73196353048269
 20
-138.7371937110399
 30
0.0
 10
-48.82482123756828
 20
-140.0461252714255
 30
0.0
 10
-48.1115620016222
 20
-141.5315333505795
 30
0.0
 10
-47.67409013133509
 20
-143.1382819347118
 30
0.0
 10
-47.47921988092039
 20
-144.3428922098434
 30
0.0
 10
-47.52712831002754
 20
-144.9895141884865
 30
0.0
 10
-47.53361681426976
 20
-145.0770897890588
 30
0.0
  0
SPLINE
  5
C1
330
B7
100
AcDbEntity
  8
0
  6
Continuous
 62
     7
370
    25
100
AcDbSpline
210
0.0
220
0.0
230
1.0
 70
    24
 71
     3
 72
    15
 73
    11
 74
     0
 42
0.000000001
 43
0.00000001
 40
0.0
 40
0.0
 40
0.0
 40
0.0
 40
0.0062500000000001
 40
0.0083333333333333
 40
0.0416666666666666
 40
0.0833333333333334
 40
0.1250000000000001
 40
0.1666666666666666
 40
0.2083333333333334
 40
0.25
 40
0.25
 40
0.25
 40
0.25
 10
-0.0000000000000382
 20
0.0
 30
0.0
 10
-2.565996604522497
 20
0.0
 30
0.0
 10
-5.98732541055238
 20
0.0
 30
0.0
 10
-23.07256972886459
 20
0.0
 30
0.0
 10
-54.45593140531501
 20
0.0
 30
0.0
 10
-98.3599218134471
 20
0.0
 30
0.0
 10
-139.5044365947469
 20
0.0
 30
0.0
 10
-170.9372657958255
 20
0.0
 30
0.0
 10
-190.4218675129827
 20
0.0
 30
0.0
 10
-195.0
 20
0.0
 30
0.0
 10
-195.0
 20
0.0
 30
0.0
  0
SPLINE
  5
C5
330
B7
100
AcDbEntity
  8
0
  6
Continuous
 62
     7
370
    25
100
AcDbSpline
210
0.0
220
0.0
230
1.0
 70
    24
 71
     3
 72
    15
 73
    11
 74
     0
 42
0.000000001
 43
0.00000001
 40
0.0
 40
0.0
 40
0.0
 40
0.0
 40
0.0062500000000001
 40
0.0083333333333333
 40
0.0416666666666666
 40
0.0833333333333334
 40
0.1250000000000001
 40
0.1666666666666666
 40
0.2083333333333334
 40
0.25
 40
0.25
 40
0.25
 40
0.25
 10
-0.0000000000000042
 20
-165.0
 30
0.0
 10
-0.6250504549477823
 20
-165.0
 30
0.0
 10
-1.458451061544805
 20
-164.9999999999999
 30
0.0
 10
-5.620241344210597
 20
-164.9999999999999
 30
0.0
 10
-13.26490636796133
 20
-165.0
 30
0.0
 10
-23.95946813404482
 20
-165.0
 30
0.0
 10
-33.98184993974606
 20
-165.0
 30
0.0
 10
-41.638564745137
 20
-165.0
 30
0.0
 10
-46.38481388136757
 20
-165.0000000000001
 30
0.0
 10
-47.49999999999999
 20
-165.0
 30
0.0
 10
-47.49999999999999
 20
-165.0
 30
0.0
  0
SPLINE
  5
C7
330
B7
100
AcDbEntity
  8
0
  6
Continuous
 62
     1
370
    25
100
AcDbSpline
210
0.0
220
0.0
230
1.0
 70
     8
 71
     3
 72
    23
 73
    19
 74
     0
 42
0.000000001
 43
0.00000001
 40
0.0
 40
0.0
 40
0.0
 40
0.0
 40
0.0542796510191912
 40
0.115409622075962
 40
0.1781867844873432
 40
0.2437022273755996
 40
0.3106180821151222
 40
0.3614239233997584
 40
0.4126236804190233
 40
0.4648895943875158
 40
0.5174559948167547
 40
0.5898485845946281
 40
0.6627788948281931
 40
0.7371886206355973
 40
0.8120280609297668
 40
0.8871853859369051
 40
0.9626983952580233
 40
0.9999999999999999
 40
0.9999999999999999
 40
0.9999999999999999
 40
0.9999999999999999
 10
-0.0000000000000067
 20
-135.8167630538445
 30
0.0
 10
1.95606685940907
 20
-135.8151910720863
 30
0.0
 10
6.115064435128549
 20
-135.8118487178669
 30
0.0
 10
12.38061107699652
 20
-135.7860748369424
 30
0.0
 10
18.6936070997174
 20
-135.7460363781996
 30
0.0
 10
24.69633202711371
 20
-135.6951454105513
 30
0.0
 10
29.77626581321007
 20
-135.6449093676511
 30
0.0
 10
33.99391091534812
 20
-135.6002177407694
 30
0.0
 10
37.48679861536249
 20
-135.5614085528298
 30
0.0
 10
40.65727362980327
 20
-135.5243443377281
 30
0.0
 10
43.85396965494832
 20
-135.4866627775662
 30
0.0
 10
46.9189637043115
 20
-135.4504859880446
 30
0.0
 10
49.70942302659891
 20
-135.4170170246754
 30
0.0
 10
51.9269911292856
 20
-135.3900943168107
 30
0.0
 10
53.58703633216425
 20
-135.3698794327203
 30
0.0
 10
54.65946167439285
 20
-135.3569347522387
 30
0.0
 10
55.19014712274053
 20
-135.350502746526
 30
0.0
 10
55.14658164506888
 20
-135.3510309367521
 30
0.0
 10
55.13217693126474
 20
-135.3512055802875
 30
0.0
  0
SPLINE
  5
C8
330
B7
100
AcDbEntity
  8
0
  6
Continuous
 62
     1
370
    25
100
AcDbSpline
210
0.0
220
0.0
230
1.0
 70
     8
 71
     3
 72
    23
 73
    19
 74
     0
 42
0.000000001
 43
0.00000001
 40
0.0
 40
0.0
 40
0.0
 40
0.0
 40
0.0419750887504042
 40
0.1291018963103655
 40
0.2167791063535392
 40
0.30638103088538
 40
0.3967591671355837
 40
0.4509976294678051
 40
0.505472306168816
 40
0.5608097994555488
 40
0.6165137223687296
 40
0.6989510730803443
 40
0.7410657020052345
 40
0.7834993387639066
 40
0.8502407391103053
 40
0.9188651774528551
 40
0.9591784832010245
 40
1.0
 40
1.0
 40
1.0
 40
1.0
 10
-55.10689157182338
 20
-135.3515129261913
 30
0.0
 10
-55.12303572704708
 20
-135.3513178518303
 30
0.0
 10
-55.17268996520967
 20
-135.3507178657272
 30
0.0
 10
-54.45375809090005
 20
-135.3594070993765
 30
0.0
 10
-52.98836620937284
 20
-135.3771572991844
 30
0.0
 10
-50.65786128480089
 20
-135.4055420589548
 30
0.0
 10
-47.8713854554892
 20
-135.4391384504483
 30
0.0
 10
-44.95601840470304
 20
-135.4736777368458
 30
0.0
 10
-42.20235416496189
 20
-135.5060892449852
 30
0.0
 10
-39.04323933219172
 20
-135.5434597476509
 30
0.0
 10
-34.87776528111755
 20
-135.5907995776403
 30
0.0
 10
-30.42956843713376
 20
-135.6383510221191
 30
0.0
 10
-25.83322870355106
 20
-135.6837007178064
 30
0.0
 10
-21.3770286922329
 20
-135.7239449814229
 30
0.0
 10
-15.71221220856235
 20
-135.7672623239046
 30
0.0
 10
-9.686093077100338
 20
-135.7982601427712
 30
0.0
 10
-4.379572978305712
 20
-135.8141484621807
 30
0.0
 10
-1.465941113555846
 20
-135.8158878914864
 30
0.0
 10
-0.0000000000000067
 20
-135.8167630538445
 30
0.0
  0
SPLINE
  5
C9
330
B7
100
AcDbEntity
  8
0
  6
Continuous
 62
     1
370
    25
100
AcDbSpline
210
0.0
220
0.0
230
1.0
 70
     8
 71
     3
 72
    22
 73
    18
 74
     0
 42
0.000000001
 43
0.00000001
 40
0.0
 40
0.0
 40
0.0
 40
0.0
 40
0.0362143915136409
 40
0.0728737870838662
 40
0.1419619126693458
 40
0.2135724288767832
 40
0.2855490202065908
 40
0.359068898992244
 40
0.4140923474966925
 40
0.4695032337302805
 40
0.5259316037348557
 40
0.5826348705824899
 40
0.6739263697461503
 40
0.7660456090963386
 40
0.8604600743163405
 40
0.9555474643810004
 40
1.0
 40
1.0
 40
1.0
 40
1.0
 10
-0.0000000000000047
 20
-145.7050392788966
 30
0.0
 10
-1.146243629429892
 20
-145.7039363547464
 30
0.0
 10
-3.452815981083182
 20
-145.7017169536648
 30
0.0
 10
-7.889530383254061
 20
-145.6804701453456
 30
0.0
 10
-13.25201592967397
 20
-145.6352319706107
 30
0.0
 10
-19.16457690653892
 20
-145.5606838388663
 30
0.0
 10
-24.55905326784638
 20
-145.4797804924902
 30
0.0
 10
-28.93397969973795
 20
-145.4093562239815
 30
0.0
 10
-32.47559319767561
 20
-145.3491895335065
 30
0.0
 10
-35.33115853573003
 20
-145.2989507487424
 30
0.0
 10
-37.87020832090529
 20
-145.2547118464509
 30
0.0
 10
-40.55535686091306
 20
-145.2076603558731
 30
0.0
 10
-43.12903531063436
 20
-145.1617295628888
 30
0.0
 10
-45.33190120647585
 20
-145.1219950347243
 30
0.0
 10
-46.76469906044358
 20
-145.0962927121199
 30
0.0
 10
-47.46703932971644
 20
-145.0837283983133
 30
0.0
 10
-47.42680564214488
 20
-145.0844470871699
 30
0.0
 10
-47.41398859769615
 20
-145.0846760362813
 30
0.0
  0
SPLINE
  5
CA
330
B7
100
AcDbEntity
  8
0
  6
Continuous
 62
     1
370
    25
100
AcDbSpline
210
0.0
220
0.0
230
1.0
 70
     8
 71
     3
 72
    23
 73
    19
 74
     0
 42
0.000000001
 43
0.00000001
 40
0.0
 40
0.0
 40
0.0
 40
0.0
 40
0.036296020731196
 40
0.1173512124818413
 40
0.1988139760069042
 40
0.2743711781017766
 40
0.3503317541848143
 40
0.4277285994259439
 40
0.5057157579335033
 40
0.5566553976732727
 40
0.6078537789887197
 40
0.660006094158474
 40
0.7125660244851071
 40
0.7748310371221367
 40
0.8382940701679673
 40
0.8941431648650134
 40
0.9513726774735995
 40
1.0
 40
1.0
 40
1.0
 40
1.0
 10
47.43438112113745
 20
-145.0843087611569
 30
0.0
 10
47.44881475303578
 20
-145.0840493100281
 30
0.0
 10
47.49548114151762
 20
-145.0832104603712
 30
0.0
 10
47.00136768700773
 20
-145.0920844584469
 30
0.0
 10
45.99257118101372
 20
-145.1101002122312
 30
0.0
 10
44.45473468344736
 20
-145.1378338810255
 30
0.0
 10
42.43200483806195
 20
-145.1742131993635
 30
0.0
 10
39.8279510945358
 20
-145.2205030041669
 30
0.0
 10
36.97691299673245
 20
-145.2702772345749
 30
0.0
 10
34.07663751460458
 20
-145.3209504364668
 30
0.0
 10
31.29186285082623
 20
-145.3696235783298
 30
0.0
 10
28.16058924838447
 20
-145.4218450447518
 30
0.0
 10
24.45353902551153
 20
-145.4810754113343
 30
0.0
 10
20.06661603793629
 20
-145.5473436491725
 30
0.0
 10
15.12108523395901
 20
-145.6128552672881
 30
0.0
 10
9.924468140683938
 20
-145.6651899104733
 30
0.0
 10
4.907867170351794
 20
-145.698616543499
 30
0.0
 10
1.544860284849002
 20
-145.7030175801645
 30
0.0
 10
-0.0000000000000047
 20
-145.7050392788966
 30
0.0
  0
LINE
  5
CB
330
B7
100
AcDbEntity
  8
0
  6
Continuous
 62
     7
370
    25
100
AcDbLine
 10
47.5
 20
-165.0
 30
0.0
 11
47.5
 21
-144.9553875097
 31
0.0
  0
LINE
  5
CC
330
B7
100
AcDbEntity
  8
0
  6
Continuous
 62
     7
370
    25
100
AcDbLine
 10
-47.5
 20
-145.1258463398
 30
0.0
 11
-47.5
 21
-165.0
 31
0.0
  0
LINE
  5
CD
330
B7
100
AcDbEntity
  8
0
  6
Continuous
 62
     7
370
    25
100
AcDbLine
 10
195.0
 20
0.0
 30
0.0
 11
0.0
 21
0.0
 31
0.0
  0
LINE
  5
CE
330
B7
100
AcDbEntity
  8
0
  6
Continuous
 62
     7
370
    25
100
AcDbLine
 10
-55.1070496726
 20
-135.3515110054
 30
0.0
 11
-55.1068915718
 21
-135.3515129262
 31
0.0
  0
LINE
  5
CF
330
B7
100
AcDbEntity
  8
0
  6
Continuous
 62
     7
370
    25
100
AcDbLine
 10
-47.4139885977
 20
-145.0846760363
 30
0.0
 11
-47.4146050985
 21
-145.084664939
 31
0.0
  0
LINE
  5
D0
330
B7
100
AcDbEntity
  8
0
  6
Continuous
 62
     7
370
    25
100
AcDbLine
 10
47.5
 20
-165.0
 30
0.0
 11
0.0
 21
-165.0
 31
0.0
  0
VIEWPORT
  5
193
330
B7
100
AcDbEntity
  8
0
100
AcDbViewport
 10
0.0
 20
0.0
 30
0.0
 40
205.6
 41
156.0
 68
     1
 69
     1
 12
0.0
 22
-17.129261467
 13
0.0
 23
0.0
 14
10.0
 24
10.0
 15
10.0
 25
10.0
 16
0.0
 26
0.0
 36
1.0
 17
0.0
 27
0.0
 37
0.0
 42
50.0
 43
0.0
 44
0.0
 45
382.4705910073
 50
0.0
 51
0.0
 72
   100
 90
   557152
  1

281
     0
 71
     1
 74
     0
110
0.0
120
0.0
130
0.0
111
1.0
121
0.0
131
0.0
112
0.0
122
1.0
132
0.0
 79
     0
146
0.0
170
     0
 61
     5
348
2F
292
     1
282
     1
141
0.0
142
0.0
 63
   256
361
194
  0
ENDBLK
  5
BA
330
B7
100
AcDbEntity
  8
0
100
AcDbBlockEnd
  0
BLOCK
  5
D3
330
D1
100
AcDbEntity
  8
0
100
AcDbBlockBegin
  2
*Paper_Space2
 70
     0
 10
0.0
 20
0.0
 30
0.0
  3
*Paper_Space2
  1

  0
SPLINE
  5
D5
330
D1
100
AcDbEntity
  8
0
  6
Continuous
 62
     7
370
    25
100
AcDbSpline
210
0.0
220
0.0
230
1.0
 70
     8
 71
     3
 72
    33
 73
    29
 74
     0
 42
0.000000001
 43
0.00000001
 40
0.0
 40
0.0
 40
0.0
 40
0.0
 40
0.0566902021383261
 40
0.1150443539393538
 40
0.1690942865449493
 40
0.2188598322427168
 40
0.2643547349699466
 40
0.3055878219286914
 40
0.3349991123667554
 40
0.3617835023951741
 40
0.3859412022000016
 40
0.40747176006944
 40
0.4266249752295315
 40
0.4472017420224
 40
0.4738722063970438
 40
0.5040459583905891
 40
0.5377307604772174
 40
0.5749369153583169
 40
0.6156908204806024
 40
0.660015644179283
 40
0.6956040214146982
 40
0.7331950215881987
 40
0.772779522537762
 40
0.8143447656371938
 40
0.8578743788803036
 40
0.9033455834561941
 40
0.9507315920415029
 40
1.0
 40
1.0
 40
1.0
 40
1.0
 10
81.00416794284905
 20
-135.7862408708077
 30
0.0
 10
85.88218430068989
 20
-135.0070136990267
 30
0.0
 10
95.78139473257512
 20
-133.4256877702393
 30
0.0
 10
110.1888532983979
 20
-130.3173877764937
 30
0.0
 10
123.8882072207208
 20
-126.8503554203903
 30
0.0
 10
136.3748099568937
 20
-123.1917000408135
 30
0.0
 10
147.6724146201111
 20
-119.4731921694669
 30
0.0
 10
157.1849123801828
 20
-116.0194900155064
 30
0.0
 10
165.0905880346516
 20
-112.9270025564218
 30
0.0
 10
171.5594756298441
 20
-110.2493262990725
 30
0.0
 10
177.350063337742
 20
-107.7311169448484
 30
0.0
 10
182.4943456236641
 20
-105.3958946169549
 30
0.0
 10
187.3226991818994
 20
-103.1209332339045
 30
0.0
 10
192.5215937078326
 20
-100.5829443081202
 30
0.0
 10
198.533645397704
 20
-97.5237222018356
 30
0.0
 10
205.4929298765482
 20
-93.81035900435123
 30
0.0
 10
213.1616503230638
 20
-89.48236122410603
 30
0.0
 10
221.5407125871736
 20
-84.53915350868942
 30
0.0
 10
230.4448407941149
 20
-78.67637515255008
 30
0.0
 10
238.8037142731243
 20
-72.28440294982535
 30
0.0
 10
246.5373405587889
 20
-65.56895597242512
 30
0.0
 10
253.5729803073112
 20
-58.70330964899728
 30
0.0
 10
260.5296629086646
 20
-51.03724688735991
 30
0.0
 10
267.3020206659932
 20
-42.53448135848587
 30
0.0
 10
273.7849602188254
 20
-33.17515498689969
 30
0.0
 10
279.8385894780121
 20
-22.94115918153746
 30
0.0
 10
285.4112511399948
 20
-11.86335312970564
 30
0.0
 10
288.4506854796368
 20
-4.005463324490588
 30
0.0
 10
289.9999999999999
 20
0.0
 30
0.0
  0
SPLINE
  5
D6
330
D1
100
AcDbEntity
  8
0
  6
Continuous
 62
     7
370
    25
100
AcDbSpline
210
0.0
220
0.0
230
1.0
 70
     8
 71
     3
 72
    32
 73
    28
 74
     0
 42
0.000000001
 43
0.00000001
 40
0.0
 40
0.0
 40
0.0
 40
0.0
 40
0.0427497963551726
 40
0.0836220114987239
 40
0.1225930099542511
 40
0.1596444660994567
 40
0.2060290536820008
 40
0.2489474729411567
 40
0.2883830594759711
 40
0.3194062817769078
 40
0.3478608537194844
 40
0.3737478723631353
 40
0.3970698751914499
 40
0.417830598590933
 40
0.4364546929444825
 40
0.4567153231536226
 40
0.4870027060148169
 40
0.5216053753478778
 40
0.5605185421255395
 40
0.6037392297263157
 40
0.651267272603276
 40
0.7031062560385253
 40
0.755939220070733
 40
0.8126236583834884
 40
0.8731769661470833
 40
0.937623375402553
 40
1.0
 40
1.0
 40
1.0
 40
1.0
 10
-290.0000000000001
 20
0.0
 30
0.0
 10
-288.6661870421602
 20
-3.479107876715931
 30
0.0
 10
-286.0571425084512
 20
-10.28452038570066
 30
0.0
 10
-281.4052987669418
 20
-19.91200070225837
 30
0.0
 10
-276.444481568526
 20
-28.81230516006268
 30
0.0
 10
-270.6873531132069
 20
-37.79716660712993
 30
0.0
 10
-264.1489733271043
 20
-46.6664352107539
 30
0.0
 10
-256.8658746023747
 20
-55.207869534788
 30
0.0
 10
-249.9778048586757
 20
-62.29724483343896
 30
0.0
 10
-243.6359209798192
 20
-68.1372981046527
 30
0.0
 10
-237.9315988110762
 20
-72.9137127504946
 30
0.0
 10
-232.5607909666979
 20
-77.03263754890655
 30
0.0
 10
-227.5816081006125
 20
-80.55211398040453
 30
0.0
 10
-223.0138679566282
 20
-83.55154686684281
 30
0.0
 10
-218.577995299681
 20
-86.25945136827922
 30
0.0
 10
-213.3952214236321
 20
-89.33523298778246
 30
0.0
 10
-206.9479572829318
 20
-93.00684313830453
 30
0.0
 10
-198.9895549435729
 20
-97.30470075095452
 30
0.0
 10
-189.9183138316477
 20
-101.9071019448834
 30
0.0
 10
-179.7002308727897
 20
-106.7287934854796
 30
0.0
 10
-168.3010732267069
 20
-111.6731953505708
 30
0.0
 10
-155.9576339008999
 20
-116.5269894318117
 30
0.0
 10
-142.6924242753308
 20
-121.1910655096957
 30
0.0
 10
-128.5334463541561
 20
-125.5740614002944
 30
0.0
 10
-113.2260297911818
 20
-129.6181875592644
 30
0.0
 10
-97.28128081687817
 20
-133.1637139563792
 30
0.0
 10
-86.37012913470465
 20
-134.9195825846961
 30
0.0
 10
-81.00358969996705
 20
-135.7831887841659
 30
0.0
  0
SPLINE
  5
D7
330
D1
100
AcDbEntity
  8
0
  6
Continuous
 62
     7
370
    25
100
AcDbSpline
210
0.0
220
0.0
230
1.0
 70
     8
 71
     3
 72
    17
 73
    13
 74
     0
 42
0.000000001
 43
0.00000001
 40
0.0
 40
0.0
 40
0.0
 40
0.0
 40
0.0681025058977574
 40
0.1454598369462648
 40
0.2713675775870477
 40
0.3829031158622079
 40
0.4891355967524872
 40
0.6016663563362803
 40
0.7172694869118561
 40
0.8345964143386237
 40
0.952812622671925
 40
1.0
 40
1.0
 40
1.0
 40
1.0
 10
-81.00270229573232
 20
-135.8222624555368
 30
0.0
 10
-80.68397652213092
 20
-135.8748177677421
 30
0.0
 10
-80.0032115715983
 20
-135.987070423401
 30
0.0
 10
-78.77432320251727
 20
-136.3789246248374
 30
0.0
 10
-77.41884801681044
 20
-137.0192337975412
 30
0.0
 10
-76.08218533375171
 20
-137.9619941851585
 30
0.0
 10
-74.95219259965333
 20
-139.0535325667544
 30
0.0
 10
-73.99433255321937
 20
-140.323501276755
 30
0.0
 10
-73.22456605692977
 20
-141.7787325711871
 30
0.0
 10
-72.71598470669878
 20
-143.3661243264673
 30
0.0
 10
-72.4677803406581
 20
-144.697370371465
 30
0.0
 10
-72.50331148176966
 20
-145.4814407920012
 30
0.0
 10
-72.51344802963119
 20
-145.7051253429599
 30
0.0
  0
SPLINE
  5
D8
330
D1
100
AcDbEntity
  8
0
  6
Continuous
 62
     7
370
    25
100
AcDbSpline
210
0.0
220
0.0
230
1.0
 70
     8
 71
     3
 72
    19
 73
    15
 74
     0
 42
0.000000001
 43
0.00000001
 40
0.0
 40
0.0
 40
0.0
 40
0.0
 40
0.0147771184422204
 40
0.1394384017918367
 40
0.2568415428258665
 40
0.3678841809695915
 40
0.4731647054509636
 40
0.5728668162119958
 40
0.6668809195261189
 40
0.7548362636646762
 40
0.8360892212893121
 40
0.9096841809377804
 40
0.9743043234076858
 40
0.9999999999999999
 40
0.9999999999999999
 40
0.9999999999999999
 40
0.9999999999999999
 10
72.46801013015188
 20
-145.7059772009134
 30
0.0
 10
72.46298127765377
 20
-145.6360025163667
 30
0.0
 10
72.41552851086944
 20
-144.9757142323389
 30
0.0
 10
72.61066273753227
 20
-143.7551235038439
 30
0.0
 10
73.0573910807789
 20
-142.139085780764
 30
0.0
 10
73.74712035993221
 20
-140.7033050719111
 30
0.0
 10
74.59450809032852
 20
-139.4600796012495
 30
0.0
 10
75.56007985974082
 20
-138.4135936414841
 30
0.0
 10
76.59588199937649
 20
-137.5624052030254
 30
0.0
 10
77.65828638074031
 20
-136.8994718135456
 30
0.0
 10
78.70408930368458
 20
-136.4088886954355
 30
0.0
 10
79.69261570244498
 20
-136.0772098934895
 30
0.0
 10
80.44982413180774
 20
-135.8905297476931
 30
0.0
 10
80.87458679888101
 20
-135.8331272511484
 30
0.0
 10
80.9954356627338
 20
-135.8167957158524
 30
0.0
  0
SPLINE
  5
DC
330
D1
100
AcDbEntity
  8
0
  6
Continuous
 62
     7
370
    25
100
AcDbSpline
210
0.0
220
0.0
230
1.0
 70
     8
 71
     3
 72
     9
 73
     5
 74
     0
 42
0.000000001
 43
0.00000001
 40
0.0
 40
0.0
 40
0.0
 40
0.0
 40
0.9979306381862432
 40
1.0
 40
1.0
 40
1.0
 40
1.0
 10
80.99539590627259
 20
-135.8165221890985
 30
0.0
 10
81.00581142618091
 20
-135.8167009462512
 30
0.0
 10
81.01624854426281
 20
-135.8168800740842
 30
0.0
 10
81.00933626709751
 20
-135.8167625687929
 30
0.0
 10
81.0093219630951
 20
-135.8167623256319
 30
0.0
  0
SPLINE
  5
DF
330
D1
100
AcDbEntity
  8
0
  6
Continuous
 62
     1
370
    25
100
AcDbSpline
210
0.0
220
0.0
230
1.0
 70
     8
 71
     3
 72
    38
 73
    34
 74
     0
 42
0.000000001
 43
0.00000001
 40
0.0
 40
0.0
 40
0.0
 40
0.0
 40
0.027170097554458
 40
0.0577691755869683
 40
0.0891927679440051
 40
0.1219870276928028
 40
0.155482274384237
 40
0.1809135297095858
 40
0.2065419625911113
 40
0.2327040685485496
 40
0.2590165853192296
 40
0.2952532539335738
 40
0.3317590826652702
 40
0.3690054442616785
 40
0.4064669027554829
 40
0.4440874808917364
 40
0.4818860995519794
 40
0.5202286794783972
 40
0.5587551498975202
 40
0.6036356252938324
 40
0.6488449980625552
 40
0.6952592825498346
 40
0.7421836145790787
 40
0.766004050940335
 40
0.7899294294258296
 40
0.8142312104743663
 40
0.838687839501796
 40
0.8767337635874604
 40
0.8961960273090003
 40
0.9158109214145507
 40
0.9476438138407509
 40
0.9803862868133953
 40
0.9999999999999999
 40
0.9999999999999999
 40
0.9999999999999999
 40
0.9999999999999999
 10
-81.00936480080782
 20
-135.8167630538445
 30
0.0
 10
-80.92086458216143
 20
-135.8151910720879
 30
0.0
 10
-80.73269504540428
 20
-135.8118487178716
 30
0.0
 10
-79.16254113904274
 20
-135.7860748369201
 30
0.0
 10
-76.52477437586076
 20
-135.746036378287
 30
0.0
 10
-72.81336890983621
 20
-135.6951454102061
 30
0.0
 10
-68.57326743245152
 20
-135.644909368834
 30
0.0
 10
-64.18071014351571
 20
-135.6002177375112
 30
0.0
 10
-59.85367328895902
 20
-135.5614085653159
 30
0.0
 10
-55.20899625095951
 20
-135.5243442899126
 30
0.0
 10
-49.68058866674968
 20
-135.4866629856697
 30
0.0
 10
-43.23779921762745
 20
-135.4504848757998
 30
0.0
 10
-35.82552126006568
 20
-135.4170212015309
 30
0.0
 10
-28.13151840219553
 20
-135.3900783534433
 30
0.0
 10
-20.21548909761673
 20
-135.3699394549993
 30
0.0
 10
-12.16375256639465
 20
-135.3567092915865
 30
0.0
 10
-3.993253256455803
 20
-135.3500089241329
 30
0.0
 10
4.261514600420503
 20
-135.3501022900316
 30
0.0
 10
13.00429051771499
 20
-135.3575218852328
 30
0.0
 10
22.16932002255441
 20
-135.3736942507622
 30
0.0
 10
31.74041544711606
 20
-135.4011061277131
 30
0.0
 10
41.19779552750509
 20
-135.4396973315611
 30
0.0
 10
48.87302846357797
 20
-135.4813869737446
 30
0.0
 10
54.78154724357286
 20
-135.5213483475874
 30
0.0
 10
59.09498174470429
 20
-135.5551615471087
 30
0.0
 10
63.22192198099352
 20
-135.5912673238693
 30
0.0
 10
67.82538337200148
 20
-135.6366077246933
 30
0.0
 10
71.70655123166482
 20
-135.6816061436438
 30
0.0
 10
74.80624232102092
 20
-135.7223414932989
 30
0.0
 10
77.27070251413673
 20
-135.7572017412807
 30
0.0
 10
79.4965496767966
 20
-135.7913435010492
 30
0.0
 10
80.80922488372335
 20
-135.8132195527142
 30
0.0
 10
80.94465934733437
 20
-135.8156221327779
 30
0.0
 10
80.99539590627259
 20
-135.8165221890985
 30
0.0
  0
SPLINE
  5
E0
330
D1
100
AcDbEntity
  8
0
  6
Continuous
 62
     1
370
    25
100
AcDbSpline
210
0.0
220
0.0
230
1.0
 70
     8
 71
     3
 72
    37
 73
    33
 74
     0
 42
0.000000001
 43
0.00000001
 40
0.0
 40
0.0
 40
0.0
 40
0.0
 40
0.017446768245915
 40
0.0464246094409082
 40
0.0762381134155476
 40
0.1123543779457627
 40
0.1495099281987728
 40
0.1733176173997479
 40
0.1972847014287279
 40
0.2216797456931278
 40
0.2461948412064107
 40
0.2928600676555231
 40
0.3400644828820899
 40
0.3887382769290253
 40
0.4378277873062108
 40
0.4776180335506281
 40
0.5175986999889196
 40
0.5581724972485574
 40
0.5989503127109385
 40
0.6367719812936722
 40
0.6747955667932886
 40
0.7135381055440424
 40
0.7525761374060269
 40
0.77807499282344
 40
0.8037033665111507
 40
0.8298092508674294
 40
0.85611917514241
 40
0.8872871724605277
 40
0.9190548628535707
 40
0.9470112441344061
 40
0.9756586212079441
 40
1.0
 40
1.0
 40
1.0
 40
1.0
 10
72.48808493950955
 20
-145.7046999653148
 30
0.0
 10
72.44913856042089
 20
-145.7035527645687
 30
0.0
 10
72.34550501563807
 20
-145.7005001449752
 30
0.0
 10
71.32882108559566
 20
-145.6727097833319
 30
0.0
 10
69.16846307855498
 20
-145.6189738913235
 30
0.0
 10
65.78606607532367
 20
-145.5445390463537
 30
0.0
 10
61.78861109635466
 20
-145.4724237312086
 30
0.0
 10
57.85839350690781
 20
-145.4129497098289
 30
0.0
 10
54.27920722333543
 20
-145.365007663079
 30
0.0
 10
50.46120531003769
 20
-145.3193101378829
 30
0.0
 10
45.23039538329148
 20
-145.2657150321872
 30
0.0
 10
38.42423695967263
 20
-145.2096830751832
 30
0.0
 10
29.87839295570181
 20
-145.1562166817616
 30
0.0
 10
20.93468548898456
 20
-145.1167772085699
 30
0.0
 10
12.29728214911356
 20
-145.0935498910168
 30
0.0
 10
4.14075183177494
 20
-145.08297394521
 30
0.0
 10
-3.497176138699751
 20
-145.0825299601111
 30
0.0
 10
-11.18067643318383
 20
-145.0917407914462
 30
0.0
 10
-18.67390349774992
 20
-145.1101850575171
 30
0.0
 10
-25.91545130578623
 20
-145.1378117550859
 30
0.0
 10
-32.90179933787366
 20
-145.1742192709943
 30
0.0
 10
-39.77730286778533
 20
-145.220501327512
 30
0.0
 10
-45.68479702015495
 20
-145.2702775151389
 30
0.0
 10
-50.61714728309923
 20
-145.3209503747549
 30
0.0
 10
-54.65171389333992
 20
-145.3696235952337
 30
0.0
 10
-58.49169340066307
 20
-145.4218450401733
 30
0.0
 10
-62.29062687498752
 20
-145.48107541282
 30
0.0
 10
-65.88951949504687
 20
-145.5473436487354
 30
0.0
 10
-68.89862004258457
 20
-145.6128552673904
 30
0.0
 10
-71.03660783546704
 20
-145.6651899104467
 30
0.0
 10
-72.28222729901567
 20
-145.6986165435044
 30
0.0
 10
-72.43145120167326
 20
-145.7030175801662
 30
0.0
 10
-72.50000000000001
 20
-145.7050392788966
 30
0.0
  0
LINE
  5
E1
330
D1
100
AcDbEntity
  8
0
  6
Continuous
 62
     7
370
    25
100
AcDbLine
 10
72.5
 20
-165.0
 30
0.0
 11
72.5
 21
-145.7050392789
 31
0.0
  0
LINE
  5
E2
330
D1
100
AcDbEntity
  8
0
  6
Continuous
 62
     7
370
    25
100
AcDbLine
 10
-72.5
 20
-145.7050392789
 30
0.0
 11
-72.5
 21
-165.0
 31
0.0
  0
LINE
  5
E3
330
D1
100
AcDbEntity
  8
0
  6
Continuous
 62
     7
370
    25
100
AcDbLine
 10
290.0
 20
0.0
 30
0.0
 11
-290.0
 21
0.0
 31
0.0
  0
LINE
  5
E4
330
D1
100
AcDbEntity
  8
0
  6
Continuous
 62
     7
370
    25
100
AcDbLine
 10
72.5
 20
-145.7050392789
 30
0.0
 11
72.4880849395
 21
-145.7046999653
 31
0.0
  0
LINE
  5
E5
330
D1
100
AcDbEntity
  8
0
  6
Continuous
 62
     7
370
    25
100
AcDbLine
 10
72.5
 20
-165.0
 30
0.0
 11
-72.5
 21
-165.0
 31
0.0
  0
VIEWPORT
  5
195
330
D1
100
AcDbEntity
  8
0
100
AcDbViewport
 10
0.0
 20
0.0
 30
0.0
 40
205.6
 41
156.0
 68
     1
 69
     1
 12
0.0
 22
-17.129261467
 13
0.0
 23
0.0
 14
10.0
 24
10.0
 15
10.0
 25
10.0
 16
0.0
 26
0.0
 36
1.0
 17
0.0
 27
0.0
 37
0.0
 42
50.0
 43
0.0
 44
0.0
 45
382.4705910073
 50
0.0
 51
0.0
 72
   100
 90
   557152
  1

281
     0
 71
     1
 74
     0
110
0.0
120
0.0
130
0.0
111
1.0
121
0.0
131
0.0
112
0.0
122
1.0
132
0.0
 79
     0
146
0.0
170
     0
 61
     5
348
2F
292
     1
282
     1
141
0.0
142
0.0
 63
   256
361
196
  0
ENDBLK
  5
D4
330
D1
100
AcDbEntity
  8
0
100
AcDbBlockEnd
  0
BLOCK
  5
E8
330
E6
100
AcDbEntity
  8
0
100
AcDbBlockBegin
  2
*Paper_Space3
 70
     0
 10
0.0
 20
0.0
 30
0.0
  3
*Paper_Space3
  1

  0
SPLINE
  5
EA
330
E6
100
AcDbEntity
  8
0
  6
Continuous
 62
     7
370
    25
100
AcDbSpline
210
0.0
220
0.0
230
1.0
 70
     8
 71
     3
 72
    33
 73
    29
 74
     0
 42
0.000000001
 43
0.00000001
 40
0.0
 40
0.0
 40
0.0
 40
0.0
 40
0.0566901171330088
 40
0.1150442741925563
 40
0.1690942116688017
 40
0.2188597618511363
 40
0.2643546686780888
 40
0.3055877593525074
 40
0.3349990524409371
 40
0.3617834448830012
 40
0.3859411468647729
 40
0.4074717066744138
 40
0.426624923560476
 40
0.4472016922075972
 40
0.4738721589856204
 40
0.5040459136982396
 40
0.5377307188203371
 40
0.574936877054228
 40
0.6156907858490064
 40
0.6600156135419696
 40
0.6956039939843919
 40
0.7331949975453641
 40
0.7727795020620404
 40
0.8143447489070781
 40
0.8578743660728108
 40
0.9033455747462886
 40
0.9507315876017352
 40
1.0
 40
1.0
 40
1.0
 40
1.0
 10
81.00419116746839
 20
-135.7862369489711
 30
0.0
 10
85.88219976542477
 20
-135.0070109835935
 30
0.0
 10
95.78140243138967
 20
-133.4256862280189
 30
0.0
 10
110.1888532932066
 20
-130.3173877479465
 30
0.0
 10
123.8882072219523
 20
-126.8503554271618
 30
0.0
 10
136.3748099566046
 20
-123.1917000392229
 30
0.0
 10
147.6724146201788
 20
-119.4731921698386
 30
0.0
 10
157.1849123801709
 20
-116.0194900154406
 30
0.0
 10
165.0905880346542
 20
-112.9270025564353
 30
0.0
 10
171.5594756298436
 20
-110.2493262990694
 30
0.0
 10
177.3500633377421
 20
-107.731116944849
 30
0.0
 10
182.494345623664
 20
-105.3958946169547
 30
0.0
 10
187.3226991818994
 20
-103.1209332339046
 30
0.0
 10
192.5215937078326
 20
-100.5829443081203
 30
0.0
 10
198.5336453977041
 20
-97.52372220183562
 30
0.0
 10
205.4929298765482
 20
-93.81035900435114
 30
0.0
 10
213.161650323064
 20
-89.48236122410607
 30
0.0
 10
221.5407125871736
 20
-84.53915350868938
 30
0.0
 10
230.4448407941151
 20
-78.6763751525501
 30
0.0
 10
238.8037142731243
 20
-72.28440294982532
 30
0.0
 10
246.5373405587891
 20
-65.56895597242512
 30
0.0
 10
253.5729803073113
 20
-58.70330964899728
 30
0.0
 10
260.5296629086649
 20
-51.03724688735999
 30
0.0
 10
267.3020206659934
 20
-42.5344813584859
 30
0.0
 10
273.7849602188255
 20
-33.17515498689972
 30
0.0
 10
279.8385894780123
 20
-22.9411591815375
 30
0.0
 10
285.4112511399951
 20
-11.86335312970567
 30
0.0
 10
288.4506854796369
 20
-4.005463324490588
 30
0.0
 10
290.0000000000001
 20
0.0
 30
0.0
  0
SPLINE
  5
EB
330
E6
100
AcDbEntity
  8
0
  6
Continuous
 62
     7
370
    25
100
AcDbSpline
210
0.0
220
0.0
230
1.0
 70
     8
 71
     3
 72
    32
 73
    28
 74
     0
 42
0.000000001
 43
0.00000001
 40
0.0
 40
0.0
 40
0.0
 40
0.0
 40
0.0427497946784047
 40
0.0836220082188323
 40
0.1225930051458066
 40
0.1596444598377494
 40
0.2060290456009585
 40
0.2489474631767331
 40
0.288383048164772
 40
0.3194062692488904
 40
0.3478608400753979
 40
0.3737478577036867
 40
0.3970698596172467
 40
0.4178305822024354
 40
0.436454675825495
 40
0.456715305239956
 40
0.4870026869131932
 40
0.5216053548890396
 40
0.560518520140417
 40
0.6037392060459554
 40
0.6512672470587318
 40
0.7031062284607099
 40
0.7559391904206595
 40
0.8126236265100908
 40
0.8731769318986139
 40
0.937623338626313
 40
1.0
 40
1.0
 40
1.0
 40
1.0
 10
-289.9999999999999
 20
0.0
 30
0.0
 10
-288.6661870421599
 20
-3.479107876715917
 30
0.0
 10
-286.0571425084509
 20
-10.2845203857006
 30
0.0
 10
-281.4052987669415
 20
-19.91200070225836
 30
0.0
 10
-276.4444815685257
 20
-28.81230516006264
 30
0.0
 10
-270.6873531132068
 20
-37.79716660712987
 30
0.0
 10
-264.1489733271042
 20
-46.66643521075387
 30
0.0
 10
-256.8658746023745
 20
-55.20786953478785
 30
0.0
 10
-249.9778048586756
 20
-62.29724483343902
 30
0.0
 10
-243.6359209798192
 20
-68.13729810465269
 30
0.0
 10
-237.9315988110762
 20
-72.91371275049461
 30
0.0
 10
-232.5607909666977
 20
-77.03263754890658
 30
0.0
 10
-227.5816081006126
 20
-80.55211398040451
 30
0.0
 10
-223.013867956628
 20
-83.55154686684281
 30
0.0
 10
-218.577995299681
 20
-86.25945136827923
 30
0.0
 10
-213.3952214236321
 20
-89.3352329877825
 30
0.0
 10
-206.9479572829318
 20
-93.00684313830465
 30
0.0
 10
-198.9895549435728
 20
-97.30470075095397
 30
0.0
 10
-189.9183138316482
 20
-101.907101944886
 30
0.0
 10
-179.7002308727875
 20
-106.728793485468
 30
0.0
 10
-168.3010732267161
 20
-111.673195350621
 30
0.0
 10
-155.9576339008616
 20
-116.5269894316047
 30
0.0
 10
-142.6924242754808
 20
-121.1910655105072
 30
0.0
 10
-128.5334463535327
 20
-125.5740613969274
 30
0.0
 10
-113.226029793747
 20
-129.6181875731242
 30
0.0
 10
-97.28127746912374
 20
-133.1637146440039
 30
0.0
 10
-86.37012240664838
 20
-134.9195837840967
 30
0.0
 10
-81.00357959454955
 20
-135.7831905112303
 30
0.0
  0
SPLINE
  5
EC
330
E6
100
AcDbEntity
  8
0
  6
Continuous
 62
     7
370
    25
100
AcDbSpline
210
0.0
220
0.0
230
1.0
 70
     8
 71
     3
 72
    18
 73
    14
 74
     0
 42
0.000000001
 43
0.00000001
 40
0.0
 40
0.0
 40
0.0
 40
0.0
 40
0.0046065862667633
 40
0.1196971633097571
 40
0.2045736885789149
 40
0.3132967240971227
 40
0.4121710584835315
 40
0.5210734324338784
 40
0.6344874564173889
 40
0.7505363780390438
 40
0.8680293709835429
 40
0.986235351284247
 40
1.0
 40
1.0
 40
1.0
 40
1.0
 10
-80.99498652882436
 20
-135.8124205929368
 30
0.0
 10
-80.97325791528087
 20
-135.8146499531658
 30
0.0
 10
-80.40866338623164
 20
-135.8725774682387
 30
0.0
 10
-79.46309896857203
 20
-136.1324558442474
 30
0.0
 10
-78.09760131048854
 20
-136.6627087052699
 30
0.0
 10
-76.8850573663282
 20
-137.3525143230724
 30
0.0
 10
-75.69787732167786
 20
-138.2790191466214
 30
0.0
 10
-74.64360526630608
 20
-139.3887411851292
 30
0.0
 10
-73.73303541204439
 20
-140.7182610519633
 30
0.0
 10
-73.02568728429375
 20
-142.216355594646
 30
0.0
 10
-72.59991275139593
 20
-143.8307588750029
 30
0.0
 10
-72.41422863761763
 20
-145.0163917041571
 30
0.0
 10
-72.46291214102943
 20
-145.6409583705377
 30
0.0
 10
-72.467989871792
 20
-145.7061012044119
 30
0.0
  0
SPLINE
  5
ED
330
E6
100
AcDbEntity
  8
0
  6
Continuous
 62
     7
370
    25
100
AcDbSpline
210
0.0
220
0.0
230
1.0
 70
     8
 71
     3
 72
    19
 73
    15
 74
     0
 42
0.000000001
 43
0.00000001
 40
0.0
 40
0.0
 40
0.0
 40
0.0
 40
0.0572699383285702
 40
0.179331842694845
 40
0.2942988025232539
 40
0.4031784251381487
 40
0.506404556847069
 40
0.6040545388321588
 40
0.6959301531605262
 40
0.7815724047913744
 40
0.8602391019996872
 40
0.9308599135337826
 40
0.9919903912789063
 40
0.9999999999999999
 40
0.9999999999999999
 40
0.9999999999999999
 40
0.9999999999999999
 10
72.51780781091412
 20
-145.7046142938005
 30
0.0
 10
72.50789683561182
 20
-145.4321161015561
 30
0.0
 10
72.47686216863407
 20
-144.5788306891321
 30
0.0
 10
72.75697214111649
 20
-143.1925858234074
 30
0.0
 10
73.29118008702424
 20
-141.6344674195816
 30
0.0
 10
74.03974678706753
 20
-140.2628926002039
 30
0.0
 10
74.9321729833301
 20
-139.0857049438473
 30
0.0
 10
75.92648920017207
 20
-138.1055795279964
 30
0.0
 10
76.97611000474522
 20
-137.3188011924223
 30
0.0
 10
78.03774110805692
 20
-136.7165348989154
 30
0.0
 10
79.06857150059153
 20
-136.2797685188416
 30
0.0
 10
80.02850171564793
 20
-135.996289593978
 30
0.0
 10
80.67900084098949
 20
-135.8519793556197
 30
0.0
 10
81.00535206614063
 20
-135.8140500191452
 30
0.0
 10
81.043158579738
 20
-135.8096560537954
 30
0.0
  0
SPLINE
  5
F0
330
E6
100
AcDbEntity
  8
0
  6
Continuous
 62
     7
370
    25
100
AcDbSpline
210
0.0
220
0.0
230
1.0
 70
    24
 71
     3
 72
    21
 73
    17
 74
     0
 42
0.000000001
 43
0.00000001
 40
0.0
 40
0.0
 40
0.0
 40
0.0
 40
0.0062500000000001
 40
0.0083333333333333
 40
0.0416666666666666
 40
0.0833333333333334
 40
0.1250000000000001
 40
0.1666666666666666
 40
0.2083333333333334
 40
0.25
 40
0.2916666666666666
 40
0.3333333333333334
 40
0.375
 40
0.4166666666666666
 40
0.4583333333333334
 40
0.5000000000020915
 40
0.5000000000020915
 40
0.5000000000020915
 40
0.5000000000020915
 10
290.0000000000001
 20
0.0
 30
0.0
 10
290.0000000000001
 20
0.0
 30
0.0
 10
289.8978724291358
 20
0.0
 30
0.0
 10
288.7146899587346
 20
0.0
 30
0.0
 10
281.2596886097431
 20
0.0
 30
0.0
 10
254.2143952860995
 20
0.0
 30
0.0
 10
207.4681364742391
 20
0.0
 30
0.0
 10
146.2788580815367
 20
0.0
 30
0.0
 10
76.3219502883592
 20
0.0
 30
0.0
 10
-0.0000000000000299
 20
0.0
 30
0.0
 10
-76.32195028835916
 20
0.0
 30
0.0
 10
-146.2788580815368
 20
0.0
 30
0.0
 10
-207.468136474239
 20
0.0
 30
0.0
 10
-254.2143952860996
 20
0.0
 30
0.0
 10
-283.1914952752318
 20
0.0
 30
0.0
 10
-289.9999999998282
 20
0.0
 30
0.0
 10
-289.9999999999999
 20
0.0
 30
0.0
  0
SPLINE
  5
F1
330
E6
100
AcDbEntity
  8
0
  6
Continuous
 62
     7
370
    25
100
AcDbSpline
210
0.0
220
0.0
230
1.0
 70
    24
 71
     3
 72
    21
 73
    17
 74
     0
 42
0.000000001
 43
0.00000001
 40
0.0
 40
0.0
 40
0.0
 40
0.0
 40
0.0062500000000001
 40
0.0083333333333333
 40
0.0416666666666666
 40
0.0833333333333334
 40
0.1250000000000001
 40
0.1666666666666666
 40
0.2083333333333334
 40
0.25
 40
0.2916666666666666
 40
0.3333333333333334
 40
0.375
 40
0.4166666666666666
 40
0.4583333333333334
 40
0.5000000000020915
 40
0.5000000000020915
 40
0.5000000000020915
 40
0.5000000000020915
 10
72.50000000000001
 20
-165.0
 30
0.0
 10
72.50000000000001
 20
-165.0
 30
0.0
 10
72.47446810728394
 20
-164.9999999999999
 30
0.0
 10
72.17867248968365
 20
-164.9999999999999
 30
0.0
 10
70.31492215243577
 20
-165.0
 30
0.0
 10
63.55359882152489
 20
-165.0
 30
0.0
 10
51.86703411855981
 20
-165.0
 30
0.0
 10
36.56971452038422
 20
-165.0
 30
0.0
 10
19.08048757208984
 20
-165.0000000000001
 30
0.0
 10
0.0000000000000191
 20
-165.0
 30
0.0
 10
-19.0804875720898
 20
-165.0
 30
0.0
 10
-36.5697145203842
 20
-165.0
 30
0.0
 10
-51.86703411855976
 20
-165.0
 30
0.0
 10
-63.55359882152488
 20
-165.0
 30
0.0
 10
-70.79787381880661
 20
-165.0000000000001
 30
0.0
 10
-72.49999999995615
 20
-165.0000000000001
 30
0.0
 10
-72.5
 20
-165.0
 30
0.0
  0
SPLINE
  5
F2
330
E6
100
AcDbEntity
  8
0
  6
Continuous
 62
     1
370
    25
100
AcDbSpline
210
0.0
220
0.0
230
1.0
 70
     8
 71
     3
 72
    38
 73
    34
 74
     0
 42
0.000000001
 43
0.00000001
 40
0.0
 40
0.0
 40
0.0
 40
0.0
 40
0.0307393893050686
 40
0.0624081232322777
 40
0.0936551847247026
 40
0.1256379046994268
 40
0.1481914535444934
 40
0.1709237737697521
 40
0.1941375991056135
 40
0.2174868426717757
 40
0.2494104469601404
 40
0.2815791493557429
 40
0.3143967863746625
 40
0.3473957675351346
 40
0.3904244510713919
 40
0.4337633744489063
 40
0.4779963291180656
 40
0.5225130556447707
 40
0.5659377230252554
 40
0.6096367152137784
 40
0.6542949998269121
 40
0.6993401542982526
 40
0.726373018831763
 40
0.7535236144136435
 40
0.7811042443821224
 40
0.8088675056794942
 40
0.849954911893897
 40
0.8709451651136915
 40
0.8920944142781523
 40
0.9253588387614613
 40
0.9595617837866988
 40
0.9796542437556613
 40
1.0
 40
1.0
 40
1.0
 40
1.0
 10
-81.00931716495779
 20
-135.8167622440669
 30
0.0
 10
-80.89632499444443
 20
-135.8147558564401
 30
0.0
 10
-80.6669245586811
 20
-135.8106824220259
 30
0.0
 10
-78.86336725819407
 20
-135.7813507478901
 30
0.0
 10
-76.07547405135858
 20
-135.7395577608573
 30
0.0
 10
-72.71421734891993
 20
-135.6942631169952
 30
0.0
 10
-69.17903481714701
 20
-135.6521668994422
 30
0.0
 10
-65.72353625656064
 20
-135.6154728215317
 30
0.0
 10
-61.95313830640508
 20
-135.57977417309
 30
0.0
 10
-57.41751279965585
 20
-135.541320768927
 30
0.0
 10
-52.06671435715266
 20
-135.5018116871512
 30
0.0
 10
-45.84522722769564
 20
-135.4644188900522
 30
0.0
 10
-39.3249313853598
 20
-135.4321181750618
 30
0.0
 10
-31.8821951783121
 20
-135.4021839603304
 30
0.0
 10
-23.52631532518756
 20
-135.3770633443531
 30
0.0
 10
-14.22991950911924
 20
-135.3590514755288
 30
0.0
 10
-4.738104260102181
 20
-135.3499343017805
 30
0.0
 10
4.790041526000405
 20
-135.3499876971541
 30
0.0
 10
14.24902213293445
 20
-135.3590955855884
 30
0.0
 10
23.6302642113232
 20
-135.3772431149853
 30
0.0
 10
32.96473882189747
 20
-135.4055182424944
 30
0.0
 10
40.9104586913928
 20
-135.4391420801457
 30
0.0
 10
47.43905362721126
 20
-135.4736769746623
 30
0.0
 10
52.64847728647097
 20
-135.5060894529828
 30
0.0
 10
57.68679001205725
 20
-135.5434596917779
 30
0.0
 10
63.25104311109034
 20
-135.590799601215
 30
0.0
 10
67.98438162369821
 20
-135.6383510186199
 30
0.0
 10
71.8402384939921
 20
-135.6837007184704
 30
0.0
 10
74.95400186565546
 20
-135.7239449811278
 30
0.0
 10
77.95466930401615
 20
-135.7672623240026
 30
0.0
 10
79.91542351021772
 20
-135.7982601427567
 30
0.0
 10
80.86200634235227
 20
-135.8141484621835
 30
0.0
 10
80.96004062611082
 20
-135.8158878914874
 30
0.0
 10
81.00936480080782
 20
-135.8167630538445
 30
0.0
  0
SPLINE
  5
F3
330
E6
100
AcDbEntity
  8
0
  6
Continuous
 62
     1
370
    25
100
AcDbSpline
210
0.0
220
0.0
230
1.0
 70
     8
 71
     3
 72
    80
 73
    76
 74
     0
 42
0.000000001
 43
0.00000001
 40
0.0
 40
0.0
 40
0.0
 40
0.0
 40
0.0312500000000004
 40
0.0312500000000004
 40
0.0390625000000005
 40
0.0390625000000005
 40
0.0468750000000006
 40
0.0468750000000006
 40
0.0625000000000008
 40
0.0625000000000008
 40
0.0937500000000012
 40
0.0937500000000012
 40
0.1015625000000012
 40
0.1015625000000012
 40
0.1093750000000013
 40
0.1093750000000013
 40
0.1250000000000014
 40
0.1250000000000014
 40
0.1562500000000015
 40
0.1562500000000015
 40
0.1718750000000015
 40
0.1718750000000015
 40
0.1875000000000016
 40
0.1875000000000016
 40
0.2500000000000018
 40
0.2500000000000018
 40
0.2812500000000019
 40
0.2812500000000019
 40
0.2968750000000019
 40
0.2968750000000019
 40
0.3125000000000018
 40
0.3125000000000018
 40
0.3750000000000016
 40
0.3750000000000016
 40
0.4375000000000014
 40
0.4375000000000014
 40
0.4687500000000013
 40
0.4687500000000013
 40
0.4843750000000012
 40
0.4843750000000012
 40
0.5000000000000011
 40
0.5000000000000011
 40
0.5625000000000009
 40
0.5625000000000009
 40
0.6250000000000007
 40
0.6250000000000007
 40
0.6562500000000006
 40
0.6562500000000006
 40
0.6718750000000006
 40
0.6718750000000006
 40
0.6875000000000003
 40
0.6875000000000003
 40
0.75
 40
0.75
 40
0.7812499999999999
 40
0.7812499999999999
 40
0.7968749999999999
 40
0.7968749999999999
 40
0.8124999999999999
 40
0.8124999999999999
 40
0.8437499999999997
 40
0.8437499999999997
 40
0.8749999999999996
 40
0.8749999999999996
 40
0.8906249999999996
 40
0.8906249999999996
 40
0.9062499999999994
 40
0.9062499999999994
 40
0.9374999999999997
 40
0.9374999999999997
 40
0.9531249999999998
 40
0.9531249999999998
 40
0.9687499999999998
 40
0.9687499999999998
 40
1.0
 40
1.0
 40
1.0
 40
1.0
 10
72.50000000000001
 20
-145.7050392788965
 30
0.0
 10
72.5
 20
-145.7050392788967
 30
0.0
 10
72.30216161490993
 20
-145.6992191515387
 30
0.0
 10
71.82318798482834
 20
-145.6863119264675
 30
0.0
 10
71.71544419352544
 20
-145.6834387748967
 30
0.0
 10
71.47869360218458
 20
-145.6772062749077
 30
0.0
 10
71.34965448483483
 20
-145.673845891051
 30
0.0
 10
70.93180131881847
 20
-145.6630997559582
 30
0.0
 10
70.61231216410418
 20
-145.655050138249
 30
0.0
 10
69.5386195888931
 20
-145.6286882636604
 30
0.0
 10
68.66931957187508
 20
-145.6082075460843
 30
0.0
 10
67.40769567420315
 20
-145.5807564941086
 30
0.0
 10
67.14659198363984
 20
-145.5751724979263
 30
0.0
 10
66.60713928876316
 20
-145.5638562664476
 30
0.0
 10
66.32826704704243
 20
-145.558113752629
 30
0.0
 10
65.47239065566497
 20
-145.5408426071942
 30
0.0
 10
64.87503405569028
 20
-145.5292473043532
 30
0.0
 10
63.00992154726752
 20
-145.4945888481537
 30
0.0
 10
61.66948718285309
 20
-145.4717444042664
 30
0.0
 10
59.53438058802242
 20
-145.4384388190728
 30
0.0
 10
58.80181620902196
 20
-145.427481836762
 30
0.0
 10
57.29715697281014
 20
-145.4058756638053
 30
0.0
 10
56.52431650770742
 20
-145.3952186442802
 30
0.0
 10
52.60519290768862
 20
-145.3432279054688
 30
0.0
 10
49.26543471740425
 20
-145.3052959474197
 30
0.0
 10
44.01876474302917
 20
-145.2564565632079
 30
0.0
 10
42.23011999765988
 20
-145.2413340401306
 30
0.0
 10
39.49197206895687
 20
-145.2201644986662
 30
0.0
 10
38.56859325754439
 20
-145.213351462185
 30
0.0
 10
36.7170213010325
 20
-145.2002939687343
 30
0.0
 10
35.78758293375254
 20
-145.194040504598
 30
0.0
 10
31.12296979713882
 20
-145.1641468975366
 30
0.0
 10
27.33593969444626
 20
-145.1446060600336
 30
0.0
 10
19.66602131286185
 20
-145.113643347141
 30
0.0
 10
15.78307852824737
 20
-145.1022557016646
 30
0.0
 10
9.891774814863455
 20
-145.0908218636849
 30
0.0
 10
7.916779882020391
 20
-145.087947806424
 30
0.0
 10
4.937262891081513
 20
-145.0850532732793
 30
0.0
 10
3.940276140818527
 20
-145.084325508921
 30
0.0
 10
1.952126439189792
 20
-145.0833590093058
 30
0.0
 10
0.9597005899253039
 20
-145.0831185809894
 30
0.0
 10
-3.994193392871038
 20
-145.0831442752265
 30
0.0
 10
-7.93122935602913
 20
-145.0870251293339
 30
0.0
 10
-15.75444664090548
 20
-145.1021918689492
 30
0.0
 10
-19.64061825837578
 20
-145.113542588607
 30
0.0
 10
-25.42755864945396
 20
-145.1369012170482
 30
0.0
 10
-27.34944756825699
 20
-145.1457362545242
 30
0.0
 10
-30.2207614439851
 20
-145.1606471297346
 30
0.0
 10
-31.17605588952546
 20
-145.1658959600652
 30
0.0
 10
-33.06937627045217
 20
-145.1768808209707
 30
0.0
 10
-34.00905166250958
 20
-145.182625077954
 30
0.0
 10
-38.67179335698882
 20
-145.2125986975006
 30
0.0
 10
-42.28965460350719
 20
-145.2403504195787
 30
0.0
 10
-47.52015637602101
 20
-145.289055028797
 30
0.0
 10
-49.23062577728201
 20
-145.3064998285758
 30
0.0
 10
-51.73867940062394
 20
-145.334819351701
 30
0.0
 10
-52.56597385873095
 20
-145.3446383407103
 30
0.0
 10
-54.19563918753037
 20
-145.3647028217821
 30
0.0
 10
-54.99377097841988
 20
-145.374903195057
 30
0.0
 10
-57.33627076522529
 20
-145.406013459058
 30
0.0
 10
-58.82909000659586
 20
-145.4274380778778
 30
0.0
 10
-61.66055243857863
 20
-145.4716039263827
 30
0.0
 10
-62.9993740427316
 20
-145.4944004961135
 30
0.0
 10
-64.86951435290398
 20
-145.5291409439854
 30
0.0
 10
-65.471880769154
 20
-145.5408327633703
 30
0.0
 10
-66.61240086271529
 20
-145.5638469821394
 30
0.0
 10
-67.15071896393972
 20
-145.5751674328446
 30
0.0
 10
-68.66484943426597
 20
-145.6081055783446
 30
0.0
 10
-69.54034712549954
 20
-145.6287235787557
 30
0.0
 10
-70.62495340855783
 20
-145.6553641297247
 30
0.0
 10
-70.94850135064662
 20
-145.6635231377954
 30
0.0
 10
-71.50369916995705
 20
-145.6778139903479
 30
0.0
 10
-71.73712701183375
 20
-145.6839901416128
 30
0.0
 10
-72.3022880093914
 20
-145.6992279809318
 30
0.0
 10
-72.5000000000207
 20
-145.7050392788972
 30
0.0
 10
-72.50000000000001
 20
-145.7050392788966
 30
0.0
  0
LINE
  5
F4
330
E6
100
AcDbEntity
  8
0
  6
Continuous
 62
     7
370
    25
100
AcDbLine
 10
72.5
 20
-165.0
 30
0.0
 11
72.5
 21
-145.7050392789
 31
0.0
  0
LINE
  5
F5
330
E6
100
AcDbEntity
  8
0
  6
Continuous
 62
     7
370
    25
100
AcDbLine
 10
-72.5
 20
-145.7050392789
 30
0.0
 11
-72.5
 21
-165.0
 31
0.0
  0
VIEWPORT
  5
197
330
E6
100
AcDbEntity
  8
0
100
AcDbViewport
 10
0.0
 20
0.0
 30
0.0
 40
205.6
 41
156.0
 68
     1
 69
     1
 12
0.0
 22
-17.129261467
 13
0.0
 23
0.0
 14
10.0
 24
10.0
 15
10.0
 25
10.0
 16
0.0
 26
0.0
 36
1.0
 17
0.0
 27
0.0
 37
0.0
 42
50.0
 43
0.0
 44
0.0
 45
382.4705910073
 50
0.0
 51
0.0
 72
   100
 90
   557152
  1

281
     0
 71
     1
 74
     0
110
0.0
120
0.0
130
0.0
111
1.0
121
0.0
131
0.0
112
0.0
122
1.0
132
0.0
 79
     0
146
0.0
170
     0
 61
     5
348
2F
292
     1
282
     1
141
0.0
142
0.0
 63
   256
361
198
  0
ENDBLK
  5
E9
330
E6
100
AcDbEntity
  8
0
100
AcDbBlockEnd
  0
BLOCK
  5
F8
330
F6
100
AcDbEntity
  8
0
100
AcDbBlockBegin
  2
*Paper_Space4
 70
     0
 10
0.0
 20
0.0
 30
0.0
  3
*Paper_Space4
  1

  0
SPLINE
  5
FA
330
F6
100
AcDbEntity
  8
0
  6
Continuous
 62
     7
370
    25
100
AcDbSpline
210
0.0
220
0.0
230
1.0
 70
     8
 71
     3
 72
    30
 73
    26
 74
     0
 42
0.000000001
 43
0.00000001
 40
0.0
 40
0.0
 40
0.0
 40
0.0
 40
0.0455805821624915
 40
0.0988375089362375
 40
0.1486860877247541
 40
0.1951115539252704
 40
0.2381020380441406
 40
0.2776493462821116
 40
0.3137485741759166
 40
0.346396816097162
 40
0.375592704392555
 40
0.4013362486966559
 40
0.4237185576911646
 40
0.4471602259034707
 40
0.4799179954501833
 40
0.5177147859599381
 40
0.5605358856633894
 40
0.6083481897174048
 40
0.6611046469940562
 40
0.7088498892014404
 40
0.7600446954415482
 40
0.8147128082647807
 40
0.8728905921233482
 40
0.9346298026810959
 40
1.0
 40
1.0
 40
1.0
 40
1.0
 10
55.09855826186335
 20
-135.3182198766232
 30
0.0
 10
58.11664939471233
 20
-134.5858098656336
 30
0.0
 10
64.66111625232993
 20
-132.9976427652638
 30
0.0
 10
74.30314991011706
 20
-129.8666474349782
 30
0.0
 10
83.82814941673297
 20
-126.2490570564054
 30
0.0
 10
92.50780957995191
 20
-122.4096996938365
 30
0.0
 10
100.3661963919959
 20
-118.4767688259185
 30
0.0
 10
107.4270049104798
 20
-114.5407373471414
 30
0.0
 10
113.720209355661
 20
-110.6885019475777
 30
0.0
 10
119.2790841164643
 20
-106.9968397918734
 30
0.0
 10
124.1376547683185
 20
-103.5324100829688
 30
0.0
 10
128.3344624700112
 20
-100.348869569103
 30
0.0
 10
132.1411760985362
 20
-97.30268855719765
 30
0.0
 10
136.2370681222198
 20
-93.85566707607892
 30
0.0
 10
141.0100526158839
 20
-89.58578679670524
 30
0.0
 10
146.5681738910716
 20
-84.22083467952591
 30
0.0
 10
152.5958994707826
 20
-77.87617260906124
 30
0.0
 10
158.9726509828257
 20
-70.47197070899247
 30
0.0
 10
165.1454884481773
 20
-62.46725303786125
 30
0.0
 10
171.006942270291
 20
-53.95193918618362
 30
0.0
 10
176.4748742215013
 20
-45.02488054728651
 30
0.0
 10
181.7661061250022
 20
-35.17494632845704
 30
0.0
 10
186.7369351337097
 20
-24.36498009372241
 30
0.0
 10
191.3223549547255
 20
-12.59058094588057
 30
0.0
 10
193.7509929582709
 20
-4.27603101095124
 30
0.0
 10
195.0
 20
0.0
 30
0.0
  0
SPLINE
  5
FB
330
F6
100
AcDbEntity
  8
0
  6
Continuous
 62
     7
370
    25
100
AcDbSpline
210
0.0
220
0.0
230
1.0
 70
     8
 71
     3
 72
    30
 73
    26
 74
     0
 42
0.000000001
 43
0.00000001
 40
0.0
 40
0.0
 40
0.0
 40
0.0
 40
0.0567342399632109
 40
0.1098998355684615
 40
0.159546379469531
 40
0.2057103337129917
 40
0.2484168430837616
 40
0.2876818610152986
 40
0.3235139770304157
 40
0.3559159376725911
 40
0.3848858574277552
 40
0.4104187364006976
 40
0.4326524591930182
 40
0.4561811541050408
 40
0.4890288396593751
 40
0.5269156857346659
 40
0.5698467368686406
 40
0.6178251146274762
 40
0.6708500053643774
 40
0.7188897431194526
 40
0.7704223242109792
 40
0.825437049119785
 40
0.8839174119489768
 40
0.9458421596513423
 40
1.0
 40
1.0
 40
1.0
 40
1.0
 10
-195.0000000000001
 20
0.0
 30
0.0
 10
-193.9262022558894
 20
-3.713206651631981
 30
0.0
 10
-191.8461497939533
 20
-10.90605528608432
 30
0.0
 10
-188.0460972081354
 20
-21.09646107542014
 30
0.0
 10
-184.0185782324342
 20
-30.41346456307917
 30
0.0
 10
-179.8231222265245
 20
-38.86838667799288
 30
0.0
 10
-175.5754473035204
 20
-46.49554761607678
 30
0.0
 10
-171.3647642860261
 20
-53.32828832596248
 30
0.0
 10
-167.2741647744067
 20
-59.40290020298652
 30
0.0
 10
-163.3764078248991
 20
-64.75608152488036
 30
0.0
 10
-159.7357939213531
 20
-69.4243068592752
 30
0.0
 10
-156.40186241065
 20
-73.45021882140948
 30
0.0
 10
-153.209418028152
 20
-77.10978298258327
 30
0.0
 10
-149.591013496938
 20
-81.0568517341351
 30
0.0
 10
-145.1101461990756
 20
-85.65670946852886
 30
0.0
 10
-139.4999108017622
 20
-90.99451416496285
 30
0.0
 10
-132.8858766888492
 20
-96.7618386209644
 30
0.0
 10
-125.1869398555199
 20
-102.837692426331
 30
0.0
 10
-116.8839789746254
 20
-108.6877605711448
 30
0.0
 10
-108.0719846100852
 20
-114.2072450613869
 30
0.0
 10
-98.85696636893309
 20
-119.3110805529277
 30
0.0
 10
-88.72437003246115
 20
-124.1931363681368
 30
0.0
 10
-77.65174947989429
 20
-128.6954800547221
 30
0.0
 10
-66.3840596199839
 20
-132.5361020975683
 30
0.0
 10
-58.70294655181048
 20
-134.4220300586294
 30
0.0
 10
-55.1193557460707
 20
-135.301901770133
 30
0.0
  0
SPLINE
  5
FC
330
F6
100
AcDbEntity
  8
0
  6
Continuous
 62
     7
370
    25
100
AcDbSpline
210
0.0
220
0.0
230
1.0
 70
     8
 71
     3
 72
    17
 73
    13
 74
     0
 42
0.000000001
 43
0.00000001
 40
0.0
 40
0.0
 40
0.0
 40
0.0
 40
0.1087826357594554
 40
0.2353953852563955
 40
0.3550899636923438
 40
0.4685660219207167
 40
0.5760575324430419
 40
0.6774765620778196
 40
0.7724542518699282
 40
0.860332080142483
 40
0.9401222082226371
 40
1.0
 40
1.0
 40
1.0
 40
1.0
 10
47.53804370809253
 20
-145.0914429491452
 30
0.0
 10
47.54778458746657
 20
-144.6088352404181
 30
0.0
 10
47.56886293362891
 20
-143.5645175813504
 30
0.0
 10
47.95004273389695
 20
-142.0264362247077
 30
0.0
 10
48.55453043408973
 20
-140.5481244333155
 30
0.0
 10
49.34324866417286
 20
-139.2551265475266
 30
0.0
 10
50.25845401442655
 20
-138.1539897882402
 30
0.0
 10
51.25662918103802
 20
-137.2460896411673
 30
0.0
 10
52.29225162104574
 20
-136.5248181926783
 30
0.0
 10
53.32313989877499
 20
-135.9827006438264
 30
0.0
 10
54.26031686958405
 20
-135.6055471719123
 30
0.0
 10
54.85862261333158
 20
-135.448153177555
 30
0.0
 10
55.11512551521388
 20
-135.3806759441951
 30
0.0
  0
SPLINE
  5
FD
330
F6
100
AcDbEntity
  8
0
  6
Continuous
 62
     7
370
    25
100
AcDbSpline
210
0.0
220
0.0
230
1.0
 70
     8
 71
     3
 72
    17
 73
    13
 74
     0
 42
0.000000001
 43
0.00000001
 40
0.0
 40
0.0
 40
0.0
 40
0.0
 40
0.0208831184070284
 40
0.1045943171978385
 40
0.2255240935337415
 40
0.3442726482607326
 40
0.4558233852967965
 40
0.5751643347682383
 40
0.6982128897660516
 40
0.8233666641876668
 40
0.9496335072744678
 40
1.0
 40
1.0
 40
1.0
 40
1.0
 10
-55.13829008899911
 20
-135.3808926715745
 30
0.0
 10
-55.04762726541397
 20
-135.3995386729717
 30
0.0
 10
-54.59353722276374
 20
-135.4929282590768
 30
0.0
 10
-53.64964888107919
 20
-135.8351259192579
 30
0.0
 10
-52.35679126654713
 20
-136.4620211389946
 30
0.0
 10
-51.08481731862642
 20
-137.3722088899922
 30
0.0
 10
-49.97049152347663
 20
-138.4562827062988
 30
0.0
 10
-49.0247158404357
 20
-139.7151611588125
 30
0.0
 10
-48.25993612857001
 20
-141.1634367668796
 30
0.0
 10
-47.75331003973875
 20
-142.7464942934237
 30
0.0
 10
-47.50453697516134
 20
-144.0752354460555
 30
0.0
 10
-47.54088091603025
 20
-144.8581982046444
 30
0.0
 10
-47.55124428727597
 20
-145.08145780569
 30
0.0
  0
SPLINE
  5
100
330
F6
100
AcDbEntity
  8
0
  6
Continuous
 62
     7
370
    25
100
AcDbSpline
210
0.0
220
0.0
230
1.0
 70
    24
 71
     3
 72
    19
 73
    15
 74
     0
 42
0.000000001
 43
0.00000001
 40
0.25
 40
0.25
 40
0.25
 40
0.25
 40
0.2916666666666666
 40
0.3333333333333334
 40
0.375
 40
0.4166666666666666
 40
0.4583333333333334
 40
0.5000000000020915
 40
0.5416666666666667
 40
0.5833333333333333
 40
0.625
 40
0.6666666666666667
 40
0.7083333333333333
 40
0.7500000000009739
 40
0.7500000000009739
 40
0.7500000000009739
 40
0.7500000000009739
 10
195.0
 20
0.0
 30
0.0
 10
195.0
 20
0.0
 30
0.0
 10
190.4218675129826
 20
0.0
 30
0.0
 10
170.9372657958255
 20
0.0
 30
0.0
 10
139.5044365947469
 20
0.0
 30
0.0
 10
98.35992181344709
 20
0.0
 30
0.0
 10
51.31993209044835
 20
0.0
 30
0.0
 10
-0.0000000000000792
 20
0.0
 30
0.0
 10
-51.31993209044843
 20
0.0
 30
0.0
 10
-98.35992181344717
 20
0.0
 30
0.0
 10
-139.504436594747
 20
0.0
 30
0.0
 10
-170.9372657958255
 20
0.0
 30
0.0
 10
-190.4218675129079
 20
0.0
 30
0.0
 10
-195.0000000000009
 20
0.0
 30
0.0
 10
-195.0000000000001
 20
0.0
 30
0.0
  0
SPLINE
  5
103
330
F6
100
AcDbEntity
  8
0
  6
Continuous
 62
     7
370
    25
100
AcDbSpline
210
0.0
220
0.0
230
1.0
 70
    24
 71
     3
 72
    19
 73
    15
 74
     0
 42
0.000000001
 43
0.00000001
 40
0.25
 40
0.25
 40
0.25
 40
0.25
 40
0.2916666666666666
 40
0.3333333333333334
 40
0.375
 40
0.4166666666666666
 40
0.4583333333333334
 40
0.5000000000020915
 40
0.5416666666666667
 40
0.5833333333333333
 40
0.625
 40
0.6666666666666667
 40
0.7083333333333333
 40
0.7500000000009739
 40
0.7500000000009739
 40
0.7500000000009739
 40
0.7500000000009739
 10
47.49999999999999
 20
-165.0
 30
0.0
 10
47.49999999999999
 20
-165.0
 30
0.0
 10
46.38481388136756
 20
-165.0
 30
0.0
 10
41.63856474513701
 20
-165.0
 30
0.0
 10
33.98184993974606
 20
-165.0
 30
0.0
 10
23.95946813404482
 20
-165.0
 30
0.0
 10
12.50100909895539
 20
-165.0000000000001
 30
0.0
 10
-0.000000000000007
 20
-165.0000000000001
 30
0.0
 10
-12.50100909895539
 20
-165.0
 30
0.0
 10
-23.95946813404482
 20
-165.0
 30
0.0
 10
-33.98184993974606
 20
-165.0
 30
0.0
 10
-41.63856474513701
 20
-165.0
 30
0.0
 10
-46.38481388134896
 20
-165.0
 30
0.0
 10
-47.49999999999994
 20
-165.0
 30
0.0
 10
-47.50000000000001
 20
-165.0
 30
0.0
  0
SPLINE
  5
104
330
F6
100
AcDbEntity
  8
0
  6
Continuous
 62
     1
370
    25
100
AcDbSpline
210
0.0
220
0.0
230
1.0
 70
     8
 71
     3
 72
    39
 73
    35
 74
     0
 42
0.000000001
 43
0.00000001
 40
0.0
 40
0.0
 40
0.0
 40
0.0
 40
0.0181813790181084
 40
0.0567230223345116
 40
0.1016211730287599
 40
0.1468483506252196
 40
0.1932809144711634
 40
0.240223726731326
 40
0.2640535443058143
 40
0.2879883453339452
 40
0.3122996971639101
 40
0.3367659579566175
 40
0.3748268656857821
 40
0.3942967942394511
 40
0.4139194132876237
 40
0.4457648424762541
 40
0.4785202104318469
 40
0.4992478836197446
 40
0.5300359062805297
 40
0.5617521158881238
 40
0.5930460209173885
 40
0.6250766872797029
 40
0.6476640469199525
 40
0.6704304459426745
 40
0.693679071916752
 40
0.7170633191312232
 40
0.7490347811848342
 40
0.7812517087806247
 40
0.8141185438397844
 40
0.8471669948996914
 40
0.8902601842046877
 40
0.9336640784420802
 40
0.9779633442439545
 40
1.0
 40
1.0
 40
1.0
 40
1.0
 10
-55.13188587219407
 20
-135.3512091199049
 30
0.0
 10
-55.14321918699597
 20
-135.351071973356
 30
0.0
 10
-55.17857733381157
 20
-135.3506440978494
 30
0.0
 10
-54.58741298631389
 20
-135.3578015838874
 30
0.0
 10
-53.27931591681566
 20
-135.3736139527787
 30
0.0
 10
-51.02076547084839
 20
-135.401128377692
 30
0.0
 10
-47.83070734020121
 20
-135.4396910956607
 30
0.0
 10
-44.30279757123351
 20
-135.4813877715977
 30
0.0
 10
-40.90933627131844
 20
-135.5213481832685
 30
0.0
 10
-38.02918830579286
 20
-135.5551616402659
 30
0.0
 10
-34.81065333269062
 20
-135.5912671145501
 30
0.0
 10
-30.58428523783187
 20
-135.6366086496288
 30
0.0
 10
-26.11195733647853
 20
-135.6816017383306
 30
0.0
 10
-21.50442898505917
 20
-135.72234927372
 30
0.0
 10
-17.02982569935354
 20
-135.7571639845002
 30
0.0
 10
-11.37528832600807
 20
-135.7915884086233
 30
0.0
 10
-5.337757011049385
 20
-135.8127235790316
 30
0.0
 10
0.7227501114216189
 20
-135.8190923941594
 30
0.0
 10
6.716091599639393
 20
-135.8097238769282
 30
0.0
 10
13.26621693394826
 20
-135.7816071844231
 30
0.0
 10
19.52695951432179
 20
-135.7394868530813
 30
0.0
 10
24.73920476201949
 20
-135.694276122715
 30
0.0
 10
29.04385656818685
 20
-135.6521639128953
 30
0.0
 10
32.57220629840756
 20
-135.6154736453642
 30
0.0
 10
35.84825884270777
 20
-135.5797739407834
 30
0.0
 10
39.22816209137767
 20
-135.5413209018526
 30
0.0
 10
42.56441465299238
 20
-135.5018114022993
 30
0.0
 10
45.74147713933814
 20
-135.4644198711268
 30
0.0
 10
48.45610421555552
 20
-135.4321144513166
 30
0.0
 10
50.93182229572668
 20
-135.40219972152
 30
0.0
 10
53.00281530714754
 20
-135.376984083643
 30
0.0
 10
54.45845403395997
 20
-135.3593496239037
 30
0.0
 10
55.18298691682899
 20
-135.3505930312006
 30
0.0
 10
55.1259854442653
 20
-135.3512820986073
 30
0.0
 10
55.10704967313296
 20
-135.3515110053727
 30
0.0
  0
SPLINE
  5
105
330
F6
100
AcDbEntity
  8
0
  6
Continuous
 62
     1
370
    25
100
AcDbSpline
210
0.0
220
0.0
230
1.0
 70
     8
 71
     3
 72
    37
 73
    33
 74
     0
 42
0.000000001
 43
0.00000001
 40
0.0
 40
0.0
 40
0.0
 40
0.0
 40
0.0216402961669787
 40
0.0674320865264589
 40
0.114157496869475
 40
0.1612353206718561
 40
0.1942248694818979
 40
0.2273807503028168
 40
0.2611422713178596
 40
0.2951647953355988
 40
0.3397136630074327
 40
0.3624786442792656
 40
0.3854246937586049
 40
0.4146035945509625
 40
0.4444059936205637
 40
0.472213467369124
 40
0.5007919680412247
 40
0.5193443241366001
 40
0.5483368679487719
 40
0.5781654985345605
 40
0.6143000875357992
 40
0.6514744895668889
 40
0.6752942581818506
 40
0.6992735024976855
 40
0.7236809241850433
 40
0.7482084580322241
 40
0.7948973612264543
 40
0.8421257267687657
 40
0.8908242166567643
 40
0.9399386337988709
 40
0.9797490685988827
 40
1.0
 40
1.0
 40
1.0
 40
1.0
 10
47.41460509846976
 20
-145.0846649390172
 30
0.0
 10
47.43231329358132
 20
-145.0843475386876
 30
0.0
 10
47.48749278538568
 20
-145.0833585057128
 30
0.0
 10
46.8382280538205
 20
-145.0949858903044
 30
0.0
 10
45.48006441017094
 20
-145.1193212195109
 30
0.0
 10
43.52181168198705
 20
-145.15465016188
 30
0.0
 10
41.22428155525597
 20
-145.1957609199023
 30
0.0
 10
38.77131321687359
 20
-145.2390011042301
 30
0.0
 10
35.84025467190821
 20
-145.2900140526392
 30
0.0
 10
32.02702369699916
 20
-145.3572334974738
 30
0.0
 10
27.96164684491466
 20
-145.4254601169655
 30
0.0
 10
23.85059399205216
 20
-145.490209457771
 30
0.0
 10
20.1533964032015
 20
-145.5456120109313
 30
0.0
 10
15.75191138797872
 20
-145.6049728625764
 30
0.0
 10
10.6982786498602
 20
-145.6589455879022
 30
0.0
 10
5.392187673962846
 20
-145.6956195756796
 30
0.0
 10
0.6349589698715328
 20
-145.7081322395232
 30
0.0
 10
-4.190823653878645
 20
-145.699901907721
 30
0.0
 10
-9.021044469682618
 20
-145.6730330133641
 30
0.0
 10
-14.6600919379881
 20
-145.6188654149638
 30
0.0
 10
-20.29724450353224
 20
-145.5445718951721
 30
0.0
 10
-25.00940363112603
 20
-145.4724183071949
 30
0.0
 10
-28.69940678058514
 20
-145.4129508811512
 30
0.0
 10
-31.55872788668271
 20
-145.3650073889195
 30
0.0
 10
-34.16970077816586
 20
-145.3193100336513
 30
0.0
 10
-37.23863369044604
 20
-145.2657159717382
 30
0.0
 10
-40.44652559180818
 20
-145.2096755256756
 30
0.0
 10
-43.43391958560424
 20
-145.1562450611202
 30
0.0
 10
-45.62703569324714
 20
-145.1166674155496
 30
0.0
 10
-46.8977487430927
 20
-145.0939299497225
 30
0.0
 10
-47.46844813215128
 20
-145.083699821856
 30
0.0
 10
-47.44226387109002
 20
-145.0841679591191
 30
0.0
 10
-47.43343530610591
 20
-145.0843258012762
 30
0.0
  0
LINE
  5
106
330
F6
100
AcDbEntity
  8
0
  6
Continuous
 62
     7
370
    25
100
AcDbLine
 10
47.5
 20
-165.0
 30
0.0
 11
47.5
 21
-144.9553875097
 31
0.0
  0
LINE
  5
107
330
F6
100
AcDbEntity
  8
0
  6
Continuous
 62
     7
370
    25
100
AcDbLine
 10
-47.5
 20
-145.1159555145
 30
0.0
 11
-47.5
 21
-165.0
 31
0.0
  0
LINE
  5
108
330
F6
100
AcDbEntity
  8
0
  6
Continuous
 62
     7
370
    25
100
AcDbLine
 10
-55.132176929
 20
-135.3512055803
 30
0.0
 11
-55.1318858722
 21
-135.3512091199
 31
0.0
  0
LINE
  5
109
330
F6
100
AcDbEntity
  8
0
  6
Continuous
 62
     7
370
    25
100
AcDbLine
 10
-47.4334353061
 20
-145.0843258013
 30
0.0
 11
-47.4343811211
 21
-145.0843087612
 31
0.0
  0
VIEWPORT
  5
199
330
F6
100
AcDbEntity
  8
0
100
AcDbViewport
 10
0.0
 20
0.0
 30
0.0
 40
205.6
 41
156.0
 68
     1
 69
     1
 12
0.0
 22
-17.129261467
 13
0.0
 23
0.0
 14
10.0
 24
10.0
 15
10.0
 25
10.0
 16
0.0
 26
0.0
 36
1.0
 17
0.0
 27
0.0
 37
0.0
 42
50.0
 43
0.0
 44
0.0
 45
382.4705910073
 50
0.0
 51
0.0
 72
   100
 90
   557152
  1

281
     0
 71
     1
 74
     0
110
0.0
120
0.0
130
0.0
111
1.0
121
0.0
131
0.0
112
0.0
122
1.0
132
0.0
 79
     0
146
0.0
170
     0
 61
     5
348
2F
292
     1
282
     1
141
0.0
142
0.0
 63
   256
361
19A
  0
ENDBLK
  5
F9
330
F6
100
AcDbEntity
  8
0
100
AcDbBlockEnd
  0
BLOCK
  5
10C
330
10A
100
AcDbEntity
  8
0
100
AcDbBlockBegin
  2
*Paper_Space5
 70
     0
 10
0.0
 20
0.0
 30
0.0
  3
*Paper_Space5
  1

  0
SPLINE
  5
10E
330
10A
100
AcDbEntity
  8
0
  6
Continuous
 62
     7
370
    25
100
AcDbSpline
210
0.0
220
0.0
230
1.0
 70
    11
 71
     3
 72
    35
 73
    31
 74
     0
 42
0.000000001
 43
0.00000001
 40
0.0
 40
0.0
 40
0.0
 40
0.0
 40
0.0062500000000001
 40
0.0083333333333333
 40
0.0416666666666666
 40
0.0833333333333334
 40
0.1250000000000001
 40
0.1666666666666666
 40
0.2083333333333334
 40
0.25
 40
0.2916666666666666
 40
0.3333333333333334
 40
0.375
 40
0.4166666666666666
 40
0.4583333333333334
 40
0.5000000000020915
 40
0.5416666666666667
 40
0.5833333333333333
 40
0.625
 40
0.6666666666666667
 40
0.7083333333333333
 40
0.7500000000009739
 40
0.7916666666666666
 40
0.8333333333333334
 40
0.875
 40
0.9166666666666666
 40
0.9583333333333334
 40
0.9916666666666667
 40
0.99375
 40
1.0
 40
1.0
 40
1.0
 40
1.0
 10
-72.50000000000001
 20
-0.0000000000000042
 30
0.0
 10
-72.50000000000001
 20
-0.6250504549477823
 30
0.0
 10
-72.47446810728394
 20
-1.458451061544805
 30
0.0
 10
-72.17867248968365
 20
-5.620241344210597
 30
0.0
 10
-70.31492215243577
 20
-13.26490636796133
 30
0.0
 10
-63.55359882152489
 20
-23.95946813404482
 30
0.0
 10
-51.86703411855981
 20
-33.98184993974606
 30
0.0
 10
-36.56971452038422
 20
-41.638564745137
 30
0.0
 10
-19.08048757208984
 20
-46.38481388136757
 30
0.0
 10
-0.0000000000000191
 20
-48.0575930593162
 30
0.0
 10
19.0804875720898
 20
-46.38481388136756
 30
0.0
 10
36.5697145203842
 20
-41.63856474513701
 30
0.0
 10
51.86703411855976
 20
-33.98184993974606
 30
0.0
 10
63.55359882152488
 20
-23.95946813404482
 30
0.0
 10
70.7978738189294
 20
-12.50100909895539
 30
0.0
 10
73.35106309053529
 20
0.000000000000007
 30
0.0
 10
70.79787381892939
 20
12.50100909895539
 30
0.0
 10
63.55359882152489
 20
23.95946813404482
 30
0.0
 10
51.86703411855976
 20
33.98184993974606
 30
0.0
 10
36.56971452038419
 20
41.63856474513701
 30
0.0
 10
19.0804875720898
 20
46.38481388136754
 30
0.0
 10
-0.0000000000000078
 20
48.05759305931623
 30
0.0
 10
-19.08048757208982
 20
46.38481388136756
 30
0.0
 10
-36.56971452038422
 20
41.63856474513699
 30
0.0
 10
-51.86703411855977
 20
33.98184993974605
 30
0.0
 10
-63.55359882152488
 20
23.95946813404482
 30
0.0
 10
-70.31492215243581
 20
13.26490636796133
 30
0.0
 10
-72.17867248968365
 20
5.620241344210579
 30
0.0
 10
-72.47446810728394
 20
1.458451061544785
 30
0.0
 10
-72.50000000000001
 20
0.6250504549477628
 30
0.0
 10
-72.50000000000001
 20
-0.0000000000000042
 30
0.0
  0
CIRCLE
  5
10F
330
10A
100
AcDbEntity
  8
0
  6
Continuous
 62
     7
370
    25
100
AcDbCircle
 10
0.0
 20
0.0
 30
0.0
 40
23.04
  0
SPLINE
  5
110
330
10A
100
AcDbEntity
  8
0
  6
Continuous
 62
     7
370
    25
100
AcDbSpline
210
0.0
220
0.0
230
1.0
 70
    11
 71
     3
 72
   158
 73
   154
 74
     0
 42
0.000000001
 43
0.00000001
 40
0.0
 40
0.0
 40
0.0
 40
0.0
 40
0.0078125
 40
0.0078125
 40
0.01171875
 40
0.01171875
 40
0.015625
 40
0.015625
 40
0.0312500000000001
 40
0.0312500000000001
 40
0.0390625000000001
 40
0.0390625000000001
 40
0.0429687500000001
 40
0.0429687500000001
 40
0.0468750000000001
 40
0.0468750000000001
 40
0.0624999999999999
 40
0.0624999999999999
 40
0.0703124999999999
 40
0.0703124999999999
 40
0.0781249999999998
 40
0.0781249999999998
 40
0.0937499999999998
 40
0.0937499999999998
 40
0.1249999999999997
 40
0.1249999999999997
 40
0.1328124999999997
 40
0.1328124999999997
 40
0.1406249999999996
 40
0.1406249999999996
 40
0.1562499999999995
 40
0.1562499999999995
 40
0.1874999999999993
 40
0.1874999999999993
 40
0.2031249999999992
 40
0.2031249999999992
 40
0.2187499999999991
 40
0.2187499999999991
 40
0.2499999999999989
 40
0.2499999999999989
 40
0.2656249999999988
 40
0.2656249999999988
 40
0.2734374999999988
 40
0.2734374999999988
 40
0.2812499999999987
 40
0.2812499999999987
 40
0.3124999999999986
 40
0.3124999999999986
 40
0.3437499999999983
 40
0.3437499999999983
 40
0.3593749999999982
 40
0.3593749999999982
 40
0.3671874999999982
 40
0.3671874999999982
 40
0.3749999999999981
 40
0.3749999999999981
 40
0.4062499999999979
 40
0.4062499999999979
 40
0.4140624999999979
 40
0.4140624999999979
 40
0.4218749999999978
 40
0.4218749999999978
 40
0.4374999999999978
 40
0.4374999999999978
 40
0.4531249999999978
 40
0.4531249999999978
 40
0.4609374999999978
 40
0.4609374999999978
 40
0.4687499999999977
 40
0.4687499999999977
 40
0.4843749999999977
 40
0.4843749999999977
 40
0.4882812499999977
 40
0.4882812499999977
 40
0.4921874999999977
 40
0.4921874999999977
 40
0.4999999999999977
 40
0.4999999999999977
 40
0.5156249999999977
 40
0.5156249999999977
 40
0.5312499999999977
 40
0.5312499999999977
 40
0.5468749999999977
 40
0.5468749999999977
 40
0.5624999999999977
 40
0.5624999999999977
 40
0.5781249999999977
 40
0.5781249999999977
 40
0.5937499999999978
 40
0.5937499999999978
 40
0.6015624999999978
 40
0.6015624999999978
 40
0.6093749999999978
 40
0.6093749999999978
 40
0.6249999999999978
 40
0.6249999999999978
 40
0.6406249999999978
 40
0.6406249999999978
 40
0.6562499999999978
 40
0.6562499999999978
 40
0.6718749999999978
 40
0.6718749999999978
 40
0.6796874999999978
 40
0.6796874999999978
 40
0.6874999999999978
 40
0.6874999999999978
 40
0.7187499999999979
 40
0.7187499999999979
 40
0.749999999999998
 40
0.749999999999998
 40
0.7578124999999981
 40
0.7578124999999981
 40
0.7656249999999981
 40
0.7656249999999981
 40
0.7812499999999982
 40
0.7812499999999982
 40
0.8124999999999983
 40
0.8124999999999983
 40
0.8437499999999984
 40
0.8437499999999984
 40
0.8515624999999986
 40
0.8515624999999986
 40
0.8593749999999987
 40
0.8593749999999987
 40
0.8749999999999988
 40
0.8749999999999988
 40
0.8906249999999989
 40
0.8906249999999989
 40
0.898437499999999
 40
0.898437499999999
 40
0.9062499999999991
 40
0.9062499999999991
 40
0.9218749999999994
 40
0.9218749999999994
 40
0.9374999999999997
 40
0.9374999999999997
 40
0.9453124999999997
 40
0.9453124999999997
 40
0.9492187499999997
 40
0.9492187499999997
 40
0.9531249999999997
 40
0.9531249999999997
 40
0.9687499999999998
 40
0.9687499999999998
 40
0.9765624999999999
 40
0.9765624999999999
 40
0.984375
 40
0.984375
 40
0.9921875000000001
 40
0.9921875000000001
 40
0.9960937500000001
 40
0.9960937500000001
 40
1.0
 40
1.0
 40
1.0
 40
1.0
 10
-81.00936480080779
 20
-0.0000000000004785
 30
0.0
 10
-81.00936480080773
 20
1.140148998504867
 30
0.0
 10
-80.95798560245203
 20
2.276352025708325
 30
0.0
 10
-80.8059417296831
 20
3.974898521483907
 30
0.0
 10
-80.74274938195488
 20
4.540119844398095
 30
0.0
 10
-80.59151608506951
 20
5.668654150539082
 30
0.0
 10
-80.50334318326757
 20
6.232474218805602
 30
0.0
 10
-80.00431365141688
 20
9.027830836385398
 30
0.0
 10
-79.41859875938356
 20
11.20299515782484
 30
0.0
 10
-78.28375504822138
 20
14.38175395716696
 30
0.0
 10
-77.86251172206794
 20
15.42726023777179
 30
0.0
 10
-77.16748016196118
 20
16.9748186386925
 30
0.0
 10
-76.9252698294481
 20
17.48721950630852
 30
0.0
 10
-76.41993611026697
 20
18.50516770171932
 30
0.0
 10
-76.1567307838023
 20
19.01075375573599
 30
0.0
 10
-74.79972438830153
 20
21.50251832349281
 30
0.0
 10
-73.57584638917228
 20
23.39676008600287
 30
0.0
 10
-71.55890439552522
 20
26.10822764922115
 30
0.0
 10
-70.85628124750671
 20
26.99031371947418
 30
0.0
 10
-69.39365337825458
 20
28.71333552479015
 30
0.0
 10
-68.63237435997458
 20
29.55557182137655
 30
0.0
 10
-66.27465007737507
 20
32.01477553181353
 30
0.0
 10
-64.62267035701316
 20
33.54700353758431
 30
0.0
 10
-59.46137741426959
 20
37.86897483208082
 30
0.0
 10
-55.74720293193064
 20
40.38465994354235
 30
0.0
 10
-50.82168412443141
 20
43.15097483507981
 30
0.0
 10
-49.82065039779321
 20
43.68607193821441
 30
0.0
 10
-47.80735383102
 20
44.71173194303392
 30
0.0
 10
-46.7935762769874
 20
45.20323378218811
 30
0.0
 10
-43.73213725869809
 20
46.61758833500983
 30
0.0
 10
-41.66444394219415
 20
47.48051295112458
 30
0.0
 10
-35.38794957520652
 20
49.8496560164025
 30
0.0
 10
-31.10595552681485
 20
51.13690743905997
 30
0.0
 10
-24.55129142906618
 20
52.67387029008334
 30
0.0
 10
-22.34380141308439
 20
53.12026749232878
 30
0.0
 10
-17.8880922124101
 20
53.88437235549456
 30
0.0
 10
-15.65805756856236
 20
54.19914106256023
 30
0.0
 10
-8.961780232830822
 20
54.95291367984611
 30
0.0
 10
-4.489429657769922
 20
55.2034060818267
 30
0.0
 10
2.231253963281896
 20
55.2039128155863
 30
0.0
 10
4.473525612359347
 20
55.14100357069723
 30
0.0
 10
7.839991184425651
 20
54.95225568654106
 30
0.0
 10
8.96265710780407
 20
54.87357666418788
 30
0.0
 10
11.20902230515593
 20
54.68432567587808
 30
0.0
 10
12.33437505629469
 20
54.57355708465443
 30
0.0
 10
17.94152679715522
 20
53.94095062102822
 30
0.0
 10
22.35425164687341
 20
53.18704416215179
 30
0.0
 10
31.02605843779844
 20
51.15761740064097
 30
0.0
 10
35.2852120820002
 20
49.88234037118813
 30
0.0
 10
41.54416752644292
 20
47.52883671388609
 30
0.0
 10
43.60880312021094
 20
46.670721428934
 30
0.0
 10
46.6699801837275
 20
45.26208743388241
 30
0.0
 10
47.68439278312687
 20
44.77224143489458
 30
0.0
 10
49.70044860830424
 20
43.74919736161829
 30
0.0
 10
50.70405745930783
 20
43.2148218627714
 30
0.0
 10
55.64446619030004
 20
40.45061411878894
 30
0.0
 10
59.37386443646835
 20
37.93400854122928
 30
0.0
 10
63.69678403602726
 20
34.32428219702255
 30
0.0
 10
64.54429320814492
 20
33.57895611631961
 30
0.0
 10
66.2025989700744
 20
32.03803223784148
 30
0.0
 10
67.0157648638947
 20
31.23990185988583
 30
0.0
 10
69.37450183293792
 20
28.78506942345849
 30
0.0
 10
70.83893025081872
 20
27.07013407604589
 30
0.0
 10
73.5282566400051
 20
23.46651633175114
 30
0.0
 10
74.75332430083004
 20
21.5779569514767
 30
0.0
 10
76.38517716704268
 20
18.5958651493461
 30
0.0
 10
76.89657289103957
 20
17.57234141936079
 30
0.0
 10
77.83116317126968
 20
15.5023264969255
 30
0.0
 10
78.25553220942597
 20
14.45453042028009
 30
0.0
 10
79.39813306287874
 20
11.27226042234635
 30
0.0
 10
79.98681957650226
 20
9.09919118471845
 30
0.0
 10
80.48996011405059
 20
6.31351862263746
 30
0.0
 10
80.57888284483786
 20
5.752896601674902
 30
0.0
 10
80.73260363263934
 20
4.624464767642771
 30
0.0
 10
80.79740391643054
 20
4.05616728947344
 30
0.0
 10
80.95352038526603
 20
2.351695085816208
 30
0.0
 10
81.00718613717152
 20
1.212423277143859
 30
0.0
 10
81.01352746499371
 20
-2.214463967466233
 30
0.0
 10
80.81225995340897
 20
-4.465048098995893
 30
0.0
 10
80.03369606604338
 20
-8.898456507782893
 30
0.0
 10
79.45616782284438
 20
-11.08223274488342
 30
0.0
 10
77.93093706511272
 20
-15.38491894567215
 30
0.0
 10
77.00313273062282
 20
-17.4470364167379
 30
0.0
 10
74.85369788920755
 20
-21.41257271536626
 30
0.0
 10
73.63188405146464
 20
-23.31589255023316
 30
0.0
 10
70.91726281096406
 20
-26.97617560676615
 30
0.0
 10
69.45217785295421
 20
-28.69620744921105
 30
0.0
 10
66.34480162581401
 20
-31.94573939945626
 30
0.0
 10
64.7017293611014
 20
-33.47619961718538
 30
0.0
 10
62.11816132716739
 20
-35.64638279970683
 30
0.0
 10
61.237047361244
 20
-36.34875589887795
 30
0.0
 10
59.43650709421161
 20
-37.71308124426847
 30
0.0
 10
58.51577159027624
 20
-38.37588714167428
 30
0.0
 10
55.70622264027076
 20
-40.29966420960587
 30
0.0
 10
53.7875827351155
 20
-41.48440562901237
 30
0.0
 10
49.87168451059202
 20
-43.68534674674137
 30
0.0
 10
47.87451266581405
 20
-44.70173086065854
 30
0.0
 10
43.80984555009767
 20
-46.58373800516095
 30
0.0
 10
41.7423002393252
 20
-47.44925371490982
 30
0.0
 10
37.54116965323816
 20
-49.03870608674156
 30
0.0
 10
35.40750564930013
 20
-49.76247423620772
 30
0.0
 10
32.159277910998
 20
-50.74579846365776
 30
0.0
 10
31.07017082108261
 20
-51.05594977830069
 30
0.0
 10
28.89094928199728
 20
-51.63910792320301
 30
0.0
 10
27.79917588051407
 20
-51.91262503541559
 30
0.0
 10
22.32991453083878
 20
-53.1933988588348
 30
0.0
 10
17.92147559176289
 20
-53.94215869833518
 30
0.0
 10
9.045447355096288
 20
-54.945665946796
 30
0.0
 10
4.577891068351249
 20
-55.20068829065227
 30
0.0
 10
-1.044269636447875
 20
-55.20447448853287
 30
0.0
 10
-2.170608774103763
 20
-55.18930485656119
 30
0.0
 10
-4.427108224577507
 20
-55.12705181157686
 30
0.0
 10
-5.558352570061813
 20
-55.07986582818197
 30
0.0
 10
-8.937726574797203
 20
-54.89132456585432
 30
0.0
 10
-11.17749802694702
 20
-54.70308331079645
 30
0.0
 10
-17.85772364129414
 20
-53.95235968364305
 30
0.0
 10
-22.25943512062243
 20
-53.2055246749044
 30
0.0
 10
-30.95084577859392
 20
-51.17885623787587
 30
0.0
 10
-35.24064487670922
 20
-49.89949812404667
 30
0.0
 10
-40.52155628652925
 20
-47.91326050406919
 30
0.0
 10
-41.57522794323805
 20
-47.49586129902598
 30
0.0
 10
-43.66648768653391
 20
-46.623163241951
 30
0.0
 10
-44.70166583104526
 20
-46.16894560336311
 30
0.0
 10
-47.77499750839221
 20
-44.75123799877424
 30
0.0
 10
-49.78110072956966
 20
-43.73295399852025
 30
0.0
 10
-53.69996663680033
 20
-41.53680903385771
 30
0.0
 10
-55.61262000681783
 20
-40.35876203898727
 30
0.0
 10
-58.40219868766085
 20
-38.45594144108925
 30
0.0
 10
-59.31884625018843
 20
-37.79907919388696
 30
0.0
 10
-61.12398050808021
 20
-36.43720777246463
 30
0.0
 10
-62.01429801550321
 20
-35.73070050978454
 30
0.0
 10
-64.62703327591221
 20
-33.54434702732199
 30
0.0
 10
-66.28076680016028
 20
-32.00769822110197
 30
0.0
 10
-69.3949420100554
 20
-28.76087576734686
 30
0.0
 10
-70.85535416621428
 20
-27.05067605214515
 30
0.0
 10
-72.87887712095684
 20
-24.3353612337024
 30
0.0
 10
-73.52544844237829
 20
-23.40517548925034
 30
0.0
 10
-74.44964425462392
 20
-21.9689016846324
 30
0.0
 10
-74.74981287765185
 20
-21.4836414240819
 30
0.0
 10
-75.3296809896259
 20
-20.50687062052356
 30
0.0
 10
-75.6099862777011
 20
-20.01443571540365
 30
0.0
 10
-76.96275348543341
 20
-17.53175452073606
 30
0.0
 10
-77.88939587251917
 20
-15.48018090378092
 30
0.0
 10
-79.02893190118316
 20
-12.29749178680698
 30
0.0
 10
-79.36697635815445
 20
-11.21901419809985
 30
0.0
 10
-79.95476342733382
 20
-9.024919094613658
 30
0.0
 10
-80.20460336498158
 20
-7.90667547776745
 30
0.0
 10
-80.6041597607575
 20
-5.666953604956104
 30
0.0
 10
-80.75516819451035
 20
-4.541535559579852
 30
0.0
 10
-80.90711715887869
 20
-2.844912103417921
 30
0.0
 10
-80.94532559184914
 20
-2.277953298136197
 30
0.0
 10
-80.99644924347773
 20
-1.141153546501831
 30
0.0
 10
-81.0093648008078
 20
-0.5700744992531345
 30
0.0
 10
-81.00936480080777
 20
-0.0000000000004782
 30
0.0
  0
SPLINE
  5
111
330
10A
100
AcDbEntity
  8
0
  6
Continuous
 62
     7
370
    25
100
AcDbSpline
210
0.0
220
0.0
230
1.0
 70
    11
 71
     3
 72
    35
 73
    31
 74
     0
 42
0.000000001
 43
0.00000001
 40
0.0
 40
0.0
 40
0.0
 40
0.0
 40
0.0062500000000001
 40
0.0083333333333333
 40
0.0416666666666666
 40
0.0833333333333334
 40
0.1250000000000001
 40
0.1666666666666666
 40
0.2083333333333334
 40
0.25
 40
0.2916666666666666
 40
0.3333333333333334
 40
0.375
 40
0.4166666666666666
 40
0.4583333333333334
 40
0.5000000000020915
 40
0.5416666666666667
 40
0.5833333333333333
 40
0.625
 40
0.6666666666666667
 40
0.7083333333333333
 40
0.7500000000009739
 40
0.7916666666666666
 40
0.8333333333333334
 40
0.875
 40
0.9166666666666666
 40
0.9583333333333334
 40
0.9916666666666667
 40
0.99375
 40
1.0
 40
1.0
 40
1.0
 40
1.0
 10
-290.0000000000001
 20
-0.0000000000000382
 30
0.0
 10
-290.0000000000001
 20
-2.565996604522497
 30
0.0
 10
-289.8978724291358
 20
-5.98732541055238
 30
0.0
 10
-288.7146899587346
 20
-23.07256972886459
 30
0.0
 10
-281.2596886097431
 20
-54.45593140531501
 30
0.0
 10
-254.2143952860995
 20
-98.3599218134471
 30
0.0
 10
-207.4681364742391
 20
-139.5044365947469
 30
0.0
 10
-146.2788580815367
 20
-170.9372657958255
 30
0.0
 10
-76.3219502883592
 20
-190.4218675129827
 30
0.0
 10
0.0000000000000299
 20
-197.2890662435087
 30
0.0
 10
76.32195028835916
 20
-190.4218675129826
 30
0.0
 10
146.2788580815368
 20
-170.9372657958255
 30
0.0
 10
207.468136474239
 20
-139.5044365947469
 30
0.0
 10
254.2143952860996
 20
-98.35992181344709
 30
0.0
 10
283.1914952757178
 20
-51.31993209044835
 30
0.0
 10
293.404252362141
 20
0.0000000000000792
 30
0.0
 10
283.1914952757176
 20
51.31993209044843
 30
0.0
 10
254.2143952860994
 20
98.35992181344717
 30
0.0
 10
207.4681364742389
 20
139.504436594747
 30
0.0
 10
146.2788580815368
 20
170.9372657958255
 30
0.0
 10
76.32195028835913
 20
190.4218675129827
 30
0.0
 10
-0.0000000000000729
 20
197.2890662435088
 30
0.0
 10
-76.3219502883593
 20
190.4218675129827
 30
0.0
 10
-146.2788580815369
 20
170.9372657958255
 30
0.0
 10
-207.4681364742391
 20
139.5044365947469
 30
0.0
 10
-254.2143952860996
 20
98.35992181344712
 30
0.0
 10
-281.2596886097433
 20
54.45593140531495
 30
0.0
 10
-288.7146899587346
 20
23.07256972886447
 30
0.0
 10
-289.8978724291358
 20
5.987325410552257
 30
0.0
 10
-290.0000000000001
 20
2.565996604522375
 30
0.0
 10
-290.0000000000001
 20
-0.0000000000000382
 30
0.0
  0
VIEWPORT
  5
19B
330
10A
100
AcDbEntity
  8
0
100
AcDbViewport
 10
0.0
 20
0.0
 30
0.0
 40
205.6
 41
156.0
 68
     1
 69
     1
 12
0.0
 22
-17.129261467
 13
0.0
 23
0.0
 14
10.0
 24
10.0
 15
10.0
 25
10.0
 16
0.0
 26
0.0
 36
1.0
 17
0.0
 27
0.0
 37
0.0
 42
50.0
 43
0.0
 44
0.0
 45
382.4705910073
 50
0.0
 51
0.0
 72
   100
 90
   557152
  1

281
     0
 71
     1
 74
     0
110
0.0
120
0.0
130
0.0
111
1.0
121
0.0
131
0.0
112
0.0
122
1.0
132
0.0
 79
     0
146
0.0
170
     0
 61
     5
348
2F
292
     1
282
     1
141
0.0
142
0.0
 63
   256
361
19C
  0
ENDBLK
  5
10D
330
10A
100
AcDbEntity
  8
0
100
AcDbBlockEnd
  0
BLOCK
  5
114
330
112
100
AcDbEntity
  8
0
100
AcDbBlockBegin
  2
*Paper_Space6
 70
     0
 10
0.0
 20
0.0
 30
0.0
  3
*Paper_Space6
  1

  0
SPLINE
  5
116
330
112
100
AcDbEntity
  8
0
  6
Continuous
 62
     7
370
    25
100
AcDbSpline
210
0.0
220
0.0
230
1.0
 70
     8
 71
     3
 72
   121
 73
   117
 74
     0
 42
0.000000001
 43
0.00000001
 40
0.0
 40
0.0
 40
0.0
 40
0.0
 40
0.0081607259255609
 40
0.0143528257609641
 40
0.0185717277511069
 40
0.0220866809862355
 40
0.0259797139724654
 40
0.0316834378496985
 40
0.0382108381406704
 40
0.0453050853314765
 40
0.0540991196149835
 40
0.0618016559159241
 40
0.0684395269493507
 40
0.0748078514840021
 40
0.0839893087512862
 40
0.0947186830915713
 40
0.1073562643483179
 40
0.1196896327916231
 40
0.131718329504518
 40
0.1504083816097035
 40
0.1677761780181633
 40
0.1852952949637891
 40
0.2035879227121724
 40
0.2226245802038097
 40
0.2402341826365576
 40
0.2564157724025442
 40
0.2668724628134311
 40
0.2769351346043997
 40
0.2879272592564412
 40
0.3011256938356601
 40
0.3137971934181939
 40
0.3252440454962374
 40
0.3353204530109964
 40
0.3433116455340189
 40
0.3519061177825061
 40
0.3606082447697161
 40
0.3694046148854259
 40
0.3773105122414978
 40
0.3863130824634202
 40
0.3951234025543143
 40
0.4026969303421706
 40
0.4107424438037156
 40
0.417529452313356
 40
0.4240650229421271
 40
0.4303648228623466
 40
0.4368213397853183
 40
0.4439737753802528
 40
0.4518134877551518
 40
0.4677656565582753
 40
0.485582613091698
 40
0.5053162844380932
 40
0.5208133277932797
 40
0.5362791248562558
 40
0.5506806577652865
 40
0.5640331871955979
 40
0.5763568003388826
 40
0.5876750879536591
 40
0.5958923731927265
 40
0.6035927186494146
 40
0.610798667521892
 40
0.617524714185974
 40
0.6245557277004384
 40
0.6330880413130248
 40
0.6397546844314707
 40
0.645628409988397
 40
0.6506047130312179
 40
0.6558609565125437
 40
0.6623936733912488
 40
0.6699481127874326
 40
0.6763610389454975
 40
0.6817646032022701
 40
0.6866951079965132
 40
0.6924912880682829
 40
0.6992156676349766
 40
0.7073547345730464
 40
0.7138593785758999
 40
0.7198294887600316
 40
0.7272984077598711
 40
0.7339321256144195
 40
0.7397317683695562
 40
0.7445156576154944
 40
0.7490389732090423
 40
0.7545705070027975
 40
0.7612844098981406
 40
0.7681803239681585
 40
0.7742016855142907
 40
0.7794382267262895
 40
0.7842776033998915
 40
0.7886204513032333
 40
0.7930097130802093
 40
0.7979720904335427
 40
0.8041401260725939
 40
0.8107918893190604
 40
0.8211357835950925
 40
0.8291285231232227
 40
0.8369395591690202
 40
0.8451030098538843
 40
0.8534544484666419
 40
0.8617357727980794
 40
0.8702194978669845
 40
0.8857911132471921
 40
0.9015091973704557
 40
0.9168082508369816
 40
0.9333463864892253
 40
0.9430829338639699
 40
0.9528247980623761
 40
0.961960913970412
 40
0.969780420775522
 40
0.9726946253704899
 40
0.9756070279350572
 40
0.9784897226428276
 40
0.9813065235805407
 40
0.9840703686654485
 40
0.9877883390562272
 40
0.9930947734052575
 40
1.0
 40
1.0
 40
1.0
 40
1.0
 10
-241.0078982416187
 20
23.32088237934084
 30
0.0
 10
-240.4000524547643
 20
21.78203767254836
 30
0.0
 10
-239.3309925760432
 20
19.07556644054745
 30
0.0
 10
-237.8679988094324
 20
15.61090370443549
 30
0.0
 10
-236.7424634793823
 20
13.02881113543004
 30
0.0
 10
-235.783810584462
 20
10.88647615227392
 30
0.0
 10
-234.6824333095033
 20
8.48272797912325
 30
0.0
 10
-233.29564222638
 20
5.546046636224267
 30
0.0
 10
-231.5856904561046
 20
2.057174732564643
 30
0.0
 10
-229.5406712079652
 20
-1.951908924842302
 30
0.0
 10
-227.3097519149541
 20
-6.133170199295545
 30
0.0
 10
-225.0494250995946
 20
-10.18294650597988
 30
0.0
 10
-222.9880589127338
 20
-13.74035586346133
 30
0.0
 10
-220.7194975990027
 20
-17.5284749562117
 30
0.0
 10
-217.9583627805278
 20
-21.96483769326556
 30
0.0
 10
-214.4314101365758
 20
-27.36848745569949
 30
0.0
 10
-210.4224581337068
 20
-33.18936072285579
 30
0.0
 10
-206.1237695863969
 20
-39.09579685715509
 30
0.0
 10
-200.963290348114
 20
-45.8277589629129
 30
0.0
 10
-194.9803358060608
 20
-53.1534160116008
 30
0.0
 10
-188.0493489806543
 20
-61.05728320999167
 30
0.0
 10
-180.9274309739108
 20
-68.65843670943924
 30
0.0
 10
-173.3385598819407
 20
-76.24252749437987
 30
0.0
 10
-165.4946181021074
 20
-83.57710950118665
 30
0.0
 10
-157.7324918272318
 20
-90.38807891453878
 30
0.0
 10
-151.0673534714455
 20
-95.90936889478024
 30
0.0
 10
-145.438662353086
 20
-100.3679467389113
 30
0.0
 10
-140.5408992138601
 20
-104.1165186043818
 30
0.0
 10
-135.1477536191197
 20
-108.1020972297464
 30
0.0
 10
-129.2367344931141
 20
-112.2952610249153
 30
0.0
 10
-123.201983385407
 20
-116.3981932502465
 30
0.0
 10
-117.3065043831505
 20
-120.2337782384262
 30
0.0
 10
-112.5509708667438
 20
-123.2145411805567
 30
0.0
 10
-108.1996925836056
 20
-125.8593606159218
 30
0.0
 10
-103.9097239856502
 20
-128.3895522082282
 30
0.0
 10
-99.45541339700233
 20
-130.9331353951204
 30
0.0
 10
-95.08011691956946
 20
-133.350590818736
 30
0.0
 10
-90.64476330575333
 20
-135.7243381852533
 30
0.0
 10
-86.18138808144057
 20
-138.0365462541822
 30
0.0
 10
-81.72924162253565
 20
-140.2637163802394
 30
0.0
 10
-77.40010669638903
 20
-142.3592168438026
 30
0.0
 10
-73.39755965830955
 20
-144.2353166649348
 30
0.0
 10
-69.56306685880986
 20
-145.9773944222783
 30
0.0
 10
-66.02709648184815
 20
-147.5385408419399
 30
0.0
 10
-62.53939015934599
 20
-149.0356250487316
 30
0.0
 10
-58.93298920699937
 20
-150.5400488138301
 30
0.0
 10
-55.03581474045295
 20
-152.1158565803464
 30
0.0
 10
-49.37725646167392
 20
-154.324422660411
 30
0.0
 10
-41.72984063872018
 20
-157.1395862278508
 30
0.0
 10
-31.87469279278245
 20
-160.4621022928977
 30
0.0
 10
-22.00087731067049
 20
-163.4568081664007
 30
0.0
 10
-12.45897249787677
 20
-166.0513119548774
 30
0.0
 10
-3.806328185848363
 20
-168.1689299909665
 30
0.0
 10
4.547178132169163
 20
-169.9952568011375
 30
0.0
 10
12.37274755370603
 20
-171.5149827644297
 30
0.0
 10
19.65479733883152
 20
-172.7626985064398
 30
0.0
 10
25.96287188957891
 20
-173.7087531270344
 30
0.0
 10
31.37347765315416
 20
-174.4229625615399
 30
0.0
 10
35.97216976357117
 20
-174.9623042117134
 30
0.0
 10
40.27216759711767
 20
-175.4077063724646
 30
0.0
 10
44.43101060044012
 20
-175.7854037531682
 30
0.0
 10
48.82833682559472
 20
-176.1296866214491
 30
0.0
 10
53.20433209274221
 20
-176.4106448160058
 30
0.0
 10
57.36031778078168
 20
-176.620054981296
 30
0.0
 10
60.82284495624889
 20
-176.7547626445051
 30
0.0
 10
64.00854084074214
 20
-176.8467939959274
 30
0.0
 10
67.30926433963364
 20
-176.9108944443085
 30
0.0
 10
71.11153521298128
 20
-176.9432205459516
 30
0.0
 10
75.14825612846629
 20
-176.9243909781987
 30
0.0
 10
78.96664984836937
 20
-176.8559947976997
 30
0.0
 10
82.25702560797826
 20
-176.7597791882822
 30
0.0
 10
85.42113167419879
 20
-176.6359214656945
 30
0.0
 10
88.91462730832161
 20
-176.4626815538938
 30
0.0
 10
93.08862486298436
 20
-176.2021656885807
 30
0.0
 10
97.42762173015082
 20
-175.8643615491838
 30
0.0
 10
101.6121063710182
 20
-175.4695244003945
 30
0.0
 10
105.6669165776344
 20
-175.0221043173948
 30
0.0
 10
109.7666520702239
 20
-174.4986415331348
 30
0.0
 10
113.8333625246273
 20
-173.902221235957
 30
0.0
 10
117.3485453335976
 20
-173.3259422825545
 30
0.0
 10
120.4301681125345
 20
-172.7739567475428
 30
0.0
 10
123.4508058245545
 20
-172.1914565284862
 30
0.0
 10
126.8500153849856
 20
-171.4843519469859
 30
0.0
 10
130.7153216485803
 20
-170.6067681504781
 30
0.0
 10
134.6660889883141
 20
-169.6232761547121
 30
0.0
 10
138.3072179999257
 20
-168.6383345288687
 30
0.0
 10
141.5191578805928
 20
-167.7066700570489
 30
0.0
 10
144.3822601947366
 20
-166.8245618307952
 30
0.0
 10
147.0540353365745
 20
-165.9565173483782
 30
0.0
 10
149.7440381542174
 20
-165.0382748582964
 30
0.0
 10
152.7757326088721
 20
-163.9484155375273
 30
0.0
 10
156.2246931746711
 20
-162.6317543673769
 30
0.0
 10
160.6770056735369
 20
-160.8132907372973
 30
0.0
 10
165.4168224330323
 20
-158.7018089671209
 30
0.0
 10
170.2953190516061
 20
-156.3207918963651
 30
0.0
 10
174.6961163468183
 20
-154.0021904739116
 30
0.0
 10
179.0848637127968
 20
-151.5080979990333
 30
0.0
 10
183.4709565710838
 20
-148.8171976332294
 30
0.0
 10
187.8193607150347
 20
-145.9419040418505
 30
0.0
 10
193.2877616713204
 20
-142.0493445415764
 30
0.0
 10
199.7734706957524
 20
-136.9300921488033
 30
0.0
 10
206.966754625756
 20
-130.4542236499998
 30
0.0
 10
213.8713756885758
 20
-123.3884644151929
 30
0.0
 10
219.4930162927066
 20
-116.8290615501529
 30
0.0
 10
224.0504191241894
 20
-110.8974591837935
 30
0.0
 10
227.4830983172054
 20
-106.0454351671896
 30
0.0
 10
230.5122752233555
 20
-101.4006790567329
 30
0.0
 10
232.6493637852587
 20
-97.8698423997558
 30
0.0
 10
234.065400010755
 20
-95.41489318159165
 30
0.0
 10
234.9512527829376
 20
-93.83780969497342
 30
0.0
 10
235.8095485041794
 20
-92.26851193419367
 30
0.0
 10
236.6358910833346
 20
-90.71696069081582
 30
0.0
 10
237.5254856862375
 20
-89.00254459691402
 30
0.0
 10
238.6250839806142
 20
-86.81497980668343
 30
0.0
 10
240.0646474696174
 20
-83.83523553681582
 30
0.0
 10
241.0985118377949
 20
-81.51824230498784
 30
0.0
 10
241.6831225441817
 20
-80.20807136608573
 30
0.0
  0
SPLINE
  5
117
330
112
100
AcDbEntity
  8
0
  6
Continuous
 62
     7
370
    25
100
AcDbSpline
210
0.0
220
0.0
230
1.0
 70
    11
 71
     3
 72
    35
 73
    31
 74
     0
 42
0.000000001
 43
0.00000001
 40
0.0
 40
0.0
 40
0.0
 40
0.0
 40
0.0062500000000001
 40
0.0083333333333333
 40
0.0416666666666666
 40
0.0833333333333334
 40
0.1250000000000001
 40
0.1666666666666666
 40
0.2083333333333334
 40
0.25
 40
0.2916666666666666
 40
0.3333333333333334
 40
0.375
 40
0.4166666666666666
 40
0.4583333333333334
 40
0.5000000000020915
 40
0.5416666666666667
 40
0.5833333333333333
 40
0.625
 40
0.6666666666666667
 40
0.7083333333333333
 40
0.7500000000009739
 40
0.7916666666666666
 40
0.8333333333333334
 40
0.875
 40
0.9166666666666666
 40
0.9583333333333334
 40
0.9916666666666667
 40
0.99375
 40
1.0
 40
1.0
 40
1.0
 40
1.0
 10
-205.0609665440984
 20
118.379176214293
 30
0.0
 10
-203.2465329445389
 20
119.4266264357139
 30
0.0
 10
-200.7550730472221
 20
120.7815378422944
 30
0.0
 10
-187.8373445833129
 20
127.2728239859649
 30
0.0
 10
-160.374474717838
 20
137.040477722942
 30
0.0
 10
-110.2057550707709
 20
143.922266250211
 30
0.0
 10
-48.05759305931578
 20
141.635611616759
 30
0.0
 10
17.43612730803673
 20
129.4889083672179
 30
0.0
 10
80.6808252023554
 20
108.8859083157871
 30
0.0
 10
139.5044365947473
 20
80.53419702756398
 30
0.0
 10
188.6163624069178
 20
46.57604899024091
 30
0.0
 10
224.3056722953948
 20
10.06566204128825
 30
0.0
 10
245.3466593028247
 20
-27.74305794555097
 30
0.0
 10
249.3076904933054
 20
-63.62042820346559
 30
0.0
 10
236.5352986750071
 20
-94.65091254273315
 30
0.0
 10
207.4681364742386
 20
-119.7688058358648
 30
0.0
 10
163.9579546926284
 20
-136.5489213995656
 30
0.0
 10
110.2057550707708
 20
-143.922266250211
 30
0.0
 10
48.05759305931566
 20
-141.6356116167589
 30
0.0
 10
-17.43612730803669
 20
-129.4889083672179
 30
0.0
 10
-80.6808252023554
 20
-108.885908315787
 30
0.0
 10
-139.5044365947473
 20
-80.53419702756399
 30
0.0
 10
-188.6163624069179
 20
-46.57604899024088
 30
0.0
 10
-224.3056722953949
 20
-10.06566204128823
 30
0.0
 10
-245.3466593028248
 20
27.743057945551
 30
0.0
 10
-249.3076904933054
 20
63.62042820346559
 30
0.0
 10
-237.3867914628936
 20
92.58221358678195
 30
0.0
 10
-220.4668856126721
 20
108.4361908987249
 30
0.0
 10
-209.2224298451663
 20
115.8934368089973
 30
0.0
 10
-206.8754001436579
 20
117.3317259928722
 30
0.0
 10
-205.0609665440984
 20
118.379176214293
 30
0.0
  0
SPLINE
  5
118
330
112
100
AcDbEntity
  8
0
  6
Continuous
 62
     7
370
    25
100
AcDbSpline
210
0.0
220
0.0
230
1.0
 70
    11
 71
     3
 72
    35
 73
    31
 74
     0
 42
0.000000001
 43
0.00000001
 40
0.0
 40
0.0
 40
0.0
 40
0.0
 40
0.0062500000000001
 40
0.0083333333333333
 40
0.0416666666666666
 40
0.0833333333333334
 40
0.1250000000000001
 40
0.1666666666666666
 40
0.2083333333333334
 40
0.25
 40
0.2916666666666666
 40
0.3333333333333334
 40
0.375
 40
0.4166666666666666
 40
0.4583333333333334
 40
0.5000000000020915
 40
0.5416666666666667
 40
0.5833333333333333
 40
0.625
 40
0.6666666666666667
 40
0.7083333333333333
 40
0.7500000000009739
 40
0.7916666666666666
 40
0.8333333333333334
 40
0.875
 40
0.9166666666666666
 40
0.9583333333333334
 40
0.9916666666666667
 40
0.99375
 40
1.0
 40
1.0
 40
1.0
 40
1.0
 10
-189.8872012819549
 20
109.6195479823871
 30
0.0
 10
-188.2633423615118
 20
110.5569817833194
 30
0.0
 10
-186.0312912618198
 20
111.7682695798729
 30
0.0
 10
-174.4441722077408
 20
117.5624631979117
 30
0.0
 10
-149.7020432874455
 20
126.2073618459457
 30
0.0
 10
-104.2358100274013
 20
132.0043004960874
 30
0.0
 10
-47.64580752046521
 20
129.3395913116573
 30
0.0
 10
12.22782165009779
 20
117.655175327521
 30
0.0
 10
70.2921822057559
 20
98.28166783327588
 30
0.0
 10
124.5776525575281
 20
71.91714802192267
 30
0.0
 10
170.2472887881323
 20
40.57881304305199
 30
0.0
 10
203.8068243345361
 20
7.058971184157937
 30
0.0
 10
224.0470195431213
 20
-27.50533921398177
 30
0.0
 10
228.6629313816003
 20
-60.17405228813202
 30
0.0
 10
217.9039881951338
 20
-88.29594276223777
 30
0.0
 10
192.1173970297347
 20
-110.9070125831743
 30
0.0
 10
152.9496313774079
 20
-125.7932947995303
 30
0.0
 10
104.2358100273518
 20
-132.004300496116
 30
0.0
 10
47.6458075204304
 20
-129.3395913116774
 30
0.0
 10
-12.2278216501169
 20
-117.6551753275322
 30
0.0
 10
-70.29218220575767
 20
-98.28166783327704
 30
0.0
 10
-124.5776525575263
 20
-71.91714802192183
 30
0.0
 10
-170.2472887881374
 20
-40.57881304305501
 30
0.0
 10
-203.8068243345479
 20
-7.058971184164855
 30
0.0
 10
-224.0470195431487
 20
27.505339213966
 30
0.0
 10
-228.6629313816439
 20
60.17405228810685
 30
0.0
 10
-218.6212510742694
 20
86.42115006394219
 30
0.0
 10
-203.6462248143099
 20
100.7044770604638
 30
0.0
 10
-193.6092995572208
 20
107.3935785088556
 30
0.0
 10
-191.511060202398
 20
108.6821141814548
 30
0.0
 10
-189.8872012819549
 20
109.6195479823871
 30
0.0
  0
SPLINE
  5
119
330
112
100
AcDbEntity
  8
0
  6
Continuous
 62
     7
370
    25
100
AcDbSpline
210
0.0
220
0.0
230
1.0
 70
     8
 71
     3
 72
    24
 73
    20
 74
     0
 42
0.000000001
 43
0.00000001
 40
0.0
 40
0.0
 40
0.0
 40
0.0
 40
0.125000000000002
 40
0.125000000000002
 40
0.250000000000004
 40
0.250000000000004
 40
0.375000000000006
 40
0.375000000000006
 40
0.500000000000008
 40
0.500000000000008
 40
0.62500000000001
 40
0.62500000000001
 40
0.6875000000000081
 40
0.6875000000000081
 40
0.7500000000000062
 40
0.7500000000000062
 40
0.8750000000000031
 40
0.8750000000000031
 40
1.0
 40
1.0
 40
1.0
 40
1.0
 10
100.0246195988225
 20
48.97965007534907
 30
0.0
 10
100.1071496113315
 20
49.26161366099544
 30
0.0
 10
100.2077641187552
 20
49.53063106017691
 30
0.0
 10
100.4435755710062
 20
50.04391076128167
 30
0.0
 10
100.5793965465258
 20
50.28911451909676
 30
0.0
 10
100.8855746520363
 20
50.74895622947101
 30
0.0
 10
101.0523947596737
 20
50.95860629979357
 30
0.0
 10
101.4137691260536
 20
51.33717354038139
 30
0.0
 10
101.6100362914835
 20
51.50731221807087
 30
0.0
 10
102.0262640488606
 20
51.7961077205127
 30
0.0
 10
102.2422621621544
 20
51.91257054172378
 30
0.0
 10
102.5786970711839
 20
52.04379883670914
 30
0.0
 10
102.6929302340097
 20
52.08024384288399
 30
0.0
 10
102.9258991044595
 20
52.13749919060206
 30
0.0
 10
103.0448953466479
 20
52.15819664357507
 30
0.0
 10
103.3987104358981
 20
52.19399645325323
 30
0.0
 10
103.6336749147876
 20
52.18415000744766
 30
0.0
 10
104.1018393570701
 20
52.09302955111958
 30
0.0
 10
104.334696351537
 20
52.01075674864624
 30
0.0
 10
104.5556915393755
 20
51.8930046306161
 30
0.0
  0
SPLINE
  5
11A
330
112
100
AcDbEntity
  8
0
  6
Continuous
 62
     7
370
    25
100
AcDbSpline
210
0.0
220
0.0
230
1.0
 70
     8
 71
     3
 72
    22
 73
    18
 74
     0
 42
0.000000001
 43
0.00000001
 40
0.0
 40
0.0
 40
0.0
 40
0.0
 40
0.1250000000000002
 40
0.1250000000000002
 40
0.2500000000000004
 40
0.2500000000000004
 40
0.3750000000000006
 40
0.3750000000000006
 40
0.5000000000000008
 40
0.5000000000000008
 40
0.625000000000001
 40
0.625000000000001
 40
0.7500000000000011
 40
0.7500000000000011
 40
0.8750000000000013
 40
0.8750000000000013
 40
1.0
 40
1.0
 40
1.0
 40
1.0
 10
101.5519975904641
 20
43.62668252795787
 30
0.0
 10
101.3575499075586
 20
43.73010183251726
 30
0.0
 10
101.1766477490817
 20
43.85876319022805
 30
0.0
 10
100.8406902281371
 20
44.16430795452075
 30
0.0
 10
100.6843981012557
 20
44.3436420378219
 30
0.0
 10
100.4108845166184
 20
44.73475261871637
 30
0.0
 10
100.291986885918
 20
44.9473437439727
 30
0.0
 10
100.0884311019221
 20
45.40532904168407
 30
0.0
 10
100.0061981752273
 20
45.64570449793777
 30
0.0
 10
99.87906287472673
 20
46.14084211962524
 30
0.0
 10
99.83360222329003
 20
46.3990088797529
 30
0.0
 10
99.77975095061514
 20
46.91769142943994
 30
0.0
 10
99.77093457329899
 20
47.17809665495107
 30
0.0
 10
99.7871259777809
 20
47.70090495197415
 30
0.0
 10
99.8125409082933
 20
47.96438510364476
 30
0.0
 10
99.89500650739797
 20
48.47880341119849
 30
0.0
 10
99.95198176406807
 20
48.73148309077785
 30
0.0
 10
100.0246195988225
 20
48.97965007534906
 30
0.0
  0
SPLINE
  5
11B
330
112
100
AcDbEntity
  8
0
  6
Continuous
 62
     7
370
    25
100
AcDbSpline
210
0.0
220
0.0
230
1.0
 70
     8
 71
     3
 72
     8
 73
     4
 74
     0
 42
0.000000001
 43
0.00000001
 40
0.0
 40
0.0
 40
0.0
 40
0.0
 40
1.0
 40
1.0
 40
1.0
 40
1.0
 10
123.6628957061447
 20
30.86233274259956
 30
0.0
 10
116.5944512024397
 20
35.29137311062412
 30
0.0
 10
109.224151830546
 20
39.54615637241007
 30
0.0
 10
101.5519975904633
 20
43.6266825279574
 30
0.0
  0
SPLINE
  5
11C
330
112
100
AcDbEntity
  8
0
  6
Continuous
 62
     7
370
    25
100
AcDbSpline
210
0.0
220
0.0
230
1.0
 70
     8
 71
     3
 72
    20
 73
    16
 74
     0
 42
0.000000001
 43
0.00000001
 40
0.0
 40
0.0
 40
0.0
 40
0.0
 40
0.25
 40
0.25
 40
0.375
 40
0.375
 40
0.5
 40
0.5
 40
0.625
 40
0.625
 40
0.75
 40
0.75
 40
0.875
 40
0.875
 40
1.0
 40
1.0
 40
1.0
 40
1.0
 10
127.7708459257259
 20
32.96209456008368
 30
0.0
 10
127.5675968125219
 20
32.49779445082154
 30
0.0
 10
127.3161254673459
 20
32.08302646227337
 30
0.0
 10
126.8625729450915
 20
31.53973878224062
 30
0.0
 10
126.7009471528628
 20
31.37551456361393
 30
0.0
 10
126.361960732574
 20
31.08694551072705
 30
0.0
 10
126.1838275988758
 20
30.961605577527
 30
0.0
 10
125.8085882454166
 20
30.75289972771533
 30
0.0
 10
125.6130343180739
 20
30.67109952967685
 30
0.0
 10
125.2206539839299
 20
30.56081722783335
 30
0.0
 10
125.021781369736
 20
30.53105164397671
 30
0.0
 10
124.6182523109882
 20
30.52779546532058
 30
0.0
 10
124.4177207142517
 20
30.55495471636774
 30
0.0
 10
124.0315426892288
 20
30.66551246449192
 30
0.0
 10
123.8427626995025
 20
30.74962927947708
 30
0.0
 10
123.6628957061448
 20
30.86233274259958
 30
0.0
  0
SPLINE
  5
11D
330
112
100
AcDbEntity
  8
0
  6
Continuous
 62
     7
370
    25
100
AcDbSpline
210
0.0
220
0.0
230
1.0
 70
     8
 71
     3
 72
    22
 73
    18
 74
     0
 42
0.000000001
 43
0.00000001
 40
0.0
 40
0.0
 40
0.0
 40
0.0
 40
0.125
 40
0.125
 40
0.25
 40
0.25
 40
0.375
 40
0.375
 40
0.5
 40
0.5
 40
0.625
 40
0.625
 40
0.75
 40
0.75
 40
0.875
 40
0.875
 40
1.0
 40
1.0
 40
1.0
 40
1.0
 10
126.6665896550564
 20
39.12865484525799
 30
0.0
 10
126.8700158109557
 20
39.00142016328985
 30
0.0
 10
127.056608902944
 20
38.8432221693685
 30
0.0
 10
127.3982888793733
 20
38.46900569041534
 30
0.0
 10
127.5536230882626
 20
38.25092185402049
 30
0.0
 10
127.8179150505632
 20
37.78017508039424
 30
0.0
 10
127.9300512616991
 20
37.52292654162471
 30
0.0
 10
128.1096848248696
 20
36.9814267017885
 30
0.0
 10
128.1764561400067
 20
36.70092994317542
 30
0.0
 10
128.2672475693761
 20
36.12196291578152
 30
0.0
 10
128.2906348537969
 20
35.82380978368879
 30
0.0
 10
128.2946635328133
 20
35.23280391108194
 30
0.0
 10
128.275750606009
 20
34.93639045744205
 30
0.0
 10
128.1967707614497
 20
34.34571835942405
 30
0.0
 10
128.1377147138082
 20
34.05829919870168
 30
0.0
 10
127.9825283420328
 20
33.49843396500889
 30
0.0
 10
127.8858351058462
 20
33.22477461832427
 30
0.0
 10
127.7708459257259
 20
32.96209456008366
 30
0.0
  0
SPLINE
  5
11E
330
112
100
AcDbEntity
  8
0
  6
Continuous
 62
     7
370
    25
100
AcDbSpline
210
0.0
220
0.0
230
1.0
 70
     8
 71
     3
 72
     8
 73
     4
 74
     0
 42
0.000000001
 43
0.00000001
 40
0.0
 40
0.0
 40
0.0
 40
0.0
 40
1.0
 40
1.0
 40
1.0
 40
1.0
 10
126.6665896550564
 20
39.12865484525801
 30
0.0
 10
119.5914775285496
 20
43.55384607657027
 30
0.0
 10
112.221178156656
 20
47.80862933835629
 30
0.0
 10
104.5556915393755
 20
51.8930046306161
 30
0.0
  0
SPLINE
  5
11F
330
112
100
AcDbEntity
  8
0
  6
Continuous
 62
     7
370
    25
100
AcDbSpline
210
0.0
220
0.0
230
1.0
 70
    11
 71
     3
 72
    51
 73
    47
 74
     0
 42
0.000000001
 43
0.00000001
 40
0.0
 40
0.0
 40
0.0
 40
0.0
 40
0.0310625942957131
 40
0.0623436406921299
 40
0.0774661356643234
 40
0.0936025208475401
 40
0.1077658855943965
 40
0.1247299534682843
 40
0.1403227459779874
 40
0.1560268089359264
 40
0.1871966103365807
 40
0.2185830714266744
 40
0.2498805425744752
 40
0.2812460600615053
 40
0.3126131100523709
 40
0.34377946400964
 40
0.3594404043049872
 40
0.3750942043074424
 40
0.3906253262274967
 40
0.4061986226892182
 40
0.4219003609541411
 40
0.437499623329989
 40
0.4687506021201743
 40
0.5000940275766924
 40
0.5312363022447009
 40
0.5625127648633818
 40
0.5775556935470983
 40
0.5936393847193561
 40
0.6092985432875273
 40
0.6249214645952761
 40
0.6404509113083361
 40
0.6560477790867318
 40
0.6873487253057118
 40
0.7186964431702799
 40
0.7499524212645494
 40
0.7813771688258431
 40
0.8126174548781047
 40
0.8439325217128555
 40
0.859472185830263
 40
0.875096398251971
 40
0.8929836088479797
 40
0.9063050883869814
 40
0.9218823702351042
 40
0.9375920550000872
 40
0.9687419145673791
 40
1.0
 40
1.0
 40
1.0
 40
1.0
 10
-24.80330767579126
 20
-83.55687513458771
 30
0.0
 10
-23.21278181565202
 20
-82.63866028064643
 30
0.0
 10
-19.67914718552167
 20
-80.97100810712357
 30
0.0
 10
-14.67151303567757
 20
-79.40277658139433
 30
0.0
 10
-10.39279677549052
 20
-78.47353714968615
 30
0.0
 10
-7.191202546821589
 20
-77.97289608612279
 30
0.0
 10
-3.801447382705626
 20
-77.63493348829202
 30
0.0
 10
-0.4192699601279215
 20
-77.4937766494463
 30
0.0
 10
3.065997869761646
 20
-77.55747286795247
 30
0.0
 10
7.521973662398559
 20
-77.90010796670185
 30
0.0
 10
12.93245613644948
 20
-78.81199014266863
 30
0.0
 10
18.91178069822765
 20
-80.61350876488403
 30
0.0
 10
24.19946050733262
 20
-83.08351577028134
 30
0.0
 10
28.54763605037015
 20
-86.16862548323867
 30
0.0
 10
31.84085737270539
 20
-89.7148774768637
 30
0.0
 10
33.621031714302
 20
-92.94716165022085
 30
0.0
 10
34.39442975668548
 20
-95.619681240707
 30
0.0
 10
34.63996462279511
 20
-97.64981832173126
 30
0.0
 10
34.54526676157751
 20
-99.67929459077992
 30
0.0
 10
34.11050323309854
 20
-101.6916760477503
 30
0.0
 10
33.33733302661987
 20
-103.6656699599989
 30
0.0
 10
31.87105309933014
 20
-106.2153705802655
 30
0.0
 10
29.25630685712005
 20
-109.2054772329007
 30
0.0
 10
24.97120501158301
 20
-112.3070209621656
 30
0.0
 10
19.65269061875748
 20
-114.7461714867016
 30
0.0
 10
14.64265143615651
 20
-116.1713573877814
 30
0.0
 10
10.37202361140079
 20
-116.9441387963076
 30
0.0
 10
7.074284927414583
 20
-117.3280836878967
 30
0.0
 10
3.67348626340969
 20
-117.5107322653225
 30
0.0
 10
0.2855337531730562
 20
-117.4898286789209
 30
0.0
 10
-3.090435312868058
 20
-117.2719721910774
 30
0.0
 10
-7.543074529128891
 20
-116.7280383772929
 30
0.0
 10
-12.95196810642614
 20
-115.5887363868784
 30
0.0
 10
-18.93184549093796
 20
-113.5935381809804
 30
0.0
 10
-24.2158035513001
 20
-111.0491835623169
 30
0.0
 10
-28.55579096597742
 20
-108.0386606096004
 30
0.0
 10
-31.84929186299538
 20
-104.6787618074525
 30
0.0
 10
-33.62483352486348
 20
-101.6750820434758
 30
0.0
 10
-34.39553520098362
 20
-99.20286764536418
 30
0.0
 10
-34.65228902926275
 20
-97.23893997239976
 30
0.0
 10
-34.5314715869585
 20
-95.3573200267724
 30
0.0
 10
-34.07029551646944
 20
-93.49266515777181
 30
0.0
 10
-33.33360791827234
 20
-91.73960067610291
 30
0.0
 10
-31.86894320399702
 20
-89.34754148393232
 30
0.0
 10
-29.25547316299314
 20
-86.50217649249205
 30
0.0
 10
-26.40384344385125
 20
-84.48086873527542
 30
0.0
 10
-24.80330767579126
 20
-83.55687513458771
 30
0.0
  0
SPLINE
  5
120
330
112
100
AcDbEntity
  8
0
  6
Continuous
 62
     7
370
    25
100
AcDbSpline
210
0.0
220
0.0
230
1.0
 70
     8
 71
     3
 72
    16
 73
    12
 74
     0
 42
0.000000001
 43
0.00000001
 40
0.0
 40
0.0
 40
0.0
 40
0.0
 40
0.1143517805283751
 40
0.2322868264377145
 40
0.3425541713530622
 40
0.4560007977239371
 40
0.5665683519927612
 40
0.6803311338310213
 40
0.7910957394688213
 40
0.9050983306210786
 40
1.0
 40
1.0
 40
1.0
 40
1.0
 10
-16.29174023853802
 20
-96.71787773318619
 30
0.0
 10
-17.17907553372684
 20
-97.27577230874287
 30
0.0
 10
-18.98155118170714
 20
-98.40904334172632
 30
0.0
 10
-20.94331395405911
 20
-100.3285345729529
 30
0.0
 10
-22.31930537942308
 20
-102.3808007259206
 30
0.0
 10
-23.03022562760231
 20
-104.466017141145
 30
0.0
 10
-23.0955040839469
 20
-106.5770705703809
 30
0.0
 10
-22.51182374471395
 20
-108.63316823013
 30
0.0
 10
-21.26745403995632
 20
-110.6342042677147
 30
0.0
 10
-19.56367349075353
 20
-112.4538668111899
 30
0.0
 10
-18.0259885909621
 20
-113.5154256984188
 30
0.0
 10
-17.32744436980591
 20
-113.997673931585
 30
0.0
  0
LWPOLYLINE
  5
121
330
112
100
AcDbEntity
  8
0
  6
Continuous
 62
     7
370
    25
100
AcDbPolyline
 90
       21
 70
   128
 43
0.0
 10
15.6616554525
 20
-115.8092345741
 10
17.3643966735
 20
-114.8587856275
 10
19.6883891181
 20
-112.9721632308
 10
21.3897056201
 20
-110.9301080199
 10
22.5304811302
 20
-108.6709806841
 10
23.017142105
 20
-106.3586254074
 10
22.8562818445
 20
-103.9389024838
 10
22.0607855988
 20
-101.6289304466
 10
20.6068588019
 20
-99.393213749
 10
18.6174109669
 20
-97.4400942306
 10
16.0334535158
 20
-95.7072904166
 10
13.0866878442
 20
-94.3356604748
 10
9.6822642794
 20
-93.2909579789
 10
6.1073411116
 20
-92.6613207334
 10
2.2578435896
 20
-92.4044449641
 10
-1.5662746842
 20
-92.5154516576
 10
-5.456695489
 20
-92.9850791465
 10
-9.0870987484
 20
-93.7768212508
 10
-12.5608712985
 20
-94.9256006169
 10
-16.2917402385
 20
-96.7178777332
 10
-16.2917402385
 20
-96.7178777332
  0
SPLINE
  5
123
330
112
100
AcDbEntity
  8
0
  6
Continuous
 62
     7
370
    25
100
AcDbSpline
210
0.0
220
0.0
230
1.0
 70
     8
 71
     3
 72
    18
 73
    14
 74
     0
 42
0.000000001
 43
0.00000001
 40
0.0
 40
0.0
 40
0.0
 40
0.0
 40
0.1250000000000002
 40
0.1250000000000002
 40
0.2500000000000003
 40
0.2500000000000003
 40
0.5000000000000002
 40
0.5000000000000002
 40
0.6250000000000001
 40
0.6250000000000001
 40
0.7500000000000001
 40
0.7500000000000001
 40
1.0
 40
1.0
 40
1.0
 40
1.0
 10
8.935068664892116
 20
-114.4463537950127
 30
0.0
 10
8.922623579314802
 20
-114.3266443449172
 30
0.0
 10
8.925537913495655
 20
-114.211707748186
 30
0.0
 10
8.960827543072963
 20
-113.9910133432851
 30
0.0
 10
8.993919490074072
 20
-113.8844808379116
 30
0.0
 10
9.132606801759051
 20
-113.5939951069888
 30
0.0
 10
9.280536231171986
 20
-113.4322401797124
 30
0.0
 10
9.555969023610757
 20
-113.2591690618817
 30
0.0
 10
9.658191364430765
 20
-113.2120811601813
 30
0.0
 10
9.872940595999726
 20
-113.1431155741986
 30
0.0
 10
9.986147202577188
 20
-113.1205771963295
 30
0.0
 10
10.34286864779107
 20
-113.0893956775094
 30
0.0
 10
10.5912894090866
 20
-113.1175081680102
 30
0.0
 10
10.84423521492725
 20
-113.1954042046475
 30
0.0
  0
SPLINE
  5
125
330
112
100
AcDbEntity
  8
0
  6
Continuous
 62
     7
370
    25
100
AcDbSpline
210
0.0
220
0.0
230
1.0
 70
     8
 71
     3
 72
    10
 73
     6
 74
     0
 42
0.000000001
 43
0.00000001
 40
0.0
 40
0.0
 40
0.0
 40
0.0
 40
0.2743793506773788
 40
0.7012524774949811
 40
1.0
 40
1.0
 40
1.0
 40
1.0
 10
106.8203232757059
 20
48.2528394736704
 30
0.0
 10
106.7233120077585
 20
48.47902668730249
 30
0.0
 10
106.4753728249258
 20
49.05711080167041
 30
0.0
 10
106.5079247137463
 20
49.99811244811666
 30
0.0
 10
106.7483212160723
 20
50.64497196126953
 30
0.0
 10
106.8472956037992
 20
50.91129249272577
 30
0.0
  0
SPLINE
  5
128
330
112
100
AcDbEntity
  8
0
  6
Continuous
 62
     7
370
    25
100
AcDbSpline
210
0.0
220
0.0
230
1.0
 70
     8
 71
     3
 72
    12
 73
     8
 74
     0
 42
0.000000001
 43
0.00000001
 40
0.0
 40
0.0
 40
0.0
 40
0.0
 40
0.2499999999999977
 40
0.2499999999999977
 40
0.4999999999999954
 40
0.4999999999999954
 40
1.0
 40
1.0
 40
1.0
 40
1.0
 10
106.8203232757059
 20
48.2528394736704
 30
0.0
 10
106.8875972643899
 20
48.14610238153964
 30
0.0
 10
106.9604523121702
 20
48.04289495610917
 30
0.0
 10
107.1132301419574
 20
47.85014010932125
 30
0.0
 10
107.1934636807764
 20
47.7599763726713
 30
0.0
 10
107.445774877974
 20
47.50820220267116
 30
0.0
 10
107.6309988958449
 20
47.36425406441762
 30
0.0
 10
107.8286808976728
 20
47.25013467386185
 30
0.0
  0
LINE
  5
130
330
112
100
AcDbEntity
  8
0
  6
Continuous
 62
     7
370
    25
100
AcDbLine
 10
8.9350686649
 20
-114.446353795
 30
0.0
 11
9.1966034356
 21
-116.975735325
 31
0.0
  0
LINE
  5
131
330
112
100
AcDbEntity
  8
0
  6
Continuous
 62
     7
370
    25
100
AcDbLine
 10
107.8286808977
 20
47.2501346739
 30
0.0
 11
101.5519975905
 21
43.626682528
 31
0.0
  0
LINE
  5
132
330
112
100
AcDbEntity
  8
0
  6
Continuous
 62
     7
370
    25
100
AcDbLine
 10
128.2500737683
 20
35.461115506
 30
0.0
 11
107.8286808977
 21
47.2501346739
 31
0.0
  0
LINE
  5
133
330
112
100
AcDbEntity
  8
0
  6
Continuous
 62
     1
370
    25
100
AcDbLine
 10
107.1223161549
 20
48.1893252418
 30
0.0
 11
107.7042423361
 21
50.1822728918
 31
0.0
  0
LINE
  5
134
330
112
100
AcDbEntity
  8
0
  6
Continuous
 62
     1
370
    25
100
AcDbLine
 10
11.2172678757
 20
-116.6807373
 30
0.0
 11
14.6822339398
 21
-114.6804549684
 31
0.0
  0
LINE
  5
135
330
112
100
AcDbEntity
  8
0
  6
Continuous
 62
     1
370
    25
100
AcDbLine
 10
11.011756491
 20
-113.2475074312
 30
0.0
 11
8.9350686649
 21
-114.446353795
 31
0.0
  0
LINE
  5
136
330
112
100
AcDbEntity
  8
0
  6
Continuous
 62
     1
370
    25
100
AcDbLine
 10
107.1309031277
 20
50.500677472
 30
0.0
 11
106.6732145706
 21
48.9222412638
 31
0.0
  0
LINE
  5
137
330
112
100
AcDbEntity
  8
0
  6
Continuous
 62
     1
370
    25
100
AcDbLine
 10
110.1749362034
 20
48.8174899962
 30
0.0
 11
109.4353770515
 21
46.3226087272
 31
0.0
  0
LINE
  5
138
330
112
100
AcDbEntity
  8
0
  6
Continuous
 62
     1
370
    25
100
AcDbLine
 10
123.6628957061
 20
30.8623327426
 30
0.0
 11
127.8861948066
 21
33.3003914178
 31
0.0
  0
LINE
  5
139
330
112
100
AcDbEntity
  8
0
  6
Continuous
 62
     1
370
    25
100
AcDbLine
 10
104.8186333948
 20
51.7471753314
 30
0.0
 11
100.0246195988
 21
48.9796500753
 31
0.0
  0
ARC
  5
13A
330
112
100
AcDbEntity
  8
0
  6
Continuous
 62
     7
370
    25
100
AcDbCircle
 10
3.1783803582
 20
-138.6544482317
 30
0.0
 40
26.58812241311737
100
AcDbArc
 50
60.6115908244
 51
73.2426697856
  0
VIEWPORT
  5
19D
330
112
100
AcDbEntity
  8
0
100
AcDbViewport
 10
0.0
 20
0.0
 30
0.0
 40
205.6
 41
156.0
 68
     1
 69
     1
 12
0.0
 22
-17.129261467
 13
0.0
 23
0.0
 14
10.0
 24
10.0
 15
10.0
 25
10.0
 16
0.0
 26
0.0
 36
1.0
 17
0.0
 27
0.0
 37
0.0
 42
50.0
 43
0.0
 44
0.0
 45
382.4705910073
 50
0.0
 51
0.0
 72
   100
 90
   557152
  1

281
     0
 71
     1
 74
     0
110
0.0
120
0.0
130
0.0
111
1.0
121
0.0
131
0.0
112
0.0
122
1.0
132
0.0
 79
     0
146
0.0
170
     0
 61
     5
348
2F
292
     1
282
     1
141
0.0
142
0.0
 63
   256
361
19E
  0
ENDBLK
  5
115
330
112
100
AcDbEntity
  8
0
100
AcDbBlockEnd
  0
BLOCK
  5
13D
330
13B
100
AcDbEntity
  8
0
100
AcDbBlockBegin
  2
*Paper_Space7
 70
     0
 10
0.0
 20
0.0
 30
0.0
  3
*Paper_Space7
  1

  0
SPLINE
  5
13F
330
13B
100
AcDbEntity
  8
0
  6
Continuous
 62
     7
370
    25
100
AcDbSpline
210
0.0
220
0.0
230
1.0
 70
     8
 71
     3
 72
   129
 73
   125
 74
     0
 42
0.000000001
 43
0.00000001
 40
0.0
 40
0.0
 40
0.0
 40
0.0
 40
0.0085798355112373
 40
0.0154526797074261
 40
0.0206066306665891
 40
0.024638833548634
 40
0.0281260982042145
 40
0.0320583497195671
 40
0.0365396162870005
 40
0.0417795972577051
 40
0.0478921667223658
 40
0.0542368126101224
 40
0.0595444149653983
 40
0.063821658940326
 40
0.068203544483711
 40
0.0733854759135561
 40
0.0800367548281694
 40
0.08732013467109
 40
0.0933231550810026
 40
0.0984452615216477
 40
0.1032095346374284
 40
0.1088070617711291
 40
0.1148533421710875
 40
0.1223685170998418
 40
0.1305975253542117
 40
0.1419058758966417
 40
0.1510968580811208
 40
0.1597957054497962
 40
0.1685325333062712
 40
0.1774709685429854
 40
0.1867442601228374
 40
0.1965765309522496
 40
0.2149375915798956
 40
0.232106463821446
 40
0.2501440044568502
 40
0.2612971469213378
 40
0.2718251892163748
 40
0.2822670413299739
 40
0.293779285841051
 40
0.3036313969740542
 40
0.313534978666715
 40
0.3222935827792969
 40
0.3299391984759094
 40
0.3372331327933358
 40
0.345989089550024
 40
0.3561355363031179
 40
0.3645197600558139
 40
0.3718832892968028
 40
0.3817189603784275
 40
0.3893210592986015
 40
0.3946327855940627
 40
0.4010671370641647
 40
0.4079043881883206
 40
0.4145085779111659
 40
0.4208864803885051
 40
0.4270449929152039
 40
0.4358466051294604
 40
0.4432935219065417
 40
0.449677594919297
 40
0.4585064010272069
 40
0.4680718511593764
 40
0.4794056060175452
 40
0.4926690215973871
 40
0.505070020326805
 40
0.5187498298825033
 40
0.5323275690146582
 40
0.5448037161090125
 40
0.5562205980029113
 40
0.5666151693363327
 40
0.5760163004038524
 40
0.5877690946966193
 40
0.5989356539599838
 40
0.609994270815132
 40
0.6225790968452507
 40
0.6282771391920514
 40
0.633427307873145
 40
0.6391172757105407
 40
0.6460326675592463
 40
0.6531346620277158
 40
0.6591934962038044
 40
0.6629963039273926
 40
0.6676352437612829
 40
0.6731901915046704
 40
0.6794653554228163
 40
0.6848155309452826
 40
0.6888731951504284
 40
0.6924315598934129
 40
0.7043641277632303
 40
0.7167439699628101
 40
0.7303635714699189
 40
0.7440322141753904
 40
0.7525503590282191
 40
0.7609894495362715
 40
0.7698050047283153
 40
0.7796789734668375
 40
0.78999704803552
 40
0.798994071445249
 40
0.8069334638862804
 40
0.8211531339454777
 40
0.8359329831070842
 40
0.8513929977779584
 40
0.8676961522807434
 40
0.8772387885063648
 40
0.8869149963788534
 40
0.8958249271749001
 40
0.9036317957173647
 40
0.9093300008168794
 40
0.9150926109139539
 40
0.9213240942925474
 40
0.928851910414516
 40
0.9357551043653948
 40
0.9418052592153113
 40
0.9470453019670795
 40
0.9516457966021057
 40
0.956305103081881
 40
0.9618060005665796
 40
0.9659157508694152
 40
0.9703157050682263
 40
0.9740177444487832
 40
0.9769645141159131
 40
0.9801720438843745
 40
0.9850749760744576
 40
0.9916839769128489
 40
1.0
 40
1.0
 40
1.0
 40
1.0
 10
-268.4930605963089
 20
18.01692679899622
 30
0.0
 10
-267.7822927919732
 20
16.28395820519765
 30
0.0
 10
-266.5021671750698
 20
13.16280179282531
 30
0.0
 10
-264.6597056564585
 20
9.061945845845216
 30
0.0
 10
-263.1687376992582
 20
5.894241339298278
 30
0.0
 10
-261.9552461550752
 20
3.414277439646798
 30
0.0
 10
-260.8327756122175
 20
1.187675540978705
 30
0.0
 10
-259.6402097015168
 20
-1.110349378697556
 30
0.0
 10
-258.2389859350271
 20
-3.725479826099817
 30
0.0
 10
-256.5695686190016
 20
-6.731054391320934
 30
0.0
 10
-254.6474276865328
 20
-10.05338325016945
 30
0.0
 10
-252.6571789459401
 20
-13.34761945405081
 30
0.0
 10
-250.8224341896675
 20
-16.26754386027934
 30
0.0
 10
-249.1798570118041
 20
-18.80077953219637
 30
0.0
 10
-247.5223571691078
 20
-21.28702459857089
 30
0.0
 10
-245.5427186595937
 20
-24.16860128822389
 30
0.0
 10
-243.1552743675017
 20
-27.51991623640454
 30
0.0
 10
-240.5982696968852
 20
-30.96298110727968
 30
0.0
 10
-238.1823299784524
 20
-34.09283490083535
 30
0.0
 10
-236.0598317746086
 20
-36.75696436657827
 30
0.0
 10
-233.9596731907586
 20
-39.32133079895599
 30
0.0
 10
-231.7004102903527
 20
-42.00259385185801
 30
0.0
 10
-229.0188463618973
 20
-45.08672173629817
 30
0.0
 10
-225.9125948603172
 20
-48.53362324000049
 30
0.0
 10
-221.9752489242059
 20
-52.72874235702202
 30
0.0
 10
-217.6952976283462
 20
-57.0695911154468
 30
0.0
 10
-213.2458745517802
 20
-61.36151634894322
 30
0.0
 10
-209.1153226588692
 20
-65.17885008253013
 30
0.0
 10
-204.9574734623341
 20
-68.86739302238547
 30
0.0
 10
-200.6459100574546
 20
-72.54051016670313
 30
0.0
 10
-196.0931414249071
 20
-76.26440570473272
 30
0.0
 10
-189.9243695586995
 20
-81.10433371433528
 30
0.0
 10
-182.2942931461282
 20
-86.74019306967179
 30
0.0
 10
-173.1143263453572
 20
-93.04805364392472
 30
0.0
 10
-164.8131536119971
 20
-98.3688695147926
 30
0.0
 10
-157.5561875504215
 20
-102.792127116078
 30
0.0
 10
-151.6321656216082
 20
-106.262718483351
 30
0.0
 10
-145.5844011091155
 20
-109.6714258730062
 30
0.0
 10
-139.6064541963832
 20
-112.9037865510307
 30
0.0
 10
-133.6788360494054
 20
-115.9793124409826
 30
0.0
 10
-128.2329237248709
 20
-118.696716852354
 30
0.0
 10
-123.171914289694
 20
-121.1286433552866
 30
0.0
 10
-118.5861561882995
 20
-123.2589034441456
 30
0.0
 10
-113.9773923325598
 20
-125.3336362109081
 30
0.0
 10
-108.8635469955076
 20
-127.557993626613
 30
0.0
 10
-103.49336335472
 20
-129.7992436099121
 30
0.0
 10
-98.37054895617733
 20
-131.8499842071721
 30
0.0
 10
-93.29252924261688
 20
-133.8112462859843
 30
0.0
 10
-88.26764653742126
 20
-135.6740948432501
 30
0.0
 10
-83.74399464423699
 20
-137.2822345154541
 30
0.0
 10
-79.89933152112907
 20
-138.6069967408608
 30
0.0
 10
-76.15960458517536
 20
-139.8582823620764
 30
0.0
 10
-72.13705460828714
 20
-141.1589765401789
 30
0.0
 10
-68.10933893543636
 20
-142.4158101585728
 30
0.0
 10
-64.20391679732741
 20
-143.5920573193196
 30
0.0
 10
-59.83669199238467
 20
-144.8617718321744
 30
0.0
 10
-55.22911677300183
 20
-146.1441761419203
 30
0.0
 10
-50.5534902184108
 20
-147.3824715723169
 30
0.0
 10
-45.87148634451103
 20
-148.5694899348183
 30
0.0
 10
-40.74434579996299
 20
-149.8064747326123
 30
0.0
 10
-34.57314564359952
 20
-151.2047671223667
 30
0.0
 10
-27.50292898164813
 20
-152.6901613671194
 30
0.0
 10
-19.8150592551717
 20
-154.1579654409001
 30
0.0
 10
-11.58654016948915
 20
-155.5645695514369
 30
0.0
 10
-3.226940299131037
 20
-156.8234272652101
 30
0.0
 10
5.21881215415098
 20
-157.9147582187779
 30
0.0
 10
13.23470706733849
 20
-158.7854522811958
 30
0.0
 10
20.6024989941895
 20
-159.4456223820518
 30
0.0
 10
27.32788171292304
 20
-159.9308148034211
 30
0.0
 10
34.13221562719146
 20
-160.313677746457
 30
0.0
 10
41.09663686330592
 20
-160.5876669390505
 30
0.0
 10
48.41378555496433
 20
-160.7410431118712
 30
0.0
 10
55.88449379999388
 20
-160.7636611736216
 30
0.0
 10
62.18240548813404
 20
-160.6613376369479
 30
0.0
 10
67.21434901096457
 20
-160.5029082518728
 30
0.0
 10
70.76074063150628
 20
-160.3588108184676
 30
0.0
 10
74.55859747218894
 20
-160.1697218648883
 30
0.0
 10
78.77479499127543
 20
-159.9149397046082
 30
0.0
 10
83.07389829801741
 20
-159.604001092677
 30
0.0
 10
86.7042310147817
 20
-159.300610535357
 30
0.0
 10
89.79805630131382
 20
-159.0159013895613
 30
0.0
 10
92.77642319161555
 20
-158.7202310786649
 30
0.0
 10
96.2794730840357
 20
-158.3417034007478
 30
0.0
 10
99.93492039865171
 20
-157.90918406624
 30
0.0
 10
103.274989110627
 20
-157.4799565103968
 30
0.0
 10
106.0363349168439
 20
-157.1020904996119
 30
0.0
 10
110.187915578956
 20
-156.5058010386523
 30
0.0
 10
116.0752497029563
 20
-155.5786076730628
 30
0.0
 10
124.052709231033
 20
-154.1459744073991
 30
0.0
 10
132.3456777643185
 20
-152.4561449166644
 30
0.0
 10
139.7778602521904
 20
-150.7486344670987
 30
0.0
 10
146.0978805354676
 20
-149.1602740906805
 30
0.0
 10
151.3752029109975
 20
-147.7444685131768
 30
0.0
 10
157.054851469859
 20
-146.127504969183
 30
0.0
 10
163.1335162845837
 20
-144.2378922805278
 30
0.0
 10
169.182748112628
 20
-142.1664940485785
 30
0.0
 10
174.7759519046351
 20
-140.0726456833076
 30
0.0
 10
181.1065557461401
 20
-137.5130352581802
 30
0.0
 10
188.5019191109787
 20
-134.2151791931678
 30
0.0
 10
197.1994706948753
 20
-129.8145339147663
 30
0.0
 10
206.042914704633
 20
-124.7220057610335
 30
0.0
 10
213.6067298560102
 20
-119.7422120104805
 30
0.0
 10
219.8794366123193
 20
-115.1397888916505
 30
0.0
 10
224.7004134101416
 20
-111.308013685054
 30
0.0
 10
229.0821718206909
 20
-107.5447437385074
 30
0.0
 10
232.6884809860402
 20
-104.222792278706
 30
0.0
 10
235.704450176273
 20
-101.2820927258851
 30
0.0
 10
238.4069529755909
 20
-98.5165151412681
 30
0.0
 10
241.3108168737724
 20
-95.39022713709491
 30
0.0
 10
244.2862007644768
 20
-91.99386518783011
 30
0.0
 10
247.1320937619451
 20
-88.53764126001295
 30
0.0
 10
249.57463143328
 20
-85.39941365135171
 30
0.0
 10
251.6419364776132
 20
-82.60779713786438
 30
0.0
 10
253.4745251496358
 20
-80.02185526390693
 30
0.0
 10
255.2880852464975
 20
-77.35304649025332
 30
0.0
 10
256.9851676598593
 20
-74.7362141182225
 30
0.0
 10
258.5988061114463
 20
-72.13381586714569
 30
0.0
 10
259.9647299190613
 20
-69.8400186391299
 30
0.0
 10
261.165214940856
 20
-67.74357290970521
 30
0.0
 10
262.209868088291
 20
-65.85855619497073
 30
0.0
 10
263.3539816740999
 20
-63.73024177347829
 30
0.0
 10
264.8274321085268
 20
-60.8705724537522
 30
0.0
 10
266.7287825110914
 20
-56.97365481423256
 30
0.0
 10
268.0412664542654
 20
-53.98289215651857
 30
0.0
 10
268.7725648982344
 20
-52.31647932972403
 30
0.0
  0
SPLINE
  5
140
330
13B
100
AcDbEntity
  8
0
  6
Continuous
 62
     7
370
    25
100
AcDbSpline
210
0.0
220
0.0
230
1.0
 70
    11
 71
     3
 72
    35
 73
    31
 74
     0
 42
0.000000001
 43
0.00000001
 40
0.0
 40
0.0
 40
0.0
 40
0.0
 40
0.0062500000000001
 40
0.0083333333333333
 40
0.0416666666666666
 40
0.0833333333333334
 40
0.1250000000000001
 40
0.1666666666666666
 40
0.2083333333333334
 40
0.25
 40
0.2916666666666666
 40
0.3333333333333334
 40
0.375
 40
0.4166666666666666
 40
0.4583333333333334
 40
0.5000000000020915
 40
0.5416666666666667
 40
0.5833333333333333
 40
0.625
 40
0.6666666666666667
 40
0.7083333333333333
 40
0.7500000000009739
 40
0.7916666666666666
 40
0.8333333333333334
 40
0.875
 40
0.9166666666666666
 40
0.9583333333333334
 40
0.9916666666666667
 40
0.99375
 40
1.0
 40
1.0
 40
1.0
 40
1.0
 10
-256.4812552864522
 20
69.70610945833722
 30
0.0
 10
-255.2837165031114
 20
70.87494402312639
 30
0.0
 10
-253.5966746509284
 20
72.40884212456922
 30
0.0
 10
-244.5766418907547
 20
79.90692808193967
 30
0.0
 10
-223.3368334170532
 20
92.41040392023869
 30
0.0
 10
-178.9276960164364
 20
105.9083008590646
 30
0.0
 10
-118.3825022744068
 20
113.4137916000993
 30
0.0
 10
-49.59603916236657
 20
113.0239127646055
 30
0.0
 10
21.36849160297205
 20
105.0840696097369
 30
0.0
 10
92.0738975021631
 20
89.8669466179231
 30
0.0
 10
156.3695234365483
 20
68.3936818795704
 30
0.0
 10
209.147306648815
 20
42.7030155723836
 30
0.0
 10
248.594656862516
 20
13.6772631160265
 30
0.0
 10
270.7359399481509
 20
-16.30064026988611
 30
0.0
 10
274.4104659935869
 20
-44.69288583304254
 30
0.0
 10
259.4920377662928
 20
-70.52437562309312
 30
0.0
 10
226.5089146599543
 20
-91.44626842460826
 30
0.0
 10
178.9276960164363
 20
-105.9083008590646
 30
0.0
 10
118.3825022744067
 20
-113.4137916000993
 30
0.0
 10
49.59603916236663
 20
-113.0239127646055
 30
0.0
 10
-21.36849160297209
 20
-105.0840696097369
 30
0.0
 10
-92.07389750216319
 20
-89.86694661792315
 30
0.0
 10
-156.3695234365485
 20
-68.3936818795704
 30
0.0
 10
-209.1473066488152
 20
-42.70301557238358
 30
0.0
 10
-248.5946568625161
 20
-13.6772631160265
 30
0.0
 10
-270.7359399481509
 20
16.30064026988609
 30
0.0
 10
-274.1654975905578
 20
42.80006946216542
 30
0.0
 10
-266.1123656972115
 20
58.88740143870483
 30
0.0
 10
-259.1851889731855
 20
66.95428082221989
 30
0.0
 10
-257.678794069793
 20
68.53727489354807
 30
0.0
 10
-256.4812552864522
 20
69.70610945833722
 30
0.0
  0
SPLINE
  5
141
330
13B
100
AcDbEntity
  8
0
  6
Continuous
 62
     7
370
    25
100
AcDbSpline
210
0.0
220
0.0
230
1.0
 70
    11
 71
     3
 72
    35
 73
    31
 74
     0
 42
0.000000001
 43
0.00000001
 40
0.0
 40
0.0
 40
0.0
 40
0.0
 40
0.0062500000000001
 40
0.0083333333333333
 40
0.0416666666666666
 40
0.0833333333333334
 40
0.1250000000000001
 40
0.1666666666666666
 40
0.2083333333333334
 40
0.25
 40
0.2916666666666666
 40
0.3333333333333334
 40
0.375
 40
0.4166666666666666
 40
0.4583333333333334
 40
0.5000000000020915
 40
0.5416666666666667
 40
0.5833333333333333
 40
0.625
 40
0.6666666666666667
 40
0.7083333333333333
 40
0.7500000000009739
 40
0.7916666666666666
 40
0.8333333333333334
 40
0.875
 40
0.9166666666666666
 40
0.9583333333333334
 40
0.9916666666666667
 40
0.99375
 40
1.0
 40
1.0
 40
1.0
 40
1.0
 10
-237.5025757871551
 20
64.54811103433863
 30
0.0
 10
-236.4308176162435
 20
65.59417986541402
 30
0.0
 10
-234.9181237934549
 20
66.96619508006054
 30
0.0
 10
-226.8126568673876
 20
73.66768167337383
 30
0.0
 10
-207.5977260421381
 20
84.80026020232695
 30
0.0
 10
-167.1261838242428
 20
96.65808752120087
 30
0.0
 10
-111.6977178942524
 20
102.9957809904346
 30
0.0
 10
-48.51711962209891
 20
102.1449583387476
 30
0.0
 10
16.86913135865678
 20
94.46500705833039
 30
0.0
 10
82.22211631851297
 20
80.2513061623667
 30
0.0
 10
141.8885908910864
 20
60.48739680038051
 30
0.0
 10
191.1014870934216
 20
37.02175543911379
 30
0.0
 10
228.1237435568866
 20
10.63958926110811
 30
0.0
 10
249.2489485025891
 20
-16.503751605402
 30
0.0
 10
253.3588773227153
 20
-42.11051929370254
 30
0.0
 10
240.292006728451
 20
-65.30621859394235
 30
0.0
 10
210.4885504862465
 20
-83.95327253671921
 30
0.0
 10
167.1261838242101
 20
-96.65808752123279
 30
0.0
 10
111.6977178942294
 20
-102.9957809904571
 30
0.0
 10
48.51711962208639
 20
-102.1449583387601
 30
0.0
 10
-16.86913135865792
 20
-94.46500705833166
 30
0.0
 10
-82.22211631851178
 20
-80.25130616236575
 30
0.0
 10
-141.8885908910897
 20
-60.48739680038389
 30
0.0
 10
-191.1014870934293
 20
-37.02175543912148
 30
0.0
 10
-228.1237435569047
 20
-10.63958926112574
 30
0.0
 10
-249.248948502618
 20
16.50375160537391
 30
0.0
 10
-253.0848820680651
 20
40.40340144779145
 30
0.0
 10
-246.0862144988246
 20
54.85609856686821
 30
0.0
 10
-239.919661924376
 20
62.08454053504217
 30
0.0
 10
-238.5743339580668
 20
63.50204220326327
 30
0.0
 10
-237.5025757871551
 20
64.54811103433863
 30
0.0
  0
SPLINE
  5
142
330
13B
100
AcDbEntity
  8
0
  6
Continuous
 62
     7
370
    25
100
AcDbSpline
210
0.0
220
0.0
230
1.0
 70
     8
 71
     3
 72
    24
 73
    20
 74
     0
 42
0.000000001
 43
0.00000001
 40
0.0
 40
0.0
 40
0.0
 40
0.0
 40
0.125000000000002
 40
0.125000000000002
 40
0.250000000000004
 40
0.250000000000004
 40
0.375000000000006
 40
0.375000000000006
 40
0.500000000000008
 40
0.500000000000008
 40
0.62500000000001
 40
0.62500000000001
 40
0.6875000000000081
 40
0.6875000000000081
 40
0.7500000000000062
 40
0.7500000000000062
 40
0.8750000000000031
 40
0.8750000000000031
 40
1.0
 40
1.0
 40
1.0
 40
1.0
 10
57.82141409434045
 20
52.07346271103552
 30
0.0
 10
57.86624058404723
 20
52.3688854330106
 30
0.0
 10
57.93401098272471
 20
52.65565502400482
 30
0.0
 10
58.11342537567067
 20
53.21264814278744
 30
0.0
 10
58.22561744648162
 20
53.48393634062317
 30
0.0
 10
58.49480300475775
 20
54.00423481841615
 30
0.0
 10
58.64862964847325
 20
54.24755288996991
 30
0.0
 10
58.99502265786223
 20
54.70037189797524
 30
0.0
 10
59.18933101076155
 20
54.9114564040735
 30
0.0
 10
59.61384700343664
 20
55.28830331355361
 30
0.0
 10
59.83991633086752
 20
55.45102370124167
 30
0.0
 10
60.20061883410241
 20
55.6551160938282
 30
0.0
 10
60.32447927211156
 20
55.7164330310479
 30
0.0
 10
60.5799874200676
 20
55.82468403351448
 30
0.0
 10
60.7119508776908
 20
55.87156501370922
 30
0.0
 10
61.10868212065181
 20
55.9856185589808
 30
0.0
 10
61.37784083604132
 20
56.02826346280371
 30
0.0
 10
61.92616240310642
 20
56.04281328722982
 30
0.0
 10
62.20510207006235
 20
56.0136578538889
 30
0.0
 10
62.47648574589919
 20
55.94691028432736
 30
0.0
  0
SPLINE
  5
143
330
13B
100
AcDbEntity
  8
0
  6
Continuous
 62
     7
370
    25
100
AcDbSpline
210
0.0
220
0.0
230
1.0
 70
     8
 71
     3
 72
    22
 73
    18
 74
     0
 42
0.000000001
 43
0.00000001
 40
0.0
 40
0.0
 40
0.0
 40
0.0
 40
0.1250000000000002
 40
0.1250000000000002
 40
0.2500000000000004
 40
0.2500000000000004
 40
0.3750000000000006
 40
0.3750000000000006
 40
0.5000000000000008
 40
0.5000000000000008
 40
0.625000000000001
 40
0.625000000000001
 40
0.7500000000000011
 40
0.7500000000000011
 40
0.8750000000000013
 40
0.8750000000000013
 40
1.0
 40
1.0
 40
1.0
 40
1.0
 10
60.49402686838456
 20
47.15463123916965
 30
0.0
 10
60.25533970438286
 20
47.21320071876494
 30
0.0
 10
60.02750413902712
 20
47.29952269875684
 30
0.0
 10
59.59254435183423
 20
47.52518372287687
 30
0.0
 10
59.38358362525665
 20
47.66665456527431
 30
0.0
 10
59.00421097650711
 20
47.990067811564
 30
0.0
 10
58.83175499279717
 20
48.172439599504
 30
0.0
 10
58.51992414139153
 20
48.57696963296791
 30
0.0
 10
58.38418812415618
 20
48.79473835656023
 30
0.0
 10
58.15263392485524
 20
49.25269811058726
 30
0.0
 10
58.05558302002872
 20
49.49610839518014
 30
0.0
 10
57.90329405499845
 20
49.99350212844036
 30
0.0
 10
57.84759079341408
 20
50.24728219582649
 30
0.0
 10
57.77442493276035
 20
50.7643712869999
 30
0.0
 10
57.757238113596
 20
51.0288292472671
 30
0.0
 10
57.76120173049429
 20
51.55252180339004
 30
0.0
 10
57.78196057854716
 20
51.81344982349079
 30
0.0
 10
57.82141409434047
 20
52.07346271103552
 30
0.0
  0
SPLINE
  5
144
330
13B
100
AcDbEntity
  8
0
  6
Continuous
 62
     7
370
    25
100
AcDbSpline
210
0.0
220
0.0
230
1.0
 70
     8
 71
     3
 72
     8
 73
     4
 74
     0
 42
0.000000001
 43
0.00000001
 40
0.0
 40
0.0
 40
0.0
 40
0.0
 40
1.0
 40
1.0
 40
1.0
 40
1.0
 10
88.14936761799088
 20
39.63850220569798
 30
0.0
 10
79.13014701190504
 20
42.33832953675223
 30
0.0
 10
69.91170009536943
 20
44.84370588124263
 30
0.0
 10
60.49402686838402
 20
47.15463123916911
 30
0.0
  0
SPLINE
  5
145
330
13B
100
AcDbEntity
  8
0
  6
Continuous
 62
     7
370
    25
100
AcDbSpline
210
0.0
220
0.0
230
1.0
 70
     8
 71
     3
 72
    20
 73
    16
 74
     0
 42
0.000000001
 43
0.00000001
 40
0.0
 40
0.0
 40
0.0
 40
0.0
 40
0.25
 40
0.25
 40
0.375
 40
0.375
 40
0.5
 40
0.5
 40
0.625
 40
0.625
 40
0.75
 40
0.75
 40
0.875
 40
0.875
 40
1.0
 40
1.0
 40
1.0
 40
1.0
 10
92.52517599363766
 20
42.64172383847473
 30
0.0
 10
92.37401230458225
 20
42.13999806490222
 30
0.0
 10
92.15833876535588
 20
41.67581918506817
 30
0.0
 10
91.73239380419825
 20
41.03934555224492
 30
0.0
 10
91.5753010270688
 20
40.84132913282426
 30
0.0
 10
91.23566610677422
 20
40.4807475113555
 30
0.0
 10
91.05241163930235
 20
40.31703009912699
 30
0.0
 10
90.65624222308561
 20
40.02632164679967
 30
0.0
 10
90.44483645466862
 20
39.90122046352289
 30
0.0
 10
90.01068794836705
 20
39.70289073969533
 30
0.0
 10
89.7858120538691
 20
39.62793480634895
 30
0.0
 10
89.31886828561215
 20
39.53171726260732
 30
0.0
 10
89.08145748041058
 20
39.51204166801518
 30
0.0
 10
88.61334342057314
 20
39.53109372562563
 30
0.0
 10
88.37887498584202
 20
39.56980111815786
 30
0.0
 10
88.14936761799089
 20
39.63850220569803
 30
0.0
  0
SPLINE
  5
146
330
13B
100
AcDbEntity
  8
0
  6
Continuous
 62
     7
370
    25
100
AcDbSpline
210
0.0
220
0.0
230
1.0
 70
     8
 71
     3
 72
    22
 73
    18
 74
     0
 42
0.000000001
 43
0.00000001
 40
0.0
 40
0.0
 40
0.0
 40
0.0
 40
0.125
 40
0.125
 40
0.25
 40
0.25
 40
0.375
 40
0.375
 40
0.5
 40
0.5
 40
0.625
 40
0.625
 40
0.75
 40
0.75
 40
0.875
 40
0.875
 40
1.0
 40
1.0
 40
1.0
 40
1.0
 10
90.13182649550568
 20
48.43078125085592
 30
0.0
 10
90.39127688401743
 20
48.3532783462339
 30
0.0
 10
90.636596945233
 20
48.24146370365926
 30
0.0
 10
91.10080068142452
 20
47.95375764879273
 30
0.0
 10
91.32033943515208
 20
47.77589731476363
 30
0.0
 10
91.7116292738868
 20
47.3754791475988
 30
0.0
 10
91.88789571490835
 20
47.1491615685863
 30
0.0
 10
92.19342555253742
 20
46.65970880825823
 30
0.0
 10
92.32117478786908
 20
46.40008797524936
 30
0.0
 10
92.53036110896647
 20
45.85336516584683
 30
0.0
 10
92.61100843571825
 20
45.56642839844385
 30
0.0
 10
92.72191597935962
 20
44.98793237377423
 30
0.0
 10
92.75333181405975
 20
44.69298460178725
 30
0.0
 10
92.76825693830095
 20
44.09577689329765
 30
0.0
 10
92.75170495990415
 20
43.80045429831061
 30
0.0
 10
92.67314119789302
 20
43.2160138723296
 30
0.0
 10
92.61069759023621
 20
42.92557764939085
 30
0.0
 10
92.52517599363773
 20
42.6417238384747
 30
0.0
  0
SPLINE
  5
147
330
13B
100
AcDbEntity
  8
0
  6
Continuous
 62
     7
370
    25
100
AcDbSpline
210
0.0
220
0.0
230
1.0
 70
     8
 71
     3
 72
     8
 73
     4
 74
     0
 42
0.000000001
 43
0.00000001
 40
0.0
 40
0.0
 40
0.0
 40
0.0
 40
1.0
 40
1.0
 40
1.0
 40
1.0
 10
90.13182649550563
 20
48.43078125085594
 30
0.0
 10
81.10820521204053
 20
51.12631338587897
 30
0.0
 10
71.889758295505
 20
53.63168973036944
 30
0.0
 10
62.47648574589919
 20
55.94691028432736
 30
0.0
  0
SPLINE
  5
148
330
13B
100
AcDbEntity
  8
0
  6
Continuous
 62
     7
370
    25
100
AcDbSpline
210
0.0
220
0.0
230
1.0
 70
     8
 71
     3
 72
    22
 73
    18
 74
     0
 42
0.000000001
 43
0.00000001
 40
0.0
 40
0.0
 40
0.0
 40
0.0
 40
0.0027972660653223
 40
0.0454797290422563
 40
0.087847473157547
 40
0.1726262623687117
 40
0.2570476516203616
 40
0.3419308273617545
 40
0.4265738649292759
 40
0.511805251905793
 40
0.5967949825774842
 40
0.6819694962310648
 40
0.7671481714697022
 40
0.8236724433788036
 40
0.8801391691709946
 40
0.9368619527919997
 40
1.0
 40
1.0
 40
1.0
 40
1.0
 10
-27.40817649326532
 20
-91.49198256922847
 30
0.0
 10
-27.36377787770573
 20
-91.46066701650659
 30
0.0
 10
-26.64191697554339
 20
-90.95151886279504
 30
0.0
 10
-24.99673360607457
 20
-90.05752792243368
 30
0.0
 10
-21.64916034585514
 20
-88.42809515977265
 30
0.0
 10
-16.8941632736884
 20
-86.71911050834846
 30
0.0
 10
-10.57434505565465
 20
-85.26089513601745
 30
0.0
 10
-3.876050541547032
 20
-84.47733995172803
 30
0.0
 10
2.944677998204505
 20
-84.39615921402172
 30
0.0
 10
9.628797299934597
 20
-85.00313424005401
 30
0.0
 10
15.96277884222545
 20
-86.2969976777559
 30
0.0
 10
21.67719168434222
 20
-88.2717381290689
 30
0.0
 10
26.04724084405989
 20
-90.5339375796134
 30
0.0
 10
29.2483898556373
 20
-92.80806939733709
 30
0.0
 10
31.48461698714667
 20
-94.93614098728008
 30
0.0
 10
33.34491389518608
 20
-97.28491355628583
 30
0.0
 10
33.92552668954159
 20
-98.97789698549241
 30
0.0
 10
34.23137104057804
 20
-99.86969513953738
 30
0.0
  0
SPLINE
  5
149
330
13B
100
AcDbEntity
  8
0
  6
Continuous
 62
     7
370
    25
100
AcDbSpline
210
0.0
220
0.0
230
1.0
 70
     8
 71
     3
 72
    25
 73
    21
 74
     0
 42
0.000000001
 43
0.00000001
 40
0.0
 40
0.0
 40
0.0
 40
0.0
 40
0.0146152812737043
 40
0.0587246282403154
 40
0.1043247795371023
 40
0.1523260966048373
 40
0.2034232596803686
 40
0.2576729826080913
 40
0.3148590738835235
 40
0.3744780555164726
 40
0.4359892776893096
 40
0.4993010703912734
 40
0.5642603542195704
 40
0.630111654637658
 40
0.6959629550558232
 40
0.7609222388844592
 40
0.8242340315870946
 40
0.8857452537605841
 40
0.945364235393815
 40
1.0
 40
1.0
 40
1.0
 40
1.0
 10
61.82503656142119
 20
-160.6389431112538
 30
0.0
 10
61.44763170503951
 20
-160.9456751433817
 30
0.0
 10
59.93120793788427
 20
-162.1781334326736
 30
0.0
 10
56.19548858490207
 20
-163.9636361173135
 30
0.0
 10
50.76581600727506
 20
-165.9339852390463
 30
0.0
 10
44.4014234107529
 20
-167.4474804719998
 30
0.0
 10
37.29704735294467
 20
-168.5263887876359
 30
0.0
 10
29.53801730498084
 20
-169.1451485699955
 30
0.0
 10
21.28505380041605
 20
-169.2813881402419
 30
0.0
 10
12.70486167704812
 20
-168.9489611622395
 30
0.0
 10
3.941605835074836
 20
-168.1538249940283
 30
0.0
 10
-4.885731472972086
 20
-166.9049909203242
 30
0.0
 10
-13.65926454716335
 20
-165.2219004028617
 30
0.0
 10
-22.23246236869256
 20
-163.132220701098
 30
0.0
 10
-30.42081738769281
 20
-160.6666165408785
 30
0.0
 10
-38.06889509487701
 20
-157.8859452956936
 30
0.0
 10
-45.05726130771104
 20
-154.839045940818
 30
0.0
 10
-51.26097984701311
 20
-151.5570475142958
 30
0.0
 10
-56.6177271110674
 20
-148.1633295962993
 30
0.0
 10
-59.45919198396573
 20
-145.7324442127187
 30
0.0
 10
-60.8179592215832
 20
-144.5700130142491
 30
0.0
  0
SPLINE
  5
14A
330
13B
100
AcDbEntity
  8
0
  6
Continuous
 62
     7
370
    25
100
AcDbSpline
210
0.0
220
0.0
230
1.0
 70
     8
 71
     3
 72
    16
 73
    12
 74
     0
 42
0.000000001
 43
0.00000001
 40
0.0
 40
0.0
 40
0.0
 40
0.0
 40
0.125
 40
0.125
 40
0.25
 40
0.25
 40
0.5
 40
0.5
 40
0.75
 40
0.75
 40
1.0
 40
1.0
 40
1.0
 40
1.0
 10
63.30070564809787
 20
51.95343338883244
 30
0.0
 10
63.16884637233104
 20
52.0761157755226
 30
0.0
 10
63.06262321197427
 20
52.21256349995087
 30
0.0
 10
62.88350288234214
 20
52.50464810976216
 30
0.0
 10
62.81091684686754
 20
52.66134021219393
 30
0.0
 10
62.63733023965288
 20
53.13697684227358
 30
0.0
 10
62.57489792901725
 20
53.46941943690919
 30
0.0
 10
62.51523156125663
 20
54.14340636843298
 30
0.0
 10
62.51882959556426
 20
54.48071451273525
 30
0.0
 10
62.57254485975941
 20
55.15743267101228
 30
0.0
 10
62.62308699165718
 20
55.49681009522417
 30
0.0
 10
62.69368478645859
 20
55.83768881949602
 30
0.0
  0
SPLINE
  5
14F
330
13B
100
AcDbEntity
  8
0
  6
Continuous
 62
     7
370
    25
100
AcDbSpline
210
0.0
220
0.0
230
1.0
 70
     8
 71
     3
 72
    12
 73
     8
 74
     0
 42
0.000000001
 43
0.00000001
 40
0.0
 40
0.0
 40
0.0
 40
0.0
 40
0.2499999999999977
 40
0.2499999999999977
 40
0.4999999999999954
 40
0.4999999999999954
 40
1.0
 40
1.0
 40
1.0
 40
1.0
 10
63.30070564809788
 20
51.95343338883244
 30
0.0
 10
63.39689894214756
 20
51.86393477124209
 30
0.0
 10
63.49888456112122
 20
51.77916805141432
 30
0.0
 10
63.70855475841422
 20
51.62464306960263
 30
0.0
 10
63.81670547845872
 20
51.55435039815801
 30
0.0
 10
64.15116478403785
 20
51.36446825469632
 30
0.0
 10
64.38942949467587
 20
51.26518691174642
 30
0.0
 10
64.63668146481355
 20
51.19798912423182
 30
0.0
  0
LINE
  5
154
330
13B
100
AcDbEntity
  8
0
  6
Continuous
 62
     7
370
    25
100
AcDbLine
 10
88.149367618
 20
39.6385022057
 30
0.0
 11
92.2920222144
 21
43.6818600908
 31
0.0
  0
LINE
  5
155
330
13B
100
AcDbEntity
  8
0
  6
Continuous
 62
     7
370
    25
100
AcDbLine
 10
92.2920222144
 20
43.6818600908
 30
0.0
 11
92.6715405389
 21
43.6531024891
 31
0.0
  0
LINE
  5
156
330
13B
100
AcDbEntity
  8
0
  6
Continuous
 62
     7
370
    25
100
AcDbLine
 10
64.6366814648
 20
51.1979891242
 30
0.0
 11
60.4940268684
 21
47.1546312392
 31
0.0
  0
LINE
  5
157
330
13B
100
AcDbEntity
  8
0
  6
Continuous
 62
     7
370
    25
100
AcDbLine
 10
92.2920222144
 20
43.6818600908
 30
0.0
 11
64.6366814648
 21
51.1979891242
 31
0.0
  0
LINE
  5
158
330
13B
100
AcDbEntity
  8
0
  6
Continuous
 62
     1
370
    25
100
AcDbLine
 10
62.8787372118
 20
52.717772663
 30
0.0
 11
63.3226636043
 21
55.732882389
 31
0.0
  0
LINE
  5
159
330
13B
100
AcDbEntity
  8
0
  6
Continuous
 62
     1
370
    25
100
AcDbLine
 10
62.8889141839
 20
55.8458584485
 30
0.0
 11
62.6370406939
 21
54.112385735
 31
0.0
  0
LINE
  5
15A
330
13B
100
AcDbEntity
  8
0
  6
Continuous
 62
     1
370
    25
100
AcDbLine
 10
65.8646560394
 20
55.0765717325
 30
0.0
 11
65.2567673684
 21
51.0294630625
 31
0.0
  0
LINE
  5
15B
330
13B
100
AcDbEntity
  8
0
  6
Continuous
 62
     1
370
    25
100
AcDbLine
 10
61.8705328356
 20
56.025526734
 30
0.0
 11
57.8214140943
 21
52.073462711
 31
0.0
  0
VIEWPORT
  5
19F
330
13B
100
AcDbEntity
  8
0
100
AcDbViewport
 10
0.0
 20
0.0
 30
0.0
 40
205.6
 41
156.0
 68
     1
 69
     1
 12
0.0
 22
-17.129261467
 13
0.0
 23
0.0
 14
10.0
 24
10.0
 15
10.0
 25
10.0
 16
0.0
 26
0.0
 36
1.0
 17
0.0
 27
0.0
 37
0.0
 42
50.0
 43
0.0
 44
0.0
 45
382.4705910073
 50
0.0
 51
0.0
 72
   100
 90
   557152
  1

281
     0
 71
     1
 74
     0
110
0.0
120
0.0
130
0.0
111
1.0
121
0.0
131
0.0
112
0.0
122
1.0
132
0.0
 79
     0
146
0.0
170
     0
 61
     5
348
2F
292
     1
282
     1
141
0.0
142
0.0
 63
   256
361
1A0
  0
ENDBLK
  5
13E
330
13B
100
AcDbEntity
  8
0
100
AcDbBlockEnd
  0
BLOCK
  5
15E
330
15C
100
AcDbEntity
  8
0
100
AcDbBlockBegin
  2
*Paper_Space8
 70
     0
 10
0.0
 20
0.0
 30
0.0
  3
*Paper_Space8
  1

  0
SPLINE
  5
160
330
15C
100
AcDbEntity
  8
0
  6
Continuous
 62
     7
370
    25
100
AcDbSpline
210
0.0
220
0.0
230
1.0
 70
     8
 71
     3
 72
   147
 73
   143
 74
     0
 42
0.000000001
 43
0.00000001
 40
0.0
 40
0.0
 40
0.0
 40
0.0
 40
0.0077433884372086
 40
0.0141636415441501
 40
0.0192552314480268
 40
0.0230141220357598
 40
0.0255739705771716
 40
0.0307937463866147
 40
0.0369871187178038
 40
0.0435267279104918
 40
0.0510953429636646
 40
0.059033465705487
 40
0.0664764248432386
 40
0.0752246696762957
 40
0.0835213014798819
 40
0.0918339140149147
 40
0.0998701069234449
 40
0.1053813798083777
 40
0.1104668732379312
 40
0.1167838470777519
 40
0.1244368508271228
 40
0.1386868303718704
 40
0.1516944027946195
 40
0.1639217815151779
 40
0.1713038300346722
 40
0.1797349684395247
 40
0.1883917239866101
 40
0.1952119580029153
 40
0.2002106980111328
 40
0.2065451400980367
 40
0.2139141781151409
 40
0.2202775955412991
 40
0.2253415812291969
 40
0.2297645636482105
 40
0.2353460171330378
 40
0.2419860370022228
 40
0.2479485822847673
 40
0.2525760496986
 40
0.2657069444882654
 40
0.2806514769576399
 40
0.2976456740415345
 40
0.3136280084208774
 40
0.3285091068146714
 40
0.3337165424532973
 40
0.3389452930337813
 40
0.3449879420937665
 40
0.3517369982405769
 40
0.3585175006443397
 40
0.3639362588619841
 40
0.3683881159447333
 40
0.3731117847467005
 40
0.3789831606783916
 40
0.3848757699558902
 40
0.3898944452273969
 40
0.3931561986656245
 40
0.3975326562125752
 40
0.4026573500149542
 40
0.4064989968338398
 40
0.409808543407892
 40
0.4144466504138539
 40
0.4191341392658985
 40
0.4230649063470903
 40
0.4289950735488486
 40
0.435650493212565
 40
0.4418698664136404
 40
0.4466711502690352
 40
0.4504192594828784
 40
0.4548564924423821
 40
0.4603272460830457
 40
0.4668352006639588
 40
0.4743794422404575
 40
0.4829532410742087
 40
0.4925413664972378
 40
0.5032537926279077
 40
0.5143077516911303
 40
0.5244421724594222
 40
0.5336617826007257
 40
0.5420062270178077
 40
0.5516669335490643
 40
0.5599508238245192
 40
0.5669076702206959
 40
0.5775886162338841
 40
0.5907157063719097
 40
0.6048720886587108
 40
0.6193054803529875
 40
0.6334523143669082
 40
0.6498145684925053
 40
0.6628065498678364
 40
0.6698579238132693
 40
0.6779461135361584
 40
0.6862209264413741
 40
0.6941616415643699
 40
0.7018633615121251
 40
0.7093612847969798
 40
0.7161805211349598
 40
0.7227833676024548
 40
0.7297779833807805
 40
0.7378812870584777
 40
0.7463542201634363
 40
0.7522550728982116
 40
0.7570473065371772
 40
0.7616237696741301
 40
0.7667883182532987
 40
0.7732318132719468
 40
0.7794516708646344
 40
0.7849329099025245
 40
0.7886566690266505
 40
0.7922820845473055
 40
0.7971790065303693
 40
0.8029822553320486
 40
0.807722587314739
 40
0.8112809443815466
 40
0.8146694164605991
 40
0.8210802113318049
 40
0.8284772405481104
 40
0.8379248393557306
 40
0.8471040727309865
 40
0.8546143150193866
 40
0.8622991256293178
 40
0.870126615624605
 40
0.8761571331857168
 40
0.8829051014778853
 40
0.890724026936245
 40
0.8970274940297828
 40
0.9029285045624752
 40
0.9100874545286809
 40
0.9177060586523457
 40
0.9248200701137321
 40
0.9303210405233939
 40
0.9363160259094582
 40
0.9428652040880994
 40
0.9498742025202469
 40
0.9561169072885335
 40
0.9588094088209835
 40
0.9612161261954704
 40
0.9633371773977535
 40
0.9654415181759728
 40
0.9685248620863157
 40
0.9738862534257359
 40
0.9809208562102807
 40
0.9896264309282017
 40
1.0
 40
1.0
 40
1.0
 40
1.0
 10
-278.7195034205002
 20
11.87038430901025
 30
0.0
 10
-278.0980009837176
 20
10.24682430184834
 30
0.0
 10
-276.9611940412808
 20
7.277126713598648
 30
0.0
 10
-275.2769282079348
 20
3.296423757401634
 30
0.0
 10
-273.8797169034221
 20
0.167282891604531
 30
0.0
 10
-272.7963163456022
 20
-2.152368407281779
 30
0.0
 10
-271.6737842172768
 20
-4.48444496854232
 30
0.0
 10
-270.2741123290995
 20
-7.287701822700485
 30
0.0
 10
-268.4005102249129
 20
-10.84993216035099
 30
0.0
 10
-266.1902286672057
 20
-14.82322318087109
 30
0.0
 10
-263.6818528087091
 20
-19.07013148414613
 30
0.0
 10
-260.9495533961698
 20
-23.41248381120928
 30
0.0
 10
-257.9540647171093
 20
-27.89366110237515
 30
0.0
 10
-254.7866621096135
 20
-32.34857589266067
 30
0.0
 10
-251.3749445406579
 20
-36.85419956932641
 30
0.0
 10
-247.9416891260247
 20
-41.12521132918309
 30
0.0
 10
-244.7978096772875
 20
-44.81814967415262
 30
0.0
 10
-242.0520636668354
 20
-47.89713468659297
 30
0.0
 10
-239.5180445709002
 20
-50.6388914293681
 30
0.0
 10
-236.612682143767
 20
-53.66548818214752
 30
0.0
 10
-232.2100629441573
 20
-58.04620162910962
 30
0.0
 10
-226.607546928658
 20
-63.2385361157279
 30
0.0
 10
-220.0709929858301
 20
-68.79916135672698
 30
0.0
 10
-214.539888148882
 20
-73.15534848420123
 30
0.0
 10
-209.7213487957111
 20
-76.7357828549381
 30
0.0
 10
-205.4435858953618
 20
-79.7726899675559
 30
0.0
 10
-201.1853612993565
 20
-82.642293348179
 30
0.0
 10
-197.4126588387806
 20
-85.09595834166781
 30
0.0
 10
-194.0093549945123
 20
-87.26309462142433
 30
0.0
 10
-190.514094107196
 20
-89.44048222709833
 30
0.0
 10
-186.7407475892176
 20
-91.73044451983974
 30
0.0
 10
-183.1674388390017
 20
-93.8418322801457
 30
0.0
 10
-180.1145935573738
 20
-95.60514057816712
 30
0.0
 10
-177.2150380198354
 20
-97.24833593536178
 30
0.0
 10
-174.0141675502482
 20
-99.02628692366167
 30
0.0
 10
-170.5045089483393
 20
-100.9280432726175
 30
0.0
 10
-167.1524496228905
 20
-102.6978923151626
 30
0.0
 10
-162.505184134058
 20
-105.0978173687121
 30
0.0
 10
-156.0480437955889
 20
-108.3084245158389
 30
0.0
 10
-147.0535590463075
 20
-112.5134553470981
 30
0.0
 10
-137.3712921498881
 20
-116.720744803696
 30
0.0
 10
-127.6067887265425
 20
-120.64199435548
 30
0.0
 10
-120.1859437764619
 20
-123.4011820721545
 30
0.0
 10
-114.9509740132268
 20
-125.2489808468292
 30
0.0
 10
-111.5362569484361
 20
-126.421285137798
 30
0.0
 10
-107.7913969081999
 20
-127.6682479559227
 30
0.0
 10
-103.712704502229
 20
-128.9791483610384
 30
0.0
 10
-99.74676764636119
 20
-130.2058096674878
 30
0.0
 10
-96.25330615954375
 20
-131.2486469862127
 30
0.0
 10
-93.17939937357818
 20
-132.1396296403413
 30
0.0
 10
-90.00843163048272
 20
-133.0333895055167
 30
0.0
 10
-86.53137507606068
 20
-133.9816905434303
 30
0.0
 10
-82.98022036434149
 20
-134.9146081651654
 30
0.0
 10
-79.96916720041888
 20
-135.6778924295911
 30
0.0
 10
-77.27536486023615
 20
-136.3420512228104
 30
0.0
 10
-74.56690544648649
 20
-136.9926644931033
 30
0.0
 10
-71.7230581795955
 20
-137.6536444556304
 30
0.0
 10
-69.09889912935053
 20
-138.2443687837456
 30
0.0
 10
-66.57386217542012
 20
-138.7982238478094
 30
0.0
 10
-63.83699443988733
 20
-139.3809734401929
 30
0.0
 10
-60.96610968164268
 20
-139.9705219997442
 30
0.0
 10
-57.8636488775191
 20
-140.586992325124
 30
0.0
 10
-54.38039862977659
 20
-141.2529354673594
 30
0.0
 10
-50.35060499284259
 20
-141.9849918456955
 30
0.0
 10
-46.54013715563632
 20
-142.6403593755765
 30
0.0
 10
-43.34048480189893
 20
-143.164498830068
 30
0.0
 10
-40.51896249663948
 20
-143.6087731342498
 30
0.0
 10
-37.59540760807852
 20
-144.051439270578
 30
0.0
 10
-34.09682492888635
 20
-144.5559209687346
 30
0.0
 10
-29.93781354787579
 20
-145.1193752700855
 30
0.0
 10
-25.09983388882843
 20
-145.7254508141693
 30
0.0
 10
-19.56898869132521
 20
-146.3545707773947
 30
0.0
 10
-13.30816483406218
 20
-146.9872406423323
 30
0.0
 10
-6.451012712502021
 20
-147.5842056492159
 30
0.0
 10
0.5846475318439446
 20
-148.0913445092723
 30
0.0
 10
7.334083427614952
 20
-148.4775744099452
 30
0.0
 10
13.50935308815186
 20
-148.745351499302
 30
0.0
 10
19.59619221808917
 20
-148.9311886319586
 30
0.0
 10
25.48508392564046
 20
-149.0321072613566
 30
0.0
 10
31.06624988120737
 20
-149.0519235832797
 30
0.0
 10
36.87441880692916
 20
-149.0049448150127
 30
0.0
 10
43.72723898117448
 20
-148.8576589552773
 30
0.0
 10
52.203718577019
 20
-148.5221412533242
 30
0.0
 10
61.52414084735867
 20
-147.950653954254
 30
0.0
 10
70.9395136713785
 20
-147.1553210368832
 30
0.0
 10
80.92115144100073
 20
-146.0774082558403
 30
0.0
 10
90.51873839260826
 20
-144.7929926390268
 30
0.0
 10
98.52569763030259
 20
-143.5175137193501
 30
0.0
 10
104.6852128567617
 20
-142.426057374578
 30
0.0
 10
109.7973701980121
 20
-141.4501554825986
 30
0.0
 10
115.0862818378136
 20
-140.3609672947541
 30
0.0
 10
120.2709138608441
 20
-139.2148883120324
 30
0.0
 10
125.2679403631483
 20
-138.0364331844842
 30
0.0
 10
130.0037934686389
 20
-136.850678015811
 30
0.0
 10
134.4858846929972
 20
-135.6662701912188
 30
0.0
 10
138.8420464448079
 20
-134.4578245674953
 30
0.0
 10
143.4532473145565
 20
-133.1164816648932
 30
0.0
 10
148.4381071825825
 20
-131.5909256963666
 30
0.0
 10
153.1662879130923
 20
-130.0642152199835
 30
0.0
 10
157.1812920137673
 20
-128.7082058948567
 30
0.0
 10
160.3658799144911
 20
-127.597131628276
 30
0.0
 10
163.3906818047512
 20
-126.5119766047094
 30
0.0
 10
166.7426331490535
 20
-125.2747459258772
 30
0.0
 10
170.4093070913013
 20
-123.8758419692417
 30
0.0
 10
174.1287873384269
 20
-122.4058588291781
 30
0.0
 10
177.2763335580992
 20
-121.1215302537805
 30
0.0
 10
179.8850440912967
 20
-120.0304645565392
 30
0.0
 10
182.3637110548274
 20
-118.9734439132006
 30
0.0
 10
185.2498380097415
 20
-117.7150216503345
 30
0.0
 10
188.3485357161696
 20
-116.326282056544
 30
0.0
 10
191.172682870381
 20
-115.02635911913
 30
0.0
 10
193.5034410056541
 20
-113.9308243350877
 30
0.0
 10
196.1930797984618
 20
-112.6454050482255
 30
0.0
 10
199.6656788556177
 20
-110.9361419563192
 30
0.0
 10
204.2810946071653
 20
-108.5093326118831
 30
0.0
 10
209.3626517049294
 20
-105.6358402440711
 30
0.0
 10
214.3640173907126
 20
-102.5672924081239
 30
0.0
 10
218.9363945175548
 20
-99.55265937745945
 30
0.0
 10
223.1647490635239
 20
-96.57730236886657
 30
0.0
 10
227.0331210784969
 20
-93.66947631824726
 30
0.0
 10
230.6512799637117
 20
-90.78516360856025
 30
0.0
 10
234.1889830294324
 20
-87.80917423720922
 30
0.0
 10
237.6817311945776
 20
-84.68578787948151
 30
0.0
 10
240.9417761498356
 20
-81.59263212995154
 30
0.0
 10
244.0140417389905
 20
-78.52468626577782
 30
0.0
 10
247.2042107687833
 20
-75.15930194309217
 30
0.0
 10
250.4691352729506
 20
-71.49253897627788
 30
0.0
 10
253.3795901944039
 20
-68.01169761833111
 30
0.0
 10
255.9695372331146
 20
-64.7412433712536
 30
0.0
 10
258.4030525730788
 20
-61.51055061872331
 30
0.0
 10
260.9466517912316
 20
-57.94128658572295
 30
0.0
 10
263.4185535950865
 20
-54.2542486486821
 30
0.0
 10
265.3258387471692
 20
-51.23008169179204
 30
0.0
 10
266.6417499340703
 20
-49.05369769619647
 30
0.0
 10
267.464506454806
 20
-47.65931680027509
 30
0.0
 10
268.2079615278262
 20
-46.37144582088837
 30
0.0
 10
269.0143670417428
 20
-44.94544752931254
 30
0.0
 10
270.1551587806508
 20
-42.87573540861261
 30
0.0
 10
271.7758884623475
 20
-39.80933059971151
 30
0.0
 10
273.8740040198273
 20
-35.57065700883746
 30
0.0
 10
276.313810774943
 20
-30.24584648809892
 30
0.0
 10
277.8953376610298
 20
-26.26722669375952
 30
0.0
 10
278.7552336067047
 20
-24.10400135713601
 30
0.0
  0
SPLINE
  5
163
330
15C
100
AcDbEntity
  8
0
  6
Continuous
 62
     7
370
    25
100
AcDbSpline
210
0.0
220
0.0
230
1.0
 70
    11
 71
     3
 72
    35
 73
    31
 74
     0
 42
0.000000001
 43
0.00000001
 40
0.0
 40
0.0
 40
0.0
 40
0.0
 40
0.0062500000000001
 40
0.0083333333333333
 40
0.0416666666666666
 40
0.0833333333333334
 40
0.1250000000000001
 40
0.1666666666666666
 40
0.2083333333333334
 40
0.25
 40
0.2916666666666666
 40
0.3333333333333334
 40
0.375
 40
0.4166666666666666
 40
0.4583333333333334
 40
0.5000000000020915
 40
0.5416666666666667
 40
0.5833333333333333
 40
0.625
 40
0.6666666666666667
 40
0.7083333333333333
 40
0.7500000000009739
 40
0.7916666666666666
 40
0.8333333333333334
 40
0.875
 40
0.9166666666666666
 40
0.9583333333333334
 40
0.9916666666666667
 40
0.99375
 40
1.0
 40
1.0
 40
1.0
 40
1.0
 10
-271.270160550001
 20
34.17682774137762
 30
0.0
 10
-270.3629437504293
 20
34.97691775369249
 30
0.0
 10
-269.057789756018
 20
36.03166858713391
 30
0.0
 10
-261.9104778419443
 20
41.21949007877671
 30
0.0
 10
-243.8412686988711
 20
50.12639199578264
 30
0.0
 10
-203.0203086467635
 20
60.62854777802904
 30
0.0
 10
-144.746404796563
 20
67.94850481586704
 30
0.0
 10
-76.39589258490058
 20
70.53818566661276
 30
0.0
 10
-4.068350382824382
 20
68.36907701593212
 30
0.0
 10
69.75221828137187
 20
61.51567432402591
 30
0.0
 10
138.7169441565713
 20
50.37982082357873
 30
0.0
 10
197.2667923588875
 20
36.05992818483272
 30
0.0
 10
243.3909378956875
 20
19.04779611169675
 30
0.0
 10
272.5712763420752
 20
0.7096402120187195
 30
0.0
 10
283.0457235426005
 20
-17.37263751874184
 30
0.0
 10
274.4545470494172
 20
-34.57802272954684
 30
0.0
 10
246.7570515597359
 20
-49.37623801133648
 30
0.0
 10
203.0203086467635
 20
-60.62854777802906
 30
0.0
 10
144.7464047965629
 20
-67.94850481586704
 30
0.0
 10
76.39589258490064
 20
-70.53818566661276
 30
0.0
 10
4.068350382824312
 20
-68.3690770159321
 30
0.0
 10
-69.75221828137192
 20
-61.51567432402592
 30
0.0
 10
-138.7169441565715
 20
-50.37982082357874
 30
0.0
 10
-197.2667923588876
 20
-36.05992818483272
 30
0.0
 10
-243.3909378956876
 20
-19.04779611169675
 30
0.0
 10
-272.5712763420752
 20
-0.7096402120187334
 30
0.0
 10
-282.3474270625654
 20
16.16715233669112
 30
0.0
 10
-278.2252483528811
 20
26.83121492208482
 30
0.0
 10
-273.2914681540189
 20
32.29791519633118
 30
0.0
 10
-272.1773773495725
 20
33.37673772906275
 30
0.0
 10
-271.270160550001
 20
34.17682774137762
 30
0.0
  0
SPLINE
  5
164
330
15C
100
AcDbEntity
  8
0
  6
Continuous
 62
     7
370
    25
100
AcDbSpline
210
0.0
220
0.0
230
1.0
 70
    11
 71
     3
 72
    35
 73
    31
 74
     0
 42
0.000000001
 43
0.00000001
 40
0.0
 40
0.0
 40
0.0
 40
0.0
 40
0.0062500000000001
 40
0.0083333333333333
 40
0.0416666666666666
 40
0.0833333333333334
 40
0.1250000000000001
 40
0.1666666666666666
 40
0.2083333333333334
 40
0.25
 40
0.2916666666666666
 40
0.3333333333333334
 40
0.375
 40
0.4166666666666666
 40
0.4583333333333334
 40
0.5000000000020915
 40
0.5416666666666667
 40
0.5833333333333333
 40
0.625
 40
0.6666666666666667
 40
0.7083333333333333
 40
0.7500000000009739
 40
0.7916666666666666
 40
0.8333333333333334
 40
0.875
 40
0.9166666666666666
 40
0.9583333333333334
 40
0.9916666666666667
 40
0.99375
 40
1.0
 40
1.0
 40
1.0
 40
1.0
 10
-251.1971558812918
 20
31.64786686553558
 30
0.0
 10
-250.3852264212565
 20
32.36392134334637
 30
0.0
 10
-249.2141456580174
 20
33.30750966836021
 30
0.0
 10
-242.7827777637347
 20
37.9459804832594
 30
0.0
 10
-226.3931578035163
 20
45.88886487597537
 30
0.0
 10
-189.0850400594788
 20
55.1751633867448
 30
0.0
 10
-135.6076103629421
 20
61.53388040194477
 30
0.0
 10
-72.70893790159633
 20
63.59607919391372
 30
0.0
 10
-5.979220839477183
 20
61.36356059583439
 30
0.0
 10
62.28882626447443
 20
54.93358125263443
 30
0.0
 10
126.2489563088303
 20
44.7043761732148
 30
0.0
 10
180.7262608691331
 20
31.66624542807857
 30
0.0
 10
223.808216354036
 20
16.25174257915071
 30
0.0
 10
251.2986007223059
 20
-0.307960155524048
 30
0.0
 10
261.535201758054
 20
-16.58337872707688
 30
0.0
 10
254.1474275432326
 20
-32.01956615668399
 30
0.0
 10
229.0580233566414
 20
-45.2255578395097
 30
0.0
 10
189.0850400594541
 20
-55.17516338676665
 30
0.0
 10
135.6076103629247
 20
-61.53388040196018
 30
0.0
 10
72.70893790158695
 20
-63.59607919392229
 30
0.0
 10
5.97922083947635
 20
-61.36356059583527
 30
0.0
 10
-62.2888262644735
 20
-54.93358125263381
 30
0.0
 10
-126.2489563088328
 20
-44.70437617321715
 30
0.0
 10
-180.726260869139
 20
-31.66624542808385
 30
0.0
 10
-223.8082163540498
 20
-16.25174257916279
 30
0.0
 10
-251.2986007223278
 20
0.3079601555048272
 30
0.0
 10
-260.852761689023
 20
15.49835082229002
 30
0.0
 10
-257.3838040636695
 20
25.06908565763336
 30
0.0
 10
-253.0031498048487
 20
29.96592210524321
 30
0.0
 10
-252.0090853413271
 20
30.9318123877248
 30
0.0
 10
-251.1971558812918
 20
31.64786686553558
 30
0.0
  0
SPLINE
  5
165
330
15C
100
AcDbEntity
  8
0
  6
Continuous
 62
     7
370
    25
100
AcDbSpline
210
0.0
220
0.0
230
1.0
 70
     8
 71
     3
 72
    24
 73
    20
 74
     0
 42
0.000000001
 43
0.00000001
 40
0.0
 40
0.0
 40
0.0
 40
0.0
 40
0.125000000000002
 40
0.125000000000002
 40
0.250000000000004
 40
0.250000000000004
 40
0.375000000000006
 40
0.375000000000006
 40
0.500000000000008
 40
0.500000000000008
 40
0.62500000000001
 40
0.62500000000001
 40
0.6875000000000081
 40
0.6875000000000081
 40
0.7500000000000062
 40
0.7500000000000062
 40
0.8750000000000031
 40
0.8750000000000031
 40
1.0
 40
1.0
 40
1.0
 40
1.0
 10
38.59646269709631
 20
23.92340867556968
 30
0.0
 10
38.62429438073983
 20
24.21851225172832
 30
0.0
 10
38.67650177253262
 20
24.50810661475843
 30
0.0
 10
38.82752760646584
 20
25.07676031536839
 30
0.0
 10
38.92684779845554
 20
25.35693319264604
 30
0.0
 10
39.17341103659734
 20
25.9012220585151
 30
0.0
 10
39.31772611350155
 20
26.15935455963675
 30
0.0
 10
39.64868797168743
 20
26.64742693735354
 30
0.0
 10
39.83704292654336
 20
26.87914170382491
 30
0.0
 10
40.25382246389101
 20
27.3026659409841
 30
0.0
 10
40.47814429769151
 20
27.49096562937178
 30
0.0
 10
40.8394966569495
 20
27.73686528339307
 30
0.0
 10
40.96412292690596
 20
27.81269526839943
 30
0.0
 10
41.22233450673381
 20
27.95120101614747
 30
0.0
 10
41.35625037838182
 20
28.01386424731633
 30
0.0
 10
41.76050012769199
 20
28.17581657734514
 30
0.0
 10
42.0368892187787
 20
28.25154038987041
 30
0.0
 10
42.60434246554959
 20
28.3346292814543
 30
0.0
 10
42.89523956234336
 20
28.3409223929169
 30
0.0
 10
43.18058586527291
 20
28.30926088458333
 30
0.0
  0
SPLINE
  5
166
330
15C
100
AcDbEntity
  8
0
  6
Continuous
 62
     7
370
    25
100
AcDbSpline
210
0.0
220
0.0
230
1.0
 70
     8
 71
     3
 72
    22
 73
    18
 74
     0
 42
0.000000001
 43
0.00000001
 40
0.0
 40
0.0
 40
0.0
 40
0.0
 40
0.1250000000000002
 40
0.1250000000000002
 40
0.2500000000000004
 40
0.2500000000000004
 40
0.3750000000000006
 40
0.3750000000000006
 40
0.5000000000000008
 40
0.5000000000000008
 40
0.625000000000001
 40
0.625000000000001
 40
0.7500000000000011
 40
0.7500000000000011
 40
0.8750000000000013
 40
0.8750000000000013
 40
1.0
 40
1.0
 40
1.0
 40
1.0
 10
41.67873889116177
 20
19.44228401807938
 30
0.0
 10
41.42780410566734
 20
19.47004339471781
 30
0.0
 10
41.18630462125698
 20
19.5262397750947
 30
0.0
 10
40.72131644005317
 20
19.69296583040352
 30
0.0
 10
40.49578824386835
 20
19.80535123021435
 30
0.0
 10
40.08204368154642
 20
20.07443965418547
 30
0.0
 10
39.89168296750955
 20
20.23130975230718
 30
0.0
 10
39.54268317777766
 20
20.5880749946904
 30
0.0
 10
39.38809577495147
 20
20.78413127558573
 30
0.0
 10
39.11886948441111
 20
21.20319796186261
 30
0.0
 10
39.0027476052377
 20
21.42920400769514
 30
0.0
 10
38.81320123803597
 20
21.89686823769896
 30
0.0
 10
38.73930729401193
 20
22.13826859796947
 30
0.0
 10
38.63060212403992
 20
22.63529221198357
 30
0.0
 10
38.59600430507777
 20
22.89207591971357
 30
0.0
 10
38.56694364117033
 20
23.40546412249418
 30
0.0
 10
38.57196696304785
 20
23.66367668051933
 30
0.0
 10
38.59646269709632
 20
23.92340867556966
 30
0.0
  0
SPLINE
  5
167
330
15C
100
AcDbEntity
  8
0
  6
Continuous
 62
     7
370
    25
100
AcDbSpline
210
0.0
220
0.0
230
1.0
 70
     8
 71
     3
 72
     8
 73
     4
 74
     0
 42
0.000000001
 43
0.00000001
 40
0.0
 40
0.0
 40
0.0
 40
0.0
 40
1.0
 40
1.0
 40
1.0
 40
1.0
 10
70.92870773130952
 20
15.75713433385456
 30
0.0
 10
61.32964555198659
 20
17.11862304744571
 30
0.0
 10
51.57965593860387
 20
18.34700627552053
 30
0.0
 10
41.67873889116134
 20
19.44228401807901
 30
0.0
  0
SPLINE
  5
168
330
15C
100
AcDbEntity
  8
0
  6
Continuous
 62
     7
370
    25
100
AcDbSpline
210
0.0
220
0.0
230
1.0
 70
     8
 71
     3
 72
    20
 73
    16
 74
     0
 42
0.000000001
 43
0.00000001
 40
0.0
 40
0.0
 40
0.0
 40
0.0
 40
0.25
 40
0.25
 40
0.375
 40
0.375
 40
0.5
 40
0.5
 40
0.625
 40
0.625
 40
0.75
 40
0.75
 40
0.875
 40
0.875
 40
1.0
 40
1.0
 40
1.0
 40
1.0
 10
75.30127003904873
 20
19.29903762324711
 30
0.0
 10
75.17594069287023
 20
18.78789261471693
 30
0.0
 10
74.9809751294783
 20
18.30468082162437
 30
0.0
 10
74.57785717081369
 20
17.62422924890295
 30
0.0
 10
74.42681435745452
 20
17.40915399735771
 30
0.0
 10
74.09587775846616
 20
17.01009929191846
 30
0.0
 10
73.91531569896426
 20
16.82489649115362
 30
0.0
 10
73.52083274599596
 20
16.4861889122149
 30
0.0
 10
73.30836309420012
 20
16.33473697583424
 30
0.0
 10
72.8681657306244
 20
16.08079188826281
 30
0.0
 10
72.63832474017661
 20
15.97631724928619
 30
0.0
 10
72.15712086934732
 20
15.81722485480466
 30
0.0
 10
71.91051524269243
 20
15.76480277815942
 30
0.0
 10
71.42040512133832
 20
15.71770884646598
 30
0.0
 10
71.17297002301234
 20
15.72248924591824
 30
0.0
 10
70.92870773130953
 20
15.75713433385459
 30
0.0
  0
SPLINE
  5
169
330
15C
100
AcDbEntity
  8
0
  6
Continuous
 62
     7
370
    25
100
AcDbSpline
210
0.0
220
0.0
230
1.0
 70
     8
 71
     3
 72
    22
 73
    18
 74
     0
 42
0.000000001
 43
0.00000001
 40
0.0
 40
0.0
 40
0.0
 40
0.0
 40
0.125
 40
0.125
 40
0.25
 40
0.25
 40
0.375
 40
0.375
 40
0.5
 40
0.5
 40
0.625
 40
0.625
 40
0.75
 40
0.75
 40
0.875
 40
0.875
 40
1.0
 40
1.0
 40
1.0
 40
1.0
 10
72.4305547054208
 20
24.62411120035867
 30
0.0
 10
72.70664623144727
 20
24.58504972572624
 30
0.0
 10
72.97011401868335
 20
24.51032507040648
 30
0.0
 10
73.47343744752871
 20
24.29429286344775
 30
0.0
 10
73.71410185695018
 20
24.15114880825197
 30
0.0
 10
74.14831336264497
 20
23.81429970365199
 30
0.0
 10
74.34681718231558
 20
23.61755184943952
 30
0.0
 10
74.6970717834271
 20
23.18140625891588
 30
0.0
 10
74.84701789701951
 20
22.94523641807801
 30
0.0
 10
75.10032787375178
 20
22.43956496177446
 30
0.0
 10
75.20285702875842
 20
22.17011533545698
 30
0.0
 10
75.35565470298066
 20
21.61974733000424
 30
0.0
 10
75.40734602950998
 20
21.33567502756247
 30
0.0
 10
75.46125575567595
 20
20.75382657124436
 30
0.0
 10
75.46296490733593
 20
20.46282489383351
 30
0.0
 10
75.41860761814544
 20
19.88069578967454
 30
0.0
 10
75.3721757297792
 20
19.58822041242085
 30
0.0
 10
75.3012700390488
 20
19.2990376232471
 30
0.0
  0
SPLINE
  5
16A
330
15C
100
AcDbEntity
  8
0
  6
Continuous
 62
     7
370
    25
100
AcDbSpline
210
0.0
220
0.0
230
1.0
 70
     8
 71
     3
 72
     8
 73
     4
 74
     0
 42
0.000000001
 43
0.00000001
 40
0.0
 40
0.0
 40
0.0
 40
0.0
 40
1.0
 40
1.0
 40
1.0
 40
1.0
 10
72.43055470542076
 20
24.62411120035867
 30
0.0
 10
62.82815871469773
 20
25.98265976865549
 30
0.0
 10
53.07816910131509
 20
27.21104299673037
 30
0.0
 10
43.18058586527291
 20
28.30926088458333
 30
0.0
  0
SPLINE
  5
16B
330
15C
100
AcDbEntity
  8
0
  6
Continuous
 62
     7
370
    25
100
AcDbSpline
210
0.0
220
0.0
230
1.0
 70
     8
 71
     3
 72
    32
 73
    28
 74
     0
 42
0.000000001
 43
0.00000001
 40
0.0
 40
0.0
 40
0.0
 40
0.0
 40
0.0287775613045595
 40
0.0616568752193141
 40
0.0945361891341014
 40
0.1280122408372387
 40
0.1626197135717053
 40
0.1990495109385658
 40
0.2378288488937371
 40
0.2790007694615931
 40
0.3224011977129065
 40
0.3676480274413933
 40
0.4143309415035704
 40
0.462380368476805
 40
0.5116801313066855
 40
0.5616568752195662
 40
0.6116336191325059
 40
0.6609333819626437
 40
0.7089828089363881
 40
0.7556657229990603
 40
0.800912552727761
 40
0.8443129809791037
 40
0.8854849015469368
 40
0.9242642395019389
 40
0.9606940368684092
 40
0.9953015096025037
 40
1.0
 40
1.0
 40
1.0
 40
1.0
 10
69.79316805444512
 20
-160.2688231603677
 30
0.0
 10
69.74157506186052
 20
-160.8790876258062
 30
0.0
 10
69.63103537184602
 20
-162.1865993915917
 30
0.0
 10
68.00024209604125
 20
-164.133031196177
 30
0.0
 10
65.18555408330458
 20
-166.0232876182559
 30
0.0
 10
61.23036244561547
 20
-167.7217446266151
 30
0.0
 10
56.25328982587892
 20
-169.2001942003566
 30
0.0
 10
50.32008367223834
 20
-170.4381685889467
 30
0.0
 10
43.52456306615319
 20
-171.4234493909177
 30
0.0
 10
35.97565323940074
 20
-172.1414589758863
 30
0.0
 10
27.8185576735339
 20
-172.5696244528197
 30
0.0
 10
19.22462183162324
 20
-172.7104174619335
 30
0.0
 10
10.33758885194587
 20
-172.5615793126211
 30
0.0
 10
1.277894319505663
 20
-172.1240243945729
 30
0.0
 10
-7.832830710056631
 20
-171.4053514229735
 30
0.0
 10
-16.84265516452555
 20
-170.4173167012877
 30
0.0
 10
-25.56058888147535
 20
-169.1718634793383
 30
0.0
 10
-33.81972120172658
 20
-167.70214185425
 30
0.0
 10
-41.48268120093829
 20
-166.0328340072882
 30
0.0
 10
-48.44350105867167
 20
-164.1850530262836
 30
0.0
 10
-54.60885255328951
 20
-162.1846841493199
 30
0.0
 10
-59.87959143498103
 20
-160.0650522916327
 30
0.0
 10
-64.10778391033553
 20
-157.862295352149
 30
0.0
 10
-67.27914740262081
 20
-155.624624684584
 30
0.0
 10
-69.17069747929706
 20
-153.3894921288851
 30
0.0
 10
-70.00568464458648
 20
-151.787017973642
 30
0.0
 10
-69.81585910225797
 20
-150.9573375232225
 30
0.0
 10
-69.79316805446848
 20
-150.8581605709562
 30
0.0
  0
SPLINE
  5
16E
330
15C
100
AcDbEntity
  8
0
  6
Continuous
 62
     7
370
    25
100
AcDbSpline
210
0.0
220
0.0
230
1.0
 70
     8
 71
     3
 72
    18
 73
    14
 74
     0
 42
0.000000001
 43
0.00000001
 40
0.0
 40
0.0
 40
0.0
 40
0.0
 40
0.125000000000002
 40
0.125000000000002
 40
0.2500000000000039
 40
0.2500000000000039
 40
0.3750000000000059
 40
0.3750000000000059
 40
0.5000000000000079
 40
0.5000000000000079
 40
0.7500000000000034
 40
0.7500000000000034
 40
1.0
 40
1.0
 40
1.0
 40
1.0
 10
43.37900404252503
 20
22.77191307795458
 30
0.0
 10
43.18501853539678
 20
22.90911257395116
 30
0.0
 10
43.03249806435142
 20
23.068621662072
 30
0.0
 10
42.77625302236959
 20
23.41743936775934
 30
0.0
 10
42.67702996222139
 20
23.60208814134596
 30
0.0
 10
42.51799103480411
 20
23.98056182751469
 30
0.0
 10
42.45764559392526
 20
24.17674119880447
 30
0.0
 10
42.36734175478754
 20
24.57334889205824
 30
0.0
 10
42.33744706894812
 20
24.77289743605215
 30
0.0
 10
42.28297148181787
 20
25.37560052742784
 30
0.0
 10
42.29301952250785
 20
25.78289782277163
 30
0.0
 10
42.3851381070206
 20
26.60968440515576
 30
0.0
 10
42.46733713738508
 20
27.02459863618808
 30
0.0
 10
42.58120933598004
 20
27.43762489035073
 30
0.0
  0
SPLINE
  5
176
330
15C
100
AcDbEntity
  8
0
  6
Continuous
 62
     7
370
    25
100
AcDbSpline
210
0.0
220
0.0
230
1.0
 70
     8
 71
     3
 72
    12
 73
     8
 74
     0
 42
0.000000001
 43
0.00000001
 40
0.0
 40
0.0
 40
0.0
 40
0.0
 40
0.2499999999999977
 40
0.2499999999999977
 40
0.4999999999999954
 40
0.4999999999999954
 40
1.0
 40
1.0
 40
1.0
 40
1.0
 10
43.37900404252504
 20
22.77191307795458
 30
0.0
 10
43.48478396044814
 20
22.69709846092234
 30
0.0
 10
43.59629181305784
 20
22.62769001982629
 30
0.0
 10
43.82428196747638
 20
22.50432111268518
 30
0.0
 10
43.94128325975442
 20
22.44989949887219
 30
0.0
 10
44.30135758201061
 20
22.30850545473116
 30
0.0
 10
44.55557183628248
 20
22.24298819933156
 30
0.0
 10
44.81708054404611
 20
22.2100411990423
 30
0.0
  0
SPLINE
  5
177
330
15C
100
AcDbEntity
  8
0
  6
Continuous
 62
     1
370
    25
100
AcDbSpline
210
0.0
220
0.0
230
1.0
 70
     8
 71
     3
 72
    30
 73
    26
 74
     0
 42
0.000000001
 43
0.00000001
 40
0.0
 40
0.0
 40
0.0
 40
0.0
 40
0.0217715446697175
 40
0.0593371003579923
 40
0.1048442486494625
 40
0.1516609157995312
 40
0.1816590359550533
 40
0.2118579964845527
 40
0.2425961946719171
 40
0.2734856596100531
 40
0.3322846912291227
 40
0.3917631104861966
 40
0.4530929737047277
 40
0.5149466470385615
 40
0.565083078919105
 40
0.6154594436972791
 40
0.6665831640670224
 40
0.7179639510721766
 40
0.7656199393980284
 40
0.8135303467009993
 40
0.8623466481389181
 40
0.9115352762558774
 40
0.9436642965141102
 40
0.9759565121417856
 40
1.0
 40
1.0
 40
1.0
 40
1.0
 10
65.19970148275011
 20
-147.6023279786739
 30
0.0
 10
64.64057830283426
 20
-147.9123082969681
 30
0.0
 10
63.11672004002148
 20
-148.7571419334722
 30
0.0
 10
59.48630866521133
 20
-150.0065245730914
 30
0.0
 10
54.37068207573851
 20
-151.3045760930978
 30
0.0
 10
48.95420506605451
 20
-152.2322739682558
 30
0.0
 10
43.9751455556992
 20
-152.8640096094375
 30
0.0
 10
39.61575813307794
 20
-153.2884516179319
 30
0.0
 10
35.12135078686897
 20
-153.609547973016
 30
0.0
 10
29.1432823040238
 20
-153.8994809382173
 30
0.0
 10
21.64273001955185
 20
-154.0446315438985
 30
0.0
 10
12.59190726906755
 20
-153.9191927251968
 30
0.0
 10
3.453175910965223
 20
-153.5094059287252
 30
0.0
 10
-5.085293319839757
 20
-152.8743064928152
 30
0.0
 10
-12.92364875356041
 20
-152.0870650573454
 30
0.0
 10
-20.07687270858635
 20
-151.1940881280953
 30
0.0
 10
-27.08282400564872
 20
-150.1373719111295
 30
0.0
 10
-33.72701539413142
 20
-148.949686800796
 30
0.0
 10
-39.95917273320239
 20
-147.6446467161726
 30
0.0
 10
-45.77894160007926
 20
-146.2244966700854
 30
0.0
 10
-51.28857950522397
 20
-144.64579339764
 30
0.0
 10
-55.81079719443109
 20
-143.1082867251495
 30
0.0
 10
-59.38828716542021
 20
-141.6685096343953
 30
0.0
 10
-61.9575727168226
 20
-140.4946658634372
 30
0.0
 10
-63.34005863054948
 20
-139.6975647794127
 30
0.0
 10
-63.930089130287
 20
-139.3573703902487
 30
0.0
  0
LINE
  5
17E
330
15C
100
AcDbEntity
  8
0
  6
Continuous
 62
     7
370
    25
100
AcDbLine
 10
69.8649548799
 20
-160.2704092236
 30
0.0
 11
69.8649548799
 21
-147.2080632767
 31
0.0
  0
LINE
  5
17F
330
15C
100
AcDbEntity
  8
0
  6
Continuous
 62
     7
370
    25
100
AcDbLine
 10
-69.8649548799
 20
-138.0693675151
 30
0.0
 11
-69.8649548799
 21
-150.8565745077
 31
0.0
  0
LINE
  5
180
330
15C
100
AcDbEntity
  8
0
  6
Continuous
 62
     7
370
    25
100
AcDbLine
 10
42.9214329393
 20
27.7376739052
 30
0.0
 11
42.581209336
 21
27.4376248904
 31
0.0
  0
LINE
  5
181
330
15C
100
AcDbEntity
  8
0
  6
Continuous
 62
     7
370
    25
100
AcDbLine
 10
70.9287077313
 20
15.7571343339
 30
0.0
 11
74.0670493842
 21
18.5248915148
 31
0.0
  0
LINE
  5
182
330
15C
100
AcDbEntity
  8
0
  6
Continuous
 62
     7
370
    25
100
AcDbLine
 10
74.0670493842
 20
18.5248915148
 30
0.0
 11
75.0009480258
 21
18.5771504158
 31
0.0
  0
LINE
  5
183
330
15C
100
AcDbEntity
  8
0
  6
Continuous
 62
     7
370
    25
100
AcDbLine
 10
44.817080544
 20
22.210041199
 30
0.0
 11
41.6787388912
 21
19.4422840181
 31
0.0
  0
LINE
  5
184
330
15C
100
AcDbEntity
  8
0
  6
Continuous
 62
     7
370
    25
100
AcDbLine
 10
74.0670493842
 20
18.5248915148
 30
0.0
 11
44.817080544
 21
22.210041199
 31
0.0
  0
LINE
  5
185
330
15C
100
AcDbEntity
  8
0
  6
Continuous
 62
     7
370
    25
100
AcDbLine
 10
41.7597412248
 20
26.7131581129
 30
0.0
 11
38.5964626971
 21
23.9234086756
 31
0.0
  0
LINE
  5
186
330
15C
100
AcDbEntity
  8
0
  6
Continuous
 62
     1
370
    25
100
AcDbLine
 10
42.634529743
 20
23.8851109964
 30
0.0
 11
42.9086544248
 21
26.9907726774
 31
0.0
  0
LINE
  5
187
330
15C
100
AcDbEntity
  8
0
  6
Continuous
 62
     1
370
    25
100
AcDbLine
 10
42.581209336
 20
27.4376248904
 30
0.0
 11
42.4065246312
 21
25.4188778151
 31
0.0
  0
LINE
  5
188
330
15C
100
AcDbEntity
  8
0
  6
Continuous
 62
     1
370
    25
100
AcDbLine
 10
45.4052840385
 20
26.637700362
 30
0.0
 11
45.0028029789
 21
22.1866423716
 31
0.0
  0
LINE
  5
189
330
15C
100
AcDbEntity
  8
0
  6
Continuous
 62
     1
370
    25
100
AcDbLine
 10
74.7847349415
 20
22.9362374712
 30
0.0
 11
45.4052840385
 21
26.637700362
 31
0.0
  0
LINE
  5
18A
330
15C
100
AcDbEntity
  8
0
  6
Continuous
 62
     1
370
    25
100
AcDbLine
 10
42.9214329393
 20
27.7376739052
 30
0.0
 11
42.9185557221
 21
28.3522723111
 31
0.0
  0
ARC
  5
18B
330
15C
100
AcDbEntity
  8
0
  6
Continuous
 62
     7
370
    25
100
AcDbCircle
 10
37.4233119945
 20
27.4581797213
 30
0.0
 40
5.505220333655016
100
AcDbArc
 50
355.1295809582
 51
2.9100968521
  0
ARC
  5
18C
330
15C
100
AcDbEntity
  8
0
  6
Continuous
 62
     7
370
    25
100
AcDbCircle
 10
45.571006748
 20
36.8131171553
 30
0.0
 40
10.17676623171294
100
AcDbArc
 50
254.8343350487
 51
269.0669303668
  0
ARC
  5
18D
330
15C
100
AcDbEntity
  8
0
  6
Continuous
 62
     7
370
    25
100
AcDbCircle
 10
34.139261676
 20
28.0220404164
 30
0.0
 40
11.3507558011419
100
AcDbArc
 50
352.994757177
 51
0.5152039911
  0
ARC
  5
18E
330
15C
100
AcDbEntity
  8
0
  6
Continuous
 62
     1
370
    25
100
AcDbCircle
 10
44.8665853086
 20
22.9709979675
 30
0.0
 40
5.148282940415951
100
AcDbArc
 50
90.820744834
 51
112.1990515216
  0
VIEWPORT
  5
1A1
330
15C
100
AcDbEntity
  8
0
100
AcDbViewport
 10
0.0
 20
0.0
 30
0.0
 40
205.6
 41
156.0
 68
     1
 69
     1
 12
0.0
 22
-17.129261467
 13
0.0
 23
0.0
 14
10.0
 24
10.0
 15
10.0
 25
10.0
 16
0.0
 26
0.0
 36
1.0
 17
0.0
 27
0.0
 37
0.0
 42
50.0
 43
0.0
 44
0.0
 45
382.4705910073
 50
0.0
 51
0.0
 72
   100
 90
   557152
  1

281
     0
 71
     1
 74
     0
110
0.0
120
0.0
130
0.0
111
1.0
121
0.0
131
0.0
112
0.0
122
1.0
132
0.0
 79
     0
146
0.0
170
     0
 61
     5
348
2F
292
     1
282
     1
141
0.0
142
0.0
 63
   256
361
1A2
  0
ENDBLK
  5
15F
330
15C
100
AcDbEntity
  8
0
100
AcDbBlockEnd
  0
ENDSEC
  0
SECTION
  2
ENTITIES
  0
SPLINE
  5
73
330
1F
100
AcDbEntity
  8
0
  6
Continuous
 62
     7
370
    25
100
AcDbSpline
210
0.0
220
0.0
230
1.0
 70
     8
 71
     3
 72
   121
 73
   117
 74
     0
 42
0.000000001
 43
0.00000001
 40
0.0
 40
0.0
 40
0.0
 40
0.0
 40
0.0081607259255609
 40
0.0143528257609641
 40
0.0185717277511069
 40
0.0220866809862355
 40
0.0259797139724654
 40
0.0316834378496985
 40
0.0382108381406704
 40
0.0453050853314765
 40
0.0540991196149835
 40
0.0618016559159241
 40
0.0684395269493507
 40
0.0748078514840021
 40
0.0839893087512862
 40
0.0947186830915713
 40
0.1073562643483179
 40
0.1196896327916231
 40
0.131718329504518
 40
0.1504083816097035
 40
0.1677761780181633
 40
0.1852952949637891
 40
0.2035879227121724
 40
0.2226245802038097
 40
0.2402341826365576
 40
0.2564157724025442
 40
0.2668724628134311
 40
0.2769351346043997
 40
0.2879272592564412
 40
0.3011256938356601
 40
0.3137971934181939
 40
0.3252440454962374
 40
0.3353204530109964
 40
0.3433116455340189
 40
0.3519061177825061
 40
0.3606082447697161
 40
0.3694046148854259
 40
0.3773105122414978
 40
0.3863130824634202
 40
0.3951234025543143
 40
0.4026969303421706
 40
0.4107424438037156
 40
0.417529452313356
 40
0.4240650229421271
 40
0.4303648228623466
 40
0.4368213397853183
 40
0.4439737753802528
 40
0.4518134877551518
 40
0.4677656565582753
 40
0.485582613091698
 40
0.5053162844380932
 40
0.5208133277932797
 40
0.5362791248562558
 40
0.5506806577652865
 40
0.5640331871955979
 40
0.5763568003388826
 40
0.5876750879536591
 40
0.5958923731927265
 40
0.6035927186494146
 40
0.610798667521892
 40
0.617524714185974
 40
0.6245557277004384
 40
0.6330880413130248
 40
0.6397546844314707
 40
0.645628409988397
 40
0.6506047130312179
 40
0.6558609565125437
 40
0.6623936733912488
 40
0.6699481127874326
 40
0.6763610389454975
 40
0.6817646032022701
 40
0.6866951079965132
 40
0.6924912880682829
 40
0.6992156676349766
 40
0.7073547345730464
 40
0.7138593785758999
 40
0.7198294887600316
 40
0.7272984077598711
 40
0.7339321256144195
 40
0.7397317683695562
 40
0.7445156576154944
 40
0.7490389732090423
 40
0.7545705070027975
 40
0.7612844098981406
 40
0.7681803239681585
 40
0.7742016855142907
 40
0.7794382267262895
 40
0.7842776033998915
 40
0.7886204513032333
 40
0.7930097130802093
 40
0.7979720904335427
 40
0.8041401260725939
 40
0.8107918893190604
 40
0.8211357835950925
 40
0.8291285231232227
 40
0.8369395591690202
 40
0.8451030098538843
 40
0.8534544484666419
 40
0.8617357727980794
 40
0.8702194978669845
 40
0.8857911132471921
 40
0.9015091973704557
 40
0.9168082508369816
 40
0.9333463864892253
 40
0.9430829338639699
 40
0.9528247980623761
 40
0.961960913970412
 40
0.969780420775522
 40
0.9726946253704899
 40
0.9756070279350572
 40
0.9784897226428276
 40
0.9813065235805407
 40
0.9840703686654485
 40
0.9877883390562272
 40
0.9930947734052575
 40
1.0
 40
1.0
 40
1.0
 40
1.0
 10
-241.0078982416187
 20
23.32088237934084
 30
0.0
 10
-240.4000524547643
 20
21.78203767254836
 30
0.0
 10
-239.3309925760432
 20
19.07556644054745
 30
0.0
 10
-237.8679988094324
 20
15.61090370443549
 30
0.0
 10
-236.7424634793823
 20
13.02881113543004
 30
0.0
 10
-235.783810584462
 20
10.88647615227392
 30
0.0
 10
-234.6824333095033
 20
8.48272797912325
 30
0.0
 10
-233.29564222638
 20
5.546046636224267
 30
0.0
 10
-231.5856904561046
 20
2.057174732564643
 30
0.0
 10
-229.5406712079652
 20
-1.951908924842302
 30
0.0
 10
-227.3097519149541
 20
-6.133170199295545
 30
0.0
 10
-225.0494250995946
 20
-10.18294650597988
 30
0.0
 10
-222.9880589127338
 20
-13.74035586346133
 30
0.0
 10
-220.7194975990027
 20
-17.5284749562117
 30
0.0
 10
-217.9583627805278
 20
-21.96483769326556
 30
0.0
 10
-214.4314101365758
 20
-27.36848745569949
 30
0.0
 10
-210.4224581337068
 20
-33.18936072285579
 30
0.0
 10
-206.1237695863969
 20
-39.09579685715509
 30
0.0
 10
-200.963290348114
 20
-45.8277589629129
 30
0.0
 10
-194.9803358060608
 20
-53.1534160116008
 30
0.0
 10
-188.0493489806543
 20
-61.05728320999167
 30
0.0
 10
-180.9274309739108
 20
-68.65843670943924
 30
0.0
 10
-173.3385598819407
 20
-76.24252749437987
 30
0.0
 10
-165.4946181021074
 20
-83.57710950118665
 30
0.0
 10
-157.7324918272318
 20
-90.38807891453878
 30
0.0
 10
-151.0673534714455
 20
-95.90936889478024
 30
0.0
 10
-145.438662353086
 20
-100.3679467389113
 30
0.0
 10
-140.5408992138601
 20
-104.1165186043818
 30
0.0
 10
-135.1477536191197
 20
-108.1020972297464
 30
0.0
 10
-129.2367344931141
 20
-112.2952610249153
 30
0.0
 10
-123.201983385407
 20
-116.3981932502465
 30
0.0
 10
-117.3065043831505
 20
-120.2337782384262
 30
0.0
 10
-112.5509708667438
 20
-123.2145411805567
 30
0.0
 10
-108.1996925836056
 20
-125.8593606159218
 30
0.0
 10
-103.9097239856502
 20
-128.3895522082282
 30
0.0
 10
-99.45541339700233
 20
-130.9331353951204
 30
0.0
 10
-95.08011691956946
 20
-133.350590818736
 30
0.0
 10
-90.64476330575333
 20
-135.7243381852533
 30
0.0
 10
-86.18138808144057
 20
-138.0365462541822
 30
0.0
 10
-81.72924162253565
 20
-140.2637163802394
 30
0.0
 10
-77.40010669638903
 20
-142.3592168438026
 30
0.0
 10
-73.39755965830955
 20
-144.2353166649348
 30
0.0
 10
-69.56306685880986
 20
-145.9773944222783
 30
0.0
 10
-66.02709648184815
 20
-147.5385408419399
 30
0.0
 10
-62.53939015934599
 20
-149.0356250487316
 30
0.0
 10
-58.93298920699937
 20
-150.5400488138301
 30
0.0
 10
-55.03581474045295
 20
-152.1158565803464
 30
0.0
 10
-49.37725646167392
 20
-154.324422660411
 30
0.0
 10
-41.72984063872018
 20
-157.1395862278508
 30
0.0
 10
-31.87469279278245
 20
-160.4621022928977
 30
0.0
 10
-22.00087731067049
 20
-163.4568081664007
 30
0.0
 10
-12.45897249787677
 20
-166.0513119548774
 30
0.0
 10
-3.806328185848363
 20
-168.1689299909665
 30
0.0
 10
4.547178132169163
 20
-169.9952568011375
 30
0.0
 10
12.37274755370603
 20
-171.5149827644297
 30
0.0
 10
19.65479733883152
 20
-172.7626985064398
 30
0.0
 10
25.96287188957891
 20
-173.7087531270344
 30
0.0
 10
31.37347765315416
 20
-174.4229625615399
 30
0.0
 10
35.97216976357117
 20
-174.9623042117134
 30
0.0
 10
40.27216759711767
 20
-175.4077063724646
 30
0.0
 10
44.43101060044012
 20
-175.7854037531682
 30
0.0
 10
48.82833682559472
 20
-176.1296866214491
 30
0.0
 10
53.20433209274221
 20
-176.4106448160058
 30
0.0
 10
57.36031778078168
 20
-176.620054981296
 30
0.0
 10
60.82284495624889
 20
-176.7547626445051
 30
0.0
 10
64.00854084074214
 20
-176.8467939959274
 30
0.0
 10
67.30926433963364
 20
-176.9108944443085
 30
0.0
 10
71.11153521298128
 20
-176.9432205459516
 30
0.0
 10
75.14825612846629
 20
-176.9243909781987
 30
0.0
 10
78.96664984836937
 20
-176.8559947976997
 30
0.0
 10
82.25702560797826
 20
-176.7597791882822
 30
0.0
 10
85.42113167419879
 20
-176.6359214656945
 30
0.0
 10
88.91462730832161
 20
-176.4626815538938
 30
0.0
 10
93.08862486298436
 20
-176.2021656885807
 30
0.0
 10
97.42762173015082
 20
-175.8643615491838
 30
0.0
 10
101.6121063710182
 20
-175.4695244003945
 30
0.0
 10
105.6669165776344
 20
-175.0221043173948
 30
0.0
 10
109.7666520702239
 20
-174.4986415331348
 30
0.0
 10
113.8333625246273
 20
-173.902221235957
 30
0.0
 10
117.3485453335976
 20
-173.3259422825545
 30
0.0
 10
120.4301681125345
 20
-172.7739567475428
 30
0.0
 10
123.4508058245545
 20
-172.1914565284862
 30
0.0
 10
126.8500153849856
 20
-171.4843519469859
 30
0.0
 10
130.7153216485803
 20
-170.6067681504781
 30
0.0
 10
134.6660889883141
 20
-169.6232761547121
 30
0.0
 10
138.3072179999257
 20
-168.6383345288687
 30
0.0
 10
141.5191578805928
 20
-167.7066700570489
 30
0.0
 10
144.3822601947366
 20
-166.8245618307952
 30
0.0
 10
147.0540353365745
 20
-165.9565173483782
 30
0.0
 10
149.7440381542174
 20
-165.0382748582964
 30
0.0
 10
152.7757326088721
 20
-163.9484155375273
 30
0.0
 10
156.2246931746711
 20
-162.6317543673769
 30
0.0
 10
160.6770056735369
 20
-160.8132907372973
 30
0.0
 10
165.4168224330323
 20
-158.7018089671209
 30
0.0
 10
170.2953190516061
 20
-156.3207918963651
 30
0.0
 10
174.6961163468183
 20
-154.0021904739116
 30
0.0
 10
179.0848637127968
 20
-151.5080979990333
 30
0.0
 10
183.4709565710838
 20
-148.8171976332294
 30
0.0
 10
187.8193607150347
 20
-145.9419040418505
 30
0.0
 10
193.2877616713204
 20
-142.0493445415764
 30
0.0
 10
199.7734706957524
 20
-136.9300921488033
 30
0.0
 10
206.966754625756
 20
-130.4542236499998
 30
0.0
 10
213.8713756885758
 20
-123.3884644151929
 30
0.0
 10
219.4930162927066
 20
-116.8290615501529
 30
0.0
 10
224.0504191241894
 20
-110.8974591837935
 30
0.0
 10
227.4830983172054
 20
-106.0454351671896
 30
0.0
 10
230.5122752233555
 20
-101.4006790567329
 30
0.0
 10
232.6493637852587
 20
-97.8698423997558
 30
0.0
 10
234.065400010755
 20
-95.41489318159165
 30
0.0
 10
234.9512527829376
 20
-93.83780969497342
 30
0.0
 10
235.8095485041794
 20
-92.26851193419367
 30
0.0
 10
236.6358910833346
 20
-90.71696069081582
 30
0.0
 10
237.5254856862375
 20
-89.00254459691402
 30
0.0
 10
238.6250839806142
 20
-86.81497980668343
 30
0.0
 10
240.0646474696174
 20
-83.83523553681582
 30
0.0
 10
241.0985118377949
 20
-81.51824230498784
 30
0.0
 10
241.6831225441817
 20
-80.20807136608573
 30
0.0
  0
SPLINE
  5
74
330
1F
100
AcDbEntity
  8
0
  6
Continuous
 62
     7
370
    25
100
AcDbSpline
210
0.0
220
0.0
230
1.0
 70
    11
 71
     3
 72
    35
 73
    31
 74
     0
 42
0.000000001
 43
0.00000001
 40
0.0
 40
0.0
 40
0.0
 40
0.0
 40
0.0062500000000001
 40
0.0083333333333333
 40
0.0416666666666666
 40
0.0833333333333334
 40
0.1250000000000001
 40
0.1666666666666666
 40
0.2083333333333334
 40
0.25
 40
0.2916666666666666
 40
0.3333333333333334
 40
0.375
 40
0.4166666666666666
 40
0.4583333333333334
 40
0.5000000000020915
 40
0.5416666666666667
 40
0.5833333333333333
 40
0.625
 40
0.6666666666666667
 40
0.7083333333333333
 40
0.7500000000009739
 40
0.7916666666666666
 40
0.8333333333333334
 40
0.875
 40
0.9166666666666666
 40
0.9583333333333334
 40
0.9916666666666667
 40
0.99375
 40
1.0
 40
1.0
 40
1.0
 40
1.0
 10
-205.0609665440984
 20
118.379176214293
 30
0.0
 10
-203.2465329445389
 20
119.4266264357139
 30
0.0
 10
-200.7550730472221
 20
120.7815378422944
 30
0.0
 10
-187.8373445833129
 20
127.2728239859649
 30
0.0
 10
-160.374474717838
 20
137.040477722942
 30
0.0
 10
-110.2057550707709
 20
143.922266250211
 30
0.0
 10
-48.05759305931578
 20
141.635611616759
 30
0.0
 10
17.43612730803673
 20
129.4889083672179
 30
0.0
 10
80.6808252023554
 20
108.8859083157871
 30
0.0
 10
139.5044365947473
 20
80.53419702756398
 30
0.0
 10
188.6163624069178
 20
46.57604899024091
 30
0.0
 10
224.3056722953948
 20
10.06566204128825
 30
0.0
 10
245.3466593028247
 20
-27.74305794555097
 30
0.0
 10
249.3076904933054
 20
-63.62042820346559
 30
0.0
 10
236.5352986750071
 20
-94.65091254273315
 30
0.0
 10
207.4681364742386
 20
-119.7688058358648
 30
0.0
 10
163.9579546926284
 20
-136.5489213995656
 30
0.0
 10
110.2057550707708
 20
-143.922266250211
 30
0.0
 10
48.05759305931566
 20
-141.6356116167589
 30
0.0
 10
-17.43612730803669
 20
-129.4889083672179
 30
0.0
 10
-80.6808252023554
 20
-108.885908315787
 30
0.0
 10
-139.5044365947473
 20
-80.53419702756399
 30
0.0
 10
-188.6163624069179
 20
-46.57604899024088
 30
0.0
 10
-224.3056722953949
 20
-10.06566204128823
 30
0.0
 10
-245.3466593028248
 20
27.743057945551
 30
0.0
 10
-249.3076904933054
 20
63.62042820346559
 30
0.0
 10
-237.3867914628936
 20
92.58221358678195
 30
0.0
 10
-220.4668856126721
 20
108.4361908987249
 30
0.0
 10
-209.2224298451663
 20
115.8934368089973
 30
0.0
 10
-206.8754001436579
 20
117.3317259928722
 30
0.0
 10
-205.0609665440984
 20
118.379176214293
 30
0.0
  0
SPLINE
  5
75
330
1F
100
AcDbEntity
  8
0
  6
Continuous
 62
     7
370
    25
100
AcDbSpline
210
0.0
220
0.0
230
1.0
 70
    11
 71
     3
 72
    35
 73
    31
 74
     0
 42
0.000000001
 43
0.00000001
 40
0.0
 40
0.0
 40
0.0
 40
0.0
 40
0.0062500000000001
 40
0.0083333333333333
 40
0.0416666666666666
 40
0.0833333333333334
 40
0.1250000000000001
 40
0.1666666666666666
 40
0.2083333333333334
 40
0.25
 40
0.2916666666666666
 40
0.3333333333333334
 40
0.375
 40
0.4166666666666666
 40
0.4583333333333334
 40
0.5000000000020915
 40
0.5416666666666667
 40
0.5833333333333333
 40
0.625
 40
0.6666666666666667
 40
0.7083333333333333
 40
0.7500000000009739
 40
0.7916666666666666
 40
0.8333333333333334
 40
0.875
 40
0.9166666666666666
 40
0.9583333333333334
 40
0.9916666666666667
 40
0.99375
 40
1.0
 40
1.0
 40
1.0
 40
1.0
 10
-189.8872012819549
 20
109.6195479823871
 30
0.0
 10
-188.2633423615118
 20
110.5569817833194
 30
0.0
 10
-186.0312912618198
 20
111.7682695798729
 30
0.0
 10
-174.4441722077408
 20
117.5624631979117
 30
0.0
 10
-149.7020432874455
 20
126.2073618459457
 30
0.0
 10
-104.2358100274013
 20
132.0043004960874
 30
0.0
 10
-47.64580752046521
 20
129.3395913116573
 30
0.0
 10
12.22782165009779
 20
117.655175327521
 30
0.0
 10
70.2921822057559
 20
98.28166783327588
 30
0.0
 10
124.5776525575281
 20
71.91714802192267
 30
0.0
 10
170.2472887881323
 20
40.57881304305199
 30
0.0
 10
203.8068243345361
 20
7.058971184157937
 30
0.0
 10
224.0470195431213
 20
-27.50533921398177
 30
0.0
 10
228.6629313816003
 20
-60.17405228813202
 30
0.0
 10
217.9039881951338
 20
-88.29594276223777
 30
0.0
 10
192.1173970297347
 20
-110.9070125831743
 30
0.0
 10
152.9496313774079
 20
-125.7932947995303
 30
0.0
 10
104.2358100273518
 20
-132.004300496116
 30
0.0
 10
47.6458075204304
 20
-129.3395913116774
 30
0.0
 10
-12.2278216501169
 20
-117.6551753275322
 30
0.0
 10
-70.29218220575767
 20
-98.28166783327704
 30
0.0
 10
-124.5776525575263
 20
-71.91714802192183
 30
0.0
 10
-170.2472887881374
 20
-40.57881304305501
 30
0.0
 10
-203.8068243345479
 20
-7.058971184164855
 30
0.0
 10
-224.0470195431487
 20
27.505339213966
 30
0.0
 10
-228.6629313816439
 20
60.17405228810685
 30
0.0
 10
-218.6212510742694
 20
86.42115006394219
 30
0.0
 10
-203.6462248143099
 20
100.7044770604638
 30
0.0
 10
-193.6092995572208
 20
107.3935785088556
 30
0.0
 10
-191.511060202398
 20
108.6821141814548
 30
0.0
 10
-189.8872012819549
 20
109.6195479823871
 30
0.0
  0
SPLINE
  5
76
330
1F
100
AcDbEntity
  8
0
  6
Continuous
 62
     7
370
    25
100
AcDbSpline
210
0.0
220
0.0
230
1.0
 70
     8
 71
     3
 72
    24
 73
    20
 74
     0
 42
0.000000001
 43
0.00000001
 40
0.0
 40
0.0
 40
0.0
 40
0.0
 40
0.125000000000002
 40
0.125000000000002
 40
0.250000000000004
 40
0.250000000000004
 40
0.375000000000006
 40
0.375000000000006
 40
0.500000000000008
 40
0.500000000000008
 40
0.62500000000001
 40
0.62500000000001
 40
0.6875000000000081
 40
0.6875000000000081
 40
0.7500000000000062
 40
0.7500000000000062
 40
0.8750000000000031
 40
0.8750000000000031
 40
1.0
 40
1.0
 40
1.0
 40
1.0
 10
100.0246195988225
 20
48.97965007534907
 30
0.0
 10
100.1071496113315
 20
49.26161366099544
 30
0.0
 10
100.2077641187552
 20
49.53063106017691
 30
0.0
 10
100.4435755710062
 20
50.04391076128167
 30
0.0
 10
100.5793965465258
 20
50.28911451909676
 30
0.0
 10
100.8855746520363
 20
50.74895622947101
 30
0.0
 10
101.0523947596737
 20
50.95860629979357
 30
0.0
 10
101.4137691260536
 20
51.33717354038139
 30
0.0
 10
101.6100362914835
 20
51.50731221807087
 30
0.0
 10
102.0262640488606
 20
51.7961077205127
 30
0.0
 10
102.2422621621544
 20
51.91257054172378
 30
0.0
 10
102.5786970711839
 20
52.04379883670914
 30
0.0
 10
102.6929302340097
 20
52.08024384288399
 30
0.0
 10
102.9258991044595
 20
52.13749919060206
 30
0.0
 10
103.0448953466479
 20
52.15819664357507
 30
0.0
 10
103.3987104358981
 20
52.19399645325323
 30
0.0
 10
103.6336749147876
 20
52.18415000744766
 30
0.0
 10
104.1018393570701
 20
52.09302955111958
 30
0.0
 10
104.334696351537
 20
52.01075674864624
 30
0.0
 10
104.5556915393755
 20
51.8930046306161
 30
0.0
  0
SPLINE
  5
77
330
1F
100
AcDbEntity
  8
0
  6
Continuous
 62
     7
370
    25
100
AcDbSpline
210
0.0
220
0.0
230
1.0
 70
     8
 71
     3
 72
    22
 73
    18
 74
     0
 42
0.000000001
 43
0.00000001
 40
0.0
 40
0.0
 40
0.0
 40
0.0
 40
0.1250000000000002
 40
0.1250000000000002
 40
0.2500000000000004
 40
0.2500000000000004
 40
0.3750000000000006
 40
0.3750000000000006
 40
0.5000000000000008
 40
0.5000000000000008
 40
0.625000000000001
 40
0.625000000000001
 40
0.7500000000000011
 40
0.7500000000000011
 40
0.8750000000000013
 40
0.8750000000000013
 40
1.0
 40
1.0
 40
1.0
 40
1.0
 10
101.5519975904641
 20
43.62668252795787
 30
0.0
 10
101.3575499075586
 20
43.73010183251726
 30
0.0
 10
101.1766477490817
 20
43.85876319022805
 30
0.0
 10
100.8406902281371
 20
44.16430795452075
 30
0.0
 10
100.6843981012557
 20
44.3436420378219
 30
0.0
 10
100.4108845166184
 20
44.73475261871637
 30
0.0
 10
100.291986885918
 20
44.9473437439727
 30
0.0
 10
100.0884311019221
 20
45.40532904168407
 30
0.0
 10
100.0061981752273
 20
45.64570449793777
 30
0.0
 10
99.87906287472673
 20
46.14084211962524
 30
0.0
 10
99.83360222329003
 20
46.3990088797529
 30
0.0
 10
99.77975095061514
 20
46.91769142943994
 30
0.0
 10
99.77093457329899
 20
47.17809665495107
 30
0.0
 10
99.7871259777809
 20
47.70090495197415
 30
0.0
 10
99.8125409082933
 20
47.96438510364476
 30
0.0
 10
99.89500650739797
 20
48.47880341119849
 30
0.0
 10
99.95198176406807
 20
48.73148309077785
 30
0.0
 10
100.0246195988225
 20
48.97965007534906
 30
0.0
  0
SPLINE
  5
78
330
1F
100
AcDbEntity
  8
0
  6
Continuous
 62
     7
370
    25
100
AcDbSpline
210
0.0
220
0.0
230
1.0
 70
     8
 71
     3
 72
     8
 73
     4
 74
     0
 42
0.000000001
 43
0.00000001
 40
0.0
 40
0.0
 40
0.0
 40
0.0
 40
1.0
 40
1.0
 40
1.0
 40
1.0
 10
123.6628957061447
 20
30.86233274259956
 30
0.0
 10
116.5944512024397
 20
35.29137311062412
 30
0.0
 10
109.224151830546
 20
39.54615637241007
 30
0.0
 10
101.5519975904633
 20
43.6266825279574
 30
0.0
  0
SPLINE
  5
79
330
1F
100
AcDbEntity
  8
0
  6
Continuous
 62
     7
370
    25
100
AcDbSpline
210
0.0
220
0.0
230
1.0
 70
     8
 71
     3
 72
    20
 73
    16
 74
     0
 42
0.000000001
 43
0.00000001
 40
0.0
 40
0.0
 40
0.0
 40
0.0
 40
0.25
 40
0.25
 40
0.375
 40
0.375
 40
0.5
 40
0.5
 40
0.625
 40
0.625
 40
0.75
 40
0.75
 40
0.875
 40
0.875
 40
1.0
 40
1.0
 40
1.0
 40
1.0
 10
127.7708459257259
 20
32.96209456008368
 30
0.0
 10
127.5675968125219
 20
32.49779445082154
 30
0.0
 10
127.3161254673459
 20
32.08302646227337
 30
0.0
 10
126.8625729450915
 20
31.53973878224062
 30
0.0
 10
126.7009471528628
 20
31.37551456361393
 30
0.0
 10
126.361960732574
 20
31.08694551072705
 30
0.0
 10
126.1838275988758
 20
30.961605577527
 30
0.0
 10
125.8085882454166
 20
30.75289972771533
 30
0.0
 10
125.6130343180739
 20
30.67109952967685
 30
0.0
 10
125.2206539839299
 20
30.56081722783335
 30
0.0
 10
125.021781369736
 20
30.53105164397671
 30
0.0
 10
124.6182523109882
 20
30.52779546532058
 30
0.0
 10
124.4177207142517
 20
30.55495471636774
 30
0.0
 10
124.0315426892288
 20
30.66551246449192
 30
0.0
 10
123.8427626995025
 20
30.74962927947708
 30
0.0
 10
123.6628957061448
 20
30.86233274259958
 30
0.0
  0
SPLINE
  5
7A
330
1F
100
AcDbEntity
  8
0
  6
Continuous
 62
     7
370
    25
100
AcDbSpline
210
0.0
220
0.0
230
1.0
 70
     8
 71
     3
 72
    22
 73
    18
 74
     0
 42
0.000000001
 43
0.00000001
 40
0.0
 40
0.0
 40
0.0
 40
0.0
 40
0.125
 40
0.125
 40
0.25
 40
0.25
 40
0.375
 40
0.375
 40
0.5
 40
0.5
 40
0.625
 40
0.625
 40
0.75
 40
0.75
 40
0.875
 40
0.875
 40
1.0
 40
1.0
 40
1.0
 40
1.0
 10
126.6665896550564
 20
39.12865484525799
 30
0.0
 10
126.8700158109557
 20
39.00142016328985
 30
0.0
 10
127.056608902944
 20
38.8432221693685
 30
0.0
 10
127.3982888793733
 20
38.46900569041534
 30
0.0
 10
127.5536230882626
 20
38.25092185402049
 30
0.0
 10
127.8179150505632
 20
37.78017508039424
 30
0.0
 10
127.9300512616991
 20
37.52292654162471
 30
0.0
 10
128.1096848248696
 20
36.9814267017885
 30
0.0
 10
128.1764561400067
 20
36.70092994317542
 30
0.0
 10
128.2672475693761
 20
36.12196291578152
 30
0.0
 10
128.2906348537969
 20
35.82380978368879
 30
0.0
 10
128.2946635328133
 20
35.23280391108194
 30
0.0
 10
128.275750606009
 20
34.93639045744205
 30
0.0
 10
128.1967707614497
 20
34.34571835942405
 30
0.0
 10
128.1377147138082
 20
34.05829919870168
 30
0.0
 10
127.9825283420328
 20
33.49843396500889
 30
0.0
 10
127.8858351058462
 20
33.22477461832427
 30
0.0
 10
127.7708459257259
 20
32.96209456008366
 30
0.0
  0
SPLINE
  5
7B
330
1F
100
AcDbEntity
  8
0
  6
Continuous
 62
     7
370
    25
100
AcDbSpline
210
0.0
220
0.0
230
1.0
 70
     8
 71
     3
 72
     8
 73
     4
 74
     0
 42
0.000000001
 43
0.00000001
 40
0.0
 40
0.0
 40
0.0
 40
0.0
 40
1.0
 40
1.0
 40
1.0
 40
1.0
 10
126.6665896550564
 20
39.12865484525801
 30
0.0
 10
119.5914775285496
 20
43.55384607657027
 30
0.0
 10
112.221178156656
 20
47.80862933835629
 30
0.0
 10
104.5556915393755
 20
51.8930046306161
 30
0.0
  0
SPLINE
  5
7C
330
1F
100
AcDbEntity
  8
0
  6
Continuous
 62
     7
370
    25
100
AcDbSpline
210
0.0
220
0.0
230
1.0
 70
    11
 71
     3
 72
    51
 73
    47
 74
     0
 42
0.000000001
 43
0.00000001
 40
0.0
 40
0.0
 40
0.0
 40
0.0
 40
0.0310625942957131
 40
0.0623436406921299
 40
0.0774661356643234
 40
0.0936025208475401
 40
0.1077658855943965
 40
0.1247299534682843
 40
0.1403227459779874
 40
0.1560268089359264
 40
0.1871966103365807
 40
0.2185830714266744
 40
0.2498805425744752
 40
0.2812460600615053
 40
0.3126131100523709
 40
0.34377946400964
 40
0.3594404043049872
 40
0.3750942043074424
 40
0.3906253262274967
 40
0.4061986226892182
 40
0.4219003609541411
 40
0.437499623329989
 40
0.4687506021201743
 40
0.5000940275766924
 40
0.5312363022447009
 40
0.5625127648633818
 40
0.5775556935470983
 40
0.5936393847193561
 40
0.6092985432875273
 40
0.6249214645952761
 40
0.6404509113083361
 40
0.6560477790867318
 40
0.6873487253057118
 40
0.7186964431702799
 40
0.7499524212645494
 40
0.7813771688258431
 40
0.8126174548781047
 40
0.8439325217128555
 40
0.859472185830263
 40
0.875096398251971
 40
0.8929836088479797
 40
0.9063050883869814
 40
0.9218823702351042
 40
0.9375920550000872
 40
0.9687419145673791
 40
1.0
 40
1.0
 40
1.0
 40
1.0
 10
-24.80330767579126
 20
-83.55687513458771
 30
0.0
 10
-23.21278181565202
 20
-82.63866028064643
 30
0.0
 10
-19.67914718552167
 20
-80.97100810712357
 30
0.0
 10
-14.67151303567757
 20
-79.40277658139433
 30
0.0
 10
-10.39279677549052
 20
-78.47353714968615
 30
0.0
 10
-7.191202546821589
 20
-77.97289608612279
 30
0.0
 10
-3.801447382705626
 20
-77.63493348829202
 30
0.0
 10
-0.4192699601279215
 20
-77.4937766494463
 30
0.0
 10
3.065997869761646
 20
-77.55747286795247
 30
0.0
 10
7.521973662398559
 20
-77.90010796670185
 30
0.0
 10
12.93245613644948
 20
-78.81199014266863
 30
0.0
 10
18.91178069822765
 20
-80.61350876488403
 30
0.0
 10
24.19946050733262
 20
-83.08351577028134
 30
0.0
 10
28.54763605037015
 20
-86.16862548323867
 30
0.0
 10
31.84085737270539
 20
-89.7148774768637
 30
0.0
 10
33.621031714302
 20
-92.94716165022085
 30
0.0
 10
34.39442975668548
 20
-95.619681240707
 30
0.0
 10
34.63996462279511
 20
-97.64981832173126
 30
0.0
 10
34.54526676157751
 20
-99.67929459077992
 30
0.0
 10
34.11050323309854
 20
-101.6916760477503
 30
0.0
 10
33.33733302661987
 20
-103.6656699599989
 30
0.0
 10
31.87105309933014
 20
-106.2153705802655
 30
0.0
 10
29.25630685712005
 20
-109.2054772329007
 30
0.0
 10
24.97120501158301
 20
-112.3070209621656
 30
0.0
 10
19.65269061875748
 20
-114.7461714867016
 30
0.0
 10
14.64265143615651
 20
-116.1713573877814
 30
0.0
 10
10.37202361140079
 20
-116.9441387963076
 30
0.0
 10
7.074284927414583
 20
-117.3280836878967
 30
0.0
 10
3.67348626340969
 20
-117.5107322653225
 30
0.0
 10
0.2855337531730562
 20
-117.4898286789209
 30
0.0
 10
-3.090435312868058
 20
-117.2719721910774
 30
0.0
 10
-7.543074529128891
 20
-116.7280383772929
 30
0.0
 10
-12.95196810642614
 20
-115.5887363868784
 30
0.0
 10
-18.93184549093796
 20
-113.5935381809804
 30
0.0
 10
-24.2158035513001
 20
-111.0491835623169
 30
0.0
 10
-28.55579096597742
 20
-108.0386606096004
 30
0.0
 10
-31.84929186299538
 20
-104.6787618074525
 30
0.0
 10
-33.62483352486348
 20
-101.6750820434758
 30
0.0
 10
-34.39553520098362
 20
-99.20286764536418
 30
0.0
 10
-34.65228902926275
 20
-97.23893997239976
 30
0.0
 10
-34.5314715869585
 20
-95.3573200267724
 30
0.0
 10
-34.07029551646944
 20
-93.49266515777181
 30
0.0
 10
-33.33360791827234
 20
-91.73960067610291
 30
0.0
 10
-31.86894320399702
 20
-89.34754148393232
 30
0.0
 10
-29.25547316299314
 20
-86.50217649249205
 30
0.0
 10
-26.40384344385125
 20
-84.48086873527542
 30
0.0
 10
-24.80330767579126
 20
-83.55687513458771
 30
0.0
  0
SPLINE
  5
7D
330
1F
100
AcDbEntity
  8
0
  6
Continuous
 62
     7
370
    25
100
AcDbSpline
210
0.0
220
0.0
230
1.0
 70
     8
 71
     3
 72
    16
 73
    12
 74
     0
 42
0.000000001
 43
0.00000001
 40
0.0
 40
0.0
 40
0.0
 40
0.0
 40
0.1143517805283751
 40
0.2322868264377145
 40
0.3425541713530622
 40
0.4560007977239371
 40
0.5665683519927612
 40
0.6803311338310213
 40
0.7910957394688213
 40
0.9050983306210786
 40
1.0
 40
1.0
 40
1.0
 40
1.0
 10
-16.29174023853802
 20
-96.71787773318619
 30
0.0
 10
-17.17907553372684
 20
-97.27577230874287
 30
0.0
 10
-18.98155118170714
 20
-98.40904334172632
 30
0.0
 10
-20.94331395405911
 20
-100.3285345729529
 30
0.0
 10
-22.31930537942308
 20
-102.3808007259206
 30
0.0
 10
-23.03022562760231
 20
-104.466017141145
 30
0.0
 10
-23.0955040839469
 20
-106.5770705703809
 30
0.0
 10
-22.51182374471395
 20
-108.63316823013
 30
0.0
 10
-21.26745403995632
 20
-110.6342042677147
 30
0.0
 10
-19.56367349075353
 20
-112.4538668111899
 30
0.0
 10
-18.0259885909621
 20
-113.5154256984188
 30
0.0
 10
-17.32744436980591
 20
-113.997673931585
 30
0.0
  0
LWPOLYLINE
  5
7E
330
1F
100
AcDbEntity
  8
0
  6
Continuous
 62
     7
370
    25
100
AcDbPolyline
 90
       21
 70
   128
 43
0.0
 10
15.6616554525
 20
-115.8092345741
 10
17.3643966735
 20
-114.8587856275
 10
19.6883891181
 20
-112.9721632308
 10
21.3897056201
 20
-110.9301080199
 10
22.5304811302
 20
-108.6709806841
 10
23.017142105
 20
-106.3586254074
 10
22.8562818445
 20
-103.9389024838
 10
22.0607855988
 20
-101.6289304466
 10
20.6068588019
 20
-99.393213749
 10
18.6174109669
 20
-97.4400942306
 10
16.0334535158
 20
-95.7072904166
 10
13.0866878442
 20
-94.3356604748
 10
9.6822642794
 20
-93.2909579789
 10
6.1073411116
 20
-92.6613207334
 10
2.2578435896
 20
-92.4044449641
 10
-1.5662746842
 20
-92.5154516576
 10
-5.456695489
 20
-92.9850791465
 10
-9.0870987484
 20
-93.7768212508
 10
-12.5608712985
 20
-94.9256006169
 10
-16.2917402385
 20
-96.7178777332
 10
-16.2917402385
 20
-96.7178777332
  0
SPLINE
  5
80
330
1F
100
AcDbEntity
  8
0
  6
Continuous
 62
     7
370
    25
100
AcDbSpline
210
0.0
220
0.0
230
1.0
 70
     8
 71
     3
 72
    18
 73
    14
 74
     0
 42
0.000000001
 43
0.00000001
 40
0.0
 40
0.0
 40
0.0
 40
0.0
 40
0.1250000000000002
 40
0.1250000000000002
 40
0.2500000000000003
 40
0.2500000000000003
 40
0.5000000000000002
 40
0.5000000000000002
 40
0.6250000000000001
 40
0.6250000000000001
 40
0.7500000000000001
 40
0.7500000000000001
 40
1.0
 40
1.0
 40
1.0
 40
1.0
 10
8.935068664892116
 20
-114.4463537950127
 30
0.0
 10
8.922623579314802
 20
-114.3266443449172
 30
0.0
 10
8.925537913495655
 20
-114.211707748186
 30
0.0
 10
8.960827543072963
 20
-113.9910133432851
 30
0.0
 10
8.993919490074072
 20
-113.8844808379116
 30
0.0
 10
9.132606801759051
 20
-113.5939951069888
 30
0.0
 10
9.280536231171986
 20
-113.4322401797124
 30
0.0
 10
9.555969023610757
 20
-113.2591690618817
 30
0.0
 10
9.658191364430765
 20
-113.2120811601813
 30
0.0
 10
9.872940595999726
 20
-113.1431155741986
 30
0.0
 10
9.986147202577188
 20
-113.1205771963295
 30
0.0
 10
10.34286864779107
 20
-113.0893956775094
 30
0.0
 10
10.5912894090866
 20
-113.1175081680102
 30
0.0
 10
10.84423521492725
 20
-113.1954042046475
 30
0.0
  0
SPLINE
  5
82
330
1F
100
AcDbEntity
  8
0
  6
Continuous
 62
     7
370
    25
100
AcDbSpline
210
0.0
220
0.0
230
1.0
 70
     8
 71
     3
 72
    10
 73
     6
 74
     0
 42
0.000000001
 43
0.00000001
 40
0.0
 40
0.0
 40
0.0
 40
0.0
 40
0.2743793506773788
 40
0.7012524774949811
 40
1.0
 40
1.0
 40
1.0
 40
1.0
 10
106.8203232757059
 20
48.2528394736704
 30
0.0
 10
106.7233120077585
 20
48.47902668730249
 30
0.0
 10
106.4753728249258
 20
49.05711080167041
 30
0.0
 10
106.5079247137463
 20
49.99811244811666
 30
0.0
 10
106.7483212160723
 20
50.64497196126953
 30
0.0
 10
106.8472956037992
 20
50.91129249272577
 30
0.0
  0
SPLINE
  5
85
330
1F
100
AcDbEntity
  8
0
  6
Continuous
 62
     7
370
    25
100
AcDbSpline
210
0.0
220
0.0
230
1.0
 70
     8
 71
     3
 72
    12
 73
     8
 74
     0
 42
0.000000001
 43
0.00000001
 40
0.0
 40
0.0
 40
0.0
 40
0.0
 40
0.2499999999999977
 40
0.2499999999999977
 40
0.4999999999999954
 40
0.4999999999999954
 40
1.0
 40
1.0
 40
1.0
 40
1.0
 10
106.8203232757059
 20
48.2528394736704
 30
0.0
 10
106.8875972643899
 20
48.14610238153964
 30
0.0
 10
106.9604523121702
 20
48.04289495610917
 30
0.0
 10
107.1132301419574
 20
47.85014010932125
 30
0.0
 10
107.1934636807764
 20
47.7599763726713
 30
0.0
 10
107.445774877974
 20
47.50820220267116
 30
0.0
 10
107.6309988958449
 20
47.36425406441762
 30
0.0
 10
107.8286808976728
 20
47.25013467386185
 30
0.0
  0
LINE
  5
8D
330
1F
100
AcDbEntity
  8
0
  6
Continuous
 62
     7
370
    25
100
AcDbLine
 10
8.9350686649
 20
-114.446353795
 30
0.0
 11
9.1966034356
 21
-116.975735325
 31
0.0
  0
LINE
  5
8E
330
1F
100
AcDbEntity
  8
0
  6
Continuous
 62
     7
370
    25
100
AcDbLine
 10
107.8286808977
 20
47.2501346739
 30
0.0
 11
101.5519975905
 21
43.626682528
 31
0.0
  0
LINE
  5
8F
330
1F
100
AcDbEntity
  8
0
  6
Continuous
 62
     7
370
    25
100
AcDbLine
 10
128.2500737683
 20
35.461115506
 30
0.0
 11
107.8286808977
 21
47.2501346739
 31
0.0
  0
LINE
  5
90
330
1F
100
AcDbEntity
  8
0
  6
Continuous
 62
     1
370
    25
100
AcDbLine
 10
107.1223161549
 20
48.1893252418
 30
0.0
 11
107.7042423361
 21
50.1822728918
 31
0.0
  0
LINE
  5
91
330
1F
100
AcDbEntity
  8
0
  6
Continuous
 62
     1
370
    25
100
AcDbLine
 10
11.2172678757
 20
-116.6807373
 30
0.0
 11
14.6822339398
 21
-114.6804549684
 31
0.0
  0
LINE
  5
92
330
1F
100
AcDbEntity
  8
0
  6
Continuous
 62
     1
370
    25
100
AcDbLine
 10
11.011756491
 20
-113.2475074312
 30
0.0
 11
8.9350686649
 21
-114.446353795
 31
0.0
  0
LINE
  5
93
330
1F
100
AcDbEntity
  8
0
  6
Continuous
 62
     1
370
    25
100
AcDbLine
 10
107.1309031277
 20
50.500677472
 30
0.0
 11
106.6732145706
 21
48.9222412638
 31
0.0
  0
LINE
  5
94
330
1F
100
AcDbEntity
  8
0
  6
Continuous
 62
     1
370
    25
100
AcDbLine
 10
110.1749362034
 20
48.8174899962
 30
0.0
 11
109.4353770515
 21
46.3226087272
 31
0.0
  0
LINE
  5
95
330
1F
100
AcDbEntity
  8
0
  6
Continuous
 62
     1
370
    25
100
AcDbLine
 10
123.6628957061
 20
30.8623327426
 30
0.0
 11
127.8861948066
 21
33.3003914178
 31
0.0
  0
LINE
  5
96
330
1F
100
AcDbEntity
  8
0
  6
Continuous
 62
     1
370
    25
100
AcDbLine
 10
104.8186333948
 20
51.7471753314
 30
0.0
 11
100.0246195988
 21
48.9796500753
 31
0.0
  0
ARC
  5
97
330
1F
100
AcDbEntity
  8
0
  6
Continuous
 62
     7
370
    25
100
AcDbCircle
 10
3.1783803582
 20
-138.6544482317
 30
0.0
 40
26.58812241311737
100
AcDbArc
 50
60.6115908244
 51
73.2426697856
  0
SPLINE
  5
98
330
1B
100
AcDbEntity
 67
     1
  8
0
  6
Continuous
 62
     7
370
    25
100
AcDbSpline
210
0.0
220
0.0
230
1.0
 70
     8
 71
     3
 72
    12
 73
     8
 74
     0
 42
0.000000001
 43
0.00000001
 40
0.0
 40
0.0
 40
0.0
 40
0.0
 40
0.1964326967543553
 40
0.4515648161354163
 40
0.6932977738501694
 40
0.9077501534663242
 40
1.0
 40
1.0
 40
1.0
 40
1.0
 10
-19.58427178549415
 20
161.2587749876845
 30
0.0
 10
-19.57190262859014
 20
161.4662051222823
 30
0.0
 10
-19.5434680748962
 20
161.9430511470954
 30
0.0
 10
-18.83715418308805
 20
162.6276506270906
 30
0.0
 10
-17.68999707379456
 20
163.1814264068916
 30
0.0
 10
-16.52440830855976
 20
163.4419573173779
 30
0.0
 10
-15.84047834176246
 20
163.4856892963604
 30
0.0
 10
-15.63476599572291
 20
163.4988429940053
 30
0.0
  0
SPLINE
  5
99
330
1B
100
AcDbEntity
 67
     1
  8
0
  6
Continuous
 62
     7
370
    25
100
AcDbSpline
210
0.0
220
0.0
230
1.0
 70
     8
 71
     3
 72
    22
 73
    18
 74
     0
 42
0.000000001
 43
0.00000001
 40
0.0
 40
0.0
 40
0.0
 40
0.0
 40
0.1250000000000002
 40
0.1250000000000002
 40
0.2500000000000004
 40
0.2500000000000004
 40
0.3750000000000006
 40
0.3750000000000006
 40
0.5000000000000008
 40
0.5000000000000008
 40
0.625000000000001
 40
0.625000000000001
 40
0.7500000000000011
 40
0.7500000000000011
 40
0.8750000000000013
 40
0.8750000000000013
 40
1.0
 40
1.0
 40
1.0
 40
1.0
 10
-15.63476599572291
 20
159.2509782742368
 30
0.0
 10
-15.89893725936059
 20
159.2401589875375
 30
0.0
 10
-16.1585326207267
 20
159.243920062923
 30
0.0
 10
-16.6689800353524
 20
159.2792517950476
 30
0.0
 10
-16.92227445421414
 20
159.3115157683815
 30
0.0
 10
-17.39831218638627
 20
159.4007468796663
 30
0.0
 10
-17.62330047147858
 20
159.4575885228881
 30
0.0
 10
-18.04818187161021
 20
159.5945985725932
 30
0.0
 10
-18.24319571173271
 20
159.6733174925103
 30
0.0
 10
-18.59664551466076
 20
159.8469708292141
 30
0.0
 10
-18.75715044709045
 20
159.9431846918277
 30
0.0
 10
-19.03663428104478
 20
160.1465113256141
 30
0.0
 10
-19.1560541435139
 20
160.2534629477117
 30
0.0
 10
-19.35679088476476
 20
160.4770977927748
 30
0.0
 10
-19.43809086495833
 20
160.5943399123858
 30
0.0
 10
-19.55889887364124
 20
160.8317718897517
 30
0.0
 10
-19.59922518562435
 20
160.9526733824374
 30
0.0
 10
-19.61954478808988
 20
161.0757183959541
 30
0.0
  0
SPLINE
  5
9A
330
1B
100
AcDbEntity
 67
     1
  8
0
  6
Continuous
 62
     7
370
    25
100
AcDbSpline
210
0.0
220
0.0
230
1.0
 70
     8
 71
     3
 72
     8
 73
     4
 74
     0
 42
0.000000001
 43
0.00000001
 40
0.0
 40
0.0
 40
0.0
 40
0.0
 40
1.0
 40
1.0
 40
1.0
 40
1.0
 10
15.63476599572295
 20
159.2509782742362
 30
0.0
 10
5.211588665240987
 20
159.6778655226971
 30
0.0
 10
-5.211588665240966
 20
159.6778655226969
 30
0.0
 10
-15.63476599572292
 20
159.2509782742357
 30
0.0
  0
SPLINE
  5
9B
330
1B
100
AcDbEntity
 67
     1
  8
0
  6
Continuous
 62
     7
370
    25
100
AcDbSpline
210
0.0
220
0.0
230
1.0
 70
     8
 71
     3
 72
    20
 73
    16
 74
     0
 42
0.000000001
 43
0.00000001
 40
0.0
 40
0.0
 40
0.0
 40
0.0
 40
0.25
 40
0.25
 40
0.375
 40
0.375
 40
0.5
 40
0.5
 40
0.625
 40
0.625
 40
0.75
 40
0.75
 40
0.875
 40
0.875
 40
1.0
 40
1.0
 40
1.0
 40
1.0
 10
19.61954478808989
 20
161.0757183959545
 30
0.0
 10
19.57880517607996
 20
160.829020355531
 30
0.0
 10
19.45982504845031
 20
160.5923662962646
 30
0.0
 10
19.1567600366003
 20
160.254011179894
 30
0.0
 10
19.03606123989711
 20
160.1461365891981
 30
0.0
 10
18.75860081372617
 20
159.9441978223362
 30
0.0
 10
18.60135449620579
 20
159.8495258462725
 30
0.0
 10
18.24583437739855
 20
159.6743773822817
 30
0.0
 10
18.04872081113766
 20
159.5949359323192
 30
0.0
 10
17.62936427252871
 20
159.4593828807732
 30
0.0
 10
17.40524769969219
 20
159.4022511054321
 30
0.0
 10
16.92499663881862
 20
159.311825898613
 30
0.0
 10
16.6734935490387
 20
159.2797344846037
 30
0.0
 10
16.16302604693886
 20
159.2440637862257
 30
0.0
 10
15.89999911266771
 20
159.2401154987214
 30
0.0
 10
15.63476599572295
 20
159.2509782742363
 30
0.0
  0
SPLINE
  5
9C
330
1B
100
AcDbEntity
 67
     1
  8
0
  6
Continuous
 62
     7
370
    25
100
AcDbSpline
210
0.0
220
0.0
230
1.0
 70
     8
 71
     3
 72
    22
 73
    18
 74
     0
 42
0.000000001
 43
0.00000001
 40
0.0
 40
0.0
 40
0.0
 40
0.0
 40
0.125
 40
0.125
 40
0.25
 40
0.25
 40
0.375
 40
0.375
 40
0.5
 40
0.5
 40
0.625
 40
0.625
 40
0.75
 40
0.75
 40
0.875
 40
0.875
 40
1.0
 40
1.0
 40
1.0
 40
1.0
 10
15.63476599572291
 20
163.4988429940052
 30
0.0
 10
15.93445692057099
 20
163.4868400977713
 30
0.0
 10
16.22691724025148
 20
163.4582622594258
 30
0.0
 10
16.79833114441586
 20
163.3700568119191
 30
0.0
 10
17.0784621675657
 20
163.309601533681
 30
0.0
 10
17.597599121764
 20
163.1642298569944
 30
0.0
 10
17.8423925085601
 20
163.0780210208198
 30
0.0
 10
18.28998710442783
 20
162.8844666462451
 30
0.0
 10
18.49031066074671
 20
162.7785719893707
 30
0.0
 10
18.84763702856408
 20
162.5496440923148
 30
0.0
 10
19.00374908906442
 20
162.4266066466293
 30
0.0
 10
19.26288889403796
 20
162.1731642541592
 30
0.0
 10
19.36797893191809
 20
162.0413272986884
 30
0.0
 10
19.52849777656549
 20
161.7691140867111
 30
0.0
 10
19.58218272507507
 20
161.6319112746867
 30
0.0
 10
19.63930272311677
 20
161.3553246049848
 30
0.0
 10
19.64259342288887
 20
161.2152890192078
 30
0.0
 10
19.61954478808998
 20
161.0757183959545
 30
0.0
  0
SPLINE
  5
9D
330
1B
100
AcDbEntity
 67
     1
  8
0
  6
Continuous
 62
     7
370
    25
100
AcDbSpline
210
0.0
220
0.0
230
1.0
 70
     8
 71
     3
 72
     8
 73
     4
 74
     0
 42
0.000000001
 43
0.00000001
 40
0.0
 40
0.0
 40
0.0
 40
0.0
 40
1.0
 40
1.0
 40
1.0
 40
1.0
 10
15.63476599572287
 20
163.4988429940052
 30
0.0
 10
5.211588665240948
 20
163.9163007998709
 30
0.0
 10
-5.211588665240987
 20
163.9163007998709
 30
0.0
 10
-15.63476599572291
 20
163.4988429940053
 30
0.0
  0
SPLINE
  5
9E
330
1B
100
AcDbEntity
 67
     1
  8
0
  6
Continuous
 62
     7
370
    25
100
AcDbSpline
210
0.0
220
0.0
230
1.0
 70
    11
 71
     3
 72
    35
 73
    31
 74
     0
 42
0.000000001
 43
0.00000001
 40
0.0
 40
0.0
 40
0.0
 40
0.0
 40
0.0062500000000001
 40
0.0083333333333333
 40
0.0416666666666666
 40
0.0833333333333334
 40
0.1250000000000001
 40
0.1666666666666666
 40
0.2083333333333334
 40
0.25
 40
0.2916666666666666
 40
0.3333333333333334
 40
0.375
 40
0.4166666666666666
 40
0.4583333333333334
 40
0.5000000000020915
 40
0.5416666666666667
 40
0.5833333333333333
 40
0.625
 40
0.6666666666666667
 40
0.7083333333333333
 40
0.7500000000009739
 40
0.7916666666666666
 40
0.8333333333333334
 40
0.875
 40
0.9166666666666666
 40
0.9583333333333334
 40
0.9916666666666667
 40
0.99375
 40
1.0
 40
1.0
 40
1.0
 40
1.0
 10
-268.5410553740109
 20
0.0000000000000228
 30
0.0
 10
-268.5410553740109
 20
2.296483308671164
 30
0.0
 10
-268.4464361818115
 20
5.358461053565987
 30
0.0
 10
-267.350283635807
 20
20.64896942267158
 30
0.0
 10
-260.4438991121397
 20
48.73323918006945
 30
0.0
 10
-235.3949574988089
 20
87.98326127311184
 30
0.0
 10
-192.1158404164355
 20
124.7344932307751
 30
0.0
 10
-135.4668119311427
 20
152.7595631469898
 30
0.0
 10
-70.67893367863309
 20
170.0870910828134
 30
0.0
 10
0.0000000000000284
 20
176.1794058154591
 30
0.0
 10
70.67893367863302
 20
170.0870910827924
 30
0.0
 10
135.4668119311427
 20
152.7595631469492
 30
0.0
 10
192.1158404164354
 20
124.7344932307167
 30
0.0
 10
235.3949574988089
 20
87.9832612730389
 30
0.0
 10
262.2331092273777
 20
45.92966617336771
 30
0.0
 10
271.6950284473273
 20
-0.0000000000595126
 30
0.0
 10
262.2331092273774
 20
-45.92966617348115
 30
0.0
 10
235.394957498809
 20
-87.98326127318194
 30
0.0
 10
192.1158404164356
 20
-124.7344932308244
 30
0.0
 10
135.4668119311429
 20
-152.7595631470171
 30
0.0
 10
70.67893367863316
 20
-170.087091082816
 30
0.0
 10
0.0000000000000945
 20
-176.1794058154568
 30
0.0
 10
-70.67893367863302
 20
-170.0870910827997
 30
0.0
 10
-135.4668119311426
 20
-152.7595631469659
 30
0.0
 10
-192.1158404164355
 20
-124.7344932307554
 30
0.0
 10
-235.3949574988089
 20
-87.98326127310064
 30
0.0
 10
-260.4438991121397
 20
-48.73323918006605
 30
0.0
 10
-267.3502836358069
 20
-20.64896942267097
 30
0.0
 10
-268.4464361818115
 20
-5.358461053565858
 30
0.0
 10
-268.5410553740109
 20
-2.296483308671078
 30
0.0
 10
-268.5410553740109
 20
0.0000000000000228
 30
0.0
  0
SPLINE
  5
9F
330
1B
100
AcDbEntity
 67
     1
  8
0
  6
Continuous
 62
     7
370
    25
100
AcDbSpline
210
0.0
220
0.0
230
1.0
 70
    11
 71
     3
 72
    51
 73
    47
 74
     0
 42
0.000000001
 43
0.00000001
 40
0.0
 40
0.0
 40
0.0
 40
0.0
 40
0.0310625942957131
 40
0.0623436406921299
 40
0.0774661356643234
 40
0.0936025208475401
 40
0.1077658855943965
 40
0.1247299534682843
 40
0.1403227459779874
 40
0.1560268089359264
 40
0.1871966103365807
 40
0.2185830714266744
 40
0.2498805425744752
 40
0.2812460600615053
 40
0.3126131100523709
 40
0.34377946400964
 40
0.3594404043049872
 40
0.3750942043074424
 40
0.3906253262274967
 40
0.4061986226892182
 40
0.4219003609541411
 40
0.437499623329989
 40
0.4687506021201743
 40
0.5000940275766924
 40
0.5312363022447009
 40
0.5625127648633818
 40
0.5775556935470983
 40
0.5936393847193561
 40
0.6092985432875273
 40
0.6249214645952761
 40
0.6404509113083361
 40
0.6560477790867318
 40
0.6873487253057118
 40
0.7186964431702799
 40
0.7499524212645494
 40
0.7813771688258431
 40
0.8126174548781047
 40
0.8439325217128555
 40
0.859472185830263
 40
0.875096398251971
 40
0.8929836088479797
 40
0.9063050883869814
 40
0.9218823702351042
 40
0.9375920550000872
 40
0.9687419145673791
 40
1.0
 40
1.0
 40
1.0
 40
1.0
 10
-35.07717410681676
 20
0.0000000000000069
 30
0.0
 10
-35.07720232664249
 20
2.249371462539775
 30
0.0
 10
-34.5943566289542
 20
6.763839783253064
 30
0.0
 10
-32.8887510398386
 20
12.14009832424964
 30
0.0
 10
-30.90807017812451
 20
16.21043602723836
 30
0.0
 10
-29.17944957222566
 20
19.00955340073855
 30
0.0
 10
-27.10766066235441
 20
21.73160221708432
 30
0.0
 10
-24.79622562403103
 20
24.2032883601224
 30
0.0
 10
-22.15633672663261
 20
26.49231249625646
 30
0.0
 10
-18.46299517670503
 20
29.10067234588221
 30
0.0
 10
-13.38189040238715
 20
31.67114526534908
 30
0.0
 10
-6.830760893522922
 20
33.57605764558212
 30
0.0
 10
-0.0213709606330145
 20
34.24457621221485
 30
0.0
 10
6.787717028433086
 20
33.58473704769143
 30
0.0
 10
13.34392424169243
 20
31.68584809237486
 30
0.0
 10
18.4237973166776
 20
29.12352171466422
 30
0.0
 10
22.1214291416935
 20
26.51963989029984
 30
0.0
 10
24.68717800817453
 20
24.30112976150652
 30
0.0
 10
27.01307383797858
 20
21.84131093204083
 30
0.0
 10
29.08221928863972
 20
19.15731700297956
 30
0.0
 10
30.8726573576612
 20
16.27345114193315
 30
0.0
 10
32.86516086734031
 20
12.20731467284547
 30
0.0
 10
34.59212156014377
 20
6.782544382144439
 30
0.0
 10
35.32059458070523
 20
-0.0059777845254671
 30
0.0
 10
34.58821868784018
 20
-6.79511707767079
 30
0.0
 10
32.87708198891777
 20
-12.16924573880327
 30
0.0
 10
30.89713509926032
 20
-16.22887863876327
 30
0.0
 10
29.11594011486575
 20
-19.1113904264244
 30
0.0
 10
27.02430611869908
 20
-21.82921202379374
 30
0.0
 10
24.69616334332423
 20
-24.29235763707152
 30
0.0
 10
22.13648388086362
 20
-26.50701941395828
 30
0.0
 10
18.44443453675641
 20
-29.11195283784145
 30
0.0
 10
13.36254409446444
 20
-31.67939304999599
 30
0.0
 10
6.806526217342426
 20
-33.58019887137874
 30
0.0
 10
-0.0016033157699121
 20
-34.24471449024119
 30
0.0
 10
-6.802608239577904
 20
-33.58137862879843
 30
0.0
 10
-13.36331019016906
 20
-31.67839031445803
 30
0.0
 10
-18.43593509568458
 20
-29.11676050771485
 30
0.0
 10
-22.13183722903836
 20
-26.51079513727387
 30
0.0
 10
-24.81794507606984
 20
-24.18779203638596
 30
0.0
 10
-27.13033376835449
 20
-21.7045416786234
 30
0.0
 10
-29.17589400242137
 20
-19.00677999102899
 30
0.0
 10
-30.87908797857611
 20
-16.26175242227184
 30
0.0
 10
-32.8669381718435
 20
-12.20255352574701
 30
0.0
 10
-34.59064632741904
 20
-6.782840593328014
 30
0.0
 10
-35.07714570939073
 20
-2.263527787679689
 30
0.0
 10
-35.07717410681676
 20
0.0000000000000118
 30
0.0
  0
SPLINE
  5
A0
330
1B
100
AcDbEntity
 67
     1
  8
0
  6
Continuous
 62
     7
370
    25
100
AcDbSpline
210
0.0
220
0.0
230
1.0
 70
    11
 71
     3
 72
    35
 73
    31
 74
     0
 42
0.000000001
 43
0.00000001
 40
0.0
 40
0.0
 40
0.0
 40
0.0
 40
0.0062500000000001
 40
0.0083333333333333
 40
0.0416666666666666
 40
0.0833333333333334
 40
0.1250000000000001
 40
0.1666666666666666
 40
0.2083333333333334
 40
0.25
 40
0.2916666666666666
 40
0.3333333333333334
 40
0.375
 40
0.4166666666666666
 40
0.4583333333333334
 40
0.5000000000020915
 40
0.5416666666666667
 40
0.5833333333333333
 40
0.625
 40
0.6666666666666667
 40
0.7083333333333333
 40
0.7500000000009739
 40
0.7916666666666666
 40
0.8333333333333334
 40
0.875
 40
0.9166666666666666
 40
0.9583333333333334
 40
0.9916666666666667
 40
0.99375
 40
1.0
 40
1.0
 40
1.0
 40
1.0
 10
-290.0000000000001
 20
0.0000000000000382
 30
0.0
 10
-290.0000000000001
 20
2.565996604522497
 30
0.0
 10
-289.8978724291358
 20
5.98732541055238
 30
0.0
 10
-288.7146899587346
 20
23.07256972886459
 30
0.0
 10
-281.2596886097431
 20
54.45593140531501
 30
0.0
 10
-254.2143952860995
 20
98.3599218134471
 30
0.0
 10
-207.4681364742391
 20
139.5044365947469
 30
0.0
 10
-146.2788580815367
 20
170.9372657958255
 30
0.0
 10
-76.3219502883592
 20
190.4218675129827
 30
0.0
 10
0.0000000000000299
 20
197.2890662435087
 30
0.0
 10
76.32195028835916
 20
190.4218675129826
 30
0.0
 10
146.2788580815368
 20
170.9372657958255
 30
0.0
 10
207.468136474239
 20
139.5044365947469
 30
0.0
 10
254.2143952860996
 20
98.35992181344709
 30
0.0
 10
283.1914952757178
 20
51.31993209044835
 30
0.0
 10
293.404252362141
 20
-0.0000000000000792
 30
0.0
 10
283.1914952757176
 20
-51.31993209044843
 30
0.0
 10
254.2143952860994
 20
-98.35992181344717
 30
0.0
 10
207.4681364742389
 20
-139.504436594747
 30
0.0
 10
146.2788580815368
 20
-170.9372657958255
 30
0.0
 10
76.32195028835913
 20
-190.4218675129827
 30
0.0
 10
-0.0000000000000729
 20
-197.2890662435088
 30
0.0
 10
-76.3219502883593
 20
-190.4218675129827
 30
0.0
 10
-146.2788580815369
 20
-170.9372657958255
 30
0.0
 10
-207.4681364742391
 20
-139.5044365947469
 30
0.0
 10
-254.2143952860996
 20
-98.35992181344712
 30
0.0
 10
-281.2596886097433
 20
-54.45593140531495
 30
0.0
 10
-288.7146899587346
 20
-23.07256972886447
 30
0.0
 10
-289.8978724291358
 20
-5.987325410552257
 30
0.0
 10
-290.0000000000001
 20
-2.565996604522375
 30
0.0
 10
-290.0000000000001
 20
0.0000000000000382
 30
0.0
  0
SPLINE
  5
A1
330
1B
100
AcDbEntity
 67
     1
  8
0
  6
Continuous
 62
     7
370
    25
100
AcDbSpline
210
0.0
220
0.0
230
1.0
 70
    11
 71
     3
 72
   122
 73
   118
 74
     0
 42
0.000000001
 43
0.00000001
 40
0.0
 40
0.0
 40
0.0
 40
0.0
 40
0.0312499999999999
 40
0.0312499999999999
 40
0.0468749999999999
 40
0.0468749999999999
 40
0.0624999999999998
 40
0.0624999999999998
 40
0.0937499999999997
 40
0.0937499999999997
 40
0.1093749999999997
 40
0.1093749999999997
 40
0.1249999999999997
 40
0.1249999999999997
 40
0.1562499999999996
 40
0.1562499999999996
 40
0.1718749999999996
 40
0.1718749999999996
 40
0.1874999999999995
 40
0.1874999999999995
 40
0.2031249999999995
 40
0.2031249999999995
 40
0.2109374999999994
 40
0.2109374999999994
 40
0.2187499999999994
 40
0.2187499999999994
 40
0.2499999999999993
 40
0.2499999999999993
 40
0.2656249999999993
 40
0.2656249999999993
 40
0.2734374999999993
 40
0.2734374999999993
 40
0.2812499999999992
 40
0.2812499999999992
 40
0.3124999999999992
 40
0.3124999999999992
 40
0.3203124999999992
 40
0.3203124999999992
 40
0.3281249999999992
 40
0.3281249999999992
 40
0.3437499999999992
 40
0.3437499999999992
 40
0.3749999999999992
 40
0.3749999999999992
 40
0.3828124999999992
 40
0.3828124999999992
 40
0.3906249999999991
 40
0.3906249999999991
 40
0.4062499999999991
 40
0.4062499999999991
 40
0.421874999999999
 40
0.421874999999999
 40
0.4374999999999989
 40
0.4374999999999989
 40
0.4687499999999989
 40
0.4687499999999989
 40
0.4843749999999989
 40
0.4843749999999989
 40
0.4999999999999989
 40
0.4999999999999989
 40
0.5312499999999988
 40
0.5312499999999988
 40
0.5468749999999988
 40
0.5468749999999988
 40
0.5624999999999987
 40
0.5624999999999987
 40
0.5781249999999987
 40
0.5781249999999987
 40
0.5859374999999987
 40
0.5859374999999987
 40
0.5937499999999986
 40
0.5937499999999986
 40
0.6249999999999986
 40
0.6249999999999986
 40
0.6406249999999986
 40
0.6406249999999986
 40
0.6484374999999986
 40
0.6484374999999986
 40
0.6562499999999986
 40
0.6562499999999986
 40
0.6874999999999987
 40
0.6874999999999987
 40
0.6953124999999988
 40
0.6953124999999988
 40
0.7031249999999988
 40
0.7031249999999988
 40
0.7187499999999989
 40
0.7187499999999989
 40
0.7499999999999991
 40
0.7499999999999991
 40
0.7578124999999992
 40
0.7578124999999992
 40
0.7656249999999993
 40
0.7656249999999993
 40
0.7812499999999993
 40
0.7812499999999993
 40
0.7968749999999994
 40
0.7968749999999994
 40
0.8124999999999994
 40
0.8124999999999994
 40
0.8437499999999996
 40
0.8437499999999996
 40
0.8593749999999997
 40
0.8593749999999997
 40
0.8749999999999997
 40
0.8749999999999997
 40
0.9062499999999998
 40
0.9062499999999998
 40
0.9218749999999998
 40
0.9218749999999998
 40
0.9374999999999999
 40
0.9374999999999999
 40
0.9531249999999999
 40
0.9531249999999999
 40
0.96875
 40
0.96875
 40
1.0
 40
1.0
 40
1.0
 40
1.0
 10
-23.03999999999999
 20
0.0000000000000067
 30
0.0
 10
-23.03999999999999
 20
-1.523180669186386
 30
0.0
 10
-22.89046121792726
 20
-3.019599706384013
 30
0.0
 10
-22.45195555350971
 20
-5.226250196104369
 30
0.0
 10
-22.2698165464482
 20
-5.955419328002388
 30
0.0
 10
-21.83209938312405
 20
-7.400755698588938
 30
0.0
 10
-21.57479575638932
 20
-8.120460836128196
 30
0.0
 10
-20.70622789801199
 20
-10.21675636978849
 30
0.0
 10
-19.99798025599035
 20
-11.54060675320202
 30
0.0
 10
-18.74511302560497
 20
-13.41745662542094
 30
0.0
 10
-18.29528041196358
 20
-14.025083171442
 30
0.0
 10
-17.33034555644199
 20
-15.20129488604691
 30
0.0
 10
-16.82290152636684
 20
-15.76060484385255
 30
0.0
 10
-15.22822677543854
 20
-17.35520188633467
 30
0.0
 10
-14.06934924194545
 20
-18.30794189841876
 30
0.0
 10
-12.18457130596458
 20
-19.56908922898027
 30
0.0
 10
-11.5297852397171
 20
-19.96184036488022
 30
0.0
 10
-10.19891077823238
 20
-20.67349117504383
 30
0.0
 10
-9.51961663240158
 20
-20.99479126171289
 30
0.0
 10
-8.133736386695082
 20
-21.56957795930521
 30
0.0
 10
-7.42714548655467
 20
-21.82306444612681
 30
0.0
 10
-6.346536288217282
 20
-22.15185850254792
 30
0.0
 10
-5.982873296139767
 20
-22.2528686737784
 30
0.0
 10
-5.248511575921447
 20
-22.43742550578182
 30
0.0
 10
-4.876781036159361
 20
-22.52116580055859
 30
0.0
 10
-3.014073205697434
 20
-22.8924834687064
 30
0.0
 10
-1.517496563655084
 20
-23.03903368032415
 30
0.0
 10
0.736633555272192
 20
-23.04047608430001
 30
0.0
 10
1.489565242069714
 20
-23.00429456062658
 30
0.0
 10
2.621364793057184
 20
-22.89353052354168
 30
0.0
 10
3.000017152021639
 20
-22.84700183747795
 30
0.0
 10
3.750764359475689
 20
-22.73581673469927
 30
0.0
 10
4.123368077278096
 20
-22.67116357096084
 30
0.0
 10
5.972779386801247
 20
-22.30343152495266
 30
0.0
 10
7.409146818586263
 20
-21.86822349292073
 30
0.0
 10
9.150767079005407
 20
-21.14821807677945
 30
0.0
 10
9.496376300196644
 20
-20.99533758420528
 30
0.0
 10
10.18207252172582
 20
-20.67149637234796
 30
0.0
 10
10.52257782394779
 20
-20.50025295677548
 30
0.0
 10
11.52464976793942
 20
-19.96491194915746
 30
0.0
 10
12.17045374033468
 20
-19.57766687624281
 30
0.0
 10
14.04310083150829
 20
-18.32720538672323
 30
0.0
 10
15.20580277412383
 20
-17.37613619261034
 30
0.0
 10
16.54867716235521
 20
-16.03517830780184
 30
0.0
 10
16.81128237950023
 20
-15.75961588908734
 30
0.0
 10
17.31959908943302
 20
-15.19921694023018
 30
0.0
 10
17.56603975396784
 20
-14.91366716897665
 30
0.0
 10
18.2825703213308
 20
-14.04121457373103
 30
0.0
 10
18.7299229620814
 20
-13.43854478689361
 30
0.0
 10
19.56453223247786
 20
-12.19153717458076
 30
0.0
 10
19.95178987402055
 20
-11.5471999919408
 30
0.0
 10
20.66502916147202
 20
-10.21608127348533
 30
0.0
 10
20.99232690860859
 20
-9.525548939724946
 30
0.0
 10
21.86177200930274
 20
-7.429240282641076
 30
0.0
 10
22.29790819744185
 20
-5.992419624202911
 30
0.0
 10
22.74040098663891
 20
-3.779128695928671
 30
0.0
 10
22.85236489377078
 20
-3.031616255360455
 30
0.0
 10
23.00265324089035
 20
-1.516318646317109
 30
0.0
 10
23.03972387261107
 20
-0.760923584976817
 30
0.0
 10
23.04054765303539
 20
1.496625257556545
 30
0.0
 10
22.89504532030438
 20
2.991158001702695
 30
0.0
 10
22.45429472922538
 20
5.217123710970164
 30
0.0
 10
22.26896757855706
 20
5.958628573898863
 30
0.0
 10
21.83086226271725
 20
7.404432750911907
 30
0.0
 10
21.57757171244475
 20
8.1125449076787
 30
0.0
 10
21.00380358869599
 20
9.499748454158155
 30
0.0
 10
20.6833247085188
 20
10.1788375557728
 30
0.0
 10
20.15172925285359
 20
11.17547188560258
 30
0.0
 10
19.96603840116135
 20
11.50400650844944
 30
0.0
 10
19.57740184252613
 20
12.15360820001003
 30
0.0
 10
19.3738672118602
 20
12.47553572597579
 30
0.0
 10
18.32004438136898
 20
14.05430653397431
 30
0.0
 10
17.3663986163013
 20
15.21522111726836
 30
0.0
 10
15.77568034549435
 20
16.8087119754517
 30
0.0
 10
15.21853358988063
 20
17.31505312417991
 30
0.0
 10
14.34134341934706
 20
18.03637370033746
 30
0.0
 10
14.04119339624717
 20
18.27101965603349
 30
0.0
 10
13.43259049449986
 20
18.7230014652846
 30
0.0
 10
13.1238366800241
 20
18.94065578890605
 30
0.0
 10
11.55817563898061
 20
19.98802317846187
 30
0.0
 10
10.23624307242711
 20
20.69620225249174
 30
0.0
 10
8.496505001926737
 20
21.4194536344149
 30
0.0
 10
8.1441551710773
 20
21.55592943100129
 30
0.0
 10
7.4304757945988
 20
21.81223020579909
 30
0.0
 10
7.06846778878887
 20
21.9322143044478
 30
0.0
 10
5.98061544909696
 20
22.26316427553607
 30
0.0
 10
5.249581887720701
 20
22.44655495541436
 30
0.0
 10
3.039561398318967
 20
22.88798863935262
 30
0.0
 10
1.543808919493859
 20
23.03833795144795
 30
0.0
 10
-0.3546932975336914
 20
23.04039854822936
 30
0.0
 10
-0.7358882650240783
 20
23.03136081752875
 30
0.0
 10
-1.492662940589249
 20
22.99471830641964
 30
0.0
 10
-1.869317681208591
 20
22.96713270158976
 30
0.0
 10
-2.994163414194186
 20
22.85704088354291
 30
0.0
 10
-3.737247639072024
 20
22.74726390393608
 30
0.0
 10
-5.209923133397878
 20
22.45577288750373
 30
0.0
 10
-5.939515207036593
 20
22.27405997586417
 30
0.0
 10
-7.384963305869026
 20
21.83744274575165
 30
0.0
 10
-8.104518864196017
 20
21.58079035826171
 30
0.0
 10
-10.20153217440871
 20
20.7137368749318
 30
0.0
 10
-11.52512897413378
 20
20.00682026328375
 30
0.0
 10
-13.40160997003071
 20
18.75642327152523
 30
0.0
 10
-14.0088230669166
 20
18.30772226008572
 30
0.0
 10
-15.18547041005772
 20
17.34420094722941
 30
0.0
 10
-15.74547224241969
 20
16.83706851445721
 30
0.0
 10
-17.34162760359172
 20
15.24369513102675
 30
0.0
 10
-18.29558396923964
 20
14.08543527922538
 30
0.0
 10
-19.55852504537263
 20
12.20152728123482
 30
0.0
 10
-19.95214560351239
 20
11.54659522398493
 30
0.0
 10
-20.66547861525789
 20
10.2151832608441
 30
0.0
 10
-20.98750569184381
 20
9.53569188369906
 30
0.0
 10
-21.56356728622673
 20
8.1496859300462
 30
0.0
 10
-21.81760108174076
 20
7.443170113357998
 30
0.0
 10
-22.25700498489422
 20
6.002851605758335
 30
0.0
 10
-22.44275823928774
 20
5.267116669888694
 30
0.0
 10
-22.89046874197869
 20
3.030066398256448
 30
0.0
 10
-23.04
 20
1.523180669186404
 30
0.0
 10
-23.03999999999999
 20
0.0000000000000091
 30
0.0
  0
LINE
  5
A4
330
1B
100
AcDbEntity
 67
     1
  8
0
  6
Continuous
 62
     1
370
    25
100
AcDbLine
 10
15.6347659957
 20
159.2509782742
 30
0.0
 11
15.6347659957
 21
163.498842994
 31
0.0
  0
LINE
  5
A5
330
1B
100
AcDbEntity
 67
     1
  8
0
  6
Continuous
 62
     1
370
    25
100
AcDbLine
 10
-15.6347659957
 20
163.498842994
 30
0.0
 11
-15.6347659957
 21
159.2509782742
 31
0.0
  0
VIEWPORT
  5
18F
330
1B
100
AcDbEntity
 67
     1
  8
0
100
AcDbViewport
 10
0.0
 20
0.0
 30
0.0
 40
205.6
 41
156.0
 68
     1
 69
     1
 12
0.0
 22
-17.129261467
 13
0.0
 23
0.0
 14
10.0
 24
10.0
 15
10.0
 25
10.0
 16
0.0
 26
0.0
 36
1.0
 17
0.0
 27
0.0
 37
0.0
 42
50.0
 43
0.0
 44
0.0
 45
382.4705910073
 50
0.0
 51
0.0
 72
   100
 90
   557152
  1

281
     0
 71
     1
 74
     0
110
0.0
120
0.0
130
0.0
111
1.0
121
0.0
131
0.0
112
0.0
122
1.0
132
0.0
 79
     0
146
0.0
170
     0
 61
     5
348
2F
292
     1
282
     1
141
0.0
142
0.0
 63
   256
361
190
  0
ENDSEC
  0
SECTION
  2
OBJECTS
  0
DICTIONARY
  5
C
330
0
100
AcDbDictionary
281
     1
  3
ACAD_DETAILVIEWSTYLE
350
1AB
  3
ACAD_GROUP
350
D
  3
ACAD_LAYOUT
350
1A
  3
ACAD_MATERIAL
350
43
  3
ACAD_MLEADERSTYLE
350
6B
  3
ACAD_MLINESTYLE
350
17
  3
ACAD_PLOTSETTINGS
350
19
  3
ACAD_PLOTSTYLENAME
350
E
  3
ACAD_SCALELIST
350
47
  3
ACAD_SECTIONVIEWSTYLE
350
1AC
  3
ACAD_TABLESTYLE
350
69
  3
ACAD_VISUALSTYLE
350
2A
  3
ACDB_RECOMPOSE_DATA
350
1A8
  3
AcDbVariableDictionary
350
1A3
  0
SUN
  5
6D
330
29
100
AcDbSun
 90
        1
290
     0
 63
     7
421
 16777215
 40
1.0
291
     1
 91
  2455826
 92
 54000000
292
     0
 70
     2
 71
   256
280
     1
  0
SUN
  5
192
330
191
100
AcDbSun
 90
        1
290
     0
 63
     7
421
 16777215
 40
1.0
291
     1
 91
  2455826
 92
 54000000
292
     0
 70
     2
 71
   256
280
     1
  0
SUN
  5
194
330
193
100
AcDbSun
 90
        1
290
     0
 63
     7
421
 16777215
 40
1.0
291
     1
 91
  2455826
 92
 54000000
292
     0
 70
     2
 71
   256
280
     1
  0
SUN
  5
196
330
195
100
AcDbSun
 90
        1
290
     0
 63
     7
421
 16777215
 40
1.0
291
     1
 91
  2455826
 92
 54000000
292
     0
 70
     2
 71
   256
280
     1
  0
SUN
  5
198
330
197
100
AcDbSun
 90
        1
290
     0
 63
     7
421
 16777215
 40
1.0
291
     1
 91
  2455826
 92
 54000000
292
     0
 70
     2
 71
   256
280
     1
  0
SUN
  5
19A
330
199
100
AcDbSun
 90
        1
290
     0
 63
     7
421
 16777215
 40
1.0
291
     1
 91
  2455826
 92
 54000000
292
     0
 70
     2
 71
   256
280
     1
  0
SUN
  5
19C
330
19B
100
AcDbSun
 90
        1
290
     0
 63
     7
421
 16777215
 40
1.0
291
     1
 91
  2455826
 92
 54000000
292
     0
 70
     2
 71
   256
280
     1
  0
SUN
  5
19E
330
19D
100
AcDbSun
 90
        1
290
     0
 63
     7
421
 16777215
 40
1.0
291
     1
 91
  2455826
 92
 54000000
292
     0
 70
     2
 71
   256
280
     1
  0
SUN
  5
1A0
330
19F
100
AcDbSun
 90
        1
290
     0
 63
     7
421
 16777215
 40
1.0
291
     1
 91
  2455826
 92
 54000000
292
     0
 70
     2
 71
   256
280
     1
  0
SUN
  5
1A2
330
1A1
100
AcDbSun
 90
        1
290
     0
 63
     7
421
 16777215
 40
1.0
291
     1
 91
  2455826
 92
 54000000
292
     0
 70
     2
 71
   256
280
     1
  0
SUN
  5
190
330
18F
100
AcDbSun
 90
        1
290
     0
 63
     7
421
 16777215
 40
1.0
291
     1
 91
  2455826
 92
 54000000
292
     0
 70
     2
 71
   256
280
     1
  0
DICTIONARY
  5
1AB
102
{ACAD_REACTORS
330
C
102
}
330
C
100
AcDbDictionary
281
     1
  0
DICTIONARY
  5
D
102
{ACAD_REACTORS
330
C
102
}
330
C
100
AcDbDictionary
281
     1
  0
DICTIONARY
  5
1A
102
{ACAD_REACTORS
330
C
102
}
330
C
100
AcDbDictionary
281
     1
  3
_Dimetrisch
350
15D
  3
_Isometrisch
350
113
  3
_Links
350
B8
  3
_Normal auf
350
D2
  3
_Oben
350
1E
  3
_Rechts
350
F7
  3
_Rückseite
350
E7
  3
_Trimetrisch
350
13C
  3
_Unten
350
10B
  3
_Vorderseite
350
26
  3
Model
350
22
  0
DICTIONARY
  5
43
102
{ACAD_REACTORS
330
C
102
}
330
C
100
AcDbDictionary
281
     1
  3
ByBlock
350
45
  3
ByLayer
350
44
  3
Global
350
46
  0
DICTIONARY
  5
6B
102
{ACAD_REACTORS
330
C
102
}
330
C
100
AcDbDictionary
281
     1
  3
Standard
350
6C
  0
DICTIONARY
  5
17
102
{ACAD_REACTORS
330
C
102
}
330
C
100
AcDbDictionary
281
     1
  3
Standard
350
18
  0
DICTIONARY
  5
19
102
{ACAD_REACTORS
330
C
102
}
330
C
100
AcDbDictionary
281
     1
  0
ACDBDICTIONARYWDFLT
  5
E
102
{ACAD_REACTORS
330
C
102
}
330
C
100
AcDbDictionary
281
     1
  3
Normal
350
F
100
AcDbDictionaryWithDefault
340
F
  0
DICTIONARY
  5
47
102
{ACAD_REACTORS
330
C
102
}
330
C
100
AcDbDictionary
281
     1
  3
A0
350
48
  3
A1
350
49
  3
A2
350
4A
  3
A3
350
4B
  3
A4
350
4C
  3
A5
350
4D
  3
A6
350
4E
  3
A7
350
4F
  3
A8
350
50
  3
A9
350
51
  3
B0
350
52
  3
B1
350
53
  3
B2
350
54
  3
B3
350
55
  3
B4
350
56
  3
B5
350
57
  3
B6
350
58
  3
B7
350
59
  3
B8
350
5A
  3
B9
350
5B
  3
C0
350
5C
  3
C1
350
5D
  3
C2
350
5E
  3
C3
350
5F
  3
C4
350
60
  3
C5
350
61
  3
C6
350
62
  3
C7
350
63
  3
C8
350
64
  3
C9
350
65
  3
D0
350
66
  3
D1
350
67
  3
D2
350
68
  0
DICTIONARY
  5
1AC
102
{ACAD_REACTORS
330
C
102
}
330
C
100
AcDbDictionary
281
     1
  0
DICTIONARY
  5
69
102
{ACAD_REACTORS
330
C
102
}
330
C
100
AcDbDictionary
281
     1
  3
Standard
350
6A
  0
DICTIONARY
  5
2A
102
{ACAD_REACTORS
330
C
102
}
330
C
100
AcDbDictionary
281
     1
  3
2dWireframe
350
2F
  3
Basic
350
32
  3
Brighten
350
36
  3
ColorChange
350
3A
  3
Conceptual
350
34
  3
Dim
350
35
  3
EdgeColorOff
350
3D
  3
Facepattern
350
39
  3
Flat
350
2B
  3
FlatWithEdges
350
2C
  3
Gouraud
350
2D
  3
GouraudWithEdges
350
2E
  3
Hidden
350
31
  3
JitterOff
350
3B
  3
Linepattern
350
38
  3
OverhangOff
350
3C
  3
Realistic
350
33
  3
Shaded
350
42
  3
Shaded with edges
350
41
  3
Shades of Gray
350
3E
  3
Sketchy
350
3F
  3
Thicken
350
37
  3
Wireframe
350
30
  3
X-Ray
350
40
  0
XRECORD
  5
1A8
102
{ACAD_REACTORS
330
C
102
}
330
C
100
AcDbXrecord
280
     1
 90
        1
330
6A
  0
DICTIONARY
  5
1A3
102
{ACAD_REACTORS
330
C
102
}
330
C
100
AcDbDictionary
281
     1
  3
CANNOSCALE
350
1A4
  3
CMLEADERSTYLE
350
1AA
  3
CTABLESTYLE
350
1A9
  0
LAYOUT
  5
15D
102
{ACAD_REACTORS
330
1A
102
}
330
1A
100
AcDbPlotSettings
  1

  2
none_device
  4
ISO_A4_(210.00_x_297.00_MM)
  6

 40
7.5
 41
20.0
 42
7.5
 43
20.0
 44
210.0
 45
297.0
 46
0.0
 47
0.0
 48
0.0
 49
0.0
140
0.0
141
0.0
142
1.0
143
2.2568093385
 70
   688
 72
     1
 73
     1
 74
     1
  7

 75
     0
 76
     0
 77
     2
 78
   300
147
0.4431034483
148
290.0
149
195.0
100
AcDbLayout
  1
_Dimetrisch
 70
     1
 71
    10
 10
0.0
 20
0.0
 11
0.0
 21
0.0
 12
0.0
 22
0.0
 32
0.0
 14
0.0
 24
0.0
 34
0.0
 15
0.0
 25
0.0
 35
0.0
146
0.0
 13
0.0
 23
0.0
 33
0.0
 16
1.0
 26
0.0
 36
0.0
 17
0.0
 27
1.0
 37
0.0
 76
     0
330
15C
331
1A1
  0
LAYOUT
  5
113
102
{ACAD_REACTORS
330
1A
102
}
330
1A
100
AcDbPlotSettings
  1

  2
none_device
  4
ISO_A4_(210.00_x_297.00_MM)
  6

 40
7.5
 41
20.0
 42
7.5
 43
20.0
 44
210.0
 45
297.0
 46
0.0
 47
0.0
 48
0.0
 49
0.0
140
0.0
141
0.0
142
1.0
143
2.2568093385
 70
   688
 72
     1
 73
     1
 74
     1
  7

 75
     0
 76
     0
 77
     2
 78
   300
147
0.4431034483
148
290.0
149
195.0
100
AcDbLayout
  1
_Isometrisch
 70
     1
 71
     8
 10
0.0
 20
0.0
 11
0.0
 21
0.0
 12
0.0
 22
0.0
 32
0.0
 14
0.0
 24
0.0
 34
0.0
 15
0.0
 25
0.0
 35
0.0
146
0.0
 13
0.0
 23
0.0
 33
0.0
 16
1.0
 26
0.0
 36
0.0
 17
0.0
 27
1.0
 37
0.0
 76
     0
330
112
331
19D
  0
LAYOUT
  5
B8
102
{ACAD_REACTORS
330
1A
102
}
330
1A
100
AcDbPlotSettings
  1

  2
none_device
  4
ISO_A4_(210.00_x_297.00_MM)
  6

 40
7.5
 41
20.0
 42
7.5
 43
20.0
 44
210.0
 45
297.0
 46
0.0
 47
0.0
 48
0.0
 49
0.0
140
0.0
141
0.0
142
1.0
143
2.2568093385
 70
   688
 72
     1
 73
     1
 74
     1
  7

 75
     0
 76
     0
 77
     2
 78
   300
147
0.4431034483
148
290.0
149
195.0
100
AcDbLayout
  1
_Links
 70
     1
 71
     3
 10
0.0
 20
0.0
 11
0.0
 21
0.0
 12
0.0
 22
0.0
 32
0.0
 14
0.0
 24
0.0
 34
0.0
 15
0.0
 25
0.0
 35
0.0
146
0.0
 13
0.0
 23
0.0
 33
0.0
 16
1.0
 26
0.0
 36
0.0
 17
0.0
 27
1.0
 37
0.0
 76
     0
330
B7
331
193
  0
LAYOUT
  5
D2
102
{ACAD_REACTORS
330
1A
102
}
330
1A
100
AcDbPlotSettings
  1

  2
none_device
  4
ISO_A4_(210.00_x_297.00_MM)
  6

 40
7.5
 41
20.0
 42
7.5
 43
20.0
 44
210.0
 45
297.0
 46
0.0
 47
0.0
 48
0.0
 49
0.0
140
0.0
141
0.0
142
1.0
143
2.2568093385
 70
   688
 72
     1
 73
     1
 74
     1
  7

 75
     0
 76
     0
 77
     2
 78
   300
147
0.4431034483
148
290.0
149
195.0
100
AcDbLayout
  1
_Normal auf
 70
     1
 71
     4
 10
0.0
 20
0.0
 11
0.0
 21
0.0
 12
0.0
 22
0.0
 32
0.0
 14
0.0
 24
0.0
 34
0.0
 15
0.0
 25
0.0
 35
0.0
146
0.0
 13
0.0
 23
0.0
 33
0.0
 16
1.0
 26
0.0
 36
0.0
 17
0.0
 27
1.0
 37
0.0
 76
     0
330
D1
331
195
  0
LAYOUT
  5
1E
102
{ACAD_REACTORS
330
1A
102
}
330
1A
100
AcDbPlotSettings
  1

  2
none_device
  4
ISO_A4_(210.00_x_297.00_MM)
  6

 40
7.5
 41
20.0
 42
7.5
 43
20.0
 44
210.0
 45
297.0
 46
0.0
 47
0.0
 48
0.0
 49
0.0
140
0.0
141
0.0
142
1.0
143
2.2568093385
 70
   688
 72
     1
 73
     1
 74
     1
  7

 75
     0
 76
     0
 77
     2
 78
   300
147
0.4431034483
148
290.0
149
195.0
100
AcDbLayout
  1
_Oben
 70
     1
 71
     1
 10
-335.1361867704
 20
-211.9260700389
 11
335.1361867704
 21
262.0038910506
 12
0.0
 22
0.0
 32
0.0
 14
-290.0
 24
-195.0
 34
0.0
 15
290.0
 25
195.0
 35
0.0
146
0.0
 13
0.0
 23
0.0
 33
0.0
 16
1.0
 26
0.0
 36
0.0
 17
0.0
 27
1.0
 37
0.0
 76
     0
330
1B
331
18F
  0
LAYOUT
  5
F7
102
{ACAD_REACTORS
330
1A
102
}
330
1A
100
AcDbPlotSettings
  1

  2
none_device
  4
ISO_A4_(210.00_x_297.00_MM)
  6

 40
7.5
 41
20.0
 42
7.5
 43
20.0
 44
210.0
 45
297.0
 46
0.0
 47
0.0
 48
0.0
 49
0.0
140
0.0
141
0.0
142
1.0
143
2.2568093385
 70
   688
 72
     1
 73
     1
 74
     1
  7

 75
     0
 76
     0
 77
     2
 78
   300
147
0.4431034483
148
290.0
149
195.0
100
AcDbLayout
  1
_Rechts
 70
     1
 71
     6
 10
0.0
 20
0.0
 11
0.0
 21
0.0
 12
0.0
 22
0.0
 32
0.0
 14
0.0
 24
0.0
 34
0.0
 15
0.0
 25
0.0
 35
0.0
146
0.0
 13
0.0
 23
0.0
 33
0.0
 16
1.0
 26
0.0
 36
0.0
 17
0.0
 27
1.0
 37
0.0
 76
     0
330
F6
331
199
  0
LAYOUT
  5
E7
102
{ACAD_REACTORS
330
1A
102
}
330
1A
100
AcDbPlotSettings
  1

  2
none_device
  4
ISO_A4_(210.00_x_297.00_MM)
  6

 40
7.5
 41
20.0
 42
7.5
 43
20.0
 44
210.0
 45
297.0
 46
0.0
 47
0.0
 48
0.0
 49
0.0
140
0.0
141
0.0
142
1.0
143
2.2568093385
 70
   688
 72
     1
 73
     1
 74
     1
  7

 75
     0
 76
     0
 77
     2
 78
   300
147
0.4431034483
148
290.0
149
195.0
100
AcDbLayout
  1
_Rückseite
 70
     1
 71
     5
 10
0.0
 20
0.0
 11
0.0
 21
0.0
 12
0.0
 22
0.0
 32
0.0
 14
0.0
 24
0.0
 34
0.0
 15
0.0
 25
0.0
 35
0.0
146
0.0
 13
0.0
 23
0.0
 33
0.0
 16
1.0
 26
0.0
 36
0.0
 17
0.0
 27
1.0
 37
0.0
 76
     0
330
E6
331
197
  0
LAYOUT
  5
13C
102
{ACAD_REACTORS
330
1A
102
}
330
1A
100
AcDbPlotSettings
  1

  2
none_device
  4
ISO_A4_(210.00_x_297.00_MM)
  6

 40
7.5
 41
20.0
 42
7.5
 43
20.0
 44
210.0
 45
297.0
 46
0.0
 47
0.0
 48
0.0
 49
0.0
140
0.0
141
0.0
142
1.0
143
2.2568093385
 70
   688
 72
     1
 73
     1
 74
     1
  7

 75
     0
 76
     0
 77
     2
 78
   300
147
0.4431034483
148
290.0
149
195.0
100
AcDbLayout
  1
_Trimetrisch
 70
     1
 71
     9
 10
0.0
 20
0.0
 11
0.0
 21
0.0
 12
0.0
 22
0.0
 32
0.0
 14
0.0
 24
0.0
 34
0.0
 15
0.0
 25
0.0
 35
0.0
146
0.0
 13
0.0
 23
0.0
 33
0.0
 16
1.0
 26
0.0
 36
0.0
 17
0.0
 27
1.0
 37
0.0
 76
     0
330
13B
331
19F
  0
LAYOUT
  5
10B
102
{ACAD_REACTORS
330
1A
102
}
330
1A
100
AcDbPlotSettings
  1

  2
none_device
  4
ISO_A4_(210.00_x_297.00_MM)
  6

 40
7.5
 41
20.0
 42
7.5
 43
20.0
 44
210.0
 45
297.0
 46
0.0
 47
0.0
 48
0.0
 49
0.0
140
0.0
141
0.0
142
1.0
143
2.2568093385
 70
   688
 72
     1
 73
     1
 74
     1
  7

 75
     0
 76
     0
 77
     2
 78
   300
147
0.4431034483
148
290.0
149
195.0
100
AcDbLayout
  1
_Unten
 70
     1
 71
     7
 10
0.0
 20
0.0
 11
0.0
 21
0.0
 12
0.0
 22
0.0
 32
0.0
 14
0.0
 24
0.0
 34
0.0
 15
0.0
 25
0.0
 35
0.0
146
0.0
 13
0.0
 23
0.0
 33
0.0
 16
1.0
 26
0.0
 36
0.0
 17
0.0
 27
1.0
 37
0.0
 76
     0
330
10A
331
19B
  0
LAYOUT
  5
26
102
{ACAD_REACTORS
330
1A
102
}
330
1A
100
AcDbPlotSettings
  1

  2
none_device
  4
ISO_A4_(210.00_x_297.00_MM)
  6

 40
7.5
 41
20.0
 42
7.5
 43
20.0
 44
210.0
 45
297.0
 46
0.0
 47
0.0
 48
0.0
 49
0.0
140
0.0
141
0.0
142
1.0
143
2.2568093385
 70
   688
 72
     1
 73
     1
 74
     1
  7

 75
     0
 76
     0
 77
     2
 78
   300
147
0.4431034483
148
290.0
149
195.0
100
AcDbLayout
  1
_Vorderseite
 70
     1
 71
     2
 10
0.0
 20
0.0
 11
0.0
 21
0.0
 12
0.0
 22
0.0
 32
0.0
 14
0.0
 24
0.0
 34
0.0
 15
0.0
 25
0.0
 35
0.0
146
0.0
 13
0.0
 23
0.0
 33
0.0
 16
1.0
 26
0.0
 36
0.0
 17
0.0
 27
1.0
 37
0.0
 76
     0
330
23
331
191
  0
LAYOUT
  5
22
102
{ACAD_REACTORS
330
1A
102
}
330
1A
100
AcDbPlotSettings
  1

  2
none_device
  4
ANSI_A_(11.00_x_8.50_Inches)
  6

 40
6.35
 41
19.05
 42
6.35000508
 43
19.05000254
 44
279.4
 45
215.9
 46
133.34999746
 47
98.4874649741
 48
0.0
 49
0.0
140
0.0
141
0.0
142
0.0220359355
143
1.0
 70
  1696
 72
     0
 73
     0
 74
     0
  7

 75
     0
 76
     0
 77
     2
 78
   300
147
0.0179189148
148
-1300.4909072572
149
0.0
100
AcDbLayout
  1
Model
 70
     1
 71
     0
 10
0.0
 20
0.0
 11
420.0
 21
297.0
 12
0.0
 22
0.0
 32
0.0
 14
-247.0963848388
 24
-176.9042296022
 34
0.0
 15
247.0963848388
 25
142.6457066682
 35
0.0
146
0.0
 13
0.0
 23
0.0
 33
0.0
 16
1.0
 26
0.0
 36
0.0
 17
0.0
 27
1.0
 37
0.0
 76
     0
330
1F
331
29
  0
MATERIAL
  5
45
102
{ACAD_REACTORS
330
43
102
}
330
43
100
AcDbMaterial
  1
ByBlock
 72
     1
 94
      127
  0
MATERIAL
  5
44
102
{ACAD_REACTORS
330
43
102
}
330
43
100
AcDbMaterial
  1
ByLayer
 72
     1
 94
      127
  0
MATERIAL
  5
46
102
{ACAD_REACTORS
330
43
102
}
330
43
100
AcDbMaterial
  1
Global
 72
     1
 94
      127
  0
MLEADERSTYLE
  5
6C
102
{ACAD_REACTORS
330
6B
102
}
330
6B
100
AcDbMLeaderStyle
170
     2
171
     1
172
     0
 90
        2
 40
0.0
 41
0.0
173
     1
 91
-1056964608
340
14
 92
       -2
290
     1
 42
2.0
291
     1
 43
8.0
  3
Standard
341
0
 44
4.0
300

342
11
174
     1
178
     6
175
     1
176
     0
 93
-1056964608
 45
4.0
292
     0
297
     0
 46
4.0
343
0
 94
-1056964608
 47
1.0
 49
1.0
140
1.0
293
     1
141
0.0
294
     1
177
     0
142
1.0
295
     0
296
     0
143
3.75
1001
ACAD_MLEADERVER
1070
     2
  0
MLINESTYLE
  5
18
102
{ACAD_REACTORS
330
17
102
}
330
17
100
AcDbMlineStyle
  2
Standard
 70
     0
  3

 62
   256
 51
90.0
 52
90.0
 71
     2
 49
0.5
 62
   256
  6
BYLAYER
 49
-0.5
 62
   256
  6
BYLAYER
  0
ACDBPLACEHOLDER
  5
F
102
{ACAD_REACTORS
330
E
102
}
330
E
  0
SCALE
  5
48
102
{ACAD_REACTORS
330
47
102
}
330
47
100
AcDbScale
 70
     0
300
1:1
140
1.0
141
1.0
290
     1
  0
SCALE
  5
49
102
{ACAD_REACTORS
330
47
102
}
330
47
100
AcDbScale
 70
     0
300
1:2
140
1.0
141
2.0
290
     0
  0
SCALE
  5
4A
102
{ACAD_REACTORS
330
47
102
}
330
47
100
AcDbScale
 70
     0
300
1:4
140
1.0
141
4.0
290
     0
  0
SCALE
  5
4B
102
{ACAD_REACTORS
330
47
102
}
330
47
100
AcDbScale
 70
     0
300
1:5
140
1.0
141
5.0
290
     0
  0
SCALE
  5
4C
102
{ACAD_REACTORS
330
47
102
}
330
47
100
AcDbScale
 70
     0
300
1:8
140
1.0
141
8.0
290
     0
  0
SCALE
  5
4D
102
{ACAD_REACTORS
330
47
102
}
330
47
100
AcDbScale
 70
     0
300
1:10
140
1.0
141
10.0
290
     0
  0
SCALE
  5
4E
102
{ACAD_REACTORS
330
47
102
}
330
47
100
AcDbScale
 70
     0
300
1:16
140
1.0
141
16.0
290
     0
  0
SCALE
  5
4F
102
{ACAD_REACTORS
330
47
102
}
330
47
100
AcDbScale
 70
     0
300
1:20
140
1.0
141
20.0
290
     0
  0
SCALE
  5
50
102
{ACAD_REACTORS
330
47
102
}
330
47
100
AcDbScale
 70
     0
300
1:30
140
1.0
141
30.0
290
     0
  0
SCALE
  5
51
102
{ACAD_REACTORS
330
47
102
}
330
47
100
AcDbScale
 70
     0
300
1:40
140
1.0
141
40.0
290
     0
  0
SCALE
  5
52
102
{ACAD_REACTORS
330
47
102
}
330
47
100
AcDbScale
 70
     0
300
1:50
140
1.0
141
50.0
290
     0
  0
SCALE
  5
53
102
{ACAD_REACTORS
330
47
102
}
330
47
100
AcDbScale
 70
     0
300
1:100
140
1.0
141
100.0
290
     0
  0
SCALE
  5
54
102
{ACAD_REACTORS
330
47
102
}
330
47
100
AcDbScale
 70
     0
300
2:1
140
2.0
141
1.0
290
     0
  0
SCALE
  5
55
102
{ACAD_REACTORS
330
47
102
}
330
47
100
AcDbScale
 70
     0
300
4:1
140
4.0
141
1.0
290
     0
  0
SCALE
  5
56
102
{ACAD_REACTORS
330
47
102
}
330
47
100
AcDbScale
 70
     0
300
8:1
140
8.0
141
1.0
290
     0
  0
SCALE
  5
57
102
{ACAD_REACTORS
330
47
102
}
330
47
100
AcDbScale
 70
     0
300
10:1
140
10.0
141
1.0
290
     0
  0
SCALE
  5
58
102
{ACAD_REACTORS
330
47
102
}
330
47
100
AcDbScale
 70
     0
300
100:1
140
100.0
141
1.0
290
     0
  0
SCALE
  5
59
102
{ACAD_REACTORS
330
47
102
}
330
47
100
AcDbScale
 70
     0
300
1/128" = 1'-0"
140
0.0078125
141
12.0
290
     0
  0
SCALE
  5
5A
102
{ACAD_REACTORS
330
47
102
}
330
47
100
AcDbScale
 70
     0
300
1/64" = 1'-0"
140
0.015625
141
12.0
290
     0
  0
SCALE
  5
5B
102
{ACAD_REACTORS
330
47
102
}
330
47
100
AcDbScale
 70
     0
300
1/32" = 1'-0"
140
0.03125
141
12.0
290
     0
  0
SCALE
  5
5C
102
{ACAD_REACTORS
330
47
102
}
330
47
100
AcDbScale
 70
     0
300
1/16" = 1'-0"
140
0.0625
141
12.0
290
     0
  0
SCALE
  5
5D
102
{ACAD_REACTORS
330
47
102
}
330
47
100
AcDbScale
 70
     0
300
3/32" = 1'-0"
140
0.09375
141
12.0
290
     0
  0
SCALE
  5
5E
102
{ACAD_REACTORS
330
47
102
}
330
47
100
AcDbScale
 70
     0
300
1/8" = 1'-0"
140
0.125
141
12.0
290
     0
  0
SCALE
  5
5F
102
{ACAD_REACTORS
330
47
102
}
330
47
100
AcDbScale
 70
     0
300
3/16" = 1'-0"
140
0.1875
141
12.0
290
     0
  0
SCALE
  5
60
102
{ACAD_REACTORS
330
47
102
}
330
47
100
AcDbScale
 70
     0
300
1/4" = 1'-0"
140
0.25
141
12.0
290
     0
  0
SCALE
  5
61
102
{ACAD_REACTORS
330
47
102
}
330
47
100
AcDbScale
 70
     0
300
3/8" = 1'-0"
140
0.375
141
12.0
290
     0
  0
SCALE
  5
62
102
{ACAD_REACTORS
330
47
102
}
330
47
100
AcDbScale
 70
     0
300
1/2" = 1'-0"
140
0.5
141
12.0
290
     0
  0
SCALE
  5
63
102
{ACAD_REACTORS
330
47
102
}
330
47
100
AcDbScale
 70
     0
300
3/4" = 1'-0"
140
0.75
141
12.0
290
     0
  0
SCALE
  5
64
102
{ACAD_REACTORS
330
47
102
}
330
47
100
AcDbScale
 70
     0
300
1" = 1'-0"
140
1.0
141
12.0
290
     0
  0
SCALE
  5
65
102
{ACAD_REACTORS
330
47
102
}
330
47
100
AcDbScale
 70
     0
300
1-1/2" = 1'-0"
140
1.5
141
12.0
290
     0
  0
SCALE
  5
66
102
{ACAD_REACTORS
330
47
102
}
330
47
100
AcDbScale
 70
     0
300
3" = 1'-0"
140
3.0
141
12.0
290
     0
  0
SCALE
  5
67
102
{ACAD_REACTORS
330
47
102
}
330
47
100
AcDbScale
 70
     0
300
6" = 1'-0"
140
6.0
141
12.0
290
     0
  0
SCALE
  5
68
102
{ACAD_REACTORS
330
47
102
}
330
47
100
AcDbScale
 70
     0
300
1'-0" = 1'-0"
140
12.0
141
12.0
290
     0
  0
TABLESTYLE
  5
6A
102
{ACAD_REACTORS
330
69
102
}
102
{ACAD_XDICTIONARY
360
1A5
102
}
330
69
100
AcDbTableStyle
  3
Standard
 70
     0
 71
     0
 40
0.06
 41
0.06
280
     0
281
     0
  7
Standard
140
4.5
170
     2
 62
     0
 63
   257
283
     0
 90
        4
 91
        0
  1

274
    -2
284
     1
 64
     0
275
    -2
285
     1
 65
     0
276
    -2
286
     1
 66
     0
277
    -2
287
     1
 67
     0
278
    -2
288
     1
 68
     0
279
    -2
289
     1
 69
     0
  7
Standard
140
6.0
170
     5
 62
     0
 63
   257
283
     0
 90
        4
 91
        0
  1

274
    -2
284
     1
 64
     0
275
    -2
285
     1
 65
     0
276
    -2
286
     1
 66
     0
277
    -2
287
     1
 67
     0
278
    -2
288
     1
 68
     0
279
    -2
289
     1
 69
     0
  7
Standard
140
4.5
170
     5
 62
     0
 63
   257
283
     0
 90
        4
 91
        0
  1

274
    -2
284
     1
 64
     0
275
    -2
285
     1
 65
     0
276
    -2
286
     1
 66
     0
277
    -2
287
     1
 67
     0
278
    -2
288
     1
 68
     0
279
    -2
289
     1
 69
     0
  0
VISUALSTYLE
  5
2F
102
{ACAD_REACTORS
330
2A
102
}
330
2A
100
AcDbVisualStyle
  2
2dWireframe
 70
     4
 71
     0
 72
     2
 73
     0
 90
        0
 40
0.6
 41
30.0
 62
     5
 63
     7
421
 16777215
 74
     1
 91
        4
 64
     7
 65
   257
 75
     1
175
     1
 42
1.0
 92
        0
 66
   257
 43
1.0
 76
     1
 77
     6
 78
     2
 67
     7
 79
     5
170
     0
171
     0
290
     0
174
     0
 93
        1
 44
0.0
173
     0
291
     0
 45
0.0
  0
VISUALSTYLE
  5
32
102
{ACAD_REACTORS
330
2A
102
}
330
2A
100
AcDbVisualStyle
  2
Basic
 70
     7
 71
     1
 72
     0
 73
     1
 90
        0
 40
0.6
 41
30.0
 62
     5
 63
     7
421
 16777215
 74
     0
 91
        4
 64
     7
 65
   257
 75
     1
175
     1
 42
1.0
 92
        8
 66
     7
 43
1.0
 76
     1
 77
     6
 78
     2
 67
     7
 79
     5
170
     0
171
     0
290
     0
174
     0
 93
        1
 44
0.0
173
     0
291
     1
 45
0.0
  0
VISUALSTYLE
  5
36
102
{ACAD_REACTORS
330
2A
102
}
330
2A
100
AcDbVisualStyle
  2
Brighten
 70
    12
 71
     2
 72
     2
 73
     0
 90
        0
 40
0.6
 41
30.0
 62
     5
 63
     7
421
 16777215
 74
     1
 91
        4
 64
     7
 65
   257
 75
     1
175
     1
 42
1.0
 92
        8
 66
     7
 43
1.0
 76
     1
 77
     6
 78
     2
 67
     7
 79
     5
170
     0
171
     0
290
     0
174
     0
 93
        1
 44
50.0
173
     0
291
     1
 45
0.0
  0
VISUALSTYLE
  5
3A
102
{ACAD_REACTORS
330
2A
102
}
330
2A
100
AcDbVisualStyle
  2
ColorChange
 70
    16
 71
     2
 72
     2
 73
     3
 90
        0
 40
0.6
 41
30.0
 62
     5
 63
     8
421
  8421504
 74
     1
 91
        4
 64
     7
 65
   257
 75
     1
175
     1
 42
1.0
 92
        8
 66
     8
424
  8421504
 43
1.0
 76
     1
 77
     6
 78
     2
 67
     7
 79
     5
170
     0
171
     0
290
     0
174
     0
 93
        1
 44
0.0
173
     0
291
     1
 45
0.0
  0
VISUALSTYLE
  5
34
102
{ACAD_REACTORS
330
2A
102
}
330
2A
100
AcDbVisualStyle
  2
Conceptual
 70
     9
 71
     3
 72
     2
 73
     0
 90
        0
 40
0.6
 41
30.0
 62
     5
 63
     7
421
 16777215
 74
     2
 91
        2
 64
     7
 65
   257
 75
     1
175
     1
 42
179.0
 92
        8
 66
     7
 43
1.0
 76
     1
 77
     6
 78
     2
 67
     7
 79
     3
170
     0
171
     0
290
     0
174
     0
 93
        1
 44
0.0
173
     0
291
     0
 45
0.0
  0
VISUALSTYLE
  5
35
102
{ACAD_REACTORS
330
2A
102
}
330
2A
100
AcDbVisualStyle
  2
Dim
 70
    11
 71
     2
 72
     2
 73
     0
 90
        0
 40
0.6
 41
30.0
 62
     5
 63
     7
421
 16777215
 74
     1
 91
        4
 64
     7
 65
   257
 75
     1
175
     1
 42
1.0
 92
        8
 66
     7
 43
1.0
 76
     1
 77
     6
 78
     2
 67
     7
 79
     5
170
     0
171
     0
290
     0
174
     0
 93
        1
 44
-50.0
173
     0
291
     1
 45
0.0
  0
VISUALSTYLE
  5
3D
102
{ACAD_REACTORS
330
2A
102
}
330
2A
100
AcDbVisualStyle
  2
EdgeColorOff
 70
    22
 71
     2
 72
     2
 73
     0
 90
        0
 40
0.6
 41
30.0
 62
     5
 63
     7
421
 16777215
 74
     1
 91
        4
 64
     7
 65
   257
 75
     1
175
     1
 42
1.0
 92
        8
 66
     7
 43
1.0
 76
     1
 77
     6
 78
     2
 67
     7
 79
     5
170
     0
171
     0
290
     0
174
     0
 93
        1
 44
0.0
173
     0
291
     1
 45
0.0
  0
VISUALSTYLE
  5
39
102
{ACAD_REACTORS
330
2A
102
}
330
2A
100
AcDbVisualStyle
  2
Facepattern
 70
    15
 71
     2
 72
     2
 73
     0
 90
        0
 40
0.6
 41
30.0
 62
     5
 63
     7
421
 16777215
 74
     1
 91
        4
 64
     7
 65
   257
 75
     1
175
     1
 42
1.0
 92
        8
 66
     7
 43
1.0
 76
     1
 77
     6
 78
     2
 67
     7
 79
     5
170
     0
171
     0
290
     0
174
     0
 93
        1
 44
0.0
173
     0
291
     1
 45
0.0
  0
VISUALSTYLE
  5
2B
102
{ACAD_REACTORS
330
2A
102
}
330
2A
100
AcDbVisualStyle
  2
Flat
 70
     0
 71
     2
 72
     1
 73
     1
 90
        2
 40
0.6
 41
30.0
 62
     5
 63
     7
421
 16777215
 74
     0
 91
        0
 64
     7
 65
   257
 75
     1
175
     1
 42
1.0
 92
        8
 66
     7
 43
1.0
 76
     1
 77
     6
 78
     2
 67
     7
 79
     5
170
     0
171
     0
290
     0
174
     0
 93
       13
 44
0.0
173
     0
291
     1
 45
0.0
  0
VISUALSTYLE
  5
2C
102
{ACAD_REACTORS
330
2A
102
}
330
2A
100
AcDbVisualStyle
  2
FlatWithEdges
 70
     1
 71
     2
 72
     1
 73
     1
 90
        2
 40
0.6
 41
30.0
 62
     5
 63
     7
421
 16777215
 74
     1
 91
        0
 64
     7
 65
   257
 75
     1
175
     1
 42
1.0
 92
        0
 66
   257
 43
1.0
 76
     1
 77
     6
 78
     2
 67
     7
 79
     5
170
     0
171
     0
290
     0
174
     0
 93
       13
 44
0.0
173
     0
291
     1
 45
0.0
  0
VISUALSTYLE
  5
2D
102
{ACAD_REACTORS
330
2A
102
}
330
2A
100
AcDbVisualStyle
  2
Gouraud
 70
     2
 71
     2
 72
     2
 73
     1
 90
        2
 40
0.6
 41
30.0
 62
     5
 63
     7
421
 16777215
 74
     0
 91
        0
 64
     7
 65
   257
 75
     1
175
     1
 42
1.0
 92
        0
 66
     7
 43
1.0
 76
     1
 77
     6
 78
     2
 67
     7
 79
     5
170
     0
171
     0
290
     0
174
     0
 93
       13
 44
0.0
173
     0
291
     1
 45
0.0
  0
VISUALSTYLE
  5
2E
102
{ACAD_REACTORS
330
2A
102
}
330
2A
100
AcDbVisualStyle
  2
GouraudWithEdges
 70
     3
 71
     2
 72
     2
 73
     1
 90
        2
 40
0.6
 41
30.0
 62
     5
 63
     7
421
 16777215
 74
     1
 91
        0
 64
     7
 65
   257
 75
     1
175
     1
 42
1.0
 92
        0
 66
   257
 43
1.0
 76
     1
 77
     6
 78
     2
 67
     7
 79
     5
170
     0
171
     0
290
     0
174
     0
 93
       13
 44
0.0
173
     0
291
     1
 45
0.0
  0
VISUALSTYLE
  5
31
102
{ACAD_REACTORS
330
2A
102
}
330
2A
100
AcDbVisualStyle
  2
Hidden
 70
     6
 71
     1
 72
     2
 73
     2
 90
        0
 40
0.6
 41
30.0
 62
     5
 63
     7
421
 16777215
 74
     2
 91
        2
 64
     7
 65
   257
 75
     2
175
     1
 42
40.0
 92
        0
 66
   257
 43
1.0
 76
     1
 77
     6
 78
     2
 67
     7
 79
     3
170
     0
171
     0
290
     0
174
     0
 93
        1
 44
0.0
173
     0
291
     0
 45
0.0
  0
VISUALSTYLE
  5
3B
102
{ACAD_REACTORS
330
2A
102
}
330
2A
100
AcDbVisualStyle
  2
JitterOff
 70
    20
 71
     2
 72
     2
 73
     0
 90
        0
 40
0.6
 41
30.0
 62
     5
 63
     7
421
 16777215
 74
     1
 91
        4
 64
     7
 65
   257
 75
     1
175
     1
 42
1.0
 92
       10
 66
     7
 43
1.0
 76
     1
 77
     6
 78
     2
 67
     7
 79
     5
170
     0
171
     0
290
     0
174
     0
 93
        1
 44
0.0
173
     0
291
     1
 45
0.0
  0
VISUALSTYLE
  5
38
102
{ACAD_REACTORS
330
2A
102
}
330
2A
100
AcDbVisualStyle
  2
Linepattern
 70
    14
 71
     2
 72
     2
 73
     0
 90
        0
 40
0.6
 41
30.0
 62
     5
 63
     7
421
 16777215
 74
     1
 91
        4
 64
     7
 65
   257
 75
     7
175
     7
 42
1.0
 92
        8
 66
     7
 43
1.0
 76
     1
 77
     6
 78
     2
 67
     7
 79
     5
170
     0
171
     0
290
     0
174
     0
 93
        1
 44
0.0
173
     0
291
     1
 45
0.0
  0
VISUALSTYLE
  5
3C
102
{ACAD_REACTORS
330
2A
102
}
330
2A
100
AcDbVisualStyle
  2
OverhangOff
 70
    21
 71
     2
 72
     2
 73
     0
 90
        0
 40
0.6
 41
30.0
 62
     5
 63
     7
421
 16777215
 74
     1
 91
        4
 64
     7
 65
   257
 75
     1
175
     1
 42
1.0
 92
        9
 66
     7
 43
1.0
 76
     1
 77
     6
 78
     2
 67
     7
 79
     5
170
     0
171
     0
290
     0
174
     0
 93
        1
 44
0.0
173
     0
291
     1
 45
0.0
  0
VISUALSTYLE
  5
33
102
{ACAD_REACTORS
330
2A
102
}
330
2A
100
AcDbVisualStyle
  2
Realistic
 70
     8
 71
     2
 72
     3
 73
     0
 90
        2
 40
0.6
 41
30.0
 62
     5
 63
     7
421
 16777215
 74
     0
 91
        0
 64
     7
 65
   257
 75
     1
175
     1
 42
1.0
 92
        8
 66
   257
 43
1.0
 76
     1
 77
     6
 78
     2
 67
     7
 79
     3
170
     0
171
     0
290
     0
174
     0
 93
       13
 44
0.0
173
     0
291
     0
 45
0.0
  0
VISUALSTYLE
  5
42
102
{ACAD_REACTORS
330
2A
102
}
330
2A
100
AcDbVisualStyle
  2
Shaded
 70
    27
 71
     2
 72
     2
 73
     1
 90
        2
 40
0.6
 41
30.0
 62
     5
 63
     7
421
 16777215
 74
     0
 91
        4
 64
     7
 65
   257
 75
     1
175
     1
 42
1.0
 92
        8
 66
   257
 43
1.0
 76
     1
 77
     6
 78
     2
 67
     8
425
  7895160
 79
     3
170
     0
171
     0
290
     0
174
     0
 93
        5
 44
0.0
173
     0
291
     0
 45
0.0
  0
VISUALSTYLE
  5
41
102
{ACAD_REACTORS
330
2A
102
}
330
2A
100
AcDbVisualStyle
  2
Shaded with edges
 70
    26
 71
     2
 72
     2
 73
     1
 90
        2
 40
0.6
 41
30.0
 62
     5
 63
     7
421
 16777215
 74
     1
 91
       10
 64
     7
 65
   257
 75
     2
175
     1
 42
1.0
 92
        8
 66
   257
 43
1.0
 76
     1
 77
     6
 78
     2
 67
     7
 79
     3
170
     0
171
     0
290
     0
174
     0
 93
        5
 44
0.0
173
     0
291
     0
 45
0.0
  0
VISUALSTYLE
  5
3E
102
{ACAD_REACTORS
330
2A
102
}
330
2A
100
AcDbVisualStyle
  2
Shades of Gray
 70
    23
 71
     2
 72
     2
 73
     3
 90
        0
 40
0.6
 41
30.0
 62
     5
 63
     7
421
 16777215
 74
     2
 91
        2
 64
     7
 65
     7
 75
     1
175
     1
 42
40.0
 92
        8
 66
     7
 43
1.0
 76
     1
 77
     6
 78
     2
 67
     7
 79
     3
170
     0
171
     0
290
     0
174
     0
 93
        1
 44
0.0
173
     0
291
     0
 45
0.0
  0
VISUALSTYLE
  5
3F
102
{ACAD_REACTORS
330
2A
102
}
330
2A
100
AcDbVisualStyle
  2
Sketchy
 70
    24
 71
     1
 72
     2
 73
     2
 90
        0
 40
0.6
 41
30.0
 62
     5
 63
     7
421
 16777215
 74
     2
 91
        2
 64
     7
 65
     7
 75
     1
175
     1
 42
40.0
 92
       11
 66
     7
 43
1.0
 76
     1
 77
     6
 78
     2
 67
     7
 79
     6
170
     0
171
     0
290
     0
174
     0
 93
        1
 44
0.0
173
     0
291
     0
 45
0.0
  0
VISUALSTYLE
  5
37
102
{ACAD_REACTORS
330
2A
102
}
330
2A
100
AcDbVisualStyle
  2
Thicken
 70
    13
 71
     2
 72
     2
 73
     0
 90
        0
 40
0.6
 41
30.0
 62
     5
 63
     7
421
 16777215
 74
     1
 91
        4
 64
     7
 65
   257
 75
     1
175
     1
 42
1.0
 92
       12
 66
     7
 43
1.0
 76
     1
 77
     6
 78
     2
 67
     7
 79
     5
170
     0
171
     0
290
     0
174
     0
 93
        1
 44
0.0
173
     0
291
     1
 45
0.0
  0
VISUALSTYLE
  5
30
102
{ACAD_REACTORS
330
2A
102
}
330
2A
100
AcDbVisualStyle
  2
Wireframe
 70
     5
 71
     0
 72
     2
 73
     0
 90
        0
 40
0.6
 41
30.0
 62
     5
 63
     7
421
 16777215
 74
     1
 91
        4
 64
     7
 65
   257
 75
     1
175
     1
 42
1.0
 92
        0
 66
   257
 43
1.0
 76
     1
 77
     6
 78
     2
 67
     7
 79
     3
170
     0
171
     0
290
     0
174
     0
 93
        1
 44
0.0
173
     0
291
     0
 45
0.0
  0
VISUALSTYLE
  5
40
102
{ACAD_REACTORS
330
2A
102
}
330
2A
100
AcDbVisualStyle
  2
X-Ray
 70
    25
 71
     2
 72
     2
 73
     1
 90
        1
 40
0.5
 41
30.0
 62
     5
 63
     7
421
 16777215
 74
     1
 91
        0
 64
     7
 65
   257
 75
     1
175
     1
 42
1.0
 92
        8
 66
     7
 43
1.0
 76
     1
 77
     6
 78
     2
 67
     7
 79
     3
170
     0
171
     0
290
     0
174
     0
 93
       13
 44
0.0
173
     0
291
     0
 45
0.0
  0
DICTIONARYVAR
  5
1A4
102
{ACAD_REACTORS
330
1A3
102
}
330
1A3
100
DictionaryVariables
280
     0
  1
1:1
  0
DICTIONARYVAR
  5
1AA
102
{ACAD_REACTORS
330
1A3
102
}
330
1A3
100
DictionaryVariables
280
     0
  1
Standard
  0
DICTIONARYVAR
  5
1A9
102
{ACAD_REACTORS
330
1A3
102
}
330
1A3
100
DictionaryVariables
280
     0
  1
Standard
  0
DICTIONARY
  5
1A5
330
6A
100
AcDbDictionary
280
     1
281
     1
  3
ACAD_ROUNDTRIP_2008_TABLESTYLE_CELLSTYLEMAP
360
1A6
  0
CELLSTYLEMAP
  5
1A6
102
{ACAD_REACTORS
330
1A5
102
}
330
1A5
100
AcDbCellStyleMap
 90
        3
300
CELLSTYLE
  1
TABLEFORMAT_BEGIN
 90
        5
170
     1
 91
        0
 92
    32768
 62
   257
 93
        1
300
CONTENTFORMAT
  1
CONTENTFORMAT_BEGIN
 90
        0
 91
        0
 92
        4
 93
        0
300

 40
0.0
140
1.0
 94
        5
 62
     0
340
11
144
6.0
309
CONTENTFORMAT_END
171
     1
301
MARGIN
  1
CELLMARGIN_BEGIN
 40
1.5
 40
1.5
 40
1.5
 40
1.5
 40
1.5
 40
1.5
309
CELLMARGIN_END
 94
        6
 95
        1
302
GRIDFORMAT
  1
GRIDFORMAT_BEGIN
 90
        0
 91
        1
 62
     0
 92
       -2
340
14
 93
        0
 40
0.045
309
GRIDFORMAT_END
 95
        2
302
GRIDFORMAT
  1
GRIDFORMAT_BEGIN
 90
        0
 91
        1
 62
     0
 92
       -2
340
14
 93
        0
 40
0.045
309
GRIDFORMAT_END
 95
        4
302
GRIDFORMAT
  1
GRIDFORMAT_BEGIN
 90
        0
 91
        1
 62
     0
 92
       -2
340
14
 93
        0
 40
0.045
309
GRIDFORMAT_END
 95
        8
302
GRIDFORMAT
  1
GRIDFORMAT_BEGIN
 90
        0
 91
        1
 62
     0
 92
       -2
340
14
 93
        0
 40
0.045
309
GRIDFORMAT_END
 95
       16
302
GRIDFORMAT
  1
GRIDFORMAT_BEGIN
 90
        0
 91
        1
 62
     0
 92
       -2
340
14
 93
        0
 40
0.045
309
GRIDFORMAT_END
 95
       32
302
GRIDFORMAT
  1
GRIDFORMAT_BEGIN
 90
        0
 91
        1
 62
     0
 92
       -2
340
14
 93
        0
 40
0.045
309
GRIDFORMAT_END
309
TABLEFORMAT_END
  1
CELLSTYLE_BEGIN
 90
        1
 91
        1
300
_TITLE
309
CELLSTYLE_END
300
CELLSTYLE
  1
TABLEFORMAT_BEGIN
 90
        5
170
     1
 91
        0
 92
        0
 62
   257
 93
        1
300
CONTENTFORMAT
  1
CONTENTFORMAT_BEGIN
 90
        0
 91
        0
 92
        4
 93
        0
300

 40
0.0
140
1.0
 94
        5
 62
     0
340
11
144
4.5
309
CONTENTFORMAT_END
171
     1
301
MARGIN
  1
CELLMARGIN_BEGIN
 40
1.5
 40
1.5
 40
1.5
 40
1.5
 40
1.5
 40
1.5
309
CELLMARGIN_END
 94
        6
 95
        1
302
GRIDFORMAT
  1
GRIDFORMAT_BEGIN
 90
        0
 91
        1
 62
     0
 92
       -2
340
14
 93
        0
 40
0.045
309
GRIDFORMAT_END
 95
        2
302
GRIDFORMAT
  1
GRIDFORMAT_BEGIN
 90
        0
 91
        1
 62
     0
 92
       -2
340
14
 93
        0
 40
0.045
309
GRIDFORMAT_END
 95
        4
302
GRIDFORMAT
  1
GRIDFORMAT_BEGIN
 90
        0
 91
        1
 62
     0
 92
       -2
340
14
 93
        0
 40
0.045
309
GRIDFORMAT_END
 95
        8
302
GRIDFORMAT
  1
GRIDFORMAT_BEGIN
 90
        0
 91
        1
 62
     0
 92
       -2
340
14
 93
        0
 40
0.045
309
GRIDFORMAT_END
 95
       16
302
GRIDFORMAT
  1
GRIDFORMAT_BEGIN
 90
        0
 91
        1
 62
     0
 92
       -2
340
14
 93
        0
 40
0.045
309
GRIDFORMAT_END
 95
       32
302
GRIDFORMAT
  1
GRIDFORMAT_BEGIN
 90
        0
 91
        1
 62
     0
 92
       -2
340
14
 93
        0
 40
0.045
309
GRIDFORMAT_END
309
TABLEFORMAT_END
  1
CELLSTYLE_BEGIN
 90
        2
 91
        1
300
_HEADER
309
CELLSTYLE_END
300
CELLSTYLE
  1
TABLEFORMAT_BEGIN
 90
        5
170
     1
 91
        0
 92
        0
 62
   257
 93
        1
300
CONTENTFORMAT
  1
CONTENTFORMAT_BEGIN
 90
        0
 91
        0
 92
        4
 93
        0
300

 40
0.0
140
1.0
 94
        2
 62
     0
340
11
144
4.5
309
CONTENTFORMAT_END
171
     1
301
MARGIN
  1
CELLMARGIN_BEGIN
 40
1.5
 40
1.5
 40
1.5
 40
1.5
 40
1.5
 40
1.5
309
CELLMARGIN_END
 94
        6
 95
        1
302
GRIDFORMAT
  1
GRIDFORMAT_BEGIN
 90
        0
 91
        1
 62
     0
 92
       -2
340
14
 93
        0
 40
0.045
309
GRIDFORMAT_END
 95
        2
302
GRIDFORMAT
  1
GRIDFORMAT_BEGIN
 90
        0
 91
        1
 62
     0
 92
       -2
340
14
 93
        0
 40
0.045
309
GRIDFORMAT_END
 95
        4
302
GRIDFORMAT
  1
GRIDFORMAT_BEGIN
 90
        0
 91
        1
 62
     0
 92
       -2
340
14
 93
        0
 40
0.045
309
GRIDFORMAT_END
 95
        8
302
GRIDFORMAT
  1
GRIDFORMAT_BEGIN
 90
        0
 91
        1
 62
     0
 92
       -2
340
14
 93
        0
 40
0.045
309
GRIDFORMAT_END
 95
       16
302
GRIDFORMAT
  1
GRIDFORMAT_BEGIN
 90
        0
 91
        1
 62
     0
 92
       -2
340
14
 93
        0
 40
0.045
309
GRIDFORMAT_END
 95
       32
302
GRIDFORMAT
  1
GRIDFORMAT_BEGIN
 90
        0
 91
        1
 62
     0
 92
       -2
340
14
 93
        0
 40
0.045
309
GRIDFORMAT_END
309
TABLEFORMAT_END
  1
CELLSTYLE_BEGIN
 90
        3
 91
        2
300
_DATA
309
CELLSTYLE_END
  0
ENDSEC
  0
EOF
