  0
SECTION
  2
HEADER
  9
$ACADVER
  1
AC1015
  9
$ACADMAINTVER
 70
     6
  9
$DWGCODEPAGE
  3
ANSI_1252
  9
$INSBASE
 10
0.0
 20
0.0
 30
0.0
  9
$EXTMIN
 10
-700.0
 20
-450.0
 30
0.0
  9
$EXTMAX
 10
700.0
 20
450.0
 30
0.0
  9
$LIMMIN
 10
0.0
 20
0.0
  9
$LIMMAX
 10
420.0
 20
297.0
  9
$ORTHOMODE
 70
     0
  9
$REGENMODE
 70
     1
  9
$FILLMODE
 70
     1
  9
$QTEXTMODE
 70
     0
  9
$MIRRTEXT
 70
     1
  9
$LTSCALE
 40
1.0
  9
$ATTMODE
 70
     1
  9
$TEXTSIZE
 40
3.5
  9
$TRACEWID
 40
1.0
  9
$TEXTSTYLE
  7
STANDARD
  9
$CLAYER
  8
0
  9
$CELTYPE
  6
ByLayer
  9
$CECOLOR
 62
   256
  9
$CELTSCALE
 40
1.0
  9
$DISPSILH
 70
     0
  9
$DIMSCALE
 40
1.0
  9
$DIMASZ
 40
4.2333333333
  9
$DIMEXO
 40
1.0
  9
$DIMDLI
 40
3.75
  9
$DIMRND
 40
0.0
  9
$DIMDLE
 40
0.0
  9
$DIMEXE
 40
1.0
  9
$DIMTP
 40
0.0
  9
$DIMTM
 40
0.0
  9
$DIMTXT
 40
5.6444444444
  9
$DIMCEN
 40
2.5
  9
$DIMTSZ
 40
0.0
  9
$DIMTOL
 70
     0
  9
$DIMLIM
 70
     0
  9
$DIMTIH
 70
     1
  9
$DIMTOH
 70
     1
  9
$DIMSE1
 70
     0
  9
$DIMSE2
 70
     0
  9
$DIMTAD
 70
     1
  9
$DIMZIN
 70
     0
  9
$DIMBLK
  1

  9
$DIMASO
 70
     1
  9
$DIMSHO
 70
     1
  9
$DIMPOST
  1

  9
$DIMAPOST
  1

  9
$DIMALT
 70
     0
  9
$DIMALTD
 70
     3
  9
$DIMALTF
 40
0.0393700787
  9
$DIMLFAC
 40
1.0
  9
$DIMTOFL
 70
     1
  9
$DIMTVP
 40
0.0
  9
$DIMTIX
 70
     0
  9
$DIMSOXD
 70
     0
  9
$DIMSAH
 70
     0
  9
$DIMBLK1
  1

  9
$DIMBLK2
  1

  9
$DIMSTYLE
  2
ISO-25
  9
$DIMCLRD
 70
     0
  9
$DIMCLRE
 70
     0
  9
$DIMCLRT
 70
     0
  9
$DIMTFAC
 40
1.0
  9
$DIMGAP
 40
1.524
  9
$DIMJUST
 70
     0
  9
$DIMSD1
 70
     0
  9
$DIMSD2
 70
     0
  9
$DIMTOLJ
 70
     0
  9
$DIMTZIN
 70
     0
  9
$DIMALTZ
 70
     0
  9
$DIMALTTZ
 70
     0
  9
$DIMUPT
 70
     0
  9
$DIMDEC
 70
     2
  9
$DIMTDEC
 70
     2
  9
$DIMALTU
 70
     2
  9
$DIMALTTD
 70
     3
  9
$DIMTXSTY
  7
STANDARD
  9
$DIMAUNIT
 70
     0
  9
$DIMADEC
 70
     2
  9
$DIMALTRND
 40
0.0
  9
$DIMAZIN
 70
     0
  9
$DIMDSEP
 70
    44
  9
$DIMATFIT
 70
     3
  9
$DIMFRAC
 70
     0
  9
$DIMLDRBLK
  1

  9
$DIMLUNIT
 70
     2
  9
$DIMLWD
 70
    -2
  9
$DIMLWE
 70
    -2
  9
$DIMTMOVE
 70
     0
  9
$LUNITS
 70
     2
  9
$LUPREC
 70
     2
  9
$SKETCHINC
 40
1.0
  9
$FILLETRAD
 40
10.0
  9
$AUNITS
 70
     0
  9
$AUPREC
 70
     2
  9
$MENU
  1
.
  9
$ELEVATION
 40
0.0
  9
$PELEVATION
 40
0.0
  9
$THICKNESS
 40
0.0
  9
$LIMCHECK
 70
     0
  9
$CHAMFERA
 40
0.0
  9
$CHAMFERB
 40
0.0
  9
$CHAMFERC
 40
0.0
  9
$CHAMFERD
 40
0.0
  9
$SKPOLY
 70
     0
  9
$TDCREATE
 40
2458232.496764861
  9
$TDUCREATE
 40
2458232.413431528
  9
$TDUPDATE
 40
2458232.497047766
  9
$TDUUPDATE
 40
2458232.413714433
  9
$TDINDWG
 40
0.0000000116
  9
$TDUSRTIMER
 40
0.0000000116
  9
$USRTIMER
 70
     1
  9
$ANGBASE
 50
0.0
  9
$ANGDIR
 70
     0
  9
$PDMODE
 70
     0
  9
$PDSIZE
 40
-1.0
  9
$PLINEWID
 40
0.0
  9
$SPLFRAME
 70
     0
  9
$SPLINETYPE
 70
     6
  9
$SPLINESEGS
 70
     8
  9
$HANDSEED
  5
28A
  9
$SURFTAB1
 70
     6
  9
$SURFTAB2
 70
     6
  9
$SURFTYPE
 70
     6
  9
$SURFU
 70
     6
  9
$SURFV
 70
     6
  9
$UCSBASE
  2

  9
$UCSNAME
  2

  9
$UCSORG
 10
0.0
 20
0.0
 30
0.0
  9
$UCSXDIR
 10
1.0
 20
0.0
 30
0.0
  9
$UCSYDIR
 10
0.0
 20
1.0
 30
0.0
  9
$UCSORTHOREF
  2

  9
$UCSORTHOVIEW
 70
     0
  9
$UCSORGTOP
 10
0.0
 20
0.0
 30
0.0
  9
$UCSORGBOTTOM
 10
0.0
 20
0.0
 30
0.0
  9
$UCSORGLEFT
 10
0.0
 20
0.0
 30
0.0
  9
$UCSORGRIGHT
 10
0.0
 20
0.0
 30
0.0
  9
$UCSORGFRONT
 10
0.0
 20
0.0
 30
0.0
  9
$UCSORGBACK
 10
0.0
 20
0.0
 30
0.0
  9
$PUCSBASE
  2

  9
$PUCSNAME
  2

  9
$PUCSORG
 10
0.0
 20
0.0
 30
0.0
  9
$PUCSXDIR
 10
1.0
 20
0.0
 30
0.0
  9
$PUCSYDIR
 10
0.0
 20
1.0
 30
0.0
  9
$PUCSORTHOREF
  2

  9
$PUCSORTHOVIEW
 70
     0
  9
$PUCSORGTOP
 10
0.0
 20
0.0
 30
0.0
  9
$PUCSORGBOTTOM
 10
0.0
 20
0.0
 30
0.0
  9
$PUCSORGLEFT
 10
0.0
 20
0.0
 30
0.0
  9
$PUCSORGRIGHT
 10
0.0
 20
0.0
 30
0.0
  9
$PUCSORGFRONT
 10
0.0
 20
0.0
 30
0.0
  9
$PUCSORGBACK
 10
0.0
 20
0.0
 30
0.0
  9
$USERI1
 70
     0
  9
$USERI2
 70
     0
  9
$USERI3
 70
     0
  9
$USERI4
 70
     0
  9
$USERI5
 70
     0
  9
$USERR1
 40
0.0
  9
$USERR2
 40
0.0
  9
$USERR3
 40
0.0
  9
$USERR4
 40
0.0
  9
$USERR5
 40
0.0
  9
$WORLDVIEW
 70
     1
  9
$SHADEDGE
 70
     3
  9
$SHADEDIF
 70
    70
  9
$TILEMODE
 70
     1
  9
$MAXACTVP
 70
    64
  9
$PINSBASE
 10
0.0
 20
0.0
 30
0.0
  9
$PLIMCHECK
 70
     0
  9
$PEXTMIN
 10
-700.0
 20
-26.0
 30
0.0
  9
$PEXTMAX
 10
700.0
 20
35.0
 30
0.0
  9
$PLIMMIN
 10
-808.9494163424
 20
-66.8560311284
  9
$PLIMMAX
 10
808.9494163424
 20
1077.1128404669
  9
$UNITMODE
 70
     0
  9
$VISRETAIN
 70
     1
  9
$PLINEGEN
 70
     0
  9
$PSLTSCALE
 70
     1
  9
$TREEDEPTH
 70
  3020
  9
$CMLSTYLE
  2
Standard
  9
$CMLJUST
 70
     0
  9
$CMLSCALE
 40
20.0
  9
$PROXYGRAPHICS
 70
     1
  9
$MEASUREMENT
 70
     1
  9
$CELWEIGHT
370
    -1
  9
$ENDCAPS
280
     0
  9
$JOINSTYLE
280
     0
  9
$LWDISPLAY
290
     1
  9
$INSUNITS
 70
     4
  9
$HYPERLINKBASE
  1

  9
$STYLESHEET
  1

  9
$XEDIT
290
     1
  9
$CEPSNTYPE
380
     0
  9
$PSTYLEMODE
290
     1
  9
$FINGERPRINTGUID
  2
{22049FE9-102F-464E-BC77-A93C54B8AA2F}
  9
$VERSIONGUID
  2
{FAEB1C32-E019-11D5-929B-00C0DF256EC4}
  9
$EXTNAMES
290
     1
  9
$PSVPSCALE
 40
0.0
  9
$OLESTARTUP
290
     0
  0
ENDSEC
  0
SECTION
  2
CLASSES
  0
CLASS
  1
ACDBDICTIONARYWDFLT
  2
AcDbDictionaryWithDefault
  3
ObjectDBX Classes
 90
        0
280
     0
281
     0
  0
CLASS
  1
VISUALSTYLE
  2
AcDbVisualStyle
  3
ObjectDBX Classes
 90
     4095
280
     0
281
     0
  0
CLASS
  1
MATERIAL
  2
AcDbMaterial
  3
ObjectDBX Classes
 90
     1153
280
     0
281
     0
  0
CLASS
  1
SCALE
  2
AcDbScale
  3
ObjectDBX Classes
 90
     1153
280
     0
281
     0
  0
CLASS
  1
TABLESTYLE
  2
AcDbTableStyle
  3
ObjectDBX Classes
 90
     4095
280
     0
281
     0
  0
CLASS
  1
MLEADERSTYLE
  2
AcDbMLeaderStyle
  3
ACDB_MLEADERSTYLE_CLASS
 90
     4095
280
     0
281
     0
  0
CLASS
  1
SUN
  2
AcDbSun
  3
SCENEOE
 90
     1153
280
     0
281
     0
  0
CLASS
  1
ACDBPLACEHOLDER
  2
AcDbPlaceHolder
  3
ObjectDBX Classes
 90
        0
280
     0
281
     0
  0
CLASS
  1
LAYOUT
  2
AcDbLayout
  3
ObjectDBX Classes
 90
        0
280
     0
281
     0
  0
ENDSEC
  0
SECTION
  2
TABLES
  0
TABLE
  2
VPORT
  5
8
330
0
100
AcDbSymbolTable
 70
     1
  0
VPORT
  5
29
330
8
100
AcDbSymbolTableRecord
100
AcDbViewportTableRecord
  2
*Active
 70
     0
 10
0.0
 20
0.0
 11
1.0
 21
1.0
 12
0.0
 22
0.0
 13
0.0
 23
0.0
 14
10.0
 24
10.0
 15
10.0
 25
10.0
 16
0.0
 26
0.0
 36
1.0
 17
0.0
 27
0.0
 37
0.0
 40
918.0
 41
1.5555555556
 42
50.0
 43
0.0
 44
0.0
 50
0.0
 51
0.0
 71
     0
 72
   100
 73
     1
 74
     3
 75
     0
 76
     0
 77
     0
 78
     0
281
     0
 65
     1
110
0.0
120
0.0
130
0.0
111
1.0
121
0.0
131
0.0
112
0.0
122
1.0
132
0.0
 79
     0
146
0.0
  0
ENDTAB
  0
TABLE
  2
LTYPE
  5
5
330
0
100
AcDbSymbolTable
 70
     6
  0
LTYPE
  5
14
330
5
100
AcDbSymbolTableRecord
100
AcDbLinetypeTableRecord
  2
ByBlock
 70
     0
  3

 72
    65
 73
     0
 40
0.0
  0
LTYPE
  5
15
330
5
100
AcDbSymbolTableRecord
100
AcDbLinetypeTableRecord
  2
ByLayer
 70
     0
  3

 72
    65
 73
     0
 40
0.0
  0
LTYPE
  5
16
330
5
100
AcDbSymbolTableRecord
100
AcDbLinetypeTableRecord
  2
Continuous
 70
     0
  3
Solid line
 72
    65
 73
     0
 40
0.0
  0
LTYPE
  5
6E
330
5
100
AcDbSymbolTableRecord
100
AcDbLinetypeTableRecord
  2
HIDDEN
 70
     0
  3
Hidden __ __ __ __ __ __ __ __ __ __ __ __ __ __
 72
    65
 73
     2
 40
1.905
 49
1.27
 74
     0
 49
-0.635
 74
     0
  0
LTYPE
  5
6F
330
5
100
AcDbSymbolTableRecord
100
AcDbLinetypeTableRecord
  2
PHANTOM
 70
     0
  3
Phantom ______  __  __  ______  __  __  ______
 72
    65
 73
     6
 40
12.7
 49
6.35
 74
     0
 49
-1.27
 74
     0
 49
1.27
 74
     0
 49
-1.27
 74
     0
 49
1.27
 74
     0
 49
-1.27
 74
     0
  0
LTYPE
  5
70
330
5
100
AcDbSymbolTableRecord
100
AcDbLinetypeTableRecord
  2
CENTER
 70
     0
  3
Center ____ _ ____ _ ____ _ ____ _ ____ _ ____
 72
    65
 73
     4
 40
10.16
 49
6.35
 74
     0
 49
-1.27
 74
     0
 49
1.27
 74
     0
 49
-1.27
 74
     0
  0
LTYPE
  5
71
330
5
100
AcDbSymbolTableRecord
100
AcDbLinetypeTableRecord
  2
CENTERX2
 70
     0
  3
Center (2x) ________  __  ________  __  _____
 72
    65
 73
     4
 40
20.32
 49
12.7
 74
     0
 49
-2.54
 74
     0
 49
2.54
 74
     0
 49
-2.54
 74
     0
  0
LTYPE
  5
72
330
5
100
AcDbSymbolTableRecord
100
AcDbLinetypeTableRecord
  2
DOT2
 70
     0
  3
Dot (.5x) ........................................
 72
    65
 73
     2
 40
0.635
 49
0.0
 74
     0
 49
-0.635
 74
     0
  0
ENDTAB
  0
TABLE
  2
LAYER
  5
2
330
0
100
AcDbSymbolTable
 70
     1
  0
LAYER
  5
10
330
2
100
AcDbSymbolTableRecord
100
AcDbLayerTableRecord
  2
0
 70
     0
 62
     7
  6
Continuous
370
    -3
390
F
  0
ENDTAB
  0
TABLE
  2
STYLE
  5
3
330
0
100
AcDbSymbolTable
 70
     1
  0
STYLE
  5
11
330
3
100
AcDbSymbolTableRecord
100
AcDbTextStyleTableRecord
  2
STANDARD
 70
     0
 40
0.0
 41
1.0
 50
0.0
 71
     0
 42
3.5
  3
GOTHIC.TTF
  4

1001
ACAD
1000
CENTURY GOTHIC
1071
       34
  0
ENDTAB
  0
TABLE
  2
VIEW
  5
6
330
0
100
AcDbSymbolTable
 70
     0
  0
ENDTAB
  0
TABLE
  2
UCS
  5
7
330
0
100
AcDbSymbolTable
 70
     0
  0
ENDTAB
  0
TABLE
  2
APPID
  5
9
330
0
100
AcDbSymbolTable
 70
     1
  0
APPID
  5
12
330
9
100
AcDbSymbolTableRecord
100
AcDbRegAppTableRecord
  2
ACAD
 70
     0
  0
ENDTAB
  0
TABLE
  2
DIMSTYLE
  5
A
330
0
100
AcDbSymbolTable
 70
     1
100
AcDbDimStyleTable
  0
DIMSTYLE
105
27
330
A
100
AcDbSymbolTableRecord
100
AcDbDimStyleTableRecord
  2
ISO-25
 70
     0
 41
2.5
 42
0.625
 43
3.75
 44
1.25
 73
     0
 74
     0
 77
     1
 78
     8
140
2.5
141
2.5
143
0.0393700787
147
0.625
171
     3
172
     1
178
     0
271
     2
272
     2
274
     3
278
    44
283
     0
284
     8
340
11
  0
ENDTAB
  0
TABLE
  2
BLOCK_RECORD
  5
1
330
0
100
AcDbSymbolTable
 70
     8
  0
BLOCK_RECORD
  5
1F
330
1
100
AcDbSymbolTableRecord
100
AcDbBlockTableRecord
  2
*Model_Space
340
22
  0
BLOCK_RECORD
  5
1B
330
1
100
AcDbSymbolTableRecord
100
AcDbBlockTableRecord
  2
*Paper_Space
340
1E
  0
BLOCK_RECORD
  5
23
330
1
100
AcDbSymbolTableRecord
100
AcDbBlockTableRecord
  2
*Paper_Space0
340
26
  0
BLOCK_RECORD
  5
CB
330
1
100
AcDbSymbolTableRecord
100
AcDbBlockTableRecord
  2
*Paper_Space1
340
CC
  0
BLOCK_RECORD
  5
DD
330
1
100
AcDbSymbolTableRecord
100
AcDbBlockTableRecord
  2
*Paper_Space2
340
DE
  0
BLOCK_RECORD
  5
EF
330
1
100
AcDbSymbolTableRecord
100
AcDbBlockTableRecord
  2
*Paper_Space3
340
F0
  0
BLOCK_RECORD
  5
101
330
1
100
AcDbSymbolTableRecord
100
AcDbBlockTableRecord
  2
*Paper_Space4
340
102
  0
BLOCK_RECORD
  5
12E
330
1
100
AcDbSymbolTableRecord
100
AcDbBlockTableRecord
  2
*Paper_Space5
340
12F
  0
BLOCK_RECORD
  5
1AE
330
1
100
AcDbSymbolTableRecord
100
AcDbBlockTableRecord
  2
*Paper_Space6
340
1AF
  0
BLOCK_RECORD
  5
21A
330
1
100
AcDbSymbolTableRecord
100
AcDbBlockTableRecord
  2
*Paper_Space7
340
21B
  0
ENDTAB
  0
ENDSEC
  0
SECTION
  2
BLOCKS
  0
BLOCK
  5
20
330
1F
100
AcDbEntity
  8
0
100
AcDbBlockBegin
  2
*Model_Space
 70
     0
 10
0.0
 20
0.0
 30
0.0
  3
*Model_Space
  1

  0
ENDBLK
  5
21
330
1F
100
AcDbEntity
  8
0
100
AcDbBlockEnd
  0
BLOCK
  5
1C
330
1B
100
AcDbEntity
 67
     1
  8
0
100
AcDbBlockBegin
  2
*Paper_Space
 70
     0
 10
0.0
 20
0.0
 30
0.0
  3
*Paper_Space
  1

  0
ENDBLK
  5
1D
330
1B
100
AcDbEntity
 67
     1
  8
0
100
AcDbBlockEnd
  0
BLOCK
  5
24
330
23
100
AcDbEntity
  8
0
100
AcDbBlockBegin
  2
*Paper_Space0
 70
     0
 10
0.0
 20
0.0
 30
0.0
  3
*Paper_Space0
  1

  0
LINE
  5
C4
330
23
100
AcDbEntity
  8
0
  6
Continuous
 62
     7
370
    25
100
AcDbLine
 10
450.0
 20
35.0
 30
0.0
 11
450.0
 21
0.0
 31
0.0
  0
LINE
  5
C5
330
23
100
AcDbEntity
  8
0
  6
Continuous
 62
     7
370
    25
100
AcDbLine
 10
-450.0
 20
0.0
 30
0.0
 11
450.0
 21
0.0
 31
0.0
  0
LINE
  5
C6
330
23
100
AcDbEntity
  8
0
  6
Continuous
 62
     7
370
    25
100
AcDbLine
 10
-450.0
 20
35.0
 30
0.0
 11
-450.0
 21
0.0
 31
0.0
  0
LINE
  5
C7
330
23
100
AcDbEntity
  8
0
  6
Continuous
 62
     7
370
    25
100
AcDbLine
 10
-450.0
 20
35.0
 30
0.0
 11
450.0
 21
35.0
 31
0.0
  0
LINE
  5
C8
330
23
100
AcDbEntity
  8
0
  6
Continuous
 62
     7
370
    25
100
AcDbLine
 10
130.0
 20
-26.0
 30
0.0
 11
130.0
 21
0.0
 31
0.0
  0
LINE
  5
C9
330
23
100
AcDbEntity
  8
0
  6
Continuous
 62
     7
370
    25
100
AcDbLine
 10
-130.0
 20
-26.0
 30
0.0
 11
-130.0
 21
0.0
 31
0.0
  0
LINE
  5
CA
330
23
100
AcDbEntity
  8
0
  6
Continuous
 62
     7
370
    25
100
AcDbLine
 10
130.0
 20
-26.0
 30
0.0
 11
-130.0
 21
-26.0
 31
0.0
  0
VIEWPORT
  5
27A
330
23
100
AcDbEntity
  8
0
100
AcDbViewport
 10
0.0
 20
0.0
 30
0.0
 40
205.6
 41
156.0
 68
     1
 69
     1
 12
0.0
 22
0.0
 13
0.0
 23
0.0
 14
10.0
 24
10.0
 15
10.0
 25
10.0
 16
0.0
 26
0.0
 36
1.0
 17
0.0
 27
0.0
 37
0.0
 42
50.0
 43
0.0
 44
0.0
 45
1083.5019455253
 50
0.0
 51
0.0
 72
   100
 90
   557152
  1

281
     0
 71
     1
 74
     0
110
0.0
120
0.0
130
0.0
111
1.0
121
0.0
131
0.0
112
0.0
122
1.0
132
0.0
 79
     0
146
0.0
  0
ENDBLK
  5
25
330
23
100
AcDbEntity
  8
0
100
AcDbBlockEnd
  0
BLOCK
  5
CD
330
CB
100
AcDbEntity
  8
0
100
AcDbBlockBegin
  2
*Paper_Space1
 70
     0
 10
0.0
 20
0.0
 30
0.0
  3
*Paper_Space1
  1

  0
LINE
  5
D6
330
CB
100
AcDbEntity
  8
0
  6
Continuous
 62
     7
370
    25
100
AcDbLine
 10
-700.0
 20
35.0
 30
0.0
 11
700.0
 21
35.0
 31
0.0
  0
LINE
  5
D7
330
CB
100
AcDbEntity
  8
0
  6
Continuous
 62
     7
370
    25
100
AcDbLine
 10
700.0
 20
35.0
 30
0.0
 11
700.0
 21
0.0
 31
0.0
  0
LINE
  5
D8
330
CB
100
AcDbEntity
  8
0
  6
Continuous
 62
     7
370
    25
100
AcDbLine
 10
-700.0
 20
0.0
 30
0.0
 11
700.0
 21
0.0
 31
0.0
  0
LINE
  5
D9
330
CB
100
AcDbEntity
  8
0
  6
Continuous
 62
     7
370
    25
100
AcDbLine
 10
-700.0
 20
35.0
 30
0.0
 11
-700.0
 21
0.0
 31
0.0
  0
LINE
  5
DA
330
CB
100
AcDbEntity
  8
0
  6
Continuous
 62
     7
370
    25
100
AcDbLine
 10
130.0
 20
-26.0
 30
0.0
 11
-130.0
 21
-26.0
 31
0.0
  0
LINE
  5
DB
330
CB
100
AcDbEntity
  8
0
  6
Continuous
 62
     7
370
    25
100
AcDbLine
 10
130.0
 20
-26.0
 30
0.0
 11
130.0
 21
0.0
 31
0.0
  0
LINE
  5
DC
330
CB
100
AcDbEntity
  8
0
  6
Continuous
 62
     7
370
    25
100
AcDbLine
 10
-130.0
 20
-26.0
 30
0.0
 11
-130.0
 21
0.0
 31
0.0
  0
VIEWPORT
  5
27C
330
CB
100
AcDbEntity
  8
0
100
AcDbViewport
 10
0.0
 20
0.0
 30
0.0
 40
205.6
 41
156.0
 68
     1
 69
     1
 12
0.0
 22
0.0
 13
0.0
 23
0.0
 14
10.0
 24
10.0
 15
10.0
 25
10.0
 16
0.0
 26
0.0
 36
1.0
 17
0.0
 27
0.0
 37
0.0
 42
50.0
 43
0.0
 44
0.0
 45
1083.5019455253
 50
0.0
 51
0.0
 72
   100
 90
   557152
  1

281
     0
 71
     1
 74
     0
110
0.0
120
0.0
130
0.0
111
1.0
121
0.0
131
0.0
112
0.0
122
1.0
132
0.0
 79
     0
146
0.0
  0
ENDBLK
  5
CE
330
CB
100
AcDbEntity
  8
0
100
AcDbBlockEnd
  0
BLOCK
  5
DF
330
DD
100
AcDbEntity
  8
0
100
AcDbBlockBegin
  2
*Paper_Space2
 70
     0
 10
0.0
 20
0.0
 30
0.0
  3
*Paper_Space2
  1

  0
LINE
  5
E8
330
DD
100
AcDbEntity
  8
0
  6
Continuous
 62
     7
370
    25
100
AcDbLine
 10
-700.0
 20
35.0
 30
0.0
 11
700.0
 21
35.0
 31
0.0
  0
LINE
  5
E9
330
DD
100
AcDbEntity
  8
0
  6
Continuous
 62
     7
370
    25
100
AcDbLine
 10
-700.0
 20
35.0
 30
0.0
 11
-700.0
 21
0.0
 31
0.0
  0
LINE
  5
EA
330
DD
100
AcDbEntity
  8
0
  6
Continuous
 62
     7
370
    25
100
AcDbLine
 10
-700.0
 20
0.0
 30
0.0
 11
700.0
 21
0.0
 31
0.0
  0
LINE
  5
EB
330
DD
100
AcDbEntity
  8
0
  6
Continuous
 62
     7
370
    25
100
AcDbLine
 10
700.0
 20
35.0
 30
0.0
 11
700.0
 21
0.0
 31
0.0
  0
LINE
  5
EC
330
DD
100
AcDbEntity
  8
0
  6
Continuous
 62
     7
370
    25
100
AcDbLine
 10
130.0
 20
-26.0
 30
0.0
 11
130.0
 21
0.0
 31
0.0
  0
LINE
  5
ED
330
DD
100
AcDbEntity
  8
0
  6
Continuous
 62
     7
370
    25
100
AcDbLine
 10
130.0
 20
-26.0
 30
0.0
 11
-130.0
 21
-26.0
 31
0.0
  0
LINE
  5
EE
330
DD
100
AcDbEntity
  8
0
  6
Continuous
 62
     7
370
    25
100
AcDbLine
 10
-130.0
 20
-26.0
 30
0.0
 11
-130.0
 21
0.0
 31
0.0
  0
VIEWPORT
  5
27E
330
DD
100
AcDbEntity
  8
0
100
AcDbViewport
 10
0.0
 20
0.0
 30
0.0
 40
205.6
 41
156.0
 68
     1
 69
     1
 12
0.0
 22
0.0
 13
0.0
 23
0.0
 14
10.0
 24
10.0
 15
10.0
 25
10.0
 16
0.0
 26
0.0
 36
1.0
 17
0.0
 27
0.0
 37
0.0
 42
50.0
 43
0.0
 44
0.0
 45
1083.5019455253
 50
0.0
 51
0.0
 72
   100
 90
   557152
  1

281
     0
 71
     1
 74
     0
110
0.0
120
0.0
130
0.0
111
1.0
121
0.0
131
0.0
112
0.0
122
1.0
132
0.0
 79
     0
146
0.0
  0
ENDBLK
  5
E0
330
DD
100
AcDbEntity
  8
0
100
AcDbBlockEnd
  0
BLOCK
  5
F1
330
EF
100
AcDbEntity
  8
0
100
AcDbBlockBegin
  2
*Paper_Space3
 70
     0
 10
0.0
 20
0.0
 30
0.0
  3
*Paper_Space3
  1

  0
LINE
  5
FA
330
EF
100
AcDbEntity
  8
0
  6
Continuous
 62
     7
370
    25
100
AcDbLine
 10
-450.0
 20
35.0
 30
0.0
 11
-450.0
 21
0.0
 31
0.0
  0
LINE
  5
FB
330
EF
100
AcDbEntity
  8
0
  6
Continuous
 62
     7
370
    25
100
AcDbLine
 10
-450.0
 20
35.0
 30
0.0
 11
450.0
 21
35.0
 31
0.0
  0
LINE
  5
FC
330
EF
100
AcDbEntity
  8
0
  6
Continuous
 62
     7
370
    25
100
AcDbLine
 10
450.0
 20
35.0
 30
0.0
 11
450.0
 21
0.0
 31
0.0
  0
LINE
  5
FD
330
EF
100
AcDbEntity
  8
0
  6
Continuous
 62
     7
370
    25
100
AcDbLine
 10
-450.0
 20
0.0
 30
0.0
 11
450.0
 21
0.0
 31
0.0
  0
LINE
  5
FE
330
EF
100
AcDbEntity
  8
0
  6
Continuous
 62
     7
370
    25
100
AcDbLine
 10
130.0
 20
-26.0
 30
0.0
 11
-130.0
 21
-26.0
 31
0.0
  0
LINE
  5
FF
330
EF
100
AcDbEntity
  8
0
  6
Continuous
 62
     7
370
    25
100
AcDbLine
 10
-130.0
 20
-26.0
 30
0.0
 11
-130.0
 21
0.0
 31
0.0
  0
LINE
  5
100
330
EF
100
AcDbEntity
  8
0
  6
Continuous
 62
     7
370
    25
100
AcDbLine
 10
130.0
 20
-26.0
 30
0.0
 11
130.0
 21
0.0
 31
0.0
  0
VIEWPORT
  5
280
330
EF
100
AcDbEntity
  8
0
100
AcDbViewport
 10
0.0
 20
0.0
 30
0.0
 40
205.6
 41
156.0
 68
     1
 69
     1
 12
0.0
 22
0.0
 13
0.0
 23
0.0
 14
10.0
 24
10.0
 15
10.0
 25
10.0
 16
0.0
 26
0.0
 36
1.0
 17
0.0
 27
0.0
 37
0.0
 42
50.0
 43
0.0
 44
0.0
 45
1083.5019455253
 50
0.0
 51
0.0
 72
   100
 90
   557152
  1

281
     0
 71
     1
 74
     0
110
0.0
120
0.0
130
0.0
111
1.0
121
0.0
131
0.0
112
0.0
122
1.0
132
0.0
 79
     0
146
0.0
  0
ENDBLK
  5
F2
330
EF
100
AcDbEntity
  8
0
100
AcDbBlockEnd
  0
BLOCK
  5
103
330
101
100
AcDbEntity
  8
0
100
AcDbBlockBegin
  2
*Paper_Space4
 70
     0
 10
0.0
 20
0.0
 30
0.0
  3
*Paper_Space4
  1

  0
CIRCLE
  5
10D
330
101
100
AcDbEntity
  8
0
  6
Continuous
 62
     7
370
    25
100
AcDbCircle
 10
0.0
 20
0.0
 30
0.0
 40
44.99999999999999
  0
LINE
  5
11A
330
101
100
AcDbEntity
  8
0
  6
Continuous
 62
     7
370
    25
100
AcDbLine
 10
700.0
 20
-450.0
 30
0.0
 11
-700.0
 21
-450.0
 31
0.0
  0
LINE
  5
11B
330
101
100
AcDbEntity
  8
0
  6
Continuous
 62
     7
370
    25
100
AcDbLine
 10
-700.0
 20
450.0
 30
0.0
 11
700.0
 21
450.0
 31
0.0
  0
LINE
  5
11C
330
101
100
AcDbEntity
  8
0
  6
Continuous
 62
     7
370
    25
100
AcDbLine
 10
700.0
 20
450.0
 30
0.0
 11
700.0
 21
-450.0
 31
0.0
  0
LINE
  5
11D
330
101
100
AcDbEntity
  8
0
  6
Continuous
 62
     7
370
    25
100
AcDbLine
 10
-700.0
 20
-450.0
 30
0.0
 11
-700.0
 21
450.0
 31
0.0
  0
LINE
  5
11E
330
101
100
AcDbEntity
  8
0
  6
Continuous
 62
     7
370
    25
100
AcDbLine
 10
130.0
 20
-130.0
 30
0.0
 11
130.0
 21
130.0
 31
0.0
  0
LINE
  5
11F
330
101
100
AcDbEntity
  8
0
  6
Continuous
 62
     7
370
    25
100
AcDbLine
 10
-130.0
 20
-130.0
 30
0.0
 11
130.0
 21
-130.0
 31
0.0
  0
LINE
  5
120
330
101
100
AcDbEntity
  8
0
  6
Continuous
 62
     7
370
    25
100
AcDbLine
 10
-130.0
 20
130.0
 30
0.0
 11
-130.0
 21
-130.0
 31
0.0
  0
LINE
  5
121
330
101
100
AcDbEntity
  8
0
  6
Continuous
 62
     7
370
    25
100
AcDbLine
 10
130.0
 20
130.0
 30
0.0
 11
-130.0
 21
130.0
 31
0.0
  0
LINE
  5
122
330
101
100
AcDbEntity
  8
0
  6
Continuous
 62
     7
370
    25
100
AcDbLine
 10
-28.8654208587
 20
34.5222751082
 30
0.0
 11
-19.3431457505
 21
25.0
 31
0.0
  0
LINE
  5
123
330
101
100
AcDbEntity
  8
0
  6
Continuous
 62
     7
370
    25
100
AcDbLine
 10
-19.3431457505
 20
25.0
 30
0.0
 11
19.3431457505
 21
25.0
 31
0.0
  0
LINE
  5
124
330
101
100
AcDbEntity
  8
0
  6
Continuous
 62
     7
370
    25
100
AcDbLine
 10
19.3431457505
 20
25.0
 30
0.0
 11
28.8654208587
 21
34.5222751082
 31
0.0
  0
LINE
  5
125
330
101
100
AcDbEntity
  8
0
  6
Continuous
 62
     7
370
    25
100
AcDbLine
 10
34.5222751082
 20
28.8654208587
 30
0.0
 11
25.0
 21
19.3431457505
 31
0.0
  0
LINE
  5
126
330
101
100
AcDbEntity
  8
0
  6
Continuous
 62
     7
370
    25
100
AcDbLine
 10
25.0
 20
19.3431457505
 30
0.0
 11
25.0
 21
-19.3431457505
 31
0.0
  0
LINE
  5
127
330
101
100
AcDbEntity
  8
0
  6
Continuous
 62
     7
370
    25
100
AcDbLine
 10
25.0
 20
-19.3431457505
 30
0.0
 11
34.5222751082
 21
-28.8654208587
 31
0.0
  0
LINE
  5
128
330
101
100
AcDbEntity
  8
0
  6
Continuous
 62
     7
370
    25
100
AcDbLine
 10
-25.0
 20
19.3431457505
 30
0.0
 11
-34.5222751082
 21
28.8654208587
 31
0.0
  0
LINE
  5
129
330
101
100
AcDbEntity
  8
0
  6
Continuous
 62
     7
370
    25
100
AcDbLine
 10
-25.0
 20
-19.3431457505
 30
0.0
 11
-25.0
 21
19.3431457505
 31
0.0
  0
LINE
  5
12A
330
101
100
AcDbEntity
  8
0
  6
Continuous
 62
     7
370
    25
100
AcDbLine
 10
-34.5222751082
 20
-28.8654208587
 30
0.0
 11
-25.0
 21
-19.3431457505
 31
0.0
  0
LINE
  5
12B
330
101
100
AcDbEntity
  8
0
  6
Continuous
 62
     7
370
    25
100
AcDbLine
 10
-19.3431457505
 20
-25.0
 30
0.0
 11
-28.8654208587
 21
-34.5222751082
 31
0.0
  0
LINE
  5
12C
330
101
100
AcDbEntity
  8
0
  6
Continuous
 62
     7
370
    25
100
AcDbLine
 10
28.8654208587
 20
-34.5222751082
 30
0.0
 11
19.3431457505
 21
-25.0
 31
0.0
  0
LINE
  5
12D
330
101
100
AcDbEntity
  8
0
  6
Continuous
 62
     7
370
    25
100
AcDbLine
 10
19.3431457505
 20
-25.0
 30
0.0
 11
-19.3431457505
 21
-25.0
 31
0.0
  0
VIEWPORT
  5
282
330
101
100
AcDbEntity
  8
0
100
AcDbViewport
 10
0.0
 20
0.0
 30
0.0
 40
205.6
 41
156.0
 68
     1
 69
     1
 12
0.0
 22
0.0
 13
0.0
 23
0.0
 14
10.0
 24
10.0
 15
10.0
 25
10.0
 16
0.0
 26
0.0
 36
1.0
 17
0.0
 27
0.0
 37
0.0
 42
50.0
 43
0.0
 44
0.0
 45
1083.5019455253
 50
0.0
 51
0.0
 72
   100
 90
   557152
  1

281
     0
 71
     1
 74
     0
110
0.0
120
0.0
130
0.0
111
1.0
121
0.0
131
0.0
112
0.0
122
1.0
132
0.0
 79
     0
146
0.0
  0
ENDBLK
  5
104
330
101
100
AcDbEntity
  8
0
100
AcDbBlockEnd
  0
BLOCK
  5
130
330
12E
100
AcDbEntity
  8
0
100
AcDbBlockBegin
  2
*Paper_Space5
 70
     0
 10
0.0
 20
0.0
 30
0.0
  3
*Paper_Space5
  1

  0
SPLINE
  5
143
330
12E
100
AcDbEntity
  8
0
  6
Continuous
 62
     7
370
    25
100
AcDbSpline
210
0.0
220
0.0
230
1.0
 70
     8
 71
     3
 72
     8
 73
     4
 74
     0
 42
0.000000001
 43
0.00000001
 40
0.0
 40
0.0
 40
0.0
 40
0.0
 40
1.0
 40
1.0
 40
1.0
 40
1.0
 10
20.79725827019233
 20
-36.72813201414313
 30
0.0
 10
14.45348158505239
 20
-40.28901839277385
 30
0.0
 10
8.110324699476854
 20
-43.81174396582178
 30
0.0
 10
1.76776695296605
 20
-47.2975807917969
 30
0.0
  0
SPLINE
  5
146
330
12E
100
AcDbEntity
  8
0
  6
Continuous
 62
     7
370
    25
100
AcDbSpline
210
0.0
220
0.0
230
1.0
 70
     8
 71
     3
 72
     8
 73
     4
 74
     0
 42
0.000000001
 43
0.00000001
 40
0.0
 40
0.0
 40
0.0
 40
0.0
 40
1.0
 40
1.0
 40
1.0
 40
1.0
 10
-111.3693180368814
 20
18.01506815402003
 30
0.0
 10
-105.0267602903706
 20
21.50090497999513
 30
0.0
 10
-98.6836034047951
 20
25.02363055304295
 30
0.0
 10
-92.33982671965515
 20
28.58451693167367
 30
0.0
  0
SPLINE
  5
147
330
12E
100
AcDbEntity
  8
0
  6
Continuous
 62
     7
370
    25
100
AcDbSpline
210
0.0
220
0.0
230
1.0
 70
     8
 71
     3
 72
    20
 73
    16
 74
     0
 42
0.000000001
 43
0.00000001
 40
0.0
 40
0.0
 40
0.0
 40
0.0
 40
0.1249999999999988
 40
0.1249999999999988
 40
0.2499999999999976
 40
0.2499999999999976
 40
0.3749999999999963
 40
0.3749999999999963
 40
0.4999999999999951
 40
0.4999999999999951
 40
0.6249999999999939
 40
0.6249999999999939
 40
0.7499999999999927
 40
0.7499999999999927
 40
1.0
 40
1.0
 40
1.0
 40
1.0
 10
-111.3693180368811
 20
15.99670982285129
 30
0.0
 10
-111.4860383687785
 20
16.06589335910079
 30
0.0
 10
-111.5893663270604
 20
16.14019719114398
 30
0.0
 10
-111.7703284762214
 20
16.29863460299472
 30
0.0
 10
-111.8485877941466
 20
16.38375917001098
 30
0.0
 10
-111.9739404443751
 20
16.5592126560524
 30
0.0
 10
-112.0211947554803
 20
16.64912702860521
 30
0.0
 10
-112.085137162965
 20
16.83330044879709
 30
0.0
 10
-112.1015009198338
 20
16.92814808065904
 30
0.0
 10
-112.1016010123509
 20
17.11422903037844
 30
0.0
 10
-112.0858609839605
 20
17.20640833205671
 30
0.0
 10
-112.0220550314176
 20
17.38901041205756
 30
0.0
 10
-111.9741910240344
 20
17.47803150803757
 30
0.0
 10
-111.7877605051201
 20
17.73157069383851
 30
0.0
 10
-111.6027113207305
 20
17.88679641629343
 30
0.0
 10
-111.3693180368814
 20
18.01506815402003
 30
0.0
  0
SPLINE
  5
148
330
12E
100
AcDbEntity
  8
0
  6
Continuous
 62
     7
370
    25
100
AcDbSpline
210
0.0
220
0.0
230
1.0
 70
     8
 71
     3
 72
    18
 73
    14
 74
     0
 42
0.000000001
 43
0.00000001
 40
0.0
 40
0.0
 40
0.0
 40
0.0
 40
0.1249999999999999
 40
0.1249999999999999
 40
0.25
 40
0.25
 40
0.5
 40
0.5
 40
0.7500000000000001
 40
0.7500000000000001
 40
0.875
 40
0.875
 40
1.0
 40
1.0
 40
1.0
 40
1.0
 10
-1.767766952966293
 20
-47.27491884340886
 30
0.0
 10
-6.334403336969947
 20
-44.70917093702115
 30
0.0
 10
-10.9010157242031
 20
-42.14547331697609
 30
0.0
 10
-20.03423427935456
 20
-37.01860945573326
 30
0.0
 10
-24.60083800060772
 20
-34.45565359401945
 30
0.0
 10
-38.3008165041097
 20
-26.75248046645353
 30
0.0
 10
-47.43426490104342
 20
-21.59861445667051
 30
0.0
 10
-65.70282201978638
 20
-11.05240089898417
 30
0.0
 10
-74.83626930321357
 20
-5.661012498747152
 30
0.0
 10
-88.5362475343395
 20
2.453472705628144
 30
0.0
 10
-93.10285113413244
 20
5.163005200375624
 30
0.0
 10
-102.2360694776854
 20
10.58113090095902
 30
0.0
 10
-106.8026817590744
 20
13.28993165208886
 30
0.0
 10
-111.3693180368811
 20
15.99670982285131
 30
0.0
  0
SPLINE
  5
149
330
12E
100
AcDbEntity
  8
0
  6
Continuous
 62
     7
370
    25
100
AcDbSpline
210
0.0
220
0.0
230
1.0
 70
     8
 71
     3
 72
    20
 73
    16
 74
     0
 42
0.000000001
 43
0.00000001
 40
0.0
 40
0.0
 40
0.0
 40
0.0
 40
0.1250000000000005
 40
0.1250000000000005
 40
0.2500000000000011
 40
0.2500000000000011
 40
0.3750000000000016
 40
0.3750000000000016
 40
0.5000000000000021
 40
0.5000000000000021
 40
0.6250000000000027
 40
0.6250000000000027
 40
0.7500000000000031
 40
0.7500000000000031
 40
1.0
 40
1.0
 40
1.0
 40
1.0
 10
1.767766952966127
 20
-47.29758079179685
 30
0.0
 10
1.651069994394322
 20
-47.36171683468786
 30
0.0
 10
1.524875423023444
 20
-47.4183464544008
 30
0.0
 10
1.254264338302752
 20
-47.5172009545326
 30
0.0
 10
1.108138062020779
 20
-47.55976208309499
 30
0.0
 10
0.8055441413817379
 20
-47.62749368889628
 30
0.0
 10
0.6498195153816638
 20
-47.6527554875097
 30
0.0
 10
0.3295942523878562
 20
-47.68622892680082
 30
0.0
 10
0.1640358216716681
 20
-47.69425468006666
 30
0.0
 10
-0.1619885447108893
 20
-47.69220106536223
 30
0.0
 10
-0.3240856277008444
 20
-47.68240256983865
 30
0.0
 10
-0.6464064582493503
 20
-47.64485640759815
 30
0.0
 10
-0.8042055266240383
 20
-47.61723026634047
 30
0.0
 10
-1.255431770380941
 20
-47.51070640824322
 30
0.0
 10
-1.534325139120579
 20
-47.40607727048136
 30
0.0
 10
-1.767766952966293
 20
-47.27491884340886
 30
0.0
  0
SPLINE
  5
14A
330
12E
100
AcDbEntity
  8
0
  6
Continuous
 62
     7
370
    25
100
AcDbSpline
210
0.0
220
0.0
230
1.0
 70
     8
 71
     3
 72
    10
 73
     6
 74
     0
 42
0.000000001
 43
0.00000001
 40
0.0
 40
0.0
 40
0.0
 40
0.0
 40
0.5
 40
0.5
 40
1.0
 40
1.0
 40
1.0
 40
1.0
 10
92.33982671965502
 20
4.572513642770361
 30
0.0
 10
80.41637074181628
 20
-2.440358629776295
 30
0.0
 10
68.49285485877427
 20
-9.441748110036652
 30
0.0
 10
44.64459696530174
 20
-23.2090565904224
 30
0.0
 10
32.72082680388612
 20
-29.97441128985863
 30
0.0
 10
20.79725827019232
 20
-36.72813201414323
 30
0.0
  0
SPLINE
  5
14C
330
12E
100
AcDbEntity
  8
0
  6
Continuous
 62
     7
370
    25
100
AcDbSpline
210
0.0
220
0.0
230
1.0
 70
     8
 71
     3
 72
     8
 73
     4
 74
     0
 42
0.000000001
 43
0.00000001
 40
0.0
 40
0.0
 40
0.0
 40
0.0
 40
1.0
 40
1.0
 40
1.0
 40
1.0
 10
111.3693180368812
 20
15.97404787446299
 30
0.0
 10
105.0267602903704
 20
12.13692339993081
 30
0.0
 10
98.68360340479487
 20
8.335995921231556
 30
0.0
 10
92.33982671965494
 20
4.572513642770226
 30
0.0
  0
SPLINE
  5
14D
330
12E
100
AcDbEntity
  8
0
  6
Continuous
 62
     7
370
    25
100
AcDbSpline
210
0.0
220
0.0
230
1.0
 70
     8
 71
     3
 72
    20
 73
    16
 74
     0
 42
0.000000001
 43
0.00000001
 40
0.0
 40
0.0
 40
0.0
 40
0.0
 40
0.1249999999999988
 40
0.1249999999999988
 40
0.2499999999999975
 40
0.2499999999999975
 40
0.3749999999999962
 40
0.3749999999999962
 40
0.499999999999995
 40
0.499999999999995
 40
0.6249999999999938
 40
0.6249999999999938
 40
0.7499999999999925
 40
0.7499999999999925
 40
1.0
 40
1.0
 40
1.0
 40
1.0
 10
111.3693180368815
 20
18.03773010240775
 30
0.0
 10
111.4860383687789
 20
17.97215121194747
 30
0.0
 10
111.5893663270609
 20
17.90072327516074
 30
0.0
 10
111.7703284762218
 20
17.74665215623734
 30
0.0
 10
111.848587794147
 20
17.66302259437085
 30
0.0
 10
111.9739404443756
 20
17.48905447666001
 30
0.0
 10
112.0211947554806
 20
17.39914740027198
 30
0.0
 10
112.0851371629653
 20
17.21354868714551
 30
0.0
 10
112.1015009198342
 20
17.11724084748086
 30
0.0
 10
112.1016010123513
 20
16.92690862133613
 30
0.0
 10
112.0858609839609
 20
16.83193937825324
 30
0.0
 10
112.0220550314181
 20
16.64241033852728
 30
0.0
 10
111.9741910240349
 20
16.54929313379195
 30
0.0
 10
111.7877605051206
 20
16.28194836701093
 30
0.0
 10
111.6027113207302
 20
16.11524628643504
 30
0.0
 10
111.3693180368812
 20
15.97404787446299
 30
0.0
  0
SPLINE
  5
14E
330
12E
100
AcDbEntity
  8
0
  6
Continuous
 62
     7
370
    25
100
AcDbSpline
210
0.0
220
0.0
230
1.0
 70
     8
 71
     3
 72
    18
 73
    14
 74
     0
 42
0.000000001
 43
0.00000001
 40
0.0
 40
0.0
 40
0.0
 40
0.0
 40
0.1250000000000001
 40
0.1250000000000001
 40
0.2500000000000001
 40
0.2500000000000001
 40
0.5
 40
0.5
 40
0.7499999999999999
 40
0.7499999999999999
 40
0.8749999999999999
 40
0.8749999999999999
 40
1.0
 40
1.0
 40
1.0
 40
1.0
 10
1.767766952966689
 20
81.3093587686679
 30
0.0
 10
6.334403336970349
 20
78.60258053495951
 30
0.0
 10
10.9010157242035
 20
75.89377972098984
 30
0.0
 10
20.03423427935496
 20
70.4756538948714
 30
0.0
 10
24.60083800060815
 20
67.76612132809804
 30
0.0
 10
38.30081650411013
 20
59.65163596384838
 30
0.0
 10
47.43426490104387
 20
54.260246916597
 30
0.0
 10
65.70282201978684
 20
43.71403338991691
 30
0.0
 10
74.83626930321392
 20
38.56016801874662
 30
0.0
 10
88.53624753433984
 20
30.85699504578507
 30
0.0
 10
93.10285113413272
 20
28.29403925228041
 30
0.0
 10
102.2360694776857
 20
23.16717550980897
 30
0.0
 10
106.8026817590748
 20
20.6034779491292
 30
0.0
 10
111.3693180368816
 20
18.0377301024078
 30
0.0
  0
SPLINE
  5
14F
330
12E
100
AcDbEntity
  8
0
  6
Continuous
 62
     7
370
    25
100
AcDbSpline
210
0.0
220
0.0
230
1.0
 70
     8
 71
     3
 72
    20
 73
    16
 74
     0
 42
0.000000001
 43
0.00000001
 40
0.0
 40
0.0
 40
0.0
 40
0.0
 40
0.125
 40
0.125
 40
0.25
 40
0.25
 40
0.375
 40
0.375
 40
0.5
 40
0.5
 40
0.625
 40
0.625
 40
0.75
 40
0.75
 40
1.0
 40
1.0
 40
1.0
 40
1.0
 10
-1.767766952966286
 20
81.28669682027986
 30
0.0
 10
-1.65106999439444
 20
81.35729621783142
 30
0.0
 10
-1.524875423023111
 20
81.4199463783527
 30
0.0
 10
-1.254264338302356
 20
81.52999834187582
 30
0.0
 10
-1.10813806202037
 20
81.5777852533581
 30
0.0
 10
-0.8055441413813286
 20
81.65478989137084
 30
0.0
 10
-0.64981951538131
 20
81.68409569647056
 30
0.0
 10
-0.3295942523874953
 20
81.72447559201551
 30
0.0
 10
-0.1640358216712934
 20
81.7353639073713
 30
0.0
 10
0.1619885447112709
 20
81.73757164917315
 30
0.0
 10
0.324085627701233
 20
81.7292156363098
 30
0.0
 10
0.6464064582497806
 20
81.69312894850603
 30
0.0
 10
0.8042055266244477
 20
81.66549609640897
 30
0.0
 10
1.25543177038135
 20
81.55677828393354
 30
0.0
 10
1.534325139120961
 20
81.44772652283558
 30
0.0
 10
1.767766952966689
 20
81.3093587686679
 30
0.0
  0
SPLINE
  5
150
330
12E
100
AcDbEntity
  8
0
  6
Continuous
 62
     7
370
    25
100
AcDbSpline
210
0.0
220
0.0
230
1.0
 70
     8
 71
     3
 72
     8
 73
     4
 74
     0
 42
0.000000001
 43
0.00000001
 40
0.0
 40
0.0
 40
0.0
 40
0.0
 40
1.0
 40
1.0
 40
1.0
 40
1.0
 10
-20.79725827019257
 20
69.88516258858711
 30
0.0
 10
-14.45348158505264
 20
73.64864486704843
 30
0.0
 10
-8.110324699477069
 20
77.4495723457477
 30
0.0
 10
-1.767766952966286
 20
81.28669682027986
 30
0.0
  0
SPLINE
  5
152
330
12E
100
AcDbEntity
  8
0
  6
Continuous
 62
     7
370
    25
100
AcDbSpline
210
0.0
220
0.0
230
1.0
 70
     8
 71
     3
 72
    10
 73
     6
 74
     0
 42
0.000000001
 43
0.00000001
 40
0.0
 40
0.0
 40
0.0
 40
0.0
 40
0.5
 40
0.5
 40
1.0
 40
1.0
 40
1.0
 40
1.0
 10
-92.33982671965508
 20
28.5845169316738
 30
0.0
 10
-80.41637074181638
 20
35.33817390232547
 30
0.0
 10
-68.49285485877438
 20
42.10338282930369
 30
0.0
 10
-44.64459696530189
 20
55.87068682201528
 30
0.0
 10
-32.72082680388635
 20
62.87222411544921
 30
0.0
 10
-20.79725827019255
 20
69.88516258858712
 30
0.0
  0
SPLINE
  5
157
330
12E
100
AcDbEntity
  8
0
  6
Continuous
 62
     7
370
    25
100
AcDbSpline
210
0.0
220
0.0
230
1.0
 70
    24
 71
     3
 72
     9
 73
     5
 74
     0
 42
0.000000001
 43
0.00000001
 40
0.0
 40
0.0
 40
0.0
 40
0.0
 40
0.9692219094289831
 40
1.0
 40
1.0
 40
1.0
 40
1.0
 10
-5.000000000000012
 20
-45.45977958649757
 30
0.0
 10
-5.000000000000039
 20
-45.13776866149452
 30
0.0
 10
-5.000000000000053
 20
-44.80553213044792
 30
0.0
 10
-4.999999999999997
 20
-44.47384812489684
 30
0.0
 10
-5.000000000000004
 20
-44.46363952453304
 30
0.0
  0
SPLINE
  5
15A
330
12E
100
AcDbEntity
  8
0
  6
Continuous
 62
     7
370
    25
100
AcDbSpline
210
0.0
220
0.0
230
1.0
 70
     8
 71
     3
 72
     9
 73
     5
 74
     0
 42
0.000000001
 43
0.00000001
 40
0.0
 40
0.0
 40
0.0
 40
0.0
 40
0.0616789073669753
 40
1.0
 40
1.0
 40
1.0
 40
1.0
 10
-19.88090146437585
 20
-37.10304663031241
 30
0.0
 10
-19.81912774199706
 20
-37.11732138846345
 30
0.0
 10
-18.81759050640297
 20
-37.34875801340402
 30
0.0
 10
-17.77471114536288
 20
-37.50616533085834
 30
0.0
 10
-16.79615544382733
 20
-37.65386393696052
 30
0.0
  0
SPLINE
  5
15B
330
12E
100
AcDbEntity
  8
0
  6
Continuous
 62
     7
370
    25
100
AcDbSpline
210
0.0
220
0.0
230
1.0
 70
     8
 71
     3
 72
     9
 73
     5
 74
     0
 42
0.000000001
 43
0.00000001
 40
0.0
 40
0.0
 40
0.0
 40
0.0
 40
0.9793702671387191
 40
0.9999999999999999
 40
0.9999999999999999
 40
0.9999999999999999
 40
0.9999999999999999
 10
77.59146708342264
 20
-4.043664255892885
 30
0.0
 10
76.6915247079883
 20
-4.077739589317613
 30
0.0
 10
75.77262569131344
 20
-4.11253269522258
 30
0.0
 10
74.8537726671241
 20
-4.148123578876058
 30
0.0
 10
74.83481697469631
 20
-4.148857809298134
 30
0.0
  0
SPLINE
  5
15E
330
12E
100
AcDbEntity
  8
0
  6
Continuous
 62
     7
370
    25
100
AcDbSpline
210
0.0
220
0.0
230
1.0
 70
     8
 71
     3
 72
     9
 73
     5
 74
     0
 42
0.000000001
 43
0.00000001
 40
0.0
 40
0.0
 40
0.0
 40
0.0
 40
0.3056988970232086
 40
0.9999999999999999
 40
0.9999999999999999
 40
0.9999999999999999
 40
0.9999999999999999
 10
61.49022784428077
 20
-13.45021149878504
 30
0.0
 10
61.64705013057052
 20
-13.21971805235455
 30
0.0
 10
62.16004604850426
 20
-12.46572957324993
 30
0.0
 10
62.49708972454348
 20
-11.68101403196107
 30
0.0
 10
62.73109952056888
 20
-11.13618516612118
 30
0.0
  0
LWPOLYLINE
  5
15F
330
12E
100
AcDbEntity
  8
0
  6
Continuous
 62
     7
370
    25
100
AcDbPolyline
 90
        3
 70
   128
 43
0.0
 10
43.9162371762
 20
-21.9977740021
 10
43.007757221
 20
-23.974873309
 10
42.8737847608
 20
-24.2216990312
  0
LWPOLYLINE
  5
160
330
12E
100
AcDbEntity
  8
0
  6
Continuous
 62
     7
370
    25
100
AcDbPolyline
 90
        3
 70
   128
 43
0.0
 10
-42.8718859952
 20
-24.2251363358
 10
-43.2901580752
 20
-23.4237587737
 10
-43.9162371762
 20
-21.9977740021
  0
LINE
  5
17A
330
12E
100
AcDbEntity
  8
0
  6
Continuous
 62
     7
370
    25
100
AcDbLine
 10
96.9238815543
 20
9.7984897426
 30
0.0
 11
96.9238815543
 21
16.3308162377
 31
0.0
  0
LINE
  5
17B
330
12E
100
AcDbEntity
  8
0
  6
Continuous
 62
     7
370
    25
100
AcDbLine
 10
-96.9238815543
 20
16.3308162377
 30
0.0
 11
-96.9238815543
 21
9.7984897426
 31
0.0
  0
LINE
  5
17C
330
12E
100
AcDbEntity
  8
0
  6
Continuous
 62
     7
370
    25
100
AcDbLine
 10
95.9238815543
 20
6.7199028296
 30
0.0
 11
95.9238815543
 21
8.0666266064
 31
0.0
  0
LINE
  5
17D
330
12E
100
AcDbEntity
  8
0
  6
Continuous
 62
     7
370
    25
100
AcDbLine
 10
-95.9238815543
 20
8.0666266064
 30
0.0
 11
-95.9238815543
 21
6.8375533561
 31
0.0
  0
LINE
  5
17E
330
12E
100
AcDbEntity
  8
0
  6
Continuous
 62
     7
370
    25
100
AcDbLine
 10
813.1727983645
 20
-73.4720855618
 30
0.0
 11
-176.7766952966
 21
498.0135927141
 31
0.0
  0
LINE
  5
17F
330
12E
100
AcDbEntity
  8
0
  6
Continuous
 62
     7
370
    25
100
AcDbLine
 10
176.7766952966
 20
-440.8557358821
 30
0.0
 11
813.1727983645
 21
-73.4720855618
 31
0.0
  0
LINE
  5
180
330
12E
100
AcDbEntity
  8
0
  6
Continuous
 62
     7
370
    25
100
AcDbLine
 10
-813.1727983645
 20
130.6299423938
 30
0.0
 11
176.7766952966
 21
-440.8557358821
 31
0.0
  0
LINE
  5
181
330
12E
100
AcDbEntity
  8
0
  6
Continuous
 62
     7
370
    25
100
AcDbLine
 10
-176.7766952966
 20
498.0135927141
 30
0.0
 11
-813.1727983645
 21
130.6299423938
 31
0.0
  0
LINE
  5
182
330
12E
100
AcDbEntity
  8
0
  6
Continuous
 62
     7
370
    25
100
AcDbLine
 10
-176.7766952966
 20
481.6854304776
 30
0.0
 11
-784.8885271171
 21
130.6299423938
 31
0.0
  0
LINE
  5
183
330
12E
100
AcDbEntity
  8
0
  6
Continuous
 62
     7
370
    25
100
AcDbLine
 10
-784.8885271171
 20
130.6299423938
 30
0.0
 11
176.7766952966
 21
-424.5275736456
 31
0.0
  0
LINE
  5
184
330
12E
100
AcDbEntity
  8
0
  6
Continuous
 62
     7
370
    25
100
AcDbLine
 10
176.7766952966
 20
-424.5275736456
 30
0.0
 11
784.8885271171
 21
-73.4720855618
 31
0.0
  0
LINE
  5
185
330
12E
100
AcDbEntity
  8
0
  6
Continuous
 62
     7
370
    25
100
AcDbLine
 10
784.8885271171
 20
-73.4720855618
 30
0.0
 11
-176.7766952966
 21
481.6854304776
 31
0.0
  0
LINE
  5
186
330
12E
100
AcDbEntity
  8
0
  6
Continuous
 62
     7
370
    25
100
AcDbLine
 10
-813.1727983645
 20
130.6299423938
 30
0.0
 11
-813.1727983645
 21
102.0510139778
 31
0.0
  0
LINE
  5
187
330
12E
100
AcDbEntity
  8
0
  6
Continuous
 62
     7
370
    25
100
AcDbLine
 10
176.7766952966
 20
-440.8557358821
 30
0.0
 11
176.7766952966
 21
-469.4346642981
 31
0.0
  0
LINE
  5
188
330
12E
100
AcDbEntity
  8
0
  6
Continuous
 62
     7
370
    25
100
AcDbLine
 10
-813.1727983645
 20
102.0510139778
 30
0.0
 11
176.7766952966
 21
-469.4346642981
 31
0.0
  0
LINE
  5
189
330
12E
100
AcDbEntity
  8
0
  6
Continuous
 62
     7
370
    25
100
AcDbLine
 10
813.1727983645
 20
-73.4720855618
 30
0.0
 11
813.1727983645
 21
-102.0510139778
 31
0.0
  0
LINE
  5
18A
330
12E
100
AcDbEntity
  8
0
  6
Continuous
 62
     7
370
    25
100
AcDbLine
 10
176.7766952966
 20
-469.4346642981
 30
0.0
 11
813.1727983645
 21
-102.0510139778
 31
0.0
  0
LINE
  5
18B
330
12E
100
AcDbEntity
  8
0
  6
Continuous
 62
     7
370
    25
100
AcDbLine
 10
176.7766952966
 20
-424.5275736456
 30
0.0
 11
20.7972582702
 21
-36.7281320141
 31
0.0
  0
LINE
  5
18C
330
12E
100
AcDbEntity
  8
0
  6
Continuous
 62
     7
370
    25
100
AcDbLine
 10
-784.8885271171
 20
130.6299423938
 30
0.0
 11
-92.3398267197
 21
28.5845169317
 31
0.0
  0
LINE
  5
18D
330
12E
100
AcDbEntity
  8
0
  6
Continuous
 62
     7
370
    25
100
AcDbLine
 10
784.8885271171
 20
-73.4720855618
 30
0.0
 11
92.3398267197
 21
4.5725136428
 31
0.0
  0
LINE
  5
18E
330
12E
100
AcDbEntity
  8
0
  6
Continuous
 62
     7
370
    25
100
AcDbLine
 10
-20.7972582702
 20
69.8851625886
 30
0.0
 11
-176.7766952966
 21
481.6854304776
 31
0.0
  0
LINE
  5
18F
330
12E
100
AcDbEntity
  8
0
  6
Continuous
 62
     7
370
    25
100
AcDbLine
 10
98.6584639987
 20
8.3583299861
 30
0.0
 11
96.8732836951
 21
9.3888926393
 31
0.0
  0
LINE
  5
190
330
12E
100
AcDbEntity
  8
0
  6
Continuous
 62
     7
370
    25
100
AcDbLine
 10
-96.8732836951
 20
9.3888926393
 30
0.0
 11
-98.5723031986
 21
8.4080695573
 31
0.0
  0
LINE
  5
191
330
12E
100
AcDbEntity
  8
0
  6
Continuous
 62
     7
370
    25
100
AcDbLine
 10
-74.8280374816
 20
-4.1527715274
 30
0.0
 11
-77.4932851597
 21
-4.0505228048
 31
0.0
  0
LINE
  5
192
330
12E
100
AcDbEntity
  8
0
  6
Continuous
 62
     7
370
    25
100
AcDbLine
 10
-62.6181064333
 20
-11.201414687
 30
0.0
 11
-61.5076060699
 21
-13.428071044
 31
0.0
  0
LINE
  5
193
330
12E
100
AcDbEntity
  8
0
  6
Continuous
 62
     7
370
    25
100
AcDbLine
 10
5.0
 20
-44.4636395245
 30
0.0
 11
5.0
 21
-45.502318845
 31
0.0
  0
LINE
  5
194
330
12E
100
AcDbEntity
  8
0
  6
Continuous
 62
     7
370
    25
100
AcDbLine
 10
16.9131182505
 20
-37.5863427459
 30
0.0
 11
20.3685465349
 21
-36.9662490847
 31
0.0
  0
LINE
  5
195
330
12E
100
AcDbEntity
  8
0
  6
Continuous
 62
     7
370
    25
100
AcDbLine
 10
-3.5355339059
 20
71.4383637857
 30
0.0
 11
-95.4594154602
 21
18.3718365173
 31
0.0
  0
LINE
  5
196
330
12E
100
AcDbEntity
  8
0
  6
Continuous
 62
     7
370
    25
100
AcDbLine
 10
95.4594154602
 20
18.3718365173
 30
0.0
 11
3.5355339059
 21
71.4383637857
 31
0.0
  0
LINE
  5
197
330
12E
100
AcDbEntity
  8
0
  6
Continuous
 62
     7
370
    25
100
AcDbLine
 10
3.5355339059
 20
-38.7767313103
 30
0.0
 11
95.4594154602
 21
14.2897959582
 31
0.0
  0
LINE
  5
198
330
12E
100
AcDbEntity
  8
0
  6
Continuous
 62
     7
370
    25
100
AcDbLine
 10
-95.4594154602
 20
14.2897959582
 30
0.0
 11
-3.5355339059
 21
-38.7767313103
 31
0.0
  0
LINE
  5
199
330
12E
100
AcDbEntity
  8
0
  6
Continuous
 62
     7
370
    25
100
AcDbLine
 10
-3.5355339059
 20
-38.7767313103
 30
0.0
 11
-3.5355339059
 21
-45.3090578054
 31
0.0
  0
LINE
  5
19A
330
12E
100
AcDbEntity
  8
0
  6
Continuous
 62
     7
370
    25
100
AcDbLine
 10
3.5355339059
 20
-38.7767313103
 30
0.0
 11
3.5355339059
 21
-45.3090578054
 31
0.0
  0
LINE
  5
19B
330
12E
100
AcDbEntity
  8
0
  6
Continuous
 62
     7
370
    25
100
AcDbLine
 10
95.4594154602
 20
14.2897959582
 30
0.0
 11
95.4594154602
 21
7.7574694631
 31
0.0
  0
LINE
  5
19C
330
12E
100
AcDbEntity
  8
0
  6
Continuous
 62
     7
370
    25
100
AcDbLine
 10
3.5355339059
 20
-45.3090578054
 30
0.0
 11
95.4594154602
 21
7.7574694631
 31
0.0
  0
LINE
  5
19D
330
12E
100
AcDbEntity
  8
0
  6
Continuous
 62
     7
370
    25
100
AcDbLine
 10
-95.4594154602
 20
14.2897959582
 30
0.0
 11
-95.4594154602
 21
7.7574694631
 31
0.0
  0
LINE
  5
19E
330
12E
100
AcDbEntity
  8
0
  6
Continuous
 62
     7
370
    25
100
AcDbLine
 10
-95.4594154602
 20
7.7574694631
 30
0.0
 11
-3.5355339059
 21
-45.3090578054
 31
0.0
  0
LINE
  5
19F
330
12E
100
AcDbEntity
  8
0
  6
Continuous
 62
     7
370
    25
100
AcDbLine
 10
-4.0
 20
-45.0409272366
 30
0.0
 11
-4.0
 21
-46.0213539626
 31
0.0
  0
LINE
  5
1A0
330
12E
100
AcDbEntity
  8
0
  6
Continuous
 62
     7
370
    25
100
AcDbLine
 10
4.0
 20
-45.0409272366
 30
0.0
 11
4.0
 21
-46.0577435068
 31
0.0
  0
LINE
  5
1A1
330
12E
100
AcDbEntity
  8
0
  6
Continuous
 62
    60
370
    25
100
AcDbLine
 10
111.3693180369
 20
15.9740478745
 30
0.0
 11
111.3693180369
 21
18.0377301024
 31
0.0
  0
LINE
  5
1A2
330
12E
100
AcDbEntity
  8
0
  6
Continuous
 62
    60
370
    25
100
AcDbLine
 10
-111.3693180369
 20
15.9967098229
 30
0.0
 11
-111.3693180369
 21
18.015068154
 31
0.0
  0
LINE
  5
1A3
330
12E
100
AcDbEntity
  8
0
  6
Continuous
 62
    60
370
    25
100
AcDbLine
 10
1.767766953
 20
72.0973595465
 30
0.0
 11
1.767766953
 21
81.3093587687
 31
0.0
  0
LINE
  5
1A4
330
12E
100
AcDbEntity
  8
0
  6
Continuous
 62
    60
370
    25
100
AcDbLine
 10
-1.767766953
 20
72.0973595465
 30
0.0
 11
-1.767766953
 21
81.2866968203
 31
0.0
  0
LINE
  5
1A5
330
12E
100
AcDbEntity
  8
0
  6
Continuous
 62
    60
370
    25
100
AcDbLine
 10
-91.9238815543
 20
5.7164491835
 30
0.0
 11
-91.9238815543
 21
4.4655500846
 31
0.0
  0
LINE
  5
1A6
330
12E
100
AcDbEntity
  8
0
  6
Continuous
 62
    60
370
    25
100
AcDbLine
 10
91.9238815543
 20
5.7164491835
 30
0.0
 11
91.9238815543
 21
4.3295132258
 31
0.0
  0
ARC
  5
1A7
330
12E
100
AcDbEntity
  8
0
  6
Continuous
 62
     7
370
    25
100
AcDbCircle
 10
0.0
 20
64.614808361
 30
0.0
 40
7.685109539558431
100
AcDbArc
 50
62.6096722366
 51
117.3903277634
  0
ARC
  5
1A8
330
12E
100
AcDbEntity
  8
0
  6
Continuous
 62
     7
370
    25
100
AcDbCircle
 10
94.6847803262
 20
16.3308162377
 30
0.0
 40
2.183076584171286
100
AcDbArc
 50
290.7834207995
 51
69.2165792006
  0
ARC
  5
1A9
330
12E
100
AcDbEntity
  8
0
  6
Continuous
 62
     7
370
    25
100
AcDbCircle
 10
0.0
 20
-31.9531758855
 30
0.0
 40
7.685109539561473
100
AcDbArc
 50
242.6096722366
 51
297.3903277634
  0
ARC
  5
1AA
330
12E
100
AcDbEntity
  8
0
  6
Continuous
 62
     7
370
    25
100
AcDbCircle
 10
-94.6847803262
 20
16.3308162377
 30
0.0
 40
2.183076584171299
100
AcDbArc
 50
110.7834207995
 51
249.2165792005
  0
ARC
  5
1AB
330
12E
100
AcDbEntity
  8
0
  6
Continuous
 62
     7
370
    25
100
AcDbCircle
 10
0.0
 20
-38.4855023806
 30
0.0
 40
7.685109539561446
100
AcDbArc
 50
242.6096722366
 51
297.3903277634
  0
ARC
  5
1AC
330
12E
100
AcDbEntity
  8
0
  6
Continuous
 62
     7
370
    25
100
AcDbCircle
 10
94.4215962418
 20
10.0480216271
 30
0.0
 40
2.514696392469292
100
AcDbArc
 50
294.3746582936
 51
354.3052007488
  0
ARC
  5
1AD
330
12E
100
AcDbEntity
  8
0
  6
Continuous
 62
     7
370
    25
100
AcDbCircle
 10
-94.4215962418
 20
10.0480216271
 30
0.0
 40
2.514696392468761
100
AcDbArc
 50
185.6947992512
 51
245.6253417064
  0
VIEWPORT
  5
284
330
12E
100
AcDbEntity
  8
0
100
AcDbViewport
 10
0.0
 20
0.0
 30
0.0
 40
205.6
 41
156.0
 68
     1
 69
     1
 12
0.0
 22
0.0
 13
0.0
 23
0.0
 14
10.0
 24
10.0
 15
10.0
 25
10.0
 16
0.0
 26
0.0
 36
1.0
 17
0.0
 27
0.0
 37
0.0
 42
50.0
 43
0.0
 44
0.0
 45
1083.5019455253
 50
0.0
 51
0.0
 72
   100
 90
   557152
  1

281
     0
 71
     1
 74
     0
110
0.0
120
0.0
130
0.0
111
1.0
121
0.0
131
0.0
112
0.0
122
1.0
132
0.0
 79
     0
146
0.0
  0
ENDBLK
  5
131
330
12E
100
AcDbEntity
  8
0
100
AcDbBlockEnd
  0
BLOCK
  5
1B0
330
1AE
100
AcDbEntity
  8
0
100
AcDbBlockBegin
  2
*Paper_Space6
 70
     0
 10
0.0
 20
0.0
 30
0.0
  3
*Paper_Space6
  1

  0
SPLINE
  5
1C3
330
1AE
100
AcDbEntity
  8
0
  6
Continuous
 62
     7
370
    25
100
AcDbSpline
210
0.0
220
0.0
230
1.0
 70
     8
 71
     3
 72
     8
 73
     4
 74
     0
 42
0.000000001
 43
0.00000001
 40
0.0
 40
0.0
 40
0.0
 40
0.0
 40
1.0
 40
1.0
 40
1.0
 40
1.0
 10
47.14415358831996
 20
-24.86929921121734
 30
0.0
 10
42.9572168962565
 20
-28.84953981167508
 30
0.0
 10
38.77068927621225
 20
-32.78969727709617
 30
0.0
 10
34.58455709211385
 20
-36.69110774523376
 30
0.0
  0
SPLINE
  5
1C6
330
1AE
100
AcDbEntity
  8
0
  6
Continuous
 62
     7
370
    25
100
AcDbSpline
210
0.0
220
0.0
230
1.0
 70
     8
 71
     3
 72
     8
 73
     4
 74
     0
 42
0.000000001
 43
0.00000001
 40
0.0
 40
0.0
 40
0.0
 40
0.0
 40
1.0
 40
1.0
 40
1.0
 40
1.0
 10
-106.9223423762736
 20
1.767435404193746
 30
0.0
 10
-102.7362101921752
 20
5.668845872331331
 30
0.0
 10
-98.54968257213103
 20
9.60900333775229
 30
0.0
 10
-94.36274588006759
 20
13.58924393821002
 30
0.0
  0
SPLINE
  5
1C7
330
1AE
100
AcDbEntity
  8
0
  6
Continuous
 62
     7
370
    25
100
AcDbSpline
210
0.0
220
0.0
230
1.0
 70
     8
 71
     3
 72
    20
 73
    16
 74
     0
 42
0.000000001
 43
0.00000001
 40
0.0
 40
0.0
 40
0.0
 40
0.0
 40
0.1249999999999988
 40
0.1249999999999988
 40
0.2499999999999976
 40
0.2499999999999976
 40
0.3749999999999963
 40
0.3749999999999963
 40
0.4999999999999951
 40
0.4999999999999951
 40
0.6249999999999939
 40
0.6249999999999939
 40
0.7499999999999927
 40
0.7499999999999927
 40
1.0
 40
1.0
 40
1.0
 40
1.0
 10
-105.8780355444049
 20
0.0515376302466161
 30
0.0
 10
-106.0240242118096
 20
0.0931062182566444
 30
0.0
 10
-106.1600243353628
 20
0.1410045950392402
 30
0.0
 10
-106.4128611640889
 20
0.2489518753100231
 30
0.0
 10
-106.5308009730994
 20
0.3097508129063717
 30
0.0
 10
-106.739952970855
 20
0.4403774300106231
 30
0.0
 10
-106.8311025172924
 20
0.5098289476916096
 30
0.0
 10
-106.9867905716343
 20
0.656943118007479
 30
0.0
 10
-107.0513274317851
 20
0.7351540728442185
 30
0.0
 10
-107.147720693166
 20
0.8933275109399077
 30
0.0
 10
-107.1805610994819
 20
0.9740167654122209
 30
0.0
 10
-107.2148042293059
 20
1.138682840853611
 30
0.0
 10
-107.2156722108013
 20
1.2214382418579
 30
0.0
 10
-107.170817474106
 20
1.464544256572574
 30
0.0
 10
-107.0763835653524
 20
1.6238713978112
 30
0.0
 10
-106.9223423762736
 20
1.767435404193746
 30
0.0
  0
SPLINE
  5
1C8
330
1AE
100
AcDbEntity
  8
0
  6
Continuous
 62
     7
370
    25
100
AcDbSpline
210
0.0
220
0.0
230
1.0
 70
     8
 71
     3
 72
    18
 73
    14
 74
     0
 42
0.000000001
 43
0.00000001
 40
0.0
 40
0.0
 40
0.0
 40
0.0
 40
0.1249999999999999
 40
0.1249999999999999
 40
0.25
 40
0.25
 40
0.5
 40
0.5
 40
0.7500000000000001
 40
0.7500000000000001
 40
0.875
 40
0.875
 40
1.0
 40
1.0
 40
1.0
 40
1.0
 10
31.2067733155956
 20
-37.20517604576126
 30
0.0
 10
25.49502499047415
 20
-35.72686884146675
 30
0.0
 10
19.78330667945984
 20
-34.25070754915914
 30
0.0
 10
8.359877836277189
 20
-31.29894112697555
 30
0.0
 10
2.648170364290214
 20
-29.82355619287355
 30
0.0
 10
-14.48716135287478
 20
-25.38242861065358
 30
0.0
 10
-25.91087767206916
 20
-22.40237772120921
 30
0.0
 10
-48.76038697192813
 20
-16.19237068299315
 30
0.0
 10
-60.18410189839747
 20
-12.9629793255087
 30
0.0
 10
-77.31943327488644
 20
-8.090075013122776
 30
0.0
 10
-83.03114059495627
 20
-6.460820582917395
 30
0.0
 10
-94.4545691734808
 20
-3.203300710368242
 30
0.0
 10
-100.1662873521099
 20
-1.574816741249756
 30
0.0
 10
-105.878035544405
 20
0.0515376302466231
 30
0.0
  0
SPLINE
  5
1C9
330
1AE
100
AcDbEntity
  8
0
  6
Continuous
 62
     7
370
    25
100
AcDbSpline
210
0.0
220
0.0
230
1.0
 70
     8
 71
     3
 72
    20
 73
    16
 74
     0
 42
0.000000001
 43
0.00000001
 40
0.0
 40
0.0
 40
0.0
 40
0.0
 40
0.1250000000000005
 40
0.1250000000000005
 40
0.2500000000000011
 40
0.2500000000000011
 40
0.3750000000000016
 40
0.3750000000000016
 40
0.5000000000000021
 40
0.5000000000000021
 40
0.6250000000000027
 40
0.6250000000000027
 40
0.7500000000000031
 40
0.7500000000000031
 40
1.0
 40
1.0
 40
1.0
 40
1.0
 10
34.5845570921139
 20
-36.69110774523371
 30
0.0
 10
34.50753628858514
 20
-36.76288994319987
 30
0.0
 10
34.41748762577534
 20
-36.82976252243897
 30
0.0
 10
34.21239525332685
 20
-36.95408498538737
 30
0.0
 10
34.09590261215148
 20
-37.01207675654059
 30
0.0
 10
33.8438377870124
 20
-37.11492671655649
 30
0.0
 10
33.70902136487718
 20
-37.15975002954907
 30
0.0
 10
33.4219779342379
 20
-37.23631545864333
 30
0.0
 10
33.26864524688197
 20
-37.26806004163623
 30
0.0
 10
32.95720702065091
 20
-37.315486849677
 30
0.0
 10
32.79769800147899
 20
-37.33165231279386
 30
0.0
 10
32.47092117160124
 20
-37.34853975715223
 30
0.0
 10
32.306025970383
 20
-37.34899879699648
 30
0.0
 10
31.8198675612895
 20
-37.32706315578559
 30
0.0
 10
31.49875208883824
 20
-37.28074560860198
 30
0.0
 10
31.2067733155956
 20
-37.20517604576126
 30
0.0
  0
SPLINE
  5
1CA
330
1AE
100
AcDbEntity
  8
0
  6
Continuous
 62
     7
370
    25
100
AcDbSpline
210
0.0
220
0.0
230
1.0
 70
     8
 71
     3
 72
    10
 73
     6
 74
     0
 42
0.000000001
 43
0.00000001
 40
0.0
 40
0.0
 40
0.0
 40
0.0
 40
0.5
 40
0.5
 40
1.0
 40
1.0
 40
1.0
 40
1.0
 10
94.3627458800675
 20
21.21749441839154
 30
0.0
 10
86.49318208429918
 20
13.40050270072009
 30
0.0
 10
78.6235787504156
 20
5.595562807558401
 30
0.0
 10
62.88356283058197
 20
-9.76717761817125
 30
0.0
 10
55.01379167173469
 20
-17.3243486716202
 30
0.0
 10
47.14415358831996
 20
-24.86929921121744
 30
0.0
  0
SPLINE
  5
1CD
330
1AE
100
AcDbEntity
  8
0
  6
Continuous
 62
     7
370
    25
100
AcDbSpline
210
0.0
220
0.0
230
1.0
 70
     8
 71
     3
 72
    10
 73
     6
 74
     0
 42
0.000000001
 43
0.00000001
 40
0.0
 40
0.0
 40
0.0
 40
0.0
 40
0.5
 40
0.5
 40
1.0
 40
1.0
 40
1.0
 40
1.0
 10
-94.36274588006754
 20
13.58924393821016
 30
0.0
 10
-86.49318208429925
 20
21.13412325513966
 30
0.0
 10
-78.6235787504157
 20
28.69113157600475
 30
0.0
 10
-62.88356283058209
 20
44.05386729077875
 30
0.0
 10
-55.01379167173485
 20
51.85897205877443
 30
0.0
 10
-47.14415358832011
 20
59.67603756781886
 30
0.0
  0
SPLINE
  5
1CE
330
1AE
100
AcDbEntity
  8
0
  6
Continuous
 62
     7
370
    25
100
AcDbSpline
210
0.0
220
0.0
230
1.0
 70
     8
 71
     3
 72
     8
 73
     4
 74
     0
 42
0.000000001
 43
0.00000001
 40
0.0
 40
0.0
 40
0.0
 40
0.0
 40
1.0
 40
1.0
 40
1.0
 40
1.0
 10
106.9223423762735
 20
33.91278830942866
 30
0.0
 10
102.7362101921752
 20
29.64261209057707
 30
0.0
 10
98.54968257213089
 20
25.41041095379727
 30
0.0
 10
94.36274588006744
 20
21.2174944183914
 30
0.0
  0
SPLINE
  5
1CF
330
1AE
100
AcDbEntity
  8
0
  6
Continuous
 62
     7
370
    25
100
AcDbSpline
210
0.0
220
0.0
230
1.0
 70
     8
 71
     3
 72
    20
 73
    16
 74
     0
 42
0.000000001
 43
0.00000001
 40
0.0
 40
0.0
 40
0.0
 40
0.0
 40
0.1249999999999988
 40
0.1249999999999988
 40
0.2499999999999975
 40
0.2499999999999975
 40
0.3749999999999962
 40
0.3749999999999962
 40
0.499999999999995
 40
0.499999999999995
 40
0.6249999999999938
 40
0.6249999999999938
 40
0.7499999999999925
 40
0.7499999999999925
 40
1.0
 40
1.0
 40
1.0
 40
1.0
 10
105.8780355444056
 20
35.67626504292247
 30
0.0
 10
106.0240242118102
 20
35.63848044764882
 30
0.0
 10
106.1600243353634
 20
35.59360105453268
 30
0.0
 10
106.4128611640895
 20
35.49023730942405
 30
0.0
 10
106.5308009731001
 20
35.43100776004459
 30
0.0
 10
106.7399529708557
 20
35.30194041486395
 30
0.0
 10
106.8311025172929
 20
35.23249655636397
 30
0.0
 10
106.9867905716348
 20
35.08388617853502
 30
0.0
 10
107.0513274317857
 20
35.00414236414927
 30
0.0
 10
107.1477206931665
 20
34.84150612996913
 30
0.0
 10
107.1805610994825
 20
34.75788812226354
 30
0.0
 10
107.2148042293065
 20
34.58595044045144
 30
0.0
 10
107.215672210802
 20
34.49889513130536
 30
0.0
 10
107.1708174741067
 20
34.24129664737041
 30
0.0
 10
107.0763835653522
 20
34.06992214882963
 30
0.0
 10
106.9223423762735
 20
33.91278830942866
 30
0.0
  0
SPLINE
  5
1D0
330
1AE
100
AcDbEntity
  8
0
  6
Continuous
 62
     7
370
    25
100
AcDbSpline
210
0.0
220
0.0
230
1.0
 70
     8
 71
     3
 72
    18
 73
    14
 74
     0
 42
0.000000001
 43
0.00000001
 40
0.0
 40
0.0
 40
0.0
 40
0.0
 40
0.1250000000000001
 40
0.1250000000000001
 40
0.2500000000000001
 40
0.2500000000000001
 40
0.5
 40
0.5
 40
0.7499999999999999
 40
0.7499999999999999
 40
0.8749999999999999
 40
0.8749999999999999
 40
1.0
 40
1.0
 40
1.0
 40
1.0
 10
-31.20677331559497
 20
72.93297871893034
 30
0.0
 10
-25.49502499047352
 20
71.30662430961323
 30
0.0
 10
-19.7833066794592
 20
69.67814030269153
 30
0.0
 10
-8.359877836276556
 20
66.4206203546639
 30
0.0
 10
-2.648170364289569
 20
64.79136588116735
 30
0.0
 10
14.48716135287541
 20
59.91846147342689
 30
0.0
 10
25.91087767206981
 20
56.68906973301986
 30
0.0
 10
48.76038697192877
 20
50.47906272735271
 30
0.0
 10
60.18410189839803
 20
47.49901221201128
 30
0.0
 10
77.31943327488699
 20
43.05788471961365
 30
0.0
 10
83.03114059495678
 20
41.58249982479617
 30
0.0
 10
94.45456917348133
 20
38.6307334709909
 30
0.0
 10
100.1662873521105
 20
37.15457221283909
 30
0.0
 10
105.8780355444056
 20
35.67626504292253
 30
0.0
  0
SPLINE
  5
1D1
330
1AE
100
AcDbEntity
  8
0
  6
Continuous
 62
     7
370
    25
100
AcDbSpline
210
0.0
220
0.0
230
1.0
 70
     8
 71
     3
 72
    20
 73
    16
 74
     0
 42
0.000000001
 43
0.00000001
 40
0.0
 40
0.0
 40
0.0
 40
0.0
 40
0.125
 40
0.125
 40
0.25
 40
0.25
 40
0.375
 40
0.375
 40
0.5
 40
0.5
 40
0.625
 40
0.625
 40
0.75
 40
0.75
 40
1.0
 40
1.0
 40
1.0
 40
1.0
 10
-34.584557092114
 20
72.3713314588561
 30
0.0
 10
-34.50753628858522
 20
72.44989859174188
 30
0.0
 10
-34.41748762577477
 20
72.5230912601161
 30
0.0
 10
-34.21239525332621
 20
72.65916830940012
 30
0.0
 10
-34.09590261215083
 20
72.72264586910707
 30
0.0
 10
-33.84383778701174
 20
72.83523023538206
 30
0.0
 10
-33.70902136487657
 20
72.8842987619309
 30
0.0
 10
-33.42197793423727
 20
72.96811427378694
 30
0.0
 10
-33.26864524688136
 20
73.00286384389622
 30
0.0
 10
-32.95720702065029
 20
73.05476402963063
 30
0.0
 10
-32.79769800147836
 20
73.07244374525045
 30
0.0
 10
-32.47092117160059
 20
73.09086327930372
 30
0.0
 10
-32.30602597038238
 20
73.09131527441488
 30
0.0
 10
-31.81986756128886
 20
73.06707651996724
 30
0.0
 10
-31.49875208883762
 20
73.01611630452767
 30
0.0
 10
-31.20677331559497
 20
72.93297871893034
 30
0.0
  0
SPLINE
  5
1D2
330
1AE
100
AcDbEntity
  8
0
  6
Continuous
 62
     7
370
    25
100
AcDbSpline
210
0.0
220
0.0
230
1.0
 70
     8
 71
     3
 72
     8
 73
     4
 74
     0
 42
0.000000001
 43
0.00000001
 40
0.0
 40
0.0
 40
0.0
 40
0.0
 40
1.0
 40
1.0
 40
1.0
 40
1.0
 10
-47.14415358832011
 20
59.67603756781885
 30
0.0
 10
-42.95721689625667
 20
63.86895410322471
 30
0.0
 10
-38.77068927621239
 20
68.10115524000454
 30
0.0
 10
-34.584557092114
 20
72.3713314588561
 30
0.0
  0
SPLINE
  5
1D8
330
1AE
100
AcDbEntity
  8
0
  6
Continuous
 62
     7
370
    25
100
AcDbSpline
210
0.0
220
0.0
230
1.0
 70
     8
 71
     3
 72
    10
 73
     6
 74
     0
 42
0.000000001
 43
0.00000001
 40
0.0
 40
0.0
 40
0.0
 40
0.0
 40
0.2771089752549053
 40
0.7387242364015526
 40
1.0
 40
1.0
 40
1.0
 40
1.0
 10
40.33122039805117
 20
-27.60044148959746
 30
0.0
 10
41.18364892651321
 20
-27.23539649171886
 30
0.0
 10
43.45607483114429
 20
-26.26225014356459
 30
0.0
 10
46.30123900612904
 20
-24.80503680796438
 30
0.0
 10
48.15255747549731
 20
-23.66851291227747
 30
0.0
 10
48.82168273807568
 20
-23.25773709887159
 30
0.0
  0
SPLINE
  5
1D9
330
1AE
100
AcDbEntity
  8
0
  6
Continuous
 62
     7
370
    25
100
AcDbSpline
210
0.0
220
0.0
230
1.0
 70
     8
 71
     3
 72
    10
 73
     6
 74
     0
 42
0.000000001
 43
0.00000001
 40
0.0
 40
0.0
 40
0.0
 40
0.0
 40
0.4372767476177023
 40
0.8782242661052554
 40
1.0
 40
1.0
 40
1.0
 40
1.0
 10
62.834240802199
 20
-9.762475500515567
 30
0.0
 10
63.24446606822741
 20
-8.88935488643373
 30
0.0
 10
64.0683602843237
 20
-7.135784145019011
 30
0.0
 10
64.67417985583344
 20
-5.113045984323062
 30
0.0
 10
64.77291206429707
 20
-3.970910269285863
 30
0.0
 10
64.79427813917277
 20
-3.723747184559513
 30
0.0
  0
LWPOLYLINE
  5
1DE
330
1AE
100
AcDbEntity
  8
0
  6
Continuous
 62
     7
370
    25
100
AcDbPolyline
 90
        9
 70
   128
 43
0.0
 10
92.2444687979
 20
29.9258188284
 10
92.6147383354
 20
30.3932386389
 10
92.80084016
 20
30.8888814008
 10
92.7956224831
 20
31.3936998408
 10
92.599285817
 20
31.8882940694
 10
92.2193752697
 20
32.3536571077
 10
91.6704905905
 20
32.7719053152
 10
90.9737251097
 20
33.1269656477
 10
90.1558551341
 20
33.4051933359
  0
LWPOLYLINE
  5
1E2
330
1AE
100
AcDbEntity
  8
0
  6
Continuous
 62
     7
370
    25
100
AcDbPolyline
 90
        9
 70
   128
 43
0.0
 10
-92.2444687979
 20
4.3608731996
 10
-92.6147383354
 20
3.8934533892
 10
-92.80084016
 20
3.3978106273
 10
-92.7956224831
 20
2.8929921873
 10
-92.599285817
 20
2.3983979587
 10
-92.2193752697
 20
1.9330349204
 10
-91.6704905905
 20
1.5147867129
 10
-90.9737251097
 20
1.1597263804
 10
-90.1558551341
 20
0.8814986922
  0
LINE
  5
1EF
330
1AE
100
AcDbEntity
  8
0
  6
Continuous
 62
     7
370
    25
100
AcDbLine
 10
31.1519776286
 20
-37.2943151912
 30
0.0
 11
31.1519776286
 21
-36.490975213
 31
0.0
  0
LINE
  5
1F0
330
1AE
100
AcDbEntity
  8
0
  6
Continuous
 62
     7
370
    25
100
AcDbLine
 10
-92.8223781895
 20
3.1590437262
 30
0.0
 11
-92.8223781895
 21
-3.6982946794
 31
0.0
  0
LINE
  5
1F1
330
1AE
100
AcDbEntity
  8
0
  6
Continuous
 62
     7
370
    25
100
AcDbLine
 10
92.8223781895
 20
24.2703098962
 30
0.0
 11
92.8223781895
 21
31.1276483019
 31
0.0
  0
LINE
  5
1F2
330
1AE
100
AcDbEntity
  8
0
  6
Continuous
 62
     7
370
    25
100
AcDbLine
 10
91.8223781895
 20
18.7100375203
 30
0.0
 11
91.8223781895
 21
22.6565070493
 31
0.0
  0
LINE
  5
1F3
330
1AE
100
AcDbEntity
  8
0
  6
Continuous
 62
     7
370
    25
100
AcDbLine
 10
829.1056101927
 20
66.7237823078
 30
0.0
 11
-409.0797601557
 21
403.2360348652
 31
0.0
  0
LINE
  5
1F4
330
1AE
100
AcDbEntity
  8
0
  6
Continuous
 62
     7
370
    25
100
AcDbLine
 10
409.0797601557
 20
-343.2343238161
 30
0.0
 11
829.1056101927
 21
66.7237823078
 31
0.0
  0
LINE
  5
1F5
330
1AE
100
AcDbEntity
  8
0
  6
Continuous
 62
     7
370
    25
100
AcDbLine
 10
-829.1056101927
 20
-6.7220712586
 30
0.0
 11
409.0797601557
 21
-343.2343238161
 31
0.0
  0
LINE
  5
1F6
330
1AE
100
AcDbEntity
  8
0
  6
Continuous
 62
     7
370
    25
100
AcDbLine
 10
-409.0797601557
 20
403.2360348652
 30
0.0
 11
-829.1056101927
 21
-6.7220712586
 31
0.0
  0
LINE
  5
1F7
330
1AE
100
AcDbEntity
  8
0
  6
Continuous
 62
     7
370
    25
100
AcDbLine
 10
-400.7253055007
 20
389.3185368355
 30
0.0
 11
-802.0833399806
 21
-2.4192090162
 31
0.0
  0
LINE
  5
1F8
330
1AE
100
AcDbEntity
  8
0
  6
Continuous
 62
     7
370
    25
100
AcDbLine
 10
-802.0833399806
 20
-2.4192090162
 30
0.0
 11
400.7253055007
 21
-329.3168257863
 31
0.0
  0
LINE
  5
1F9
330
1AE
100
AcDbEntity
  8
0
  6
Continuous
 62
     7
370
    25
100
AcDbLine
 10
400.7253055007
 20
-329.3168257863
 30
0.0
 11
802.0833399806
 21
62.4209200653
 31
0.0
  0
LINE
  5
1FA
330
1AE
100
AcDbEntity
  8
0
  6
Continuous
 62
     7
370
    25
100
AcDbLine
 10
802.0833399806
 20
62.4209200653
 30
0.0
 11
-400.7253055007
 21
389.3185368355
 31
0.0
  0
LINE
  5
1FB
330
1AE
100
AcDbEntity
  8
0
  6
Continuous
 62
     7
370
    25
100
AcDbLine
 10
-829.1056101927
 20
-6.7220712586
 30
0.0
 11
-829.1056101927
 21
-36.7229267832
 31
0.0
  0
LINE
  5
1FC
330
1AE
100
AcDbEntity
  8
0
  6
Continuous
 62
     7
370
    25
100
AcDbLine
 10
409.0797601557
 20
-343.2343238161
 30
0.0
 11
409.0797601557
 21
-373.2351793407
 31
0.0
  0
LINE
  5
1FD
330
1AE
100
AcDbEntity
  8
0
  6
Continuous
 62
     7
370
    25
100
AcDbLine
 10
-829.1056101927
 20
-36.7229267832
 30
0.0
 11
409.0797601557
 21
-373.2351793407
 31
0.0
  0
LINE
  5
1FE
330
1AE
100
AcDbEntity
  8
0
  6
Continuous
 62
     7
370
    25
100
AcDbLine
 10
829.1056101927
 20
66.7237823078
 30
0.0
 11
829.1056101927
 21
36.7229267832
 31
0.0
  0
LINE
  5
1FF
330
1AE
100
AcDbEntity
  8
0
  6
Continuous
 62
     7
370
    25
100
AcDbLine
 10
409.0797601557
 20
-373.2351793407
 30
0.0
 11
829.1056101927
 21
36.7229267832
 31
0.0
  0
LINE
  5
200
330
1AE
100
AcDbEntity
  8
0
  6
Continuous
 62
     7
370
    25
100
AcDbLine
 10
400.7253055007
 20
-329.3168257863
 30
0.0
 11
47.1441535883
 21
-24.8692992112
 31
0.0
  0
LINE
  5
201
330
1AE
100
AcDbEntity
  8
0
  6
Continuous
 62
     7
370
    25
100
AcDbLine
 10
-802.0833399806
 20
-2.4192090162
 30
0.0
 11
-94.3627458801
 21
13.5892439382
 31
0.0
  0
LINE
  5
202
330
1AE
100
AcDbEntity
  8
0
  6
Continuous
 62
     7
370
    25
100
AcDbLine
 10
802.0833399806
 20
62.4209200653
 30
0.0
 11
94.3627458801
 21
21.2174944184
 31
0.0
  0
LINE
  5
203
330
1AE
100
AcDbEntity
  8
0
  6
Continuous
 62
     7
370
    25
100
AcDbLine
 10
-47.1441535883
 20
59.6760375678
 30
0.0
 11
-400.7253055007
 21
389.3185368355
 31
0.0
  0
LINE
  5
204
330
1AE
100
AcDbEntity
  8
0
  6
Continuous
 62
     7
370
    25
100
AcDbLine
 10
-92.8223781895
 20
-2.3106791519
 30
0.0
 11
-93.899468962
 21
-3.3619527657
 31
0.0
  0
LINE
  5
205
330
1AE
100
AcDbEntity
  8
0
  6
Continuous
 62
     7
370
    25
100
AcDbLine
 10
94.1438734674
 20
21.0014575262
 30
0.0
 11
91.8223781895
 21
21.6323901991
 31
0.0
  0
LINE
  5
206
330
1AE
100
AcDbEntity
  8
0
  6
Continuous
 62
     7
370
    25
100
AcDbLine
 10
82.5089878961
 20
9.5173034046
 30
0.0
 11
77.2836026029
 21
8.4662163699
 31
0.0
  0
LINE
  5
207
330
1AE
100
AcDbEntity
  8
0
  6
Continuous
 62
     7
370
    25
100
AcDbLine
 10
64.6647968002
 20
-3.8501249409
 30
0.0
 11
64.7707525956
 21
-4.436448033
 31
0.0
  0
LINE
  5
208
330
1AE
100
AcDbEntity
  8
0
  6
Continuous
 62
     7
370
    25
100
AcDbLine
 10
-31.574068237
 20
63.5770440842
 30
0.0
 11
-92.2444687979
 21
4.3608731996
 31
0.0
  0
LINE
  5
209
330
1AE
100
AcDbEntity
  8
0
  6
Continuous
 62
     7
370
    25
100
AcDbLine
 10
90.1558551341
 20
33.4051933359
 30
0.0
 11
-24.8185006839
 21
64.6527596448
 31
0.0
  0
LINE
  5
20A
330
1AE
100
AcDbEntity
  8
0
  6
Continuous
 62
     7
370
    25
100
AcDbLine
 10
31.574068237
 20
-29.2903520561
 30
0.0
 11
92.2444687979
 21
29.9258188284
 31
0.0
  0
LINE
  5
20B
330
1AE
100
AcDbEntity
  8
0
  6
Continuous
 62
     7
370
    25
100
AcDbLine
 10
-90.1558551341
 20
0.8814986922
 30
0.0
 11
24.8185006839
 21
-30.3660676167
 31
0.0
  0
LINE
  5
20C
330
1AE
100
AcDbEntity
  8
0
  6
Continuous
 62
     7
370
    25
100
AcDbLine
 10
31.574068237
 20
-29.2903520561
 30
0.0
 11
31.574068237
 21
-36.1476904617
 31
0.0
  0
LINE
  5
20D
330
1AE
100
AcDbEntity
  8
0
  6
Continuous
 62
     7
370
    25
100
AcDbLine
 10
92.2444687979
 20
29.9258188284
 30
0.0
 11
92.2444687979
 21
23.0684804228
 31
0.0
  0
LINE
  5
20E
330
1AE
100
AcDbEntity
  8
0
  6
Continuous
 62
     7
370
    25
100
AcDbLine
 10
31.574068237
 20
-36.1476904617
 30
0.0
 11
92.2444687979
 21
23.0684804228
 31
0.0
  0
LINE
  5
20F
330
1AE
100
AcDbEntity
  8
0
  6
Continuous
 62
    60
370
    25
100
AcDbLine
 10
-106.9223423763
 20
0.6186365132
 30
0.0
 11
-106.9223423763
 21
1.7674354042
 31
0.0
  0
LINE
  5
210
330
1AE
100
AcDbEntity
  8
0
  6
Continuous
 62
    60
370
    25
100
AcDbLine
 10
-34.5845570921
 20
60.6387146708
 30
0.0
 11
-34.5845570921
 21
72.3713314589
 31
0.0
  0
LINE
  5
211
330
1AE
100
AcDbEntity
  8
0
  6
Continuous
 62
    60
370
    25
100
AcDbLine
 10
105.8780355444
 20
32.8571984943
 30
0.0
 11
105.8780355444
 21
35.6762650429
 31
0.0
  0
LINE
  5
212
330
1AE
100
AcDbEntity
  8
0
  6
Continuous
 62
    60
370
    25
100
AcDbLine
 10
-31.2067733156
 20
63.8819656894
 30
0.0
 11
-31.2067733156
 21
72.9329787189
 31
0.0
  0
LINE
  5
213
330
1AE
100
AcDbEntity
  8
0
  6
Continuous
 62
    60
370
    25
100
AcDbLine
 10
24.8185006839
 20
-30.3660676167
 30
0.0
 11
24.8185006839
 21
-35.553229846
 31
0.0
  0
LINE
  5
214
330
1AE
100
AcDbEntity
  8
0
  6
Continuous
 62
    60
370
    25
100
AcDbLine
 10
-90.1558551341
 20
0.8814986922
 30
0.0
 11
-90.1558551341
 21
-4.4287573586
 31
0.0
  0
LINE
  5
215
330
1AE
100
AcDbEntity
  8
0
  6
Continuous
 62
    60
370
    25
100
AcDbLine
 10
89.0038764974
 20
19.9055629926
 30
0.0
 11
89.0038764974
 21
15.9280498828
 31
0.0
  0
ARC
  5
216
330
1AE
100
AcDbEntity
  8
0
  6
Continuous
 62
     7
370
    25
100
AcDbCircle
 10
-27.1104672824
 20
57.2958954606
 30
0.0
 40
7.705618827393772
100
AcDbArc
 50
72.6960345908
 51
125.398914916
  0
ARC
  5
217
330
1AE
100
AcDbEntity
  8
0
  6
Continuous
 62
     7
370
    25
100
AcDbCircle
 10
27.1104672824
 20
-23.0092034325
 30
0.0
 40
7.705618827397326
100
AcDbArc
 50
252.6960345908
 51
305.398914916
  0
ARC
  5
218
330
1AE
100
AcDbEntity
  8
0
  6
Continuous
 62
     7
370
    25
100
AcDbCircle
 10
28.6669886604
 20
-32.9303561449
 30
0.0
 40
4.336167866954123
100
AcDbArc
 50
291.3391889497
 51
312.0999503906
  0
ARC
  5
219
330
1AE
100
AcDbEntity
  8
0
  6
Continuous
 62
     7
370
    25
100
AcDbCircle
 10
91.1630990458
 20
24.3283267181
 30
0.0
 40
1.660293115189336
100
AcDbArc
 50
310.6406362012
 51
357.9974645045
  0
VIEWPORT
  5
286
330
1AE
100
AcDbEntity
  8
0
100
AcDbViewport
 10
0.0
 20
0.0
 30
0.0
 40
205.6
 41
156.0
 68
     1
 69
     1
 12
0.0
 22
0.0
 13
0.0
 23
0.0
 14
10.0
 24
10.0
 15
10.0
 25
10.0
 16
0.0
 26
0.0
 36
1.0
 17
0.0
 27
0.0
 37
0.0
 42
50.0
 43
0.0
 44
0.0
 45
1083.5019455253
 50
0.0
 51
0.0
 72
   100
 90
   557152
  1

281
     0
 71
     1
 74
     0
110
0.0
120
0.0
130
0.0
111
1.0
121
0.0
131
0.0
112
0.0
122
1.0
132
0.0
 79
     0
146
0.0
  0
ENDBLK
  5
1B1
330
1AE
100
AcDbEntity
  8
0
100
AcDbBlockEnd
  0
BLOCK
  5
21C
330
21A
100
AcDbEntity
  8
0
100
AcDbBlockBegin
  2
*Paper_Space7
 70
     0
 10
0.0
 20
0.0
 30
0.0
  3
*Paper_Space7
  1

  0
SPLINE
  5
22E
330
21A
100
AcDbEntity
  8
0
  6
Continuous
 62
     7
370
    25
100
AcDbSpline
210
0.0
220
0.0
230
1.0
 70
     8
 71
     3
 72
     8
 73
     4
 74
     0
 42
0.000000001
 43
0.00000001
 40
0.0
 40
0.0
 40
0.0
 40
0.0
 40
1.0
 40
1.0
 40
1.0
 40
1.0
 10
56.94750562966878
 20
-6.05956053272388
 30
0.0
 10
53.77561728782647
 20
-8.739940651192471
 30
0.0
 10
50.60403884576629
 20
-11.3763986804547
 30
0.0
 10
47.4327599732384
 20
-13.97039872658742
 30
0.0
  0
SPLINE
  5
231
330
21A
100
AcDbEntity
  8
0
  6
Continuous
 62
     7
370
    25
100
AcDbSpline
210
0.0
220
0.0
230
1.0
 70
     8
 71
     3
 72
     8
 73
     4
 74
     0
 42
0.000000001
 43
0.00000001
 40
0.0
 40
0.0
 40
0.0
 40
0.0
 40
1.0
 40
1.0
 40
1.0
 40
1.0
 10
-102.2335355026243
 20
4.885782096241652
 30
0.0
 10
-99.0622566300964
 20
7.47978214237436
 30
0.0
 10
-95.89067818803623
 20
10.11624017163647
 30
0.0
 10
-92.71878984619394
 20
12.79662029010505
 30
0.0
  0
SPLINE
  5
232
330
21A
100
AcDbEntity
  8
0
  6
Continuous
 62
     7
370
    25
100
AcDbSpline
210
0.0
220
0.0
230
1.0
 70
     8
 71
     3
 72
    20
 73
    16
 74
     0
 42
0.000000001
 43
0.00000001
 40
0.0
 40
0.0
 40
0.0
 40
0.0
 40
0.1249999999999988
 40
0.1249999999999988
 40
0.2499999999999976
 40
0.2499999999999976
 40
0.3749999999999963
 40
0.3749999999999963
 40
0.4999999999999951
 40
0.4999999999999951
 40
0.6249999999999939
 40
0.6249999999999939
 40
0.7499999999999927
 40
0.7499999999999927
 40
1.0
 40
1.0
 40
1.0
 40
1.0
 10
-100.778883112094
 20
3.837808661998392
 30
0.0
 10
-100.9332895976717
 20
3.859343081122836
 30
0.0
 10
-101.0793987387182
 20
3.885179938613269
 30
0.0
 10
-101.3556982214264
 20
3.945115311796067
 30
0.0
 10
-101.4871629705835
 20
3.97965107411629
 30
0.0
 10
-101.7259319818128
 20
4.055263082271745
 30
0.0
 10
-101.8330814811419
 20
4.096104404723032
 30
0.0
 10
-102.0231308712697
 20
4.18381319508036
 30
0.0
 10
-102.106164477757
 20
4.231026225251833
 30
0.0
 10
-102.2403921305678
 20
4.327606746438815
 30
0.0
 10
-102.2927372474837
 20
4.377400625542379
 30
0.0
 10
-102.3671925846197
 20
4.480074107252735
 30
0.0
 10
-102.3884732702816
 20
4.532201199170187
 30
0.0
 10
-102.4041726391463
 20
4.686863499267068
 30
0.0
 10
-102.3502321445221
 20
4.790328146389227
 30
0.0
 10
-102.2335355026243
 20
4.885782096241652
 30
0.0
  0
SPLINE
  5
233
330
21A
100
AcDbEntity
  8
0
  6
Continuous
 62
     7
370
    25
100
AcDbSpline
210
0.0
220
0.0
230
1.0
 70
     8
 71
     3
 72
    18
 73
    14
 74
     0
 42
0.000000001
 43
0.00000001
 40
0.0
 40
0.0
 40
0.0
 40
0.0
 40
0.1249999999999999
 40
0.1249999999999999
 40
0.25
 40
0.25
 40
0.5
 40
0.5
 40
0.7500000000000001
 40
0.7500000000000001
 40
0.875
 40
0.875
 40
1.0
 40
1.0
 40
1.0
 40
1.0
 10
44.21034063014812
 20
-14.42911651011725
 30
0.0
 10
38.16924852988368
 20
-13.74942993329021
 30
0.0
 10
32.12818817436272
 20
-13.072098699179
 30
0.0
 10
20.04607569070102
 20
-11.718046672177
 30
0.0
 10
14.00502679919402
 20
-11.04156756836318
 30
0.0
 10
-4.118341244998502
 20
-8.995696185915104
 30
0.0
 10
-16.20075778075855
 20
-7.610581348392185
 30
0.0
 10
-40.36778725563688
 20
-4.565821812124133
 30
0.0
 10
-52.45020231836629
 20
-2.906454042526776
 30
0.0
 10
-70.57357000223912
 20
-0.3856659743802296
 30
0.0
 10
-76.61461873306934
 20
0.460056139065454
 30
0.0
 10
-88.69673093681251
 20
2.150410256519977
 30
0.0
 10
-94.73779115231481
 20
2.995283131128495
 30
0.0
 10
-100.778883112094
 20
3.837808661998395
 30
0.0
  0
SPLINE
  5
234
330
21A
100
AcDbEntity
  8
0
  6
Continuous
 62
     7
370
    25
100
AcDbSpline
210
0.0
220
0.0
230
1.0
 70
     8
 71
     3
 72
    20
 73
    16
 74
     0
 42
0.000000001
 43
0.00000001
 40
0.0
 40
0.0
 40
0.0
 40
0.0
 40
0.1250000000000005
 40
0.1250000000000005
 40
0.2500000000000011
 40
0.2500000000000011
 40
0.3750000000000016
 40
0.3750000000000016
 40
0.5000000000000021
 40
0.5000000000000021
 40
0.6250000000000027
 40
0.6250000000000027
 40
0.7500000000000031
 40
0.7500000000000031
 40
1.0
 40
1.0
 40
1.0
 40
1.0
 10
47.43275997323844
 20
-13.97039872658739
 30
0.0
 10
47.37441149396593
 20
-14.01812583101704
 30
0.0
 10
47.30189884133529
 20
-14.06334416862538
 30
0.0
 10
47.12969836259337
 20
-14.14896409099736
 30
0.0
 10
47.02870925234843
 20
-14.18976177111178
 30
0.0
 10
46.80449107829964
 20
-14.26399340029595
 30
0.0
 10
46.68200315946056
 20
-14.29737452647917
 30
0.0
 10
46.41645568910342
 20
-14.35673850868969
 30
0.0
 10
46.27229958087098
 20
-14.38276857347996
 30
0.0
 10
45.97520356443007
 20
-14.42506188714557
 30
0.0
 10
45.82099271550328
 20
-14.44168293163911
 30
0.0
 10
45.50097794083212
 20
-14.46566974629841
 30
0.0
 10
45.3374621251099
 20
-14.47277438438491
 30
0.0
 10
44.84949517947253
 20
-14.47928659268888
 30
0.0
 10
44.51915512267804
 20
-14.46386139760093
 30
0.0
 10
44.21034063014812
 20
-14.42911651011725
 30
0.0
  0
SPLINE
  5
235
330
21A
100
AcDbEntity
  8
0
  6
Continuous
 62
     7
370
    25
100
AcDbSpline
210
0.0
220
0.0
230
1.0
 70
     8
 71
     3
 72
    10
 73
     6
 74
     0
 42
0.000000001
 43
0.00000001
 40
0.0
 40
0.0
 40
0.0
 40
0.0
 40
0.5
 40
0.5
 40
1.0
 40
1.0
 40
1.0
 40
1.0
 10
92.71878984619386
 20
25.48774683948616
 30
0.0
 10
86.75706185864217
 20
20.08034704204997
 30
0.0
 10
80.79530391811991
 20
14.6862192270912
 30
0.0
 10
68.87117497411913
 20
4.170123373718956
 30
0.0
 10
62.90928989514799
 20
-0.9514123505969946
 30
0.0
 10
56.94750562966877
 20
-6.059560532723987
 30
0.0
  0
SPLINE
  5
238
330
21A
100
AcDbEntity
  8
0
  6
Continuous
 62
     7
370
    25
100
AcDbSpline
210
0.0
220
0.0
230
1.0
 70
     8
 71
     3
 72
    10
 73
     6
 74
     0
 42
0.000000001
 43
0.00000001
 40
0.0
 40
0.0
 40
0.0
 40
0.0
 40
0.5
 40
0.5
 40
1.0
 40
1.0
 40
1.0
 40
1.0
 10
-92.7187898461939
 20
12.79662029010519
 30
0.0
 10
-86.7570618586422
 20
17.90472025244081
 30
0.0
 10
-80.79530391811998
 20
23.02614502813247
 30
0.0
 10
-68.87117497411923
 20
33.54223569986566
 30
0.0
 10
-62.9092898951481
 20
38.93647681973646
 30
0.0
 10
-56.94750562966889
 20
44.34392766231505
 30
0.0
  0
SPLINE
  5
239
330
21A
100
AcDbEntity
  8
0
  6
Continuous
 62
     7
370
    25
100
AcDbSpline
210
0.0
220
0.0
230
1.0
 70
     8
 71
     3
 72
     8
 73
     4
 74
     0
 42
0.000000001
 43
0.00000001
 40
0.0
 40
0.0
 40
0.0
 40
0.0
 40
1.0
 40
1.0
 40
1.0
 40
1.0
 10
102.2335355026242
 20
34.35934250932736
 30
0.0
 10
99.06225663009631
 20
31.35973239882972
 30
0.0
 10
95.89067818803612
 20
28.40205188047293
 30
0.0
 10
92.71878984619381
 20
25.48774683948602
 30
0.0
  0
SPLINE
  5
23A
330
21A
100
AcDbEntity
  8
0
  6
Continuous
 62
     7
370
    25
100
AcDbSpline
210
0.0
220
0.0
230
1.0
 70
     8
 71
     3
 72
    20
 73
    16
 74
     0
 42
0.000000001
 43
0.00000001
 40
0.0
 40
0.0
 40
0.0
 40
0.0
 40
0.1249999999999988
 40
0.1249999999999988
 40
0.2499999999999975
 40
0.2499999999999975
 40
0.3749999999999962
 40
0.3749999999999962
 40
0.499999999999995
 40
0.499999999999995
 40
0.6249999999999938
 40
0.6249999999999938
 40
0.7499999999999925
 40
0.7499999999999925
 40
1.0
 40
1.0
 40
1.0
 40
1.0
 10
100.7788831120947
 20
35.45964863663345
 30
0.0
 10
100.9332895976724
 20
35.44227627847695
 30
0.0
 10
101.0793987387189
 20
35.41976003890423
 30
0.0
 10
101.3556982214271
 20
35.36486615340986
 30
0.0
 10
101.4871629705843
 20
35.3320565808305
 30
0.0
 10
101.7259319818135
 20
35.25815963537834
 30
0.0
 10
101.8330814811426
 20
35.21732673735609
 30
0.0
 10
102.0231308712703
 20
35.12797224962987
 30
0.0
 10
102.1061644777577
 20
35.07907320805651
 30
0.0
 10
102.2403921305684
 20
34.97758400160372
 30
0.0
 10
102.2927372474843
 20
34.92456875016512
 30
0.0
 10
102.3671925846203
 20
34.8138971376024
 30
0.0
 10
102.3884732702824
 20
34.75704052290592
 30
0.0
 10
102.4041726391471
 20
34.58643777453836
 30
0.0
 10
102.3502321445219
 20
34.4697220883451
 30
0.0
 10
102.2335355026242
 20
34.35934250932736
 30
0.0
  0
SPLINE
  5
23B
330
21A
100
AcDbEntity
  8
0
  6
Continuous
 62
     7
370
    25
100
AcDbSpline
210
0.0
220
0.0
230
1.0
 70
     8
 71
     3
 72
    18
 73
    14
 74
     0
 42
0.000000001
 43
0.00000001
 40
0.0
 40
0.0
 40
0.0
 40
0.0
 40
0.1250000000000001
 40
0.1250000000000001
 40
0.2500000000000001
 40
0.2500000000000001
 40
0.5
 40
0.5
 40
0.7499999999999999
 40
0.7499999999999999
 40
0.8749999999999999
 40
0.8749999999999999
 40
1.0
 40
1.0
 40
1.0
 40
1.0
 10
-44.21034063014741
 20
53.72657380874909
 30
0.0
 10
-38.16924852988297
 20
52.88404825828633
 30
0.0
 10
-32.128188174362
 20
52.03917536403117
 30
0.0
 10
-20.0460756907003
 20
50.34882120740546
 30
0.0
 10
-14.00502679919329
 20
49.50309907151291
 30
0.0
 10
4.118341244999213
 20
46.98231095492788
 30
0.0
 10
16.20075778075925
 20
45.32294299489574
 30
0.0
 10
40.36778725563758
 20
42.27818349442865
 30
0.0
 10
52.45020231836693
 20
40.89306883763968
 30
0.0
 10
70.57357000223978
 20
38.84719749754515
 30
0.0
 10
76.61461873306993
 20
38.17071841177123
 30
0.0
 10
88.69673093681315
 20
36.81666641613087
 30
0.0
 10
94.73779115231554
 20
36.13933519765445
 30
0.0
 10
100.7788831120947
 20
35.4596486366335
 30
0.0
  0
SPLINE
  5
23C
330
21A
100
AcDbEntity
  8
0
  6
Continuous
 62
     7
370
    25
100
AcDbSpline
210
0.0
220
0.0
230
1.0
 70
     8
 71
     3
 72
    20
 73
    16
 74
     0
 42
0.000000001
 43
0.00000001
 40
0.0
 40
0.0
 40
0.0
 40
0.0
 40
0.125
 40
0.125
 40
0.25
 40
0.25
 40
0.375
 40
0.375
 40
0.5
 40
0.5
 40
0.625
 40
0.625
 40
0.75
 40
0.75
 40
1.0
 40
1.0
 40
1.0
 40
1.0
 10
-47.43275997323853
 20
53.21552333215639
 30
0.0
 10
-47.374411493966
 20
53.27071327141851
 30
0.0
 10
-47.30189884133465
 20
53.32288315416353
 30
0.0
 10
-47.12969836259265
 20
53.42143209315632
 30
0.0
 10
-47.0287092523477
 20
53.4682636607564
 30
0.0
 10
-46.8044910782989
 20
53.5532022852124
 30
0.0
 10
-46.68200315945986
 20
53.5912527749156
 30
0.0
 10
-46.4164556891027
 20
53.65859121389159
 30
0.0
 10
-46.27229958087028
 20
53.68792650161898
 30
0.0
 10
-45.97520356442936
 20
53.73514013939476
 30
0.0
 10
-45.82099271550257
 20
53.75342672916739
 30
0.0
 10
-45.50097794083138
 20
53.77909870845643
 30
0.0
 10
-45.3374621251092
 20
53.78619559795283
 30
0.0
 10
-44.84949517947182
 20
53.79017458318393
 30
0.0
 10
-44.51915512267735
 20
53.76964285917762
 30
0.0
 10
-44.21034063014741
 20
53.72657380874909
 30
0.0
  0
SPLINE
  5
23D
330
21A
100
AcDbEntity
  8
0
  6
Continuous
 62
     7
370
    25
100
AcDbSpline
210
0.0
220
0.0
230
1.0
 70
     8
 71
     3
 72
     8
 73
     4
 74
     0
 42
0.000000001
 43
0.00000001
 40
0.0
 40
0.0
 40
0.0
 40
0.0
 40
1.0
 40
1.0
 40
1.0
 40
1.0
 10
-56.9475056296689
 20
44.34392766231505
 30
0.0
 10
-53.77561728782659
 20
47.25823270330196
 30
0.0
 10
-50.60403884576639
 20
50.21591322165877
 30
0.0
 10
-47.43275997323853
 20
53.21552333215639
 30
0.0
  0
SPLINE
  5
23E
330
21A
100
AcDbEntity
  8
0
  6
Continuous
 62
     7
370
    25
100
AcDbSpline
210
0.0
220
0.0
230
1.0
 70
     8
 71
     3
 72
     9
 73
     5
 74
     0
 42
0.000000001
 43
0.00000001
 40
0.0
 40
0.0
 40
0.0
 40
0.0
 40
0.9821567323119876
 40
1.0
 40
1.0
 40
1.0
 40
1.0
 10
73.00189748146089
 20
7.83082702528263
 30
0.0
 10
72.1066846466516
 20
7.653182570577791
 30
0.0
 10
71.19520809168064
 20
7.472310771952874
 30
0.0
 10
70.28377715768596
 20
7.290443351800754
 30
0.0
 10
70.26751425155157
 20
7.287198242739249
 30
0.0
  0
SPLINE
  5
23F
330
21A
100
AcDbEntity
  8
0
  6
Continuous
 62
     7
370
    25
100
AcDbSpline
210
0.0
220
0.0
230
1.0
 70
     8
 71
     3
 72
     9
 73
     5
 74
     0
 42
0.000000001
 43
0.00000001
 40
0.0
 40
0.0
 40
0.0
 40
0.0
 40
0.2741087842490753
 40
1.0
 40
1.0
 40
1.0
 40
1.0
 10
64.64513452174009
 20
0.5575043427275862
 30
0.0
 10
64.62173391740994
 20
0.675693877914876
 30
0.0
 10
64.53636414571794
 20
1.106871359187753
 30
0.0
 10
64.275891264095
 20
1.529530463905058
 30
0.0
 10
64.08681628738356
 20
1.836334995276504
 30
0.0
  0
LWPOLYLINE
  5
240
330
21A
100
AcDbEntity
  8
0
  6
Continuous
 62
     7
370
    25
100
AcDbPolyline
 90
        3
 70
   128
 43
0.0
 10
61.2218504987
 20
-0.6903273353
 10
62.0212651679
 20
-1.4857108719
 10
62.1894852666
 20
-1.6672857178
  0
LWPOLYLINE
  5
244
330
21A
100
AcDbEntity
  8
0
  6
Continuous
 62
     7
370
    25
100
AcDbPolyline
 90
        9
 70
   128
 43
0.0
 10
88.459974654
 20
30.8739125631
 10
88.7149802561
 20
31.189385422
 10
88.7804488922
 20
31.5153796
 10
88.6538646392
 20
31.8393673238
 10
88.340092059
 20
32.1488979267
 10
87.8511892559
 20
32.4320763213
 10
87.2059444905
 20
32.6780201208
 10
86.4291541572
 20
32.8772778427
 10
85.5506698729
 20
33.0221921246
  0
LWPOLYLINE
  5
248
330
21A
100
AcDbEntity
  8
0
  6
Continuous
 62
     7
370
    25
100
AcDbPolyline
 90
        9
 70
   128
 43
0.0
 10
-88.459974654
 20
6.8384491013
 10
-88.7149802561
 20
6.5229762424
 10
-88.7804488922
 20
6.1969820644
 10
-88.6538646392
 20
5.8729943406
 10
-88.340092059
 20
5.5634637377
 10
-87.8511892559
 20
5.2802853431
 10
-87.2059444905
 20
5.0343415436
 10
-86.4291541572
 20
4.8350838217
 10
-85.5506698729
 20
4.6901695398
  0
LWPOLYLINE
  5
24B
330
21A
100
AcDbEntity
  8
0
  6
Continuous
 62
     7
370
    25
100
AcDbPolyline
 90
        3
 70
   128
 43
0.0
 10
88.459974654
 20
23.3314402302
 10
88.7149802561
 20
23.6469130891
 10
88.7829029204
 20
23.9206958809
  0
LINE
  5
254
330
21A
100
AcDbEntity
  8
0
  6
Continuous
 62
     7
370
    25
100
AcDbLine
 10
-88.7829029204
 20
6.2491934506
 30
0.0
 11
-88.7829029204
 21
2.161934987
 31
0.0
  0
LINE
  5
255
330
21A
100
AcDbEntity
  8
0
  6
Continuous
 62
     7
370
    25
100
AcDbLine
 10
88.7829029204
 20
23.9206958809
 30
0.0
 11
88.7829029204
 21
31.4631682138
 31
0.0
  0
LINE
  5
256
330
21A
100
AcDbEntity
  8
0
  6
Continuous
 62
     7
370
    25
100
AcDbLine
 10
87.7829029204
 20
21.0557713279
 30
0.0
 11
87.7829029204
 21
22.7343190879
 31
0.0
  0
LINE
  5
257
330
21A
100
AcDbEntity
  8
0
  6
Continuous
 62
     7
370
    25
100
AcDbLine
 10
813.8890684374
 20
90.8146773317
 30
0.0
 11
-495.6910169764
 21
255.8062595315
 31
0.0
  0
LINE
  5
258
330
21A
100
AcDbEntity
  8
0
  6
Continuous
 62
     7
370
    25
100
AcDbLine
 10
495.6910169764
 20
-189.8096266188
 30
0.0
 11
813.8890684374
 21
90.8146773317
 31
0.0
  0
LINE
  5
259
330
21A
100
AcDbEntity
  8
0
  6
Continuous
 62
     7
370
    25
100
AcDbLine
 10
-813.8890684374
 20
-24.818044419
 30
0.0
 11
495.6910169764
 21
-189.8096266188
 31
0.0
  0
LINE
  5
25A
330
21A
100
AcDbEntity
  8
0
  6
Continuous
 62
     7
370
    25
100
AcDbLine
 10
-495.6910169764
 20
255.8062595315
 30
0.0
 11
-813.8890684374
 21
-24.818044419
 31
0.0
  0
LINE
  5
25B
330
21A
100
AcDbEntity
  8
0
  6
Continuous
 62
     7
370
    25
100
AcDbLine
 10
-484.0537978522
 20
247.2131412853
 30
0.0
 11
-788.1097136926
 21
-20.9389713785
 31
0.0
  0
LINE
  5
25C
330
21A
100
AcDbEntity
  8
0
  6
Continuous
 62
     7
370
    25
100
AcDbLine
 10
-788.1097136926
 20
-20.9389713785
 30
0.0
 11
484.0537978522
 21
-181.2165083726
 31
0.0
  0
LINE
  5
25D
330
21A
100
AcDbEntity
  8
0
  6
Continuous
 62
     7
370
    25
100
AcDbLine
 10
484.0537978522
 20
-181.2165083726
 30
0.0
 11
788.1097136926
 21
86.9356042912
 31
0.0
  0
LINE
  5
25E
330
21A
100
AcDbEntity
  8
0
  6
Continuous
 62
     7
370
    25
100
AcDbLine
 10
788.1097136926
 20
86.9356042912
 30
0.0
 11
-484.0537978522
 21
247.2131412853
 31
0.0
  0
LINE
  5
25F
330
21A
100
AcDbEntity
  8
0
  6
Continuous
 62
     7
370
    25
100
AcDbLine
 10
-813.8890684374
 20
-24.818044419
 30
0.0
 11
-813.8890684374
 21
-57.8163608754
 31
0.0
  0
LINE
  5
260
330
21A
100
AcDbEntity
  8
0
  6
Continuous
 62
     7
370
    25
100
AcDbLine
 10
495.6910169764
 20
-189.8096266188
 30
0.0
 11
495.6910169764
 21
-222.8079430751
 31
0.0
  0
LINE
  5
261
330
21A
100
AcDbEntity
  8
0
  6
Continuous
 62
     7
370
    25
100
AcDbLine
 10
-813.8890684374
 20
-57.8163608754
 30
0.0
 11
495.6910169764
 21
-222.8079430751
 31
0.0
  0
LINE
  5
262
330
21A
100
AcDbEntity
  8
0
  6
Continuous
 62
     7
370
    25
100
AcDbLine
 10
813.8890684374
 20
90.8146773317
 30
0.0
 11
813.8890684374
 21
57.8163608754
 31
0.0
  0
LINE
  5
263
330
21A
100
AcDbEntity
  8
0
  6
Continuous
 62
     7
370
    25
100
AcDbLine
 10
495.6910169764
 20
-222.8079430751
 30
0.0
 11
813.8890684374
 21
57.8163608754
 31
0.0
  0
LINE
  5
264
330
21A
100
AcDbEntity
  8
0
  6
Continuous
 62
     7
370
    25
100
AcDbLine
 10
484.0537978522
 20
-181.2165083726
 30
0.0
 11
56.9475056297
 21
-6.0595605327
 31
0.0
  0
LINE
  5
265
330
21A
100
AcDbEntity
  8
0
  6
Continuous
 62
     7
370
    25
100
AcDbLine
 10
-788.1097136926
 20
-20.9389713785
 30
0.0
 11
-92.7187898462
 21
12.7966202901
 31
0.0
  0
LINE
  5
266
330
21A
100
AcDbEntity
  8
0
  6
Continuous
 62
     7
370
    25
100
AcDbLine
 10
788.1097136926
 20
86.9356042912
 30
0.0
 11
92.7187898462
 21
25.4877468395
 31
0.0
  0
LINE
  5
267
330
21A
100
AcDbEntity
  8
0
  6
Continuous
 62
     7
370
    25
100
AcDbLine
 10
-56.9475056297
 20
44.3439276623
 30
0.0
 11
-484.0537978522
 21
247.2131412853
 31
0.0
  0
LINE
  5
268
330
21A
100
AcDbEntity
  8
0
  6
Continuous
 62
     7
370
    25
100
AcDbLine
 10
-42.4980338874
 20
47.3730707831
 30
0.0
 11
-88.459974654
 21
6.8384491013
 31
0.0
  0
LINE
  5
269
330
21A
100
AcDbEntity
  8
0
  6
Continuous
 62
     7
370
    25
100
AcDbLine
 10
85.5506698729
 20
33.0221921246
 30
0.0
 11
-36.0531952012
 21
48.3428390432
 31
0.0
  0
LINE
  5
26A
330
21A
100
AcDbEntity
  8
0
  6
Continuous
 62
     7
370
    25
100
AcDbLine
 10
42.4980338874
 20
-9.6607091187
 30
0.0
 11
88.459974654
 21
30.8739125631
 31
0.0
  0
LINE
  5
26B
330
21A
100
AcDbEntity
  8
0
  6
Continuous
 62
     7
370
    25
100
AcDbLine
 10
-85.5506698729
 20
4.6901695398
 30
0.0
 11
36.0531952012
 21
-10.6304773788
 31
0.0
  0
LINE
  5
26C
330
21A
100
AcDbEntity
  8
0
  6
Continuous
 62
     7
370
    25
100
AcDbLine
 10
88.459974654
 20
30.8739125631
 30
0.0
 11
88.459974654
 21
23.3314402302
 31
0.0
  0
LINE
  5
26D
330
21A
100
AcDbEntity
  8
0
  6
Continuous
 62
     7
370
    25
100
AcDbLine
 10
45.6136376404
 20
-14.4554772134
 30
0.0
 11
88.459974654
 21
23.3314402302
 31
0.0
  0
LINE
  5
26E
330
21A
100
AcDbEntity
  8
0
  6
Continuous
 62
    60
370
    25
100
AcDbLine
 10
-102.2335355026
 20
4.357764527
 30
0.0
 11
-102.2335355026
 21
4.8857820962
 31
0.0
  0
LINE
  5
26F
330
21A
100
AcDbEntity
  8
0
  6
Continuous
 62
    60
370
    25
100
AcDbLine
 10
-47.4327599732
 20
43.0210514458
 30
0.0
 11
-47.4327599732
 21
53.2155233322
 31
0.0
  0
LINE
  5
270
330
21A
100
AcDbEntity
  8
0
  6
Continuous
 62
    60
370
    25
100
AcDbLine
 10
100.7788831121
 20
33.0030174624
 30
0.0
 11
100.7788831121
 21
35.4596486366
 31
0.0
  0
LINE
  5
271
330
21A
100
AcDbEntity
  8
0
  6
Continuous
 62
    60
370
    25
100
AcDbLine
 10
-44.2103406301
 20
45.8629581798
 30
0.0
 11
-44.2103406301
 21
53.7265738087
 31
0.0
  0
LINE
  5
272
330
21A
100
AcDbEntity
  8
0
  6
Continuous
 62
    60
370
    25
100
AcDbLine
 10
36.0531952012
 20
-10.6304773788
 30
0.0
 11
36.0531952012
 21
-13.5132878817
 31
0.0
  0
LINE
  5
273
330
21A
100
AcDbEntity
  8
0
  6
Continuous
 62
    60
370
    25
100
AcDbLine
 10
42.4980338874
 20
-9.6607091187
 30
0.0
 11
42.4980338874
 21
-14.236870393
 31
0.0
  0
LINE
  5
274
330
21A
100
AcDbEntity
  8
0
  6
Continuous
 62
    60
370
    25
100
AcDbLine
 10
-85.5506698729
 20
4.6901695398
 30
0.0
 11
-85.5506698729
 21
1.7103825345
 31
0.0
  0
LINE
  5
275
330
21A
100
AcDbEntity
  8
0
  6
Continuous
 62
    60
370
    25
100
AcDbLine
 10
85.4286542317
 20
20.658066903
 30
0.0
 11
85.4286542317
 21
18.9418710922
 31
0.0
  0
ARC
  5
276
330
21A
100
AcDbEntity
  8
0
  6
Continuous
 62
     7
370
    25
100
AcDbCircle
 10
-37.8934071433
 20
38.6721482657
 30
0.0
 40
9.844218613218368
100
AcDbArc
 50
79.2261330329
 51
117.8883001309
  0
ARC
  5
277
330
21A
100
AcDbEntity
  8
0
  6
Continuous
 62
     7
370
    25
100
AcDbCircle
 10
37.8934071433
 20
-0.9597866013
 30
0.0
 40
9.844218613223731
100
AcDbArc
 50
259.2261330329
 51
297.8883001309
  0
VIEWPORT
  5
288
330
21A
100
AcDbEntity
  8
0
100
AcDbViewport
 10
0.0
 20
0.0
 30
0.0
 40
205.6
 41
156.0
 68
     1
 69
     1
 12
0.0
 22
0.0
 13
0.0
 23
0.0
 14
10.0
 24
10.0
 15
10.0
 25
10.0
 16
0.0
 26
0.0
 36
1.0
 17
0.0
 27
0.0
 37
0.0
 42
50.0
 43
0.0
 44
0.0
 45
1083.5019455253
 50
0.0
 51
0.0
 72
   100
 90
   557152
  1

281
     0
 71
     1
 74
     0
110
0.0
120
0.0
130
0.0
111
1.0
121
0.0
131
0.0
112
0.0
122
1.0
132
0.0
 79
     0
146
0.0
  0
ENDBLK
  5
21D
330
21A
100
AcDbEntity
  8
0
100
AcDbBlockEnd
  0
ENDSEC
  0
SECTION
  2
ENTITIES
  0
SPLINE
  5
73
330
1F
100
AcDbEntity
  8
0
  6
Continuous
 62
     7
370
    25
100
AcDbSpline
210
0.0
220
0.0
230
1.0
 70
    24
 71
     3
 72
     8
 73
     4
 74
     0
 42
0.000000001
 43
0.00000001
 40
0.0
 40
0.0
 40
0.0
 40
0.0
 40
1.0
 40
1.0
 40
1.0
 40
1.0
 10
80.00000000000051
 20
-50.58823529411771
 30
0.0
 10
80.00000000000051
 20
-59.55969031890883
 30
0.0
 10
80.00000000000051
 20
-68.53026881475002
 30
0.0
 10
80.00000000000051
 20
-77.50000000000013
 30
0.0
  0
SPLINE
  5
77
330
1F
100
AcDbEntity
  8
0
  6
Continuous
 62
     7
370
    25
100
AcDbSpline
210
0.0
220
0.0
230
1.0
 70
    24
 71
     3
 72
     8
 73
     4
 74
     0
 42
0.000000001
 43
0.00000001
 40
0.0
 40
0.0
 40
0.0
 40
0.0
 40
1.0
 40
1.0
 40
1.0
 40
1.0
 10
-79.99999999999963
 20
-77.50000000000001
 30
0.0
 10
-79.99999999999963
 20
-68.53026881474995
 30
0.0
 10
-79.99999999999963
 20
-59.55969031890881
 30
0.0
 10
-79.99999999999963
 20
-50.58823529411771
 30
0.0
  0
SPLINE
  5
78
330
1F
100
AcDbEntity
  8
0
  6
Continuous
 62
     7
370
    25
100
AcDbSpline
210
0.0
220
0.0
230
1.0
 70
     8
 71
     3
 72
    20
 73
    16
 74
     0
 42
0.000000001
 43
0.00000001
 40
0.0
 40
0.0
 40
0.0
 40
0.0
 40
0.1249999999999988
 40
0.1249999999999988
 40
0.2499999999999976
 40
0.2499999999999976
 40
0.3749999999999963
 40
0.3749999999999963
 40
0.4999999999999951
 40
0.4999999999999951
 40
0.6249999999999939
 40
0.6249999999999939
 40
0.7499999999999927
 40
0.7499999999999927
 40
1.0
 40
1.0
 40
1.0
 40
1.0
 10
-77.49999999999923
 20
-80.00000000000007
 30
0.0
 10
-77.66506747637317
 20
-80.00000000000009
 30
0.0
 10
-77.82738316521434
 20
-79.98381211113355
 30
0.0
 10
-78.14673507594956
 20
-79.920379326018
 30
0.0
 10
-78.3054243456415
 20
-79.87236544511782
 30
0.0
 10
-78.60806140050717
 20
-79.74700380828484
 30
0.0
 10
-78.75160487578307
 20
-79.67028802065438
 30
0.0
 10
-79.02328178536952
 20
-79.48903933094367
 30
0.0
 10
-79.15192373540194
 20
-79.38353922780641
 30
0.0
 10
-79.38252454324052
 20
-79.15307997216301
 30
0.0
 10
-79.48601169161579
 20
-79.02733306216598
 30
0.0
 10
-79.668801604334
 20
-78.75430790600147
 30
0.0
 10
-79.74650520149994
 20
-78.60891438044462
 30
0.0
 10
-79.93368845746113
 20
-78.15807855619468
 30
0.0
 10
-79.99999999999966
 20
-77.83006794738618
 30
0.0
 10
-79.99999999999963
 20
-77.50000000000001
 30
0.0
  0
SPLINE
  5
79
330
1F
100
AcDbEntity
  8
0
  6
Continuous
 62
     7
370
    25
100
AcDbSpline
210
0.0
220
0.0
230
1.0
 70
    24
 71
     3
 72
    18
 73
    14
 74
     0
 42
0.000000001
 43
0.00000001
 40
0.0
 40
0.0
 40
0.0
 40
0.0
 40
0.1249999999999999
 40
0.1249999999999999
 40
0.25
 40
0.25
 40
0.5
 40
0.5
 40
0.7500000000000001
 40
0.7500000000000001
 40
0.875
 40
0.875
 40
1.0
 40
1.0
 40
1.0
 40
1.0
 10
77.50000000000101
 20
-80.00000000000007
 30
0.0
 10
71.04180089131663
 20
-80.00000000000009
 30
0.0
 10
64.5836357191905
 20
-80.00000000000007
 30
0.0
 10
51.66731417037767
 20
-80.00000000000006
 30
0.0
 10
45.20916125379794
 20
-80.00000000000001
 30
0.0
 10
25.83446584992555
 20
-80.00000000000001
 30
0.0
 10
12.91781925574711
 20
-80.00000000000007
 30
0.0
 10
-12.91782198656679
 20
-80.00000000000006
 30
0.0
 10
-25.83446700600925
 20
-80.00000000000007
 30
0.0
 10
-45.20916202468371
 20
-80.00000000000009
 30
0.0
 10
-51.66731476949267
 20
-80.00000000000011
 30
0.0
 10
-64.58363601906004
 20
-80.0000000000001
 30
0.0
 10
-71.04180104149991
 20
-80.00000000000009
 30
0.0
 10
-77.49999999999925
 20
-80.00000000000007
 30
0.0
  0
SPLINE
  5
7A
330
1F
100
AcDbEntity
  8
0
  6
Continuous
 62
     7
370
    25
100
AcDbSpline
210
0.0
220
0.0
230
1.0
 70
     8
 71
     3
 72
    20
 73
    16
 74
     0
 42
0.000000001
 43
0.00000001
 40
0.0
 40
0.0
 40
0.0
 40
0.0
 40
0.1250000000000005
 40
0.1250000000000005
 40
0.2500000000000011
 40
0.2500000000000011
 40
0.3750000000000016
 40
0.3750000000000016
 40
0.5000000000000021
 40
0.5000000000000021
 40
0.6250000000000027
 40
0.6250000000000027
 40
0.7500000000000031
 40
0.7500000000000031
 40
1.0
 40
1.0
 40
1.0
 40
1.0
 10
80.00000000000051
 20
-77.50000000000001
 30
0.0
 10
80.00000000000051
 20
-77.66503442149995
 30
0.0
 10
79.98381852767598
 20
-77.82731902350598
 30
0.0
 10
79.92041001741468
 20
-78.14661237938516
 30
0.0
 10
79.87241578129594
 20
-78.30527190500348
 30
0.0
 10
79.74709165877925
 20
-78.60788020894617
 30
0.0
 10
79.67039703718542
 20
-78.75141346543712
 30
0.0
 10
79.48919422958794
 20
-79.02307756777996
 30
0.0
 10
79.38371044993565
 20
-79.15172876621172
 30
0.0
 10
79.15327080304829
 20
-79.38235719992667
 30
0.0
 10
79.0275323312204
 20
-79.48585862128428
 30
0.0
 10
78.75452147228934
 20
-79.66867825235029
 30
0.0
 10
78.60909792968936
 20
-79.74641629237563
 30
0.0
 10
78.1582104435816
 20
-79.93365907988755
 30
0.0
 10
77.83013657916659
 20
-80.00000000000007
 30
0.0
 10
77.50000000000101
 20
-80.00000000000007
 30
0.0
  0
SPLINE
  5
7C
330
1F
100
AcDbEntity
  8
0
  6
Continuous
 62
     7
370
    25
100
AcDbSpline
210
0.0
220
0.0
230
1.0
 70
     8
 71
     3
 72
    10
 73
     6
 74
     0
 42
0.000000001
 43
0.00000001
 40
0.0
 40
0.0
 40
0.0
 40
0.0
 40
0.5
 40
0.5
 40
1.0
 40
1.0
 40
1.0
 40
1.0
 10
80.00000000000051
 20
50.58823529411771
 30
0.0
 10
80.00000000000051
 20
33.72592213989965
 30
0.0
 10
79.99999999936645
 20
16.86352426756472
 30
0.0
 10
79.99999999936642
 20
-16.86300548435526
 30
0.0
 10
80.00000000000051
 20
-33.72576296188291
 30
0.0
 10
80.00000000000051
 20
-50.58823529411772
 30
0.0
  0
SPLINE
  5
7F
330
1F
100
AcDbEntity
  8
0
  6
Continuous
 62
     7
370
    25
100
AcDbSpline
210
0.0
220
0.0
230
1.0
 70
    24
 71
     3
 72
     8
 73
     4
 74
     0
 42
0.000000001
 43
0.00000001
 40
0.0
 40
0.0
 40
0.0
 40
0.0
 40
1.0
 40
1.0
 40
1.0
 40
1.0
 10
80.00000000000051
 20
77.50000000000001
 30
0.0
 10
80.00000000000051
 20
68.53026881474993
 30
0.0
 10
80.00000000000051
 20
59.55969031890871
 30
0.0
 10
80.00000000000051
 20
50.5882352941176
 30
0.0
  0
SPLINE
  5
80
330
1F
100
AcDbEntity
  8
0
  6
Continuous
 62
     7
370
    25
100
AcDbSpline
210
0.0
220
0.0
230
1.0
 70
     8
 71
     3
 72
    20
 73
    16
 74
     0
 42
0.000000001
 43
0.00000001
 40
0.0
 40
0.0
 40
0.0
 40
0.0
 40
0.1249999999999988
 40
0.1249999999999988
 40
0.2499999999999975
 40
0.2499999999999975
 40
0.3749999999999962
 40
0.3749999999999962
 40
0.499999999999995
 40
0.499999999999995
 40
0.6249999999999938
 40
0.6249999999999938
 40
0.7499999999999925
 40
0.7499999999999925
 40
1.0
 40
1.0
 40
1.0
 40
1.0
 10
77.50000000000101
 20
79.99999999999996
 30
0.0
 10
77.66506747637494
 20
79.99999999999994
 30
0.0
 10
77.8273831652161
 20
79.98381211113347
 30
0.0
 10
78.14673507595128
 20
79.92037932601792
 30
0.0
 10
78.30542434564327
 20
79.87236544511774
 30
0.0
 10
78.60806140050896
 20
79.74700380828477
 30
0.0
 10
78.75160487578479
 20
79.67028802065427
 30
0.0
 10
79.02328178537117
 20
79.48903933094356
 30
0.0
 10
79.15192373540371
 20
79.3835392278063
 30
0.0
 10
79.38252454324224
 20
79.15307997216294
 30
0.0
 10
79.48601169161748
 20
79.02733306216595
 30
0.0
 10
79.66880160433564
 20
78.75430790600157
 30
0.0
 10
79.7465052015018
 20
78.60891438044456
 30
0.0
 10
79.93368845746289
 20
78.1580785561947
 30
0.0
 10
80.0000000000005
 20
77.83006794738603
 30
0.0
 10
80.00000000000051
 20
77.50000000000001
 30
0.0
  0
SPLINE
  5
81
330
1F
100
AcDbEntity
  8
0
  6
Continuous
 62
     7
370
    25
100
AcDbSpline
210
0.0
220
0.0
230
1.0
 70
    24
 71
     3
 72
    18
 73
    14
 74
     0
 42
0.000000001
 43
0.00000001
 40
0.0
 40
0.0
 40
0.0
 40
0.0
 40
0.1250000000000001
 40
0.1250000000000001
 40
0.2500000000000001
 40
0.2500000000000001
 40
0.5
 40
0.5
 40
0.7499999999999999
 40
0.7499999999999999
 40
0.8749999999999999
 40
0.8749999999999999
 40
1.0
 40
1.0
 40
1.0
 40
1.0
 10
-77.49999999999923
 20
79.99999999999996
 30
0.0
 10
-71.04180089131486
 20
80.0
 30
0.0
 10
-64.58363571918872
 20
79.99999999999997
 30
0.0
 10
-51.66731417037589
 20
79.99999999999996
 30
0.0
 10
-45.20916125379618
 20
79.99999999999997
 30
0.0
 10
-25.83446584992381
 20
79.99999999999999
 30
0.0
 10
-12.91781925574539
 20
80.0000000000001
 30
0.0
 10
12.9178219865685
 20
80.0000000000001
 30
0.0
 10
25.83446700601095
 20
79.99999999999997
 30
0.0
 10
45.20916202468541
 20
79.99999999999999
 30
0.0
 10
51.66731476949435
 20
79.99999999999994
 30
0.0
 10
64.58363601906173
 20
79.99999999999994
 30
0.0
 10
71.04180104150167
 20
80.00000000000007
 30
0.0
 10
77.50000000000101
 20
80.00000000000007
 30
0.0
  0
SPLINE
  5
82
330
1F
100
AcDbEntity
  8
0
  6
Continuous
 62
     7
370
    25
100
AcDbSpline
210
0.0
220
0.0
230
1.0
 70
     8
 71
     3
 72
    20
 73
    16
 74
     0
 42
0.000000001
 43
0.00000001
 40
0.0
 40
0.0
 40
0.0
 40
0.0
 40
0.125
 40
0.125
 40
0.25
 40
0.25
 40
0.375
 40
0.375
 40
0.5
 40
0.5
 40
0.625
 40
0.625
 40
0.75
 40
0.75
 40
1.0
 40
1.0
 40
1.0
 40
1.0
 10
-79.99999999999963
 20
77.50000000000001
 30
0.0
 10
-79.99999999999964
 20
77.66503442150002
 30
0.0
 10
-79.98381852767427
 20
77.82731902350585
 30
0.0
 10
-79.9204100174129
 20
78.14661237938508
 30
0.0
 10
-79.87241578129415
 20
78.3052719050034
 30
0.0
 10
-79.74709165877745
 20
78.60788020894606
 30
0.0
 10
-79.67039703718365
 20
78.75141346543695
 30
0.0
 10
-79.48919422958613
 20
79.02307756777978
 30
0.0
 10
-79.38371044993389
 20
79.1517287662116
 30
0.0
 10
-79.15327080304651
 20
79.38235719992655
 30
0.0
 10
-79.02753233121864
 20
79.48585862128418
 30
0.0
 10
-78.75452147228756
 20
79.66867825235023
 30
0.0
 10
-78.60909792968761
 20
79.74641629237557
 30
0.0
 10
-78.15821044357983
 20
79.93365907988748
 30
0.0
 10
-77.83013657916483
 20
79.99999999999996
 30
0.0
 10
-77.49999999999923
 20
79.99999999999996
 30
0.0
  0
SPLINE
  5
83
330
1F
100
AcDbEntity
  8
0
  6
Continuous
 62
     7
370
    25
100
AcDbSpline
210
0.0
220
0.0
230
1.0
 70
    24
 71
     3
 72
     8
 73
     4
 74
     0
 42
0.000000001
 43
0.00000001
 40
0.0
 40
0.0
 40
0.0
 40
0.0
 40
1.0
 40
1.0
 40
1.0
 40
1.0
 10
-79.99999999999963
 20
50.5882352941176
 30
0.0
 10
-79.99999999999963
 20
59.5596903189087
 30
0.0
 10
-79.99999999999963
 20
68.53026881474995
 30
0.0
 10
-79.99999999999963
 20
77.50000000000001
 30
0.0
  0
SPLINE
  5
8A
330
1F
100
AcDbEntity
  8
0
  6
Continuous
 62
     7
370
    25
100
AcDbSpline
210
0.0
220
0.0
230
1.0
 70
     8
 71
     3
 72
    10
 73
     6
 74
     0
 42
0.000000001
 43
0.00000001
 40
0.0
 40
0.0
 40
0.0
 40
0.0
 40
0.5
 40
0.5
 40
1.0
 40
1.0
 40
1.0
 40
1.0
 10
-79.99999999999963
 20
-50.5882352941176
 30
0.0
 10
-79.99999999999963
 20
-33.72592213989957
 30
0.0
 10
-79.9999999993656
 20
-16.86352426756464
 30
0.0
 10
-79.99999999936557
 20
16.86300548435529
 30
0.0
 10
-79.99999999999964
 20
33.72576296188282
 30
0.0
 10
-79.99999999999963
 20
50.58823529411762
 30
0.0
  0
LINE
  5
97
330
1F
100
AcDbEntity
  8
0
  6
Continuous
 62
     7
370
    25
100
AcDbLine
 10
680.0
 20
-430.0
 30
0.0
 11
80.0
 21
-50.5882352941
 31
0.0
  0
LINE
  5
98
330
1F
100
AcDbEntity
  8
0
  6
Continuous
 62
     7
370
    25
100
AcDbLine
 10
-680.0
 20
-430.0
 30
0.0
 11
680.0
 21
-430.0
 31
0.0
  0
LINE
  5
99
330
1F
100
AcDbEntity
  8
0
  6
Continuous
 62
     7
370
    25
100
AcDbLine
 10
-680.0
 20
-430.0
 30
0.0
 11
-80.0
 21
-50.5882352941
 31
0.0
  0
LINE
  5
9A
330
1F
100
AcDbEntity
  8
0
  6
Continuous
 62
     7
370
    25
100
AcDbLine
 10
680.0
 20
-430.0
 30
0.0
 11
680.0
 21
430.0
 31
0.0
  0
LINE
  5
9B
330
1F
100
AcDbEntity
  8
0
  6
Continuous
 62
     7
370
    25
100
AcDbLine
 10
680.0
 20
430.0
 30
0.0
 11
80.0
 21
50.5882352941
 31
0.0
  0
LINE
  5
9C
330
1F
100
AcDbEntity
  8
0
  6
Continuous
 62
     7
370
    25
100
AcDbLine
 10
680.0
 20
430.0
 30
0.0
 11
-680.0
 21
430.0
 31
0.0
  0
LINE
  5
9D
330
1F
100
AcDbEntity
  8
0
  6
Continuous
 62
     7
370
    25
100
AcDbLine
 10
-80.0
 20
50.5882352941
 30
0.0
 11
-680.0
 21
430.0
 31
0.0
  0
LINE
  5
9E
330
1F
100
AcDbEntity
  8
0
  6
Continuous
 62
     7
370
    25
100
AcDbLine
 10
700.0
 20
450.0
 30
0.0
 11
-700.0
 21
450.0
 31
0.0
  0
LINE
  5
9F
330
1F
100
AcDbEntity
  8
0
  6
Continuous
 62
     7
370
    25
100
AcDbLine
 10
700.0
 20
-450.0
 30
0.0
 11
700.0
 21
450.0
 31
0.0
  0
LINE
  5
A0
330
1F
100
AcDbEntity
  8
0
  6
Continuous
 62
     7
370
    25
100
AcDbLine
 10
-700.0
 20
-450.0
 30
0.0
 11
700.0
 21
-450.0
 31
0.0
  0
LINE
  5
A1
330
1F
100
AcDbEntity
  8
0
  6
Continuous
 62
     7
370
    25
100
AcDbLine
 10
-700.0
 20
450.0
 30
0.0
 11
-700.0
 21
-450.0
 31
0.0
  0
LINE
  5
A2
330
1F
100
AcDbEntity
  8
0
  6
Continuous
 62
     7
370
    25
100
AcDbLine
 10
-680.0
 20
430.0
 30
0.0
 11
-680.0
 21
-430.0
 31
0.0
  0
LINE
  5
A3
330
1F
100
AcDbEntity
  8
0
  6
Continuous
 62
     7
370
    25
100
AcDbLine
 10
-68.5355339059
 20
-68.5355339059
 30
0.0
 11
-79.245605313
 21
-79.245605313
 31
0.0
  0
LINE
  5
A4
330
1F
100
AcDbEntity
  8
0
  6
Continuous
 62
     7
370
    25
100
AcDbLine
 10
-79.2456196243
 20
79.2456196243
 30
0.0
 11
-68.5355339059
 21
68.5355339059
 31
0.0
  0
LINE
  5
A5
330
1F
100
AcDbEntity
  8
0
  6
Continuous
 62
     7
370
    25
100
AcDbLine
 10
79.245605313
 20
79.245605313
 30
0.0
 11
68.5355339059
 21
68.5355339059
 31
0.0
  0
LINE
  5
A6
330
1F
100
AcDbEntity
  8
0
  6
Continuous
 62
     7
370
    25
100
AcDbLine
 10
79.2456196243
 20
-79.2456196243
 30
0.0
 11
68.5355339059
 21
-68.5355339059
 31
0.0
  0
LINE
  5
A7
330
1F
100
AcDbEntity
  8
0
  6
Continuous
 62
     7
370
    25
100
AcDbLine
 10
-70.0
 20
65.0
 30
0.0
 11
-70.0
 21
-65.0
 31
0.0
  0
LINE
  5
A8
330
1F
100
AcDbEntity
  8
0
  6
Continuous
 62
     7
370
    25
100
AcDbLine
 10
65.0
 20
70.0
 30
0.0
 11
-65.0
 21
70.0
 31
0.0
  0
LINE
  5
A9
330
1F
100
AcDbEntity
  8
0
  6
Continuous
 62
     7
370
    25
100
AcDbLine
 10
70.0
 20
-65.0
 30
0.0
 11
70.0
 21
65.0
 31
0.0
  0
LINE
  5
AA
330
1F
100
AcDbEntity
  8
0
  6
Continuous
 62
     7
370
    25
100
AcDbLine
 10
-65.0
 20
-70.0
 30
0.0
 11
65.0
 21
-70.0
 31
0.0
  0
ARC
  5
AB
330
1F
100
AcDbEntity
  8
0
  6
Continuous
 62
     7
370
    25
100
AcDbCircle
 10
-65.0
 20
65.0
 30
0.0
 40
4.999999999999915
100
AcDbArc
 50
90.0
 51
180.0
  0
ARC
  5
AC
330
1F
100
AcDbEntity
  8
0
  6
Continuous
 62
     7
370
    25
100
AcDbCircle
 10
65.0
 20
-65.0
 30
0.0
 40
5.000000000001577
100
AcDbArc
 50
270.0
 51
360.0
  0
ARC
  5
AD
330
1F
100
AcDbEntity
  8
0
  6
Continuous
 62
     7
370
    25
100
AcDbCircle
 10
-65.0
 20
-65.0
 30
0.0
 40
4.999999999999915
100
AcDbArc
 50
180.0
 51
270.0
  0
ARC
  5
AE
330
1F
100
AcDbEntity
  8
0
  6
Continuous
 62
     7
370
    25
100
AcDbCircle
 10
65.0
 20
65.0
 30
0.0
 40
4.999999999999218
100
AcDbArc
 50
360.0
 51
90.0
  0
LINE
  5
B6
330
1B
100
AcDbEntity
 67
     1
  8
0
  6
Continuous
 62
     7
370
    25
100
AcDbLine
 10
-700.0
 20
35.0
 30
0.0
 11
700.0
 21
35.0
 31
0.0
  0
LINE
  5
B7
330
1B
100
AcDbEntity
 67
     1
  8
0
  6
Continuous
 62
     7
370
    25
100
AcDbLine
 10
700.0
 20
35.0
 30
0.0
 11
700.0
 21
0.0
 31
0.0
  0
LINE
  5
B8
330
1B
100
AcDbEntity
 67
     1
  8
0
  6
Continuous
 62
     7
370
    25
100
AcDbLine
 10
-700.0
 20
0.0
 30
0.0
 11
700.0
 21
0.0
 31
0.0
  0
LINE
  5
B9
330
1B
100
AcDbEntity
 67
     1
  8
0
  6
Continuous
 62
     7
370
    25
100
AcDbLine
 10
-700.0
 20
35.0
 30
0.0
 11
-700.0
 21
0.0
 31
0.0
  0
LINE
  5
BA
330
1B
100
AcDbEntity
 67
     1
  8
0
  6
Continuous
 62
     7
370
    25
100
AcDbLine
 10
130.0
 20
-26.0
 30
0.0
 11
-130.0
 21
-26.0
 31
0.0
  0
LINE
  5
BB
330
1B
100
AcDbEntity
 67
     1
  8
0
  6
Continuous
 62
     7
370
    25
100
AcDbLine
 10
130.0
 20
-26.0
 30
0.0
 11
130.0
 21
0.0
 31
0.0
  0
LINE
  5
BC
330
1B
100
AcDbEntity
 67
     1
  8
0
  6
Continuous
 62
     7
370
    25
100
AcDbLine
 10
-130.0
 20
-26.0
 30
0.0
 11
-130.0
 21
0.0
 31
0.0
  0
VIEWPORT
  5
278
330
1B
100
AcDbEntity
 67
     1
  8
0
100
AcDbViewport
 10
0.0
 20
0.0
 30
0.0
 40
205.6
 41
156.0
 68
     1
 69
     1
 12
0.0
 22
0.0
 13
0.0
 23
0.0
 14
10.0
 24
10.0
 15
10.0
 25
10.0
 16
0.0
 26
0.0
 36
1.0
 17
0.0
 27
0.0
 37
0.0
 42
50.0
 43
0.0
 44
0.0
 45
1083.5019455253
 50
0.0
 51
0.0
 72
   100
 90
   557152
  1

281
     0
 71
     1
 74
     0
110
0.0
120
0.0
130
0.0
111
1.0
121
0.0
131
0.0
112
0.0
122
1.0
132
0.0
 79
     0
146
0.0
  0
ENDSEC
  0
SECTION
  2
OBJECTS
  0
DICTIONARY
  5
C
330
0
100
AcDbDictionary
281
     1
  3
ACAD_GROUP
350
D
  3
ACAD_LAYOUT
350
1A
  3
ACAD_MLINESTYLE
350
17
  3
ACAD_PLOTSETTINGS
350
19
  3
ACAD_PLOTSTYLENAME
350
E
  3
ACAD_SCALELIST
350
47
  0
DICTIONARY
  5
D
102
{ACAD_REACTORS
330
C
102
}
330
C
100
AcDbDictionary
281
     1
  0
DICTIONARY
  5
1A
102
{ACAD_REACTORS
330
C
102
}
330
C
100
AcDbDictionary
281
     1
  3
_Dimetrisch
350
21B
  3
_Isometrisch
350
12F
  3
_Links
350
F0
  3
_Normal auf
350
CC
  3
_Rechts
350
26
  3
_Rückseite
350
DE
  3
_Trimetrisch
350
1AF
  3
_Unten
350
102
  3
_Vorderseite
350
1E
  3
Model
350
22
  0
DICTIONARY
  5
17
102
{ACAD_REACTORS
330
C
102
}
330
C
100
AcDbDictionary
281
     1
  3
Standard
350
18
  0
DICTIONARY
  5
19
102
{ACAD_REACTORS
330
C
102
}
330
C
100
AcDbDictionary
281
     1
  0
ACDBDICTIONARYWDFLT
  5
E
102
{ACAD_REACTORS
330
C
102
}
330
C
100
AcDbDictionary
281
     1
  3
Normal
350
F
100
AcDbDictionaryWithDefault
340
F
  0
DICTIONARY
  5
47
102
{ACAD_REACTORS
330
C
102
}
330
C
100
AcDbDictionary
281
     1
  3
A0
350
48
  3
A1
350
49
  3
A2
350
4A
  3
A3
350
4B
  3
A4
350
4C
  3
A5
350
4D
  3
A6
350
4E
  3
A7
350
4F
  3
A8
350
50
  3
A9
350
51
  3
B0
350
52
  3
B1
350
53
  3
B2
350
54
  3
B3
350
55
  3
B4
350
56
  3
B5
350
57
  3
B6
350
58
  3
B7
350
59
  3
B8
350
5A
  3
B9
350
5B
  3
C0
350
5C
  3
C1
350
5D
  3
C2
350
5E
  3
C3
350
5F
  3
C4
350
60
  3
C5
350
61
  3
C6
350
62
  3
C7
350
63
  3
C8
350
64
  3
C9
350
65
  3
D0
350
66
  3
D1
350
67
  3
D2
350
68
  0
LAYOUT
  5
21B
102
{ACAD_REACTORS
330
1A
102
}
330
1A
100
AcDbPlotSettings
  1

  2
none_device
  4
ISO_A4_(210.00_x_297.00_MM)
  6

 40
7.5
 41
20.0
 42
7.5
 43
20.0
 44
210.0
 45
297.0
 46
0.0
 47
0.0
 48
0.0
 49
0.0
140
0.0
141
0.0
142
1.0
143
5.4474708171
 70
   688
 72
     1
 73
     1
 74
     1
  7

 75
     0
147
0.1835714286
148
700.0
149
26.0
100
AcDbLayout
  1
_Dimetrisch
 70
     1
 71
     9
 10
0.0
 20
0.0
 11
0.0
 21
0.0
 12
0.0
 22
0.0
 32
0.0
 14
0.0
 24
0.0
 34
0.0
 15
0.0
 25
0.0
 35
0.0
146
0.0
 13
0.0
 23
0.0
 33
0.0
 16
1.0
 26
0.0
 36
0.0
 17
0.0
 27
1.0
 37
0.0
 76
     0
330
21A
331
288
  0
LAYOUT
  5
12F
102
{ACAD_REACTORS
330
1A
102
}
330
1A
100
AcDbPlotSettings
  1

  2
none_device
  4
ISO_A4_(210.00_x_297.00_MM)
  6

 40
7.5
 41
20.0
 42
7.5
 43
20.0
 44
210.0
 45
297.0
 46
0.0
 47
0.0
 48
0.0
 49
0.0
140
0.0
141
0.0
142
1.0
143
5.4474708171
 70
   688
 72
     1
 73
     1
 74
     1
  7

 75
     0
147
0.1835714286
148
700.0
149
26.0
100
AcDbLayout
  1
_Isometrisch
 70
     1
 71
     7
 10
0.0
 20
0.0
 11
0.0
 21
0.0
 12
0.0
 22
0.0
 32
0.0
 14
0.0
 24
0.0
 34
0.0
 15
0.0
 25
0.0
 35
0.0
146
0.0
 13
0.0
 23
0.0
 33
0.0
 16
1.0
 26
0.0
 36
0.0
 17
0.0
 27
1.0
 37
0.0
 76
     0
330
12E
331
284
  0
LAYOUT
  5
F0
102
{ACAD_REACTORS
330
1A
102
}
330
1A
100
AcDbPlotSettings
  1

  2
none_device
  4
ISO_A4_(210.00_x_297.00_MM)
  6

 40
7.5
 41
20.0
 42
7.5
 43
20.0
 44
210.0
 45
297.0
 46
0.0
 47
0.0
 48
0.0
 49
0.0
140
0.0
141
0.0
142
1.0
143
5.4474708171
 70
   688
 72
     1
 73
     1
 74
     1
  7

 75
     0
147
0.1835714286
148
700.0
149
26.0
100
AcDbLayout
  1
_Links
 70
     1
 71
     5
 10
0.0
 20
0.0
 11
0.0
 21
0.0
 12
0.0
 22
0.0
 32
0.0
 14
0.0
 24
0.0
 34
0.0
 15
0.0
 25
0.0
 35
0.0
146
0.0
 13
0.0
 23
0.0
 33
0.0
 16
1.0
 26
0.0
 36
0.0
 17
0.0
 27
1.0
 37
0.0
 76
     0
330
EF
331
280
  0
LAYOUT
  5
CC
102
{ACAD_REACTORS
330
1A
102
}
330
1A
100
AcDbPlotSettings
  1

  2
none_device
  4
ISO_A4_(210.00_x_297.00_MM)
  6

 40
7.5
 41
20.0
 42
7.5
 43
20.0
 44
210.0
 45
297.0
 46
0.0
 47
0.0
 48
0.0
 49
0.0
140
0.0
141
0.0
142
1.0
143
5.4474708171
 70
   688
 72
     1
 73
     1
 74
     1
  7

 75
     0
147
0.1835714286
148
700.0
149
26.0
100
AcDbLayout
  1
_Normal auf
 70
     1
 71
     3
 10
0.0
 20
0.0
 11
0.0
 21
0.0
 12
0.0
 22
0.0
 32
0.0
 14
0.0
 24
0.0
 34
0.0
 15
0.0
 25
0.0
 35
0.0
146
0.0
 13
0.0
 23
0.0
 33
0.0
 16
1.0
 26
0.0
 36
0.0
 17
0.0
 27
1.0
 37
0.0
 76
     0
330
CB
331
27C
  0
LAYOUT
  5
26
102
{ACAD_REACTORS
330
1A
102
}
330
1A
100
AcDbPlotSettings
  1

  2
none_device
  4
ISO_A4_(210.00_x_297.00_MM)
  6

 40
7.5
 41
20.0
 42
7.5
 43
20.0
 44
210.0
 45
297.0
 46
0.0
 47
0.0
 48
0.0
 49
0.0
140
0.0
141
0.0
142
1.0
143
5.4474708171
 70
   688
 72
     1
 73
     1
 74
     1
  7

 75
     0
147
0.1835714286
148
700.0
149
26.0
100
AcDbLayout
  1
_Rechts
 70
     1
 71
     2
 10
0.0
 20
0.0
 11
0.0
 21
0.0
 12
0.0
 22
0.0
 32
0.0
 14
0.0
 24
0.0
 34
0.0
 15
0.0
 25
0.0
 35
0.0
146
0.0
 13
0.0
 23
0.0
 33
0.0
 16
1.0
 26
0.0
 36
0.0
 17
0.0
 27
1.0
 37
0.0
 76
     0
330
23
331
27A
  0
LAYOUT
  5
DE
102
{ACAD_REACTORS
330
1A
102
}
330
1A
100
AcDbPlotSettings
  1

  2
none_device
  4
ISO_A4_(210.00_x_297.00_MM)
  6

 40
7.5
 41
20.0
 42
7.5
 43
20.0
 44
210.0
 45
297.0
 46
0.0
 47
0.0
 48
0.0
 49
0.0
140
0.0
141
0.0
142
1.0
143
5.4474708171
 70
   688
 72
     1
 73
     1
 74
     1
  7

 75
     0
147
0.1835714286
148
700.0
149
26.0
100
AcDbLayout
  1
_Rückseite
 70
     1
 71
     4
 10
0.0
 20
0.0
 11
0.0
 21
0.0
 12
0.0
 22
0.0
 32
0.0
 14
0.0
 24
0.0
 34
0.0
 15
0.0
 25
0.0
 35
0.0
146
0.0
 13
0.0
 23
0.0
 33
0.0
 16
1.0
 26
0.0
 36
0.0
 17
0.0
 27
1.0
 37
0.0
 76
     0
330
DD
331
27E
  0
LAYOUT
  5
1AF
102
{ACAD_REACTORS
330
1A
102
}
330
1A
100
AcDbPlotSettings
  1

  2
none_device
  4
ISO_A4_(210.00_x_297.00_MM)
  6

 40
7.5
 41
20.0
 42
7.5
 43
20.0
 44
210.0
 45
297.0
 46
0.0
 47
0.0
 48
0.0
 49
0.0
140
0.0
141
0.0
142
1.0
143
5.4474708171
 70
   688
 72
     1
 73
     1
 74
     1
  7

 75
     0
147
0.1835714286
148
700.0
149
26.0
100
AcDbLayout
  1
_Trimetrisch
 70
     1
 71
     8
 10
0.0
 20
0.0
 11
0.0
 21
0.0
 12
0.0
 22
0.0
 32
0.0
 14
0.0
 24
0.0
 34
0.0
 15
0.0
 25
0.0
 35
0.0
146
0.0
 13
0.0
 23
0.0
 33
0.0
 16
1.0
 26
0.0
 36
0.0
 17
0.0
 27
1.0
 37
0.0
 76
     0
330
1AE
331
286
  0
LAYOUT
  5
102
102
{ACAD_REACTORS
330
1A
102
}
330
1A
100
AcDbPlotSettings
  1

  2
none_device
  4
ISO_A4_(210.00_x_297.00_MM)
  6

 40
7.5
 41
20.0
 42
7.5
 43
20.0
 44
210.0
 45
297.0
 46
0.0
 47
0.0
 48
0.0
 49
0.0
140
0.0
141
0.0
142
1.0
143
5.4474708171
 70
   688
 72
     1
 73
     1
 74
     1
  7

 75
     0
147
0.1835714286
148
700.0
149
26.0
100
AcDbLayout
  1
_Unten
 70
     1
 71
     6
 10
0.0
 20
0.0
 11
0.0
 21
0.0
 12
0.0
 22
0.0
 32
0.0
 14
0.0
 24
0.0
 34
0.0
 15
0.0
 25
0.0
 35
0.0
146
0.0
 13
0.0
 23
0.0
 33
0.0
 16
1.0
 26
0.0
 36
0.0
 17
0.0
 27
1.0
 37
0.0
 76
     0
330
101
331
282
  0
LAYOUT
  5
1E
102
{ACAD_REACTORS
330
1A
102
}
330
1A
100
AcDbPlotSettings
  1

  2
none_device
  4
ISO_A4_(210.00_x_297.00_MM)
  6

 40
7.5
 41
20.0
 42
7.5
 43
20.0
 44
210.0
 45
297.0
 46
0.0
 47
0.0
 48
0.0
 49
0.0
140
0.0
141
0.0
142
1.0
143
5.4474708171
 70
   688
 72
     1
 73
     1
 74
     1
  7

 75
     0
147
0.1835714286
148
700.0
149
26.0
100
AcDbLayout
  1
_Vorderseite
 70
     1
 71
     1
 10
-808.9494163424
 20
-66.8560311284
 11
808.9494163424
 21
1077.1128404669
 12
0.0
 22
0.0
 32
0.0
 14
-700.0
 24
-26.0
 34
0.0
 15
700.0
 25
35.0
 35
0.0
146
0.0
 13
0.0
 23
0.0
 33
0.0
 16
1.0
 26
0.0
 36
0.0
 17
0.0
 27
1.0
 37
0.0
 76
     0
330
1B
331
278
  0
LAYOUT
  5
22
102
{ACAD_REACTORS
330
1A
102
}
330
1A
100
AcDbPlotSettings
  1

  2
none_device
  4
ANSI_A_(11.00_x_8.50_Inches)
  6

 40
6.35
 41
19.05
 42
6.35000508
 43
19.05000254
 44
279.4
 45
215.9
 46
133.34999746
 47
88.89999873
 48
0.0
 49
0.0
140
0.0
141
0.0
142
0.0077785714
143
1.0
 70
  1696
 72
     0
 73
     0
 74
     0
  7

 75
     0
147
0.0179189148
148
-1300.4909072572
149
0.0
100
AcDbLayout
  1
Model
 70
     1
 71
     0
 10
0.0
 20
0.0
 11
420.0
 21
297.0
 12
0.0
 22
0.0
 32
0.0
 14
-700.0
 24
-450.0
 34
0.0
 15
700.0
 25
450.0
 35
0.0
146
0.0
 13
0.0
 23
0.0
 33
0.0
 16
1.0
 26
0.0
 36
0.0
 17
0.0
 27
1.0
 37
0.0
 76
     0
330
1F
331
29
  0
MLINESTYLE
  5
18
102
{ACAD_REACTORS
330
17
102
}
330
17
100
AcDbMlineStyle
  2
Standard
 70
     0
  3

 62
   256
 51
90.0
 52
90.0
 71
     2
 49
0.5
 62
   256
  6
BYLAYER
 49
-0.5
 62
   256
  6
BYLAYER
  0
ACDBPLACEHOLDER
  5
F
102
{ACAD_REACTORS
330
E
102
}
330
E
  0
SCALE
  5
48
102
{ACAD_REACTORS
330
47
102
}
330
47
100
AcDbScale
 70
     0
300
1:1
140
1.0
141
1.0
290
     1
  0
SCALE
  5
49
102
{ACAD_REACTORS
330
47
102
}
330
47
100
AcDbScale
 70
     0
300
1:2
140
1.0
141
2.0
290
     0
  0
SCALE
  5
4A
102
{ACAD_REACTORS
330
47
102
}
330
47
100
AcDbScale
 70
     0
300
1:4
140
1.0
141
4.0
290
     0
  0
SCALE
  5
4B
102
{ACAD_REACTORS
330
47
102
}
330
47
100
AcDbScale
 70
     0
300
1:5
140
1.0
141
5.0
290
     0
  0
SCALE
  5
4C
102
{ACAD_REACTORS
330
47
102
}
330
47
100
AcDbScale
 70
     0
300
1:8
140
1.0
141
8.0
290
     0
  0
SCALE
  5
4D
102
{ACAD_REACTORS
330
47
102
}
330
47
100
AcDbScale
 70
     0
300
1:10
140
1.0
141
10.0
290
     0
  0
SCALE
  5
4E
102
{ACAD_REACTORS
330
47
102
}
330
47
100
AcDbScale
 70
     0
300
1:16
140
1.0
141
16.0
290
     0
  0
SCALE
  5
4F
102
{ACAD_REACTORS
330
47
102
}
330
47
100
AcDbScale
 70
     0
300
1:20
140
1.0
141
20.0
290
     0
  0
SCALE
  5
50
102
{ACAD_REACTORS
330
47
102
}
330
47
100
AcDbScale
 70
     0
300
1:30
140
1.0
141
30.0
290
     0
  0
SCALE
  5
51
102
{ACAD_REACTORS
330
47
102
}
330
47
100
AcDbScale
 70
     0
300
1:40
140
1.0
141
40.0
290
     0
  0
SCALE
  5
52
102
{ACAD_REACTORS
330
47
102
}
330
47
100
AcDbScale
 70
     0
300
1:50
140
1.0
141
50.0
290
     0
  0
SCALE
  5
53
102
{ACAD_REACTORS
330
47
102
}
330
47
100
AcDbScale
 70
     0
300
1:100
140
1.0
141
100.0
290
     0
  0
SCALE
  5
54
102
{ACAD_REACTORS
330
47
102
}
330
47
100
AcDbScale
 70
     0
300
2:1
140
2.0
141
1.0
290
     0
  0
SCALE
  5
55
102
{ACAD_REACTORS
330
47
102
}
330
47
100
AcDbScale
 70
     0
300
4:1
140
4.0
141
1.0
290
     0
  0
SCALE
  5
56
102
{ACAD_REACTORS
330
47
102
}
330
47
100
AcDbScale
 70
     0
300
8:1
140
8.0
141
1.0
290
     0
  0
SCALE
  5
57
102
{ACAD_REACTORS
330
47
102
}
330
47
100
AcDbScale
 70
     0
300
10:1
140
10.0
141
1.0
290
     0
  0
SCALE
  5
58
102
{ACAD_REACTORS
330
47
102
}
330
47
100
AcDbScale
 70
     0
300
100:1
140
100.0
141
1.0
290
     0
  0
SCALE
  5
59
102
{ACAD_REACTORS
330
47
102
}
330
47
100
AcDbScale
 70
     0
300
1/128" = 1'-0"
140
0.0078125
141
12.0
290
     0
  0
SCALE
  5
5A
102
{ACAD_REACTORS
330
47
102
}
330
47
100
AcDbScale
 70
     0
300
1/64" = 1'-0"
140
0.015625
141
12.0
290
     0
  0
SCALE
  5
5B
102
{ACAD_REACTORS
330
47
102
}
330
47
100
AcDbScale
 70
     0
300
1/32" = 1'-0"
140
0.03125
141
12.0
290
     0
  0
SCALE
  5
5C
102
{ACAD_REACTORS
330
47
102
}
330
47
100
AcDbScale
 70
     0
300
1/16" = 1'-0"
140
0.0625
141
12.0
290
     0
  0
SCALE
  5
5D
102
{ACAD_REACTORS
330
47
102
}
330
47
100
AcDbScale
 70
     0
300
3/32" = 1'-0"
140
0.09375
141
12.0
290
     0
  0
SCALE
  5
5E
102
{ACAD_REACTORS
330
47
102
}
330
47
100
AcDbScale
 70
     0
300
1/8" = 1'-0"
140
0.125
141
12.0
290
     0
  0
SCALE
  5
5F
102
{ACAD_REACTORS
330
47
102
}
330
47
100
AcDbScale
 70
     0
300
3/16" = 1'-0"
140
0.1875
141
12.0
290
     0
  0
SCALE
  5
60
102
{ACAD_REACTORS
330
47
102
}
330
47
100
AcDbScale
 70
     0
300
1/4" = 1'-0"
140
0.25
141
12.0
290
     0
  0
SCALE
  5
61
102
{ACAD_REACTORS
330
47
102
}
330
47
100
AcDbScale
 70
     0
300
3/8" = 1'-0"
140
0.375
141
12.0
290
     0
  0
SCALE
  5
62
102
{ACAD_REACTORS
330
47
102
}
330
47
100
AcDbScale
 70
     0
300
1/2" = 1'-0"
140
0.5
141
12.0
290
     0
  0
SCALE
  5
63
102
{ACAD_REACTORS
330
47
102
}
330
47
100
AcDbScale
 70
     0
300
3/4" = 1'-0"
140
0.75
141
12.0
290
     0
  0
SCALE
  5
64
102
{ACAD_REACTORS
330
47
102
}
330
47
100
AcDbScale
 70
     0
300
1" = 1'-0"
140
1.0
141
12.0
290
     0
  0
SCALE
  5
65
102
{ACAD_REACTORS
330
47
102
}
330
47
100
AcDbScale
 70
     0
300
1-1/2" = 1'-0"
140
1.5
141
12.0
290
     0
  0
SCALE
  5
66
102
{ACAD_REACTORS
330
47
102
}
330
47
100
AcDbScale
 70
     0
300
3" = 1'-0"
140
3.0
141
12.0
290
     0
  0
SCALE
  5
67
102
{ACAD_REACTORS
330
47
102
}
330
47
100
AcDbScale
 70
     0
300
6" = 1'-0"
140
6.0
141
12.0
290
     0
  0
SCALE
  5
68
102
{ACAD_REACTORS
330
47
102
}
330
47
100
AcDbScale
 70
     0
300
1'-0" = 1'-0"
140
12.0
141
12.0
290
     0
  0
ENDSEC
  0
EOF
