  0
SECTION
  2
HEADER
  9
$ACADVER
  1
AC1015
  9
$ACADMAINTVER
 70
     6
  9
$DWGCODEPAGE
  3
ANSI_1252
  9
$INSBASE
 10
0.0
 20
0.0
 30
0.0
  9
$EXTMIN
 10
-700.0
 20
-500.0
 30
0.0
  9
$EXTMAX
 10
700.0
 20
500.0
 30
0.0
  9
$LIMMIN
 10
0.0
 20
0.0
  9
$LIMMAX
 10
420.0
 20
297.0
  9
$ORTHOMODE
 70
     0
  9
$REGENMODE
 70
     1
  9
$FILLMODE
 70
     1
  9
$QTEXTMODE
 70
     0
  9
$MIRRTEXT
 70
     1
  9
$LTSCALE
 40
1.0
  9
$ATTMODE
 70
     1
  9
$TEXTSIZE
 40
3.5
  9
$TRACEWID
 40
1.0
  9
$TEXTSTYLE
  7
STANDARD
  9
$CLAYER
  8
0
  9
$CELTYPE
  6
ByLayer
  9
$CECOLOR
 62
   256
  9
$CELTSCALE
 40
1.0
  9
$DISPSILH
 70
     0
  9
$DIMSCALE
 40
1.0
  9
$DIMASZ
 40
7.4083333333
  9
$DIMEXO
 40
1.0
  9
$DIMDLI
 40
3.75
  9
$DIMRND
 40
0.0
  9
$DIMDLE
 40
0.0
  9
$DIMEXE
 40
1.0
  9
$DIMTP
 40
0.0
  9
$DIMTM
 40
0.0
  9
$DIMTXT
 40
7.0555555556
  9
$DIMCEN
 40
2.5
  9
$DIMTSZ
 40
0.0
  9
$DIMTOL
 70
     0
  9
$DIMLIM
 70
     0
  9
$DIMTIH
 70
     1
  9
$DIMTOH
 70
     1
  9
$DIMSE1
 70
     0
  9
$DIMSE2
 70
     0
  9
$DIMTAD
 70
     1
  9
$DIMZIN
 70
     0
  9
$DIMBLK
  1

  9
$DIMASO
 70
     1
  9
$DIMSHO
 70
     1
  9
$DIMPOST
  1

  9
$DIMAPOST
  1

  9
$DIMALT
 70
     0
  9
$DIMALTD
 70
     3
  9
$DIMALTF
 40
0.0393700787
  9
$DIMLFAC
 40
1.0
  9
$DIMTOFL
 70
     1
  9
$DIMTVP
 40
0.0
  9
$DIMTIX
 70
     0
  9
$DIMSOXD
 70
     0
  9
$DIMSAH
 70
     0
  9
$DIMBLK1
  1

  9
$DIMBLK2
  1

  9
$DIMSTYLE
  2
ISO-25
  9
$DIMCLRD
 70
     0
  9
$DIMCLRE
 70
     0
  9
$DIMCLRT
 70
     0
  9
$DIMTFAC
 40
1.0
  9
$DIMGAP
 40
1.524
  9
$DIMJUST
 70
     0
  9
$DIMSD1
 70
     0
  9
$DIMSD2
 70
     0
  9
$DIMTOLJ
 70
     0
  9
$DIMTZIN
 70
     0
  9
$DIMALTZ
 70
     0
  9
$DIMALTTZ
 70
     0
  9
$DIMUPT
 70
     0
  9
$DIMDEC
 70
     2
  9
$DIMTDEC
 70
     2
  9
$DIMALTU
 70
     2
  9
$DIMALTTD
 70
     3
  9
$DIMTXSTY
  7
STANDARD
  9
$DIMAUNIT
 70
     0
  9
$DIMADEC
 70
     2
  9
$DIMALTRND
 40
0.0
  9
$DIMAZIN
 70
     0
  9
$DIMDSEP
 70
    44
  9
$DIMATFIT
 70
     3
  9
$DIMFRAC
 70
     0
  9
$DIMLDRBLK
  1

  9
$DIMLUNIT
 70
     2
  9
$DIMLWD
 70
    -2
  9
$DIMLWE
 70
    -2
  9
$DIMTMOVE
 70
     0
  9
$LUNITS
 70
     2
  9
$LUPREC
 70
     2
  9
$SKETCHINC
 40
1.0
  9
$FILLETRAD
 40
10.0
  9
$AUNITS
 70
     0
  9
$AUPREC
 70
     2
  9
$MENU
  1
.
  9
$ELEVATION
 40
0.0
  9
$PELEVATION
 40
0.0
  9
$THICKNESS
 40
0.0
  9
$LIMCHECK
 70
     0
  9
$CHAMFERA
 40
0.0
  9
$CHAMFERB
 40
0.0
  9
$CHAMFERC
 40
0.0
  9
$CHAMFERD
 40
0.0
  9
$SKPOLY
 70
     0
  9
$TDCREATE
 40
2458232.501413125
  9
$TDUCREATE
 40
2458232.418079792
  9
$TDUPDATE
 40
2458232.501441377
  9
$TDUUPDATE
 40
2458232.418108044
  9
$TDINDWG
 40
0.0000000116
  9
$TDUSRTIMER
 40
0.0000000116
  9
$USRTIMER
 70
     1
  9
$ANGBASE
 50
0.0
  9
$ANGDIR
 70
     0
  9
$PDMODE
 70
     0
  9
$PDSIZE
 40
-1.0
  9
$PLINEWID
 40
0.0
  9
$SPLFRAME
 70
     0
  9
$SPLINETYPE
 70
     6
  9
$SPLINESEGS
 70
     8
  9
$HANDSEED
  5
28A
  9
$SURFTAB1
 70
     6
  9
$SURFTAB2
 70
     6
  9
$SURFTYPE
 70
     6
  9
$SURFU
 70
     6
  9
$SURFV
 70
     6
  9
$UCSBASE
  2

  9
$UCSNAME
  2

  9
$UCSORG
 10
0.0
 20
0.0
 30
0.0
  9
$UCSXDIR
 10
1.0
 20
0.0
 30
0.0
  9
$UCSYDIR
 10
0.0
 20
1.0
 30
0.0
  9
$UCSORTHOREF
  2

  9
$UCSORTHOVIEW
 70
     0
  9
$UCSORGTOP
 10
0.0
 20
0.0
 30
0.0
  9
$UCSORGBOTTOM
 10
0.0
 20
0.0
 30
0.0
  9
$UCSORGLEFT
 10
0.0
 20
0.0
 30
0.0
  9
$UCSORGRIGHT
 10
0.0
 20
0.0
 30
0.0
  9
$UCSORGFRONT
 10
0.0
 20
0.0
 30
0.0
  9
$UCSORGBACK
 10
0.0
 20
0.0
 30
0.0
  9
$PUCSBASE
  2

  9
$PUCSNAME
  2

  9
$PUCSORG
 10
0.0
 20
0.0
 30
0.0
  9
$PUCSXDIR
 10
1.0
 20
0.0
 30
0.0
  9
$PUCSYDIR
 10
0.0
 20
1.0
 30
0.0
  9
$PUCSORTHOREF
  2

  9
$PUCSORTHOVIEW
 70
     0
  9
$PUCSORGTOP
 10
0.0
 20
0.0
 30
0.0
  9
$PUCSORGBOTTOM
 10
0.0
 20
0.0
 30
0.0
  9
$PUCSORGLEFT
 10
0.0
 20
0.0
 30
0.0
  9
$PUCSORGRIGHT
 10
0.0
 20
0.0
 30
0.0
  9
$PUCSORGFRONT
 10
0.0
 20
0.0
 30
0.0
  9
$PUCSORGBACK
 10
0.0
 20
0.0
 30
0.0
  9
$USERI1
 70
     0
  9
$USERI2
 70
     0
  9
$USERI3
 70
     0
  9
$USERI4
 70
     0
  9
$USERI5
 70
     0
  9
$USERR1
 40
0.0
  9
$USERR2
 40
0.0
  9
$USERR3
 40
0.0
  9
$USERR4
 40
0.0
  9
$USERR5
 40
0.0
  9
$WORLDVIEW
 70
     1
  9
$SHADEDGE
 70
     3
  9
$SHADEDIF
 70
    70
  9
$TILEMODE
 70
     1
  9
$MAXACTVP
 70
    64
  9
$PINSBASE
 10
0.0
 20
0.0
 30
0.0
  9
$PLIMCHECK
 70
     0
  9
$PEXTMIN
 10
-700.0
 20
-26.0
 30
0.0
  9
$PEXTMAX
 10
700.0
 20
35.0
 30
0.0
  9
$PLIMMIN
 10
-808.9494163424
 20
-66.8560311284
  9
$PLIMMAX
 10
808.9494163424
 20
1077.1128404669
  9
$UNITMODE
 70
     0
  9
$VISRETAIN
 70
     1
  9
$PLINEGEN
 70
     0
  9
$PSLTSCALE
 70
     1
  9
$TREEDEPTH
 70
  3020
  9
$CMLSTYLE
  2
Standard
  9
$CMLJUST
 70
     0
  9
$CMLSCALE
 40
20.0
  9
$PROXYGRAPHICS
 70
     1
  9
$MEASUREMENT
 70
     1
  9
$CELWEIGHT
370
    -1
  9
$ENDCAPS
280
     0
  9
$JOINSTYLE
280
     0
  9
$LWDISPLAY
290
     1
  9
$INSUNITS
 70
     4
  9
$HYPERLINKBASE
  1

  9
$STYLESHEET
  1

  9
$XEDIT
290
     1
  9
$CEPSNTYPE
380
     0
  9
$PSTYLEMODE
290
     1
  9
$FINGERPRINTGUID
  2
{4FD1AEC5-BF99-4E4D-ACA5-C0D5081D2BD8}
  9
$VERSIONGUID
  2
{FAEB1C32-E019-11D5-929B-00C0DF256EC4}
  9
$EXTNAMES
290
     1
  9
$PSVPSCALE
 40
0.0
  9
$OLESTARTUP
290
     0
  0
ENDSEC
  0
SECTION
  2
CLASSES
  0
CLASS
  1
ACDBDICTIONARYWDFLT
  2
AcDbDictionaryWithDefault
  3
ObjectDBX Classes
 90
        0
280
     0
281
     0
  0
CLASS
  1
VISUALSTYLE
  2
AcDbVisualStyle
  3
ObjectDBX Classes
 90
     4095
280
     0
281
     0
  0
CLASS
  1
MATERIAL
  2
AcDbMaterial
  3
ObjectDBX Classes
 90
     1153
280
     0
281
     0
  0
CLASS
  1
SCALE
  2
AcDbScale
  3
ObjectDBX Classes
 90
     1153
280
     0
281
     0
  0
CLASS
  1
TABLESTYLE
  2
AcDbTableStyle
  3
ObjectDBX Classes
 90
     4095
280
     0
281
     0
  0
CLASS
  1
MLEADERSTYLE
  2
AcDbMLeaderStyle
  3
ACDB_MLEADERSTYLE_CLASS
 90
     4095
280
     0
281
     0
  0
CLASS
  1
SUN
  2
AcDbSun
  3
SCENEOE
 90
     1153
280
     0
281
     0
  0
CLASS
  1
ACDBPLACEHOLDER
  2
AcDbPlaceHolder
  3
ObjectDBX Classes
 90
        0
280
     0
281
     0
  0
CLASS
  1
LAYOUT
  2
AcDbLayout
  3
ObjectDBX Classes
 90
        0
280
     0
281
     0
  0
ENDSEC
  0
SECTION
  2
TABLES
  0
TABLE
  2
VPORT
  5
8
330
0
100
AcDbSymbolTable
 70
     1
  0
VPORT
  5
29
330
8
100
AcDbSymbolTableRecord
100
AcDbViewportTableRecord
  2
*Active
 70
     0
 10
0.0
 20
0.0
 11
1.0
 21
1.0
 12
0.0
 22
0.0
 13
0.0
 23
0.0
 14
10.0
 24
10.0
 15
10.0
 25
10.0
 16
0.0
 26
0.0
 36
1.0
 17
0.0
 27
0.0
 37
0.0
 40
1020.0
 41
1.4
 42
50.0
 43
0.0
 44
0.0
 50
0.0
 51
0.0
 71
     0
 72
   100
 73
     1
 74
     3
 75
     0
 76
     0
 77
     0
 78
     0
281
     0
 65
     1
110
0.0
120
0.0
130
0.0
111
1.0
121
0.0
131
0.0
112
0.0
122
1.0
132
0.0
 79
     0
146
0.0
  0
ENDTAB
  0
TABLE
  2
LTYPE
  5
5
330
0
100
AcDbSymbolTable
 70
     6
  0
LTYPE
  5
14
330
5
100
AcDbSymbolTableRecord
100
AcDbLinetypeTableRecord
  2
ByBlock
 70
     0
  3

 72
    65
 73
     0
 40
0.0
  0
LTYPE
  5
15
330
5
100
AcDbSymbolTableRecord
100
AcDbLinetypeTableRecord
  2
ByLayer
 70
     0
  3

 72
    65
 73
     0
 40
0.0
  0
LTYPE
  5
16
330
5
100
AcDbSymbolTableRecord
100
AcDbLinetypeTableRecord
  2
Continuous
 70
     0
  3
Solid line
 72
    65
 73
     0
 40
0.0
  0
LTYPE
  5
6E
330
5
100
AcDbSymbolTableRecord
100
AcDbLinetypeTableRecord
  2
HIDDEN
 70
     0
  3
Hidden __ __ __ __ __ __ __ __ __ __ __ __ __ __
 72
    65
 73
     2
 40
1.905
 49
1.27
 74
     0
 49
-0.635
 74
     0
  0
LTYPE
  5
6F
330
5
100
AcDbSymbolTableRecord
100
AcDbLinetypeTableRecord
  2
PHANTOM
 70
     0
  3
Phantom ______  __  __  ______  __  __  ______
 72
    65
 73
     6
 40
12.7
 49
6.35
 74
     0
 49
-1.27
 74
     0
 49
1.27
 74
     0
 49
-1.27
 74
     0
 49
1.27
 74
     0
 49
-1.27
 74
     0
  0
LTYPE
  5
70
330
5
100
AcDbSymbolTableRecord
100
AcDbLinetypeTableRecord
  2
CENTER
 70
     0
  3
Center ____ _ ____ _ ____ _ ____ _ ____ _ ____
 72
    65
 73
     4
 40
10.16
 49
6.35
 74
     0
 49
-1.27
 74
     0
 49
1.27
 74
     0
 49
-1.27
 74
     0
  0
LTYPE
  5
71
330
5
100
AcDbSymbolTableRecord
100
AcDbLinetypeTableRecord
  2
CENTERX2
 70
     0
  3
Center (2x) ________  __  ________  __  _____
 72
    65
 73
     4
 40
20.32
 49
12.7
 74
     0
 49
-2.54
 74
     0
 49
2.54
 74
     0
 49
-2.54
 74
     0
  0
LTYPE
  5
72
330
5
100
AcDbSymbolTableRecord
100
AcDbLinetypeTableRecord
  2
DOT2
 70
     0
  3
Dot (.5x) ........................................
 72
    65
 73
     2
 40
0.635
 49
0.0
 74
     0
 49
-0.635
 74
     0
  0
ENDTAB
  0
TABLE
  2
LAYER
  5
2
330
0
100
AcDbSymbolTable
 70
     1
  0
LAYER
  5
10
330
2
100
AcDbSymbolTableRecord
100
AcDbLayerTableRecord
  2
0
 70
     0
 62
     7
  6
Continuous
370
    -3
390
F
  0
ENDTAB
  0
TABLE
  2
STYLE
  5
3
330
0
100
AcDbSymbolTable
 70
     1
  0
STYLE
  5
11
330
3
100
AcDbSymbolTableRecord
100
AcDbTextStyleTableRecord
  2
STANDARD
 70
     0
 40
0.0
 41
1.0
 50
0.0
 71
     0
 42
3.5
  3
GOTHIC.TTF
  4

1001
ACAD
1000
CENTURY GOTHIC
1071
       34
  0
ENDTAB
  0
TABLE
  2
VIEW
  5
6
330
0
100
AcDbSymbolTable
 70
     0
  0
ENDTAB
  0
TABLE
  2
UCS
  5
7
330
0
100
AcDbSymbolTable
 70
     0
  0
ENDTAB
  0
TABLE
  2
APPID
  5
9
330
0
100
AcDbSymbolTable
 70
     1
  0
APPID
  5
12
330
9
100
AcDbSymbolTableRecord
100
AcDbRegAppTableRecord
  2
ACAD
 70
     0
  0
ENDTAB
  0
TABLE
  2
DIMSTYLE
  5
A
330
0
100
AcDbSymbolTable
 70
     1
100
AcDbDimStyleTable
  0
DIMSTYLE
105
27
330
A
100
AcDbSymbolTableRecord
100
AcDbDimStyleTableRecord
  2
ISO-25
 70
     0
 41
2.5
 42
0.625
 43
3.75
 44
1.25
 73
     0
 74
     0
 77
     1
 78
     8
140
2.5
141
2.5
143
0.0393700787
147
0.625
171
     3
172
     1
178
     0
271
     2
272
     2
274
     3
278
    44
283
     0
284
     8
340
11
  0
ENDTAB
  0
TABLE
  2
BLOCK_RECORD
  5
1
330
0
100
AcDbSymbolTable
 70
     8
  0
BLOCK_RECORD
  5
1F
330
1
100
AcDbSymbolTableRecord
100
AcDbBlockTableRecord
  2
*Model_Space
340
22
  0
BLOCK_RECORD
  5
1B
330
1
100
AcDbSymbolTableRecord
100
AcDbBlockTableRecord
  2
*Paper_Space
340
1E
  0
BLOCK_RECORD
  5
23
330
1
100
AcDbSymbolTableRecord
100
AcDbBlockTableRecord
  2
*Paper_Space0
340
26
  0
BLOCK_RECORD
  5
CB
330
1
100
AcDbSymbolTableRecord
100
AcDbBlockTableRecord
  2
*Paper_Space1
340
CC
  0
BLOCK_RECORD
  5
DD
330
1
100
AcDbSymbolTableRecord
100
AcDbBlockTableRecord
  2
*Paper_Space2
340
DE
  0
BLOCK_RECORD
  5
EF
330
1
100
AcDbSymbolTableRecord
100
AcDbBlockTableRecord
  2
*Paper_Space3
340
F0
  0
BLOCK_RECORD
  5
101
330
1
100
AcDbSymbolTableRecord
100
AcDbBlockTableRecord
  2
*Paper_Space4
340
102
  0
BLOCK_RECORD
  5
12E
330
1
100
AcDbSymbolTableRecord
100
AcDbBlockTableRecord
  2
*Paper_Space5
340
12F
  0
BLOCK_RECORD
  5
1AE
330
1
100
AcDbSymbolTableRecord
100
AcDbBlockTableRecord
  2
*Paper_Space6
340
1AF
  0
BLOCK_RECORD
  5
21A
330
1
100
AcDbSymbolTableRecord
100
AcDbBlockTableRecord
  2
*Paper_Space7
340
21B
  0
ENDTAB
  0
ENDSEC
  0
SECTION
  2
BLOCKS
  0
BLOCK
  5
20
330
1F
100
AcDbEntity
  8
0
100
AcDbBlockBegin
  2
*Model_Space
 70
     0
 10
0.0
 20
0.0
 30
0.0
  3
*Model_Space
  1

  0
ENDBLK
  5
21
330
1F
100
AcDbEntity
  8
0
100
AcDbBlockEnd
  0
BLOCK
  5
1C
330
1B
100
AcDbEntity
 67
     1
  8
0
100
AcDbBlockBegin
  2
*Paper_Space
 70
     0
 10
0.0
 20
0.0
 30
0.0
  3
*Paper_Space
  1

  0
ENDBLK
  5
1D
330
1B
100
AcDbEntity
 67
     1
  8
0
100
AcDbBlockEnd
  0
BLOCK
  5
24
330
23
100
AcDbEntity
  8
0
100
AcDbBlockBegin
  2
*Paper_Space0
 70
     0
 10
0.0
 20
0.0
 30
0.0
  3
*Paper_Space0
  1

  0
LINE
  5
C4
330
23
100
AcDbEntity
  8
0
  6
Continuous
 62
     7
370
    25
100
AcDbLine
 10
500.0
 20
35.0
 30
0.0
 11
500.0
 21
0.0
 31
0.0
  0
LINE
  5
C5
330
23
100
AcDbEntity
  8
0
  6
Continuous
 62
     7
370
    25
100
AcDbLine
 10
-500.0
 20
0.0
 30
0.0
 11
500.0
 21
0.0
 31
0.0
  0
LINE
  5
C6
330
23
100
AcDbEntity
  8
0
  6
Continuous
 62
     7
370
    25
100
AcDbLine
 10
-500.0
 20
35.0
 30
0.0
 11
-500.0
 21
0.0
 31
0.0
  0
LINE
  5
C7
330
23
100
AcDbEntity
  8
0
  6
Continuous
 62
     7
370
    25
100
AcDbLine
 10
-500.0
 20
35.0
 30
0.0
 11
500.0
 21
35.0
 31
0.0
  0
LINE
  5
C8
330
23
100
AcDbEntity
  8
0
  6
Continuous
 62
     7
370
    25
100
AcDbLine
 10
130.0
 20
-26.0
 30
0.0
 11
130.0
 21
0.0
 31
0.0
  0
LINE
  5
C9
330
23
100
AcDbEntity
  8
0
  6
Continuous
 62
     7
370
    25
100
AcDbLine
 10
-130.0
 20
-26.0
 30
0.0
 11
-130.0
 21
0.0
 31
0.0
  0
LINE
  5
CA
330
23
100
AcDbEntity
  8
0
  6
Continuous
 62
     7
370
    25
100
AcDbLine
 10
130.0
 20
-26.0
 30
0.0
 11
-130.0
 21
-26.0
 31
0.0
  0
VIEWPORT
  5
27A
330
23
100
AcDbEntity
  8
0
100
AcDbViewport
 10
0.0
 20
0.0
 30
0.0
 40
205.6
 41
156.0
 68
     1
 69
     1
 12
0.0
 22
0.0
 13
0.0
 23
0.0
 14
10.0
 24
10.0
 15
10.0
 25
10.0
 16
0.0
 26
0.0
 36
1.0
 17
0.0
 27
0.0
 37
0.0
 42
50.0
 43
0.0
 44
0.0
 45
1083.5019455253
 50
0.0
 51
0.0
 72
   100
 90
   557152
  1

281
     0
 71
     1
 74
     0
110
0.0
120
0.0
130
0.0
111
1.0
121
0.0
131
0.0
112
0.0
122
1.0
132
0.0
 79
     0
146
0.0
  0
ENDBLK
  5
25
330
23
100
AcDbEntity
  8
0
100
AcDbBlockEnd
  0
BLOCK
  5
CD
330
CB
100
AcDbEntity
  8
0
100
AcDbBlockBegin
  2
*Paper_Space1
 70
     0
 10
0.0
 20
0.0
 30
0.0
  3
*Paper_Space1
  1

  0
LINE
  5
D6
330
CB
100
AcDbEntity
  8
0
  6
Continuous
 62
     7
370
    25
100
AcDbLine
 10
-700.0
 20
35.0
 30
0.0
 11
700.0
 21
35.0
 31
0.0
  0
LINE
  5
D7
330
CB
100
AcDbEntity
  8
0
  6
Continuous
 62
     7
370
    25
100
AcDbLine
 10
700.0
 20
35.0
 30
0.0
 11
700.0
 21
0.0
 31
0.0
  0
LINE
  5
D8
330
CB
100
AcDbEntity
  8
0
  6
Continuous
 62
     7
370
    25
100
AcDbLine
 10
-700.0
 20
0.0
 30
0.0
 11
700.0
 21
0.0
 31
0.0
  0
LINE
  5
D9
330
CB
100
AcDbEntity
  8
0
  6
Continuous
 62
     7
370
    25
100
AcDbLine
 10
-700.0
 20
35.0
 30
0.0
 11
-700.0
 21
0.0
 31
0.0
  0
LINE
  5
DA
330
CB
100
AcDbEntity
  8
0
  6
Continuous
 62
     7
370
    25
100
AcDbLine
 10
130.0
 20
-26.0
 30
0.0
 11
-130.0
 21
-26.0
 31
0.0
  0
LINE
  5
DB
330
CB
100
AcDbEntity
  8
0
  6
Continuous
 62
     7
370
    25
100
AcDbLine
 10
130.0
 20
-26.0
 30
0.0
 11
130.0
 21
0.0
 31
0.0
  0
LINE
  5
DC
330
CB
100
AcDbEntity
  8
0
  6
Continuous
 62
     7
370
    25
100
AcDbLine
 10
-130.0
 20
-26.0
 30
0.0
 11
-130.0
 21
0.0
 31
0.0
  0
VIEWPORT
  5
27C
330
CB
100
AcDbEntity
  8
0
100
AcDbViewport
 10
0.0
 20
0.0
 30
0.0
 40
205.6
 41
156.0
 68
     1
 69
     1
 12
0.0
 22
0.0
 13
0.0
 23
0.0
 14
10.0
 24
10.0
 15
10.0
 25
10.0
 16
0.0
 26
0.0
 36
1.0
 17
0.0
 27
0.0
 37
0.0
 42
50.0
 43
0.0
 44
0.0
 45
1083.5019455253
 50
0.0
 51
0.0
 72
   100
 90
   557152
  1

281
     0
 71
     1
 74
     0
110
0.0
120
0.0
130
0.0
111
1.0
121
0.0
131
0.0
112
0.0
122
1.0
132
0.0
 79
     0
146
0.0
  0
ENDBLK
  5
CE
330
CB
100
AcDbEntity
  8
0
100
AcDbBlockEnd
  0
BLOCK
  5
DF
330
DD
100
AcDbEntity
  8
0
100
AcDbBlockBegin
  2
*Paper_Space2
 70
     0
 10
0.0
 20
0.0
 30
0.0
  3
*Paper_Space2
  1

  0
LINE
  5
E8
330
DD
100
AcDbEntity
  8
0
  6
Continuous
 62
     7
370
    25
100
AcDbLine
 10
-700.0
 20
35.0
 30
0.0
 11
700.0
 21
35.0
 31
0.0
  0
LINE
  5
E9
330
DD
100
AcDbEntity
  8
0
  6
Continuous
 62
     7
370
    25
100
AcDbLine
 10
-700.0
 20
35.0
 30
0.0
 11
-700.0
 21
0.0
 31
0.0
  0
LINE
  5
EA
330
DD
100
AcDbEntity
  8
0
  6
Continuous
 62
     7
370
    25
100
AcDbLine
 10
-700.0
 20
0.0
 30
0.0
 11
700.0
 21
0.0
 31
0.0
  0
LINE
  5
EB
330
DD
100
AcDbEntity
  8
0
  6
Continuous
 62
     7
370
    25
100
AcDbLine
 10
700.0
 20
35.0
 30
0.0
 11
700.0
 21
0.0
 31
0.0
  0
LINE
  5
EC
330
DD
100
AcDbEntity
  8
0
  6
Continuous
 62
     7
370
    25
100
AcDbLine
 10
130.0
 20
-26.0
 30
0.0
 11
130.0
 21
0.0
 31
0.0
  0
LINE
  5
ED
330
DD
100
AcDbEntity
  8
0
  6
Continuous
 62
     7
370
    25
100
AcDbLine
 10
130.0
 20
-26.0
 30
0.0
 11
-130.0
 21
-26.0
 31
0.0
  0
LINE
  5
EE
330
DD
100
AcDbEntity
  8
0
  6
Continuous
 62
     7
370
    25
100
AcDbLine
 10
-130.0
 20
-26.0
 30
0.0
 11
-130.0
 21
0.0
 31
0.0
  0
VIEWPORT
  5
27E
330
DD
100
AcDbEntity
  8
0
100
AcDbViewport
 10
0.0
 20
0.0
 30
0.0
 40
205.6
 41
156.0
 68
     1
 69
     1
 12
0.0
 22
0.0
 13
0.0
 23
0.0
 14
10.0
 24
10.0
 15
10.0
 25
10.0
 16
0.0
 26
0.0
 36
1.0
 17
0.0
 27
0.0
 37
0.0
 42
50.0
 43
0.0
 44
0.0
 45
1083.5019455253
 50
0.0
 51
0.0
 72
   100
 90
   557152
  1

281
     0
 71
     1
 74
     0
110
0.0
120
0.0
130
0.0
111
1.0
121
0.0
131
0.0
112
0.0
122
1.0
132
0.0
 79
     0
146
0.0
  0
ENDBLK
  5
E0
330
DD
100
AcDbEntity
  8
0
100
AcDbBlockEnd
  0
BLOCK
  5
F1
330
EF
100
AcDbEntity
  8
0
100
AcDbBlockBegin
  2
*Paper_Space3
 70
     0
 10
0.0
 20
0.0
 30
0.0
  3
*Paper_Space3
  1

  0
LINE
  5
FA
330
EF
100
AcDbEntity
  8
0
  6
Continuous
 62
     7
370
    25
100
AcDbLine
 10
-500.0
 20
35.0
 30
0.0
 11
-500.0
 21
0.0
 31
0.0
  0
LINE
  5
FB
330
EF
100
AcDbEntity
  8
0
  6
Continuous
 62
     7
370
    25
100
AcDbLine
 10
-500.0
 20
35.0
 30
0.0
 11
500.0
 21
35.0
 31
0.0
  0
LINE
  5
FC
330
EF
100
AcDbEntity
  8
0
  6
Continuous
 62
     7
370
    25
100
AcDbLine
 10
500.0
 20
35.0
 30
0.0
 11
500.0
 21
0.0
 31
0.0
  0
LINE
  5
FD
330
EF
100
AcDbEntity
  8
0
  6
Continuous
 62
     7
370
    25
100
AcDbLine
 10
-500.0
 20
0.0
 30
0.0
 11
500.0
 21
0.0
 31
0.0
  0
LINE
  5
FE
330
EF
100
AcDbEntity
  8
0
  6
Continuous
 62
     7
370
    25
100
AcDbLine
 10
130.0
 20
-26.0
 30
0.0
 11
-130.0
 21
-26.0
 31
0.0
  0
LINE
  5
FF
330
EF
100
AcDbEntity
  8
0
  6
Continuous
 62
     7
370
    25
100
AcDbLine
 10
-130.0
 20
-26.0
 30
0.0
 11
-130.0
 21
0.0
 31
0.0
  0
LINE
  5
100
330
EF
100
AcDbEntity
  8
0
  6
Continuous
 62
     7
370
    25
100
AcDbLine
 10
130.0
 20
-26.0
 30
0.0
 11
130.0
 21
0.0
 31
0.0
  0
VIEWPORT
  5
280
330
EF
100
AcDbEntity
  8
0
100
AcDbViewport
 10
0.0
 20
0.0
 30
0.0
 40
205.6
 41
156.0
 68
     1
 69
     1
 12
0.0
 22
0.0
 13
0.0
 23
0.0
 14
10.0
 24
10.0
 15
10.0
 25
10.0
 16
0.0
 26
0.0
 36
1.0
 17
0.0
 27
0.0
 37
0.0
 42
50.0
 43
0.0
 44
0.0
 45
1083.5019455253
 50
0.0
 51
0.0
 72
   100
 90
   557152
  1

281
     0
 71
     1
 74
     0
110
0.0
120
0.0
130
0.0
111
1.0
121
0.0
131
0.0
112
0.0
122
1.0
132
0.0
 79
     0
146
0.0
  0
ENDBLK
  5
F2
330
EF
100
AcDbEntity
  8
0
100
AcDbBlockEnd
  0
BLOCK
  5
103
330
101
100
AcDbEntity
  8
0
100
AcDbBlockBegin
  2
*Paper_Space4
 70
     0
 10
0.0
 20
0.0
 30
0.0
  3
*Paper_Space4
  1

  0
CIRCLE
  5
10D
330
101
100
AcDbEntity
  8
0
  6
Continuous
 62
     7
370
    25
100
AcDbCircle
 10
0.0
 20
0.0
 30
0.0
 40
44.99999999999998
  0
LINE
  5
11A
330
101
100
AcDbEntity
  8
0
  6
Continuous
 62
     7
370
    25
100
AcDbLine
 10
700.0
 20
-500.0
 30
0.0
 11
-700.0
 21
-500.0
 31
0.0
  0
LINE
  5
11B
330
101
100
AcDbEntity
  8
0
  6
Continuous
 62
     7
370
    25
100
AcDbLine
 10
-700.0
 20
500.0
 30
0.0
 11
700.0
 21
500.0
 31
0.0
  0
LINE
  5
11C
330
101
100
AcDbEntity
  8
0
  6
Continuous
 62
     7
370
    25
100
AcDbLine
 10
700.0
 20
500.0
 30
0.0
 11
700.0
 21
-500.0
 31
0.0
  0
LINE
  5
11D
330
101
100
AcDbEntity
  8
0
  6
Continuous
 62
     7
370
    25
100
AcDbLine
 10
-700.0
 20
-500.0
 30
0.0
 11
-700.0
 21
500.0
 31
0.0
  0
LINE
  5
11E
330
101
100
AcDbEntity
  8
0
  6
Continuous
 62
     7
370
    25
100
AcDbLine
 10
130.0
 20
-130.0
 30
0.0
 11
130.0
 21
130.0
 31
0.0
  0
LINE
  5
11F
330
101
100
AcDbEntity
  8
0
  6
Continuous
 62
     7
370
    25
100
AcDbLine
 10
-130.0
 20
-130.0
 30
0.0
 11
130.0
 21
-130.0
 31
0.0
  0
LINE
  5
120
330
101
100
AcDbEntity
  8
0
  6
Continuous
 62
     7
370
    25
100
AcDbLine
 10
-130.0
 20
130.0
 30
0.0
 11
-130.0
 21
-130.0
 31
0.0
  0
LINE
  5
121
330
101
100
AcDbEntity
  8
0
  6
Continuous
 62
     7
370
    25
100
AcDbLine
 10
130.0
 20
130.0
 30
0.0
 11
-130.0
 21
130.0
 31
0.0
  0
LINE
  5
122
330
101
100
AcDbEntity
  8
0
  6
Continuous
 62
     7
370
    25
100
AcDbLine
 10
-28.8654208587
 20
34.5222751082
 30
0.0
 11
-19.3431457505
 21
25.0
 31
0.0
  0
LINE
  5
123
330
101
100
AcDbEntity
  8
0
  6
Continuous
 62
     7
370
    25
100
AcDbLine
 10
-19.3431457505
 20
25.0
 30
0.0
 11
19.3431457505
 21
25.0
 31
0.0
  0
LINE
  5
124
330
101
100
AcDbEntity
  8
0
  6
Continuous
 62
     7
370
    25
100
AcDbLine
 10
19.3431457505
 20
25.0
 30
0.0
 11
28.8654208587
 21
34.5222751082
 31
0.0
  0
LINE
  5
125
330
101
100
AcDbEntity
  8
0
  6
Continuous
 62
     7
370
    25
100
AcDbLine
 10
34.5222751082
 20
28.8654208587
 30
0.0
 11
25.0
 21
19.3431457505
 31
0.0
  0
LINE
  5
126
330
101
100
AcDbEntity
  8
0
  6
Continuous
 62
     7
370
    25
100
AcDbLine
 10
25.0
 20
19.3431457505
 30
0.0
 11
25.0
 21
-19.3431457505
 31
0.0
  0
LINE
  5
127
330
101
100
AcDbEntity
  8
0
  6
Continuous
 62
     7
370
    25
100
AcDbLine
 10
25.0
 20
-19.3431457505
 30
0.0
 11
34.5222751082
 21
-28.8654208587
 31
0.0
  0
LINE
  5
128
330
101
100
AcDbEntity
  8
0
  6
Continuous
 62
     7
370
    25
100
AcDbLine
 10
-25.0
 20
19.3431457505
 30
0.0
 11
-34.5222751082
 21
28.8654208587
 31
0.0
  0
LINE
  5
129
330
101
100
AcDbEntity
  8
0
  6
Continuous
 62
     7
370
    25
100
AcDbLine
 10
-25.0
 20
-19.3431457505
 30
0.0
 11
-25.0
 21
19.3431457505
 31
0.0
  0
LINE
  5
12A
330
101
100
AcDbEntity
  8
0
  6
Continuous
 62
     7
370
    25
100
AcDbLine
 10
-34.5222751082
 20
-28.8654208587
 30
0.0
 11
-25.0
 21
-19.3431457505
 31
0.0
  0
LINE
  5
12B
330
101
100
AcDbEntity
  8
0
  6
Continuous
 62
     7
370
    25
100
AcDbLine
 10
-19.3431457505
 20
-25.0
 30
0.0
 11
-28.8654208587
 21
-34.5222751082
 31
0.0
  0
LINE
  5
12C
330
101
100
AcDbEntity
  8
0
  6
Continuous
 62
     7
370
    25
100
AcDbLine
 10
28.8654208587
 20
-34.5222751082
 30
0.0
 11
19.3431457505
 21
-25.0
 31
0.0
  0
LINE
  5
12D
330
101
100
AcDbEntity
  8
0
  6
Continuous
 62
     7
370
    25
100
AcDbLine
 10
19.3431457505
 20
-25.0
 30
0.0
 11
-19.3431457505
 21
-25.0
 31
0.0
  0
VIEWPORT
  5
282
330
101
100
AcDbEntity
  8
0
100
AcDbViewport
 10
0.0
 20
0.0
 30
0.0
 40
205.6
 41
156.0
 68
     1
 69
     1
 12
0.0
 22
0.0
 13
0.0
 23
0.0
 14
10.0
 24
10.0
 15
10.0
 25
10.0
 16
0.0
 26
0.0
 36
1.0
 17
0.0
 27
0.0
 37
0.0
 42
50.0
 43
0.0
 44
0.0
 45
1083.5019455253
 50
0.0
 51
0.0
 72
   100
 90
   557152
  1

281
     0
 71
     1
 74
     0
110
0.0
120
0.0
130
0.0
111
1.0
121
0.0
131
0.0
112
0.0
122
1.0
132
0.0
 79
     0
146
0.0
  0
ENDBLK
  5
104
330
101
100
AcDbEntity
  8
0
100
AcDbBlockEnd
  0
BLOCK
  5
130
330
12E
100
AcDbEntity
  8
0
100
AcDbBlockBegin
  2
*Paper_Space5
 70
     0
 10
0.0
 20
0.0
 30
0.0
  3
*Paper_Space5
  1

  0
SPLINE
  5
143
330
12E
100
AcDbEntity
  8
0
  6
Continuous
 62
     7
370
    25
100
AcDbSpline
210
0.0
220
0.0
230
1.0
 70
     8
 71
     3
 72
     8
 73
     4
 74
     0
 42
0.000000001
 43
0.00000001
 40
0.0
 40
0.0
 40
0.0
 40
0.0
 40
1.0
 40
1.0
 40
1.0
 40
1.0
 10
16.6378066161539
 20
-39.08524579239378
 30
0.0
 10
11.68082158497328
 20
-41.8641673606745
 30
0.0
 10
6.724150317012047
 20
-44.62265215788418
 30
0.0
 10
1.767766952966127
 20
-47.36238451362035
 30
0.0
  0
SPLINE
  5
146
330
12E
100
AcDbEntity
  8
0
  6
Continuous
 62
     7
370
    25
100
AcDbSpline
210
0.0
220
0.0
230
1.0
 70
     8
 71
     3
 72
     8
 73
     4
 74
     0
 42
0.000000001
 43
0.00000001
 40
0.0
 40
0.0
 40
0.0
 40
0.0
 40
1.0
 40
1.0
 40
1.0
 40
1.0
 10
-111.3693180368814
 20
17.95026443219649
 30
0.0
 10
-106.4129346728355
 20
20.68999678793266
 30
0.0
 10
-101.4562634048743
 20
23.44848158514234
 30
0.0
 10
-96.49927837369368
 20
26.22740315342305
 30
0.0
  0
SPLINE
  5
147
330
12E
100
AcDbEntity
  8
0
  6
Continuous
 62
     7
370
    25
100
AcDbSpline
210
0.0
220
0.0
230
1.0
 70
     8
 71
     3
 72
    20
 73
    16
 74
     0
 42
0.000000001
 43
0.00000001
 40
0.0
 40
0.0
 40
0.0
 40
0.0
 40
0.1250000000000012
 40
0.1250000000000012
 40
0.2500000000000024
 40
0.2500000000000024
 40
0.3750000000000037
 40
0.3750000000000037
 40
0.5000000000000049
 40
0.5000000000000049
 40
0.6250000000000061
 40
0.6250000000000061
 40
0.7500000000000073
 40
0.7500000000000073
 40
1.0
 40
1.0
 40
1.0
 40
1.0
 10
-111.3693180368817
 20
15.92848121809344
 30
0.0
 10
-111.4860378182747
 20
15.99750982434307
 30
0.0
 10
-111.5893646952937
 20
16.07169967260911
 30
0.0
 10
-111.7703245270293
 20
16.22998661382526
 30
0.0
 10
-111.8485825025068
 20
16.31507467649914
 30
0.0
 10
-111.9739348957334
 20
16.49053881207804
 30
0.0
 10
-112.0211893836687
 20
16.58049825936895
 30
0.0
 10
-112.0851333603117
 20
16.76483928398118
 30
0.0
 10
-112.1014989325551
 20
16.85981248201455
 30
0.0
 10
-112.1016029806342
 20
17.04621366653471
 30
0.0
 10
-112.0858651437267
 20
17.13858737962169
 30
0.0
 10
-112.0220644355852
 20
17.32164744863275
 30
0.0
 10
-111.9742011884863
 20
17.41093360683692
 30
0.0
 10
-111.7877731797151
 20
17.66533366746621
 30
0.0
 10
-111.6027215758245
 20
17.82124631946849
 30
0.0
 10
-111.3693180368814
 20
17.95026443219649
 30
0.0
  0
SPLINE
  5
148
330
12E
100
AcDbEntity
  8
0
  6
Continuous
 62
     7
370
    25
100
AcDbSpline
210
0.0
220
0.0
230
1.0
 70
     8
 71
     3
 72
    14
 73
    10
 74
     0
 42
0.000000001
 43
0.00000001
 40
0.0
 40
0.0
 40
0.0
 40
0.0
 40
0.25
 40
0.25
 40
0.5
 40
0.5
 40
0.7500000000000001
 40
0.7500000000000001
 40
1.0
 40
1.0
 40
1.0
 40
1.0
 10
-1.767766952966252
 20
-47.34314744816707
 30
0.0
 10
-10.9010586615496
 20
-42.19954329548846
 30
0.0
 10
-20.03424556735584
 20
-37.06579848572969
 30
0.0
 10
-38.30095157467107
 20
-26.76705563284814
 30
0.0
 10
-47.43442397148887
 20
-21.5985226236763
 30
0.0
 10
-65.70266220644965
 20
-11.05249316084031
 30
0.0
 10
-74.83613389635411
 20
-5.675743813808227
 30
0.0
 10
-93.10283969720426
 20
5.115803049066795
 30
0.0
 10
-102.2360264544953
 20
10.52701129688957
 30
0.0
 10
-111.3693180368817
 20
15.92848121809345
 30
0.0
  0
SPLINE
  5
149
330
12E
100
AcDbEntity
  8
0
  6
Continuous
 62
     7
370
    25
100
AcDbSpline
210
0.0
220
0.0
230
1.0
 70
     8
 71
     3
 72
    20
 73
    16
 74
     0
 42
0.000000001
 43
0.00000001
 40
0.0
 40
0.0
 40
0.0
 40
0.0
 40
0.1249999999999988
 40
0.1249999999999988
 40
0.2499999999999976
 40
0.2499999999999976
 40
0.3749999999999963
 40
0.3749999999999963
 40
0.4999999999999951
 40
0.4999999999999951
 40
0.6249999999999939
 40
0.6249999999999939
 40
0.7499999999999927
 40
0.7499999999999927
 40
1.0
 40
1.0
 40
1.0
 40
1.0
 10
1.767766952966127
 20
-47.36238451362035
 30
0.0
 10
1.651064949239347
 20
-47.42689369947327
 30
0.0
 10
1.52486532914551
 20
-47.48387567958321
 30
0.0
 10
1.254244856183785
 20
-47.58339582883931
 30
0.0
 10
1.108114067097286
 20
-47.62627329824074
 30
0.0
 10
0.8055143883475141
 20
-47.69457864606206
 30
0.0
 10
0.6497877109886765
 20
-47.72009767812292
 30
0.0
 10
0.3295602698379294
 20
-47.75402666425185
 30
0.0
 10
0.1640029326019019
 20
-47.76225098001053
 30
0.0
 10
-0.1620177033637635
 20
-47.76051717051175
 30
0.0
 10
-0.3241124927578776
 20
-47.75084262066436
 30
0.0
 10
-0.6464278603035833
 20
-47.71346968642096
 30
0.0
 10
-0.8042221738425726
 20
-47.68589117378105
 30
0.0
 10
-1.255438236625092
 20
-47.57938966500274
 30
0.0
 10
-1.534326502446892
 20
-47.47461431783533
 30
0.0
 10
-1.767766952966252
 20
-47.34314744816707
 30
0.0
  0
SPLINE
  5
14A
330
12E
100
AcDbEntity
  8
0
  6
Continuous
 62
     7
370
    25
100
AcDbSpline
210
0.0
220
0.0
230
1.0
 70
     8
 71
     3
 72
    14
 73
    10
 74
     0
 42
0.000000001
 43
0.00000001
 40
0.0
 40
0.0
 40
0.0
 40
0.0
 40
0.2500000000000001
 40
0.2500000000000001
 40
0.5000000000000001
 40
0.5000000000000001
 40
0.75
 40
0.75
 40
1.0
 40
1.0
 40
1.0
 40
1.0
 10
96.49927837369351
 20
7.017800522300274
 30
0.0
 10
89.84432814520727
 20
3.102800891983577
 30
0.0
 10
83.18937029431756
 20
-0.810812241528248
 30
0.0
 10
69.879273447146
 20
-8.605088598479092
 30
0.0
 10
63.22412103500213
 20
-12.48332374943377
 30
0.0
 10
49.91341865125641
 20
-20.16743022871004
 30
0.0
 10
43.25819225147474
 20
-23.97311434085677
 30
0.0
 10
29.94786990279074
 20
-31.54647795485324
 30
0.0
 10
23.29283302949905
 20
-35.31656029697356
 30
0.0
 10
16.63780661615382
 20
-39.08524579239383
 30
0.0
  0
SPLINE
  5
14C
330
12E
100
AcDbEntity
  8
0
  6
Continuous
 62
     7
370
    25
100
AcDbSpline
210
0.0
220
0.0
230
1.0
 70
     8
 71
     3
 72
     8
 73
     4
 74
     0
 42
0.000000001
 43
0.00000001
 40
0.0
 40
0.0
 40
0.0
 40
0.0
 40
1.0
 40
1.0
 40
1.0
 40
1.0
 10
111.3693180368812
 20
15.90924415263949
 30
0.0
 10
106.4129346728353
 20
12.92645808347786
 30
0.0
 10
101.456263404874
 20
9.962092049004562
 30
0.0
 10
96.49927837369343
 20
7.017800522300228
 30
0.0
  0
SPLINE
  5
14D
330
12E
100
AcDbEntity
  8
0
  6
Continuous
 62
     7
370
    25
100
AcDbSpline
210
0.0
220
0.0
230
1.0
 70
     8
 71
     3
 72
    20
 73
    16
 74
     0
 42
0.000000001
 43
0.00000001
 40
0.0
 40
0.0
 40
0.0
 40
0.0
 40
0.1249999999999995
 40
0.1249999999999995
 40
0.2499999999999989
 40
0.2499999999999989
 40
0.3749999999999984
 40
0.3749999999999984
 40
0.4999999999999979
 40
0.4999999999999979
 40
0.6249999999999973
 40
0.6249999999999973
 40
0.7499999999999969
 40
0.7499999999999969
 40
1.0
 40
1.0
 40
1.0
 40
1.0
 10
111.3693180368815
 20
17.96950149764951
 30
0.0
 10
111.4860378182745
 20
17.90376831278822
 30
0.0
 10
111.5893646952935
 20
17.83222789541083
 30
0.0
 10
111.7703245270291
 20
17.6780116661751
 30
0.0
 10
111.8485825025065
 20
17.59435005151297
 30
0.0
 10
111.9739348957332
 20
17.42039889917174
 30
0.0
 10
112.0211893836684
 20
17.33054067090138
 30
0.0
 10
112.0851333603113
 20
17.14511853612953
 30
0.0
 10
112.1014989325549
 20
17.0489389062508
 30
0.0
 10
112.1016029806338
 20
16.85892965539201
 30
0.0
 10
112.0858651437264
 20
16.76415633253686
 30
0.0
 10
112.0220644355849
 20
16.57508857928378
 30
0.0
 10
111.9742011884861
 20
16.48222930051893
 30
0.0
 10
111.7877731797148
 20
16.21573541754053
 30
0.0
 10
111.6027215758243
 20
16.04970802988974
 30
0.0
 10
111.3693180368812
 20
15.90924415263949
 30
0.0
  0
SPLINE
  5
14E
330
12E
100
AcDbEntity
  8
0
  6
Continuous
 62
     7
370
    25
100
AcDbSpline
210
0.0
220
0.0
230
1.0
 70
     8
 71
     3
 72
    14
 73
    10
 74
     0
 42
0.000000001
 43
0.00000001
 40
0.0
 40
0.0
 40
0.0
 40
0.0
 40
0.2499999999999999
 40
0.2499999999999999
 40
0.4999999999999999
 40
0.4999999999999999
 40
0.7499999999999999
 40
0.7499999999999999
 40
1.0
 40
1.0
 40
1.0
 40
1.0
 10
1.767766952966057
 20
81.24113016391001
 30
0.0
 10
10.9010586615494
 20
75.83966016807277
 30
0.0
 10
20.03424556735563
 20
70.42845183202644
 30
0.0
 10
38.30095157467089
 20
59.63690484830341
 30
0.0
 10
47.43442397148878
 20
54.26015509076448
 30
0.0
 10
65.70266220644955
 20
43.71412564461213
 30
0.0
 10
74.83613389635393
 20
38.54559304111808
 30
0.0
 10
93.10283969720403
 20
28.24685030576802
 30
0.0
 10
102.2360264544951
 20
23.11310557925771
 30
0.0
 10
111.3693180368815
 20
17.96950149764951
 30
0.0
  0
SPLINE
  5
14F
330
12E
100
AcDbEntity
  8
0
  6
Continuous
 62
     7
370
    25
100
AcDbSpline
210
0.0
220
0.0
230
1.0
 70
     8
 71
     3
 72
    20
 73
    16
 74
     0
 42
0.000000001
 43
0.00000001
 40
0.0
 40
0.0
 40
0.0
 40
0.0
 40
0.1249999999999988
 40
0.1249999999999988
 40
0.2499999999999976
 40
0.2499999999999976
 40
0.3749999999999963
 40
0.3749999999999963
 40
0.4999999999999951
 40
0.4999999999999951
 40
0.6249999999999939
 40
0.6249999999999939
 40
0.7499999999999927
 40
0.7499999999999927
 40
1.0
 40
1.0
 40
1.0
 40
1.0
 10
-1.767766952966286
 20
81.22189309845638
 30
0.0
 10
-1.651064949239493
 20
81.29212517805793
 30
0.0
 10
-1.524865329145711
 20
81.35442655396652
 30
0.0
 10
-1.254244856184077
 20
81.46381689868892
 30
0.0
 10
-1.108114067097224
 20
81.51128789662698
 30
0.0
 10
-0.8055143883476112
 20
81.58771678400609
 30
0.0
 10
-0.6497877109887598
 20
81.6167634199479
 30
0.0
 10
-0.3295602698380889
 20
81.65668311234262
 30
0.0
 10
-0.1640029326020268
 20
81.66736995832623
 30
0.0
 10
0.1620177033636525
 20
81.66925322201391
 30
0.0
 10
0.3241124927576763
 20
81.66077135084218
 30
0.0
 10
0.6464278603033613
 20
81.62450887762068
 30
0.0
 10
0.8042221738423783
 20
81.59682841406988
 30
0.0
 10
1.255438236624884
 20
81.48808961037818
 30
0.0
 10
1.534326502446733
 20
81.37918790141885
 30
0.0
 10
1.767766952966057
 20
81.24113016391001
 30
0.0
  0
SPLINE
  5
150
330
12E
100
AcDbEntity
  8
0
  6
Continuous
 62
     7
370
    25
100
AcDbSpline
210
0.0
220
0.0
230
1.0
 70
     8
 71
     3
 72
     8
 73
     4
 74
     0
 42
0.000000001
 43
0.00000001
 40
0.0
 40
0.0
 40
0.0
 40
0.0
 40
1.0
 40
1.0
 40
1.0
 40
1.0
 10
-16.63780661615398
 20
72.33044946811715
 30
0.0
 10
-11.6808215849734
 20
75.27474099482149
 30
0.0
 10
-6.724150317012172
 20
78.23910702929474
 30
0.0
 10
-1.767766952966286
 20
81.22189309845638
 30
0.0
  0
SPLINE
  5
152
330
12E
100
AcDbEntity
  8
0
  6
Continuous
 62
     7
370
    25
100
AcDbSpline
210
0.0
220
0.0
230
1.0
 70
     8
 71
     3
 72
    14
 73
    10
 74
     0
 42
0.000000001
 43
0.00000001
 40
0.0
 40
0.0
 40
0.0
 40
0.0
 40
0.25
 40
0.25
 40
0.5
 40
0.5
 40
0.75
 40
0.75
 40
1.0
 40
1.0
 40
1.0
 40
1.0
 10
-96.49927837369368
 20
26.22740315342305
 30
0.0
 10
-89.84432814520737
 20
29.99604550599831
 30
0.0
 10
-83.18937029431764
 20
33.76608315601818
 30
0.0
 10
-69.87927344714608
 20
41.3393175121486
 30
0.0
 10
-63.22412103500228
 20
45.14495777877585
 30
0.0
 10
-49.91341865125654
 20
52.82906115022786
 30
0.0
 10
-43.2581922514748
 20
56.70733788315588
 30
0.0
 10
-29.94786990279079
 20
64.50174534074507
 30
0.0
 10
-23.29283302949921
 20
68.41540501947956
 30
0.0
 10
-16.63780661615398
 20
72.33044946811715
 30
0.0
  0
SPLINE
  5
157
330
12E
100
AcDbEntity
  8
0
  6
Continuous
 62
     7
370
    25
100
AcDbSpline
210
0.0
220
0.0
230
1.0
 70
    24
 71
     3
 72
     9
 73
     5
 74
     0
 42
0.000000001
 43
0.00000001
 40
0.0
 40
0.0
 40
0.0
 40
0.0
 40
0.9710675801951787
 40
1.0
 40
1.0
 40
1.0
 40
1.0
 10
-5.000000000000012
 20
-45.52332799957809
 30
0.0
 10
-5.000000000000004
 20
-45.18012253168693
 30
0.0
 10
-4.999999999999977
 20
-44.82669144728992
 30
0.0
 10
-5.000000000000004
 20
-44.47384813535914
 30
0.0
 10
-5.000000000000004
 20
-44.46363952453304
 30
0.0
  0
SPLINE
  5
15A
330
12E
100
AcDbEntity
  8
0
  6
Continuous
 62
     7
370
    25
100
AcDbSpline
210
0.0
220
0.0
230
1.0
 70
     8
 71
     3
 72
     9
 73
     5
 74
     0
 42
0.000000001
 43
0.00000001
 40
0.0
 40
0.0
 40
0.0
 40
0.0
 40
0.0993795849112692
 40
0.9999999999999999
 40
0.9999999999999999
 40
0.9999999999999999
 40
0.9999999999999999
 10
-20.00678361135046
 20
-37.07417341223659
 30
0.0
 10
-19.90313854732707
 20
-37.09823261405643
 30
0.0
 10
-18.86021746734949
 20
-37.34032661999654
 30
0.0
 10
-17.77422364810205
 20
-37.50529239352748
 30
0.0
 10
-16.79615544382763
 20
-37.65386393696035
 30
0.0
  0
SPLINE
  5
15B
330
12E
100
AcDbEntity
  8
0
  6
Continuous
 62
     7
370
    25
100
AcDbSpline
210
0.0
220
0.0
230
1.0
 70
     8
 71
     3
 72
     9
 73
     5
 74
     0
 42
0.000000001
 43
0.00000001
 40
0.0
 40
0.0
 40
0.0
 40
0.0
 40
0.9792595071645958
 40
1.0
 40
1.0
 40
1.0
 40
1.0
 10
77.57674579847951
 20
-4.04422584281287
 30
0.0
 10
76.68171059986206
 20
-4.078115400107929
 30
0.0
 10
75.76771876003916
 20
-4.112722730490848
 30
0.0
 10
74.85377266708909
 20
-4.148123578268438
 30
0.0
 10
74.83481697469631
 20
-4.148857809298135
 30
0.0
  0
SPLINE
  5
15E
330
12E
100
AcDbEntity
  8
0
  6
Continuous
 62
     7
370
    25
100
AcDbSpline
210
0.0
220
0.0
230
1.0
 70
     8
 71
     3
 72
     9
 73
     5
 74
     0
 42
0.000000001
 43
0.00000001
 40
0.0
 40
0.0
 40
0.0
 40
0.0
 40
0.3047671143348878
 40
1.0
 40
1.0
 40
1.0
 40
1.0
 10
61.49221837589873
 20
-13.44716732074354
 30
0.0
 10
61.64833648863632
 20
-13.2176814992243
 30
0.0
 10
62.16059028963547
 20
-12.46469401886552
 30
0.0
 10
62.49712766792582
 20
-11.68102065812662
 30
0.0
 10
62.7310995205688
 20
-11.13618516612124
 30
0.0
  0
LWPOLYLINE
  5
15F
330
12E
100
AcDbEntity
  8
0
  6
Continuous
 62
     7
370
    25
100
AcDbPolyline
 90
        3
 70
   128
 43
0.0
 10
43.9162371762
 20
-21.9977740021
 10
43.007757221
 20
-23.974873309
 10
42.8788155652
 20
-24.2125838631
  0
LWPOLYLINE
  5
160
330
12E
100
AcDbEntity
  8
0
  6
Continuous
 62
     7
370
    25
100
AcDbPolyline
 90
        3
 70
   128
 43
0.0
 10
-42.860565134
 20
-24.2455961734
 10
-43.2901580752
 20
-23.4237587737
 10
-43.9162371762
 20
-21.9977740021
  0
LINE
  5
17A
330
12E
100
AcDbEntity
  8
0
  6
Continuous
 62
     7
370
    25
100
AcDbLine
 10
96.9238815543
 20
9.7984897426
 30
0.0
 11
96.9238815543
 21
16.3308162377
 31
0.0
  0
LINE
  5
17B
330
12E
100
AcDbEntity
  8
0
  6
Continuous
 62
     7
370
    25
100
AcDbLine
 10
-96.9238815543
 20
16.3308162377
 30
0.0
 11
-96.9238815543
 21
9.7984897426
 31
0.0
  0
LINE
  5
17C
330
12E
100
AcDbEntity
  8
0
  6
Continuous
 62
     7
370
    25
100
AcDbLine
 10
95.9238815543
 20
6.6814261622
 30
0.0
 11
95.9238815543
 21
8.0666266064
 31
0.0
  0
LINE
  5
17D
330
12E
100
AcDbEntity
  8
0
  6
Continuous
 62
     7
370
    25
100
AcDbLine
 10
-95.9238815543
 20
8.0666266064
 30
0.0
 11
-95.9238815543
 21
6.7916890552
 31
0.0
  0
LINE
  5
17E
330
12E
100
AcDbEntity
  8
0
  6
Continuous
 62
     7
370
    25
100
AcDbLine
 10
848.5281374239
 20
-53.0618827663
 30
0.0
 11
-141.4213562373
 21
518.4237955096
 31
0.0
  0
LINE
  5
17F
330
12E
100
AcDbEntity
  8
0
  6
Continuous
 62
     7
370
    25
100
AcDbLine
 10
141.4213562373
 20
-461.2659386776
 30
0.0
 11
848.5281374239
 21
-53.0618827663
 31
0.0
  0
LINE
  5
180
330
12E
100
AcDbEntity
  8
0
  6
Continuous
 62
     7
370
    25
100
AcDbLine
 10
-848.5281374239
 20
110.2197395983
 30
0.0
 11
141.4213562373
 21
-461.2659386776
 31
0.0
  0
LINE
  5
181
330
12E
100
AcDbEntity
  8
0
  6
Continuous
 62
     7
370
    25
100
AcDbLine
 10
-141.4213562373
 20
518.4237955096
 30
0.0
 11
-848.5281374239
 21
110.2197395983
 31
0.0
  0
LINE
  5
182
330
12E
100
AcDbEntity
  8
0
  6
Continuous
 62
     7
370
    25
100
AcDbLine
 10
-141.4213562373
 20
502.0956332732
 30
0.0
 11
-820.2438661764
 21
110.2197395983
 31
0.0
  0
LINE
  5
183
330
12E
100
AcDbEntity
  8
0
  6
Continuous
 62
     7
370
    25
100
AcDbLine
 10
-820.2438661764
 20
110.2197395983
 30
0.0
 11
141.4213562373
 21
-444.9377764412
 31
0.0
  0
LINE
  5
184
330
12E
100
AcDbEntity
  8
0
  6
Continuous
 62
     7
370
    25
100
AcDbLine
 10
141.4213562373
 20
-444.9377764412
 30
0.0
 11
820.2438661764
 21
-53.0618827663
 31
0.0
  0
LINE
  5
185
330
12E
100
AcDbEntity
  8
0
  6
Continuous
 62
     7
370
    25
100
AcDbLine
 10
820.2438661764
 20
-53.0618827663
 30
0.0
 11
-141.4213562373
 21
502.0956332732
 31
0.0
  0
LINE
  5
186
330
12E
100
AcDbEntity
  8
0
  6
Continuous
 62
     7
370
    25
100
AcDbLine
 10
-848.5281374239
 20
110.2197395983
 30
0.0
 11
-848.5281374239
 21
81.6408111823
 31
0.0
  0
LINE
  5
187
330
12E
100
AcDbEntity
  8
0
  6
Continuous
 62
     7
370
    25
100
AcDbLine
 10
141.4213562373
 20
-461.2659386776
 30
0.0
 11
141.4213562373
 21
-489.8448670936
 31
0.0
  0
LINE
  5
188
330
12E
100
AcDbEntity
  8
0
  6
Continuous
 62
     7
370
    25
100
AcDbLine
 10
-848.5281374239
 20
81.6408111823
 30
0.0
 11
141.4213562373
 21
-489.8448670936
 31
0.0
  0
LINE
  5
189
330
12E
100
AcDbEntity
  8
0
  6
Continuous
 62
     7
370
    25
100
AcDbLine
 10
848.5281374239
 20
-53.0618827663
 30
0.0
 11
848.5281374239
 21
-81.6408111823
 31
0.0
  0
LINE
  5
18A
330
12E
100
AcDbEntity
  8
0
  6
Continuous
 62
     7
370
    25
100
AcDbLine
 10
141.4213562373
 20
-489.8448670936
 30
0.0
 11
848.5281374239
 21
-81.6408111823
 31
0.0
  0
LINE
  5
18B
330
12E
100
AcDbEntity
  8
0
  6
Continuous
 62
     7
370
    25
100
AcDbLine
 10
141.4213562373
 20
-444.9377764412
 30
0.0
 11
16.6378066162
 21
-39.0852457924
 31
0.0
  0
LINE
  5
18C
330
12E
100
AcDbEntity
  8
0
  6
Continuous
 62
     7
370
    25
100
AcDbLine
 10
-820.2438661764
 20
110.2197395983
 30
0.0
 11
-96.4992783737
 21
26.2274031534
 31
0.0
  0
LINE
  5
18D
330
12E
100
AcDbEntity
  8
0
  6
Continuous
 62
     7
370
    25
100
AcDbLine
 10
820.2438661764
 20
-53.0618827663
 30
0.0
 11
96.4992783737
 21
7.0178005223
 31
0.0
  0
LINE
  5
18E
330
12E
100
AcDbEntity
  8
0
  6
Continuous
 62
     7
370
    25
100
AcDbLine
 10
-16.6378066162
 20
72.3304494681
 30
0.0
 11
-141.4213562373
 21
502.0956332732
 31
0.0
  0
LINE
  5
18F
330
12E
100
AcDbEntity
  8
0
  6
Continuous
 62
     7
370
    25
100
AcDbLine
 10
98.7005480102
 20
8.3340354034
 30
0.0
 11
96.8732836951
 21
9.3888926393
 31
0.0
  0
LINE
  5
190
330
12E
100
AcDbEntity
  8
0
  6
Continuous
 62
     7
370
    25
100
AcDbLine
 10
-96.8732836951
 20
9.3888926393
 30
0.0
 11
-98.6148231954
 21
8.3835232856
 31
0.0
  0
LINE
  5
191
330
12E
100
AcDbEntity
  8
0
  6
Continuous
 62
     7
370
    25
100
AcDbLine
 10
-74.8280374816
 20
-4.1527715274
 30
0.0
 11
-77.5331341613
 21
-4.0489940502
 31
0.0
  0
LINE
  5
192
330
12E
100
AcDbEntity
  8
0
  6
Continuous
 62
     7
370
    25
100
AcDbLine
 10
-62.6181064333
 20
-11.201414687
 30
0.0
 11
-61.5039694444
 21
-13.4353628157
 31
0.0
  0
LINE
  5
193
330
12E
100
AcDbEntity
  8
0
  6
Continuous
 62
     7
370
    25
100
AcDbLine
 10
5.0
 20
-44.4636395245
 30
0.0
 11
5.0
 21
-45.5632204283
 31
0.0
  0
LINE
  5
194
330
12E
100
AcDbEntity
  8
0
  6
Continuous
 62
     7
370
    25
100
AcDbLine
 10
16.9131182505
 20
-37.5863427459
 30
0.0
 11
20.3755117906
 21
-36.9649991352
 31
0.0
  0
LINE
  5
195
330
12E
100
AcDbEntity
  8
0
  6
Continuous
 62
     7
370
    25
100
AcDbLine
 10
-3.5355339059
 20
71.4383637857
 30
0.0
 11
-95.4594154602
 21
18.3718365173
 31
0.0
  0
LINE
  5
196
330
12E
100
AcDbEntity
  8
0
  6
Continuous
 62
     7
370
    25
100
AcDbLine
 10
95.4594154602
 20
18.3718365173
 30
0.0
 11
3.5355339059
 21
71.4383637857
 31
0.0
  0
LINE
  5
197
330
12E
100
AcDbEntity
  8
0
  6
Continuous
 62
     7
370
    25
100
AcDbLine
 10
3.5355339059
 20
-38.7767313103
 30
0.0
 11
95.4594154602
 21
14.2897959582
 31
0.0
  0
LINE
  5
198
330
12E
100
AcDbEntity
  8
0
  6
Continuous
 62
     7
370
    25
100
AcDbLine
 10
-95.4594154602
 20
14.2897959582
 30
0.0
 11
-3.5355339059
 21
-38.7767313103
 31
0.0
  0
LINE
  5
199
330
12E
100
AcDbEntity
  8
0
  6
Continuous
 62
     7
370
    25
100
AcDbLine
 10
-3.5355339059
 20
-38.7767313103
 30
0.0
 11
-3.5355339059
 21
-45.3090578054
 31
0.0
  0
LINE
  5
19A
330
12E
100
AcDbEntity
  8
0
  6
Continuous
 62
     7
370
    25
100
AcDbLine
 10
3.5355339059
 20
-38.7767313103
 30
0.0
 11
3.5355339059
 21
-45.3090578054
 31
0.0
  0
LINE
  5
19B
330
12E
100
AcDbEntity
  8
0
  6
Continuous
 62
     7
370
    25
100
AcDbLine
 10
95.4594154602
 20
14.2897959582
 30
0.0
 11
95.4594154602
 21
7.7574694631
 31
0.0
  0
LINE
  5
19C
330
12E
100
AcDbEntity
  8
0
  6
Continuous
 62
     7
370
    25
100
AcDbLine
 10
3.5355339059
 20
-45.3090578054
 30
0.0
 11
95.4594154602
 21
7.7574694631
 31
0.0
  0
LINE
  5
19D
330
12E
100
AcDbEntity
  8
0
  6
Continuous
 62
     7
370
    25
100
AcDbLine
 10
-95.4594154602
 20
14.2897959582
 30
0.0
 11
-95.4594154602
 21
7.7574694631
 31
0.0
  0
LINE
  5
19E
330
12E
100
AcDbEntity
  8
0
  6
Continuous
 62
     7
370
    25
100
AcDbLine
 10
-95.4594154602
 20
7.7574694631
 30
0.0
 11
-3.5355339059
 21
-45.3090578054
 31
0.0
  0
LINE
  5
19F
330
12E
100
AcDbEntity
  8
0
  6
Continuous
 62
     7
370
    25
100
AcDbLine
 10
-4.0
 20
-45.0409272366
 30
0.0
 11
-4.0
 21
-46.0863503504
 31
0.0
  0
LINE
  5
1A0
330
12E
100
AcDbEntity
  8
0
  6
Continuous
 62
     7
370
    25
100
AcDbLine
 10
4.0
 20
-45.0409272366
 30
0.0
 11
4.0
 21
-46.1198523478
 31
0.0
  0
LINE
  5
1A1
330
12E
100
AcDbEntity
  8
0
  6
Continuous
 62
    60
370
    25
100
AcDbLine
 10
111.3693180369
 20
15.9092441526
 30
0.0
 11
111.3693180369
 21
17.9695014976
 31
0.0
  0
LINE
  5
1A2
330
12E
100
AcDbEntity
  8
0
  6
Continuous
 62
    60
370
    25
100
AcDbLine
 10
-111.3693180369
 20
15.9284812181
 30
0.0
 11
-111.3693180369
 21
17.9502644322
 31
0.0
  0
LINE
  5
1A3
330
12E
100
AcDbEntity
  8
0
  6
Continuous
 62
    60
370
    25
100
AcDbLine
 10
1.767766953
 20
72.0973595465
 30
0.0
 11
1.767766953
 21
81.2411301639
 31
0.0
  0
LINE
  5
1A4
330
12E
100
AcDbEntity
  8
0
  6
Continuous
 62
    60
370
    25
100
AcDbLine
 10
-1.767766953
 20
72.0973595465
 30
0.0
 11
-1.767766953
 21
81.2218930985
 31
0.0
  0
LINE
  5
1A5
330
12E
100
AcDbEntity
  8
0
  6
Continuous
 62
    60
370
    25
100
AcDbLine
 10
-91.9238815543
 20
5.7164491835
 30
0.0
 11
-91.9238815543
 21
4.4254776055
 31
0.0
  0
LINE
  5
1A6
330
12E
100
AcDbEntity
  8
0
  6
Continuous
 62
    60
370
    25
100
AcDbLine
 10
91.9238815543
 20
5.7164491835
 30
0.0
 11
91.9238815543
 21
4.3430443793
 31
0.0
  0
ARC
  5
1A7
330
12E
100
AcDbEntity
  8
0
  6
Continuous
 62
     7
370
    25
100
AcDbCircle
 10
0.0
 20
64.614808361
 30
0.0
 40
7.685109539561735
100
AcDbArc
 50
62.6096722366
 51
117.3903277634
  0
ARC
  5
1A8
330
12E
100
AcDbEntity
  8
0
  6
Continuous
 62
     7
370
    25
100
AcDbCircle
 10
94.6847803262
 20
16.3308162377
 30
0.0
 40
2.183076584171286
100
AcDbArc
 50
290.7834207995
 51
69.2165792006
  0
ARC
  5
1A9
330
12E
100
AcDbEntity
  8
0
  6
Continuous
 62
     7
370
    25
100
AcDbCircle
 10
0.0
 20
-31.9531758855
 30
0.0
 40
7.685109539561518
100
AcDbArc
 50
242.6096722366
 51
297.3903277634
  0
ARC
  5
1AA
330
12E
100
AcDbEntity
  8
0
  6
Continuous
 62
     7
370
    25
100
AcDbCircle
 10
-94.6847803262
 20
16.3308162377
 30
0.0
 40
2.183076584171223
100
AcDbArc
 50
110.7834207995
 51
249.2165792006
  0
ARC
  5
1AB
330
12E
100
AcDbEntity
  8
0
  6
Continuous
 62
     7
370
    25
100
AcDbCircle
 10
0.0
 20
-38.4855023806
 30
0.0
 40
7.685109539561486
100
AcDbArc
 50
242.6096722366
 51
297.3903277634
  0
ARC
  5
1AC
330
12E
100
AcDbEntity
  8
0
  6
Continuous
 62
     7
370
    25
100
AcDbCircle
 10
94.4215962418
 20
10.0480216271
 30
0.0
 40
2.514696392469292
100
AcDbArc
 50
294.3746582936
 51
354.3052007488
  0
ARC
  5
1AD
330
12E
100
AcDbEntity
  8
0
  6
Continuous
 62
     7
370
    25
100
AcDbCircle
 10
-94.4215962418
 20
10.0480216271
 30
0.0
 40
2.514696392466785
100
AcDbArc
 50
185.6947992512
 51
245.6253417065
  0
VIEWPORT
  5
284
330
12E
100
AcDbEntity
  8
0
100
AcDbViewport
 10
0.0
 20
0.0
 30
0.0
 40
205.6
 41
156.0
 68
     1
 69
     1
 12
0.0
 22
0.0
 13
0.0
 23
0.0
 14
10.0
 24
10.0
 15
10.0
 25
10.0
 16
0.0
 26
0.0
 36
1.0
 17
0.0
 27
0.0
 37
0.0
 42
50.0
 43
0.0
 44
0.0
 45
1083.5019455253
 50
0.0
 51
0.0
 72
   100
 90
   557152
  1

281
     0
 71
     1
 74
     0
110
0.0
120
0.0
130
0.0
111
1.0
121
0.0
131
0.0
112
0.0
122
1.0
132
0.0
 79
     0
146
0.0
  0
ENDBLK
  5
131
330
12E
100
AcDbEntity
  8
0
100
AcDbBlockEnd
  0
BLOCK
  5
1B0
330
1AE
100
AcDbEntity
  8
0
100
AcDbBlockBegin
  2
*Paper_Space6
 70
     0
 10
0.0
 20
0.0
 30
0.0
  3
*Paper_Space6
  1

  0
SPLINE
  5
1C3
330
1AE
100
AcDbEntity
  8
0
  6
Continuous
 62
     7
370
    25
100
AcDbSpline
210
0.0
220
0.0
230
1.0
 70
     8
 71
     3
 72
     8
 73
     4
 74
     0
 42
0.000000001
 43
0.00000001
 40
0.0
 40
0.0
 40
0.0
 40
0.0
 40
1.0
 40
1.0
 40
1.0
 40
1.0
 10
44.39888659461377
 20
-27.50248390711509
 30
0.0
 10
41.12724203031562
 20
-30.60891037897642
 30
0.0
 10
37.85580455192245
 20
-33.69387128227208
 30
0.0
 10
34.5845570921139
 20
-36.7591357366119
 30
0.0
  0
SPLINE
  5
1C6
330
1AE
100
AcDbEntity
  8
0
  6
Continuous
 62
     7
370
    25
100
AcDbSpline
210
0.0
220
0.0
230
1.0
 70
     8
 71
     3
 72
     8
 73
     4
 74
     0
 42
0.000000001
 43
0.00000001
 40
0.0
 40
0.0
 40
0.0
 40
0.0
 40
1.0
 40
1.0
 40
1.0
 40
1.0
 10
-106.9223423762737
 20
1.699407412815511
 30
0.0
 10
-103.6510949164652
 20
4.764671867155318
 30
0.0
 10
-100.379657438072
 20
7.849632770450986
 30
0.0
 10
-97.10801287377383
 20
10.95605924231232
 30
0.0
  0
SPLINE
  5
1C7
330
1AE
100
AcDbEntity
  8
0
  6
Continuous
 62
     7
370
    25
100
AcDbSpline
210
0.0
220
0.0
230
1.0
 70
     8
 71
     3
 72
    20
 73
    16
 74
     0
 42
0.000000001
 43
0.00000001
 40
0.0
 40
0.0
 40
0.0
 40
0.0
 40
0.1250000000000012
 40
0.1250000000000012
 40
0.2500000000000024
 40
0.2500000000000024
 40
0.3750000000000037
 40
0.3750000000000037
 40
0.5000000000000049
 40
0.5000000000000049
 40
0.6250000000000061
 40
0.6250000000000061
 40
0.7500000000000073
 40
0.7500000000000073
 40
1.0
 40
1.0
 40
1.0
 40
1.0
 10
-105.8780355444057
 20
-0.0200856470223137
 30
0.0
 10
-106.0240235232636
 20
0.0213204490195282
 30
0.0
 10
-106.1600222292386
 20
0.0690994836825762
 30
0.0
 10
-106.4128554726101
 20
0.1768896883368523
 30
0.0
 10
-106.5307928602335
 20
0.2376509489166803
 30
0.0
 10
-106.7399429966774
 20
0.3682894078670534
 30
0.0
 10
-106.8310917467127
 20
0.4377885884701768
 30
0.0
 10
-106.9867790044014
 20
0.5850793492422415
 30
0.0
 10
-107.0513169226128
 20
0.6634221024622855
 30
0.0
 10
-107.1477132619671
 20
0.8219313771652206
 30
0.0
 10
-107.1805553759848
 20
0.9028245313936132
 30
0.0
 10
-107.2148026726244
 20
1.067970910429747
 30
0.0
 10
-107.2156732061464
 20
1.151003741683032
 30
0.0
 10
-107.1708234235956
 20
1.395012095582481
 30
0.0
 10
-107.0763903337857
 20
1.555059504494041
 30
0.0
 10
-106.9223423762737
 20
1.699407412815511
 30
0.0
  0
SPLINE
  5
1C8
330
1AE
100
AcDbEntity
  8
0
  6
Continuous
 62
     7
370
    25
100
AcDbSpline
210
0.0
220
0.0
230
1.0
 70
     8
 71
     3
 72
    14
 73
    10
 74
     0
 42
0.000000001
 43
0.00000001
 40
0.0
 40
0.0
 40
0.0
 40
0.0
 40
0.25
 40
0.25
 40
0.5
 40
0.5
 40
0.7500000000000001
 40
0.7500000000000001
 40
1.0
 40
1.0
 40
1.0
 40
1.0
 10
31.20677331559563
 20
-37.2767993230304
 30
0.0
 10
19.78325297531164
 20
-34.30747917122887
 30
0.0
 10
8.359863717740689
 20
-31.34848102183488
 30
0.0
 10
-14.48733029320368
 20
-25.3977648953313
 30
0.0
 10
-25.91107663039956
 20
-22.40232364483933
 30
0.0
 10
-48.76018708442198
 20
-16.19242501189302
 30
0.0
 10
-60.1839325374417
 20
-12.97840755886914
 30
0.0
 10
-83.03112629014858
 20
-6.510368205246399
 30
0.0
 10
-94.4545153619632
 20
-3.260101554567109
 30
0.0
 10
-105.8780355444057
 20
-0.0200856470223068
 30
0.0
  0
SPLINE
  5
1C9
330
1AE
100
AcDbEntity
  8
0
  6
Continuous
 62
     7
370
    25
100
AcDbSpline
210
0.0
220
0.0
230
1.0
 70
     8
 71
     3
 72
    20
 73
    16
 74
     0
 42
0.000000001
 43
0.00000001
 40
0.0
 40
0.0
 40
0.0
 40
0.0
 40
0.1249999999999988
 40
0.1249999999999988
 40
0.2499999999999976
 40
0.2499999999999976
 40
0.3749999999999963
 40
0.3749999999999963
 40
0.4999999999999951
 40
0.4999999999999951
 40
0.6249999999999939
 40
0.6249999999999939
 40
0.7499999999999927
 40
0.7499999999999927
 40
1.0
 40
1.0
 40
1.0
 40
1.0
 10
34.5845570921139
 20
-36.7591357366119
 30
0.0
 10
34.5075329587478
 20
-36.83130983564728
 30
0.0
 10
34.41748038727275
 20
-36.8985527219004
 30
0.0
 10
34.21238007654833
 20
-37.02357498338495
 30
0.0
 10
34.09588323323753
 20
-37.08189947907891
 30
0.0
 10
33.84381239304301
 20
-37.18535280151769
 30
0.0
 10
33.70899351586547
 20
-37.23044664956974
 30
0.0
 10
33.4219468130327
 20
-37.30749108187867
 30
0.0
 10
33.26861442670174
 20
-37.33944422726817
 30
0.0
 10
32.95717856897371
 20
-37.38720664592118
 30
0.0
 10
32.79767125175297
 20
-37.40350206140268
 30
0.0
 10
32.47089898686325
 20
-37.42057077393746
 30
0.0
 10
32.30600833271824
 20
-37.42107908708907
 30
0.0
 10
31.81985999778245
 20
-37.39916522431096
 30
0.0
 10
31.49875038364952
 20
-37.35269303759568
 30
0.0
 10
31.20677331559563
 20
-37.2767993230304
 30
0.0
  0
SPLINE
  5
1CA
330
1AE
100
AcDbEntity
  8
0
  6
Continuous
 62
     7
370
    25
100
AcDbSpline
210
0.0
220
0.0
230
1.0
 70
     8
 71
     3
 72
    14
 73
    10
 74
     0
 42
0.000000001
 43
0.00000001
 40
0.0
 40
0.0
 40
0.0
 40
0.0
 40
0.2500000000000001
 40
0.2500000000000001
 40
0.5000000000000001
 40
0.5000000000000001
 40
0.75
 40
0.75
 40
1.0
 40
1.0
 40
1.0
 40
1.0
 10
97.10801287377372
 20
23.9432392143087
 30
0.0
 10
92.71569948090554
 20
19.57938709297546
 30
0.0
 10
88.32338105719812
 20
15.21699016174956
 30
0.0
 10
79.53862465256573
 20
6.52677869646446
 30
0.0
 10
75.14617781667127
 20
2.201512529820806
 30
0.0
 10
66.36102175369236
 20
-6.373070740281851
 30
0.0
 10
61.96852608625757
 20
-10.62217895983345
 30
0.0
 10
53.18362084906007
 20
-19.08049491262191
 30
0.0
 10
48.79125027001821
 20
-23.29222278250843
 30
0.0
 10
44.39888659461372
 20
-27.50248390711514
 30
0.0
  0
SPLINE
  5
1CD
330
1AE
100
AcDbEntity
  8
0
  6
Continuous
 62
     7
370
    25
100
AcDbSpline
210
0.0
220
0.0
230
1.0
 70
     8
 71
     3
 72
    14
 73
    10
 74
     0
 42
0.000000001
 43
0.00000001
 40
0.0
 40
0.0
 40
0.0
 40
0.0
 40
0.25
 40
0.25
 40
0.5
 40
0.5
 40
0.75
 40
0.75
 40
1.0
 40
1.0
 40
1.0
 40
1.0
 10
-97.10801287377383
 20
10.95605924231232
 30
0.0
 10
-92.7156994809056
 20
15.16627216904118
 30
0.0
 10
-88.32338105719815
 20
19.3779501063841
 30
0.0
 10
-79.53862465256574
 20
27.83612176125549
 30
0.0
 10
-75.14617781667138
 20
32.08518112949059
 30
0.0
 10
-66.36102175369246
 20
40.65976113714107
 30
0.0
 10
-61.96852608625758
 20
44.98507377893374
 30
0.0
 10
-53.18362084906007
 20
53.67543147659423
 30
0.0
 10
-48.79125027001832
 20
58.0378802856869
 30
0.0
 10
-44.39888659461383
 20
62.40178236373615
 30
0.0
  0
SPLINE
  5
1CE
330
1AE
100
AcDbEntity
  8
0
  6
Continuous
 62
     7
370
    25
100
AcDbSpline
210
0.0
220
0.0
230
1.0
 70
     8
 71
     3
 72
     8
 73
     4
 74
     0
 42
0.000000001
 43
0.00000001
 40
0.0
 40
0.0
 40
0.0
 40
0.0
 40
1.0
 40
1.0
 40
1.0
 40
1.0
 10
106.9223423762735
 20
33.84476031805047
 30
0.0
 10
103.651094916465
 20
30.52434916139044
 30
0.0
 10
100.3796574380718
 20
27.22326352575847
 30
0.0
 10
97.10801287377367
 20
23.94323921430865
 30
0.0
  0
SPLINE
  5
1CF
330
1AE
100
AcDbEntity
  8
0
  6
Continuous
 62
     7
370
    25
100
AcDbSpline
210
0.0
220
0.0
230
1.0
 70
     8
 71
     3
 72
    20
 73
    16
 74
     0
 42
0.000000001
 43
0.00000001
 40
0.0
 40
0.0
 40
0.0
 40
0.0
 40
0.1249999999999995
 40
0.1249999999999995
 40
0.2499999999999989
 40
0.2499999999999989
 40
0.3749999999999984
 40
0.3749999999999984
 40
0.4999999999999979
 40
0.4999999999999979
 40
0.6249999999999973
 40
0.6249999999999973
 40
0.7499999999999969
 40
0.7499999999999969
 40
1.0
 40
1.0
 40
1.0
 40
1.0
 10
105.8780355444056
 20
35.60464176565331
 30
0.0
 10
106.0240235232635
 20
35.56669505267597
 30
0.0
 10
106.1600222292385
 20
35.52169726971543
 30
0.0
 10
106.41285547261
 20
35.4181803128271
 30
0.0
 10
106.5307928602334
 20
35.35891647230761
 30
0.0
 10
106.7399429966772
 20
35.22986627415077
 30
0.0
 10
106.8310917467125
 20
35.16047334865867
 30
0.0
 10
106.9867790044011
 20
35.01204768775205
 30
0.0
 10
107.0513169226126
 20
34.93243847740786
 30
0.0
 10
107.1477132619669
 20
34.77014161923179
 30
0.0
 10
107.1805553759846
 20
34.68672946411851
 30
0.0
 10
107.2148026726242
 20
34.51527649218432
 30
0.0
 10
107.2156732061463
 20
34.42849276194165
 30
0.0
 10
107.1708234235954
 20
34.17178886495696
 30
0.0
 10
107.0763903337856
 20
34.00112346790942
 30
0.0
 10
106.9223423762735
 20
33.84476031805047
 30
0.0
  0
SPLINE
  5
1D0
330
1AE
100
AcDbEntity
  8
0
  6
Continuous
 62
     7
370
    25
100
AcDbSpline
210
0.0
220
0.0
230
1.0
 70
     8
 71
     3
 72
    14
 73
    10
 74
     0
 42
0.000000001
 43
0.00000001
 40
0.0
 40
0.0
 40
0.0
 40
0.0
 40
0.2499999999999999
 40
0.2499999999999999
 40
0.4999999999999999
 40
0.4999999999999999
 40
0.7499999999999999
 40
0.7499999999999999
 40
1.0
 40
1.0
 40
1.0
 40
1.0
 10
-31.20677331559576
 20
72.86135544166139
 30
0.0
 10
-19.7832529753118
 20
69.62133948934854
 30
0.0
 10
-8.35986371774082
 20
66.37107278557336
 30
0.0
 10
14.48733029320355
 20
59.90303336002645
 30
0.0
 10
25.91107663039948
 20
56.68901566416784
 30
0.0
 10
48.7601870844219
 20
50.47911704873524
 30
0.0
 10
60.18393253744156
 20
47.48367603600869
 30
0.0
 10
83.03112629014844
 20
41.53295997794773
 30
0.0
 10
94.45451536196315
 20
38.57396187642703
 30
0.0
 10
105.8780355444056
 20
35.60464176565331
 30
0.0
  0
SPLINE
  5
1D1
330
1AE
100
AcDbEntity
  8
0
  6
Continuous
 62
     7
370
    25
100
AcDbSpline
210
0.0
220
0.0
230
1.0
 70
     8
 71
     3
 72
    20
 73
    16
 74
     0
 42
0.000000001
 43
0.00000001
 40
0.0
 40
0.0
 40
0.0
 40
0.0
 40
0.1249999999999988
 40
0.1249999999999988
 40
0.2499999999999976
 40
0.2499999999999976
 40
0.3749999999999963
 40
0.3749999999999963
 40
0.4999999999999951
 40
0.4999999999999951
 40
0.6249999999999939
 40
0.6249999999999939
 40
0.7499999999999927
 40
0.7499999999999927
 40
1.0
 40
1.0
 40
1.0
 40
1.0
 10
-34.584557092114
 20
72.30330346747793
 30
0.0
 10
-34.50753295874789
 20
72.38148519934113
 30
0.0
 10
-34.41748038727288
 20
72.45431214467827
 30
0.0
 10
-34.21238007654851
 20
72.58969568716932
 30
0.0
 10
-34.09588323323743
 20
72.65284225960356
 30
0.0
 10
-33.84381239304305
 20
72.76482330334363
 30
0.0
 10
-33.70899351586549
 20
72.81362026905074
 30
0.0
 10
-33.4219468130328
 20
72.89695347155266
 30
0.0
 10
-33.26861442670182
 20
72.93149166885271
 30
0.0
 10
-32.95717856897376
 20
72.98305112595688
 30
0.0
 10
-32.79767125175307
 20
73.0005985611123
 30
0.0
 10
-32.47089898686338
 20
73.01883298497808
 30
0.0
 10
-32.30600833271837
 20
73.01923427471357
 30
0.0
 10
-31.8198599977826
 20
72.99497180178169
 30
0.0
 10
-31.49875038364962
 20
72.94416794866663
 30
0.0
 10
-31.20677331559576
 20
72.86135544166139
 30
0.0
  0
SPLINE
  5
1D2
330
1AE
100
AcDbEntity
  8
0
  6
Continuous
 62
     7
370
    25
100
AcDbSpline
210
0.0
220
0.0
230
1.0
 70
     8
 71
     3
 72
     8
 73
     4
 74
     0
 42
0.000000001
 43
0.00000001
 40
0.0
 40
0.0
 40
0.0
 40
0.0
 40
1.0
 40
1.0
 40
1.0
 40
1.0
 10
-44.39888659461383
 20
62.40178236373615
 30
0.0
 10
-41.12724203031569
 20
65.68180667518597
 30
0.0
 10
-37.85580455192254
 20
68.98289231081789
 30
0.0
 10
-34.584557092114
 20
72.30330346747793
 30
0.0
  0
SPLINE
  5
1D8
330
1AE
100
AcDbEntity
  8
0
  6
Continuous
 62
     7
370
    25
100
AcDbSpline
210
0.0
220
0.0
230
1.0
 70
     8
 71
     3
 72
    10
 73
     6
 74
     0
 42
0.000000001
 43
0.00000001
 40
0.0
 40
0.0
 40
0.0
 40
0.0
 40
0.2772565144562955
 40
0.7391175502009139
 40
1.0
 40
1.0
 40
1.0
 40
1.0
 10
40.33122039805134
 20
-27.60044148959729
 30
0.0
 10
41.1836463537236
 20
-27.23539545073763
 30
0.0
 10
43.45606539974557
 20
-26.26224632750927
 30
0.0
 10
46.29978048267367
 20
-24.80583470556389
 30
0.0
 10
48.14976631779112
 20
-23.67015964373642
 30
0.0
 10
48.81753966533776
 20
-23.26022486295815
 30
0.0
  0
SPLINE
  5
1D9
330
1AE
100
AcDbEntity
  8
0
  6
Continuous
 62
     7
370
    25
100
AcDbSpline
210
0.0
220
0.0
230
1.0
 70
     8
 71
     3
 72
    10
 73
     6
 74
     0
 42
0.000000001
 43
0.00000001
 40
0.0
 40
0.0
 40
0.0
 40
0.0
 40
0.4364698906312874
 40
0.8780496587805041
 40
1.0
 40
1.0
 40
1.0
 40
1.0
 10
62.8380335368304
 20
-9.753880287302694
 30
0.0
 10
63.24688027939647
 20
-8.883615798143733
 30
0.0
 10
64.0693602499723
 20
-7.132898385197771
 30
0.0
 10
64.67417239396428
 20
-5.113045400180512
 30
0.0
 10
64.77291073679386
 20
-3.970910165364034
 30
0.0
 10
64.79427813917277
 20
-3.723747184559496
 30
0.0
  0
LWPOLYLINE
  5
1DE
330
1AE
100
AcDbEntity
  8
0
  6
Continuous
 62
     7
370
    25
100
AcDbPolyline
 90
        9
 70
   128
 43
0.0
 10
92.2444687979
 20
29.9258188284
 10
92.6147383354
 20
30.3932386389
 10
92.80084016
 20
30.8888814008
 10
92.7956224831
 20
31.3936998408
 10
92.599285817
 20
31.8882940694
 10
92.2193752697
 20
32.3536571077
 10
91.6704905905
 20
32.7719053152
 10
90.9737251097
 20
33.1269656477
 10
90.1558551341
 20
33.4051933359
  0
LWPOLYLINE
  5
1E2
330
1AE
100
AcDbEntity
  8
0
  6
Continuous
 62
     7
370
    25
100
AcDbPolyline
 90
        9
 70
   128
 43
0.0
 10
-92.2444687979
 20
4.3608731996
 10
-92.6147383354
 20
3.8934533892
 10
-92.80084016
 20
3.3978106273
 10
-92.7956224831
 20
2.8929921873
 10
-92.599285817
 20
2.3983979587
 10
-92.2193752697
 20
1.9330349204
 10
-91.6704905905
 20
1.5147867129
 10
-90.9737251097
 20
1.1597263804
 10
-90.1558551341
 20
0.8814986922
  0
LINE
  5
1EF
330
1AE
100
AcDbEntity
  8
0
  6
Continuous
 62
     7
370
    25
100
AcDbLine
 10
31.1519776286
 20
-37.2954021254
 30
0.0
 11
31.1519776286
 21
-36.490975213
 31
0.0
  0
LINE
  5
1F0
330
1AE
100
AcDbEntity
  8
0
  6
Continuous
 62
     7
370
    25
100
AcDbLine
 10
-92.8223781895
 20
3.1590437262
 30
0.0
 11
-92.8223781895
 21
-3.6982946794
 31
0.0
  0
LINE
  5
1F1
330
1AE
100
AcDbEntity
  8
0
  6
Continuous
 62
     7
370
    25
100
AcDbLine
 10
92.8223781895
 20
24.2703098962
 30
0.0
 11
92.8223781895
 21
31.1276483019
 31
0.0
  0
LINE
  5
1F2
330
1AE
100
AcDbEntity
  8
0
  6
Continuous
 62
     7
370
    25
100
AcDbLine
 10
91.8223781895
 20
18.7228622737
 30
0.0
 11
91.8223781895
 21
22.6565070493
 31
0.0
  0
LINE
  5
1F3
330
1AE
100
AcDbEntity
  8
0
  6
Continuous
 62
     7
370
    25
100
AcDbLine
 10
852.4403796392
 20
89.499232648
 30
0.0
 11
-385.7449907092
 21
426.0114852055
 31
0.0
  0
LINE
  5
1F4
330
1AE
100
AcDbEntity
  8
0
  6
Continuous
 62
     7
370
    25
100
AcDbLine
 10
385.7449907092
 20
-366.0097741563
 30
0.0
 11
852.4403796392
 21
89.499232648
 31
0.0
  0
LINE
  5
1F5
330
1AE
100
AcDbEntity
  8
0
  6
Continuous
 62
     7
370
    25
100
AcDbLine
 10
-852.4403796392
 20
-29.4975215988
 30
0.0
 11
385.7449907092
 21
-366.0097741563
 31
0.0
  0
LINE
  5
1F6
330
1AE
100
AcDbEntity
  8
0
  6
Continuous
 62
     7
370
    25
100
AcDbLine
 10
-385.7449907092
 20
426.0114852055
 30
0.0
 11
-852.4403796392
 21
-29.4975215988
 31
0.0
  0
LINE
  5
1F7
330
1AE
100
AcDbEntity
  8
0
  6
Continuous
 62
     7
370
    25
100
AcDbLine
 10
-377.3905360542
 20
412.0939871757
 30
0.0
 11
-825.4181094271
 21
-25.1946593564
 31
0.0
  0
LINE
  5
1F8
330
1AE
100
AcDbEntity
  8
0
  6
Continuous
 62
     7
370
    25
100
AcDbLine
 10
-825.4181094271
 20
-25.1946593564
 30
0.0
 11
377.3905360542
 21
-352.0922761265
 31
0.0
  0
LINE
  5
1F9
330
1AE
100
AcDbEntity
  8
0
  6
Continuous
 62
     7
370
    25
100
AcDbLine
 10
377.3905360542
 20
-352.0922761265
 30
0.0
 11
825.4181094271
 21
85.1963704056
 31
0.0
  0
LINE
  5
1FA
330
1AE
100
AcDbEntity
  8
0
  6
Continuous
 62
     7
370
    25
100
AcDbLine
 10
825.4181094271
 20
85.1963704056
 30
0.0
 11
-377.3905360542
 21
412.0939871757
 31
0.0
  0
LINE
  5
1FB
330
1AE
100
AcDbEntity
  8
0
  6
Continuous
 62
     7
370
    25
100
AcDbLine
 10
-852.4403796392
 20
-29.4975215988
 30
0.0
 11
-852.4403796392
 21
-59.4983771234
 31
0.0
  0
LINE
  5
1FC
330
1AE
100
AcDbEntity
  8
0
  6
Continuous
 62
     7
370
    25
100
AcDbLine
 10
385.7449907092
 20
-366.0097741563
 30
0.0
 11
385.7449907092
 21
-396.0106296809
 31
0.0
  0
LINE
  5
1FD
330
1AE
100
AcDbEntity
  8
0
  6
Continuous
 62
     7
370
    25
100
AcDbLine
 10
-852.4403796392
 20
-59.4983771234
 30
0.0
 11
385.7449907092
 21
-396.0106296809
 31
0.0
  0
LINE
  5
1FE
330
1AE
100
AcDbEntity
  8
0
  6
Continuous
 62
     7
370
    25
100
AcDbLine
 10
852.4403796392
 20
89.499232648
 30
0.0
 11
852.4403796392
 21
59.4983771234
 31
0.0
  0
LINE
  5
1FF
330
1AE
100
AcDbEntity
  8
0
  6
Continuous
 62
     7
370
    25
100
AcDbLine
 10
385.7449907092
 20
-396.0106296809
 30
0.0
 11
852.4403796392
 21
59.4983771234
 31
0.0
  0
LINE
  5
200
330
1AE
100
AcDbEntity
  8
0
  6
Continuous
 62
     7
370
    25
100
AcDbLine
 10
377.3905360542
 20
-352.0922761265
 30
0.0
 11
44.3988865946
 21
-27.5024839071
 31
0.0
  0
LINE
  5
201
330
1AE
100
AcDbEntity
  8
0
  6
Continuous
 62
     7
370
    25
100
AcDbLine
 10
-825.4181094271
 20
-25.1946593564
 30
0.0
 11
-97.1080128738
 21
10.9560592423
 31
0.0
  0
LINE
  5
202
330
1AE
100
AcDbEntity
  8
0
  6
Continuous
 62
     7
370
    25
100
AcDbLine
 10
825.4181094271
 20
85.1963704056
 30
0.0
 11
97.1080128738
 21
23.9432392143
 31
0.0
  0
LINE
  5
203
330
1AE
100
AcDbEntity
  8
0
  6
Continuous
 62
     7
370
    25
100
AcDbLine
 10
-44.3988865946
 20
62.4017823637
 30
0.0
 11
-377.3905360542
 21
412.0939871757
 31
0.0
  0
LINE
  5
204
330
1AE
100
AcDbEntity
  8
0
  6
Continuous
 62
     7
370
    25
100
AcDbLine
 10
-92.8223781895
 20
-2.3106791519
 30
0.0
 11
-93.9447674128
 21
-3.4061654423
 31
0.0
  0
LINE
  5
205
330
1AE
100
AcDbEntity
  8
0
  6
Continuous
 62
     7
370
    25
100
AcDbLine
 10
94.1325681559
 20
21.0045300676
 30
0.0
 11
91.8223781895
 21
21.6323901991
 31
0.0
  0
LINE
  5
206
330
1AE
100
AcDbEntity
  8
0
  6
Continuous
 62
     7
370
    25
100
AcDbLine
 10
82.4998919692
 20
9.5154737575
 30
0.0
 11
77.2836026029
 21
8.4662163699
 31
0.0
  0
LINE
  5
207
330
1AE
100
AcDbEntity
  8
0
  6
Continuous
 62
     7
370
    25
100
AcDbLine
 10
64.6647968002
 20
-3.8501249409
 30
0.0
 11
64.7707525956
 21
-4.436448033
 31
0.0
  0
LINE
  5
208
330
1AE
100
AcDbEntity
  8
0
  6
Continuous
 62
     7
370
    25
100
AcDbLine
 10
-31.574068237
 20
63.5770440842
 30
0.0
 11
-92.2444687979
 21
4.3608731996
 31
0.0
  0
LINE
  5
209
330
1AE
100
AcDbEntity
  8
0
  6
Continuous
 62
     7
370
    25
100
AcDbLine
 10
90.1558551341
 20
33.4051933359
 30
0.0
 11
-24.8185006839
 21
64.6527596448
 31
0.0
  0
LINE
  5
20A
330
1AE
100
AcDbEntity
  8
0
  6
Continuous
 62
     7
370
    25
100
AcDbLine
 10
31.574068237
 20
-29.2903520561
 30
0.0
 11
92.2444687979
 21
29.9258188284
 31
0.0
  0
LINE
  5
20B
330
1AE
100
AcDbEntity
  8
0
  6
Continuous
 62
     7
370
    25
100
AcDbLine
 10
-90.1558551341
 20
0.8814986922
 30
0.0
 11
24.8185006839
 21
-30.3660676167
 31
0.0
  0
LINE
  5
20C
330
1AE
100
AcDbEntity
  8
0
  6
Continuous
 62
     7
370
    25
100
AcDbLine
 10
31.574068237
 20
-29.2903520561
 30
0.0
 11
31.574068237
 21
-36.1476904617
 31
0.0
  0
LINE
  5
20D
330
1AE
100
AcDbEntity
  8
0
  6
Continuous
 62
     7
370
    25
100
AcDbLine
 10
92.2444687979
 20
29.9258188284
 30
0.0
 11
92.2444687979
 21
23.0684804228
 31
0.0
  0
LINE
  5
20E
330
1AE
100
AcDbEntity
  8
0
  6
Continuous
 62
     7
370
    25
100
AcDbLine
 10
31.574068237
 20
-36.1476904617
 30
0.0
 11
92.2444687979
 21
23.0684804228
 31
0.0
  0
LINE
  5
20F
330
1AE
100
AcDbEntity
  8
0
  6
Continuous
 62
    60
370
    25
100
AcDbLine
 10
-106.9223423763
 20
0.5468012216
 30
0.0
 11
-106.9223423763
 21
1.6994074128
 31
0.0
  0
LINE
  5
210
330
1AE
100
AcDbEntity
  8
0
  6
Continuous
 62
    60
370
    25
100
AcDbLine
 10
-34.5845570921
 20
60.6387146708
 30
0.0
 11
-34.5845570921
 21
72.3033034675
 31
0.0
  0
LINE
  5
211
330
1AE
100
AcDbEntity
  8
0
  6
Continuous
 62
    60
370
    25
100
AcDbLine
 10
105.8780355444
 20
32.7911757475
 30
0.0
 11
105.8780355444
 21
35.6046417657
 31
0.0
  0
LINE
  5
212
330
1AE
100
AcDbEntity
  8
0
  6
Continuous
 62
    60
370
    25
100
AcDbLine
 10
-31.2067733156
 20
63.8819656894
 30
0.0
 11
-31.2067733156
 21
72.8613554417
 31
0.0
  0
LINE
  5
213
330
1AE
100
AcDbEntity
  8
0
  6
Continuous
 62
    60
370
    25
100
AcDbLine
 10
24.8185006839
 20
-30.3660676167
 30
0.0
 11
24.8185006839
 21
-35.6170895888
 31
0.0
  0
LINE
  5
214
330
1AE
100
AcDbEntity
  8
0
  6
Continuous
 62
    60
370
    25
100
AcDbLine
 10
-90.1558551341
 20
0.8814986922
 30
0.0
 11
-90.1558551341
 21
-4.4812740522
 31
0.0
  0
LINE
  5
215
330
1AE
100
AcDbEntity
  8
0
  6
Continuous
 62
    60
370
    25
100
AcDbLine
 10
89.0038764974
 20
19.9055629926
 30
0.0
 11
89.0038764974
 21
15.9391584957
 31
0.0
  0
ARC
  5
216
330
1AE
100
AcDbEntity
  8
0
  6
Continuous
 62
     7
370
    25
100
AcDbCircle
 10
-27.1104672824
 20
57.2958954606
 30
0.0
 40
7.705618827397739
100
AcDbArc
 50
72.6960345908
 51
125.398914916
  0
ARC
  5
217
330
1AE
100
AcDbEntity
  8
0
  6
Continuous
 62
     7
370
    25
100
AcDbCircle
 10
27.1104672824
 20
-23.0092034325
 30
0.0
 40
7.70561882739737
100
AcDbArc
 50
252.6960345908
 51
305.398914916
  0
ARC
  5
218
330
1AE
100
AcDbEntity
  8
0
  6
Continuous
 62
     7
370
    25
100
AcDbCircle
 10
28.6233623162
 20
-32.8682246704
 30
0.0
 40
4.411525961261984
100
AcDbArc
 50
289.9353604106
 51
311.9793612114
  0
ARC
  5
219
330
1AE
100
AcDbEntity
  8
0
  6
Continuous
 62
     7
370
    25
100
AcDbCircle
 10
91.1630990458
 20
24.3283267181
 30
0.0
 40
1.660293115189336
100
AcDbArc
 50
310.6406362012
 51
357.9974645045
  0
VIEWPORT
  5
286
330
1AE
100
AcDbEntity
  8
0
100
AcDbViewport
 10
0.0
 20
0.0
 30
0.0
 40
205.6
 41
156.0
 68
     1
 69
     1
 12
0.0
 22
0.0
 13
0.0
 23
0.0
 14
10.0
 24
10.0
 15
10.0
 25
10.0
 16
0.0
 26
0.0
 36
1.0
 17
0.0
 27
0.0
 37
0.0
 42
50.0
 43
0.0
 44
0.0
 45
1083.5019455253
 50
0.0
 51
0.0
 72
   100
 90
   557152
  1

281
     0
 71
     1
 74
     0
110
0.0
120
0.0
130
0.0
111
1.0
121
0.0
131
0.0
112
0.0
122
1.0
132
0.0
 79
     0
146
0.0
  0
ENDBLK
  5
1B1
330
1AE
100
AcDbEntity
  8
0
100
AcDbBlockEnd
  0
BLOCK
  5
21C
330
21A
100
AcDbEntity
  8
0
100
AcDbBlockBegin
  2
*Paper_Space7
 70
     0
 10
0.0
 20
0.0
 30
0.0
  3
*Paper_Space7
  1

  0
SPLINE
  5
22E
330
21A
100
AcDbEntity
  8
0
  6
Continuous
 62
     7
370
    25
100
AcDbSpline
210
0.0
220
0.0
230
1.0
 70
     8
 71
     3
 72
     8
 73
     4
 74
     0
 42
0.000000001
 43
0.00000001
 40
0.0
 40
0.0
 40
0.0
 40
0.0
 40
1.0
 40
1.0
 40
1.0
 40
1.0
 10
54.86777980312667
 20
-7.842802303971011
 30
0.0
 10
52.38928728810495
 20
-9.933156026202608
 30
0.0
 10
49.91095165469288
 20
-11.99998346107777
 30
0.0
 10
47.43275997323844
 20
-14.04522356568402
 30
0.0
  0
SPLINE
  5
231
330
21A
100
AcDbEntity
  8
0
  6
Continuous
 62
     7
370
    25
100
AcDbSpline
210
0.0
220
0.0
230
1.0
 70
     8
 71
     3
 72
     8
 73
     4
 74
     0
 42
0.000000001
 43
0.00000001
 40
0.0
 40
0.0
 40
0.0
 40
0.0
 40
1.0
 40
1.0
 40
1.0
 40
1.0
 10
-102.2335355026243
 20
4.810957257144991
 30
0.0
 10
-99.75534382116987
 20
6.856197361751228
 30
0.0
 10
-97.2770081877578
 20
8.923024796626402
 30
0.0
 10
-94.79851567273609
 20
11.013378518858
 30
0.0
  0
SPLINE
  5
232
330
21A
100
AcDbEntity
  8
0
  6
Continuous
 62
     7
370
    25
100
AcDbSpline
210
0.0
220
0.0
230
1.0
 70
     8
 71
     3
 72
    20
 73
    16
 74
     0
 42
0.000000001
 43
0.00000001
 40
0.0
 40
0.0
 40
0.0
 40
0.0
 40
0.1250000000000012
 40
0.1250000000000012
 40
0.2500000000000024
 40
0.2500000000000024
 40
0.3750000000000037
 40
0.3750000000000037
 40
0.5000000000000049
 40
0.5000000000000049
 40
0.6250000000000061
 40
0.6250000000000061
 40
0.7500000000000073
 40
0.7500000000000073
 40
1.0
 40
1.0
 40
1.0
 40
1.0
 10
-100.7788831120948
 20
3.759029322954893
 30
0.0
 10
-100.9332888694236
 20
3.780385129208277
 30
0.0
 10
-101.0793964892993
 20
3.806090997262951
 30
0.0
 10
-101.3556919496449
 20
3.86585463327184
 30
0.0
 10
-101.487153888917
 20
3.900349828994412
 30
0.0
 10
-101.7259204152315
 20
3.975976153071926
 30
0.0
 10
-101.8330687310706
 20
4.016870681801007
 30
0.0
 10
-102.0231163534891
 20
4.104775598825734
 30
0.0
 10
-102.1061506725144
 20
4.152134194071206
 30
0.0
 10
-102.2403809539904
 20
4.249084789044056
 30
0.0
 10
-102.2927275306327
 20
4.299103316435158
 30
0.0
 10
-102.3671864726498
 20
4.402305926407539
 30
0.0
 10
-102.3884703942978
 20
4.454736722892986
 30
0.0
 10
-102.404175611346
 20
4.610389538524336
 30
0.0
 10
-102.3502372720691
 20
4.714643827908205
 30
0.0
 10
-102.2335355026243
 20
4.810957257144991
 30
0.0
  0
SPLINE
  5
233
330
21A
100
AcDbEntity
  8
0
  6
Continuous
 62
     7
370
    25
100
AcDbSpline
210
0.0
220
0.0
230
1.0
 70
     8
 71
     3
 72
    14
 73
    10
 74
     0
 42
0.000000001
 43
0.00000001
 40
0.0
 40
0.0
 40
0.0
 40
0.0
 40
0.25
 40
0.25
 40
0.5
 40
0.5
 40
0.7500000000000001
 40
0.7500000000000001
 40
1.0
 40
1.0
 40
1.0
 40
1.0
 10
44.21034063014815
 20
-14.50789584916086
 30
0.0
 10
32.12813137359229
 20
-13.13455141449735
 30
0.0
 10
20.04606075807891
 20
-11.77253856168948
 30
0.0
 10
-4.118519926555933
 20
-9.012592747388418
 30
0.0
 10
-16.20096821117839
 20
-7.610554832516915
 30
0.0
 10
-40.36757584246431
 20
-4.565848451814575
 30
0.0
 10
-52.45002319192833
 20
-2.923395689776433
 30
0.0
 10
-76.61460360343553
 20
0.405560459189807
 30
0.0
 10
-88.69667402248172
 20
2.087943212603211
 30
0.0
 10
-100.7788831120948
 20
3.759029322954893
 30
0.0
  0
SPLINE
  5
234
330
21A
100
AcDbEntity
  8
0
  6
Continuous
 62
     7
370
    25
100
AcDbSpline
210
0.0
220
0.0
230
1.0
 70
     8
 71
     3
 72
    20
 73
    16
 74
     0
 42
0.000000001
 43
0.00000001
 40
0.0
 40
0.0
 40
0.0
 40
0.0
 40
0.1249999999999988
 40
0.1249999999999988
 40
0.2499999999999976
 40
0.2499999999999976
 40
0.3749999999999963
 40
0.3749999999999963
 40
0.4999999999999951
 40
0.4999999999999951
 40
0.6249999999999939
 40
0.6249999999999939
 40
0.7499999999999927
 40
0.7499999999999927
 40
1.0
 40
1.0
 40
1.0
 40
1.0
 10
47.43275997323844
 20
-14.04522356568402
 30
0.0
 10
47.37440897138845
 20
-14.09338037696729
 30
0.0
 10
47.30189299140643
 20
-14.13900513224445
 30
0.0
 10
47.12968539208932
 20
-14.22539365969108
 30
0.0
 10
47.02869232097191
 20
-14.26655708362091
 30
0.0
 10
46.80446818298525
 20
-14.34145259790759
 30
0.0
 10
46.68197770466158
 20
-14.37513162510052
 30
0.0
 10
46.41642658975321
 20
-14.43502336064661
 30
0.0
 10
46.27227044228125
 20
-14.46128345655448
 30
0.0
 10
45.97517616067272
 20
-14.50394698598761
 30
0.0
 10
45.82096672064141
 20
-14.52071142922294
 30
0.0
 10
45.50095601381002
 20
-14.544898313773
 30
0.0
 10
45.33744453794138
 20
-14.55205728817195
 30
0.0
 10
44.84948735559481
 20
-14.55859347887918
 30
0.0
 10
44.51915331916683
 20
-14.54299755769872
 30
0.0
 10
44.21034063014815
 20
-14.50789584916086
 30
0.0
  0
SPLINE
  5
235
330
21A
100
AcDbEntity
  8
0
  6
Continuous
 62
     7
370
    25
100
AcDbSpline
210
0.0
220
0.0
230
1.0
 70
     8
 71
     3
 72
    14
 73
    10
 74
     0
 42
0.000000001
 43
0.00000001
 40
0.0
 40
0.0
 40
0.0
 40
0.0
 40
0.2500000000000001
 40
0.2500000000000001
 40
0.5000000000000001
 40
0.5000000000000001
 40
0.75
 40
0.75
 40
1.0
 40
1.0
 40
1.0
 40
1.0
 10
94.798515672736
 20
27.37279662314711
 30
0.0
 10
91.47104055925624
 20
24.35374457192073
 30
0.0
 10
88.14356163457477
 20
21.33629514219042
 30
0.0
 10
81.48851321251571
 20
15.33948236701883
 30
0.0
 10
78.16093700663971
 20
12.36292559242505
 30
0.0
 10
71.50558581629366
 20
6.493455752258955
 30
0.0
 10
68.17797261773364
 20
3.600685855865661
 30
0.0
 10
61.5228114449184
 20
-2.141001800774315
 30
0.0
 10
58.19529300903589
 20
-4.99270729862481
 30
0.0
 10
54.86777980312663
 20
-7.842802303971045
 30
0.0
  0
SPLINE
  5
238
330
21A
100
AcDbEntity
  8
0
  6
Continuous
 62
     7
370
    25
100
AcDbSpline
210
0.0
220
0.0
230
1.0
 70
     8
 71
     3
 72
    14
 73
    10
 74
     0
 42
0.000000001
 43
0.00000001
 40
0.0
 40
0.0
 40
0.0
 40
0.0
 40
0.25
 40
0.25
 40
0.5
 40
0.5
 40
0.75
 40
0.75
 40
1.0
 40
1.0
 40
1.0
 40
1.0
 10
-94.79851567273609
 20
11.013378518858
 30
0.0
 10
-91.47104055925628
 20
13.86344089712316
 30
0.0
 10
-88.14356163457477
 20
16.71511261921246
 30
0.0
 10
-81.4885132125157
 20
22.45670190289954
 30
0.0
 10
-78.1609370066398
 20
25.34943786618506
 30
0.0
 10
-71.50558581629373
 20
31.2189041179392
 30
0.0
 10
-68.17797261773362
 20
34.19549221206439
 30
0.0
 10
-61.52281144491836
 20
40.19240548792377
 30
0.0
 10
-58.19529300903596
 20
43.20989083310061
 30
0.0
 10
-54.86777980312671
 20
46.22897744597616
 30
0.0
  0
SPLINE
  5
239
330
21A
100
AcDbEntity
  8
0
  6
Continuous
 62
     7
370
    25
100
AcDbSpline
210
0.0
220
0.0
230
1.0
 70
     8
 71
     3
 72
     8
 73
     4
 74
     0
 42
0.000000001
 43
0.00000001
 40
0.0
 40
0.0
 40
0.0
 40
0.0
 40
1.0
 40
1.0
 40
1.0
 40
1.0
 10
102.2335355026242
 20
34.28451767023073
 30
0.0
 10
99.75534382116977
 20
31.95863851454603
 30
0.0
 10
97.27700818775767
 20
29.65409278174314
 30
0.0
 10
94.79851567273596
 20
27.37279662314708
 30
0.0
  0
SPLINE
  5
23A
330
21A
100
AcDbEntity
  8
0
  6
Continuous
 62
     7
370
    25
100
AcDbSpline
210
0.0
220
0.0
230
1.0
 70
     8
 71
     3
 72
    20
 73
    16
 74
     0
 42
0.000000001
 43
0.00000001
 40
0.0
 40
0.0
 40
0.0
 40
0.0
 40
0.1249999999999995
 40
0.1249999999999995
 40
0.2499999999999989
 40
0.2499999999999989
 40
0.3749999999999984
 40
0.3749999999999984
 40
0.4999999999999979
 40
0.4999999999999979
 40
0.6249999999999973
 40
0.6249999999999973
 40
0.7499999999999969
 40
0.7499999999999969
 40
1.0
 40
1.0
 40
1.0
 40
1.0
 10
100.7788831120947
 20
35.38086929758983
 30
0.0
 10
100.9332888694236
 20
35.36331851006374
 30
0.0
 10
101.0793964892992
 20
35.34067177556443
 30
0.0
 10
101.3556919496449
 20
35.28560833825358
 30
0.0
 10
101.4871538889169
 20
35.25276017359581
 30
0.0
 10
101.7259204152313
 20
35.1788807974424
 30
0.0
 10
101.8330687310704
 20
35.13810314003972
 30
0.0
 10
102.0231163534889
 20
35.04894993215359
 30
0.0
 10
102.1061506725143
 20
35.00019834486738
 30
0.0
 10
102.2403809539903
 20
34.89908173943029
 30
0.0
 10
102.2927275306326
 20
34.84629253144029
 30
0.0
 10
102.3671864726497
 20
34.73615322101148
 30
0.0
 10
102.3884703942977
 20
34.67959676378451
 30
0.0
 10
102.4041756113459
 20
34.50997996142724
 30
0.0
 10
102.350237272069
 20
34.39404681400698
 30
0.0
 10
102.2335355026242
 20
34.28451767023073
 30
0.0
  0
SPLINE
  5
23B
330
21A
100
AcDbEntity
  8
0
  6
Continuous
 62
     7
370
    25
100
AcDbSpline
210
0.0
220
0.0
230
1.0
 70
     8
 71
     3
 72
    14
 73
    10
 74
     0
 42
0.000000001
 43
0.00000001
 40
0.0
 40
0.0
 40
0.0
 40
0.0
 40
0.2499999999999999
 40
0.2499999999999999
 40
0.4999999999999999
 40
0.4999999999999999
 40
0.7499999999999999
 40
0.7499999999999999
 40
1.0
 40
1.0
 40
1.0
 40
1.0
 10
-44.21034063014824
 20
53.64779446970558
 30
0.0
 10
-32.12813137359241
 20
51.97670833626411
 30
0.0
 10
-20.04606075807902
 20
50.29432555522596
 30
0.0
 10
4.118519926555826
 20
46.96536936993419
 30
0.0
 10
16.20096821117831
 20
45.3229164872893
 30
0.0
 10
40.36757584246423
 20
42.27821012585053
 30
0.0
 10
52.45002319192822
 20
40.87617232600996
 30
0.0
 10
76.61460360343538
 20
38.11622654420503
 30
0.0
 10
88.69667402248167
 20
36.75421371327752
 30
0.0
 10
100.7788831120947
 20
35.38086929758983
 30
0.0
  0
SPLINE
  5
23C
330
21A
100
AcDbEntity
  8
0
  6
Continuous
 62
     7
370
    25
100
AcDbSpline
210
0.0
220
0.0
230
1.0
 70
     8
 71
     3
 72
    20
 73
    16
 74
     0
 42
0.000000001
 43
0.00000001
 40
0.0
 40
0.0
 40
0.0
 40
0.0
 40
0.1249999999999988
 40
0.1249999999999988
 40
0.2499999999999976
 40
0.2499999999999976
 40
0.3749999999999963
 40
0.3749999999999963
 40
0.4999999999999951
 40
0.4999999999999951
 40
0.6249999999999939
 40
0.6249999999999939
 40
0.7499999999999927
 40
0.7499999999999927
 40
1.0
 40
1.0
 40
1.0
 40
1.0
 10
-47.43275997323853
 20
53.14069849305977
 30
0.0
 10
-47.37440897138851
 20
53.19546317487671
 30
0.0
 10
-47.30189299140653
 20
53.24722990662567
 30
0.0
 10
-47.12968539208946
 20
53.34501493672428
 30
0.0
 10
-47.0286923209718
 20
53.39148222320961
 30
0.0
 10
-46.80446818298525
 20
53.47575748488122
 30
0.0
 10
-46.68197770466158
 20
53.513509617528
 30
0.0
 10
-46.41642658975327
 20
53.58031845011418
 30
0.0
 10
-46.2722704422813
 20
53.60942187697074
 30
0.0
 10
-45.97517616067275
 20
53.65626181651676
 30
0.0
 10
-45.82096672064147
 20
53.67440337186066
 30
0.0
 10
-45.5009560138101
 20
53.69987243689275
 30
0.0
 10
-45.33744453794149
 20
53.70691369489685
 30
0.0
 10
-44.84948735559494
 20
53.71086661990277
 30
0.0
 10
-44.51915331916689
 20
53.6905062446378
 30
0.0
 10
-44.21034063014824
 20
53.64779446970558
 30
0.0
  0
SPLINE
  5
23D
330
21A
100
AcDbEntity
  8
0
  6
Continuous
 62
     7
370
    25
100
AcDbSpline
210
0.0
220
0.0
230
1.0
 70
     8
 71
     3
 72
     8
 73
     4
 74
     0
 42
0.000000001
 43
0.00000001
 40
0.0
 40
0.0
 40
0.0
 40
0.0
 40
1.0
 40
1.0
 40
1.0
 40
1.0
 10
-54.86777980312671
 20
46.22897744597616
 30
0.0
 10
-52.389287288105
 20
48.51027360457221
 30
0.0
 10
-49.91095165469295
 20
50.81481933737507
 30
0.0
 10
-47.43275997323853
 20
53.14069849305977
 30
0.0
  0
SPLINE
  5
23E
330
21A
100
AcDbEntity
  8
0
  6
Continuous
 62
     7
370
    25
100
AcDbSpline
210
0.0
220
0.0
230
1.0
 70
     8
 71
     3
 72
     9
 73
     5
 74
     0
 42
0.000000001
 43
0.00000001
 40
0.0
 40
0.0
 40
0.0
 40
0.0
 40
0.9821406668220729
 40
1.0
 40
1.0
 40
1.0
 40
1.0
 10
72.99943774615517
 20
7.830338032114538
 30
0.0
 10
72.10504483678945
 20
7.652856276688108
 30
0.0
 10
71.1943882072664
 20
7.472147177246464
 30
0.0
 10
70.28377715768163
 20
7.290443351895888
 30
0.0
 10
70.26751425155156
 20
7.287198242739247
 30
0.0
  0
SPLINE
  5
23F
330
21A
100
AcDbEntity
  8
0
  6
Continuous
 62
     7
370
    25
100
AcDbSpline
210
0.0
220
0.0
230
1.0
 70
     8
 71
     3
 72
     9
 73
     5
 74
     0
 42
0.000000001
 43
0.00000001
 40
0.0
 40
0.0
 40
0.0
 40
0.0
 40
0.2759400444847555
 40
1.0
 40
1.0
 40
1.0
 40
1.0
 10
64.64590365466672
 20
0.5542387034843734
 30
0.0
 10
64.62231670575547
 20
0.673520192038585
 30
0.0
 10
64.53683817742044
 20
1.105793401158838
 30
0.0
 10
64.2758136761569
 20
1.529526689424545
 30
0.0
 10
64.08681628738361
 20
1.836334995276546
 30
0.0
  0
LWPOLYLINE
  5
240
330
21A
100
AcDbEntity
  8
0
  6
Continuous
 62
     7
370
    25
100
AcDbPolyline
 90
        3
 70
   128
 43
0.0
 10
61.2218504987
 20
-0.6903273353
 10
62.0212651679
 20
-1.4857108719
 10
62.1903687681
 20
-1.6682544884
  0
LWPOLYLINE
  5
244
330
21A
100
AcDbEntity
  8
0
  6
Continuous
 62
     7
370
    25
100
AcDbPolyline
 90
        9
 70
   128
 43
0.0
 10
88.459974654
 20
30.8739125631
 10
88.7149802561
 20
31.189385422
 10
88.7804488922
 20
31.5153796
 10
88.6538646392
 20
31.8393673238
 10
88.340092059
 20
32.1488979267
 10
87.8511892559
 20
32.4320763213
 10
87.2059444905
 20
32.6780201208
 10
86.4291541572
 20
32.8772778427
 10
85.5506698729
 20
33.0221921246
  0
LWPOLYLINE
  5
248
330
21A
100
AcDbEntity
  8
0
  6
Continuous
 62
     7
370
    25
100
AcDbPolyline
 90
        9
 70
   128
 43
0.0
 10
-88.459974654
 20
6.8384491013
 10
-88.7149802561
 20
6.5229762424
 10
-88.7804488922
 20
6.1969820644
 10
-88.6538646392
 20
5.8729943406
 10
-88.340092059
 20
5.5634637377
 10
-87.8511892559
 20
5.2802853431
 10
-87.2059444905
 20
5.0343415436
 10
-86.4291541572
 20
4.8350838217
 10
-85.5506698729
 20
4.6901695398
  0
LWPOLYLINE
  5
24B
330
21A
100
AcDbEntity
  8
0
  6
Continuous
 62
     7
370
    25
100
AcDbPolyline
 90
        3
 70
   128
 43
0.0
 10
88.459974654
 20
23.3314402302
 10
88.7149802561
 20
23.6469130891
 10
88.7829029204
 20
23.9206958809
  0
LINE
  5
254
330
21A
100
AcDbEntity
  8
0
  6
Continuous
 62
     7
370
    25
100
AcDbLine
 10
-88.7829029204
 20
6.2491934506
 30
0.0
 11
-88.7829029204
 21
2.0983162956
 31
0.0
  0
LINE
  5
255
330
21A
100
AcDbEntity
  8
0
  6
Continuous
 62
     7
370
    25
100
AcDbLine
 10
88.7829029204
 20
23.9206958809
 30
0.0
 11
88.7829029204
 21
31.4631682138
 31
0.0
  0
LINE
  5
256
330
21A
100
AcDbEntity
  8
0
  6
Continuous
 62
     7
370
    25
100
AcDbLine
 10
87.7829029204
 20
21.0672152533
 30
0.0
 11
87.7829029204
 21
22.7343190879
 31
0.0
  0
LINE
  5
257
330
21A
100
AcDbEntity
  8
0
  6
Continuous
 62
     7
370
    25
100
AcDbLine
 10
831.566737963
 20
106.4049164401
 30
0.0
 11
-478.0133474508
 21
271.3964986398
 31
0.0
  0
LINE
  5
258
330
21A
100
AcDbEntity
  8
0
  6
Continuous
 62
     7
370
    25
100
AcDbLine
 10
478.0133474508
 20
-205.3998657271
 30
0.0
 11
831.566737963
 21
106.4049164401
 31
0.0
  0
LINE
  5
259
330
21A
100
AcDbEntity
  8
0
  6
Continuous
 62
     7
370
    25
100
AcDbLine
 10
-831.566737963
 20
-40.4082835274
 30
0.0
 11
478.0133474508
 21
-205.3998657271
 31
0.0
  0
LINE
  5
25A
330
21A
100
AcDbEntity
  8
0
  6
Continuous
 62
     7
370
    25
100
AcDbLine
 10
-478.0133474508
 20
271.3964986398
 30
0.0
 11
-831.566737963
 21
-40.4082835274
 31
0.0
  0
LINE
  5
25B
330
21A
100
AcDbEntity
  8
0
  6
Continuous
 62
     7
370
    25
100
AcDbLine
 10
-466.3761283266
 20
262.8033803936
 30
0.0
 11
-805.7873832183
 21
-36.5292104869
 31
0.0
  0
LINE
  5
25C
330
21A
100
AcDbEntity
  8
0
  6
Continuous
 62
     7
370
    25
100
AcDbLine
 10
-805.7873832183
 20
-36.5292104869
 30
0.0
 11
466.3761283266
 21
-196.8067474809
 31
0.0
  0
LINE
  5
25D
330
21A
100
AcDbEntity
  8
0
  6
Continuous
 62
     7
370
    25
100
AcDbLine
 10
466.3761283266
 20
-196.8067474809
 30
0.0
 11
805.7873832183
 21
102.5258433996
 31
0.0
  0
LINE
  5
25E
330
21A
100
AcDbEntity
  8
0
  6
Continuous
 62
     7
370
    25
100
AcDbLine
 10
805.7873832183
 20
102.5258433996
 30
0.0
 11
-466.3761283266
 21
262.8033803936
 31
0.0
  0
LINE
  5
25F
330
21A
100
AcDbEntity
  8
0
  6
Continuous
 62
     7
370
    25
100
AcDbLine
 10
-831.566737963
 20
-40.4082835274
 30
0.0
 11
-831.566737963
 21
-73.4065999837
 31
0.0
  0
LINE
  5
260
330
21A
100
AcDbEntity
  8
0
  6
Continuous
 62
     7
370
    25
100
AcDbLine
 10
478.0133474508
 20
-205.3998657271
 30
0.0
 11
478.0133474508
 21
-238.3981821835
 31
0.0
  0
LINE
  5
261
330
21A
100
AcDbEntity
  8
0
  6
Continuous
 62
     7
370
    25
100
AcDbLine
 10
-831.566737963
 20
-73.4065999837
 30
0.0
 11
478.0133474508
 21
-238.3981821835
 31
0.0
  0
LINE
  5
262
330
21A
100
AcDbEntity
  8
0
  6
Continuous
 62
     7
370
    25
100
AcDbLine
 10
831.566737963
 20
106.4049164401
 30
0.0
 11
831.566737963
 21
73.4065999837
 31
0.0
  0
LINE
  5
263
330
21A
100
AcDbEntity
  8
0
  6
Continuous
 62
     7
370
    25
100
AcDbLine
 10
478.0133474508
 20
-238.3981821835
 30
0.0
 11
831.566737963
 21
73.4065999837
 31
0.0
  0
LINE
  5
264
330
21A
100
AcDbEntity
  8
0
  6
Continuous
 62
     7
370
    25
100
AcDbLine
 10
466.3761283266
 20
-196.8067474809
 30
0.0
 11
54.8677798031
 21
-7.842802304
 31
0.0
  0
LINE
  5
265
330
21A
100
AcDbEntity
  8
0
  6
Continuous
 62
     7
370
    25
100
AcDbLine
 10
-805.7873832183
 20
-36.5292104869
 30
0.0
 11
-94.7985156727
 21
11.0133785189
 31
0.0
  0
LINE
  5
266
330
21A
100
AcDbEntity
  8
0
  6
Continuous
 62
     7
370
    25
100
AcDbLine
 10
805.7873832183
 20
102.5258433996
 30
0.0
 11
94.7985156727
 21
27.3727966231
 31
0.0
  0
LINE
  5
267
330
21A
100
AcDbEntity
  8
0
  6
Continuous
 62
     7
370
    25
100
AcDbLine
 10
-54.8677798031
 20
46.228977446
 30
0.0
 11
-466.3761283266
 21
262.8033803936
 31
0.0
  0
LINE
  5
268
330
21A
100
AcDbEntity
  8
0
  6
Continuous
 62
     7
370
    25
100
AcDbLine
 10
-42.4980338874
 20
47.3730707831
 30
0.0
 11
-88.459974654
 21
6.8384491013
 31
0.0
  0
LINE
  5
269
330
21A
100
AcDbEntity
  8
0
  6
Continuous
 62
     7
370
    25
100
AcDbLine
 10
85.5506698729
 20
33.0221921246
 30
0.0
 11
-36.0531952012
 21
48.3428390432
 31
0.0
  0
LINE
  5
26A
330
21A
100
AcDbEntity
  8
0
  6
Continuous
 62
     7
370
    25
100
AcDbLine
 10
42.4980338874
 20
-9.6607091187
 30
0.0
 11
88.459974654
 21
30.8739125631
 31
0.0
  0
LINE
  5
26B
330
21A
100
AcDbEntity
  8
0
  6
Continuous
 62
     7
370
    25
100
AcDbLine
 10
-85.5506698729
 20
4.6901695398
 30
0.0
 11
36.0531952012
 21
-10.6304773788
 31
0.0
  0
LINE
  5
26C
330
21A
100
AcDbEntity
  8
0
  6
Continuous
 62
     7
370
    25
100
AcDbLine
 10
88.459974654
 20
30.8739125631
 30
0.0
 11
88.459974654
 21
23.3314402302
 31
0.0
  0
LINE
  5
26D
330
21A
100
AcDbEntity
  8
0
  6
Continuous
 62
     7
370
    25
100
AcDbLine
 10
45.5189195214
 20
-14.5390107426
 30
0.0
 11
88.459974654
 21
23.3314402302
 31
0.0
  0
LINE
  5
26E
330
21A
100
AcDbEntity
  8
0
  6
Continuous
 62
    60
370
    25
100
AcDbLine
 10
-102.2335355026
 20
4.2794773623
 30
0.0
 11
-102.2335355026
 21
4.8109572571
 31
0.0
  0
LINE
  5
26F
330
21A
100
AcDbEntity
  8
0
  6
Continuous
 62
    60
370
    25
100
AcDbLine
 10
-47.4327599732
 20
43.0210514458
 30
0.0
 11
-47.4327599732
 21
53.1406984931
 31
0.0
  0
LINE
  5
270
330
21A
100
AcDbEntity
  8
0
  6
Continuous
 62
    60
370
    25
100
AcDbLine
 10
100.7788831121
 20
32.9322480363
 30
0.0
 11
100.7788831121
 21
35.3808692976
 31
0.0
  0
LINE
  5
271
330
21A
100
AcDbEntity
  8
0
  6
Continuous
 62
    60
370
    25
100
AcDbLine
 10
-44.2103406301
 20
45.8629581798
 30
0.0
 11
-44.2103406301
 21
53.6477944697
 31
0.0
  0
LINE
  5
272
330
21A
100
AcDbEntity
  8
0
  6
Continuous
 62
    60
370
    25
100
AcDbLine
 10
36.0531952012
 20
-10.6304773788
 30
0.0
 11
36.0531952012
 21
-13.5817579963
 31
0.0
  0
LINE
  5
273
330
21A
100
AcDbEntity
  8
0
  6
Continuous
 62
    60
370
    25
100
AcDbLine
 10
42.4980338874
 20
-9.6607091187
 30
0.0
 11
42.4980338874
 21
-14.3134856717
 31
0.0
  0
LINE
  5
274
330
21A
100
AcDbEntity
  8
0
  6
Continuous
 62
    60
370
    25
100
AcDbLine
 10
-85.5506698729
 20
4.6901695398
 30
0.0
 11
-85.5506698729
 21
1.6508487737
 31
0.0
  0
LINE
  5
275
330
21A
100
AcDbEntity
  8
0
  6
Continuous
 62
    60
370
    25
100
AcDbLine
 10
85.4286542317
 20
20.658066903
 30
0.0
 11
85.4286542317
 21
18.951233771
 31
0.0
  0
ARC
  5
276
330
21A
100
AcDbEntity
  8
0
  6
Continuous
 62
     7
370
    25
100
AcDbCircle
 10
-37.8934071433
 20
38.6721482657
 30
0.0
 40
9.844218613224262
100
AcDbArc
 50
79.2261330329
 51
117.8883001309
  0
ARC
  5
277
330
21A
100
AcDbEntity
  8
0
  6
Continuous
 62
     7
370
    25
100
AcDbCircle
 10
37.8934071433
 20
-0.9597866013
 30
0.0
 40
9.844218613223724
100
AcDbArc
 50
259.2261330329
 51
297.8883001309
  0
VIEWPORT
  5
288
330
21A
100
AcDbEntity
  8
0
100
AcDbViewport
 10
0.0
 20
0.0
 30
0.0
 40
205.6
 41
156.0
 68
     1
 69
     1
 12
0.0
 22
0.0
 13
0.0
 23
0.0
 14
10.0
 24
10.0
 15
10.0
 25
10.0
 16
0.0
 26
0.0
 36
1.0
 17
0.0
 27
0.0
 37
0.0
 42
50.0
 43
0.0
 44
0.0
 45
1083.5019455253
 50
0.0
 51
0.0
 72
   100
 90
   557152
  1

281
     0
 71
     1
 74
     0
110
0.0
120
0.0
130
0.0
111
1.0
121
0.0
131
0.0
112
0.0
122
1.0
132
0.0
 79
     0
146
0.0
  0
ENDBLK
  5
21D
330
21A
100
AcDbEntity
  8
0
100
AcDbBlockEnd
  0
ENDSEC
  0
SECTION
  2
ENTITIES
  0
SPLINE
  5
73
330
1F
100
AcDbEntity
  8
0
  6
Continuous
 62
     7
370
    25
100
AcDbSpline
210
0.0
220
0.0
230
1.0
 70
    24
 71
     3
 72
     8
 73
     4
 74
     0
 42
0.000000001
 43
0.00000001
 40
0.0
 40
0.0
 40
0.0
 40
0.0
 40
1.0
 40
1.0
 40
1.0
 40
1.0
 10
79.99999999999918
 20
-56.47058823529416
 30
0.0
 10
79.99999999999918
 20
-63.48082369487021
 30
0.0
 10
79.99999999999918
 20
-70.49061542624602
 30
0.0
 10
79.99999999999918
 20
-77.50000000000013
 30
0.0
  0
SPLINE
  5
77
330
1F
100
AcDbEntity
  8
0
  6
Continuous
 62
     7
370
    25
100
AcDbSpline
210
0.0
220
0.0
230
1.0
 70
    24
 71
     3
 72
     8
 73
     4
 74
     0
 42
0.000000001
 43
0.00000001
 40
0.0
 40
0.0
 40
0.0
 40
0.0
 40
1.0
 40
1.0
 40
1.0
 40
1.0
 10
-80.00000000000097
 20
-77.50000000000024
 30
0.0
 10
-80.00000000000097
 20
-70.49061542624612
 30
0.0
 10
-80.00000000000097
 20
-63.4808236948703
 30
0.0
 10
-80.00000000000097
 20
-56.47058823529427
 30
0.0
  0
SPLINE
  5
78
330
1F
100
AcDbEntity
  8
0
  6
Continuous
 62
     7
370
    25
100
AcDbSpline
210
0.0
220
0.0
230
1.0
 70
     8
 71
     3
 72
    20
 73
    16
 74
     0
 42
0.000000001
 43
0.00000001
 40
0.0
 40
0.0
 40
0.0
 40
0.0
 40
0.1250000000000012
 40
0.1250000000000012
 40
0.2500000000000024
 40
0.2500000000000024
 40
0.3750000000000037
 40
0.3750000000000037
 40
0.5000000000000049
 40
0.5000000000000049
 40
0.6250000000000061
 40
0.6250000000000061
 40
0.7500000000000073
 40
0.7500000000000073
 40
1.0
 40
1.0
 40
1.0
 40
1.0
 10
-77.50000000000145
 20
-80.00000000000013
 30
0.0
 10
-77.66506669784461
 20
-80.00000000000013
 30
0.0
 10
-77.82738070150769
 20
-79.98381226717504
 30
0.0
 10
-78.14672769070637
 20
-79.92038112626157
 30
0.0
 10
-78.30541328484456
 20
-79.87236902240745
 30
0.0
 10
-78.6080462899218
 20
-79.74701107190731
 30
0.0
 10
-78.75158757927144
 20
-79.67029772027865
 30
0.0
 10
-79.02326010243482
 20
-79.48905563611588
 30
0.0
 10
-79.15190171707894
 20
-79.38355843569441
 30
0.0
 10
-79.3825036435427
 20
-79.15310365543516
 30
0.0
 10
-79.485991417471
 20
-79.02735921910987
 30
0.0
 10
-79.66878301904693
 20
-78.75433979079136
 30
0.0
 10
-79.74649152433385
 20
-78.60894243231789
 30
0.0
 10
-79.93368267412588
 20
-78.15810226411544
 30
0.0
 10
-80.00000000000097
 20
-77.83008245027943
 30
0.0
 10
-80.00000000000097
 20
-77.50000000000024
 30
0.0
  0
SPLINE
  5
79
330
1F
100
AcDbEntity
  8
0
  6
Continuous
 62
     7
370
    25
100
AcDbSpline
210
0.0
220
0.0
230
1.0
 70
    24
 71
     3
 72
    14
 73
    10
 74
     0
 42
0.000000001
 43
0.00000001
 40
0.0
 40
0.0
 40
0.0
 40
0.0
 40
0.25
 40
0.25
 40
0.5
 40
0.5
 40
0.7500000000000001
 40
0.7500000000000001
 40
1.0
 40
1.0
 40
1.0
 40
1.0
 10
77.49999999999969
 20
-80.00000000000013
 30
0.0
 10
64.58357499661135
 20
-80.00000000000013
 30
0.0
 10
51.6672982067318
 20
-80.00000000000014
 30
0.0
 10
25.83427483130444
 20
-80.00000000000011
 30
0.0
 10
12.91759429616439
 20
-80.00000000000013
 30
0.0
 10
-12.91759597637991
 20
-80.00000000000013
 30
0.0
 10
-25.83427551179355
 20
-80.00000000000013
 30
0.0
 10
-51.66729859523516
 20
-80.00000000000011
 30
0.0
 10
-64.58357517508247
 20
-80.0000000000001
 30
0.0
 10
-77.50000000000146
 20
-80.00000000000013
 30
0.0
  0
SPLINE
  5
7A
330
1F
100
AcDbEntity
  8
0
  6
Continuous
 62
     7
370
    25
100
AcDbSpline
210
0.0
220
0.0
230
1.0
 70
     8
 71
     3
 72
    20
 73
    16
 74
     0
 42
0.000000001
 43
0.00000001
 40
0.0
 40
0.0
 40
0.0
 40
0.0
 40
0.1249999999999988
 40
0.1249999999999988
 40
0.2499999999999976
 40
0.2499999999999976
 40
0.3749999999999963
 40
0.3749999999999963
 40
0.4999999999999951
 40
0.4999999999999951
 40
0.6249999999999939
 40
0.6249999999999939
 40
0.7499999999999927
 40
0.7499999999999927
 40
1.0
 40
1.0
 40
1.0
 40
1.0
 10
79.99999999999918
 20
-77.50000000000013
 30
0.0
 10
79.99999999999919
 20
-77.66504155642667
 30
0.0
 10
79.98381714763721
 20
-77.82733191836772
 30
0.0
 10
79.92040446721354
 20
-78.14663438106234
 30
0.0
 10
79.87240730175198
 20
-78.30529735940718
 30
0.0
 10
79.74707787748328
 20
-78.60790850479616
 30
0.0
 10
79.67038061985555
 20
-78.7514420263126
 30
0.0
 10
79.48917342036214
 20
-79.0231048171386
 30
0.0
 10
79.38368863363146
 20
-79.1517534620775
 30
0.0
 10
79.1532487626767
 20
-79.38237639611887
 30
0.0
 10
79.02751074129587
 20
-79.4858750242892
 30
0.0
 10
78.75450217902754
 20
-79.66868922616528
 30
0.0
 10
78.60908200911598
 20
-79.74642391452592
 30
0.0
 10
78.15820255379903
 20
-79.9336603347566
 30
0.0
 10
77.83013465113065
 20
-80.00000000000013
 30
0.0
 10
77.49999999999969
 20
-80.00000000000013
 30
0.0
  0
SPLINE
  5
7C
330
1F
100
AcDbEntity
  8
0
  6
Continuous
 62
     7
370
    25
100
AcDbSpline
210
0.0
220
0.0
230
1.0
 70
     8
 71
     3
 72
    14
 73
    10
 74
     0
 42
0.000000001
 43
0.00000001
 40
0.0
 40
0.0
 40
0.0
 40
0.0
 40
0.2500000000000001
 40
0.2500000000000001
 40
0.5000000000000001
 40
0.5000000000000001
 40
0.75
 40
0.75
 40
1.0
 40
1.0
 40
1.0
 40
1.0
 10
79.99999999999918
 20
56.47058823529405
 30
0.0
 10
79.9999999999992
 20
47.05906736525085
 30
0.0
 10
79.99999999999922
 20
37.64753571550133
 30
0.0
 10
79.99999999999922
 20
18.82421623773198
 30
0.0
 10
79.99999999902403
 20
9.412409437793313
 30
0.0
 10
79.99999999902403
 20
-9.411766398011757
 30
0.0
 10
79.99999999999923
 20
-18.82367783422164
 30
0.0
 10
79.99999999999923
 20
-37.64731621928823
 30
0.0
 10
79.99999999999918
 20
-47.05895962359029
 30
0.0
 10
79.99999999999918
 20
-56.47058823529427
 30
0.0
  0
SPLINE
  5
7F
330
1F
100
AcDbEntity
  8
0
  6
Continuous
 62
     7
370
    25
100
AcDbSpline
210
0.0
220
0.0
230
1.0
 70
    24
 71
     3
 72
     8
 73
     4
 74
     0
 42
0.000000001
 43
0.00000001
 40
0.0
 40
0.0
 40
0.0
 40
0.0
 40
1.0
 40
1.0
 40
1.0
 40
1.0
 10
79.99999999999918
 20
77.4999999999999
 30
0.0
 10
79.99999999999918
 20
70.49061542624582
 30
0.0
 10
79.99999999999918
 20
63.48082369486995
 30
0.0
 10
79.99999999999918
 20
56.47058823529394
 30
0.0
  0
SPLINE
  5
80
330
1F
100
AcDbEntity
  8
0
  6
Continuous
 62
     7
370
    25
100
AcDbSpline
210
0.0
220
0.0
230
1.0
 70
     8
 71
     3
 72
    20
 73
    16
 74
     0
 42
0.000000001
 43
0.00000001
 40
0.0
 40
0.0
 40
0.0
 40
0.0
 40
0.1249999999999995
 40
0.1249999999999995
 40
0.2499999999999989
 40
0.2499999999999989
 40
0.3749999999999984
 40
0.3749999999999984
 40
0.4999999999999979
 40
0.4999999999999979
 40
0.6249999999999973
 40
0.6249999999999973
 40
0.7499999999999969
 40
0.7499999999999969
 40
1.0
 40
1.0
 40
1.0
 40
1.0
 10
77.49999999999969
 20
79.99999999999984
 30
0.0
 10
77.66506669784283
 20
79.99999999999987
 30
0.0
 10
77.82738070150594
 20
79.98381226717473
 30
0.0
 10
78.14672769070465
 20
79.92038112626129
 30
0.0
 10
78.30541328484277
 20
79.8723690224071
 30
0.0
 10
78.60804628991998
 20
79.74701107190694
 30
0.0
 10
78.7515875792696
 20
79.67029772027827
 30
0.0
 10
79.02326010243296
 20
79.48905563611544
 30
0.0
 10
79.15190171707715
 20
79.38355843569407
 30
0.0
 10
79.3825036435409
 20
79.15310365543473
 30
0.0
 10
79.4859914174693
 20
79.0273592191094
 30
0.0
 10
79.66878301904528
 20
78.75433979079081
 30
0.0
 10
79.74649152433206
 20
78.60894243231763
 30
0.0
 10
79.93368267412413
 20
78.15810226411504
 30
0.0
 10
79.99999999999919
 20
77.83008245027912
 30
0.0
 10
79.99999999999918
 20
77.4999999999999
 30
0.0
  0
SPLINE
  5
81
330
1F
100
AcDbEntity
  8
0
  6
Continuous
 62
     7
370
    25
100
AcDbSpline
210
0.0
220
0.0
230
1.0
 70
    24
 71
     3
 72
    14
 73
    10
 74
     0
 42
0.000000001
 43
0.00000001
 40
0.0
 40
0.0
 40
0.0
 40
0.0
 40
0.2499999999999999
 40
0.2499999999999999
 40
0.4999999999999999
 40
0.4999999999999999
 40
0.7499999999999999
 40
0.7499999999999999
 40
1.0
 40
1.0
 40
1.0
 40
1.0
 10
-77.50000000000145
 20
79.99999999999984
 30
0.0
 10
-64.58357499661315
 20
79.99999999999986
 30
0.0
 10
-51.66729820673357
 20
79.99999999999983
 30
0.0
 10
-25.83427483130624
 20
79.99999999999987
 30
0.0
 10
-12.91759429616621
 20
80.00000000000003
 30
0.0
 10
12.9175959763781
 20
80.00000000000003
 30
0.0
 10
25.83427551179173
 20
79.9999999999999
 30
0.0
 10
51.66729859523333
 20
79.99999999999987
 30
0.0
 10
64.58357517508074
 20
79.99999999999987
 30
0.0
 10
77.49999999999969
 20
79.99999999999984
 30
0.0
  0
SPLINE
  5
82
330
1F
100
AcDbEntity
  8
0
  6
Continuous
 62
     7
370
    25
100
AcDbSpline
210
0.0
220
0.0
230
1.0
 70
     8
 71
     3
 72
    20
 73
    16
 74
     0
 42
0.000000001
 43
0.00000001
 40
0.0
 40
0.0
 40
0.0
 40
0.0
 40
0.1249999999999988
 40
0.1249999999999988
 40
0.2499999999999976
 40
0.2499999999999976
 40
0.3749999999999963
 40
0.3749999999999963
 40
0.4999999999999951
 40
0.4999999999999951
 40
0.6249999999999939
 40
0.6249999999999939
 40
0.7499999999999927
 40
0.7499999999999927
 40
1.0
 40
1.0
 40
1.0
 40
1.0
 10
-80.00000000000097
 20
77.4999999999999
 30
0.0
 10
-80.00000000000097
 20
77.66504155642644
 30
0.0
 10
-79.98381714763899
 20
77.82733191836743
 30
0.0
 10
-79.9204044672153
 20
78.14663438106193
 30
0.0
 10
-79.87240730175363
 20
78.30529735940715
 30
0.0
 10
-79.74707787748498
 20
78.60790850479594
 30
0.0
 10
-79.67038061985724
 20
78.7514420263124
 30
0.0
 10
-79.48917342036388
 20
79.02310481713835
 30
0.0
 10
-79.3836886336332
 20
79.15175346207727
 30
0.0
 10
-79.15324876267842
 20
79.38237639611866
 30
0.0
 10
-79.02751074129759
 20
79.48587502428887
 30
0.0
 10
-78.75450217902927
 20
79.66868922616491
 30
0.0
 10
-78.60908200911778
 20
79.74642391452568
 30
0.0
 10
-78.15820255380083
 20
79.93366033475634
 30
0.0
 10
-77.83013465113241
 20
79.99999999999987
 30
0.0
 10
-77.50000000000145
 20
79.99999999999984
 30
0.0
  0
SPLINE
  5
83
330
1F
100
AcDbEntity
  8
0
  6
Continuous
 62
     7
370
    25
100
AcDbSpline
210
0.0
220
0.0
230
1.0
 70
    24
 71
     3
 72
     8
 73
     4
 74
     0
 42
0.000000001
 43
0.00000001
 40
0.0
 40
0.0
 40
0.0
 40
0.0
 40
1.0
 40
1.0
 40
1.0
 40
1.0
 10
-80.00000000000097
 20
56.47058823529405
 30
0.0
 10
-80.00000000000097
 20
63.48082369487004
 30
0.0
 10
-80.00000000000097
 20
70.49061542624584
 30
0.0
 10
-80.00000000000097
 20
77.4999999999999
 30
0.0
  0
SPLINE
  5
8A
330
1F
100
AcDbEntity
  8
0
  6
Continuous
 62
     7
370
    25
100
AcDbSpline
210
0.0
220
0.0
230
1.0
 70
     8
 71
     3
 72
    14
 73
    10
 74
     0
 42
0.000000001
 43
0.00000001
 40
0.0
 40
0.0
 40
0.0
 40
0.0
 40
0.25
 40
0.25
 40
0.5
 40
0.5
 40
0.75
 40
0.75
 40
1.0
 40
1.0
 40
1.0
 40
1.0
 10
-80.00000000000097
 20
-56.47058823529427
 30
0.0
 10
-80.00000000000097
 20
-47.05906736525105
 30
0.0
 10
-80.00000000000094
 20
-37.64753571550153
 30
0.0
 10
-80.00000000000092
 20
-18.82421623773216
 30
0.0
 10
-79.99999999902582
 20
-9.41240943779351
 30
0.0
 10
-79.99999999902583
 20
9.411766398011588
 30
0.0
 10
-80.00000000000092
 20
18.82367783422145
 30
0.0
 10
-80.00000000000092
 20
37.64731621928805
 30
0.0
 10
-80.00000000000097
 20
47.05895962359006
 30
0.0
 10
-80.00000000000097
 20
56.47058823529405
 30
0.0
  0
LINE
  5
97
330
1F
100
AcDbEntity
  8
0
  6
Continuous
 62
     7
370
    25
100
AcDbLine
 10
680.0
 20
-480.0
 30
0.0
 11
80.0
 21
-56.4705882353
 31
0.0
  0
LINE
  5
98
330
1F
100
AcDbEntity
  8
0
  6
Continuous
 62
     7
370
    25
100
AcDbLine
 10
-680.0
 20
-480.0
 30
0.0
 11
680.0
 21
-480.0
 31
0.0
  0
LINE
  5
99
330
1F
100
AcDbEntity
  8
0
  6
Continuous
 62
     7
370
    25
100
AcDbLine
 10
-680.0
 20
-480.0
 30
0.0
 11
-80.0
 21
-56.4705882353
 31
0.0
  0
LINE
  5
9A
330
1F
100
AcDbEntity
  8
0
  6
Continuous
 62
     7
370
    25
100
AcDbLine
 10
680.0
 20
-480.0
 30
0.0
 11
680.0
 21
480.0
 31
0.0
  0
LINE
  5
9B
330
1F
100
AcDbEntity
  8
0
  6
Continuous
 62
     7
370
    25
100
AcDbLine
 10
680.0
 20
480.0
 30
0.0
 11
80.0
 21
56.4705882353
 31
0.0
  0
LINE
  5
9C
330
1F
100
AcDbEntity
  8
0
  6
Continuous
 62
     7
370
    25
100
AcDbLine
 10
680.0
 20
480.0
 30
0.0
 11
-680.0
 21
480.0
 31
0.0
  0
LINE
  5
9D
330
1F
100
AcDbEntity
  8
0
  6
Continuous
 62
     7
370
    25
100
AcDbLine
 10
-80.0
 20
56.4705882353
 30
0.0
 11
-680.0
 21
480.0
 31
0.0
  0
LINE
  5
9E
330
1F
100
AcDbEntity
  8
0
  6
Continuous
 62
     7
370
    25
100
AcDbLine
 10
700.0
 20
500.0
 30
0.0
 11
-700.0
 21
500.0
 31
0.0
  0
LINE
  5
9F
330
1F
100
AcDbEntity
  8
0
  6
Continuous
 62
     7
370
    25
100
AcDbLine
 10
700.0
 20
-500.0
 30
0.0
 11
700.0
 21
500.0
 31
0.0
  0
LINE
  5
A0
330
1F
100
AcDbEntity
  8
0
  6
Continuous
 62
     7
370
    25
100
AcDbLine
 10
-700.0
 20
-500.0
 30
0.0
 11
700.0
 21
-500.0
 31
0.0
  0
LINE
  5
A1
330
1F
100
AcDbEntity
  8
0
  6
Continuous
 62
     7
370
    25
100
AcDbLine
 10
-700.0
 20
500.0
 30
0.0
 11
-700.0
 21
-500.0
 31
0.0
  0
LINE
  5
A2
330
1F
100
AcDbEntity
  8
0
  6
Continuous
 62
     7
370
    25
100
AcDbLine
 10
-680.0
 20
480.0
 30
0.0
 11
-680.0
 21
-480.0
 31
0.0
  0
LINE
  5
A3
330
1F
100
AcDbEntity
  8
0
  6
Continuous
 62
     7
370
    25
100
AcDbLine
 10
-79.2456181919
 20
79.2456181919
 30
0.0
 11
-68.5355339059
 21
68.5355339059
 31
0.0
  0
LINE
  5
A4
330
1F
100
AcDbEntity
  8
0
  6
Continuous
 62
     7
370
    25
100
AcDbLine
 10
79.2456073036
 20
79.2456073036
 30
0.0
 11
68.5355339059
 21
68.5355339059
 31
0.0
  0
LINE
  5
A5
330
1F
100
AcDbEntity
  8
0
  6
Continuous
 62
     7
370
    25
100
AcDbLine
 10
79.2456181919
 20
-79.2456181919
 30
0.0
 11
68.5355339059
 21
-68.5355339059
 31
0.0
  0
LINE
  5
A6
330
1F
100
AcDbEntity
  8
0
  6
Continuous
 62
     7
370
    25
100
AcDbLine
 10
-68.5355339059
 20
-68.5355339059
 30
0.0
 11
-79.2456073036
 21
-79.2456073036
 31
0.0
  0
LINE
  5
A7
330
1F
100
AcDbEntity
  8
0
  6
Continuous
 62
     7
370
    25
100
AcDbLine
 10
-70.0
 20
65.0
 30
0.0
 11
-70.0
 21
-65.0
 31
0.0
  0
LINE
  5
A8
330
1F
100
AcDbEntity
  8
0
  6
Continuous
 62
     7
370
    25
100
AcDbLine
 10
65.0
 20
70.0
 30
0.0
 11
-65.0
 21
70.0
 31
0.0
  0
LINE
  5
A9
330
1F
100
AcDbEntity
  8
0
  6
Continuous
 62
     7
370
    25
100
AcDbLine
 10
70.0
 20
-65.0
 30
0.0
 11
70.0
 21
65.0
 31
0.0
  0
LINE
  5
AA
330
1F
100
AcDbEntity
  8
0
  6
Continuous
 62
     7
370
    25
100
AcDbLine
 10
-65.0
 20
-70.0
 30
0.0
 11
65.0
 21
-70.0
 31
0.0
  0
ARC
  5
AB
330
1F
100
AcDbEntity
  8
0
  6
Continuous
 62
     7
370
    25
100
AcDbCircle
 10
-65.0
 20
65.0
 30
0.0
 40
5.000000000001648
100
AcDbArc
 50
90.0
 51
180.0
  0
ARC
  5
AC
330
1F
100
AcDbEntity
  8
0
  6
Continuous
 62
     7
370
    25
100
AcDbCircle
 10
65.0
 20
-65.0
 30
0.0
 40
5.000000000001549
100
AcDbArc
 50
270.0
 51
360.0
  0
ARC
  5
AD
330
1F
100
AcDbEntity
  8
0
  6
Continuous
 62
     7
370
    25
100
AcDbCircle
 10
-65.0
 20
-65.0
 30
0.0
 40
4.999999999998977
100
AcDbArc
 50
180.0
 51
270.0
  0
ARC
  5
AE
330
1F
100
AcDbEntity
  8
0
  6
Continuous
 62
     7
370
    25
100
AcDbCircle
 10
65.0
 20
65.0
 30
0.0
 40
4.999999999999275
100
AcDbArc
 50
360.0
 51
90.0
  0
LINE
  5
B6
330
1B
100
AcDbEntity
 67
     1
  8
0
  6
Continuous
 62
     7
370
    25
100
AcDbLine
 10
-700.0
 20
35.0
 30
0.0
 11
700.0
 21
35.0
 31
0.0
  0
LINE
  5
B7
330
1B
100
AcDbEntity
 67
     1
  8
0
  6
Continuous
 62
     7
370
    25
100
AcDbLine
 10
700.0
 20
35.0
 30
0.0
 11
700.0
 21
0.0
 31
0.0
  0
LINE
  5
B8
330
1B
100
AcDbEntity
 67
     1
  8
0
  6
Continuous
 62
     7
370
    25
100
AcDbLine
 10
-700.0
 20
0.0
 30
0.0
 11
700.0
 21
0.0
 31
0.0
  0
LINE
  5
B9
330
1B
100
AcDbEntity
 67
     1
  8
0
  6
Continuous
 62
     7
370
    25
100
AcDbLine
 10
-700.0
 20
35.0
 30
0.0
 11
-700.0
 21
0.0
 31
0.0
  0
LINE
  5
BA
330
1B
100
AcDbEntity
 67
     1
  8
0
  6
Continuous
 62
     7
370
    25
100
AcDbLine
 10
130.0
 20
-26.0
 30
0.0
 11
-130.0
 21
-26.0
 31
0.0
  0
LINE
  5
BB
330
1B
100
AcDbEntity
 67
     1
  8
0
  6
Continuous
 62
     7
370
    25
100
AcDbLine
 10
130.0
 20
-26.0
 30
0.0
 11
130.0
 21
0.0
 31
0.0
  0
LINE
  5
BC
330
1B
100
AcDbEntity
 67
     1
  8
0
  6
Continuous
 62
     7
370
    25
100
AcDbLine
 10
-130.0
 20
-26.0
 30
0.0
 11
-130.0
 21
0.0
 31
0.0
  0
VIEWPORT
  5
278
330
1B
100
AcDbEntity
 67
     1
  8
0
100
AcDbViewport
 10
0.0
 20
0.0
 30
0.0
 40
205.6
 41
156.0
 68
     1
 69
     1
 12
0.0
 22
0.0
 13
0.0
 23
0.0
 14
10.0
 24
10.0
 15
10.0
 25
10.0
 16
0.0
 26
0.0
 36
1.0
 17
0.0
 27
0.0
 37
0.0
 42
50.0
 43
0.0
 44
0.0
 45
1083.5019455253
 50
0.0
 51
0.0
 72
   100
 90
   557152
  1

281
     0
 71
     1
 74
     0
110
0.0
120
0.0
130
0.0
111
1.0
121
0.0
131
0.0
112
0.0
122
1.0
132
0.0
 79
     0
146
0.0
  0
ENDSEC
  0
SECTION
  2
OBJECTS
  0
DICTIONARY
  5
C
330
0
100
AcDbDictionary
281
     1
  3
ACAD_GROUP
350
D
  3
ACAD_LAYOUT
350
1A
  3
ACAD_MLINESTYLE
350
17
  3
ACAD_PLOTSETTINGS
350
19
  3
ACAD_PLOTSTYLENAME
350
E
  3
ACAD_SCALELIST
350
47
  0
DICTIONARY
  5
D
102
{ACAD_REACTORS
330
C
102
}
330
C
100
AcDbDictionary
281
     1
  0
DICTIONARY
  5
1A
102
{ACAD_REACTORS
330
C
102
}
330
C
100
AcDbDictionary
281
     1
  3
_Dimetrisch
350
21B
  3
_Isometrisch
350
12F
  3
_Links
350
F0
  3
_Normal auf
350
CC
  3
_Rechts
350
26
  3
_Rückseite
350
DE
  3
_Trimetrisch
350
1AF
  3
_Unten
350
102
  3
_Vorderseite
350
1E
  3
Model
350
22
  0
DICTIONARY
  5
17
102
{ACAD_REACTORS
330
C
102
}
330
C
100
AcDbDictionary
281
     1
  3
Standard
350
18
  0
DICTIONARY
  5
19
102
{ACAD_REACTORS
330
C
102
}
330
C
100
AcDbDictionary
281
     1
  0
ACDBDICTIONARYWDFLT
  5
E
102
{ACAD_REACTORS
330
C
102
}
330
C
100
AcDbDictionary
281
     1
  3
Normal
350
F
100
AcDbDictionaryWithDefault
340
F
  0
DICTIONARY
  5
47
102
{ACAD_REACTORS
330
C
102
}
330
C
100
AcDbDictionary
281
     1
  3
A0
350
48
  3
A1
350
49
  3
A2
350
4A
  3
A3
350
4B
  3
A4
350
4C
  3
A5
350
4D
  3
A6
350
4E
  3
A7
350
4F
  3
A8
350
50
  3
A9
350
51
  3
B0
350
52
  3
B1
350
53
  3
B2
350
54
  3
B3
350
55
  3
B4
350
56
  3
B5
350
57
  3
B6
350
58
  3
B7
350
59
  3
B8
350
5A
  3
B9
350
5B
  3
C0
350
5C
  3
C1
350
5D
  3
C2
350
5E
  3
C3
350
5F
  3
C4
350
60
  3
C5
350
61
  3
C6
350
62
  3
C7
350
63
  3
C8
350
64
  3
C9
350
65
  3
D0
350
66
  3
D1
350
67
  3
D2
350
68
  0
LAYOUT
  5
21B
102
{ACAD_REACTORS
330
1A
102
}
330
1A
100
AcDbPlotSettings
  1

  2
none_device
  4
ISO_A4_(210.00_x_297.00_MM)
  6

 40
7.5
 41
20.0
 42
7.5
 43
20.0
 44
210.0
 45
297.0
 46
0.0
 47
0.0
 48
0.0
 49
0.0
140
0.0
141
0.0
142
1.0
143
5.4474708171
 70
   688
 72
     1
 73
     1
 74
     1
  7

 75
     0
147
0.1835714286
148
700.0
149
26.0
100
AcDbLayout
  1
_Dimetrisch
 70
     1
 71
     9
 10
0.0
 20
0.0
 11
0.0
 21
0.0
 12
0.0
 22
0.0
 32
0.0
 14
0.0
 24
0.0
 34
0.0
 15
0.0
 25
0.0
 35
0.0
146
0.0
 13
0.0
 23
0.0
 33
0.0
 16
1.0
 26
0.0
 36
0.0
 17
0.0
 27
1.0
 37
0.0
 76
     0
330
21A
331
288
  0
LAYOUT
  5
12F
102
{ACAD_REACTORS
330
1A
102
}
330
1A
100
AcDbPlotSettings
  1

  2
none_device
  4
ISO_A4_(210.00_x_297.00_MM)
  6

 40
7.5
 41
20.0
 42
7.5
 43
20.0
 44
210.0
 45
297.0
 46
0.0
 47
0.0
 48
0.0
 49
0.0
140
0.0
141
0.0
142
1.0
143
5.4474708171
 70
   688
 72
     1
 73
     1
 74
     1
  7

 75
     0
147
0.1835714286
148
700.0
149
26.0
100
AcDbLayout
  1
_Isometrisch
 70
     1
 71
     7
 10
0.0
 20
0.0
 11
0.0
 21
0.0
 12
0.0
 22
0.0
 32
0.0
 14
0.0
 24
0.0
 34
0.0
 15
0.0
 25
0.0
 35
0.0
146
0.0
 13
0.0
 23
0.0
 33
0.0
 16
1.0
 26
0.0
 36
0.0
 17
0.0
 27
1.0
 37
0.0
 76
     0
330
12E
331
284
  0
LAYOUT
  5
F0
102
{ACAD_REACTORS
330
1A
102
}
330
1A
100
AcDbPlotSettings
  1

  2
none_device
  4
ISO_A4_(210.00_x_297.00_MM)
  6

 40
7.5
 41
20.0
 42
7.5
 43
20.0
 44
210.0
 45
297.0
 46
0.0
 47
0.0
 48
0.0
 49
0.0
140
0.0
141
0.0
142
1.0
143
5.4474708171
 70
   688
 72
     1
 73
     1
 74
     1
  7

 75
     0
147
0.1835714286
148
700.0
149
26.0
100
AcDbLayout
  1
_Links
 70
     1
 71
     5
 10
0.0
 20
0.0
 11
0.0
 21
0.0
 12
0.0
 22
0.0
 32
0.0
 14
0.0
 24
0.0
 34
0.0
 15
0.0
 25
0.0
 35
0.0
146
0.0
 13
0.0
 23
0.0
 33
0.0
 16
1.0
 26
0.0
 36
0.0
 17
0.0
 27
1.0
 37
0.0
 76
     0
330
EF
331
280
  0
LAYOUT
  5
CC
102
{ACAD_REACTORS
330
1A
102
}
330
1A
100
AcDbPlotSettings
  1

  2
none_device
  4
ISO_A4_(210.00_x_297.00_MM)
  6

 40
7.5
 41
20.0
 42
7.5
 43
20.0
 44
210.0
 45
297.0
 46
0.0
 47
0.0
 48
0.0
 49
0.0
140
0.0
141
0.0
142
1.0
143
5.4474708171
 70
   688
 72
     1
 73
     1
 74
     1
  7

 75
     0
147
0.1835714286
148
700.0
149
26.0
100
AcDbLayout
  1
_Normal auf
 70
     1
 71
     3
 10
0.0
 20
0.0
 11
0.0
 21
0.0
 12
0.0
 22
0.0
 32
0.0
 14
0.0
 24
0.0
 34
0.0
 15
0.0
 25
0.0
 35
0.0
146
0.0
 13
0.0
 23
0.0
 33
0.0
 16
1.0
 26
0.0
 36
0.0
 17
0.0
 27
1.0
 37
0.0
 76
     0
330
CB
331
27C
  0
LAYOUT
  5
26
102
{ACAD_REACTORS
330
1A
102
}
330
1A
100
AcDbPlotSettings
  1

  2
none_device
  4
ISO_A4_(210.00_x_297.00_MM)
  6

 40
7.5
 41
20.0
 42
7.5
 43
20.0
 44
210.0
 45
297.0
 46
0.0
 47
0.0
 48
0.0
 49
0.0
140
0.0
141
0.0
142
1.0
143
5.4474708171
 70
   688
 72
     1
 73
     1
 74
     1
  7

 75
     0
147
0.1835714286
148
700.0
149
26.0
100
AcDbLayout
  1
_Rechts
 70
     1
 71
     2
 10
0.0
 20
0.0
 11
0.0
 21
0.0
 12
0.0
 22
0.0
 32
0.0
 14
0.0
 24
0.0
 34
0.0
 15
0.0
 25
0.0
 35
0.0
146
0.0
 13
0.0
 23
0.0
 33
0.0
 16
1.0
 26
0.0
 36
0.0
 17
0.0
 27
1.0
 37
0.0
 76
     0
330
23
331
27A
  0
LAYOUT
  5
DE
102
{ACAD_REACTORS
330
1A
102
}
330
1A
100
AcDbPlotSettings
  1

  2
none_device
  4
ISO_A4_(210.00_x_297.00_MM)
  6

 40
7.5
 41
20.0
 42
7.5
 43
20.0
 44
210.0
 45
297.0
 46
0.0
 47
0.0
 48
0.0
 49
0.0
140
0.0
141
0.0
142
1.0
143
5.4474708171
 70
   688
 72
     1
 73
     1
 74
     1
  7

 75
     0
147
0.1835714286
148
700.0
149
26.0
100
AcDbLayout
  1
_Rückseite
 70
     1
 71
     4
 10
0.0
 20
0.0
 11
0.0
 21
0.0
 12
0.0
 22
0.0
 32
0.0
 14
0.0
 24
0.0
 34
0.0
 15
0.0
 25
0.0
 35
0.0
146
0.0
 13
0.0
 23
0.0
 33
0.0
 16
1.0
 26
0.0
 36
0.0
 17
0.0
 27
1.0
 37
0.0
 76
     0
330
DD
331
27E
  0
LAYOUT
  5
1AF
102
{ACAD_REACTORS
330
1A
102
}
330
1A
100
AcDbPlotSettings
  1

  2
none_device
  4
ISO_A4_(210.00_x_297.00_MM)
  6

 40
7.5
 41
20.0
 42
7.5
 43
20.0
 44
210.0
 45
297.0
 46
0.0
 47
0.0
 48
0.0
 49
0.0
140
0.0
141
0.0
142
1.0
143
5.4474708171
 70
   688
 72
     1
 73
     1
 74
     1
  7

 75
     0
147
0.1835714286
148
700.0
149
26.0
100
AcDbLayout
  1
_Trimetrisch
 70
     1
 71
     8
 10
0.0
 20
0.0
 11
0.0
 21
0.0
 12
0.0
 22
0.0
 32
0.0
 14
0.0
 24
0.0
 34
0.0
 15
0.0
 25
0.0
 35
0.0
146
0.0
 13
0.0
 23
0.0
 33
0.0
 16
1.0
 26
0.0
 36
0.0
 17
0.0
 27
1.0
 37
0.0
 76
     0
330
1AE
331
286
  0
LAYOUT
  5
102
102
{ACAD_REACTORS
330
1A
102
}
330
1A
100
AcDbPlotSettings
  1

  2
none_device
  4
ISO_A4_(210.00_x_297.00_MM)
  6

 40
7.5
 41
20.0
 42
7.5
 43
20.0
 44
210.0
 45
297.0
 46
0.0
 47
0.0
 48
0.0
 49
0.0
140
0.0
141
0.0
142
1.0
143
5.4474708171
 70
   688
 72
     1
 73
     1
 74
     1
  7

 75
     0
147
0.1835714286
148
700.0
149
26.0
100
AcDbLayout
  1
_Unten
 70
     1
 71
     6
 10
0.0
 20
0.0
 11
0.0
 21
0.0
 12
0.0
 22
0.0
 32
0.0
 14
0.0
 24
0.0
 34
0.0
 15
0.0
 25
0.0
 35
0.0
146
0.0
 13
0.0
 23
0.0
 33
0.0
 16
1.0
 26
0.0
 36
0.0
 17
0.0
 27
1.0
 37
0.0
 76
     0
330
101
331
282
  0
LAYOUT
  5
1E
102
{ACAD_REACTORS
330
1A
102
}
330
1A
100
AcDbPlotSettings
  1

  2
none_device
  4
ISO_A4_(210.00_x_297.00_MM)
  6

 40
7.5
 41
20.0
 42
7.5
 43
20.0
 44
210.0
 45
297.0
 46
0.0
 47
0.0
 48
0.0
 49
0.0
140
0.0
141
0.0
142
1.0
143
5.4474708171
 70
   688
 72
     1
 73
     1
 74
     1
  7

 75
     0
147
0.1835714286
148
700.0
149
26.0
100
AcDbLayout
  1
_Vorderseite
 70
     1
 71
     1
 10
-808.9494163424
 20
-66.8560311284
 11
808.9494163424
 21
1077.1128404669
 12
0.0
 22
0.0
 32
0.0
 14
-700.0
 24
-26.0
 34
0.0
 15
700.0
 25
35.0
 35
0.0
146
0.0
 13
0.0
 23
0.0
 33
0.0
 16
1.0
 26
0.0
 36
0.0
 17
0.0
 27
1.0
 37
0.0
 76
     0
330
1B
331
278
  0
LAYOUT
  5
22
102
{ACAD_REACTORS
330
1A
102
}
330
1A
100
AcDbPlotSettings
  1

  2
none_device
  4
ANSI_A_(11.00_x_8.50_Inches)
  6

 40
6.35
 41
19.05
 42
6.35000508
 43
19.05000254
 44
279.4
 45
215.9
 46
133.34999746
 47
88.89999873
 48
0.0
 49
0.0
140
0.0
141
0.0
142
0.0077785714
143
1.0
 70
  1696
 72
     0
 73
     0
 74
     0
  7

 75
     0
147
0.0179189148
148
-1300.4909072572
149
0.0
100
AcDbLayout
  1
Model
 70
     1
 71
     0
 10
0.0
 20
0.0
 11
420.0
 21
297.0
 12
0.0
 22
0.0
 32
0.0
 14
-700.0
 24
-500.0
 34
0.0
 15
700.0
 25
500.0
 35
0.0
146
0.0
 13
0.0
 23
0.0
 33
0.0
 16
1.0
 26
0.0
 36
0.0
 17
0.0
 27
1.0
 37
0.0
 76
     0
330
1F
331
29
  0
MLINESTYLE
  5
18
102
{ACAD_REACTORS
330
17
102
}
330
17
100
AcDbMlineStyle
  2
Standard
 70
     0
  3

 62
   256
 51
90.0
 52
90.0
 71
     2
 49
0.5
 62
   256
  6
BYLAYER
 49
-0.5
 62
   256
  6
BYLAYER
  0
ACDBPLACEHOLDER
  5
F
102
{ACAD_REACTORS
330
E
102
}
330
E
  0
SCALE
  5
48
102
{ACAD_REACTORS
330
47
102
}
330
47
100
AcDbScale
 70
     0
300
1:1
140
1.0
141
1.0
290
     1
  0
SCALE
  5
49
102
{ACAD_REACTORS
330
47
102
}
330
47
100
AcDbScale
 70
     0
300
1:2
140
1.0
141
2.0
290
     0
  0
SCALE
  5
4A
102
{ACAD_REACTORS
330
47
102
}
330
47
100
AcDbScale
 70
     0
300
1:4
140
1.0
141
4.0
290
     0
  0
SCALE
  5
4B
102
{ACAD_REACTORS
330
47
102
}
330
47
100
AcDbScale
 70
     0
300
1:5
140
1.0
141
5.0
290
     0
  0
SCALE
  5
4C
102
{ACAD_REACTORS
330
47
102
}
330
47
100
AcDbScale
 70
     0
300
1:8
140
1.0
141
8.0
290
     0
  0
SCALE
  5
4D
102
{ACAD_REACTORS
330
47
102
}
330
47
100
AcDbScale
 70
     0
300
1:10
140
1.0
141
10.0
290
     0
  0
SCALE
  5
4E
102
{ACAD_REACTORS
330
47
102
}
330
47
100
AcDbScale
 70
     0
300
1:16
140
1.0
141
16.0
290
     0
  0
SCALE
  5
4F
102
{ACAD_REACTORS
330
47
102
}
330
47
100
AcDbScale
 70
     0
300
1:20
140
1.0
141
20.0
290
     0
  0
SCALE
  5
50
102
{ACAD_REACTORS
330
47
102
}
330
47
100
AcDbScale
 70
     0
300
1:30
140
1.0
141
30.0
290
     0
  0
SCALE
  5
51
102
{ACAD_REACTORS
330
47
102
}
330
47
100
AcDbScale
 70
     0
300
1:40
140
1.0
141
40.0
290
     0
  0
SCALE
  5
52
102
{ACAD_REACTORS
330
47
102
}
330
47
100
AcDbScale
 70
     0
300
1:50
140
1.0
141
50.0
290
     0
  0
SCALE
  5
53
102
{ACAD_REACTORS
330
47
102
}
330
47
100
AcDbScale
 70
     0
300
1:100
140
1.0
141
100.0
290
     0
  0
SCALE
  5
54
102
{ACAD_REACTORS
330
47
102
}
330
47
100
AcDbScale
 70
     0
300
2:1
140
2.0
141
1.0
290
     0
  0
SCALE
  5
55
102
{ACAD_REACTORS
330
47
102
}
330
47
100
AcDbScale
 70
     0
300
4:1
140
4.0
141
1.0
290
     0
  0
SCALE
  5
56
102
{ACAD_REACTORS
330
47
102
}
330
47
100
AcDbScale
 70
     0
300
8:1
140
8.0
141
1.0
290
     0
  0
SCALE
  5
57
102
{ACAD_REACTORS
330
47
102
}
330
47
100
AcDbScale
 70
     0
300
10:1
140
10.0
141
1.0
290
     0
  0
SCALE
  5
58
102
{ACAD_REACTORS
330
47
102
}
330
47
100
AcDbScale
 70
     0
300
100:1
140
100.0
141
1.0
290
     0
  0
SCALE
  5
59
102
{ACAD_REACTORS
330
47
102
}
330
47
100
AcDbScale
 70
     0
300
1/128" = 1'-0"
140
0.0078125
141
12.0
290
     0
  0
SCALE
  5
5A
102
{ACAD_REACTORS
330
47
102
}
330
47
100
AcDbScale
 70
     0
300
1/64" = 1'-0"
140
0.015625
141
12.0
290
     0
  0
SCALE
  5
5B
102
{ACAD_REACTORS
330
47
102
}
330
47
100
AcDbScale
 70
     0
300
1/32" = 1'-0"
140
0.03125
141
12.0
290
     0
  0
SCALE
  5
5C
102
{ACAD_REACTORS
330
47
102
}
330
47
100
AcDbScale
 70
     0
300
1/16" = 1'-0"
140
0.0625
141
12.0
290
     0
  0
SCALE
  5
5D
102
{ACAD_REACTORS
330
47
102
}
330
47
100
AcDbScale
 70
     0
300
3/32" = 1'-0"
140
0.09375
141
12.0
290
     0
  0
SCALE
  5
5E
102
{ACAD_REACTORS
330
47
102
}
330
47
100
AcDbScale
 70
     0
300
1/8" = 1'-0"
140
0.125
141
12.0
290
     0
  0
SCALE
  5
5F
102
{ACAD_REACTORS
330
47
102
}
330
47
100
AcDbScale
 70
     0
300
3/16" = 1'-0"
140
0.1875
141
12.0
290
     0
  0
SCALE
  5
60
102
{ACAD_REACTORS
330
47
102
}
330
47
100
AcDbScale
 70
     0
300
1/4" = 1'-0"
140
0.25
141
12.0
290
     0
  0
SCALE
  5
61
102
{ACAD_REACTORS
330
47
102
}
330
47
100
AcDbScale
 70
     0
300
3/8" = 1'-0"
140
0.375
141
12.0
290
     0
  0
SCALE
  5
62
102
{ACAD_REACTORS
330
47
102
}
330
47
100
AcDbScale
 70
     0
300
1/2" = 1'-0"
140
0.5
141
12.0
290
     0
  0
SCALE
  5
63
102
{ACAD_REACTORS
330
47
102
}
330
47
100
AcDbScale
 70
     0
300
3/4" = 1'-0"
140
0.75
141
12.0
290
     0
  0
SCALE
  5
64
102
{ACAD_REACTORS
330
47
102
}
330
47
100
AcDbScale
 70
     0
300
1" = 1'-0"
140
1.0
141
12.0
290
     0
  0
SCALE
  5
65
102
{ACAD_REACTORS
330
47
102
}
330
47
100
AcDbScale
 70
     0
300
1-1/2" = 1'-0"
140
1.5
141
12.0
290
     0
  0
SCALE
  5
66
102
{ACAD_REACTORS
330
47
102
}
330
47
100
AcDbScale
 70
     0
300
3" = 1'-0"
140
3.0
141
12.0
290
     0
  0
SCALE
  5
67
102
{ACAD_REACTORS
330
47
102
}
330
47
100
AcDbScale
 70
     0
300
6" = 1'-0"
140
6.0
141
12.0
290
     0
  0
SCALE
  5
68
102
{ACAD_REACTORS
330
47
102
}
330
47
100
AcDbScale
 70
     0
300
1'-0" = 1'-0"
140
12.0
141
12.0
290
     0
  0
ENDSEC
  0
EOF
