  0
SECTION
  2
HEADER
  9
$ACADVER
  1
AC1015
  9
$ACADMAINTVER
 70
     6
  9
$DWGCODEPAGE
  3
ANSI_1252
  9
$INSBASE
 10
0.0
 20
0.0
 30
0.0
  9
$EXTMIN
 10
-750.0
 20
-450.0
 30
0.0
  9
$EXTMAX
 10
750.0
 20
450.0
 30
0.0
  9
$LIMMIN
 10
0.0
 20
0.0
  9
$LIMMAX
 10
420.0
 20
297.0
  9
$ORTHOMODE
 70
     0
  9
$REGENMODE
 70
     1
  9
$FILLMODE
 70
     1
  9
$QTEXTMODE
 70
     0
  9
$MIRRTEXT
 70
     1
  9
$LTSCALE
 40
1.0
  9
$ATTMODE
 70
     1
  9
$TEXTSIZE
 40
3.5
  9
$TRACEWID
 40
1.0
  9
$TEXTSTYLE
  7
STANDARD
  9
$CLAYER
  8
0
  9
$CELTYPE
  6
ByLayer
  9
$CECOLOR
 62
   256
  9
$CELTSCALE
 40
1.0
  9
$DISPSILH
 70
     0
  9
$DIMSCALE
 40
1.0
  9
$DIMASZ
 40
12.7
  9
$DIMEXO
 40
1.0
  9
$DIMDLI
 40
3.75
  9
$DIMRND
 40
0.0
  9
$DIMDLE
 40
0.0
  9
$DIMEXE
 40
1.0
  9
$DIMTP
 40
0.0
  9
$DIMTM
 40
0.0
  9
$DIMTXT
 40
9.8777777778
  9
$DIMCEN
 40
2.5
  9
$DIMTSZ
 40
0.0
  9
$DIMTOL
 70
     0
  9
$DIMLIM
 70
     0
  9
$DIMTIH
 70
     1
  9
$DIMTOH
 70
     1
  9
$DIMSE1
 70
     0
  9
$DIMSE2
 70
     0
  9
$DIMTAD
 70
     1
  9
$DIMZIN
 70
     0
  9
$DIMBLK
  1

  9
$DIMASO
 70
     1
  9
$DIMSHO
 70
     1
  9
$DIMPOST
  1

  9
$DIMAPOST
  1

  9
$DIMALT
 70
     0
  9
$DIMALTD
 70
     3
  9
$DIMALTF
 40
0.0393700787
  9
$DIMLFAC
 40
1.0
  9
$DIMTOFL
 70
     1
  9
$DIMTVP
 40
0.0
  9
$DIMTIX
 70
     0
  9
$DIMSOXD
 70
     0
  9
$DIMSAH
 70
     0
  9
$DIMBLK1
  1

  9
$DIMBLK2
  1

  9
$DIMSTYLE
  2
ISO-25
  9
$DIMCLRD
 70
     0
  9
$DIMCLRE
 70
     0
  9
$DIMCLRT
 70
     0
  9
$DIMTFAC
 40
1.0
  9
$DIMGAP
 40
1.524
  9
$DIMJUST
 70
     0
  9
$DIMSD1
 70
     0
  9
$DIMSD2
 70
     0
  9
$DIMTOLJ
 70
     0
  9
$DIMTZIN
 70
     0
  9
$DIMALTZ
 70
     0
  9
$DIMALTTZ
 70
     0
  9
$DIMUPT
 70
     0
  9
$DIMDEC
 70
     2
  9
$DIMTDEC
 70
     2
  9
$DIMALTU
 70
     2
  9
$DIMALTTD
 70
     3
  9
$DIMTXSTY
  7
STANDARD
  9
$DIMAUNIT
 70
     0
  9
$DIMADEC
 70
     2
  9
$DIMALTRND
 40
0.0
  9
$DIMAZIN
 70
     0
  9
$DIMDSEP
 70
    44
  9
$DIMATFIT
 70
     3
  9
$DIMFRAC
 70
     0
  9
$DIMLDRBLK
  1

  9
$DIMLUNIT
 70
     2
  9
$DIMLWD
 70
    -2
  9
$DIMLWE
 70
    -2
  9
$DIMTMOVE
 70
     0
  9
$LUNITS
 70
     2
  9
$LUPREC
 70
     2
  9
$SKETCHINC
 40
1.0
  9
$FILLETRAD
 40
10.0
  9
$AUNITS
 70
     0
  9
$AUPREC
 70
     2
  9
$MENU
  1
.
  9
$ELEVATION
 40
0.0
  9
$PELEVATION
 40
0.0
  9
$THICKNESS
 40
0.0
  9
$LIMCHECK
 70
     0
  9
$CHAMFERA
 40
0.0
  9
$CHAMFERB
 40
0.0
  9
$CHAMFERC
 40
0.0
  9
$CHAMFERD
 40
0.0
  9
$SKPOLY
 70
     0
  9
$TDCREATE
 40
2458232.503968866
  9
$TDUCREATE
 40
2458232.420635533
  9
$TDUPDATE
 40
2458232.504008716
  9
$TDUUPDATE
 40
2458232.420675382
  9
$TDINDWG
 40
0.0000000116
  9
$TDUSRTIMER
 40
0.0000000116
  9
$USRTIMER
 70
     1
  9
$ANGBASE
 50
0.0
  9
$ANGDIR
 70
     0
  9
$PDMODE
 70
     0
  9
$PDSIZE
 40
-1.0
  9
$PLINEWID
 40
0.0
  9
$SPLFRAME
 70
     0
  9
$SPLINETYPE
 70
     6
  9
$SPLINESEGS
 70
     8
  9
$HANDSEED
  5
28A
  9
$SURFTAB1
 70
     6
  9
$SURFTAB2
 70
     6
  9
$SURFTYPE
 70
     6
  9
$SURFU
 70
     6
  9
$SURFV
 70
     6
  9
$UCSBASE
  2

  9
$UCSNAME
  2

  9
$UCSORG
 10
0.0
 20
0.0
 30
0.0
  9
$UCSXDIR
 10
1.0
 20
0.0
 30
0.0
  9
$UCSYDIR
 10
0.0
 20
1.0
 30
0.0
  9
$UCSORTHOREF
  2

  9
$UCSORTHOVIEW
 70
     0
  9
$UCSORGTOP
 10
0.0
 20
0.0
 30
0.0
  9
$UCSORGBOTTOM
 10
0.0
 20
0.0
 30
0.0
  9
$UCSORGLEFT
 10
0.0
 20
0.0
 30
0.0
  9
$UCSORGRIGHT
 10
0.0
 20
0.0
 30
0.0
  9
$UCSORGFRONT
 10
0.0
 20
0.0
 30
0.0
  9
$UCSORGBACK
 10
0.0
 20
0.0
 30
0.0
  9
$PUCSBASE
  2

  9
$PUCSNAME
  2

  9
$PUCSORG
 10
0.0
 20
0.0
 30
0.0
  9
$PUCSXDIR
 10
1.0
 20
0.0
 30
0.0
  9
$PUCSYDIR
 10
0.0
 20
1.0
 30
0.0
  9
$PUCSORTHOREF
  2

  9
$PUCSORTHOVIEW
 70
     0
  9
$PUCSORGTOP
 10
0.0
 20
0.0
 30
0.0
  9
$PUCSORGBOTTOM
 10
0.0
 20
0.0
 30
0.0
  9
$PUCSORGLEFT
 10
0.0
 20
0.0
 30
0.0
  9
$PUCSORGRIGHT
 10
0.0
 20
0.0
 30
0.0
  9
$PUCSORGFRONT
 10
0.0
 20
0.0
 30
0.0
  9
$PUCSORGBACK
 10
0.0
 20
0.0
 30
0.0
  9
$USERI1
 70
     0
  9
$USERI2
 70
     0
  9
$USERI3
 70
     0
  9
$USERI4
 70
     0
  9
$USERI5
 70
     0
  9
$USERR1
 40
0.0
  9
$USERR2
 40
0.0
  9
$USERR3
 40
0.0
  9
$USERR4
 40
0.0
  9
$USERR5
 40
0.0
  9
$WORLDVIEW
 70
     1
  9
$SHADEDGE
 70
     3
  9
$SHADEDIF
 70
    70
  9
$TILEMODE
 70
     1
  9
$MAXACTVP
 70
    64
  9
$PINSBASE
 10
0.0
 20
0.0
 30
0.0
  9
$PLIMCHECK
 70
     0
  9
$PEXTMIN
 10
-750.0
 20
-26.0
 30
0.0
  9
$PEXTMAX
 10
750.0
 20
35.0
 30
0.0
  9
$PLIMMIN
 10
-866.7315175097
 20
-69.7743190661
  9
$PLIMMAX
 10
866.7315175097
 20
1155.906614786
  9
$UNITMODE
 70
     0
  9
$VISRETAIN
 70
     1
  9
$PLINEGEN
 70
     0
  9
$PSLTSCALE
 70
     1
  9
$TREEDEPTH
 70
  3020
  9
$CMLSTYLE
  2
Standard
  9
$CMLJUST
 70
     0
  9
$CMLSCALE
 40
20.0
  9
$PROXYGRAPHICS
 70
     1
  9
$MEASUREMENT
 70
     1
  9
$CELWEIGHT
370
    -1
  9
$ENDCAPS
280
     0
  9
$JOINSTYLE
280
     0
  9
$LWDISPLAY
290
     1
  9
$INSUNITS
 70
     4
  9
$HYPERLINKBASE
  1

  9
$STYLESHEET
  1

  9
$XEDIT
290
     1
  9
$CEPSNTYPE
380
     0
  9
$PSTYLEMODE
290
     1
  9
$FINGERPRINTGUID
  2
{2B14F0C9-8E81-434C-A728-1F9E6FCF96DC}
  9
$VERSIONGUID
  2
{FAEB1C32-E019-11D5-929B-00C0DF256EC4}
  9
$EXTNAMES
290
     1
  9
$PSVPSCALE
 40
0.0
  9
$OLESTARTUP
290
     0
  0
ENDSEC
  0
SECTION
  2
CLASSES
  0
CLASS
  1
ACDBDICTIONARYWDFLT
  2
AcDbDictionaryWithDefault
  3
ObjectDBX Classes
 90
        0
280
     0
281
     0
  0
CLASS
  1
VISUALSTYLE
  2
AcDbVisualStyle
  3
ObjectDBX Classes
 90
     4095
280
     0
281
     0
  0
CLASS
  1
MATERIAL
  2
AcDbMaterial
  3
ObjectDBX Classes
 90
     1153
280
     0
281
     0
  0
CLASS
  1
SCALE
  2
AcDbScale
  3
ObjectDBX Classes
 90
     1153
280
     0
281
     0
  0
CLASS
  1
TABLESTYLE
  2
AcDbTableStyle
  3
ObjectDBX Classes
 90
     4095
280
     0
281
     0
  0
CLASS
  1
MLEADERSTYLE
  2
AcDbMLeaderStyle
  3
ACDB_MLEADERSTYLE_CLASS
 90
     4095
280
     0
281
     0
  0
CLASS
  1
SUN
  2
AcDbSun
  3
SCENEOE
 90
     1153
280
     0
281
     0
  0
CLASS
  1
ACDBPLACEHOLDER
  2
AcDbPlaceHolder
  3
ObjectDBX Classes
 90
        0
280
     0
281
     0
  0
CLASS
  1
LAYOUT
  2
AcDbLayout
  3
ObjectDBX Classes
 90
        0
280
     0
281
     0
  0
ENDSEC
  0
SECTION
  2
TABLES
  0
TABLE
  2
VPORT
  5
8
330
0
100
AcDbSymbolTable
 70
     1
  0
VPORT
  5
29
330
8
100
AcDbSymbolTableRecord
100
AcDbViewportTableRecord
  2
*Active
 70
     0
 10
0.0
 20
0.0
 11
1.0
 21
1.0
 12
0.0
 22
0.0
 13
0.0
 23
0.0
 14
10.0
 24
10.0
 15
10.0
 25
10.0
 16
0.0
 26
0.0
 36
1.0
 17
0.0
 27
0.0
 37
0.0
 40
918.0
 41
1.6666666667
 42
50.0
 43
0.0
 44
0.0
 50
0.0
 51
0.0
 71
     0
 72
   100
 73
     1
 74
     3
 75
     0
 76
     0
 77
     0
 78
     0
281
     0
 65
     1
110
0.0
120
0.0
130
0.0
111
1.0
121
0.0
131
0.0
112
0.0
122
1.0
132
0.0
 79
     0
146
0.0
  0
ENDTAB
  0
TABLE
  2
LTYPE
  5
5
330
0
100
AcDbSymbolTable
 70
     6
  0
LTYPE
  5
14
330
5
100
AcDbSymbolTableRecord
100
AcDbLinetypeTableRecord
  2
ByBlock
 70
     0
  3

 72
    65
 73
     0
 40
0.0
  0
LTYPE
  5
15
330
5
100
AcDbSymbolTableRecord
100
AcDbLinetypeTableRecord
  2
ByLayer
 70
     0
  3

 72
    65
 73
     0
 40
0.0
  0
LTYPE
  5
16
330
5
100
AcDbSymbolTableRecord
100
AcDbLinetypeTableRecord
  2
Continuous
 70
     0
  3
Solid line
 72
    65
 73
     0
 40
0.0
  0
LTYPE
  5
6E
330
5
100
AcDbSymbolTableRecord
100
AcDbLinetypeTableRecord
  2
HIDDEN
 70
     0
  3
Hidden __ __ __ __ __ __ __ __ __ __ __ __ __ __
 72
    65
 73
     2
 40
1.905
 49
1.27
 74
     0
 49
-0.635
 74
     0
  0
LTYPE
  5
6F
330
5
100
AcDbSymbolTableRecord
100
AcDbLinetypeTableRecord
  2
PHANTOM
 70
     0
  3
Phantom ______  __  __  ______  __  __  ______
 72
    65
 73
     6
 40
12.7
 49
6.35
 74
     0
 49
-1.27
 74
     0
 49
1.27
 74
     0
 49
-1.27
 74
     0
 49
1.27
 74
     0
 49
-1.27
 74
     0
  0
LTYPE
  5
70
330
5
100
AcDbSymbolTableRecord
100
AcDbLinetypeTableRecord
  2
CENTER
 70
     0
  3
Center ____ _ ____ _ ____ _ ____ _ ____ _ ____
 72
    65
 73
     4
 40
10.16
 49
6.35
 74
     0
 49
-1.27
 74
     0
 49
1.27
 74
     0
 49
-1.27
 74
     0
  0
LTYPE
  5
71
330
5
100
AcDbSymbolTableRecord
100
AcDbLinetypeTableRecord
  2
CENTERX2
 70
     0
  3
Center (2x) ________  __  ________  __  _____
 72
    65
 73
     4
 40
20.32
 49
12.7
 74
     0
 49
-2.54
 74
     0
 49
2.54
 74
     0
 49
-2.54
 74
     0
  0
LTYPE
  5
72
330
5
100
AcDbSymbolTableRecord
100
AcDbLinetypeTableRecord
  2
DOT2
 70
     0
  3
Dot (.5x) ........................................
 72
    65
 73
     2
 40
0.635
 49
0.0
 74
     0
 49
-0.635
 74
     0
  0
ENDTAB
  0
TABLE
  2
LAYER
  5
2
330
0
100
AcDbSymbolTable
 70
     1
  0
LAYER
  5
10
330
2
100
AcDbSymbolTableRecord
100
AcDbLayerTableRecord
  2
0
 70
     0
 62
     7
  6
Continuous
370
    -3
390
F
  0
ENDTAB
  0
TABLE
  2
STYLE
  5
3
330
0
100
AcDbSymbolTable
 70
     1
  0
STYLE
  5
11
330
3
100
AcDbSymbolTableRecord
100
AcDbTextStyleTableRecord
  2
STANDARD
 70
     0
 40
0.0
 41
1.0
 50
0.0
 71
     0
 42
3.5
  3
GOTHIC.TTF
  4

1001
ACAD
1000
CENTURY GOTHIC
1071
       34
  0
ENDTAB
  0
TABLE
  2
VIEW
  5
6
330
0
100
AcDbSymbolTable
 70
     0
  0
ENDTAB
  0
TABLE
  2
UCS
  5
7
330
0
100
AcDbSymbolTable
 70
     0
  0
ENDTAB
  0
TABLE
  2
APPID
  5
9
330
0
100
AcDbSymbolTable
 70
     1
  0
APPID
  5
12
330
9
100
AcDbSymbolTableRecord
100
AcDbRegAppTableRecord
  2
ACAD
 70
     0
  0
ENDTAB
  0
TABLE
  2
DIMSTYLE
  5
A
330
0
100
AcDbSymbolTable
 70
     1
100
AcDbDimStyleTable
  0
DIMSTYLE
105
27
330
A
100
AcDbSymbolTableRecord
100
AcDbDimStyleTableRecord
  2
ISO-25
 70
     0
 41
2.5
 42
0.625
 43
3.75
 44
1.25
 73
     0
 74
     0
 77
     1
 78
     8
140
2.5
141
2.5
143
0.0393700787
147
0.625
171
     3
172
     1
178
     0
271
     2
272
     2
274
     3
278
    44
283
     0
284
     8
340
11
  0
ENDTAB
  0
TABLE
  2
BLOCK_RECORD
  5
1
330
0
100
AcDbSymbolTable
 70
     8
  0
BLOCK_RECORD
  5
1F
330
1
100
AcDbSymbolTableRecord
100
AcDbBlockTableRecord
  2
*Model_Space
340
22
  0
BLOCK_RECORD
  5
1B
330
1
100
AcDbSymbolTableRecord
100
AcDbBlockTableRecord
  2
*Paper_Space
340
1E
  0
BLOCK_RECORD
  5
23
330
1
100
AcDbSymbolTableRecord
100
AcDbBlockTableRecord
  2
*Paper_Space0
340
26
  0
BLOCK_RECORD
  5
CB
330
1
100
AcDbSymbolTableRecord
100
AcDbBlockTableRecord
  2
*Paper_Space1
340
CC
  0
BLOCK_RECORD
  5
DD
330
1
100
AcDbSymbolTableRecord
100
AcDbBlockTableRecord
  2
*Paper_Space2
340
DE
  0
BLOCK_RECORD
  5
EF
330
1
100
AcDbSymbolTableRecord
100
AcDbBlockTableRecord
  2
*Paper_Space3
340
F0
  0
BLOCK_RECORD
  5
101
330
1
100
AcDbSymbolTableRecord
100
AcDbBlockTableRecord
  2
*Paper_Space4
340
102
  0
BLOCK_RECORD
  5
12E
330
1
100
AcDbSymbolTableRecord
100
AcDbBlockTableRecord
  2
*Paper_Space5
340
12F
  0
BLOCK_RECORD
  5
1AE
330
1
100
AcDbSymbolTableRecord
100
AcDbBlockTableRecord
  2
*Paper_Space6
340
1AF
  0
BLOCK_RECORD
  5
21A
330
1
100
AcDbSymbolTableRecord
100
AcDbBlockTableRecord
  2
*Paper_Space7
340
21B
  0
ENDTAB
  0
ENDSEC
  0
SECTION
  2
BLOCKS
  0
BLOCK
  5
20
330
1F
100
AcDbEntity
  8
0
100
AcDbBlockBegin
  2
*Model_Space
 70
     0
 10
0.0
 20
0.0
 30
0.0
  3
*Model_Space
  1

  0
ENDBLK
  5
21
330
1F
100
AcDbEntity
  8
0
100
AcDbBlockEnd
  0
BLOCK
  5
1C
330
1B
100
AcDbEntity
 67
     1
  8
0
100
AcDbBlockBegin
  2
*Paper_Space
 70
     0
 10
0.0
 20
0.0
 30
0.0
  3
*Paper_Space
  1

  0
ENDBLK
  5
1D
330
1B
100
AcDbEntity
 67
     1
  8
0
100
AcDbBlockEnd
  0
BLOCK
  5
24
330
23
100
AcDbEntity
  8
0
100
AcDbBlockBegin
  2
*Paper_Space0
 70
     0
 10
0.0
 20
0.0
 30
0.0
  3
*Paper_Space0
  1

  0
LINE
  5
C4
330
23
100
AcDbEntity
  8
0
  6
Continuous
 62
     7
370
    25
100
AcDbLine
 10
450.0
 20
35.0
 30
0.0
 11
450.0
 21
0.0
 31
0.0
  0
LINE
  5
C5
330
23
100
AcDbEntity
  8
0
  6
Continuous
 62
     7
370
    25
100
AcDbLine
 10
-450.0
 20
0.0
 30
0.0
 11
450.0
 21
0.0
 31
0.0
  0
LINE
  5
C6
330
23
100
AcDbEntity
  8
0
  6
Continuous
 62
     7
370
    25
100
AcDbLine
 10
-450.0
 20
35.0
 30
0.0
 11
-450.0
 21
0.0
 31
0.0
  0
LINE
  5
C7
330
23
100
AcDbEntity
  8
0
  6
Continuous
 62
     7
370
    25
100
AcDbLine
 10
-450.0
 20
35.0
 30
0.0
 11
450.0
 21
35.0
 31
0.0
  0
LINE
  5
C8
330
23
100
AcDbEntity
  8
0
  6
Continuous
 62
     7
370
    25
100
AcDbLine
 10
130.0
 20
-26.0
 30
0.0
 11
130.0
 21
0.0
 31
0.0
  0
LINE
  5
C9
330
23
100
AcDbEntity
  8
0
  6
Continuous
 62
     7
370
    25
100
AcDbLine
 10
-130.0
 20
-26.0
 30
0.0
 11
-130.0
 21
0.0
 31
0.0
  0
LINE
  5
CA
330
23
100
AcDbEntity
  8
0
  6
Continuous
 62
     7
370
    25
100
AcDbLine
 10
130.0
 20
-26.0
 30
0.0
 11
-130.0
 21
-26.0
 31
0.0
  0
VIEWPORT
  5
27A
330
23
100
AcDbEntity
  8
0
100
AcDbViewport
 10
0.0
 20
0.0
 30
0.0
 40
205.6
 41
156.0
 68
     1
 69
     1
 12
0.0
 22
0.0
 13
0.0
 23
0.0
 14
10.0
 24
10.0
 15
10.0
 25
10.0
 16
0.0
 26
0.0
 36
1.0
 17
0.0
 27
0.0
 37
0.0
 42
50.0
 43
0.0
 44
0.0
 45
1160.8949416342
 50
0.0
 51
0.0
 72
   100
 90
   557152
  1

281
     0
 71
     1
 74
     0
110
0.0
120
0.0
130
0.0
111
1.0
121
0.0
131
0.0
112
0.0
122
1.0
132
0.0
 79
     0
146
0.0
  0
ENDBLK
  5
25
330
23
100
AcDbEntity
  8
0
100
AcDbBlockEnd
  0
BLOCK
  5
CD
330
CB
100
AcDbEntity
  8
0
100
AcDbBlockBegin
  2
*Paper_Space1
 70
     0
 10
0.0
 20
0.0
 30
0.0
  3
*Paper_Space1
  1

  0
LINE
  5
D6
330
CB
100
AcDbEntity
  8
0
  6
Continuous
 62
     7
370
    25
100
AcDbLine
 10
-750.0
 20
35.0
 30
0.0
 11
750.0
 21
35.0
 31
0.0
  0
LINE
  5
D7
330
CB
100
AcDbEntity
  8
0
  6
Continuous
 62
     7
370
    25
100
AcDbLine
 10
750.0
 20
35.0
 30
0.0
 11
750.0
 21
0.0
 31
0.0
  0
LINE
  5
D8
330
CB
100
AcDbEntity
  8
0
  6
Continuous
 62
     7
370
    25
100
AcDbLine
 10
-750.0
 20
0.0
 30
0.0
 11
750.0
 21
0.0
 31
0.0
  0
LINE
  5
D9
330
CB
100
AcDbEntity
  8
0
  6
Continuous
 62
     7
370
    25
100
AcDbLine
 10
-750.0
 20
35.0
 30
0.0
 11
-750.0
 21
0.0
 31
0.0
  0
LINE
  5
DA
330
CB
100
AcDbEntity
  8
0
  6
Continuous
 62
     7
370
    25
100
AcDbLine
 10
130.0
 20
-26.0
 30
0.0
 11
-130.0
 21
-26.0
 31
0.0
  0
LINE
  5
DB
330
CB
100
AcDbEntity
  8
0
  6
Continuous
 62
     7
370
    25
100
AcDbLine
 10
130.0
 20
-26.0
 30
0.0
 11
130.0
 21
0.0
 31
0.0
  0
LINE
  5
DC
330
CB
100
AcDbEntity
  8
0
  6
Continuous
 62
     7
370
    25
100
AcDbLine
 10
-130.0
 20
-26.0
 30
0.0
 11
-130.0
 21
0.0
 31
0.0
  0
VIEWPORT
  5
27C
330
CB
100
AcDbEntity
  8
0
100
AcDbViewport
 10
0.0
 20
0.0
 30
0.0
 40
205.6
 41
156.0
 68
     1
 69
     1
 12
0.0
 22
0.0
 13
0.0
 23
0.0
 14
10.0
 24
10.0
 15
10.0
 25
10.0
 16
0.0
 26
0.0
 36
1.0
 17
0.0
 27
0.0
 37
0.0
 42
50.0
 43
0.0
 44
0.0
 45
1160.8949416342
 50
0.0
 51
0.0
 72
   100
 90
   557152
  1

281
     0
 71
     1
 74
     0
110
0.0
120
0.0
130
0.0
111
1.0
121
0.0
131
0.0
112
0.0
122
1.0
132
0.0
 79
     0
146
0.0
  0
ENDBLK
  5
CE
330
CB
100
AcDbEntity
  8
0
100
AcDbBlockEnd
  0
BLOCK
  5
DF
330
DD
100
AcDbEntity
  8
0
100
AcDbBlockBegin
  2
*Paper_Space2
 70
     0
 10
0.0
 20
0.0
 30
0.0
  3
*Paper_Space2
  1

  0
LINE
  5
E8
330
DD
100
AcDbEntity
  8
0
  6
Continuous
 62
     7
370
    25
100
AcDbLine
 10
-750.0
 20
35.0
 30
0.0
 11
750.0
 21
35.0
 31
0.0
  0
LINE
  5
E9
330
DD
100
AcDbEntity
  8
0
  6
Continuous
 62
     7
370
    25
100
AcDbLine
 10
-750.0
 20
35.0
 30
0.0
 11
-750.0
 21
0.0
 31
0.0
  0
LINE
  5
EA
330
DD
100
AcDbEntity
  8
0
  6
Continuous
 62
     7
370
    25
100
AcDbLine
 10
-750.0
 20
0.0
 30
0.0
 11
750.0
 21
0.0
 31
0.0
  0
LINE
  5
EB
330
DD
100
AcDbEntity
  8
0
  6
Continuous
 62
     7
370
    25
100
AcDbLine
 10
750.0
 20
35.0
 30
0.0
 11
750.0
 21
0.0
 31
0.0
  0
LINE
  5
EC
330
DD
100
AcDbEntity
  8
0
  6
Continuous
 62
     7
370
    25
100
AcDbLine
 10
130.0
 20
-26.0
 30
0.0
 11
130.0
 21
0.0
 31
0.0
  0
LINE
  5
ED
330
DD
100
AcDbEntity
  8
0
  6
Continuous
 62
     7
370
    25
100
AcDbLine
 10
130.0
 20
-26.0
 30
0.0
 11
-130.0
 21
-26.0
 31
0.0
  0
LINE
  5
EE
330
DD
100
AcDbEntity
  8
0
  6
Continuous
 62
     7
370
    25
100
AcDbLine
 10
-130.0
 20
-26.0
 30
0.0
 11
-130.0
 21
0.0
 31
0.0
  0
VIEWPORT
  5
27E
330
DD
100
AcDbEntity
  8
0
100
AcDbViewport
 10
0.0
 20
0.0
 30
0.0
 40
205.6
 41
156.0
 68
     1
 69
     1
 12
0.0
 22
0.0
 13
0.0
 23
0.0
 14
10.0
 24
10.0
 15
10.0
 25
10.0
 16
0.0
 26
0.0
 36
1.0
 17
0.0
 27
0.0
 37
0.0
 42
50.0
 43
0.0
 44
0.0
 45
1160.8949416342
 50
0.0
 51
0.0
 72
   100
 90
   557152
  1

281
     0
 71
     1
 74
     0
110
0.0
120
0.0
130
0.0
111
1.0
121
0.0
131
0.0
112
0.0
122
1.0
132
0.0
 79
     0
146
0.0
  0
ENDBLK
  5
E0
330
DD
100
AcDbEntity
  8
0
100
AcDbBlockEnd
  0
BLOCK
  5
F1
330
EF
100
AcDbEntity
  8
0
100
AcDbBlockBegin
  2
*Paper_Space3
 70
     0
 10
0.0
 20
0.0
 30
0.0
  3
*Paper_Space3
  1

  0
LINE
  5
FA
330
EF
100
AcDbEntity
  8
0
  6
Continuous
 62
     7
370
    25
100
AcDbLine
 10
-450.0
 20
35.0
 30
0.0
 11
-450.0
 21
0.0
 31
0.0
  0
LINE
  5
FB
330
EF
100
AcDbEntity
  8
0
  6
Continuous
 62
     7
370
    25
100
AcDbLine
 10
-450.0
 20
35.0
 30
0.0
 11
450.0
 21
35.0
 31
0.0
  0
LINE
  5
FC
330
EF
100
AcDbEntity
  8
0
  6
Continuous
 62
     7
370
    25
100
AcDbLine
 10
450.0
 20
35.0
 30
0.0
 11
450.0
 21
0.0
 31
0.0
  0
LINE
  5
FD
330
EF
100
AcDbEntity
  8
0
  6
Continuous
 62
     7
370
    25
100
AcDbLine
 10
-450.0
 20
0.0
 30
0.0
 11
450.0
 21
0.0
 31
0.0
  0
LINE
  5
FE
330
EF
100
AcDbEntity
  8
0
  6
Continuous
 62
     7
370
    25
100
AcDbLine
 10
130.0
 20
-26.0
 30
0.0
 11
-130.0
 21
-26.0
 31
0.0
  0
LINE
  5
FF
330
EF
100
AcDbEntity
  8
0
  6
Continuous
 62
     7
370
    25
100
AcDbLine
 10
-130.0
 20
-26.0
 30
0.0
 11
-130.0
 21
0.0
 31
0.0
  0
LINE
  5
100
330
EF
100
AcDbEntity
  8
0
  6
Continuous
 62
     7
370
    25
100
AcDbLine
 10
130.0
 20
-26.0
 30
0.0
 11
130.0
 21
0.0
 31
0.0
  0
VIEWPORT
  5
280
330
EF
100
AcDbEntity
  8
0
100
AcDbViewport
 10
0.0
 20
0.0
 30
0.0
 40
205.6
 41
156.0
 68
     1
 69
     1
 12
0.0
 22
0.0
 13
0.0
 23
0.0
 14
10.0
 24
10.0
 15
10.0
 25
10.0
 16
0.0
 26
0.0
 36
1.0
 17
0.0
 27
0.0
 37
0.0
 42
50.0
 43
0.0
 44
0.0
 45
1160.8949416342
 50
0.0
 51
0.0
 72
   100
 90
   557152
  1

281
     0
 71
     1
 74
     0
110
0.0
120
0.0
130
0.0
111
1.0
121
0.0
131
0.0
112
0.0
122
1.0
132
0.0
 79
     0
146
0.0
  0
ENDBLK
  5
F2
330
EF
100
AcDbEntity
  8
0
100
AcDbBlockEnd
  0
BLOCK
  5
103
330
101
100
AcDbEntity
  8
0
100
AcDbBlockBegin
  2
*Paper_Space4
 70
     0
 10
0.0
 20
0.0
 30
0.0
  3
*Paper_Space4
  1

  0
CIRCLE
  5
10D
330
101
100
AcDbEntity
  8
0
  6
Continuous
 62
     7
370
    25
100
AcDbCircle
 10
0.0
 20
0.0
 30
0.0
 40
45.00000000000001
  0
LINE
  5
11A
330
101
100
AcDbEntity
  8
0
  6
Continuous
 62
     7
370
    25
100
AcDbLine
 10
750.0
 20
-450.0
 30
0.0
 11
-750.0
 21
-450.0
 31
0.0
  0
LINE
  5
11B
330
101
100
AcDbEntity
  8
0
  6
Continuous
 62
     7
370
    25
100
AcDbLine
 10
-750.0
 20
450.0
 30
0.0
 11
750.0
 21
450.0
 31
0.0
  0
LINE
  5
11C
330
101
100
AcDbEntity
  8
0
  6
Continuous
 62
     7
370
    25
100
AcDbLine
 10
750.0
 20
450.0
 30
0.0
 11
750.0
 21
-450.0
 31
0.0
  0
LINE
  5
11D
330
101
100
AcDbEntity
  8
0
  6
Continuous
 62
     7
370
    25
100
AcDbLine
 10
-750.0
 20
-450.0
 30
0.0
 11
-750.0
 21
450.0
 31
0.0
  0
LINE
  5
11E
330
101
100
AcDbEntity
  8
0
  6
Continuous
 62
     7
370
    25
100
AcDbLine
 10
130.0
 20
-130.0
 30
0.0
 11
130.0
 21
130.0
 31
0.0
  0
LINE
  5
11F
330
101
100
AcDbEntity
  8
0
  6
Continuous
 62
     7
370
    25
100
AcDbLine
 10
-130.0
 20
-130.0
 30
0.0
 11
130.0
 21
-130.0
 31
0.0
  0
LINE
  5
120
330
101
100
AcDbEntity
  8
0
  6
Continuous
 62
     7
370
    25
100
AcDbLine
 10
-130.0
 20
130.0
 30
0.0
 11
-130.0
 21
-130.0
 31
0.0
  0
LINE
  5
121
330
101
100
AcDbEntity
  8
0
  6
Continuous
 62
     7
370
    25
100
AcDbLine
 10
130.0
 20
130.0
 30
0.0
 11
-130.0
 21
130.0
 31
0.0
  0
LINE
  5
122
330
101
100
AcDbEntity
  8
0
  6
Continuous
 62
     7
370
    25
100
AcDbLine
 10
-28.8654208587
 20
34.5222751082
 30
0.0
 11
-19.3431457505
 21
25.0
 31
0.0
  0
LINE
  5
123
330
101
100
AcDbEntity
  8
0
  6
Continuous
 62
     7
370
    25
100
AcDbLine
 10
-19.3431457505
 20
25.0
 30
0.0
 11
19.3431457505
 21
25.0
 31
0.0
  0
LINE
  5
124
330
101
100
AcDbEntity
  8
0
  6
Continuous
 62
     7
370
    25
100
AcDbLine
 10
19.3431457505
 20
25.0
 30
0.0
 11
28.8654208587
 21
34.5222751082
 31
0.0
  0
LINE
  5
125
330
101
100
AcDbEntity
  8
0
  6
Continuous
 62
     7
370
    25
100
AcDbLine
 10
34.5222751082
 20
28.8654208587
 30
0.0
 11
25.0
 21
19.3431457505
 31
0.0
  0
LINE
  5
126
330
101
100
AcDbEntity
  8
0
  6
Continuous
 62
     7
370
    25
100
AcDbLine
 10
25.0
 20
19.3431457505
 30
0.0
 11
25.0
 21
-19.3431457505
 31
0.0
  0
LINE
  5
127
330
101
100
AcDbEntity
  8
0
  6
Continuous
 62
     7
370
    25
100
AcDbLine
 10
25.0
 20
-19.3431457505
 30
0.0
 11
34.5222751082
 21
-28.8654208587
 31
0.0
  0
LINE
  5
128
330
101
100
AcDbEntity
  8
0
  6
Continuous
 62
     7
370
    25
100
AcDbLine
 10
-25.0
 20
19.3431457505
 30
0.0
 11
-34.5222751082
 21
28.8654208587
 31
0.0
  0
LINE
  5
129
330
101
100
AcDbEntity
  8
0
  6
Continuous
 62
     7
370
    25
100
AcDbLine
 10
-25.0
 20
-19.3431457505
 30
0.0
 11
-25.0
 21
19.3431457505
 31
0.0
  0
LINE
  5
12A
330
101
100
AcDbEntity
  8
0
  6
Continuous
 62
     7
370
    25
100
AcDbLine
 10
-34.5222751082
 20
-28.8654208587
 30
0.0
 11
-25.0
 21
-19.3431457505
 31
0.0
  0
LINE
  5
12B
330
101
100
AcDbEntity
  8
0
  6
Continuous
 62
     7
370
    25
100
AcDbLine
 10
-19.3431457505
 20
-25.0
 30
0.0
 11
-28.8654208587
 21
-34.5222751082
 31
0.0
  0
LINE
  5
12C
330
101
100
AcDbEntity
  8
0
  6
Continuous
 62
     7
370
    25
100
AcDbLine
 10
28.8654208587
 20
-34.5222751082
 30
0.0
 11
19.3431457505
 21
-25.0
 31
0.0
  0
LINE
  5
12D
330
101
100
AcDbEntity
  8
0
  6
Continuous
 62
     7
370
    25
100
AcDbLine
 10
19.3431457505
 20
-25.0
 30
0.0
 11
-19.3431457505
 21
-25.0
 31
0.0
  0
VIEWPORT
  5
282
330
101
100
AcDbEntity
  8
0
100
AcDbViewport
 10
0.0
 20
0.0
 30
0.0
 40
205.6
 41
156.0
 68
     1
 69
     1
 12
0.0
 22
0.0
 13
0.0
 23
0.0
 14
10.0
 24
10.0
 15
10.0
 25
10.0
 16
0.0
 26
0.0
 36
1.0
 17
0.0
 27
0.0
 37
0.0
 42
50.0
 43
0.0
 44
0.0
 45
1160.8949416342
 50
0.0
 51
0.0
 72
   100
 90
   557152
  1

281
     0
 71
     1
 74
     0
110
0.0
120
0.0
130
0.0
111
1.0
121
0.0
131
0.0
112
0.0
122
1.0
132
0.0
 79
     0
146
0.0
  0
ENDBLK
  5
104
330
101
100
AcDbEntity
  8
0
100
AcDbBlockEnd
  0
BLOCK
  5
130
330
12E
100
AcDbEntity
  8
0
100
AcDbBlockBegin
  2
*Paper_Space5
 70
     0
 10
0.0
 20
0.0
 30
0.0
  3
*Paper_Space5
  1

  0
SPLINE
  5
143
330
12E
100
AcDbEntity
  8
0
  6
Continuous
 62
     7
370
    25
100
AcDbSpline
210
0.0
220
0.0
230
1.0
 70
     8
 71
     3
 72
     8
 73
     4
 74
     0
 42
0.000000001
 43
0.00000001
 40
0.0
 40
0.0
 40
0.0
 40
0.0
 40
1.0
 40
1.0
 40
1.0
 40
1.0
 10
23.2473462307905
 20
-35.35633187506547
 30
0.0
 10
16.0867411878455
 20
-39.38818113964377
 30
0.0
 10
8.926878562140784
 20
-43.37218308804943
 30
0.0
 10
1.767766952966203
 20
-47.30778351313283
 30
0.0
  0
SPLINE
  5
146
330
12E
100
AcDbEntity
  8
0
  6
Continuous
 62
     7
370
    25
100
AcDbSpline
210
0.0
220
0.0
230
1.0
 70
     8
 71
     3
 72
     8
 73
     4
 74
     0
 42
0.000000001
 43
0.00000001
 40
0.0
 40
0.0
 40
0.0
 40
0.0
 40
1.0
 40
1.0
 40
1.0
 40
1.0
 10
-111.3693180368813
 20
18.00486543268404
 30
0.0
 10
-104.2102064277067
 20
21.94046585776746
 30
0.0
 10
-97.050343802002
 20
25.92446780617311
 30
0.0
 10
-89.889738759057
 20
29.95631707075141
 30
0.0
  0
SPLINE
  5
147
330
12E
100
AcDbEntity
  8
0
  6
Continuous
 62
     7
370
    25
100
AcDbSpline
210
0.0
220
0.0
230
1.0
 70
     8
 71
     3
 72
    20
 73
    16
 74
     0
 42
0.000000001
 43
0.00000001
 40
0.0
 40
0.0
 40
0.0
 40
0.0
 40
0.1250000000000017
 40
0.1250000000000017
 40
0.2500000000000035
 40
0.2500000000000035
 40
0.3750000000000052
 40
0.3750000000000052
 40
0.500000000000007
 40
0.500000000000007
 40
0.6250000000000088
 40
0.6250000000000088
 40
0.7500000000000104
 40
0.7500000000000104
 40
1.0
 40
1.0
 40
1.0
 40
1.0
 10
-111.3693180368816
 20
15.98683997491005
 30
0.0
 10
-111.4860387329896
 20
16.0559867544383
 30
0.0
 10
-111.5893668694412
 20
16.1302558375597
 30
0.0
 10
-111.7703291525481
 20
16.28862750513714
 30
0.0
 10
-111.8485884180711
 20
16.37372076371881
 30
0.0
 10
-111.973940912117
 20
16.54911739670107
 30
0.0
 10
-112.0211951011488
 20
16.63900624227221
 30
0.0
 10
-112.0851372871574
 20
16.82313440642759
 30
0.0
 10
-112.1015009565522
 20
16.9179622989187
 30
0.0
 10
-112.1016009759767
 20
17.10401161386686
 30
0.0
 10
-112.0858609547317
 20
17.19617871963365
 30
0.0
 10
-112.0220551521703
 20
17.37876396721703
 30
0.0
 10
-111.9741911992061
 20
17.46778080304252
 30
0.0
 10
-111.7877609331714
 20
17.72131926231087
 30
0.0
 10
-111.6027118574027
 20
17.87656113050236
 30
0.0
 10
-111.3693180368813
 20
18.00486543268404
 30
0.0
  0
SPLINE
  5
148
330
12E
100
AcDbEntity
  8
0
  6
Continuous
 62
     7
370
    25
100
AcDbSpline
210
0.0
220
0.0
230
1.0
 70
     8
 71
     3
 72
    18
 73
    14
 74
     0
 42
0.000000001
 43
0.00000001
 40
0.0
 40
0.0
 40
0.0
 40
0.0
 40
0.1249999999999998
 40
0.1249999999999998
 40
0.2499999999999998
 40
0.2499999999999998
 40
0.4999999999999998
 40
0.4999999999999998
 40
0.7499999999999998
 40
0.7499999999999998
 40
0.8749999999999998
 40
0.8749999999999998
 40
1.0
 40
1.0
 40
1.0
 40
1.0
 10
-1.767766952966134
 20
-47.28478869135046
 30
0.0
 10
-6.334409962365214
 20
-44.71759052673205
 30
0.0
 10
-10.90102955347577
 20
-42.1524299034855
 30
0.0
 10
-20.03426010114325
 20
-37.02285991856678
 30
0.0
 10
-24.60086871081617
 20
-34.45865595192831
 30
0.0
 10
-38.30084867150961
 20
-26.75262639924279
 30
0.0
 10
-47.4342848750851
 20
-21.59860292573758
 30
0.0
 10
-65.70280200425468
 20
-11.05241245386841
 30
0.0
 10
-74.83623713662747
 20
-5.661195570860526
 30
0.0
 10
-88.53621682077247
 20
2.450434888338259
 30
0.0
 10
-93.10282531113207
 20
5.158724923500793
 30
0.0
 10
-102.2360556477906
 20
10.57415834707476
 30
0.0
 10
-106.8026751333427
 20
13.28150441262643
 30
0.0
 10
-111.3693180368816
 20
15.98683997491006
 30
0.0
  0
SPLINE
  5
149
330
12E
100
AcDbEntity
  8
0
  6
Continuous
 62
     7
370
    25
100
AcDbSpline
210
0.0
220
0.0
230
1.0
 70
     8
 71
     3
 72
    20
 73
    16
 74
     0
 42
0.000000001
 43
0.00000001
 40
0.0
 40
0.0
 40
0.0
 40
0.0
 40
0.1249999999999983
 40
0.1249999999999983
 40
0.2499999999999965
 40
0.2499999999999965
 40
0.3749999999999948
 40
0.3749999999999948
 40
0.499999999999993
 40
0.499999999999993
 40
0.6249999999999912
 40
0.6249999999999912
 40
0.7499999999999896
 40
0.7499999999999896
 40
1.0
 40
1.0
 40
1.0
 40
1.0
 10
1.767766952966203
 20
-47.30778351313283
 30
0.0
 10
1.651069720727163
 20
-47.37193584122581
 30
0.0
 10
1.524874934678087
 20
-47.42857746564908
 30
0.0
 10
1.254263624682186
 20
-47.5274479454213
 30
0.0
 10
1.10813736630886
 20
-47.57001302144106
 30
0.0
 10
0.8055435214182755
 20
-47.63774423846848
 30
0.0
 10
0.6498190270148931
 20
-47.6630017887105
 30
0.0
 10
0.3295942402288879
 20
-47.69645890315572
 30
0.0
 10
0.1640360655633943
 20
-47.704472416373
 30
0.0
 10
-0.1619878694444563
 20
-47.70238751613169
 30
0.0
 10
-0.3240847049307896
 20
-47.69256993500976
 30
0.0
 10
-0.6464049803790382
 20
-47.65497869246131
 30
0.0
 10
-0.8042042236408864
 20
-47.62732675412354
 30
0.0
 10
-1.25543051918986
 20
-47.52071829516158
 30
0.0
 10
-1.534324413792615
 20
-47.41602147150796
 30
0.0
 10
-1.767766952966134
 20
-47.28478869135046
 30
0.0
  0
SPLINE
  5
14A
330
12E
100
AcDbEntity
  8
0
  6
Continuous
 62
     7
370
    25
100
AcDbSpline
210
0.0
220
0.0
230
1.0
 70
     8
 71
     3
 72
    10
 73
     6
 74
     0
 42
0.000000001
 43
0.00000001
 40
0.0
 40
0.0
 40
0.0
 40
0.0
 40
0.5
 40
0.5
 40
1.0
 40
1.0
 40
1.0
 40
1.0
 10
89.88973875905707
 20
3.115502435484061
 30
0.0
 10
78.78291110121822
 20
-3.406482245761261
 30
0.0
 10
67.67601319716901
 20
-9.913301178371155
 30
0.0
 10
45.46134109568948
 20
-22.73755982613896
 30
0.0
 10
34.35425107069812
 20
-29.05460251124293
 30
0.0
 10
23.24734623079049
 20
-35.35633187506549
 30
0.0
  0
SPLINE
  5
14C
330
12E
100
AcDbEntity
  8
0
  6
Continuous
 62
     7
370
    25
100
AcDbSpline
210
0.0
220
0.0
230
1.0
 70
     8
 71
     3
 72
     8
 73
     4
 74
     0
 42
0.000000001
 43
0.00000001
 40
0.0
 40
0.0
 40
0.0
 40
0.0
 40
1.0
 40
1.0
 40
1.0
 40
1.0
 10
111.3693180368814
 20
15.96384515312705
 30
0.0
 10
104.2102064277068
 20
11.63371125535961
 30
0.0
 10
97.05034380200208
 20
7.351111775685565
 30
0.0
 10
89.88973875905707
 20
3.115502435484061
 30
0.0
  0
SPLINE
  5
14D
330
12E
100
AcDbEntity
  8
0
  6
Continuous
 62
     7
370
    25
100
AcDbSpline
210
0.0
220
0.0
230
1.0
 70
     8
 71
     3
 72
    20
 73
    16
 74
     0
 42
0.000000001
 43
0.00000001
 40
0.0
 40
0.0
 40
0.0
 40
0.0
 40
0.1250000000000017
 40
0.1250000000000017
 40
0.2500000000000035
 40
0.2500000000000035
 40
0.3750000000000052
 40
0.3750000000000052
 40
0.500000000000007
 40
0.500000000000007
 40
0.6250000000000088
 40
0.6250000000000088
 40
0.7500000000000104
 40
0.7500000000000104
 40
1.0
 40
1.0
 40
1.0
 40
1.0
 10
111.3693180368817
 20
18.02786025446614
 30
0.0
 10
111.4860387329896
 20
17.96224418677603
 30
0.0
 10
111.5893668694413
 20
17.89078113323156
 30
0.0
 10
111.7703291525481
 20
17.73664374210519
 30
0.0
 10
111.8485884180713
 20
17.65298273083411
 30
0.0
 10
111.9739409121172
 20
17.47895763152296
 30
0.0
 10
112.0211951011489
 20
17.38902507715578
 30
0.0
 10
112.0851372871575
 20
17.20338146440371
 30
0.0
 10
112.1015009565523
 20
17.10705415727355
 30
0.0
 10
112.1016009759768
 20
16.91669082149593
 30
0.0
 10
112.0858609547318
 20
16.8217096874225
 30
0.0
 10
112.0220551521705
 20
16.63216450587678
 30
0.0
 10
111.9741911992062
 20
16.53904305190208
 30
0.0
 10
111.7877609331716
 20
16.27169786409161
 30
0.0
 10
111.6027118574028
 20
16.10501162027278
 30
0.0
 10
111.3693180368814
 20
15.96384515312705
 30
0.0
  0
SPLINE
  5
14E
330
12E
100
AcDbEntity
  8
0
  6
Continuous
 62
     7
370
    25
100
AcDbSpline
210
0.0
220
0.0
230
1.0
 70
     8
 71
     3
 72
    18
 73
    14
 74
     0
 42
0.000000001
 43
0.00000001
 40
0.0
 40
0.0
 40
0.0
 40
0.0
 40
0.125
 40
0.125
 40
0.2499999999999999
 40
0.2499999999999999
 40
0.5
 40
0.5
 40
0.75
 40
0.75
 40
0.875
 40
0.875
 40
1.0
 40
1.0
 40
1.0
 40
1.0
 10
1.767766952966217
 20
81.29948892072666
 30
0.0
 10
6.334409962365305
 20
78.5941532957302
 30
0.0
 10
10.90102955347589
 20
75.88680716754223
 30
0.0
 10
20.0342601011434
 20
70.4713736188354
 30
0.0
 10
24.60086871081624
 20
67.76308351293746
 30
0.0
 10
38.30084867150966
 20
59.65145289136996
 30
0.0
 10
47.43428487508518
 20
54.26023538599237
 30
0.0
 10
65.70280200425476
 20
43.71404494447378
 30
0.0
 10
74.83623713662755
 20
38.56002208538322
 30
0.0
 10
88.53621682077254
 20
30.85399268962504
 30
0.0
 10
93.10282531113221
 20
28.28978879000726
 30
0.0
 10
102.2360556477908
 20
23.16021892358143
 30
0.0
 10
106.8026751333428
 20
20.59505835957386
 30
0.0
 10
111.3693180368817
 20
18.02786025446613
 30
0.0
  0
SPLINE
  5
14F
330
12E
100
AcDbEntity
  8
0
  6
Continuous
 62
     7
370
    25
100
AcDbSpline
210
0.0
220
0.0
230
1.0
 70
     8
 71
     3
 72
    20
 73
    16
 74
     0
 42
0.000000001
 43
0.00000001
 40
0.0
 40
0.0
 40
0.0
 40
0.0
 40
0.1249999999999995
 40
0.1249999999999995
 40
0.249999999999999
 40
0.249999999999999
 40
0.3749999999999985
 40
0.3749999999999985
 40
0.499999999999998
 40
0.499999999999998
 40
0.6249999999999976
 40
0.6249999999999976
 40
0.749999999999997
 40
0.749999999999997
 40
1.0
 40
1.0
 40
1.0
 40
1.0
 10
-1.767766952966203
 20
81.27649409894389
 30
0.0
 10
-1.651069720727191
 20
81.34707752726288
 30
0.0
 10
-1.52487493467815
 20
81.40971580946976
 30
0.0
 10
-1.254263624682263
 20
81.51975183651663
 30
0.0
 10
-1.108137366308895
 20
81.56753470607703
 30
0.0
 10
-0.8055435214182616
 20
81.64453958004583
 30
0.0
 10
-0.6498190270148931
 20
81.67384952752593
 30
0.0
 10
-0.3295942402288671
 20
81.71424559884092
 30
0.0
 10
-0.1640360655634429
 20
81.72514613635097
 30
0.0
 10
0.1619878694444493
 20
81.72738523268356
 30
0.0
 10
0.3240847049307827
 20
81.71904838730615
 30
0.0
 10
0.6464049803790242
 20
81.6830070958915
 30
0.0
 10
0.8042042236408448
 20
81.65540011704103
 30
0.0
 10
1.255430519189915
 20
81.54676722010603
 30
0.0
 10
1.534324413792691
 20
81.43778315925503
 30
0.0
 10
1.767766952966217
 20
81.29948892072666
 30
0.0
  0
SPLINE
  5
150
330
12E
100
AcDbEntity
  8
0
  6
Continuous
 62
     7
370
    25
100
AcDbSpline
210
0.0
220
0.0
230
1.0
 70
     8
 71
     3
 72
     8
 73
     4
 74
     0
 42
0.000000001
 43
0.00000001
 40
0.0
 40
0.0
 40
0.0
 40
0.0
 40
1.0
 40
1.0
 40
1.0
 40
1.0
 10
-23.2473462307905
 20
68.4281513813009
 30
0.0
 10
-16.08674118784549
 20
72.66376072150241
 30
0.0
 10
-8.926878562140805
 20
76.94636020117643
 30
0.0
 10
-1.767766952966203
 20
81.27649409894389
 30
0.0
  0
SPLINE
  5
152
330
12E
100
AcDbEntity
  8
0
  6
Continuous
 62
     7
370
    25
100
AcDbSpline
210
0.0
220
0.0
230
1.0
 70
     8
 71
     3
 72
    10
 73
     6
 74
     0
 42
0.000000001
 43
0.00000001
 40
0.0
 40
0.0
 40
0.0
 40
0.0
 40
0.5
 40
0.5
 40
1.0
 40
1.0
 40
1.0
 40
1.0
 10
-89.88973875905693
 20
29.95631707075146
 30
0.0
 10
-78.78291110121808
 20
36.25800264375052
 30
0.0
 10
-67.67601319716887
 20
42.57493506937548
 30
0.0
 10
-45.46134109568939
 20
55.39919088599482
 30
0.0
 10
-34.35425107069803
 20
61.90612137835932
 30
0.0
 10
-23.24734623079041
 20
68.42815138130095
 30
0.0
  0
SPLINE
  5
157
330
12E
100
AcDbEntity
  8
0
  6
Continuous
 62
     7
370
    25
100
AcDbSpline
210
0.0
220
0.0
230
1.0
 70
     8
 71
     3
 72
     9
 73
     5
 74
     0
 42
0.000000001
 43
0.00000001
 40
0.0
 40
0.0
 40
0.0
 40
0.0
 40
0.9795898802406113
 40
1.0
 40
1.0
 40
1.0
 40
1.0
 10
77.62112868768715
 20
-4.042532726338401
 30
0.0
 10
76.71129894594063
 20
-4.076982376120121
 30
0.0
 10
75.78251256288505
 20
-4.112149797177254
 30
0.0
 10
74.85377266719418
 20
-4.148123580080019
 30
0.0
 10
74.83481697469782
 20
-4.14885780929726
 30
0.0
  0
SPLINE
  5
15A
330
12E
100
AcDbEntity
  8
0
  6
Continuous
 62
     7
370
    25
100
AcDbSpline
210
0.0
220
0.0
230
1.0
 70
     8
 71
     3
 72
     9
 73
     5
 74
     0
 42
0.000000001
 43
0.00000001
 40
0.0
 40
0.0
 40
0.0
 40
0.0
 40
0.3075635567596674
 40
1.0
 40
1.0
 40
1.0
 40
1.0
 10
61.48622835602247
 20
-13.45632803279078
 30
0.0
 10
61.6444658141336
 20
-13.22381006317872
 30
0.0
 10
62.15895283521712
 20
-12.46781032100593
 30
0.0
 10
62.49701379321431
 20
-11.68100077184797
 30
0.0
 10
62.73109952056831
 20
-11.13618516612151
 30
0.0
  0
SPLINE
  5
15B
330
12E
100
AcDbEntity
  8
0
  6
Continuous
 62
     7
370
    25
100
AcDbSpline
210
0.0
220
0.0
230
1.0
 70
    24
 71
     3
 72
     9
 73
     5
 74
     0
 42
0.000000001
 43
0.00000001
 40
0.0
 40
0.0
 40
0.0
 40
0.0
 40
0.9694959512914493
 40
1.0
 40
1.0
 40
1.0
 40
1.0
 10
-4.999999999999942
 20
-45.46872900173726
 30
0.0
 10
-4.999999999999948
 20
-45.14373328528401
 30
0.0
 10
-4.999999999999948
 20
-44.80851196123378
 30
0.0
 10
-4.999999999999921
 20
-44.47384812645023
 30
0.0
 10
-4.999999999999921
 20
-44.46363952453301
 30
0.0
  0
SPLINE
  5
15E
330
12E
100
AcDbEntity
  8
0
  6
Continuous
 62
     7
370
    25
100
AcDbSpline
210
0.0
220
0.0
230
1.0
 70
     8
 71
     3
 72
     9
 73
     5
 74
     0
 42
0.000000001
 43
0.00000001
 40
0.0
 40
0.0
 40
0.0
 40
0.0
 40
0.0660800055246826
 40
1.0
 40
1.0
 40
1.0
 40
1.0
 10
-19.89507271421523
 20
-37.09979621238664
 30
0.0
 10
-19.82858327407218
 20
-37.11516882601192
 30
0.0
 10
-18.82238723012343
 20
-37.34780521130291
 30
0.0
 10
-17.77465423595436
 20
-37.50606342598151
 30
0.0
 10
-16.79615544382837
 20
-37.65386393695982
 30
0.0
  0
LWPOLYLINE
  5
15F
330
12E
100
AcDbEntity
  8
0
  6
Continuous
 62
     7
370
    25
100
AcDbPolyline
 90
        3
 70
   128
 43
0.0
 10
43.9162371762
 20
-21.9977740021
 10
43.007757221
 20
-23.974873309
 10
42.8667449601
 20
-24.234434802
  0
LWPOLYLINE
  5
160
330
12E
100
AcDbEntity
  8
0
  6
Continuous
 62
     7
370
    25
100
AcDbPolyline
 90
        3
 70
   128
 43
0.0
 10
-42.8710680358
 20
-24.2266165664
 10
-43.2901580752
 20
-23.4237587737
 10
-43.9162371762
 20
-21.9977740021
  0
LINE
  5
17A
330
12E
100
AcDbEntity
  8
0
  6
Continuous
 62
     7
370
    25
100
AcDbLine
 10
96.9238815543
 20
9.7984897426
 30
0.0
 11
96.9238815543
 21
16.3308162377
 31
0.0
  0
LINE
  5
17B
330
12E
100
AcDbEntity
  8
0
  6
Continuous
 62
     7
370
    25
100
AcDbLine
 10
-96.9238815543
 20
16.3308162377
 30
0.0
 11
-96.9238815543
 21
9.7984897426
 31
0.0
  0
LINE
  5
17C
330
12E
100
AcDbEntity
  8
0
  6
Continuous
 62
     7
370
    25
100
AcDbLine
 10
95.9238815543
 20
6.7249183201
 30
0.0
 11
95.9238815543
 21
8.0666266064
 31
0.0
  0
LINE
  5
17D
330
12E
100
AcDbEntity
  8
0
  6
Continuous
 62
     7
370
    25
100
AcDbLine
 10
-95.9238815543
 20
8.0666266064
 30
0.0
 11
-95.9238815543
 21
6.8320813511
 31
0.0
  0
LINE
  5
17E
330
12E
100
AcDbEntity
  8
0
  6
Continuous
 62
     7
370
    25
100
AcDbLine
 10
848.5281374239
 20
-93.8822883574
 30
0.0
 11
-212.132034356
 21
518.4237955096
 31
0.0
  0
LINE
  5
17F
330
12E
100
AcDbEntity
  8
0
  6
Continuous
 62
     7
370
    25
100
AcDbLine
 10
212.132034356
 20
-461.2659386776
 30
0.0
 11
848.5281374239
 21
-93.8822883574
 31
0.0
  0
LINE
  5
180
330
12E
100
AcDbEntity
  8
0
  6
Continuous
 62
     7
370
    25
100
AcDbLine
 10
-848.5281374239
 20
151.0401451894
 30
0.0
 11
212.132034356
 21
-461.2659386776
 31
0.0
  0
LINE
  5
181
330
12E
100
AcDbEntity
  8
0
  6
Continuous
 62
     7
370
    25
100
AcDbLine
 10
-212.132034356
 20
518.4237955096
 30
0.0
 11
-848.5281374239
 21
151.0401451894
 31
0.0
  0
LINE
  5
182
330
12E
100
AcDbEntity
  8
0
  6
Continuous
 62
     7
370
    25
100
AcDbLine
 10
-212.132034356
 20
502.0956332732
 30
0.0
 11
-820.2438661764
 21
151.0401451894
 31
0.0
  0
LINE
  5
183
330
12E
100
AcDbEntity
  8
0
  6
Continuous
 62
     7
370
    25
100
AcDbLine
 10
-820.2438661764
 20
151.0401451894
 30
0.0
 11
212.132034356
 21
-444.9377764412
 31
0.0
  0
LINE
  5
184
330
12E
100
AcDbEntity
  8
0
  6
Continuous
 62
     7
370
    25
100
AcDbLine
 10
212.132034356
 20
-444.9377764412
 30
0.0
 11
820.2438661764
 21
-93.8822883574
 31
0.0
  0
LINE
  5
185
330
12E
100
AcDbEntity
  8
0
  6
Continuous
 62
     7
370
    25
100
AcDbLine
 10
820.2438661764
 20
-93.8822883574
 30
0.0
 11
-212.132034356
 21
502.0956332732
 31
0.0
  0
LINE
  5
186
330
12E
100
AcDbEntity
  8
0
  6
Continuous
 62
     7
370
    25
100
AcDbLine
 10
-848.5281374239
 20
151.0401451894
 30
0.0
 11
-848.5281374239
 21
122.4612167734
 31
0.0
  0
LINE
  5
187
330
12E
100
AcDbEntity
  8
0
  6
Continuous
 62
     7
370
    25
100
AcDbLine
 10
212.132034356
 20
-461.2659386776
 30
0.0
 11
212.132034356
 21
-489.8448670936
 31
0.0
  0
LINE
  5
188
330
12E
100
AcDbEntity
  8
0
  6
Continuous
 62
     7
370
    25
100
AcDbLine
 10
-848.5281374239
 20
122.4612167734
 30
0.0
 11
212.132034356
 21
-489.8448670936
 31
0.0
  0
LINE
  5
189
330
12E
100
AcDbEntity
  8
0
  6
Continuous
 62
     7
370
    25
100
AcDbLine
 10
848.5281374239
 20
-93.8822883574
 30
0.0
 11
848.5281374239
 21
-122.4612167734
 31
0.0
  0
LINE
  5
18A
330
12E
100
AcDbEntity
  8
0
  6
Continuous
 62
     7
370
    25
100
AcDbLine
 10
212.132034356
 20
-489.8448670936
 30
0.0
 11
848.5281374239
 21
-122.4612167734
 31
0.0
  0
LINE
  5
18B
330
12E
100
AcDbEntity
  8
0
  6
Continuous
 62
     7
370
    25
100
AcDbLine
 10
212.132034356
 20
-444.9377764412
 30
0.0
 11
23.2473462308
 21
-35.3563318751
 31
0.0
  0
LINE
  5
18C
330
12E
100
AcDbEntity
  8
0
  6
Continuous
 62
     7
370
    25
100
AcDbLine
 10
-820.2438661764
 20
151.0401451894
 30
0.0
 11
-89.8897387591
 21
29.9563170708
 31
0.0
  0
LINE
  5
18D
330
12E
100
AcDbEntity
  8
0
  6
Continuous
 62
     7
370
    25
100
AcDbLine
 10
820.2438661764
 20
-93.8822883574
 30
0.0
 11
89.8897387591
 21
3.1155024355
 31
0.0
  0
LINE
  5
18E
330
12E
100
AcDbEntity
  8
0
  6
Continuous
 62
     7
370
    25
100
AcDbLine
 10
-23.2473462308
 20
68.4281513813
 30
0.0
 11
-212.132034356
 21
502.0956332732
 31
0.0
  0
LINE
  5
18F
330
12E
100
AcDbEntity
  8
0
  6
Continuous
 62
     7
370
    25
100
AcDbLine
 10
98.656489324
 20
8.3594699416
 30
0.0
 11
96.8732836951
 21
9.3888926393
 31
0.0
  0
LINE
  5
190
330
12E
100
AcDbEntity
  8
0
  6
Continuous
 62
     7
370
    25
100
AcDbLine
 10
-96.8732836951
 20
9.3888926393
 30
0.0
 11
-98.5776246352
 21
8.4049975573
 31
0.0
  0
LINE
  5
191
330
12E
100
AcDbEntity
  8
0
  6
Continuous
 62
     7
370
    25
100
AcDbLine
 10
5.0
 20
-44.4636395245
 30
0.0
 11
5.0
 21
-45.5093368841
 31
0.0
  0
LINE
  5
192
330
12E
100
AcDbEntity
  8
0
  6
Continuous
 62
     7
370
    25
100
AcDbLine
 10
16.9131182505
 20
-37.5863427459
 30
0.0
 11
20.3469937935
 21
-36.9701168305
 31
0.0
  0
LINE
  5
193
330
12E
100
AcDbEntity
  8
0
  6
Continuous
 62
     7
370
    25
100
AcDbLine
 10
-74.8280374816
 20
-4.1527715274
 30
0.0
 11
-77.4961650976
 21
-4.0504123198
 31
0.0
  0
LINE
  5
194
330
12E
100
AcDbEntity
  8
0
  6
Continuous
 62
     7
370
    25
100
AcDbLine
 10
-62.6181064333
 20
-11.201414687
 30
0.0
 11
-61.5073416081
 21
-13.4286013143
 31
0.0
  0
LINE
  5
195
330
12E
100
AcDbEntity
  8
0
  6
Continuous
 62
     7
370
    25
100
AcDbLine
 10
-3.5355339059
 20
71.4383637857
 30
0.0
 11
-95.4594154602
 21
18.3718365173
 31
0.0
  0
LINE
  5
196
330
12E
100
AcDbEntity
  8
0
  6
Continuous
 62
     7
370
    25
100
AcDbLine
 10
95.4594154602
 20
18.3718365173
 30
0.0
 11
3.5355339059
 21
71.4383637857
 31
0.0
  0
LINE
  5
197
330
12E
100
AcDbEntity
  8
0
  6
Continuous
 62
     7
370
    25
100
AcDbLine
 10
3.5355339059
 20
-38.7767313103
 30
0.0
 11
95.4594154602
 21
14.2897959582
 31
0.0
  0
LINE
  5
198
330
12E
100
AcDbEntity
  8
0
  6
Continuous
 62
     7
370
    25
100
AcDbLine
 10
-95.4594154602
 20
14.2897959582
 30
0.0
 11
-3.5355339059
 21
-38.7767313103
 31
0.0
  0
LINE
  5
199
330
12E
100
AcDbEntity
  8
0
  6
Continuous
 62
     7
370
    25
100
AcDbLine
 10
-3.5355339059
 20
-38.7767313103
 30
0.0
 11
-3.5355339059
 21
-45.3090578054
 31
0.0
  0
LINE
  5
19A
330
12E
100
AcDbEntity
  8
0
  6
Continuous
 62
     7
370
    25
100
AcDbLine
 10
3.5355339059
 20
-38.7767313103
 30
0.0
 11
3.5355339059
 21
-45.3090578054
 31
0.0
  0
LINE
  5
19B
330
12E
100
AcDbEntity
  8
0
  6
Continuous
 62
     7
370
    25
100
AcDbLine
 10
95.4594154602
 20
14.2897959582
 30
0.0
 11
95.4594154602
 21
7.7574694631
 31
0.0
  0
LINE
  5
19C
330
12E
100
AcDbEntity
  8
0
  6
Continuous
 62
     7
370
    25
100
AcDbLine
 10
3.5355339059
 20
-45.3090578054
 30
0.0
 11
95.4594154602
 21
7.7574694631
 31
0.0
  0
LINE
  5
19D
330
12E
100
AcDbEntity
  8
0
  6
Continuous
 62
     7
370
    25
100
AcDbLine
 10
-95.4594154602
 20
14.2897959582
 30
0.0
 11
-95.4594154602
 21
7.7574694631
 31
0.0
  0
LINE
  5
19E
330
12E
100
AcDbEntity
  8
0
  6
Continuous
 62
     7
370
    25
100
AcDbLine
 10
-95.4594154602
 20
7.7574694631
 30
0.0
 11
-3.5355339059
 21
-45.3090578054
 31
0.0
  0
LINE
  5
19F
330
12E
100
AcDbEntity
  8
0
  6
Continuous
 62
     7
370
    25
100
AcDbLine
 10
-4.0
 20
-45.0409272366
 30
0.0
 11
-4.0
 21
-46.0305881447
 31
0.0
  0
LINE
  5
1A0
330
12E
100
AcDbEntity
  8
0
  6
Continuous
 62
     7
370
    25
100
AcDbLine
 10
4.0
 20
-45.0409272366
 30
0.0
 11
4.0
 21
-46.0657468344
 31
0.0
  0
LINE
  5
1A1
330
12E
100
AcDbEntity
  8
0
  6
Continuous
 62
    60
370
    25
100
AcDbLine
 10
111.3693180369
 20
15.9638451531
 30
0.0
 11
111.3693180369
 21
18.0278602545
 31
0.0
  0
LINE
  5
1A2
330
12E
100
AcDbEntity
  8
0
  6
Continuous
 62
    60
370
    25
100
AcDbLine
 10
-111.3693180369
 20
15.9868399749
 30
0.0
 11
-111.3693180369
 21
18.0048654327
 31
0.0
  0
LINE
  5
1A3
330
12E
100
AcDbEntity
  8
0
  6
Continuous
 62
    60
370
    25
100
AcDbLine
 10
1.767766953
 20
72.0973595465
 30
0.0
 11
1.767766953
 21
81.2994889207
 31
0.0
  0
LINE
  5
1A4
330
12E
100
AcDbEntity
  8
0
  6
Continuous
 62
    60
370
    25
100
AcDbLine
 10
-1.767766953
 20
72.0973595465
 30
0.0
 11
-1.767766953
 21
81.2764940989
 31
0.0
  0
LINE
  5
1A5
330
12E
100
AcDbEntity
  8
0
  6
Continuous
 62
    60
370
    25
100
AcDbLine
 10
91.9238815543
 20
5.7164491835
 30
0.0
 11
91.9238815543
 21
4.3322564245
 31
0.0
  0
LINE
  5
1A6
330
12E
100
AcDbEntity
  8
0
  6
Continuous
 62
    60
370
    25
100
AcDbLine
 10
-91.9238815543
 20
5.7164491835
 30
0.0
 11
-91.9238815543
 21
4.4612170161
 31
0.0
  0
ARC
  5
1A7
330
12E
100
AcDbEntity
  8
0
  6
Continuous
 62
     7
370
    25
100
AcDbCircle
 10
0.0
 20
64.614808361
 30
0.0
 40
7.685109539561431
100
AcDbArc
 50
62.6096722366
 51
117.3903277634
  0
ARC
  5
1A8
330
12E
100
AcDbEntity
  8
0
  6
Continuous
 62
     7
370
    25
100
AcDbCircle
 10
94.6847803262
 20
16.3308162377
 30
0.0
 40
2.183076584171276
100
AcDbArc
 50
290.7834207995
 51
69.2165792006
  0
ARC
  5
1A9
330
12E
100
AcDbEntity
  8
0
  6
Continuous
 62
     7
370
    25
100
AcDbCircle
 10
0.0
 20
-31.9531758855
 30
0.0
 40
7.685109539561524
100
AcDbArc
 50
242.6096722366
 51
297.3903277634
  0
ARC
  5
1AA
330
12E
100
AcDbEntity
  8
0
  6
Continuous
 62
     7
370
    25
100
AcDbCircle
 10
-94.6847803262
 20
16.3308162377
 30
0.0
 40
2.183076584171281
100
AcDbArc
 50
110.7834207995
 51
249.2165792006
  0
ARC
  5
1AB
330
12E
100
AcDbEntity
  8
0
  6
Continuous
 62
     7
370
    25
100
AcDbCircle
 10
0.0
 20
-38.4855023806
 30
0.0
 40
7.685109539561521
100
AcDbArc
 50
242.6096722366
 51
297.3903277634
  0
ARC
  5
1AC
330
12E
100
AcDbEntity
  8
0
  6
Continuous
 62
     7
370
    25
100
AcDbCircle
 10
94.4215962418
 20
10.0480216271
 30
0.0
 40
2.514696392469268
100
AcDbArc
 50
294.3746582936
 51
354.3052007488
  0
ARC
  5
1AD
330
12E
100
AcDbEntity
  8
0
  6
Continuous
 62
     7
370
    25
100
AcDbCircle
 10
-94.4215962418
 20
10.0480216271
 30
0.0
 40
2.514696392467054
100
AcDbArc
 50
185.6947992512
 51
245.6253417065
  0
VIEWPORT
  5
284
330
12E
100
AcDbEntity
  8
0
100
AcDbViewport
 10
0.0
 20
0.0
 30
0.0
 40
205.6
 41
156.0
 68
     1
 69
     1
 12
0.0
 22
0.0
 13
0.0
 23
0.0
 14
10.0
 24
10.0
 15
10.0
 25
10.0
 16
0.0
 26
0.0
 36
1.0
 17
0.0
 27
0.0
 37
0.0
 42
50.0
 43
0.0
 44
0.0
 45
1160.8949416342
 50
0.0
 51
0.0
 72
   100
 90
   557152
  1

281
     0
 71
     1
 74
     0
110
0.0
120
0.0
130
0.0
111
1.0
121
0.0
131
0.0
112
0.0
122
1.0
132
0.0
 79
     0
146
0.0
  0
ENDBLK
  5
131
330
12E
100
AcDbEntity
  8
0
100
AcDbBlockEnd
  0
BLOCK
  5
1B0
330
1AE
100
AcDbEntity
  8
0
100
AcDbBlockBegin
  2
*Paper_Space6
 70
     0
 10
0.0
 20
0.0
 30
0.0
  3
*Paper_Space6
  1

  0
SPLINE
  5
1C3
330
1AE
100
AcDbEntity
  8
0
  6
Continuous
 62
     7
370
    25
100
AcDbSpline
210
0.0
220
0.0
230
1.0
 70
     8
 71
     3
 72
     8
 73
     4
 74
     0
 42
0.000000001
 43
0.00000001
 40
0.0
 40
0.0
 40
0.0
 40
0.0
 40
1.0
 40
1.0
 40
1.0
 40
1.0
 10
48.76122866680455
 20
-23.33570970729052
 30
0.0
 10
44.03517958284004
 20
-27.84152948017441
 30
0.0
 10
39.30962049941282
 20
-32.29709297988133
 30
0.0
 10
34.58455709211395
 20
-36.70181809673124
 30
0.0
  0
SPLINE
  5
1C6
330
1AE
100
AcDbEntity
  8
0
  6
Continuous
 62
     7
370
    25
100
AcDbSpline
210
0.0
220
0.0
230
1.0
 70
     8
 71
     3
 72
     8
 73
     4
 74
     0
 42
0.000000001
 43
0.00000001
 40
0.0
 40
0.0
 40
0.0
 40
0.0
 40
1.0
 40
1.0
 40
1.0
 40
1.0
 10
-106.9223423762736
 20
1.756725052696202
 30
0.0
 10
-102.1972789689747
 20
6.161450169546133
 30
0.0
 10
-97.47171988554751
 20
10.61701366925304
 30
0.0
 10
-92.745670801583
 20
15.12283344213694
 30
0.0
  0
SPLINE
  5
1C7
330
1AE
100
AcDbEntity
  8
0
  6
Continuous
 62
     7
370
    25
100
AcDbSpline
210
0.0
220
0.0
230
1.0
 70
     8
 71
     3
 72
    20
 73
    16
 74
     0
 42
0.000000001
 43
0.00000001
 40
0.0
 40
0.0
 40
0.0
 40
0.0
 40
0.1250000000000017
 40
0.1250000000000017
 40
0.2500000000000035
 40
0.2500000000000035
 40
0.3750000000000052
 40
0.3750000000000052
 40
0.500000000000007
 40
0.500000000000007
 40
0.6250000000000088
 40
0.6250000000000088
 40
0.7500000000000104
 40
0.7500000000000104
 40
1.0
 40
1.0
 40
1.0
 40
1.0
 10
-105.8780355444056
 20
0.0411767140558739
 30
0.0
 10
-106.0240246673489
 20
0.0827066196267406
 30
0.0
 10
-106.1600250552255
 20
0.1305684551673111
 30
0.0
 10
-106.412862146981
 20
0.2384466476168176
 30
0.0
 10
-106.5308019419919
 20
0.2992127131052069
 30
0.0
 10
-106.7399538234181
 20
0.4297796595344808
 30
0.0
 10
-106.8311032406925
 20
0.4992044035617219
 30
0.0
 10
-106.9867909922598
 20
0.6462711350241346
 30
0.0
 10
-107.0513276992781
 20
0.7244614085131009
 30
0.0
 10
-107.1477207564817
 20
0.8826017008176577
 30
0.0
 10
-107.1805610916164
 20
0.9632781815859665
 30
0.0
 10
-107.2148041880546
 20
1.127926632466199
 30
0.0
 10
-107.2156722187485
 20
1.210677554153133
 30
0.0
 10
-107.170817645493
 20
1.453782797868744
 30
0.0
 10
-107.0763839195598
 20
1.61312684114566
 30
0.0
 10
-106.9223423762736
 20
1.756725052696202
 30
0.0
  0
SPLINE
  5
1C8
330
1AE
100
AcDbEntity
  8
0
  6
Continuous
 62
     7
370
    25
100
AcDbSpline
210
0.0
220
0.0
230
1.0
 70
     8
 71
     3
 72
    18
 73
    14
 74
     0
 42
0.000000001
 43
0.00000001
 40
0.0
 40
0.0
 40
0.0
 40
0.0
 40
0.1249999999999998
 40
0.1249999999999998
 40
0.2499999999999998
 40
0.2499999999999998
 40
0.4999999999999998
 40
0.4999999999999998
 40
0.7499999999999998
 40
0.7499999999999998
 40
0.8749999999999998
 40
0.8749999999999998
 40
1.0
 40
1.0
 40
1.0
 40
1.0
 10
31.20677331559571
 20
-37.21553696195221
 30
0.0
 10
25.49501670372049
 20
-35.73570910561134
 30
0.0
 10
19.78328938241253
 20
-34.25801393609174
 30
0.0
 10
8.359845539517304
 20
-31.3034099396913
 30
0.0
 10
2.64813195330952
 20
-29.82671610268584
 30
0.0
 10
-14.48720158644658
 20
-25.38259036339282
 30
0.0
 10
-25.91090265472378
 20
-22.4023709312868
 30
0.0
 10
-48.76036193737981
 20
-16.1923774870189
 30
0.0
 10
-60.1840616658437
 20
-12.96316294732645
 30
0.0
 10
-77.31939485970513
 20
-8.09325580283937
 30
0.0
 10
-83.0311082966811
 20
-6.465306951325696
 30
0.0
 10
-94.45455187565561
 20
-3.210616499527114
 30
0.0
 10
-100.1662790649357
 20
-1.583661509873491
 30
0.0
 10
-105.8780355444056
 20
0.0411767140558739
 30
0.0
  0
SPLINE
  5
1C9
330
1AE
100
AcDbEntity
  8
0
  6
Continuous
 62
     7
370
    25
100
AcDbSpline
210
0.0
220
0.0
230
1.0
 70
     8
 71
     3
 72
    20
 73
    16
 74
     0
 42
0.000000001
 43
0.00000001
 40
0.0
 40
0.0
 40
0.0
 40
0.0
 40
0.1249999999999983
 40
0.1249999999999983
 40
0.2499999999999965
 40
0.2499999999999965
 40
0.3749999999999948
 40
0.3749999999999948
 40
0.499999999999993
 40
0.499999999999993
 40
0.6249999999999912
 40
0.6249999999999912
 40
0.7499999999999896
 40
0.7499999999999896
 40
1.0
 40
1.0
 40
1.0
 40
1.0
 10
34.58455709211395
 20
-36.70181809673124
 30
0.0
 10
34.50753610796291
 20
-36.77361740060736
 30
0.0
 10
34.41748727238923
 20
-36.84050260202781
 30
0.0
 10
34.21239469575963
 20
-36.96484186968465
 30
0.0
 10
34.09590204752704
 20
-37.02283779129747
 30
0.0
 10
33.84383725566131
 20
-37.12568734675532
 30
0.0
 10
33.70902093213549
 20
-37.17050619044261
 30
0.0
 10
33.42197791831833
 20
-37.24705442472642
 30
0.0
 10
33.26864547101062
 20
-37.27878612148796
 30
0.0
 10
32.95720767455767
 20
-37.32618001496498
 30
0.0
 10
32.7976989127954
 20
-37.34232539715668
 30
0.0
 10
32.47092269411312
 20
-37.35916540262092
 30
0.0
 10
32.30602734529656
 20
-37.35959738095521
 30
0.0
 10
31.81986896722523
 20
-37.33757290643705
 30
0.0
 10
31.49875299604653
 20
-37.2911843842738
 30
0.0
 10
31.20677331559571
 20
-37.21553696195221
 30
0.0
  0
SPLINE
  5
1CA
330
1AE
100
AcDbEntity
  8
0
  6
Continuous
 62
     7
370
    25
100
AcDbSpline
210
0.0
220
0.0
230
1.0
 70
     8
 71
     3
 72
    10
 73
     6
 74
     0
 42
0.000000001
 43
0.00000001
 40
0.0
 40
0.0
 40
0.0
 40
0.0
 40
0.5
 40
0.5
 40
1.0
 40
1.0
 40
1.0
 40
1.0
 10
92.74567080158305
 20
19.5944542216602
 30
0.0
 10
85.4150873713744
 20
12.32395008651598
 30
0.0
 10
78.08445757803618
 20
5.069363580733394
 30
0.0
 10
63.42261963192454
 20
-9.24104122009728
 30
0.0
 10
56.09186303771487
 20
-16.29641661165381
 30
0.0
 10
48.76122866680455
 20
-23.33570970729053
 30
0.0
  0
SPLINE
  5
1CD
330
1AE
100
AcDbEntity
  8
0
  6
Continuous
 62
     7
370
    25
100
AcDbSpline
210
0.0
220
0.0
230
1.0
 70
     8
 71
     3
 72
    10
 73
     6
 74
     0
 42
0.000000001
 43
0.00000001
 40
0.0
 40
0.0
 40
0.0
 40
0.0
 40
0.5
 40
0.5
 40
1.0
 40
1.0
 40
1.0
 40
1.0
 10
-92.74567080158295
 20
15.12283344213698
 30
0.0
 10
-85.41508737137431
 20
22.16207762160743
 30
0.0
 10
-78.0844575780361
 20
29.21732993335734
 30
0.0
 10
-63.42261963192448
 20
43.52773176217748
 30
0.0
 10
-56.09186303771481
 20
50.7824427127367
 30
0.0
 10
-48.76122866680449
 20
58.05299737108766
 30
0.0
  0
SPLINE
  5
1CE
330
1AE
100
AcDbEntity
  8
0
  6
Continuous
 62
     7
370
    25
100
AcDbSpline
210
0.0
220
0.0
230
1.0
 70
     8
 71
     3
 72
     8
 73
     4
 74
     0
 42
0.000000001
 43
0.00000001
 40
0.0
 40
0.0
 40
0.0
 40
0.0
 40
1.0
 40
1.0
 40
1.0
 40
1.0
 10
106.9223423762736
 20
33.90207795793117
 30
0.0
 10
102.1972789689748
 20
29.08318959670379
 30
0.0
 10
97.47171988554756
 20
24.31417202813956
 30
0.0
 10
92.74567080158305
 20
19.5944542216602
 30
0.0
  0
SPLINE
  5
1CF
330
1AE
100
AcDbEntity
  8
0
  6
Continuous
 62
     7
370
    25
100
AcDbSpline
210
0.0
220
0.0
230
1.0
 70
     8
 71
     3
 72
    20
 73
    16
 74
     0
 42
0.000000001
 43
0.00000001
 40
0.0
 40
0.0
 40
0.0
 40
0.0
 40
0.1250000000000017
 40
0.1250000000000017
 40
0.2500000000000035
 40
0.2500000000000035
 40
0.3750000000000052
 40
0.3750000000000052
 40
0.500000000000007
 40
0.500000000000007
 40
0.6250000000000088
 40
0.6250000000000088
 40
0.7500000000000104
 40
0.7500000000000104
 40
1.0
 40
1.0
 40
1.0
 40
1.0
 10
105.8780355444057
 20
35.66590412673153
 30
0.0
 10
106.0240246673489
 20
35.62808060140745
 30
0.0
 10
106.1600250552255
 20
35.58316440772963
 30
0.0
 10
106.412862146981
 20
35.47973116556694
 30
0.0
 10
106.530801941992
 20
35.42046860797833
 30
0.0
 10
106.7399538234182
 20
35.29134143503934
 30
0.0
 10
106.8311032406925
 20
35.22187080751163
 30
0.0
 10
106.9867909922598
 20
35.07321322723422
 30
0.0
 10
107.0513276992782
 20
34.99344893664767
 30
0.0
 10
107.1477207564817
 20
34.83077998204511
 30
0.0
 10
107.1805610916164
 20
34.74714946271243
 30
0.0
 10
107.2148041880547
 20
34.57519479061126
 30
0.0
 10
107.2156722187486
 20
34.48813502800889
 30
0.0
 10
107.170817645493
 20
34.23053611041475
 30
0.0
 10
107.0763839195598
 20
34.0591782835989
 30
0.0
 10
106.9223423762736
 20
33.90207795793117
 30
0.0
  0
SPLINE
  5
1D0
330
1AE
100
AcDbEntity
  8
0
  6
Continuous
 62
     7
370
    25
100
AcDbSpline
210
0.0
220
0.0
230
1.0
 70
     8
 71
     3
 72
    18
 73
    14
 74
     0
 42
0.000000001
 43
0.00000001
 40
0.0
 40
0.0
 40
0.0
 40
0.0
 40
0.125
 40
0.125
 40
0.2499999999999999
 40
0.2499999999999999
 40
0.5
 40
0.5
 40
0.75
 40
0.75
 40
0.875
 40
0.875
 40
1.0
 40
1.0
 40
1.0
 40
1.0
 10
-31.20677331559566
 20
72.92261780273962
 30
0.0
 10
-25.49501670372044
 20
71.29777954114459
 30
0.0
 10
-19.78328938241247
 20
69.67082451382544
 30
0.0
 10
-8.359845539517199
 20
66.41613398681369
 30
0.0
 10
-2.648131953309471
 20
64.78818509279225
 30
0.0
 10
14.48720158644661
 20
59.91827785144237
 30
0.0
 10
25.91090265472383
 20
56.68906294344192
 30
0.0
 10
48.76036193737986
 20
50.47906953103468
 30
0.0
 10
60.18406166584374
 20
47.49885045888578
 30
0.0
 10
77.31939485970517
 20
43.05472481074349
 30
0.0
 10
83.03110829668117
 20
41.57803101234623
 30
0.0
 10
94.45455187565571
 20
38.62342708418863
 30
0.0
 10
100.1662790649357
 20
37.14573194876822
 30
0.0
 10
105.8780355444057
 20
35.66590412673153
 30
0.0
  0
SPLINE
  5
1D1
330
1AE
100
AcDbEntity
  8
0
  6
Continuous
 62
     7
370
    25
100
AcDbSpline
210
0.0
220
0.0
230
1.0
 70
     8
 71
     3
 72
    20
 73
    16
 74
     0
 42
0.000000001
 43
0.00000001
 40
0.0
 40
0.0
 40
0.0
 40
0.0
 40
0.1249999999999995
 40
0.1249999999999995
 40
0.249999999999999
 40
0.249999999999999
 40
0.3749999999999985
 40
0.3749999999999985
 40
0.499999999999998
 40
0.499999999999998
 40
0.6249999999999976
 40
0.6249999999999976
 40
0.749999999999997
 40
0.749999999999997
 40
1.0
 40
1.0
 40
1.0
 40
1.0
 10
-34.58455709211395
 20
72.36062110735858
 30
0.0
 10
-34.50753610796293
 20
72.43917148692012
 30
0.0
 10
-34.41748727238931
 20
72.51235170616553
 30
0.0
 10
-34.21239469575971
 20
72.64841205607442
 30
0.0
 10
-34.09590204752708
 20
72.711885379355
 30
0.0
 10
-33.84383725566131
 20
72.82446999688494
 30
0.0
 10
-33.7090209321355
 20
72.87354286235701
 30
0.0
 10
-33.42197791831831
 20
72.95737529706679
 30
0.0
 10
-33.26864547101068
 20
72.99213766024948
 30
0.0
 10
-32.95720767455768
 20
73.044070688106
 30
0.0
 10
-32.79769891279542
 20
73.0617704791438
 30
0.0
 10
-32.47092269411313
 20
73.08023755261276
 30
0.0
 10
-32.30602734529662
 20
73.08071672736615
 30
0.0
 10
-31.8198689672252
 20
73.05656709020147
 30
0.0
 10
-31.49875299604649
 20
73.00567802197558
 30
0.0
 10
-31.20677331559566
 20
72.92261780273962
 30
0.0
  0
SPLINE
  5
1D2
330
1AE
100
AcDbEntity
  8
0
  6
Continuous
 62
     7
370
    25
100
AcDbSpline
210
0.0
220
0.0
230
1.0
 70
     8
 71
     3
 72
     8
 73
     4
 74
     0
 42
0.000000001
 43
0.00000001
 40
0.0
 40
0.0
 40
0.0
 40
0.0
 40
1.0
 40
1.0
 40
1.0
 40
1.0
 10
-48.76122866680455
 20
58.0529973710876
 30
0.0
 10
-44.03517958284004
 20
62.77271517756698
 30
0.0
 10
-39.30962049941284
 20
67.54173274613117
 30
0.0
 10
-34.58455709211395
 20
72.36062110735858
 30
0.0
  0
SPLINE
  5
1D8
330
1AE
100
AcDbEntity
  8
0
  6
Continuous
 62
     7
370
    25
100
AcDbSpline
210
0.0
220
0.0
230
1.0
 70
     8
 71
     3
 72
    10
 73
     6
 74
     0
 42
0.000000001
 43
0.00000001
 40
0.0
 40
0.0
 40
0.0
 40
0.0
 40
0.2751746785067488
 40
0.7335677383602984
 40
1.0
 40
1.0
 40
1.0
 40
1.0
 10
40.33122039805275
 20
-27.60044148959592
 30
0.0
 10
41.18368252131973
 20
-27.23541008457322
 30
0.0
 10
43.45619798384779
 20
-26.26229997260329
 30
0.0
 10
46.32050749935764
 20
-24.79449773133897
 30
0.0
 10
48.18942996302297
 20
-23.64676128308732
 30
0.0
 10
48.87641098321934
 20
-23.22487478353178
 30
0.0
  0
SPLINE
  5
1D9
330
1AE
100
AcDbEntity
  8
0
  6
Continuous
 62
     7
370
    25
100
AcDbSpline
210
0.0
220
0.0
230
1.0
 70
     8
 71
     3
 72
    11
 73
     7
 74
     0
 42
0.000000001
 43
0.00000001
 40
0.0
 40
0.0
 40
0.0
 40
0.0
 40
0.0019659399601625
 40
0.4387414257610908
 40
0.8785412287598974
 40
1.0
 40
1.0
 40
1.0
 40
1.0
 10
62.8253593418461
 20
-9.777961797040478
 30
0.0
 10
62.82775741268131
 20
-9.774077618929827
 30
0.0
 10
63.36293805839757
 20
-8.9072404434783
 30
0.0
 10
64.00911116133453
 20
-7.131553876486597
 30
0.0
 10
64.67748602664916
 20
-5.11335613852872
 30
0.0
 10
64.77350024833389
 20
-3.97096544724394
 30
0.0
 10
64.79427813917185
 20
-3.723747184560405
 30
0.0
  0
LWPOLYLINE
  5
1DE
330
1AE
100
AcDbEntity
  8
0
  6
Continuous
 62
     7
370
    25
100
AcDbPolyline
 90
        9
 70
   128
 43
0.0
 10
92.2444687979
 20
29.9258188284
 10
92.6147383354
 20
30.3932386389
 10
92.80084016
 20
30.8888814008
 10
92.7956224831
 20
31.3936998408
 10
92.599285817
 20
31.8882940694
 10
92.2193752697
 20
32.3536571077
 10
91.6704905905
 20
32.7719053152
 10
90.9737251097
 20
33.1269656477
 10
90.1558551341
 20
33.4051933359
  0
LWPOLYLINE
  5
1E2
330
1AE
100
AcDbEntity
  8
0
  6
Continuous
 62
     7
370
    25
100
AcDbPolyline
 90
        9
 70
   128
 43
0.0
 10
-92.2444687979
 20
4.3608731996
 10
-92.6147383354
 20
3.8934533892
 10
-92.80084016
 20
3.3978106273
 10
-92.7956224831
 20
2.8929921873
 10
-92.599285817
 20
2.3983979587
 10
-92.2193752697
 20
1.9330349204
 10
-91.6704905905
 20
1.5147867129
 10
-90.9737251097
 20
1.1597263804
 10
-90.1558551341
 20
0.8814986922
  0
LINE
  5
1EF
330
1AE
100
AcDbEntity
  8
0
  6
Continuous
 62
     7
370
    25
100
AcDbLine
 10
31.1519776286
 20
-37.2341584321
 30
0.0
 11
31.1519776286
 21
-36.490975213
 31
0.0
  0
LINE
  5
1F0
330
1AE
100
AcDbEntity
  8
0
  6
Continuous
 62
     7
370
    25
100
AcDbLine
 10
-92.8223781895
 20
3.1590437262
 30
0.0
 11
-92.8223781895
 21
-3.6982946794
 31
0.0
  0
LINE
  5
1F1
330
1AE
100
AcDbEntity
  8
0
  6
Continuous
 62
     7
370
    25
100
AcDbLine
 10
92.8223781895
 20
24.2703098962
 30
0.0
 11
92.8223781895
 21
31.1276483019
 31
0.0
  0
LINE
  5
1F2
330
1AE
100
AcDbEntity
  8
0
  6
Continuous
 62
     7
370
    25
100
AcDbLine
 10
91.8223781895
 20
18.684253132
 30
0.0
 11
91.8223781895
 21
22.6565070493
 31
0.0
  0
LINE
  5
1F3
330
1AE
100
AcDbEntity
  8
0
  6
Continuous
 62
     7
370
    25
100
AcDbLine
 10
873.3265162766
 20
54.7054875736
 30
0.0
 11
-453.3006662395
 21
415.2543295994
 31
0.0
  0
LINE
  5
1F4
330
1AE
100
AcDbEntity
  8
0
  6
Continuous
 62
     7
370
    25
100
AcDbLine
 10
453.3006662395
 20
-355.2526185503
 30
0.0
 11
873.3265162766
 21
54.7054875736
 31
0.0
  0
LINE
  5
1F5
330
1AE
100
AcDbEntity
  8
0
  6
Continuous
 62
     7
370
    25
100
AcDbLine
 10
-873.3265162766
 20
5.2962234756
 30
0.0
 11
453.3006662395
 21
-355.2526185503
 31
0.0
  0
LINE
  5
1F6
330
1AE
100
AcDbEntity
  8
0
  6
Continuous
 62
     7
370
    25
100
AcDbLine
 10
-453.3006662395
 20
415.2543295994
 30
0.0
 11
-873.3265162766
 21
5.2962234756
 31
0.0
  0
LINE
  5
1F7
330
1AE
100
AcDbEntity
  8
0
  6
Continuous
 62
     7
370
    25
100
AcDbLine
 10
-444.9462115846
 20
401.3368315697
 30
0.0
 11
-846.3042460644
 21
9.599085718
 31
0.0
  0
LINE
  5
1F8
330
1AE
100
AcDbEntity
  8
0
  6
Continuous
 62
     7
370
    25
100
AcDbLine
 10
-846.3042460644
 20
9.599085718
 30
0.0
 11
444.9462115846
 21
-341.3351205205
 31
0.0
  0
LINE
  5
1F9
330
1AE
100
AcDbEntity
  8
0
  6
Continuous
 62
     7
370
    25
100
AcDbLine
 10
444.9462115846
 20
-341.3351205205
 30
0.0
 11
846.3042460644
 21
50.4026253311
 31
0.0
  0
LINE
  5
1FA
330
1AE
100
AcDbEntity
  8
0
  6
Continuous
 62
     7
370
    25
100
AcDbLine
 10
846.3042460644
 20
50.4026253311
 30
0.0
 11
-444.9462115846
 21
401.3368315697
 31
0.0
  0
LINE
  5
1FB
330
1AE
100
AcDbEntity
  8
0
  6
Continuous
 62
     7
370
    25
100
AcDbLine
 10
-873.3265162766
 20
5.2962234756
 30
0.0
 11
-873.3265162766
 21
-24.704632049
 31
0.0
  0
LINE
  5
1FC
330
1AE
100
AcDbEntity
  8
0
  6
Continuous
 62
     7
370
    25
100
AcDbLine
 10
453.3006662395
 20
-355.2526185503
 30
0.0
 11
453.3006662395
 21
-385.2534740749
 31
0.0
  0
LINE
  5
1FD
330
1AE
100
AcDbEntity
  8
0
  6
Continuous
 62
     7
370
    25
100
AcDbLine
 10
-873.3265162766
 20
-24.704632049
 30
0.0
 11
453.3006662395
 21
-385.2534740749
 31
0.0
  0
LINE
  5
1FE
330
1AE
100
AcDbEntity
  8
0
  6
Continuous
 62
     7
370
    25
100
AcDbLine
 10
873.3265162766
 20
54.7054875736
 30
0.0
 11
873.3265162766
 21
24.704632049
 31
0.0
  0
LINE
  5
1FF
330
1AE
100
AcDbEntity
  8
0
  6
Continuous
 62
     7
370
    25
100
AcDbLine
 10
453.3006662395
 20
-385.2534740749
 30
0.0
 11
873.3265162766
 21
24.704632049
 31
0.0
  0
LINE
  5
200
330
1AE
100
AcDbEntity
  8
0
  6
Continuous
 62
     7
370
    25
100
AcDbLine
 10
444.9462115846
 20
-341.3351205205
 30
0.0
 11
48.7612286668
 21
-23.3357097073
 31
0.0
  0
LINE
  5
201
330
1AE
100
AcDbEntity
  8
0
  6
Continuous
 62
     7
370
    25
100
AcDbLine
 10
-846.3042460644
 20
9.599085718
 30
0.0
 11
-92.7456708016
 21
15.1228334421
 31
0.0
  0
LINE
  5
202
330
1AE
100
AcDbEntity
  8
0
  6
Continuous
 62
     7
370
    25
100
AcDbLine
 10
846.3042460644
 20
50.4026253311
 30
0.0
 11
92.7456708016
 21
19.5944542217
 31
0.0
  0
LINE
  5
203
330
1AE
100
AcDbEntity
  8
0
  6
Continuous
 62
     7
370
    25
100
AcDbLine
 10
-48.7612286668
 20
58.0529973711
 30
0.0
 11
-444.9462115846
 21
401.3368315697
 31
0.0
  0
LINE
  5
204
330
1AE
100
AcDbEntity
  8
0
  6
Continuous
 62
     7
370
    25
100
AcDbLine
 10
-92.8223781895
 20
-2.3106791519
 30
0.0
 11
-93.9054164341
 21
-3.3677576808
 31
0.0
  0
LINE
  5
205
330
1AE
100
AcDbEntity
  8
0
  6
Continuous
 62
     7
370
    25
100
AcDbLine
 10
94.1406613438
 20
21.0023305126
 30
0.0
 11
91.8223781895
 21
21.6323901991
 31
0.0
  0
LINE
  5
206
330
1AE
100
AcDbEntity
  8
0
  6
Continuous
 62
     7
370
    25
100
AcDbLine
 10
82.5273196969
 20
9.5209908491
 30
0.0
 11
77.2836026029
 21
8.4662163699
 31
0.0
  0
LINE
  5
207
330
1AE
100
AcDbEntity
  8
0
  6
Continuous
 62
     7
370
    25
100
AcDbLine
 10
64.6647968002
 20
-3.8501249409
 30
0.0
 11
64.7707525956
 21
-4.436448033
 31
0.0
  0
LINE
  5
208
330
1AE
100
AcDbEntity
  8
0
  6
Continuous
 62
     7
370
    25
100
AcDbLine
 10
-31.574068237
 20
63.5770440842
 30
0.0
 11
-92.2444687979
 21
4.3608731996
 31
0.0
  0
LINE
  5
209
330
1AE
100
AcDbEntity
  8
0
  6
Continuous
 62
     7
370
    25
100
AcDbLine
 10
90.1558551341
 20
33.4051933359
 30
0.0
 11
-24.8185006839
 21
64.6527596448
 31
0.0
  0
LINE
  5
20A
330
1AE
100
AcDbEntity
  8
0
  6
Continuous
 62
     7
370
    25
100
AcDbLine
 10
31.574068237
 20
-29.2903520561
 30
0.0
 11
92.2444687979
 21
29.9258188284
 31
0.0
  0
LINE
  5
20B
330
1AE
100
AcDbEntity
  8
0
  6
Continuous
 62
     7
370
    25
100
AcDbLine
 10
-90.1558551341
 20
0.8814986922
 30
0.0
 11
24.8185006839
 21
-30.3660676167
 31
0.0
  0
LINE
  5
20C
330
1AE
100
AcDbEntity
  8
0
  6
Continuous
 62
     7
370
    25
100
AcDbLine
 10
31.574068237
 20
-29.2903520561
 30
0.0
 11
31.574068237
 21
-36.1476904617
 31
0.0
  0
LINE
  5
20D
330
1AE
100
AcDbEntity
  8
0
  6
Continuous
 62
     7
370
    25
100
AcDbLine
 10
92.2444687979
 20
29.9258188284
 30
0.0
 11
92.2444687979
 21
23.0684804228
 31
0.0
  0
LINE
  5
20E
330
1AE
100
AcDbEntity
  8
0
  6
Continuous
 62
     7
370
    25
100
AcDbLine
 10
31.574068237
 20
-36.1476904617
 30
0.0
 11
92.2444687979
 21
23.0684804228
 31
0.0
  0
LINE
  5
20F
330
1AE
100
AcDbEntity
  8
0
  6
Continuous
 62
    60
370
    25
100
AcDbLine
 10
-106.9223423763
 20
0.6079828094
 30
0.0
 11
-106.9223423763
 21
1.7567250527
 31
0.0
  0
LINE
  5
210
330
1AE
100
AcDbEntity
  8
0
  6
Continuous
 62
    60
370
    25
100
AcDbLine
 10
-34.5845570921
 20
60.6387146708
 30
0.0
 11
-34.5845570921
 21
72.3606211074
 31
0.0
  0
LINE
  5
211
330
1AE
100
AcDbEntity
  8
0
  6
Continuous
 62
    60
370
    25
100
AcDbLine
 10
105.8780355444
 20
32.8481246984
 30
0.0
 11
105.8780355444
 21
35.6659041267
 31
0.0
  0
LINE
  5
212
330
1AE
100
AcDbEntity
  8
0
  6
Continuous
 62
    60
370
    25
100
AcDbLine
 10
-31.2067733156
 20
63.8819656894
 30
0.0
 11
-31.2067733156
 21
72.9226178027
 31
0.0
  0
LINE
  5
213
330
1AE
100
AcDbEntity
  8
0
  6
Continuous
 62
    60
370
    25
100
AcDbLine
 10
24.8185006839
 20
-30.3660676167
 30
0.0
 11
24.8185006839
 21
-35.562063942
 31
0.0
  0
LINE
  5
214
330
1AE
100
AcDbEntity
  8
0
  6
Continuous
 62
    60
370
    25
100
AcDbLine
 10
-90.1558551341
 20
0.8814986922
 30
0.0
 11
-90.1558551341
 21
-4.4353610484
 31
0.0
  0
LINE
  5
215
330
1AE
100
AcDbEntity
  8
0
  6
Continuous
 62
    60
370
    25
100
AcDbLine
 10
89.0038764974
 20
19.9055629926
 30
0.0
 11
89.0038764974
 21
15.9057154531
 31
0.0
  0
ARC
  5
216
330
1AE
100
AcDbEntity
  8
0
  6
Continuous
 62
     7
370
    25
100
AcDbCircle
 10
-27.1104672824
 20
57.2958954606
 30
0.0
 40
7.705618827397328
100
AcDbArc
 50
72.6960345908
 51
125.398914916
  0
ARC
  5
217
330
1AE
100
AcDbEntity
  8
0
  6
Continuous
 62
     7
370
    25
100
AcDbCircle
 10
27.1104672824
 20
-23.0092034325
 30
0.0
 40
7.705618827397321
100
AcDbArc
 50
252.6960345908
 51
305.398914916
  0
ARC
  5
218
330
1AE
100
AcDbEntity
  8
0
  6
Continuous
 62
     7
370
    25
100
AcDbCircle
 10
28.6607071532
 20
-32.9214096175
 30
0.0
 40
4.347017470650972
100
AcDbArc
 50
291.1354887459
 51
312.0823247377
  0
ARC
  5
219
330
1AE
100
AcDbEntity
  8
0
  6
Continuous
 62
     7
370
    25
100
AcDbCircle
 10
91.1630990458
 20
24.3283267181
 30
0.0
 40
1.660293115189345
100
AcDbArc
 50
310.6406362012
 51
357.9974645045
  0
VIEWPORT
  5
286
330
1AE
100
AcDbEntity
  8
0
100
AcDbViewport
 10
0.0
 20
0.0
 30
0.0
 40
205.6
 41
156.0
 68
     1
 69
     1
 12
0.0
 22
0.0
 13
0.0
 23
0.0
 14
10.0
 24
10.0
 15
10.0
 25
10.0
 16
0.0
 26
0.0
 36
1.0
 17
0.0
 27
0.0
 37
0.0
 42
50.0
 43
0.0
 44
0.0
 45
1160.8949416342
 50
0.0
 51
0.0
 72
   100
 90
   557152
  1

281
     0
 71
     1
 74
     0
110
0.0
120
0.0
130
0.0
111
1.0
121
0.0
131
0.0
112
0.0
122
1.0
132
0.0
 79
     0
146
0.0
  0
ENDBLK
  5
1B1
330
1AE
100
AcDbEntity
  8
0
100
AcDbBlockEnd
  0
BLOCK
  5
21C
330
21A
100
AcDbEntity
  8
0
100
AcDbBlockBegin
  2
*Paper_Space7
 70
     0
 10
0.0
 20
0.0
 30
0.0
  3
*Paper_Space7
  1

  0
SPLINE
  5
22E
330
21A
100
AcDbEntity
  8
0
  6
Continuous
 62
     7
370
    25
100
AcDbSpline
210
0.0
220
0.0
230
1.0
 70
     8
 71
     3
 72
     8
 73
     4
 74
     0
 42
0.000000001
 43
0.00000001
 40
0.0
 40
0.0
 40
0.0
 40
0.0
 40
1.0
 40
1.0
 40
1.0
 40
1.0
 10
58.17254960968683
 20
-5.02836726220136
 30
0.0
 10
54.59224708903568
 20
-8.068262729560502
 30
0.0
 10
51.01231577700459
 20
-11.05307935711752
 30
0.0
 10
47.43275997323848
 20
-13.98217917624109
 30
0.0
  0
SPLINE
  5
231
330
21A
100
AcDbEntity
  8
0
  6
Continuous
 62
     7
370
    25
100
AcDbSpline
210
0.0
220
0.0
230
1.0
 70
     8
 71
     3
 72
     8
 73
     4
 74
     0
 42
0.000000001
 43
0.00000001
 40
0.0
 40
0.0
 40
0.0
 40
0.0
 40
1.0
 40
1.0
 40
1.0
 40
1.0
 10
-102.2335355026242
 20
4.874001646587946
 30
0.0
 10
-98.65397969885811
 20
7.803101465711528
 30
0.0
 10
-95.07404838682703
 20
10.78791809326853
 30
0.0
 10
-91.4937458661759
 20
13.82781356062767
 30
0.0
  0
SPLINE
  5
232
330
21A
100
AcDbEntity
  8
0
  6
Continuous
 62
     7
370
    25
100
AcDbSpline
210
0.0
220
0.0
230
1.0
 70
     8
 71
     3
 72
    20
 73
    16
 74
     0
 42
0.000000001
 43
0.00000001
 40
0.0
 40
0.0
 40
0.0
 40
0.0
 40
0.1250000000000017
 40
0.1250000000000017
 40
0.2500000000000035
 40
0.2500000000000035
 40
0.3750000000000052
 40
0.3750000000000052
 40
0.500000000000007
 40
0.500000000000007
 40
0.6250000000000088
 40
0.6250000000000088
 40
0.7500000000000104
 40
0.7500000000000104
 40
1.0
 40
1.0
 40
1.0
 40
1.0
 10
-100.7788831120947
 20
3.826412560611721
 30
0.0
 10
-100.9332900794778
 20
3.847904356963604
 30
0.0
 10
-101.0793995139948
 20
3.87370095202651
 30
0.0
 10
-101.3556993069163
 20
3.933560230138106
 30
0.0
 10
-101.4871640585474
 20
3.968059805446976
 30
0.0
 10
-101.7259329732321
 20
4.0436061499351
 30
0.0
 10
-101.8330823438367
 20
4.084418030101129
 30
0.0
 10
-102.0231314050942
 20
4.172074708471557
 30
0.0
 10
-102.1061648349598
 20
4.21926504423973
 30
0.0
 10
-102.2403922340159
 20
4.315809213730943
 30
0.0
 10
-102.2927372487845
 20
4.365589105792229
 30
0.0
 10
-102.3671924765219
 20
4.468243348557291
 30
0.0
 10
-102.3884732078938
 20
4.52036551750442
 30
0.0
 10
-102.4041726983752
 20
4.675027040021051
 30
0.0
 10
-102.3502324128581
 20
4.778510217651747
 30
0.0
 10
-102.2335355026242
 20
4.874001646587946
 30
0.0
  0
SPLINE
  5
233
330
21A
100
AcDbEntity
  8
0
  6
Continuous
 62
     7
370
    25
100
AcDbSpline
210
0.0
220
0.0
230
1.0
 70
     8
 71
     3
 72
    18
 73
    14
 74
     0
 42
0.000000001
 43
0.00000001
 40
0.0
 40
0.0
 40
0.0
 40
0.0
 40
0.1249999999999998
 40
0.1249999999999998
 40
0.2499999999999998
 40
0.2499999999999998
 40
0.4999999999999998
 40
0.4999999999999998
 40
0.7499999999999998
 40
0.7499999999999998
 40
0.8749999999999998
 40
0.8749999999999998
 40
1.0
 40
1.0
 40
1.0
 40
1.0
 10
44.2103406301482
 20
-14.44051261150403
 30
0.0
 10
38.16923976530942
 20
-13.75915482340874
 30
0.0
 10
32.12816987995442
 20
-13.08013795138014
 30
0.0
 10
20.04604153168523
 20
-11.7229673261356
 30
0.0
 10
14.00498617340678
 20
-11.04504955664076
 30
0.0
 10
-4.118383798468832
 20
-8.995880765672434
 30
0.0
 10
-16.20078420393217
 20
-7.610578019195876
 30
0.0
 10
-40.3677607775774
 20
-4.565825148235242
 30
0.0
 10
-52.45015976597274
 20
-2.906649344735841
 30
0.0
 10
-70.57352937200915
 20
-0.3891582001733507
 30
0.0
 10
-76.61458457245098
 20
0.4551268774812753
 30
0.0
 10
-88.69671264158156
 20
2.142366394368274
 30
0.0
 10
-94.73778238729582
 20
2.985556032444065
 30
0.0
 10
-100.7788831120947
 20
3.826412560611725
 30
0.0
  0
SPLINE
  5
234
330
21A
100
AcDbEntity
  8
0
  6
Continuous
 62
     7
370
    25
100
AcDbSpline
210
0.0
220
0.0
230
1.0
 70
     8
 71
     3
 72
    20
 73
    16
 74
     0
 42
0.000000001
 43
0.00000001
 40
0.0
 40
0.0
 40
0.0
 40
0.0
 40
0.1249999999999983
 40
0.1249999999999983
 40
0.2499999999999965
 40
0.2499999999999965
 40
0.3749999999999948
 40
0.3749999999999948
 40
0.499999999999993
 40
0.499999999999993
 40
0.6249999999999912
 40
0.6249999999999912
 40
0.7499999999999896
 40
0.7499999999999896
 40
1.0
 40
1.0
 40
1.0
 40
1.0
 10
47.43275997323848
 20
-13.98217917624109
 30
0.0
 10
47.37441135713235
 20
-14.02992502244434
 30
0.0
 10
47.30189855387745
 20
-14.07515721087844
 30
0.0
 10
47.1296978851929
 20
-14.16079560128454
 30
0.0
 10
47.02870875760776
 20
-14.20159786650607
 30
0.0
 10
46.80449059814169
 20
-14.27582908442105
 30
0.0
 10
46.68200276147446
 20
-14.30920532052565
 30
0.0
 10
46.41645567202732
 20
-14.36855043497577
 30
0.0
 10
46.27229979079246
 20
-14.39456633744672
 30
0.0
 10
45.97520419210904
 20
-14.43682344680506
 30
0.0
 10
45.82099359794741
 20
-14.45342239467002
 30
0.0
 10
45.50097944185248
 20
-14.47735698245671
 30
0.0
 10
45.33746349387376
 20
-14.4844318343095
 30
0.0
 10
44.84949661316715
 20
-14.49084626747905
 30
0.0
 10
44.51915608219664
 20
-14.47534298729896
 30
0.0
 10
44.2103406301482
 20
-14.44051261150403
 30
0.0
  0
SPLINE
  5
235
330
21A
100
AcDbEntity
  8
0
  6
Continuous
 62
     7
370
    25
100
AcDbSpline
210
0.0
220
0.0
230
1.0
 70
     8
 71
     3
 72
    10
 73
     6
 74
     0
 42
0.000000001
 43
0.00000001
 40
0.0
 40
0.0
 40
0.0
 40
0.0
 40
0.5
 40
0.5
 40
1.0
 40
1.0
 40
1.0
 40
1.0
 10
91.49374586617593
 20
24.35816563246003
 30
0.0
 10
85.9403320385305
 20
19.33333213413422
 30
0.0
 10
80.38688308758118
 20
14.32602543268016
 30
0.0
 10
69.27954703938953
 20
4.530274160654202
 30
0.0
 10
63.72600202836662
 20
-0.2578663330803036
 30
0.0
 10
58.17254960968682
 20
-5.028367262201367
 30
0.0
  0
SPLINE
  5
238
330
21A
100
AcDbEntity
  8
0
  6
Continuous
 62
     7
370
    25
100
AcDbSpline
210
0.0
220
0.0
230
1.0
 70
     8
 71
     3
 72
    10
 73
     6
 74
     0
 42
0.000000001
 43
0.00000001
 40
0.0
 40
0.0
 40
0.0
 40
0.0
 40
0.5
 40
0.5
 40
1.0
 40
1.0
 40
1.0
 40
1.0
 10
-91.49374586617586
 20
13.82781356062771
 30
0.0
 10
-85.94033203853043
 20
18.59828133945748
 30
0.0
 10
-80.38688308758111
 20
23.38633786619988
 30
0.0
 10
-69.2795470393895
 20
33.18208586927425
 30
0.0
 10
-63.72600202836658
 20
38.18947803906804
 30
0.0
 10
-58.17254960968678
 20
43.21434645528907
 30
0.0
  0
SPLINE
  5
239
330
21A
100
AcDbEntity
  8
0
  6
Continuous
 62
     7
370
    25
100
AcDbSpline
210
0.0
220
0.0
230
1.0
 70
     8
 71
     3
 72
     8
 73
     4
 74
     0
 42
0.000000001
 43
0.00000001
 40
0.0
 40
0.0
 40
0.0
 40
0.0
 40
1.0
 40
1.0
 40
1.0
 40
1.0
 10
102.2335355026243
 20
34.34756205967368
 30
0.0
 10
98.65397969885817
 20
30.96291890474882
 30
0.0
 10
95.07404838682707
 20
27.63333022393443
 30
0.0
 10
91.49374586617593
 20
24.35816563246003
 30
0.0
  0
SPLINE
  5
23A
330
21A
100
AcDbEntity
  8
0
  6
Continuous
 62
     7
370
    25
100
AcDbSpline
210
0.0
220
0.0
230
1.0
 70
     8
 71
     3
 72
    20
 73
    16
 74
     0
 42
0.000000001
 43
0.00000001
 40
0.0
 40
0.0
 40
0.0
 40
0.0
 40
0.1250000000000017
 40
0.1250000000000017
 40
0.2500000000000035
 40
0.2500000000000035
 40
0.3750000000000052
 40
0.3750000000000052
 40
0.500000000000007
 40
0.500000000000007
 40
0.6250000000000088
 40
0.6250000000000088
 40
0.7500000000000104
 40
0.7500000000000104
 40
1.0
 40
1.0
 40
1.0
 40
1.0
 10
100.7788831120948
 20
35.44825253524668
 30
0.0
 10
100.9332900794778
 20
35.43083743291409
 30
0.0
 10
101.0793995139948
 20
35.40828078620115
 30
0.0
 10
101.3556993069163
 20
35.35331056453919
 30
0.0
 10
101.4871640585475
 20
35.32046471638589
 30
0.0
 10
101.7259329732321
 20
35.24650199677868
 30
0.0
 10
101.8330823438367
 20
35.20563964877627
 30
0.0
 10
102.0231314050942
 20
35.11623317588452
 30
0.0
 10
102.1061648349599
 20
35.06731155901168
 30
0.0
 10
102.2403922340159
 20
34.96578625718207
 30
0.0
 10
102.2927372487845
 20
34.91275718113363
 30
0.0
 10
102.367192476522
 20
34.80206673420926
 30
0.0
 10
102.3884732078938
 20
34.74520521721352
 30
0.0
 10
102.4041726983752
 20
34.57460192140749
 30
0.0
 10
102.3502324128582
 20
34.45790463290821
 30
0.0
 10
102.2335355026243
 20
34.34756205967368
 30
0.0
  0
SPLINE
  5
23B
330
21A
100
AcDbEntity
  8
0
  6
Continuous
 62
     7
370
    25
100
AcDbSpline
210
0.0
220
0.0
230
1.0
 70
     8
 71
     3
 72
    18
 73
    14
 74
     0
 42
0.000000001
 43
0.00000001
 40
0.0
 40
0.0
 40
0.0
 40
0.0
 40
0.125
 40
0.125
 40
0.2499999999999999
 40
0.2499999999999999
 40
0.5
 40
0.5
 40
0.75
 40
0.75
 40
0.875
 40
0.875
 40
1.0
 40
1.0
 40
1.0
 40
1.0
 10
-44.21034063014816
 20
53.71517770736242
 30
0.0
 10
-38.16923976530939
 20
52.87432115970274
 30
0.0
 10
-32.12816987995437
 20
52.03113150207252
 30
0.0
 10
-20.04604153168515
 20
50.343891946184
 30
0.0
 10
-14.00498617340674
 20
49.49960684649926
 30
0.0
 10
4.118383798468857
 20
46.98211565270397
 30
0.0
 10
16.2007842039322
 20
45.32293966607814
 30
0.0
 10
40.36776077757742
 20
42.27818683016145
 30
0.0
 10
52.45015976597277
 20
40.89288425762606
 30
0.0
 10
70.57352937200918
 20
38.84371550960776
 30
0.0
 10
76.61458457245104
 20
38.16579775785387
 30
0.0
 10
88.69671264158163
 20
36.80862716394412
 30
0.0
 10
94.73778238729585
 20
36.12961030754727
 30
0.0
 10
100.7788831120948
 20
35.44825253524667
 30
0.0
  0
SPLINE
  5
23C
330
21A
100
AcDbEntity
  8
0
  6
Continuous
 62
     7
370
    25
100
AcDbSpline
210
0.0
220
0.0
230
1.0
 70
     8
 71
     3
 72
    20
 73
    16
 74
     0
 42
0.000000001
 43
0.00000001
 40
0.0
 40
0.0
 40
0.0
 40
0.0
 40
0.1249999999999995
 40
0.1249999999999995
 40
0.249999999999999
 40
0.249999999999999
 40
0.3749999999999985
 40
0.3749999999999985
 40
0.499999999999998
 40
0.499999999999998
 40
0.6249999999999976
 40
0.6249999999999976
 40
0.749999999999997
 40
0.749999999999997
 40
1.0
 40
1.0
 40
1.0
 40
1.0
 10
-47.43275997323848
 20
53.20374288250269
 30
0.0
 10
-47.37441135713237
 20
53.258914321343
 30
0.0
 10
-47.30189855387751
 20
53.31107047866579
 30
0.0
 10
-47.12969788519298
 20
53.40960103413188
 30
0.0
 10
-47.02870875760779
 20
53.45642796199824
 30
0.0
 10
-46.80449059814169
 20
53.54136689652195
 30
0.0
 10
-46.68200276147446
 20
53.57942218442732
 30
0.0
 10
-46.41645567202728
 20
53.64677928208875
 30
0.0
 10
-46.27229979079254
 20
53.67612865248552
 30
0.0
 10
-45.97520419210905
 20
53.72337841255577
 30
0.0
 10
-45.82099359794742
 20
53.74168707416421
 30
0.0
 10
-45.50097944185248
 20
53.76741129441226
 30
0.0
 10
-45.33746349387381
 20
53.77453805819709
 30
0.0
 10
-44.84949661316713
 20
53.77861499837503
 30
0.0
 10
-44.5191560821966
 20
53.75816151125566
 30
0.0
 10
-44.21034063014816
 20
53.71517770736242
 30
0.0
  0
SPLINE
  5
23D
330
21A
100
AcDbEntity
  8
0
  6
Continuous
 62
     7
370
    25
100
AcDbSpline
210
0.0
220
0.0
230
1.0
 70
     8
 71
     3
 72
     8
 73
     4
 74
     0
 42
0.000000001
 43
0.00000001
 40
0.0
 40
0.0
 40
0.0
 40
0.0
 40
1.0
 40
1.0
 40
1.0
 40
1.0
 10
-58.17254960968683
 20
43.21434645528903
 30
0.0
 10
-54.59224708903568
 20
46.48951104676344
 30
0.0
 10
-51.0123157770046
 20
49.81909972757779
 30
0.0
 10
-47.43275997323848
 20
53.20374288250269
 30
0.0
  0
SPLINE
  5
23E
330
21A
100
AcDbEntity
  8
0
  6
Continuous
 62
     7
370
    25
100
AcDbSpline
210
0.0
220
0.0
230
1.0
 70
     8
 71
     3
 72
     9
 73
     5
 74
     0
 42
0.000000001
 43
0.00000001
 40
0.0
 40
0.0
 40
0.0
 40
0.0
 40
0.9821790330065316
 40
0.9999999999999999
 40
0.9999999999999999
 40
0.9999999999999999
 40
0.9999999999999999
 10
73.00531921940978
 20
7.831507263712184
 30
0.0
 10
72.10896578626019
 20
7.653636478030452
 30
0.0
 10
71.19634863294364
 20
7.472538348560858
 30
0.0
 10
70.28377715769203
 20
7.290443351669266
 30
0.0
 10
70.2675142515524
 20
7.287198242739983
 30
0.0
  0
SPLINE
  5
23F
330
21A
100
AcDbEntity
  8
0
  6
Continuous
 62
     7
370
    25
100
AcDbSpline
210
0.0
220
0.0
230
1.0
 70
     8
 71
     3
 72
     9
 73
     5
 74
     0
 42
0.000000001
 43
0.00000001
 40
0.0
 40
0.0
 40
0.0
 40
0.0
 40
0.2773802686769277
 40
1.0
 40
1.0
 40
1.0
 40
1.0
 10
64.6465112902032
 20
0.5516587613347591
 30
0.0
 10
64.62277740035445
 20
0.671802935628114
 30
0.0
 10
64.53721295136913
 20
1.104941798988618
 30
0.0
 10
64.27575265586913
 20
1.529523720923225
 30
0.0
 10
64.08681628738326
 20
1.836334995276245
 30
0.0
  0
LWPOLYLINE
  5
240
330
21A
100
AcDbEntity
  8
0
  6
Continuous
 62
     7
370
    25
100
AcDbPolyline
 90
        3
 70
   128
 43
0.0
 10
61.2218504987
 20
-0.6903273353
 10
62.0212651679
 20
-1.4857108719
 10
62.196349901
 20
-1.6748171597
  0
LWPOLYLINE
  5
244
330
21A
100
AcDbEntity
  8
0
  6
Continuous
 62
     7
370
    25
100
AcDbPolyline
 90
        9
 70
   128
 43
0.0
 10
88.459974654
 20
30.8739125631
 10
88.7149802561
 20
31.189385422
 10
88.7804488922
 20
31.5153796
 10
88.6538646392
 20
31.8393673238
 10
88.340092059
 20
32.1488979267
 10
87.8511892559
 20
32.4320763213
 10
87.2059444905
 20
32.6780201208
 10
86.4291541572
 20
32.8772778427
 10
85.5506698729
 20
33.0221921246
  0
LWPOLYLINE
  5
248
330
21A
100
AcDbEntity
  8
0
  6
Continuous
 62
     7
370
    25
100
AcDbPolyline
 90
        9
 70
   128
 43
0.0
 10
-88.459974654
 20
6.8384491013
 10
-88.7149802561
 20
6.5229762424
 10
-88.7804488922
 20
6.1969820644
 10
-88.6538646392
 20
5.8729943406
 10
-88.340092059
 20
5.5634637377
 10
-87.8511892559
 20
5.2802853431
 10
-87.2059444905
 20
5.0343415436
 10
-86.4291541572
 20
4.8350838217
 10
-85.5506698729
 20
4.6901695398
  0
LWPOLYLINE
  5
24B
330
21A
100
AcDbEntity
  8
0
  6
Continuous
 62
     7
370
    25
100
AcDbPolyline
 90
        3
 70
   128
 43
0.0
 10
88.459974654
 20
23.3314402302
 10
88.7149802561
 20
23.6469130891
 10
88.7829029204
 20
23.9206958809
  0
LINE
  5
254
330
21A
100
AcDbEntity
  8
0
  6
Continuous
 62
     7
370
    25
100
AcDbLine
 10
-88.7829029204
 20
6.2491934506
 30
0.0
 11
-88.7829029204
 21
2.1535201609
 31
0.0
  0
LINE
  5
255
330
21A
100
AcDbEntity
  8
0
  6
Continuous
 62
     7
370
    25
100
AcDbLine
 10
88.7829029204
 20
23.9206958809
 30
0.0
 11
88.7829029204
 21
31.4631682138
 31
0.0
  0
LINE
  5
256
330
21A
100
AcDbEntity
  8
0
  6
Continuous
 62
     7
370
    25
100
AcDbLine
 10
87.7829029204
 20
21.032762542
 30
0.0
 11
87.7829029204
 21
22.7343190879
 31
0.0
  0
LINE
  5
257
330
21A
100
AcDbEntity
  8
0
  6
Continuous
 62
     7
370
    25
100
AcDbLine
 10
860.6597857736
 20
84.9221208246
 30
0.0
 11
-542.4617343126
 21
261.6988160386
 31
0.0
  0
LINE
  5
258
330
21A
100
AcDbEntity
  8
0
  6
Continuous
 62
     7
370
    25
100
AcDbLine
 10
542.4617343126
 20
-195.7021831259
 30
0.0
 11
860.6597857736
 21
84.9221208246
 31
0.0
  0
LINE
  5
259
330
21A
100
AcDbEntity
  8
0
  6
Continuous
 62
     7
370
    25
100
AcDbLine
 10
-860.6597857736
 20
-18.9254879119
 30
0.0
 11
542.4617343126
 21
-195.7021831259
 31
0.0
  0
LINE
  5
25A
330
21A
100
AcDbEntity
  8
0
  6
Continuous
 62
     7
370
    25
100
AcDbLine
 10
-542.4617343126
 20
261.6988160386
 30
0.0
 11
-860.6597857736
 21
-18.9254879119
 31
0.0
  0
LINE
  5
25B
330
21A
100
AcDbEntity
  8
0
  6
Continuous
 62
     7
370
    25
100
AcDbLine
 10
-530.8245151884
 20
253.1056977924
 30
0.0
 11
-834.8804310289
 21
-15.0464148714
 31
0.0
  0
LINE
  5
25C
330
21A
100
AcDbEntity
  8
0
  6
Continuous
 62
     7
370
    25
100
AcDbLine
 10
-834.8804310289
 20
-15.0464148714
 30
0.0
 11
530.8245151884
 21
-187.1090648797
 31
0.0
  0
LINE
  5
25D
330
21A
100
AcDbEntity
  8
0
  6
Continuous
 62
     7
370
    25
100
AcDbLine
 10
530.8245151884
 20
-187.1090648797
 30
0.0
 11
834.8804310289
 21
81.0430477841
 31
0.0
  0
LINE
  5
25E
330
21A
100
AcDbEntity
  8
0
  6
Continuous
 62
     7
370
    25
100
AcDbLine
 10
834.8804310289
 20
81.0430477841
 30
0.0
 11
-530.8245151884
 21
253.1056977924
 31
0.0
  0
LINE
  5
25F
330
21A
100
AcDbEntity
  8
0
  6
Continuous
 62
     7
370
    25
100
AcDbLine
 10
-860.6597857736
 20
-18.9254879119
 30
0.0
 11
-860.6597857736
 21
-51.9238043682
 31
0.0
  0
LINE
  5
260
330
21A
100
AcDbEntity
  8
0
  6
Continuous
 62
     7
370
    25
100
AcDbLine
 10
542.4617343126
 20
-195.7021831259
 30
0.0
 11
542.4617343126
 21
-228.7004995822
 31
0.0
  0
LINE
  5
261
330
21A
100
AcDbEntity
  8
0
  6
Continuous
 62
     7
370
    25
100
AcDbLine
 10
-860.6597857736
 20
-51.9238043682
 30
0.0
 11
542.4617343126
 21
-228.7004995822
 31
0.0
  0
LINE
  5
262
330
21A
100
AcDbEntity
  8
0
  6
Continuous
 62
     7
370
    25
100
AcDbLine
 10
860.6597857736
 20
84.9221208246
 30
0.0
 11
860.6597857736
 21
51.9238043682
 31
0.0
  0
LINE
  5
263
330
21A
100
AcDbEntity
  8
0
  6
Continuous
 62
     7
370
    25
100
AcDbLine
 10
542.4617343126
 20
-228.7004995822
 30
0.0
 11
860.6597857736
 21
51.9238043682
 31
0.0
  0
LINE
  5
264
330
21A
100
AcDbEntity
  8
0
  6
Continuous
 62
     7
370
    25
100
AcDbLine
 10
530.8245151884
 20
-187.1090648797
 30
0.0
 11
58.1725496097
 21
-5.0283672622
 31
0.0
  0
LINE
  5
265
330
21A
100
AcDbEntity
  8
0
  6
Continuous
 62
     7
370
    25
100
AcDbLine
 10
-834.8804310289
 20
-15.0464148714
 30
0.0
 11
-91.4937458662
 21
13.8278135606
 31
0.0
  0
LINE
  5
266
330
21A
100
AcDbEntity
  8
0
  6
Continuous
 62
     7
370
    25
100
AcDbLine
 10
834.8804310289
 20
81.0430477841
 30
0.0
 11
91.4937458662
 21
24.3581656325
 31
0.0
  0
LINE
  5
267
330
21A
100
AcDbEntity
  8
0
  6
Continuous
 62
     7
370
    25
100
AcDbLine
 10
-58.1725496097
 20
43.2143464553
 30
0.0
 11
-530.8245151884
 21
253.1056977924
 31
0.0
  0
LINE
  5
268
330
21A
100
AcDbEntity
  8
0
  6
Continuous
 62
     7
370
    25
100
AcDbLine
 10
-42.4980338874
 20
47.3730707831
 30
0.0
 11
-88.459974654
 21
6.8384491013
 31
0.0
  0
LINE
  5
269
330
21A
100
AcDbEntity
  8
0
  6
Continuous
 62
     7
370
    25
100
AcDbLine
 10
85.5506698729
 20
33.0221921246
 30
0.0
 11
-36.0531952012
 21
48.3428390432
 31
0.0
  0
LINE
  5
26A
330
21A
100
AcDbEntity
  8
0
  6
Continuous
 62
     7
370
    25
100
AcDbLine
 10
42.4980338874
 20
-9.6607091187
 30
0.0
 11
88.459974654
 21
30.8739125631
 31
0.0
  0
LINE
  5
26B
330
21A
100
AcDbEntity
  8
0
  6
Continuous
 62
     7
370
    25
100
AcDbLine
 10
-85.5506698729
 20
4.6901695398
 30
0.0
 11
36.0531952012
 21
-10.6304773788
 31
0.0
  0
LINE
  5
26C
330
21A
100
AcDbEntity
  8
0
  6
Continuous
 62
     7
370
    25
100
AcDbLine
 10
88.459974654
 20
30.8739125631
 30
0.0
 11
88.459974654
 21
23.3314402302
 31
0.0
  0
LINE
  5
26D
330
21A
100
AcDbEntity
  8
0
  6
Continuous
 62
     7
370
    25
100
AcDbLine
 10
45.5982542264
 20
-14.4690441093
 30
0.0
 11
88.459974654
 21
23.3314402302
 31
0.0
  0
LINE
  5
26E
330
21A
100
AcDbEntity
  8
0
  6
Continuous
 62
    60
370
    25
100
AcDbLine
 10
-102.2335355026
 20
4.345970017
 30
0.0
 11
-102.2335355026
 21
4.8740016466
 31
0.0
  0
LINE
  5
26F
330
21A
100
AcDbEntity
  8
0
  6
Continuous
 62
    60
370
    25
100
AcDbLine
 10
-47.4327599732
 20
43.0210514458
 30
0.0
 11
-47.4327599732
 21
53.2037428825
 31
0.0
  0
LINE
  5
270
330
21A
100
AcDbEntity
  8
0
  6
Continuous
 62
    60
370
    25
100
AcDbLine
 10
100.7788831121
 20
32.994546788
 30
0.0
 11
100.7788831121
 21
35.4482525352
 31
0.0
  0
LINE
  5
271
330
21A
100
AcDbEntity
  8
0
  6
Continuous
 62
    60
370
    25
100
AcDbLine
 10
-44.2103406301
 20
45.8629581798
 30
0.0
 11
-44.2103406301
 21
53.7151777074
 31
0.0
  0
LINE
  5
272
330
21A
100
AcDbEntity
  8
0
  6
Continuous
 62
    60
370
    25
100
AcDbLine
 10
36.0531952012
 20
-10.6304773788
 30
0.0
 11
36.0531952012
 21
-13.5226565133
 31
0.0
  0
LINE
  5
273
330
21A
100
AcDbEntity
  8
0
  6
Continuous
 62
    60
370
    25
100
AcDbLine
 10
42.4980338874
 20
-9.6607091187
 30
0.0
 11
42.4980338874
 21
-14.2478408982
 31
0.0
  0
LINE
  5
274
330
21A
100
AcDbEntity
  8
0
  6
Continuous
 62
    60
370
    25
100
AcDbLine
 10
-85.5506698729
 20
4.6901695398
 30
0.0
 11
-85.5506698729
 21
1.7027709922
 31
0.0
  0
LINE
  5
275
330
21A
100
AcDbEntity
  8
0
  6
Continuous
 62
    60
370
    25
100
AcDbLine
 10
85.4286542317
 20
20.658066903
 30
0.0
 11
85.4286542317
 21
18.9230462378
 31
0.0
  0
ARC
  5
276
330
21A
100
AcDbEntity
  8
0
  6
Continuous
 62
     7
370
    25
100
AcDbCircle
 10
-37.8934071433
 20
38.6721482657
 30
0.0
 40
9.84421861322383
100
AcDbArc
 50
79.2261330329
 51
117.8883001309
  0
ARC
  5
277
330
21A
100
AcDbEntity
  8
0
  6
Continuous
 62
     7
370
    25
100
AcDbCircle
 10
37.8934071433
 20
-0.9597866013
 30
0.0
 40
9.844218613223749
100
AcDbArc
 50
259.2261330329
 51
297.8883001309
  0
VIEWPORT
  5
288
330
21A
100
AcDbEntity
  8
0
100
AcDbViewport
 10
0.0
 20
0.0
 30
0.0
 40
205.6
 41
156.0
 68
     1
 69
     1
 12
0.0
 22
0.0
 13
0.0
 23
0.0
 14
10.0
 24
10.0
 15
10.0
 25
10.0
 16
0.0
 26
0.0
 36
1.0
 17
0.0
 27
0.0
 37
0.0
 42
50.0
 43
0.0
 44
0.0
 45
1160.8949416342
 50
0.0
 51
0.0
 72
   100
 90
   557152
  1

281
     0
 71
     1
 74
     0
110
0.0
120
0.0
130
0.0
111
1.0
121
0.0
131
0.0
112
0.0
122
1.0
132
0.0
 79
     0
146
0.0
  0
ENDBLK
  5
21D
330
21A
100
AcDbEntity
  8
0
100
AcDbBlockEnd
  0
ENDSEC
  0
SECTION
  2
ENTITIES
  0
SPLINE
  5
73
330
1F
100
AcDbEntity
  8
0
  6
Continuous
 62
     7
370
    25
100
AcDbSpline
210
0.0
220
0.0
230
1.0
 70
    24
 71
     3
 72
     8
 73
     4
 74
     0
 42
0.000000001
 43
0.00000001
 40
0.0
 40
0.0
 40
0.0
 40
0.0
 40
1.0
 40
1.0
 40
1.0
 40
1.0
 10
80.00000000000007
 20
-47.12328767123286
 30
0.0
 10
80.00000000000007
 20
-57.24991243776284
 30
0.0
 10
80.00000000000007
 20
-67.37548726776267
 30
0.0
 10
80.00000000000007
 20
-77.50000000000001
 30
0.0
  0
SPLINE
  5
77
330
1F
100
AcDbEntity
  8
0
  6
Continuous
 62
     7
370
    25
100
AcDbSpline
210
0.0
220
0.0
230
1.0
 70
    24
 71
     3
 72
     8
 73
     4
 74
     0
 42
0.000000001
 43
0.00000001
 40
0.0
 40
0.0
 40
0.0
 40
0.0
 40
1.0
 40
1.0
 40
1.0
 40
1.0
 10
-80.00000000000007
 20
-77.50000000000001
 30
0.0
 10
-80.00000000000007
 20
-67.37548726776265
 30
0.0
 10
-80.00000000000007
 20
-57.24991243776284
 30
0.0
 10
-80.00000000000007
 20
-47.12328767123286
 30
0.0
  0
SPLINE
  5
78
330
1F
100
AcDbEntity
  8
0
  6
Continuous
 62
     7
370
    25
100
AcDbSpline
210
0.0
220
0.0
230
1.0
 70
     8
 71
     3
 72
    20
 73
    16
 74
     0
 42
0.000000001
 43
0.00000001
 40
0.0
 40
0.0
 40
0.0
 40
0.0
 40
0.1250000000000017
 40
0.1250000000000017
 40
0.2500000000000035
 40
0.2500000000000035
 40
0.3750000000000052
 40
0.3750000000000052
 40
0.500000000000007
 40
0.500000000000007
 40
0.6250000000000088
 40
0.6250000000000088
 40
0.7500000000000104
 40
0.7500000000000104
 40
1.0
 40
1.0
 40
1.0
 40
1.0
 10
-77.50000000000057
 20
-79.99999999999996
 30
0.0
 10
-77.66506799144605
 20
-79.99999999999997
 30
0.0
 10
-77.82738403154926
 20
-79.98381201184147
 30
0.0
 10
-78.14673636032309
 20
-79.92037899811534
 30
0.0
 10
-78.3054256792967
 20
-79.87236499382577
 30
0.0
 10
-78.60806270244812
 20
-79.74700316783138
 30
0.0
 10
-78.75160606139407
 20
-79.6702873238931
 30
0.0
 10
-79.02328259609338
 20
-79.48903869585497
 30
0.0
 10
-79.15192431774702
 20
-79.38353869738964
 30
0.0
 10
-79.38252475228617
 20
-79.15307971167708
 30
0.0
 10
-79.4860117189685
 20
-79.02733299347797
 30
0.0
 10
-79.66880131479084
 20
-78.7543083663153
 30
0.0
 10
-79.74650494375206
 20
-78.60891488592327
 30
0.0
 10
-79.93368819142415
 20
-78.15807942758813
 30
0.0
 10
-80.00000000000006
 20
-77.83006870635545
 30
0.0
 10
-80.00000000000007
 20
-77.50000000000001
 30
0.0
  0
SPLINE
  5
79
330
1F
100
AcDbEntity
  8
0
  6
Continuous
 62
     7
370
    25
100
AcDbSpline
210
0.0
220
0.0
230
1.0
 70
    24
 71
     3
 72
    18
 73
    14
 74
     0
 42
0.000000001
 43
0.00000001
 40
0.0
 40
0.0
 40
0.0
 40
0.0
 40
0.1249999999999998
 40
0.1249999999999998
 40
0.2499999999999998
 40
0.2499999999999998
 40
0.4999999999999998
 40
0.4999999999999998
 40
0.7499999999999998
 40
0.7499999999999998
 40
0.8749999999999998
 40
0.8749999999999998
 40
1.0
 40
1.0
 40
1.0
 40
1.0
 10
77.50000000000057
 20
-79.99999999999996
 30
0.0
 10
71.04179152159209
 20
-79.99999999999994
 30
0.0
 10
64.58361616164481
 20
-79.99999999999991
 30
0.0
 10
51.66727765285319
 20
-79.9999999999999
 30
0.0
 10
45.20911782300404
 20
-79.99999999999994
 30
0.0
 10
25.83442035835174
 20
-79.99999999999999
 30
0.0
 10
12.91779100818579
 20
-79.99999999999994
 30
0.0
 10
-12.91779368033107
 20
-79.99999999999996
 30
0.0
 10
-25.8344215155876
 20
-79.99999999999994
 30
0.0
 10
-45.20911858914133
 20
-79.99999999999997
 30
0.0
 10
-51.66727825025608
 20
-79.99999999999991
 30
0.0
 10
-64.583616460636
 20
-79.99999999999991
 30
0.0
 10
-71.04179167130098
 20
-79.99999999999997
 30
0.0
 10
-77.50000000000058
 20
-79.99999999999996
 30
0.0
  0
SPLINE
  5
7A
330
1F
100
AcDbEntity
  8
0
  6
Continuous
 62
     7
370
    25
100
AcDbSpline
210
0.0
220
0.0
230
1.0
 70
     8
 71
     3
 72
    20
 73
    16
 74
     0
 42
0.000000001
 43
0.00000001
 40
0.0
 40
0.0
 40
0.0
 40
0.0
 40
0.1249999999999983
 40
0.1249999999999983
 40
0.2499999999999965
 40
0.2499999999999965
 40
0.3749999999999948
 40
0.3749999999999948
 40
0.499999999999993
 40
0.499999999999993
 40
0.6249999999999912
 40
0.6249999999999912
 40
0.7499999999999896
 40
0.7499999999999896
 40
1.0
 40
1.0
 40
1.0
 40
1.0
 10
80.00000000000007
 20
-77.50000000000001
 30
0.0
 10
80.00000000000007
 20
-77.66503480852387
 30
0.0
 10
79.98381845328463
 20
-77.82731963973981
 30
0.0
 10
79.9204098101651
 20
-78.14661318134803
 30
0.0
 10
79.87241552885595
 20
-78.30527263644927
 30
0.0
 10
79.74709136630995
 20
-78.60788079323817
 30
0.0
 10
79.67039677285601
 20
-78.75141389176316
 30
0.0
 10
79.48919421068845
 20
-79.02307756607642
 30
0.0
 10
79.3837106011322
 20
-79.15172857249384
 30
0.0
 10
79.15327130152734
 20
-79.38235674343532
 30
0.0
 10
79.02753305486209
 20
-79.48585803993261
 30
0.0
 10
78.75452278202656
 20
-79.66867747206382
 30
0.0
 10
78.60909916240999
 20
-79.74641568240037
 30
0.0
 10
78.15821183239932
 20
-79.93365869925444
 30
0.0
 10
77.83013760493459
 20
-79.99999999999997
 30
0.0
 10
77.50000000000057
 20
-79.99999999999996
 30
0.0
  0
SPLINE
  5
7C
330
1F
100
AcDbEntity
  8
0
  6
Continuous
 62
     7
370
    25
100
AcDbSpline
210
0.0
220
0.0
230
1.0
 70
     8
 71
     3
 72
    10
 73
     6
 74
     0
 42
0.000000001
 43
0.00000001
 40
0.0
 40
0.0
 40
0.0
 40
0.0
 40
0.5
 40
0.5
 40
1.0
 40
1.0
 40
1.0
 40
1.0
 10
80.00000000000007
 20
47.12328767123297
 30
0.0
 10
80.00000000000007
 20
31.41586136257669
 30
0.0
 10
79.99999999965856
 20
15.70833571111854
 30
0.0
 10
79.99999999965851
 20
-15.70795485846493
 30
0.0
 10
80.00000000000007
 20
-31.41575221064817
 30
0.0
 10
80.00000000000007
 20
-47.12328767123287
 30
0.0
  0
SPLINE
  5
7F
330
1F
100
AcDbEntity
  8
0
  6
Continuous
 62
     7
370
    25
100
AcDbSpline
210
0.0
220
0.0
230
1.0
 70
    24
 71
     3
 72
     8
 73
     4
 74
     0
 42
0.000000001
 43
0.00000001
 40
0.0
 40
0.0
 40
0.0
 40
0.0
 40
1.0
 40
1.0
 40
1.0
 40
1.0
 10
80.00000000000007
 20
77.50000000000013
 30
0.0
 10
80.00000000000007
 20
67.37548726776278
 30
0.0
 10
80.00000000000007
 20
57.24991243776295
 30
0.0
 10
80.00000000000007
 20
47.12328767123297
 30
0.0
  0
SPLINE
  5
80
330
1F
100
AcDbEntity
  8
0
  6
Continuous
 62
     7
370
    25
100
AcDbSpline
210
0.0
220
0.0
230
1.0
 70
     8
 71
     3
 72
    20
 73
    16
 74
     0
 42
0.000000001
 43
0.00000001
 40
0.0
 40
0.0
 40
0.0
 40
0.0
 40
0.1250000000000017
 40
0.1250000000000017
 40
0.2500000000000035
 40
0.2500000000000035
 40
0.3750000000000052
 40
0.3750000000000052
 40
0.500000000000007
 40
0.500000000000007
 40
0.6250000000000088
 40
0.6250000000000088
 40
0.7500000000000104
 40
0.7500000000000104
 40
1.0
 40
1.0
 40
1.0
 40
1.0
 10
77.50000000000057
 20
80.00000000000007
 30
0.0
 10
77.66506799144605
 20
80.00000000000006
 30
0.0
 10
77.82738403154926
 20
79.98381201184154
 30
0.0
 10
78.14673636032308
 20
79.92037899811541
 30
0.0
 10
78.30542567929673
 20
79.87236499382594
 30
0.0
 10
78.60806270244814
 20
79.74700316783156
 30
0.0
 10
78.75160606139406
 20
79.67028732389319
 30
0.0
 10
79.02328259609337
 20
79.4890386958551
 30
0.0
 10
79.15192431774702
 20
79.38353869738977
 30
0.0
 10
79.38252475228617
 20
79.1530797116772
 30
0.0
 10
79.48601171896853
 20
79.02733299347808
 30
0.0
 10
79.66880131479085
 20
78.75430836631546
 30
0.0
 10
79.74650494375206
 20
78.60891488592341
 30
0.0
 10
79.93368819142408
 20
78.15807942758848
 30
0.0
 10
80.00000000000006
 20
77.83006870635556
 30
0.0
 10
80.00000000000007
 20
77.50000000000013
 30
0.0
  0
SPLINE
  5
81
330
1F
100
AcDbEntity
  8
0
  6
Continuous
 62
     7
370
    25
100
AcDbSpline
210
0.0
220
0.0
230
1.0
 70
    24
 71
     3
 72
    18
 73
    14
 74
     0
 42
0.000000001
 43
0.00000001
 40
0.0
 40
0.0
 40
0.0
 40
0.0
 40
0.125
 40
0.125
 40
0.2499999999999999
 40
0.2499999999999999
 40
0.5
 40
0.5
 40
0.75
 40
0.75
 40
0.875
 40
0.875
 40
1.0
 40
1.0
 40
1.0
 40
1.0
 10
-77.50000000000057
 20
80.00000000000007
 30
0.0
 10
-71.0417915215921
 20
80.00000000000009
 30
0.0
 10
-64.58361616164484
 20
80.00000000000011
 30
0.0
 10
-51.66727765285319
 20
80.00000000000013
 30
0.0
 10
-45.20911782300404
 20
80.00000000000006
 30
0.0
 10
-25.83442035835174
 20
80.00000000000004
 30
0.0
 10
-12.9177910081858
 20
80.00000000000007
 30
0.0
 10
12.91779368033105
 20
80.00000000000009
 30
0.0
 10
25.83442151558758
 20
80.00000000000009
 30
0.0
 10
45.2091185891413
 20
80.00000000000011
 30
0.0
 10
51.66727825025607
 20
80.0000000000001
 30
0.0
 10
64.583616460636
 20
80.00000000000011
 30
0.0
 10
71.041791671301
 20
80.00000000000009
 30
0.0
 10
77.50000000000058
 20
80.00000000000007
 30
0.0
  0
SPLINE
  5
82
330
1F
100
AcDbEntity
  8
0
  6
Continuous
 62
     7
370
    25
100
AcDbSpline
210
0.0
220
0.0
230
1.0
 70
     8
 71
     3
 72
    20
 73
    16
 74
     0
 42
0.000000001
 43
0.00000001
 40
0.0
 40
0.0
 40
0.0
 40
0.0
 40
0.1249999999999995
 40
0.1249999999999995
 40
0.249999999999999
 40
0.249999999999999
 40
0.3749999999999985
 40
0.3749999999999985
 40
0.499999999999998
 40
0.499999999999998
 40
0.6249999999999976
 40
0.6249999999999976
 40
0.749999999999997
 40
0.749999999999997
 40
1.0
 40
1.0
 40
1.0
 40
1.0
 10
-80.00000000000007
 20
77.50000000000001
 30
0.0
 10
-80.00000000000009
 20
77.66503480852386
 30
0.0
 10
-79.98381845328468
 20
77.82731963973977
 30
0.0
 10
-79.92040981016515
 20
78.14661318134799
 30
0.0
 10
-79.872415528856
 20
78.30527263644926
 30
0.0
 10
-79.74709136630996
 20
78.6078807932382
 30
0.0
 10
-79.67039677285602
 20
78.75141389176318
 30
0.0
 10
-79.48919421068841
 20
79.02307756607641
 30
0.0
 10
-79.38371060113228
 20
79.15172857249385
 30
0.0
 10
-79.15327130152735
 20
79.38235674343532
 30
0.0
 10
-79.0275330548621
 20
79.48585803993261
 30
0.0
 10
-78.75452278202656
 20
79.6686774720638
 30
0.0
 10
-78.60909916241008
 20
79.74641568240038
 30
0.0
 10
-78.15821183239932
 20
79.93365869925451
 30
0.0
 10
-77.83013760493459
 20
80.00000000000009
 30
0.0
 10
-77.50000000000057
 20
80.00000000000007
 30
0.0
  0
SPLINE
  5
83
330
1F
100
AcDbEntity
  8
0
  6
Continuous
 62
     7
370
    25
100
AcDbSpline
210
0.0
220
0.0
230
1.0
 70
    24
 71
     3
 72
     8
 73
     4
 74
     0
 42
0.000000001
 43
0.00000001
 40
0.0
 40
0.0
 40
0.0
 40
0.0
 40
1.0
 40
1.0
 40
1.0
 40
1.0
 10
-80.00000000000007
 20
47.12328767123286
 30
0.0
 10
-80.00000000000007
 20
57.24991243776285
 30
0.0
 10
-80.00000000000007
 20
67.37548726776264
 30
0.0
 10
-80.00000000000007
 20
77.50000000000001
 30
0.0
  0
SPLINE
  5
8A
330
1F
100
AcDbEntity
  8
0
  6
Continuous
 62
     7
370
    25
100
AcDbSpline
210
0.0
220
0.0
230
1.0
 70
     8
 71
     3
 72
    10
 73
     6
 74
     0
 42
0.000000001
 43
0.00000001
 40
0.0
 40
0.0
 40
0.0
 40
0.0
 40
0.5
 40
0.5
 40
1.0
 40
1.0
 40
1.0
 40
1.0
 10
-80.00000000000007
 20
-47.12328767123275
 30
0.0
 10
-80.00000000000007
 20
-31.41586136257648
 30
0.0
 10
-79.99999999965854
 20
-15.70833571111837
 30
0.0
 10
-79.99999999965853
 20
15.70795485846508
 30
0.0
 10
-80.00000000000007
 20
31.4157522106483
 30
0.0
 10
-80.00000000000007
 20
47.12328767123299
 30
0.0
  0
LINE
  5
97
330
1F
100
AcDbEntity
  8
0
  6
Continuous
 62
     7
370
    25
100
AcDbLine
 10
730.0
 20
-430.0
 30
0.0
 11
80.0
 21
-47.1232876712
 31
0.0
  0
LINE
  5
98
330
1F
100
AcDbEntity
  8
0
  6
Continuous
 62
     7
370
    25
100
AcDbLine
 10
-730.0
 20
-430.0
 30
0.0
 11
730.0
 21
-430.0
 31
0.0
  0
LINE
  5
99
330
1F
100
AcDbEntity
  8
0
  6
Continuous
 62
     7
370
    25
100
AcDbLine
 10
-730.0
 20
-430.0
 30
0.0
 11
-80.0
 21
-47.1232876712
 31
0.0
  0
LINE
  5
9A
330
1F
100
AcDbEntity
  8
0
  6
Continuous
 62
     7
370
    25
100
AcDbLine
 10
730.0
 20
-430.0
 30
0.0
 11
730.0
 21
430.0
 31
0.0
  0
LINE
  5
9B
330
1F
100
AcDbEntity
  8
0
  6
Continuous
 62
     7
370
    25
100
AcDbLine
 10
730.0
 20
430.0
 30
0.0
 11
80.0
 21
47.1232876712
 31
0.0
  0
LINE
  5
9C
330
1F
100
AcDbEntity
  8
0
  6
Continuous
 62
     7
370
    25
100
AcDbLine
 10
730.0
 20
430.0
 30
0.0
 11
-730.0
 21
430.0
 31
0.0
  0
LINE
  5
9D
330
1F
100
AcDbEntity
  8
0
  6
Continuous
 62
     7
370
    25
100
AcDbLine
 10
-80.0
 20
47.1232876712
 30
0.0
 11
-730.0
 21
430.0
 31
0.0
  0
LINE
  5
9E
330
1F
100
AcDbEntity
  8
0
  6
Continuous
 62
     7
370
    25
100
AcDbLine
 10
750.0
 20
450.0
 30
0.0
 11
-750.0
 21
450.0
 31
0.0
  0
LINE
  5
9F
330
1F
100
AcDbEntity
  8
0
  6
Continuous
 62
     7
370
    25
100
AcDbLine
 10
750.0
 20
-450.0
 30
0.0
 11
750.0
 21
450.0
 31
0.0
  0
LINE
  5
A0
330
1F
100
AcDbEntity
  8
0
  6
Continuous
 62
     7
370
    25
100
AcDbLine
 10
-750.0
 20
-450.0
 30
0.0
 11
750.0
 21
-450.0
 31
0.0
  0
LINE
  5
A1
330
1F
100
AcDbEntity
  8
0
  6
Continuous
 62
     7
370
    25
100
AcDbLine
 10
-750.0
 20
450.0
 30
0.0
 11
-750.0
 21
-450.0
 31
0.0
  0
LINE
  5
A2
330
1F
100
AcDbEntity
  8
0
  6
Continuous
 62
     7
370
    25
100
AcDbLine
 10
-730.0
 20
430.0
 30
0.0
 11
-730.0
 21
-430.0
 31
0.0
  0
LINE
  5
A3
330
1F
100
AcDbEntity
  8
0
  6
Continuous
 62
     7
370
    25
100
AcDbLine
 10
79.2456053076
 20
79.2456053076
 30
0.0
 11
68.5355339059
 21
68.5355339059
 31
0.0
  0
LINE
  5
A4
330
1F
100
AcDbEntity
  8
0
  6
Continuous
 62
     7
370
    25
100
AcDbLine
 10
79.2456196795
 20
-79.2456196795
 30
0.0
 11
68.5355339059
 21
-68.5355339059
 31
0.0
  0
LINE
  5
A5
330
1F
100
AcDbEntity
  8
0
  6
Continuous
 62
     7
370
    25
100
AcDbLine
 10
-68.5355339059
 20
-68.5355339059
 30
0.0
 11
-79.2456053076
 21
-79.2456053076
 31
0.0
  0
LINE
  5
A6
330
1F
100
AcDbEntity
  8
0
  6
Continuous
 62
     7
370
    25
100
AcDbLine
 10
-79.2456196795
 20
79.2456196795
 30
0.0
 11
-68.5355339059
 21
68.5355339059
 31
0.0
  0
LINE
  5
A7
330
1F
100
AcDbEntity
  8
0
  6
Continuous
 62
     7
370
    25
100
AcDbLine
 10
-70.0
 20
65.0
 30
0.0
 11
-70.0
 21
-65.0
 31
0.0
  0
LINE
  5
A8
330
1F
100
AcDbEntity
  8
0
  6
Continuous
 62
     7
370
    25
100
AcDbLine
 10
65.0
 20
70.0
 30
0.0
 11
-65.0
 21
70.0
 31
0.0
  0
LINE
  5
A9
330
1F
100
AcDbEntity
  8
0
  6
Continuous
 62
     7
370
    25
100
AcDbLine
 10
70.0
 20
-65.0
 30
0.0
 11
70.0
 21
65.0
 31
0.0
  0
LINE
  5
AA
330
1F
100
AcDbEntity
  8
0
  6
Continuous
 62
     7
370
    25
100
AcDbLine
 10
-65.0
 20
-70.0
 30
0.0
 11
65.0
 21
-70.0
 31
0.0
  0
ARC
  5
AB
330
1F
100
AcDbEntity
  8
0
  6
Continuous
 62
     7
370
    25
100
AcDbCircle
 10
-65.0
 20
65.0
 30
0.0
 40
5.000000000001549
100
AcDbArc
 50
90.0
 51
180.0
  0
ARC
  5
AC
330
1F
100
AcDbEntity
  8
0
  6
Continuous
 62
     7
370
    25
100
AcDbCircle
 10
65.0
 20
-65.0
 30
0.0
 40
5.000000000001592
100
AcDbArc
 50
270.0
 51
360.0
  0
ARC
  5
AD
330
1F
100
AcDbEntity
  8
0
  6
Continuous
 62
     7
370
    25
100
AcDbCircle
 10
-65.0
 20
-65.0
 30
0.0
 40
4.999999999999261
100
AcDbArc
 50
180.0
 51
270.0
  0
ARC
  5
AE
330
1F
100
AcDbEntity
  8
0
  6
Continuous
 62
     7
370
    25
100
AcDbCircle
 10
65.0
 20
65.0
 30
0.0
 40
4.999999999999218
100
AcDbArc
 50
360.0
 51
90.0
  0
LINE
  5
B6
330
1B
100
AcDbEntity
 67
     1
  8
0
  6
Continuous
 62
     7
370
    25
100
AcDbLine
 10
-750.0
 20
35.0
 30
0.0
 11
750.0
 21
35.0
 31
0.0
  0
LINE
  5
B7
330
1B
100
AcDbEntity
 67
     1
  8
0
  6
Continuous
 62
     7
370
    25
100
AcDbLine
 10
750.0
 20
35.0
 30
0.0
 11
750.0
 21
0.0
 31
0.0
  0
LINE
  5
B8
330
1B
100
AcDbEntity
 67
     1
  8
0
  6
Continuous
 62
     7
370
    25
100
AcDbLine
 10
-750.0
 20
0.0
 30
0.0
 11
750.0
 21
0.0
 31
0.0
  0
LINE
  5
B9
330
1B
100
AcDbEntity
 67
     1
  8
0
  6
Continuous
 62
     7
370
    25
100
AcDbLine
 10
-750.0
 20
35.0
 30
0.0
 11
-750.0
 21
0.0
 31
0.0
  0
LINE
  5
BA
330
1B
100
AcDbEntity
 67
     1
  8
0
  6
Continuous
 62
     7
370
    25
100
AcDbLine
 10
130.0
 20
-26.0
 30
0.0
 11
-130.0
 21
-26.0
 31
0.0
  0
LINE
  5
BB
330
1B
100
AcDbEntity
 67
     1
  8
0
  6
Continuous
 62
     7
370
    25
100
AcDbLine
 10
130.0
 20
-26.0
 30
0.0
 11
130.0
 21
0.0
 31
0.0
  0
LINE
  5
BC
330
1B
100
AcDbEntity
 67
     1
  8
0
  6
Continuous
 62
     7
370
    25
100
AcDbLine
 10
-130.0
 20
-26.0
 30
0.0
 11
-130.0
 21
0.0
 31
0.0
  0
VIEWPORT
  5
278
330
1B
100
AcDbEntity
 67
     1
  8
0
100
AcDbViewport
 10
0.0
 20
0.0
 30
0.0
 40
205.6
 41
156.0
 68
     1
 69
     1
 12
0.0
 22
0.0
 13
0.0
 23
0.0
 14
10.0
 24
10.0
 15
10.0
 25
10.0
 16
0.0
 26
0.0
 36
1.0
 17
0.0
 27
0.0
 37
0.0
 42
50.0
 43
0.0
 44
0.0
 45
1160.8949416342
 50
0.0
 51
0.0
 72
   100
 90
   557152
  1

281
     0
 71
     1
 74
     0
110
0.0
120
0.0
130
0.0
111
1.0
121
0.0
131
0.0
112
0.0
122
1.0
132
0.0
 79
     0
146
0.0
  0
ENDSEC
  0
SECTION
  2
OBJECTS
  0
DICTIONARY
  5
C
330
0
100
AcDbDictionary
281
     1
  3
ACAD_GROUP
350
D
  3
ACAD_LAYOUT
350
1A
  3
ACAD_MLINESTYLE
350
17
  3
ACAD_PLOTSETTINGS
350
19
  3
ACAD_PLOTSTYLENAME
350
E
  3
ACAD_SCALELIST
350
47
  0
DICTIONARY
  5
D
102
{ACAD_REACTORS
330
C
102
}
330
C
100
AcDbDictionary
281
     1
  0
DICTIONARY
  5
1A
102
{ACAD_REACTORS
330
C
102
}
330
C
100
AcDbDictionary
281
     1
  3
_Dimetrisch
350
21B
  3
_Isometrisch
350
12F
  3
_Links
350
F0
  3
_Normal auf
350
CC
  3
_Rechts
350
26
  3
_Rückseite
350
DE
  3
_Trimetrisch
350
1AF
  3
_Unten
350
102
  3
_Vorderseite
350
1E
  3
Model
350
22
  0
DICTIONARY
  5
17
102
{ACAD_REACTORS
330
C
102
}
330
C
100
AcDbDictionary
281
     1
  3
Standard
350
18
  0
DICTIONARY
  5
19
102
{ACAD_REACTORS
330
C
102
}
330
C
100
AcDbDictionary
281
     1
  0
ACDBDICTIONARYWDFLT
  5
E
102
{ACAD_REACTORS
330
C
102
}
330
C
100
AcDbDictionary
281
     1
  3
Normal
350
F
100
AcDbDictionaryWithDefault
340
F
  0
DICTIONARY
  5
47
102
{ACAD_REACTORS
330
C
102
}
330
C
100
AcDbDictionary
281
     1
  3
A0
350
48
  3
A1
350
49
  3
A2
350
4A
  3
A3
350
4B
  3
A4
350
4C
  3
A5
350
4D
  3
A6
350
4E
  3
A7
350
4F
  3
A8
350
50
  3
A9
350
51
  3
B0
350
52
  3
B1
350
53
  3
B2
350
54
  3
B3
350
55
  3
B4
350
56
  3
B5
350
57
  3
B6
350
58
  3
B7
350
59
  3
B8
350
5A
  3
B9
350
5B
  3
C0
350
5C
  3
C1
350
5D
  3
C2
350
5E
  3
C3
350
5F
  3
C4
350
60
  3
C5
350
61
  3
C6
350
62
  3
C7
350
63
  3
C8
350
64
  3
C9
350
65
  3
D0
350
66
  3
D1
350
67
  3
D2
350
68
  0
LAYOUT
  5
21B
102
{ACAD_REACTORS
330
1A
102
}
330
1A
100
AcDbPlotSettings
  1

  2
none_device
  4
ISO_A4_(210.00_x_297.00_MM)
  6

 40
7.5
 41
20.0
 42
7.5
 43
20.0
 44
210.0
 45
297.0
 46
0.0
 47
0.0
 48
0.0
 49
0.0
140
0.0
141
0.0
142
1.0
143
5.8365758755
 70
   688
 72
     1
 73
     1
 74
     1
  7

 75
     0
147
0.1713333333
148
750.0
149
26.0
100
AcDbLayout
  1
_Dimetrisch
 70
     1
 71
     9
 10
0.0
 20
0.0
 11
0.0
 21
0.0
 12
0.0
 22
0.0
 32
0.0
 14
0.0
 24
0.0
 34
0.0
 15
0.0
 25
0.0
 35
0.0
146
0.0
 13
0.0
 23
0.0
 33
0.0
 16
1.0
 26
0.0
 36
0.0
 17
0.0
 27
1.0
 37
0.0
 76
     0
330
21A
331
288
  0
LAYOUT
  5
12F
102
{ACAD_REACTORS
330
1A
102
}
330
1A
100
AcDbPlotSettings
  1

  2
none_device
  4
ISO_A4_(210.00_x_297.00_MM)
  6

 40
7.5
 41
20.0
 42
7.5
 43
20.0
 44
210.0
 45
297.0
 46
0.0
 47
0.0
 48
0.0
 49
0.0
140
0.0
141
0.0
142
1.0
143
5.8365758755
 70
   688
 72
     1
 73
     1
 74
     1
  7

 75
     0
147
0.1713333333
148
750.0
149
26.0
100
AcDbLayout
  1
_Isometrisch
 70
     1
 71
     7
 10
0.0
 20
0.0
 11
0.0
 21
0.0
 12
0.0
 22
0.0
 32
0.0
 14
0.0
 24
0.0
 34
0.0
 15
0.0
 25
0.0
 35
0.0
146
0.0
 13
0.0
 23
0.0
 33
0.0
 16
1.0
 26
0.0
 36
0.0
 17
0.0
 27
1.0
 37
0.0
 76
     0
330
12E
331
284
  0
LAYOUT
  5
F0
102
{ACAD_REACTORS
330
1A
102
}
330
1A
100
AcDbPlotSettings
  1

  2
none_device
  4
ISO_A4_(210.00_x_297.00_MM)
  6

 40
7.5
 41
20.0
 42
7.5
 43
20.0
 44
210.0
 45
297.0
 46
0.0
 47
0.0
 48
0.0
 49
0.0
140
0.0
141
0.0
142
1.0
143
5.8365758755
 70
   688
 72
     1
 73
     1
 74
     1
  7

 75
     0
147
0.1713333333
148
750.0
149
26.0
100
AcDbLayout
  1
_Links
 70
     1
 71
     5
 10
0.0
 20
0.0
 11
0.0
 21
0.0
 12
0.0
 22
0.0
 32
0.0
 14
0.0
 24
0.0
 34
0.0
 15
0.0
 25
0.0
 35
0.0
146
0.0
 13
0.0
 23
0.0
 33
0.0
 16
1.0
 26
0.0
 36
0.0
 17
0.0
 27
1.0
 37
0.0
 76
     0
330
EF
331
280
  0
LAYOUT
  5
CC
102
{ACAD_REACTORS
330
1A
102
}
330
1A
100
AcDbPlotSettings
  1

  2
none_device
  4
ISO_A4_(210.00_x_297.00_MM)
  6

 40
7.5
 41
20.0
 42
7.5
 43
20.0
 44
210.0
 45
297.0
 46
0.0
 47
0.0
 48
0.0
 49
0.0
140
0.0
141
0.0
142
1.0
143
5.8365758755
 70
   688
 72
     1
 73
     1
 74
     1
  7

 75
     0
147
0.1713333333
148
750.0
149
26.0
100
AcDbLayout
  1
_Normal auf
 70
     1
 71
     3
 10
0.0
 20
0.0
 11
0.0
 21
0.0
 12
0.0
 22
0.0
 32
0.0
 14
0.0
 24
0.0
 34
0.0
 15
0.0
 25
0.0
 35
0.0
146
0.0
 13
0.0
 23
0.0
 33
0.0
 16
1.0
 26
0.0
 36
0.0
 17
0.0
 27
1.0
 37
0.0
 76
     0
330
CB
331
27C
  0
LAYOUT
  5
26
102
{ACAD_REACTORS
330
1A
102
}
330
1A
100
AcDbPlotSettings
  1

  2
none_device
  4
ISO_A4_(210.00_x_297.00_MM)
  6

 40
7.5
 41
20.0
 42
7.5
 43
20.0
 44
210.0
 45
297.0
 46
0.0
 47
0.0
 48
0.0
 49
0.0
140
0.0
141
0.0
142
1.0
143
5.8365758755
 70
   688
 72
     1
 73
     1
 74
     1
  7

 75
     0
147
0.1713333333
148
750.0
149
26.0
100
AcDbLayout
  1
_Rechts
 70
     1
 71
     2
 10
0.0
 20
0.0
 11
0.0
 21
0.0
 12
0.0
 22
0.0
 32
0.0
 14
0.0
 24
0.0
 34
0.0
 15
0.0
 25
0.0
 35
0.0
146
0.0
 13
0.0
 23
0.0
 33
0.0
 16
1.0
 26
0.0
 36
0.0
 17
0.0
 27
1.0
 37
0.0
 76
     0
330
23
331
27A
  0
LAYOUT
  5
DE
102
{ACAD_REACTORS
330
1A
102
}
330
1A
100
AcDbPlotSettings
  1

  2
none_device
  4
ISO_A4_(210.00_x_297.00_MM)
  6

 40
7.5
 41
20.0
 42
7.5
 43
20.0
 44
210.0
 45
297.0
 46
0.0
 47
0.0
 48
0.0
 49
0.0
140
0.0
141
0.0
142
1.0
143
5.8365758755
 70
   688
 72
     1
 73
     1
 74
     1
  7

 75
     0
147
0.1713333333
148
750.0
149
26.0
100
AcDbLayout
  1
_Rückseite
 70
     1
 71
     4
 10
0.0
 20
0.0
 11
0.0
 21
0.0
 12
0.0
 22
0.0
 32
0.0
 14
0.0
 24
0.0
 34
0.0
 15
0.0
 25
0.0
 35
0.0
146
0.0
 13
0.0
 23
0.0
 33
0.0
 16
1.0
 26
0.0
 36
0.0
 17
0.0
 27
1.0
 37
0.0
 76
     0
330
DD
331
27E
  0
LAYOUT
  5
1AF
102
{ACAD_REACTORS
330
1A
102
}
330
1A
100
AcDbPlotSettings
  1

  2
none_device
  4
ISO_A4_(210.00_x_297.00_MM)
  6

 40
7.5
 41
20.0
 42
7.5
 43
20.0
 44
210.0
 45
297.0
 46
0.0
 47
0.0
 48
0.0
 49
0.0
140
0.0
141
0.0
142
1.0
143
5.8365758755
 70
   688
 72
     1
 73
     1
 74
     1
  7

 75
     0
147
0.1713333333
148
750.0
149
26.0
100
AcDbLayout
  1
_Trimetrisch
 70
     1
 71
     8
 10
0.0
 20
0.0
 11
0.0
 21
0.0
 12
0.0
 22
0.0
 32
0.0
 14
0.0
 24
0.0
 34
0.0
 15
0.0
 25
0.0
 35
0.0
146
0.0
 13
0.0
 23
0.0
 33
0.0
 16
1.0
 26
0.0
 36
0.0
 17
0.0
 27
1.0
 37
0.0
 76
     0
330
1AE
331
286
  0
LAYOUT
  5
102
102
{ACAD_REACTORS
330
1A
102
}
330
1A
100
AcDbPlotSettings
  1

  2
none_device
  4
ISO_A4_(210.00_x_297.00_MM)
  6

 40
7.5
 41
20.0
 42
7.5
 43
20.0
 44
210.0
 45
297.0
 46
0.0
 47
0.0
 48
0.0
 49
0.0
140
0.0
141
0.0
142
1.0
143
5.8365758755
 70
   688
 72
     1
 73
     1
 74
     1
  7

 75
     0
147
0.1713333333
148
750.0
149
26.0
100
AcDbLayout
  1
_Unten
 70
     1
 71
     6
 10
0.0
 20
0.0
 11
0.0
 21
0.0
 12
0.0
 22
0.0
 32
0.0
 14
0.0
 24
0.0
 34
0.0
 15
0.0
 25
0.0
 35
0.0
146
0.0
 13
0.0
 23
0.0
 33
0.0
 16
1.0
 26
0.0
 36
0.0
 17
0.0
 27
1.0
 37
0.0
 76
     0
330
101
331
282
  0
LAYOUT
  5
1E
102
{ACAD_REACTORS
330
1A
102
}
330
1A
100
AcDbPlotSettings
  1

  2
none_device
  4
ISO_A4_(210.00_x_297.00_MM)
  6

 40
7.5
 41
20.0
 42
7.5
 43
20.0
 44
210.0
 45
297.0
 46
0.0
 47
0.0
 48
0.0
 49
0.0
140
0.0
141
0.0
142
1.0
143
5.8365758755
 70
   688
 72
     1
 73
     1
 74
     1
  7

 75
     0
147
0.1713333333
148
750.0
149
26.0
100
AcDbLayout
  1
_Vorderseite
 70
     1
 71
     1
 10
-866.7315175097
 20
-69.7743190661
 11
866.7315175097
 21
1155.906614786
 12
0.0
 22
0.0
 32
0.0
 14
-750.0
 24
-26.0
 34
0.0
 15
750.0
 25
35.0
 35
0.0
146
0.0
 13
0.0
 23
0.0
 33
0.0
 16
1.0
 26
0.0
 36
0.0
 17
0.0
 27
1.0
 37
0.0
 76
     0
330
1B
331
278
  0
LAYOUT
  5
22
102
{ACAD_REACTORS
330
1A
102
}
330
1A
100
AcDbPlotSettings
  1

  2
none_device
  4
ANSI_A_(11.00_x_8.50_Inches)
  6

 40
6.35
 41
19.05
 42
6.35000508
 43
19.05000254
 44
279.4
 45
215.9
 46
133.34999746
 47
88.89999873
 48
0.0
 49
0.0
140
0.0
141
0.0
142
0.00726
143
1.0
 70
  1696
 72
     0
 73
     0
 74
     0
  7

 75
     0
147
0.0179189148
148
-1300.4909072572
149
0.0
100
AcDbLayout
  1
Model
 70
     1
 71
     0
 10
0.0
 20
0.0
 11
420.0
 21
297.0
 12
0.0
 22
0.0
 32
0.0
 14
-750.0
 24
-450.0
 34
0.0
 15
750.0
 25
450.0
 35
0.0
146
0.0
 13
0.0
 23
0.0
 33
0.0
 16
1.0
 26
0.0
 36
0.0
 17
0.0
 27
1.0
 37
0.0
 76
     0
330
1F
331
29
  0
MLINESTYLE
  5
18
102
{ACAD_REACTORS
330
17
102
}
330
17
100
AcDbMlineStyle
  2
Standard
 70
     0
  3

 62
   256
 51
90.0
 52
90.0
 71
     2
 49
0.5
 62
   256
  6
BYLAYER
 49
-0.5
 62
   256
  6
BYLAYER
  0
ACDBPLACEHOLDER
  5
F
102
{ACAD_REACTORS
330
E
102
}
330
E
  0
SCALE
  5
48
102
{ACAD_REACTORS
330
47
102
}
330
47
100
AcDbScale
 70
     0
300
1:1
140
1.0
141
1.0
290
     1
  0
SCALE
  5
49
102
{ACAD_REACTORS
330
47
102
}
330
47
100
AcDbScale
 70
     0
300
1:2
140
1.0
141
2.0
290
     0
  0
SCALE
  5
4A
102
{ACAD_REACTORS
330
47
102
}
330
47
100
AcDbScale
 70
     0
300
1:4
140
1.0
141
4.0
290
     0
  0
SCALE
  5
4B
102
{ACAD_REACTORS
330
47
102
}
330
47
100
AcDbScale
 70
     0
300
1:5
140
1.0
141
5.0
290
     0
  0
SCALE
  5
4C
102
{ACAD_REACTORS
330
47
102
}
330
47
100
AcDbScale
 70
     0
300
1:8
140
1.0
141
8.0
290
     0
  0
SCALE
  5
4D
102
{ACAD_REACTORS
330
47
102
}
330
47
100
AcDbScale
 70
     0
300
1:10
140
1.0
141
10.0
290
     0
  0
SCALE
  5
4E
102
{ACAD_REACTORS
330
47
102
}
330
47
100
AcDbScale
 70
     0
300
1:16
140
1.0
141
16.0
290
     0
  0
SCALE
  5
4F
102
{ACAD_REACTORS
330
47
102
}
330
47
100
AcDbScale
 70
     0
300
1:20
140
1.0
141
20.0
290
     0
  0
SCALE
  5
50
102
{ACAD_REACTORS
330
47
102
}
330
47
100
AcDbScale
 70
     0
300
1:30
140
1.0
141
30.0
290
     0
  0
SCALE
  5
51
102
{ACAD_REACTORS
330
47
102
}
330
47
100
AcDbScale
 70
     0
300
1:40
140
1.0
141
40.0
290
     0
  0
SCALE
  5
52
102
{ACAD_REACTORS
330
47
102
}
330
47
100
AcDbScale
 70
     0
300
1:50
140
1.0
141
50.0
290
     0
  0
SCALE
  5
53
102
{ACAD_REACTORS
330
47
102
}
330
47
100
AcDbScale
 70
     0
300
1:100
140
1.0
141
100.0
290
     0
  0
SCALE
  5
54
102
{ACAD_REACTORS
330
47
102
}
330
47
100
AcDbScale
 70
     0
300
2:1
140
2.0
141
1.0
290
     0
  0
SCALE
  5
55
102
{ACAD_REACTORS
330
47
102
}
330
47
100
AcDbScale
 70
     0
300
4:1
140
4.0
141
1.0
290
     0
  0
SCALE
  5
56
102
{ACAD_REACTORS
330
47
102
}
330
47
100
AcDbScale
 70
     0
300
8:1
140
8.0
141
1.0
290
     0
  0
SCALE
  5
57
102
{ACAD_REACTORS
330
47
102
}
330
47
100
AcDbScale
 70
     0
300
10:1
140
10.0
141
1.0
290
     0
  0
SCALE
  5
58
102
{ACAD_REACTORS
330
47
102
}
330
47
100
AcDbScale
 70
     0
300
100:1
140
100.0
141
1.0
290
     0
  0
SCALE
  5
59
102
{ACAD_REACTORS
330
47
102
}
330
47
100
AcDbScale
 70
     0
300
1/128" = 1'-0"
140
0.0078125
141
12.0
290
     0
  0
SCALE
  5
5A
102
{ACAD_REACTORS
330
47
102
}
330
47
100
AcDbScale
 70
     0
300
1/64" = 1'-0"
140
0.015625
141
12.0
290
     0
  0
SCALE
  5
5B
102
{ACAD_REACTORS
330
47
102
}
330
47
100
AcDbScale
 70
     0
300
1/32" = 1'-0"
140
0.03125
141
12.0
290
     0
  0
SCALE
  5
5C
102
{ACAD_REACTORS
330
47
102
}
330
47
100
AcDbScale
 70
     0
300
1/16" = 1'-0"
140
0.0625
141
12.0
290
     0
  0
SCALE
  5
5D
102
{ACAD_REACTORS
330
47
102
}
330
47
100
AcDbScale
 70
     0
300
3/32" = 1'-0"
140
0.09375
141
12.0
290
     0
  0
SCALE
  5
5E
102
{ACAD_REACTORS
330
47
102
}
330
47
100
AcDbScale
 70
     0
300
1/8" = 1'-0"
140
0.125
141
12.0
290
     0
  0
SCALE
  5
5F
102
{ACAD_REACTORS
330
47
102
}
330
47
100
AcDbScale
 70
     0
300
3/16" = 1'-0"
140
0.1875
141
12.0
290
     0
  0
SCALE
  5
60
102
{ACAD_REACTORS
330
47
102
}
330
47
100
AcDbScale
 70
     0
300
1/4" = 1'-0"
140
0.25
141
12.0
290
     0
  0
SCALE
  5
61
102
{ACAD_REACTORS
330
47
102
}
330
47
100
AcDbScale
 70
     0
300
3/8" = 1'-0"
140
0.375
141
12.0
290
     0
  0
SCALE
  5
62
102
{ACAD_REACTORS
330
47
102
}
330
47
100
AcDbScale
 70
     0
300
1/2" = 1'-0"
140
0.5
141
12.0
290
     0
  0
SCALE
  5
63
102
{ACAD_REACTORS
330
47
102
}
330
47
100
AcDbScale
 70
     0
300
3/4" = 1'-0"
140
0.75
141
12.0
290
     0
  0
SCALE
  5
64
102
{ACAD_REACTORS
330
47
102
}
330
47
100
AcDbScale
 70
     0
300
1" = 1'-0"
140
1.0
141
12.0
290
     0
  0
SCALE
  5
65
102
{ACAD_REACTORS
330
47
102
}
330
47
100
AcDbScale
 70
     0
300
1-1/2" = 1'-0"
140
1.5
141
12.0
290
     0
  0
SCALE
  5
66
102
{ACAD_REACTORS
330
47
102
}
330
47
100
AcDbScale
 70
     0
300
3" = 1'-0"
140
3.0
141
12.0
290
     0
  0
SCALE
  5
67
102
{ACAD_REACTORS
330
47
102
}
330
47
100
AcDbScale
 70
     0
300
6" = 1'-0"
140
6.0
141
12.0
290
     0
  0
SCALE
  5
68
102
{ACAD_REACTORS
330
47
102
}
330
47
100
AcDbScale
 70
     0
300
1'-0" = 1'-0"
140
12.0
141
12.0
290
     0
  0
ENDSEC
  0
EOF
