  0
SECTION
  2
HEADER
  9
$ACADVER
  1
AC1015
  9
$ACADMAINTVER
 70
     6
  9
$DWGCODEPAGE
  3
ANSI_1252
  9
$INSBASE
 10
0.0
 20
0.0
 30
0.0
  9
$EXTMIN
 10
-800.0
 20
-400.0
 30
0.0
  9
$EXTMAX
 10
800.0
 20
400.0
 30
0.0
  9
$LIMMIN
 10
0.0
 20
0.0
  9
$LIMMAX
 10
420.0
 20
297.0
  9
$ORTHOMODE
 70
     0
  9
$REGENMODE
 70
     1
  9
$FILLMODE
 70
     1
  9
$QTEXTMODE
 70
     0
  9
$MIRRTEXT
 70
     1
  9
$LTSCALE
 40
1.0
  9
$ATTMODE
 70
     1
  9
$TEXTSIZE
 40
3.5
  9
$TRACEWID
 40
1.0
  9
$TEXTSTYLE
  7
STANDARD
  9
$CLAYER
  8
0
  9
$CELTYPE
  6
ByLayer
  9
$CECOLOR
 62
   256
  9
$CELTSCALE
 40
1.0
  9
$DISPSILH
 70
     0
  9
$DIMSCALE
 40
1.0
  9
$DIMASZ
 40
12.7
  9
$DIMEXO
 40
1.0
  9
$DIMDLI
 40
3.75
  9
$DIMRND
 40
0.0
  9
$DIMDLE
 40
0.0
  9
$DIMEXE
 40
1.0
  9
$DIMTP
 40
0.0
  9
$DIMTM
 40
0.0
  9
$DIMTXT
 40
9.8777777778
  9
$DIMCEN
 40
2.5
  9
$DIMTSZ
 40
0.0
  9
$DIMTOL
 70
     0
  9
$DIMLIM
 70
     0
  9
$DIMTIH
 70
     1
  9
$DIMTOH
 70
     1
  9
$DIMSE1
 70
     0
  9
$DIMSE2
 70
     0
  9
$DIMTAD
 70
     1
  9
$DIMZIN
 70
     0
  9
$DIMBLK
  1

  9
$DIMASO
 70
     1
  9
$DIMSHO
 70
     1
  9
$DIMPOST
  1

  9
$DIMAPOST
  1

  9
$DIMALT
 70
     0
  9
$DIMALTD
 70
     3
  9
$DIMALTF
 40
0.0393700787
  9
$DIMLFAC
 40
1.0
  9
$DIMTOFL
 70
     1
  9
$DIMTVP
 40
0.0
  9
$DIMTIX
 70
     0
  9
$DIMSOXD
 70
     0
  9
$DIMSAH
 70
     0
  9
$DIMBLK1
  1

  9
$DIMBLK2
  1

  9
$DIMSTYLE
  2
ISO-25
  9
$DIMCLRD
 70
     0
  9
$DIMCLRE
 70
     0
  9
$DIMCLRT
 70
     0
  9
$DIMTFAC
 40
1.0
  9
$DIMGAP
 40
1.524
  9
$DIMJUST
 70
     0
  9
$DIMSD1
 70
     0
  9
$DIMSD2
 70
     0
  9
$DIMTOLJ
 70
     0
  9
$DIMTZIN
 70
     0
  9
$DIMALTZ
 70
     0
  9
$DIMALTTZ
 70
     0
  9
$DIMUPT
 70
     0
  9
$DIMDEC
 70
     2
  9
$DIMTDEC
 70
     2
  9
$DIMALTU
 70
     2
  9
$DIMALTTD
 70
     3
  9
$DIMTXSTY
  7
STANDARD
  9
$DIMAUNIT
 70
     0
  9
$DIMADEC
 70
     2
  9
$DIMALTRND
 40
0.0
  9
$DIMAZIN
 70
     0
  9
$DIMDSEP
 70
    44
  9
$DIMATFIT
 70
     3
  9
$DIMFRAC
 70
     0
  9
$DIMLDRBLK
  1

  9
$DIMLUNIT
 70
     2
  9
$DIMLWD
 70
    -2
  9
$DIMLWE
 70
    -2
  9
$DIMTMOVE
 70
     0
  9
$LUNITS
 70
     2
  9
$LUPREC
 70
     2
  9
$SKETCHINC
 40
1.0
  9
$FILLETRAD
 40
10.0
  9
$AUNITS
 70
     0
  9
$AUPREC
 70
     2
  9
$MENU
  1
.
  9
$ELEVATION
 40
0.0
  9
$PELEVATION
 40
0.0
  9
$THICKNESS
 40
0.0
  9
$LIMCHECK
 70
     0
  9
$CHAMFERA
 40
0.0
  9
$CHAMFERB
 40
0.0
  9
$CHAMFERC
 40
0.0
  9
$CHAMFERD
 40
0.0
  9
$SKPOLY
 70
     0
  9
$TDCREATE
 40
2458232.508965394
  9
$TDUCREATE
 40
2458232.42563206
  9
$TDUPDATE
 40
2458232.508982095
  9
$TDUUPDATE
 40
2458232.425648761
  9
$TDINDWG
 40
0.0000000116
  9
$TDUSRTIMER
 40
0.0000000116
  9
$USRTIMER
 70
     1
  9
$ANGBASE
 50
0.0
  9
$ANGDIR
 70
     0
  9
$PDMODE
 70
     0
  9
$PDSIZE
 40
-1.0
  9
$PLINEWID
 40
0.0
  9
$SPLFRAME
 70
     0
  9
$SPLINETYPE
 70
     6
  9
$SPLINESEGS
 70
     8
  9
$HANDSEED
  5
289
  9
$SURFTAB1
 70
     6
  9
$SURFTAB2
 70
     6
  9
$SURFTYPE
 70
     6
  9
$SURFU
 70
     6
  9
$SURFV
 70
     6
  9
$UCSBASE
  2

  9
$UCSNAME
  2

  9
$UCSORG
 10
0.0
 20
0.0
 30
0.0
  9
$UCSXDIR
 10
1.0
 20
0.0
 30
0.0
  9
$UCSYDIR
 10
0.0
 20
1.0
 30
0.0
  9
$UCSORTHOREF
  2

  9
$UCSORTHOVIEW
 70
     0
  9
$UCSORGTOP
 10
0.0
 20
0.0
 30
0.0
  9
$UCSORGBOTTOM
 10
0.0
 20
0.0
 30
0.0
  9
$UCSORGLEFT
 10
0.0
 20
0.0
 30
0.0
  9
$UCSORGRIGHT
 10
0.0
 20
0.0
 30
0.0
  9
$UCSORGFRONT
 10
0.0
 20
0.0
 30
0.0
  9
$UCSORGBACK
 10
0.0
 20
0.0
 30
0.0
  9
$PUCSBASE
  2

  9
$PUCSNAME
  2

  9
$PUCSORG
 10
0.0
 20
0.0
 30
0.0
  9
$PUCSXDIR
 10
1.0
 20
0.0
 30
0.0
  9
$PUCSYDIR
 10
0.0
 20
1.0
 30
0.0
  9
$PUCSORTHOREF
  2

  9
$PUCSORTHOVIEW
 70
     0
  9
$PUCSORGTOP
 10
0.0
 20
0.0
 30
0.0
  9
$PUCSORGBOTTOM
 10
0.0
 20
0.0
 30
0.0
  9
$PUCSORGLEFT
 10
0.0
 20
0.0
 30
0.0
  9
$PUCSORGRIGHT
 10
0.0
 20
0.0
 30
0.0
  9
$PUCSORGFRONT
 10
0.0
 20
0.0
 30
0.0
  9
$PUCSORGBACK
 10
0.0
 20
0.0
 30
0.0
  9
$USERI1
 70
     0
  9
$USERI2
 70
     0
  9
$USERI3
 70
     0
  9
$USERI4
 70
     0
  9
$USERI5
 70
     0
  9
$USERR1
 40
0.0
  9
$USERR2
 40
0.0
  9
$USERR3
 40
0.0
  9
$USERR4
 40
0.0
  9
$USERR5
 40
0.0
  9
$WORLDVIEW
 70
     1
  9
$SHADEDGE
 70
     3
  9
$SHADEDIF
 70
    70
  9
$TILEMODE
 70
     1
  9
$MAXACTVP
 70
    64
  9
$PINSBASE
 10
0.0
 20
0.0
 30
0.0
  9
$PLIMCHECK
 70
     0
  9
$PEXTMIN
 10
-800.0
 20
-26.0
 30
0.0
  9
$PEXTMAX
 10
800.0
 20
35.0
 30
0.0
  9
$PLIMMIN
 10
-924.513618677
 20
-72.6926070039
  9
$PLIMMAX
 10
924.513618677
 20
1234.7003891051
  9
$UNITMODE
 70
     0
  9
$VISRETAIN
 70
     1
  9
$PLINEGEN
 70
     0
  9
$PSLTSCALE
 70
     1
  9
$TREEDEPTH
 70
  3020
  9
$CMLSTYLE
  2
Standard
  9
$CMLJUST
 70
     0
  9
$CMLSCALE
 40
20.0
  9
$PROXYGRAPHICS
 70
     1
  9
$MEASUREMENT
 70
     1
  9
$CELWEIGHT
370
    -1
  9
$ENDCAPS
280
     0
  9
$JOINSTYLE
280
     0
  9
$LWDISPLAY
290
     1
  9
$INSUNITS
 70
     4
  9
$HYPERLINKBASE
  1

  9
$STYLESHEET
  1

  9
$XEDIT
290
     1
  9
$CEPSNTYPE
380
     0
  9
$PSTYLEMODE
290
     1
  9
$FINGERPRINTGUID
  2
{BCDB44DF-5AB4-4753-9E91-56D538A3C7EB}
  9
$VERSIONGUID
  2
{FAEB1C32-E019-11D5-929B-00C0DF256EC4}
  9
$EXTNAMES
290
     1
  9
$PSVPSCALE
 40
0.0
  9
$OLESTARTUP
290
     0
  0
ENDSEC
  0
SECTION
  2
CLASSES
  0
CLASS
  1
ACDBDICTIONARYWDFLT
  2
AcDbDictionaryWithDefault
  3
ObjectDBX Classes
 90
        0
280
     0
281
     0
  0
CLASS
  1
VISUALSTYLE
  2
AcDbVisualStyle
  3
ObjectDBX Classes
 90
     4095
280
     0
281
     0
  0
CLASS
  1
MATERIAL
  2
AcDbMaterial
  3
ObjectDBX Classes
 90
     1153
280
     0
281
     0
  0
CLASS
  1
SCALE
  2
AcDbScale
  3
ObjectDBX Classes
 90
     1153
280
     0
281
     0
  0
CLASS
  1
TABLESTYLE
  2
AcDbTableStyle
  3
ObjectDBX Classes
 90
     4095
280
     0
281
     0
  0
CLASS
  1
MLEADERSTYLE
  2
AcDbMLeaderStyle
  3
ACDB_MLEADERSTYLE_CLASS
 90
     4095
280
     0
281
     0
  0
CLASS
  1
SUN
  2
AcDbSun
  3
SCENEOE
 90
     1153
280
     0
281
     0
  0
CLASS
  1
ACDBPLACEHOLDER
  2
AcDbPlaceHolder
  3
ObjectDBX Classes
 90
        0
280
     0
281
     0
  0
CLASS
  1
LAYOUT
  2
AcDbLayout
  3
ObjectDBX Classes
 90
        0
280
     0
281
     0
  0
ENDSEC
  0
SECTION
  2
TABLES
  0
TABLE
  2
VPORT
  5
8
330
0
100
AcDbSymbolTable
 70
     1
  0
VPORT
  5
29
330
8
100
AcDbSymbolTableRecord
100
AcDbViewportTableRecord
  2
*Active
 70
     0
 10
0.0
 20
0.0
 11
1.0
 21
1.0
 12
0.0
 22
0.0
 13
0.0
 23
0.0
 14
10.0
 24
10.0
 15
10.0
 25
10.0
 16
0.0
 26
0.0
 36
1.0
 17
0.0
 27
0.0
 37
0.0
 40
816.0
 41
2.0
 42
50.0
 43
0.0
 44
0.0
 50
0.0
 51
0.0
 71
     0
 72
   100
 73
     1
 74
     3
 75
     0
 76
     0
 77
     0
 78
     0
281
     0
 65
     1
110
0.0
120
0.0
130
0.0
111
1.0
121
0.0
131
0.0
112
0.0
122
1.0
132
0.0
 79
     0
146
0.0
  0
ENDTAB
  0
TABLE
  2
LTYPE
  5
5
330
0
100
AcDbSymbolTable
 70
     6
  0
LTYPE
  5
14
330
5
100
AcDbSymbolTableRecord
100
AcDbLinetypeTableRecord
  2
ByBlock
 70
     0
  3

 72
    65
 73
     0
 40
0.0
  0
LTYPE
  5
15
330
5
100
AcDbSymbolTableRecord
100
AcDbLinetypeTableRecord
  2
ByLayer
 70
     0
  3

 72
    65
 73
     0
 40
0.0
  0
LTYPE
  5
16
330
5
100
AcDbSymbolTableRecord
100
AcDbLinetypeTableRecord
  2
Continuous
 70
     0
  3
Solid line
 72
    65
 73
     0
 40
0.0
  0
LTYPE
  5
6E
330
5
100
AcDbSymbolTableRecord
100
AcDbLinetypeTableRecord
  2
HIDDEN
 70
     0
  3
Hidden __ __ __ __ __ __ __ __ __ __ __ __ __ __
 72
    65
 73
     2
 40
1.905
 49
1.27
 74
     0
 49
-0.635
 74
     0
  0
LTYPE
  5
6F
330
5
100
AcDbSymbolTableRecord
100
AcDbLinetypeTableRecord
  2
PHANTOM
 70
     0
  3
Phantom ______  __  __  ______  __  __  ______
 72
    65
 73
     6
 40
12.7
 49
6.35
 74
     0
 49
-1.27
 74
     0
 49
1.27
 74
     0
 49
-1.27
 74
     0
 49
1.27
 74
     0
 49
-1.27
 74
     0
  0
LTYPE
  5
70
330
5
100
AcDbSymbolTableRecord
100
AcDbLinetypeTableRecord
  2
CENTER
 70
     0
  3
Center ____ _ ____ _ ____ _ ____ _ ____ _ ____
 72
    65
 73
     4
 40
10.16
 49
6.35
 74
     0
 49
-1.27
 74
     0
 49
1.27
 74
     0
 49
-1.27
 74
     0
  0
LTYPE
  5
71
330
5
100
AcDbSymbolTableRecord
100
AcDbLinetypeTableRecord
  2
CENTERX2
 70
     0
  3
Center (2x) ________  __  ________  __  _____
 72
    65
 73
     4
 40
20.32
 49
12.7
 74
     0
 49
-2.54
 74
     0
 49
2.54
 74
     0
 49
-2.54
 74
     0
  0
LTYPE
  5
72
330
5
100
AcDbSymbolTableRecord
100
AcDbLinetypeTableRecord
  2
DOT2
 70
     0
  3
Dot (.5x) ........................................
 72
    65
 73
     2
 40
0.635
 49
0.0
 74
     0
 49
-0.635
 74
     0
  0
ENDTAB
  0
TABLE
  2
LAYER
  5
2
330
0
100
AcDbSymbolTable
 70
     1
  0
LAYER
  5
10
330
2
100
AcDbSymbolTableRecord
100
AcDbLayerTableRecord
  2
0
 70
     0
 62
     7
  6
Continuous
370
    -3
390
F
  0
ENDTAB
  0
TABLE
  2
STYLE
  5
3
330
0
100
AcDbSymbolTable
 70
     1
  0
STYLE
  5
11
330
3
100
AcDbSymbolTableRecord
100
AcDbTextStyleTableRecord
  2
STANDARD
 70
     0
 40
0.0
 41
1.0
 50
0.0
 71
     0
 42
3.5
  3
GOTHIC.TTF
  4

1001
ACAD
1000
CENTURY GOTHIC
1071
       34
  0
ENDTAB
  0
TABLE
  2
VIEW
  5
6
330
0
100
AcDbSymbolTable
 70
     0
  0
ENDTAB
  0
TABLE
  2
UCS
  5
7
330
0
100
AcDbSymbolTable
 70
     0
  0
ENDTAB
  0
TABLE
  2
APPID
  5
9
330
0
100
AcDbSymbolTable
 70
     1
  0
APPID
  5
12
330
9
100
AcDbSymbolTableRecord
100
AcDbRegAppTableRecord
  2
ACAD
 70
     0
  0
ENDTAB
  0
TABLE
  2
DIMSTYLE
  5
A
330
0
100
AcDbSymbolTable
 70
     1
100
AcDbDimStyleTable
  0
DIMSTYLE
105
27
330
A
100
AcDbSymbolTableRecord
100
AcDbDimStyleTableRecord
  2
ISO-25
 70
     0
 41
2.5
 42
0.625
 43
3.75
 44
1.25
 73
     0
 74
     0
 77
     1
 78
     8
140
2.5
141
2.5
143
0.0393700787
147
0.625
171
     3
172
     1
178
     0
271
     2
272
     2
274
     3
278
    44
283
     0
284
     8
340
11
  0
ENDTAB
  0
TABLE
  2
BLOCK_RECORD
  5
1
330
0
100
AcDbSymbolTable
 70
     8
  0
BLOCK_RECORD
  5
1F
330
1
100
AcDbSymbolTableRecord
100
AcDbBlockTableRecord
  2
*Model_Space
340
22
  0
BLOCK_RECORD
  5
1B
330
1
100
AcDbSymbolTableRecord
100
AcDbBlockTableRecord
  2
*Paper_Space
340
1E
  0
BLOCK_RECORD
  5
23
330
1
100
AcDbSymbolTableRecord
100
AcDbBlockTableRecord
  2
*Paper_Space0
340
26
  0
BLOCK_RECORD
  5
CB
330
1
100
AcDbSymbolTableRecord
100
AcDbBlockTableRecord
  2
*Paper_Space1
340
CC
  0
BLOCK_RECORD
  5
DD
330
1
100
AcDbSymbolTableRecord
100
AcDbBlockTableRecord
  2
*Paper_Space2
340
DE
  0
BLOCK_RECORD
  5
EF
330
1
100
AcDbSymbolTableRecord
100
AcDbBlockTableRecord
  2
*Paper_Space3
340
F0
  0
BLOCK_RECORD
  5
101
330
1
100
AcDbSymbolTableRecord
100
AcDbBlockTableRecord
  2
*Paper_Space4
340
102
  0
BLOCK_RECORD
  5
12E
330
1
100
AcDbSymbolTableRecord
100
AcDbBlockTableRecord
  2
*Paper_Space5
340
12F
  0
BLOCK_RECORD
  5
1AE
330
1
100
AcDbSymbolTableRecord
100
AcDbBlockTableRecord
  2
*Paper_Space6
340
1AF
  0
BLOCK_RECORD
  5
219
330
1
100
AcDbSymbolTableRecord
100
AcDbBlockTableRecord
  2
*Paper_Space7
340
21A
  0
ENDTAB
  0
ENDSEC
  0
SECTION
  2
BLOCKS
  0
BLOCK
  5
20
330
1F
100
AcDbEntity
  8
0
100
AcDbBlockBegin
  2
*Model_Space
 70
     0
 10
0.0
 20
0.0
 30
0.0
  3
*Model_Space
  1

  0
ENDBLK
  5
21
330
1F
100
AcDbEntity
  8
0
100
AcDbBlockEnd
  0
BLOCK
  5
1C
330
1B
100
AcDbEntity
 67
     1
  8
0
100
AcDbBlockBegin
  2
*Paper_Space
 70
     0
 10
0.0
 20
0.0
 30
0.0
  3
*Paper_Space
  1

  0
ENDBLK
  5
1D
330
1B
100
AcDbEntity
 67
     1
  8
0
100
AcDbBlockEnd
  0
BLOCK
  5
24
330
23
100
AcDbEntity
  8
0
100
AcDbBlockBegin
  2
*Paper_Space0
 70
     0
 10
0.0
 20
0.0
 30
0.0
  3
*Paper_Space0
  1

  0
LINE
  5
C4
330
23
100
AcDbEntity
  8
0
  6
Continuous
 62
     7
370
    25
100
AcDbLine
 10
400.0
 20
35.0
 30
0.0
 11
400.0
 21
0.0
 31
0.0
  0
LINE
  5
C5
330
23
100
AcDbEntity
  8
0
  6
Continuous
 62
     7
370
    25
100
AcDbLine
 10
-400.0
 20
0.0
 30
0.0
 11
400.0
 21
0.0
 31
0.0
  0
LINE
  5
C6
330
23
100
AcDbEntity
  8
0
  6
Continuous
 62
     7
370
    25
100
AcDbLine
 10
-400.0
 20
35.0
 30
0.0
 11
-400.0
 21
0.0
 31
0.0
  0
LINE
  5
C7
330
23
100
AcDbEntity
  8
0
  6
Continuous
 62
     7
370
    25
100
AcDbLine
 10
-400.0
 20
35.0
 30
0.0
 11
400.0
 21
35.0
 31
0.0
  0
LINE
  5
C8
330
23
100
AcDbEntity
  8
0
  6
Continuous
 62
     7
370
    25
100
AcDbLine
 10
-130.0
 20
-26.0
 30
0.0
 11
-130.0
 21
0.0
 31
0.0
  0
LINE
  5
C9
330
23
100
AcDbEntity
  8
0
  6
Continuous
 62
     7
370
    25
100
AcDbLine
 10
130.0
 20
-26.0
 30
0.0
 11
130.0
 21
0.0
 31
0.0
  0
LINE
  5
CA
330
23
100
AcDbEntity
  8
0
  6
Continuous
 62
     7
370
    25
100
AcDbLine
 10
130.0
 20
-26.0
 30
0.0
 11
-130.0
 21
-26.0
 31
0.0
  0
VIEWPORT
  5
279
330
23
100
AcDbEntity
  8
0
100
AcDbViewport
 10
0.0
 20
0.0
 30
0.0
 40
205.6
 41
156.0
 68
     1
 69
     1
 12
0.0
 22
0.0
 13
0.0
 23
0.0
 14
10.0
 24
10.0
 15
10.0
 25
10.0
 16
0.0
 26
0.0
 36
1.0
 17
0.0
 27
0.0
 37
0.0
 42
50.0
 43
0.0
 44
0.0
 45
1238.2879377432
 50
0.0
 51
0.0
 72
   100
 90
   557152
  1

281
     0
 71
     1
 74
     0
110
0.0
120
0.0
130
0.0
111
1.0
121
0.0
131
0.0
112
0.0
122
1.0
132
0.0
 79
     0
146
0.0
  0
ENDBLK
  5
25
330
23
100
AcDbEntity
  8
0
100
AcDbBlockEnd
  0
BLOCK
  5
CD
330
CB
100
AcDbEntity
  8
0
100
AcDbBlockBegin
  2
*Paper_Space1
 70
     0
 10
0.0
 20
0.0
 30
0.0
  3
*Paper_Space1
  1

  0
LINE
  5
D6
330
CB
100
AcDbEntity
  8
0
  6
Continuous
 62
     7
370
    25
100
AcDbLine
 10
-800.0
 20
35.0
 30
0.0
 11
800.0
 21
35.0
 31
0.0
  0
LINE
  5
D7
330
CB
100
AcDbEntity
  8
0
  6
Continuous
 62
     7
370
    25
100
AcDbLine
 10
800.0
 20
35.0
 30
0.0
 11
800.0
 21
0.0
 31
0.0
  0
LINE
  5
D8
330
CB
100
AcDbEntity
  8
0
  6
Continuous
 62
     7
370
    25
100
AcDbLine
 10
-800.0
 20
0.0
 30
0.0
 11
800.0
 21
0.0
 31
0.0
  0
LINE
  5
D9
330
CB
100
AcDbEntity
  8
0
  6
Continuous
 62
     7
370
    25
100
AcDbLine
 10
-800.0
 20
35.0
 30
0.0
 11
-800.0
 21
0.0
 31
0.0
  0
LINE
  5
DA
330
CB
100
AcDbEntity
  8
0
  6
Continuous
 62
     7
370
    25
100
AcDbLine
 10
130.0
 20
-26.0
 30
0.0
 11
-130.0
 21
-26.0
 31
0.0
  0
LINE
  5
DB
330
CB
100
AcDbEntity
  8
0
  6
Continuous
 62
     7
370
    25
100
AcDbLine
 10
130.0
 20
-26.0
 30
0.0
 11
130.0
 21
0.0
 31
0.0
  0
LINE
  5
DC
330
CB
100
AcDbEntity
  8
0
  6
Continuous
 62
     7
370
    25
100
AcDbLine
 10
-130.0
 20
-26.0
 30
0.0
 11
-130.0
 21
0.0
 31
0.0
  0
VIEWPORT
  5
27B
330
CB
100
AcDbEntity
  8
0
100
AcDbViewport
 10
0.0
 20
0.0
 30
0.0
 40
205.6
 41
156.0
 68
     1
 69
     1
 12
0.0
 22
0.0
 13
0.0
 23
0.0
 14
10.0
 24
10.0
 15
10.0
 25
10.0
 16
0.0
 26
0.0
 36
1.0
 17
0.0
 27
0.0
 37
0.0
 42
50.0
 43
0.0
 44
0.0
 45
1238.2879377432
 50
0.0
 51
0.0
 72
   100
 90
   557152
  1

281
     0
 71
     1
 74
     0
110
0.0
120
0.0
130
0.0
111
1.0
121
0.0
131
0.0
112
0.0
122
1.0
132
0.0
 79
     0
146
0.0
  0
ENDBLK
  5
CE
330
CB
100
AcDbEntity
  8
0
100
AcDbBlockEnd
  0
BLOCK
  5
DF
330
DD
100
AcDbEntity
  8
0
100
AcDbBlockBegin
  2
*Paper_Space2
 70
     0
 10
0.0
 20
0.0
 30
0.0
  3
*Paper_Space2
  1

  0
LINE
  5
E8
330
DD
100
AcDbEntity
  8
0
  6
Continuous
 62
     7
370
    25
100
AcDbLine
 10
-800.0
 20
35.0
 30
0.0
 11
800.0
 21
35.0
 31
0.0
  0
LINE
  5
E9
330
DD
100
AcDbEntity
  8
0
  6
Continuous
 62
     7
370
    25
100
AcDbLine
 10
-800.0
 20
35.0
 30
0.0
 11
-800.0
 21
0.0
 31
0.0
  0
LINE
  5
EA
330
DD
100
AcDbEntity
  8
0
  6
Continuous
 62
     7
370
    25
100
AcDbLine
 10
-800.0
 20
0.0
 30
0.0
 11
800.0
 21
0.0
 31
0.0
  0
LINE
  5
EB
330
DD
100
AcDbEntity
  8
0
  6
Continuous
 62
     7
370
    25
100
AcDbLine
 10
800.0
 20
35.0
 30
0.0
 11
800.0
 21
0.0
 31
0.0
  0
LINE
  5
EC
330
DD
100
AcDbEntity
  8
0
  6
Continuous
 62
     7
370
    25
100
AcDbLine
 10
130.0
 20
-26.0
 30
0.0
 11
130.0
 21
0.0
 31
0.0
  0
LINE
  5
ED
330
DD
100
AcDbEntity
  8
0
  6
Continuous
 62
     7
370
    25
100
AcDbLine
 10
130.0
 20
-26.0
 30
0.0
 11
-130.0
 21
-26.0
 31
0.0
  0
LINE
  5
EE
330
DD
100
AcDbEntity
  8
0
  6
Continuous
 62
     7
370
    25
100
AcDbLine
 10
-130.0
 20
-26.0
 30
0.0
 11
-130.0
 21
0.0
 31
0.0
  0
VIEWPORT
  5
27D
330
DD
100
AcDbEntity
  8
0
100
AcDbViewport
 10
0.0
 20
0.0
 30
0.0
 40
205.6
 41
156.0
 68
     1
 69
     1
 12
0.0
 22
0.0
 13
0.0
 23
0.0
 14
10.0
 24
10.0
 15
10.0
 25
10.0
 16
0.0
 26
0.0
 36
1.0
 17
0.0
 27
0.0
 37
0.0
 42
50.0
 43
0.0
 44
0.0
 45
1238.2879377432
 50
0.0
 51
0.0
 72
   100
 90
   557152
  1

281
     0
 71
     1
 74
     0
110
0.0
120
0.0
130
0.0
111
1.0
121
0.0
131
0.0
112
0.0
122
1.0
132
0.0
 79
     0
146
0.0
  0
ENDBLK
  5
E0
330
DD
100
AcDbEntity
  8
0
100
AcDbBlockEnd
  0
BLOCK
  5
F1
330
EF
100
AcDbEntity
  8
0
100
AcDbBlockBegin
  2
*Paper_Space3
 70
     0
 10
0.0
 20
0.0
 30
0.0
  3
*Paper_Space3
  1

  0
LINE
  5
FA
330
EF
100
AcDbEntity
  8
0
  6
Continuous
 62
     7
370
    25
100
AcDbLine
 10
-400.0
 20
35.0
 30
0.0
 11
-400.0
 21
0.0
 31
0.0
  0
LINE
  5
FB
330
EF
100
AcDbEntity
  8
0
  6
Continuous
 62
     7
370
    25
100
AcDbLine
 10
-400.0
 20
35.0
 30
0.0
 11
400.0
 21
35.0
 31
0.0
  0
LINE
  5
FC
330
EF
100
AcDbEntity
  8
0
  6
Continuous
 62
     7
370
    25
100
AcDbLine
 10
400.0
 20
35.0
 30
0.0
 11
400.0
 21
0.0
 31
0.0
  0
LINE
  5
FD
330
EF
100
AcDbEntity
  8
0
  6
Continuous
 62
     7
370
    25
100
AcDbLine
 10
-400.0
 20
0.0
 30
0.0
 11
400.0
 21
0.0
 31
0.0
  0
LINE
  5
FE
330
EF
100
AcDbEntity
  8
0
  6
Continuous
 62
     7
370
    25
100
AcDbLine
 10
130.0
 20
-26.0
 30
0.0
 11
-130.0
 21
-26.0
 31
0.0
  0
LINE
  5
FF
330
EF
100
AcDbEntity
  8
0
  6
Continuous
 62
     7
370
    25
100
AcDbLine
 10
-130.0
 20
-26.0
 30
0.0
 11
-130.0
 21
0.0
 31
0.0
  0
LINE
  5
100
330
EF
100
AcDbEntity
  8
0
  6
Continuous
 62
     7
370
    25
100
AcDbLine
 10
130.0
 20
-26.0
 30
0.0
 11
130.0
 21
0.0
 31
0.0
  0
VIEWPORT
  5
27F
330
EF
100
AcDbEntity
  8
0
100
AcDbViewport
 10
0.0
 20
0.0
 30
0.0
 40
205.6
 41
156.0
 68
     1
 69
     1
 12
0.0
 22
0.0
 13
0.0
 23
0.0
 14
10.0
 24
10.0
 15
10.0
 25
10.0
 16
0.0
 26
0.0
 36
1.0
 17
0.0
 27
0.0
 37
0.0
 42
50.0
 43
0.0
 44
0.0
 45
1238.2879377432
 50
0.0
 51
0.0
 72
   100
 90
   557152
  1

281
     0
 71
     1
 74
     0
110
0.0
120
0.0
130
0.0
111
1.0
121
0.0
131
0.0
112
0.0
122
1.0
132
0.0
 79
     0
146
0.0
  0
ENDBLK
  5
F2
330
EF
100
AcDbEntity
  8
0
100
AcDbBlockEnd
  0
BLOCK
  5
103
330
101
100
AcDbEntity
  8
0
100
AcDbBlockBegin
  2
*Paper_Space4
 70
     0
 10
0.0
 20
0.0
 30
0.0
  3
*Paper_Space4
  1

  0
CIRCLE
  5
10D
330
101
100
AcDbEntity
  8
0
  6
Continuous
 62
     7
370
    25
100
AcDbCircle
 10
0.0
 20
0.0
 30
0.0
 40
45.0
  0
LINE
  5
11A
330
101
100
AcDbEntity
  8
0
  6
Continuous
 62
     7
370
    25
100
AcDbLine
 10
800.0
 20
-400.0
 30
0.0
 11
-800.0
 21
-400.0
 31
0.0
  0
LINE
  5
11B
330
101
100
AcDbEntity
  8
0
  6
Continuous
 62
     7
370
    25
100
AcDbLine
 10
-800.0
 20
400.0
 30
0.0
 11
800.0
 21
400.0
 31
0.0
  0
LINE
  5
11C
330
101
100
AcDbEntity
  8
0
  6
Continuous
 62
     7
370
    25
100
AcDbLine
 10
800.0
 20
400.0
 30
0.0
 11
800.0
 21
-400.0
 31
0.0
  0
LINE
  5
11D
330
101
100
AcDbEntity
  8
0
  6
Continuous
 62
     7
370
    25
100
AcDbLine
 10
-800.0
 20
-400.0
 30
0.0
 11
-800.0
 21
400.0
 31
0.0
  0
LINE
  5
11E
330
101
100
AcDbEntity
  8
0
  6
Continuous
 62
     7
370
    25
100
AcDbLine
 10
130.0
 20
-130.0
 30
0.0
 11
130.0
 21
130.0
 31
0.0
  0
LINE
  5
11F
330
101
100
AcDbEntity
  8
0
  6
Continuous
 62
     7
370
    25
100
AcDbLine
 10
-130.0
 20
-130.0
 30
0.0
 11
130.0
 21
-130.0
 31
0.0
  0
LINE
  5
120
330
101
100
AcDbEntity
  8
0
  6
Continuous
 62
     7
370
    25
100
AcDbLine
 10
-130.0
 20
130.0
 30
0.0
 11
-130.0
 21
-130.0
 31
0.0
  0
LINE
  5
121
330
101
100
AcDbEntity
  8
0
  6
Continuous
 62
     7
370
    25
100
AcDbLine
 10
130.0
 20
130.0
 30
0.0
 11
-130.0
 21
130.0
 31
0.0
  0
LINE
  5
122
330
101
100
AcDbEntity
  8
0
  6
Continuous
 62
     7
370
    25
100
AcDbLine
 10
-28.8654208587
 20
34.5222751082
 30
0.0
 11
-19.3431457505
 21
25.0
 31
0.0
  0
LINE
  5
123
330
101
100
AcDbEntity
  8
0
  6
Continuous
 62
     7
370
    25
100
AcDbLine
 10
-19.3431457505
 20
25.0
 30
0.0
 11
19.3431457505
 21
25.0
 31
0.0
  0
LINE
  5
124
330
101
100
AcDbEntity
  8
0
  6
Continuous
 62
     7
370
    25
100
AcDbLine
 10
19.3431457505
 20
25.0
 30
0.0
 11
28.8654208587
 21
34.5222751082
 31
0.0
  0
LINE
  5
125
330
101
100
AcDbEntity
  8
0
  6
Continuous
 62
     7
370
    25
100
AcDbLine
 10
34.5222751082
 20
28.8654208587
 30
0.0
 11
25.0
 21
19.3431457505
 31
0.0
  0
LINE
  5
126
330
101
100
AcDbEntity
  8
0
  6
Continuous
 62
     7
370
    25
100
AcDbLine
 10
25.0
 20
19.3431457505
 30
0.0
 11
25.0
 21
-19.3431457505
 31
0.0
  0
LINE
  5
127
330
101
100
AcDbEntity
  8
0
  6
Continuous
 62
     7
370
    25
100
AcDbLine
 10
25.0
 20
-19.3431457505
 30
0.0
 11
34.5222751082
 21
-28.8654208587
 31
0.0
  0
LINE
  5
128
330
101
100
AcDbEntity
  8
0
  6
Continuous
 62
     7
370
    25
100
AcDbLine
 10
-25.0
 20
19.3431457505
 30
0.0
 11
-34.5222751082
 21
28.8654208587
 31
0.0
  0
LINE
  5
129
330
101
100
AcDbEntity
  8
0
  6
Continuous
 62
     7
370
    25
100
AcDbLine
 10
-25.0
 20
-19.3431457505
 30
0.0
 11
-25.0
 21
19.3431457505
 31
0.0
  0
LINE
  5
12A
330
101
100
AcDbEntity
  8
0
  6
Continuous
 62
     7
370
    25
100
AcDbLine
 10
-34.5222751082
 20
-28.8654208587
 30
0.0
 11
-25.0
 21
-19.3431457505
 31
0.0
  0
LINE
  5
12B
330
101
100
AcDbEntity
  8
0
  6
Continuous
 62
     7
370
    25
100
AcDbLine
 10
-19.3431457505
 20
-25.0
 30
0.0
 11
-28.8654208587
 21
-34.5222751082
 31
0.0
  0
LINE
  5
12C
330
101
100
AcDbEntity
  8
0
  6
Continuous
 62
     7
370
    25
100
AcDbLine
 10
28.8654208587
 20
-34.5222751082
 30
0.0
 11
19.3431457505
 21
-25.0
 31
0.0
  0
LINE
  5
12D
330
101
100
AcDbEntity
  8
0
  6
Continuous
 62
     7
370
    25
100
AcDbLine
 10
19.3431457505
 20
-25.0
 30
0.0
 11
-19.3431457505
 21
-25.0
 31
0.0
  0
VIEWPORT
  5
281
330
101
100
AcDbEntity
  8
0
100
AcDbViewport
 10
0.0
 20
0.0
 30
0.0
 40
205.6
 41
156.0
 68
     1
 69
     1
 12
0.0
 22
0.0
 13
0.0
 23
0.0
 14
10.0
 24
10.0
 15
10.0
 25
10.0
 16
0.0
 26
0.0
 36
1.0
 17
0.0
 27
0.0
 37
0.0
 42
50.0
 43
0.0
 44
0.0
 45
1238.2879377432
 50
0.0
 51
0.0
 72
   100
 90
   557152
  1

281
     0
 71
     1
 74
     0
110
0.0
120
0.0
130
0.0
111
1.0
121
0.0
131
0.0
112
0.0
122
1.0
132
0.0
 79
     0
146
0.0
  0
ENDBLK
  5
104
330
101
100
AcDbEntity
  8
0
100
AcDbBlockEnd
  0
BLOCK
  5
130
330
12E
100
AcDbEntity
  8
0
100
AcDbBlockBegin
  2
*Paper_Space5
 70
     0
 10
0.0
 20
0.0
 30
0.0
  3
*Paper_Space5
  1

  0
SPLINE
  5
143
330
12E
100
AcDbEntity
  8
0
  6
Continuous
 62
     7
370
    25
100
AcDbSpline
210
0.0
220
0.0
230
1.0
 70
     8
 71
     3
 72
    10
 73
     6
 74
     0
 42
0.000000001
 43
0.00000001
 40
0.0
 40
0.0
 40
0.0
 40
0.0
 40
0.5000000000000003
 40
0.5000000000000003
 40
1.0
 40
1.0
 40
1.0
 40
1.0
 10
29.00950897175547
 20
-32.09522086284347
 30
0.0
 10
24.46852861851038
 20
-34.66335657537775
 30
0.0
 10
19.92785081974565
 20
-37.21235010254621
 30
0.0
 10
10.84724410617462
 20
-42.26295634952326
 30
0.0
 10
6.307318392997314
 20
-44.76436650688536
 30
0.0
 10
1.767766952965967
 20
-47.24209694240209
 30
0.0
  0
SPLINE
  5
146
330
12E
100
AcDbEntity
  8
0
  6
Continuous
 62
     7
370
    25
100
AcDbSpline
210
0.0
220
0.0
230
1.0
 70
     8
 71
     3
 72
    10
 73
     6
 74
     0
 42
0.000000001
 43
0.00000001
 40
0.0
 40
0.0
 40
0.0
 40
0.0
 40
0.5000000000000003
 40
0.5000000000000003
 40
1.0
 40
1.0
 40
1.0
 40
1.0
 10
-111.3693180368815
 20
18.07055200341473
 30
0.0
 10
-106.8297665968501
 20
20.54828243893147
 30
0.0
 10
-102.2898408836728
 20
23.04969259629356
 30
0.0
 10
-93.20923417010174
 20
28.10029884327064
 30
0.0
 10
-88.668556371337
 20
30.64929237043907
 30
0.0
 10
-84.1275760180919
 20
33.21742808297336
 30
0.0
  0
SPLINE
  5
147
330
12E
100
AcDbEntity
  8
0
  6
Continuous
 62
     7
370
    25
100
AcDbSpline
210
0.0
220
0.0
230
1.0
 70
     8
 71
     3
 72
    20
 73
    16
 74
     0
 42
0.000000001
 43
0.00000001
 40
0.0
 40
0.0
 40
0.0
 40
0.0
 40
0.1249999999999988
 40
0.1249999999999988
 40
0.2499999999999976
 40
0.2499999999999976
 40
0.3749999999999963
 40
0.3749999999999963
 40
0.4999999999999951
 40
0.4999999999999951
 40
0.6249999999999939
 40
0.6249999999999939
 40
0.7499999999999927
 40
0.7499999999999927
 40
1.0
 40
1.0
 40
1.0
 40
1.0
 10
-111.3693180368815
 20
16.0576575536187
 30
0.0
 10
-111.4860404584627
 20
16.12694090258739
 30
0.0
 10
-111.5893706612168
 20
16.20129625783407
 30
0.0
 10
-111.770336762355
 20
16.35974523760954
 30
0.0
 10
-111.848597918891
 20
16.44482902553668
 30
0.0
 10
-111.9739504127692
 20
16.62010668712646
 30
0.0
 10
-112.0212040343214
 20
16.70988897808901
 30
0.0
 10
-112.0851433132162
 20
16.89371266748854
 30
0.0
 10
-112.1015040347503
 20
16.98833838909434
 30
0.0
 10
-112.101597925733
 20
17.17390664102605
 30
0.0
 10
-112.0858546277654
 20
17.26579474240991
 30
0.0
 10
-112.0220413087295
 20
17.44774493408474
 30
0.0
 10
-111.9741763553177
 20
17.53640378823184
 30
0.0
 10
-111.7877429428994
 20
17.78880528754735
 30
0.0
 10
-111.6026977792689
 20
17.94317111603294
 30
0.0
 10
-111.3693180368814
 20
18.07055200341473
 30
0.0
  0
SPLINE
  5
148
330
12E
100
AcDbEntity
  8
0
  6
Continuous
 62
     7
370
    25
100
AcDbSpline
210
0.0
220
0.0
230
1.0
 70
     8
 71
     3
 72
    18
 73
    14
 74
     0
 42
0.000000001
 43
0.00000001
 40
0.0
 40
0.0
 40
0.0
 40
0.0
 40
0.1250000000000001
 40
0.1250000000000001
 40
0.2500000000000002
 40
0.2500000000000002
 40
0.5000000000000002
 40
0.5000000000000002
 40
0.7500000000000002
 40
0.7500000000000002
 40
0.8750000000000002
 40
0.8750000000000002
 40
1.0
 40
1.0
 40
1.0
 40
1.0
 10
-1.767766952966751
 20
-47.21397111264136
 30
0.0
 10
-6.334303318611879
 20
-44.65213592010413
 30
0.0
 10
-10.90081498775184
 20
-42.0927293932786
 30
0.0
 10
-20.03382034880526
 20
-36.97568422838341
 30
0.0
 10
-24.60031110657268
 20
-34.4183341355888
 30
0.0
 10
-38.29990637571012
 20
-26.73418839000461
 30
0.0
 10
-47.43309475818623
 20
-21.59928193776619
 30
0.0
 10
-65.70228011942687
 20
-11.05272175864928
 30
0.0
 10
-74.83579191844353
 20
-5.642491970859776
 30
0.0
 10
-88.53591715453821
 20
2.490890880808651
 30
0.0
 10
-93.1025750794326
 20
5.20599823439944
 30
0.0
 10
-102.2359202880096
 20
10.63389868405242
 30
0.0
 10
-106.8026039584631
 20
13.34697659918643
 30
0.0
 10
-111.3693180368815
 20
16.05765755361869
 30
0.0
  0
SPLINE
  5
149
330
12E
100
AcDbEntity
  8
0
  6
Continuous
 62
     7
370
    25
100
AcDbSpline
210
0.0
220
0.0
230
1.0
 70
     8
 71
     3
 72
    20
 73
    16
 74
     0
 42
0.000000001
 43
0.00000001
 40
0.0
 40
0.0
 40
0.0
 40
0.0
 40
0.1249999999999988
 40
0.1249999999999988
 40
0.2499999999999976
 40
0.2499999999999976
 40
0.3749999999999963
 40
0.3749999999999963
 40
0.4999999999999951
 40
0.4999999999999951
 40
0.6249999999999939
 40
0.6249999999999939
 40
0.7499999999999927
 40
0.7499999999999927
 40
1.0
 40
1.0
 40
1.0
 40
1.0
 10
1.767766952965995
 20
-47.2420969424021
 30
0.0
 10
1.651076622558804
 20
-47.30578763673608
 30
0.0
 10
1.524888890504214
 20
-47.36198713469484
 30
0.0
 10
1.254291131053964
 20
-47.46000999237439
 30
0.0
 10
1.108171700871394
 20
-47.50216549580036
 30
0.0
 10
0.8055867020678662
 20
-47.56913996191721
 30
0.0
 10
0.649865620014102
 20
-47.59405066896452
 30
0.0
 10
0.3296452932167251
 20
-47.62687721307809
 30
0.0
 10
0.1640861135769403
 20
-47.63460638185028
 30
0.0
 10
-0.1619423569010348
 20
-47.63204199209636
 30
0.0
 10
-0.3240420261123034
 20
-47.6220256409757
 30
0.0
 10
-0.6463691405368746
 20
-47.58412244929128
 30
0.0
 10
-0.8041759673732205
 20
-47.55635976792319
 30
0.0
 10
-1.255417703260084
 20
-47.44956473750937
 30
0.0
 10
-1.534320575655584
 20
-47.344934954179
 30
0.0
 10
-1.767766952966765
 20
-47.21397111264137
 30
0.0
  0
SPLINE
  5
14A
330
12E
100
AcDbEntity
  8
0
  6
Continuous
 62
     7
370
    25
100
AcDbSpline
210
0.0
220
0.0
230
1.0
 70
     8
 71
     3
 72
    10
 73
     6
 74
     0
 42
0.000000001
 43
0.00000001
 40
0.0
 40
0.0
 40
0.0
 40
0.0
 40
0.5
 40
0.5
 40
1.0
 40
1.0
 40
1.0
 40
1.0
 10
84.1275760180916
 20
-0.2762380430866469
 30
0.0
 10
74.94138157910449
 20
-5.658842175901092
 30
0.0
 10
65.75511380212137
 20
-11.0222132033351
 30
0.0
 10
47.382119973683
 20
-21.6287173745769
 30
0.0
 10
38.19573809701988
 20
-26.87165093107165
 30
0.0
 10
29.00950897175549
 20
-32.0952208628435
 30
0.0
  0
SPLINE
  5
14C
330
12E
100
AcDbEntity
  8
0
  6
Continuous
 62
     7
370
    25
100
AcDbSpline
210
0.0
220
0.0
230
1.0
 70
     8
 71
     3
 72
    10
 73
     6
 74
     0
 42
0.000000001
 43
0.00000001
 40
0.0
 40
0.0
 40
0.0
 40
0.0
 40
0.5
 40
0.5
 40
1.0
 40
1.0
 40
1.0
 40
1.0
 10
111.3693180368811
 20
16.02953172385778
 30
0.0
 10
106.8297665968498
 20
13.26600762995389
 30
0.0
 10
102.2898408836725
 20
10.52573113131905
 30
0.0
 10
93.20923417010141
 20
5.092092030244095
 30
0.0
 10
88.66855637133676
 20
2.398530561879528
 30
0.0
 10
84.12757601809167
 20
-0.2762380430866712
 30
0.0
  0
SPLINE
  5
14D
330
12E
100
AcDbEntity
  8
0
  6
Continuous
 62
     7
370
    25
100
AcDbSpline
210
0.0
220
0.0
230
1.0
 70
     8
 71
     3
 72
    20
 73
    16
 74
     0
 42
0.000000001
 43
0.00000001
 40
0.0
 40
0.0
 40
0.0
 40
0.0
 40
0.1250000000000012
 40
0.1250000000000012
 40
0.2500000000000024
 40
0.2500000000000024
 40
0.3750000000000037
 40
0.3750000000000037
 40
0.5000000000000049
 40
0.5000000000000049
 40
0.6250000000000061
 40
0.6250000000000061
 40
0.7500000000000073
 40
0.7500000000000073
 40
1.0
 40
1.0
 40
1.0
 40
1.0
 10
111.3693180368811
 20
18.09867783317526
 30
0.0
 10
111.4860404584623
 20
18.03319634273661
 30
0.0
 10
111.5893706612164
 20
17.96181639286516
 30
0.0
 10
111.7703367623547
 20
17.80774694540508
 30
0.0
 10
111.8485979188906
 20
17.7240694164283
 30
0.0
 10
111.9739504127688
 20
17.54991553057381
 30
0.0
 10
112.0212040343211
 20
17.45987086734881
 30
0.0
 10
112.0851433132159
 20
17.2739101597863
 30
0.0
 10
112.1015040347499
 20
17.17737738923106
 30
0.0
 10
112.1015979257326
 20
16.98653017678774
 30
0.0
 10
112.085854627765
 20
16.89126852406255
 30
0.0
 10
112.0220413087292
 20
16.70108502674513
 30
0.0
 10
111.9741763553173
 20
16.60761637674363
 30
0.0
 10
111.787742942899
 20
16.33915000134209
 30
0.0
 10
111.6026977792686
 20
16.1716053515359
 30
0.0
 10
111.3693180368811
 20
16.02953172385776
 30
0.0
  0
SPLINE
  5
14E
330
12E
100
AcDbEntity
  8
0
  6
Continuous
 62
     7
370
    25
100
AcDbSpline
210
0.0
220
0.0
230
1.0
 70
     8
 71
     3
 72
    18
 73
    14
 74
     0
 42
0.000000001
 43
0.00000001
 40
0.0
 40
0.0
 40
0.0
 40
0.0
 40
0.1250000000000001
 40
0.1250000000000001
 40
0.25
 40
0.25
 40
0.5
 40
0.5
 40
0.7500000000000001
 40
0.7500000000000001
 40
0.875
 40
0.875
 40
1.0
 40
1.0
 40
1.0
 40
1.0
 10
1.767766952966397
 20
81.3703064994353
 30
0.0
 10
6.334303318611512
 20
78.65973103061515
 30
0.0
 10
10.90081498775149
 20
75.94675541006112
 30
0.0
 10
20.03382034880489
 20
70.51905703626119
 30
0.0
 10
24.60031110657231
 20
67.80404912543321
 30
0.0
 10
38.29990637570976
 20
59.67097885218075
 30
0.0
 10
47.43309475818587
 20
54.26093045368737
 30
0.0
 10
65.70228011942655
 20
43.71433819508962
 30
0.0
 10
74.83579191844322
 20
38.57923972335779
 30
0.0
 10
88.53591715453787
 20
30.89479466936522
 30
0.0
 10
93.1025750794323
 20
28.33735101227678
 30
0.0
 10
102.2359202880093
 20
23.22011554363591
 30
0.0
 10
106.8026039584629
 20
20.66061272290096
 30
0.0
 10
111.3693180368812
 20
18.09867783317527
 30
0.0
  0
SPLINE
  5
14F
330
12E
100
AcDbEntity
  8
0
  6
Continuous
 62
     7
370
    25
100
AcDbSpline
210
0.0
220
0.0
230
1.0
 70
     8
 71
     3
 72
    20
 73
    16
 74
     0
 42
0.000000001
 43
0.00000001
 40
0.0
 40
0.0
 40
0.0
 40
0.0
 40
0.1249999999999993
 40
0.1249999999999993
 40
0.2499999999999986
 40
0.2499999999999986
 40
0.3749999999999978
 40
0.3749999999999978
 40
0.4999999999999971
 40
0.4999999999999971
 40
0.6249999999999964
 40
0.6249999999999964
 40
0.7499999999999957
 40
0.7499999999999957
 40
1.0
 40
1.0
 40
1.0
 40
1.0
 10
-1.767766952966335
 20
81.34218066967456
 30
0.0
 10
-1.651076622559158
 20
81.41321776306715
 30
0.0
 10
-1.524888890504568
 20
81.47629311169885
 30
0.0
 10
-1.254291131054318
 20
81.58717080995581
 30
0.0
 10
-1.108171700871734
 20
81.63536237407591
 30
0.0
 10
-0.805586702068213
 20
81.71312663643451
 30
0.0
 10
-0.6498656200144628
 20
81.74278607259136
 30
0.0
 10
-0.3296452932171276
 20
81.78381934241494
 30
0.0
 10
-0.164086113577315
 20
81.7950085495414
 30
0.0
 10
0.1619423569006462
 20
81.79773433179982
 30
0.0
 10
0.3240420261119425
 20
81.7895993354082
 30
0.0
 10
0.6463691405365068
 20
81.75387462145362
 30
0.0
 10
0.8041759673728734
 20
81.72637854832548
 30
0.0
 10
1.255417703259723
 20
81.61793095778417
 30
0.0
 10
1.53432057565521
 20
81.50887410800297
 30
0.0
 10
1.767766952966411
 20
81.37030649943532
 30
0.0
  0
SPLINE
  5
150
330
12E
100
AcDbEntity
  8
0
  6
Continuous
 62
     7
370
    25
100
AcDbSpline
210
0.0
220
0.0
230
1.0
 70
     8
 71
     3
 72
    10
 73
     6
 74
     0
 42
0.000000001
 43
0.00000001
 40
0.0
 40
0.0
 40
0.0
 40
0.0
 40
0.5000000000000003
 40
0.5000000000000003
 40
1.0
 40
1.0
 40
1.0
 40
1.0
 10
-29.00950897175583
 20
65.03641090273022
 30
0.0
 10
-24.46852861851077
 20
67.71117950769644
 30
0.0
 10
-19.92785081974601
 20
70.40474097606092
 30
0.0
 10
-10.84724410617498
 20
75.83838007713587
 30
0.0
 10
-6.30731839299771
 20
78.57865657577071
 30
0.0
 10
-1.767766952966383
 20
81.34218066967458
 30
0.0
  0
SPLINE
  5
152
330
12E
100
AcDbEntity
  8
0
  6
Continuous
 62
     7
370
    25
100
AcDbSpline
210
0.0
220
0.0
230
1.0
 70
     8
 71
     3
 72
    10
 73
     6
 74
     0
 42
0.000000001
 43
0.00000001
 40
0.0
 40
0.0
 40
0.0
 40
0.0
 40
0.5
 40
0.5
 40
1.0
 40
1.0
 40
1.0
 40
1.0
 10
-84.12757601809193
 20
33.2174280829734
 30
0.0
 10
-74.94138157910481
 20
38.44097829107051
 30
0.0
 10
-65.75511380212174
 20
43.68384627862606
 30
0.0
 10
-47.38211997368338
 20
54.29034925014612
 30
0.0
 10
-38.19573809702022
 20
59.65378644566719
 30
0.0
 10
-29.00950897175582
 20
65.0364109027302
 30
0.0
  0
SPLINE
  5
157
330
12E
100
AcDbEntity
  8
0
  6
Continuous
 62
     7
370
    25
100
AcDbSpline
210
0.0
220
0.0
230
1.0
 70
    24
 71
     3
 72
     9
 73
     5
 74
     0
 42
0.000000001
 43
0.00000001
 40
0.0
 40
0.0
 40
0.0
 40
0.0
 40
0.9673380911430971
 40
1.0
 40
1.0
 40
1.0
 40
1.0
 10
-5.00000000000031
 20
-45.40232394471327
 30
0.0
 10
-5.000000000000323
 20
-45.09947551216978
 30
0.0
 10
-5.00000000000033
 20
-44.78640148426129
 30
0.0
 10
-5.000000000000303
 20
-44.47384811421816
 30
0.0
 10
-5.000000000000303
 20
-44.4636395245329
 30
0.0
  0
SPLINE
  5
15A
330
12E
100
AcDbEntity
  8
0
  6
Continuous
 62
     7
370
    25
100
AcDbSpline
210
0.0
220
0.0
230
1.0
 70
     8
 71
     3
 72
     9
 73
     5
 74
     0
 42
0.000000001
 43
0.00000001
 40
0.0
 40
0.0
 40
0.0
 40
0.0
 40
0.0209965096345216
 40
1.0
 40
1.0
 40
1.0
 40
1.0
 10
-19.75593914580737
 20
-37.13170887004992
 30
0.0
 10
-19.73577292665472
 20
-37.13634609865719
 30
0.0
 10
-18.77531714120896
 20
-37.35720321672097
 30
0.0
 10
-17.77523719844189
 20
-37.50710730819085
 30
0.0
 10
-16.79615544382843
 20
-37.65386393695992
 30
0.0
  0
SPLINE
  5
15B
330
12E
100
AcDbEntity
  8
0
  6
Continuous
 62
     7
370
    25
100
AcDbSpline
210
0.0
220
0.0
230
1.0
 70
     8
 71
     3
 72
     9
 73
     5
 74
     0
 42
0.000000001
 43
0.00000001
 40
0.0
 40
0.0
 40
0.0
 40
0.0
 40
0.980075766193194
 40
1.0
 40
1.0
 40
1.0
 40
1.0
 10
77.68907763156388
 20
-4.039940613064945
 30
0.0
 10
76.75659786412126
 20
-4.075247748440161
 30
0.0
 10
75.8051614552153
 20
-4.111272652425238
 30
0.0
 10
74.85377266734712
 20
-4.148123582745965
 30
0.0
 10
74.83481697469647
 20
-4.148857809297665
 30
0.0
  0
SPLINE
  5
15E
330
12E
100
AcDbEntity
  8
0
  6
Continuous
 62
     7
370
    25
100
AcDbSpline
210
0.0
220
0.0
230
1.0
 70
     8
 71
     3
 72
     9
 73
     5
 74
     0
 42
0.000000001
 43
0.00000001
 40
0.0
 40
0.0
 40
0.0
 40
0.0
 40
0.3153855911813701
 40
1.0
 40
1.0
 40
1.0
 40
1.0
 10
61.46921357455684
 20
-13.48234923418855
 30
0.0
 10
61.63347601954591
 20
-13.24121924485538
 30
0.0
 10
62.15430655074986
 20
-12.47666310762052
 30
0.0
 10
62.49669526997187
 20
-11.68094514718862
 30
0.0
 10
62.73109952056824
 20
-11.13618516612117
 30
0.0
  0
LWPOLYLINE
  5
15F
330
12E
100
AcDbEntity
  8
0
  6
Continuous
 62
     7
370
    25
100
AcDbPolyline
 90
        3
 70
   128
 43
0.0
 10
43.9162371762
 20
-21.9977740021
 10
43.007757221
 20
-23.974873309
 10
42.8566379053
 20
-24.2526801263
  0
LWPOLYLINE
  5
160
330
12E
100
AcDbEntity
  8
0
  6
Continuous
 62
     7
370
    25
100
AcDbPolyline
 90
        3
 70
   128
 43
0.0
 10
-42.8842582757
 20
-24.2027092814
 10
-43.2901580752
 20
-23.4237587737
 10
-43.9162371762
 20
-21.9977740021
  0
LINE
  5
17A
330
12E
100
AcDbEntity
  8
0
  6
Continuous
 62
     7
370
    25
100
AcDbLine
 10
96.9238815543
 20
9.7984897426
 30
0.0
 11
96.9238815543
 21
16.3308162377
 31
0.0
  0
LINE
  5
17B
330
12E
100
AcDbEntity
  8
0
  6
Continuous
 62
     7
370
    25
100
AcDbLine
 10
-96.9238815543
 20
16.3308162377
 30
0.0
 11
-96.9238815543
 21
9.7984897426
 31
0.0
  0
LINE
  5
17C
330
12E
100
AcDbEntity
  8
0
  6
Continuous
 62
     7
370
    25
100
AcDbLine
 10
95.9238815543
 20
6.7845381011
 30
0.0
 11
95.9238815543
 21
8.0666266064
 31
0.0
  0
LINE
  5
17D
330
12E
100
AcDbEntity
  8
0
  6
Continuous
 62
     7
370
    25
100
AcDbLine
 10
-95.9238815543
 20
8.0666266064
 30
0.0
 11
-95.9238815543
 21
6.8818127058
 31
0.0
  0
LINE
  5
17E
330
12E
100
AcDbEntity
  8
0
  6
Continuous
 62
     7
370
    25
100
AcDbLine
 10
848.5281374239
 20
-134.7026939485
 30
0.0
 11
-282.8427124746
 21
518.4237955096
 31
0.0
  0
LINE
  5
17F
330
12E
100
AcDbEntity
  8
0
  6
Continuous
 62
     7
370
    25
100
AcDbLine
 10
282.8427124746
 20
-461.2659386776
 30
0.0
 11
848.5281374239
 21
-134.7026939485
 31
0.0
  0
LINE
  5
180
330
12E
100
AcDbEntity
  8
0
  6
Continuous
 62
     7
370
    25
100
AcDbLine
 10
-848.5281374239
 20
191.8605507805
 30
0.0
 11
282.8427124746
 21
-461.2659386776
 31
0.0
  0
LINE
  5
181
330
12E
100
AcDbEntity
  8
0
  6
Continuous
 62
     7
370
    25
100
AcDbLine
 10
-282.8427124746
 20
518.4237955096
 30
0.0
 11
-848.5281374239
 21
191.8605507805
 31
0.0
  0
LINE
  5
182
330
12E
100
AcDbEntity
  8
0
  6
Continuous
 62
     7
370
    25
100
AcDbLine
 10
-282.8427124746
 20
502.0956332732
 30
0.0
 11
-820.2438661764
 21
191.8605507805
 31
0.0
  0
LINE
  5
183
330
12E
100
AcDbEntity
  8
0
  6
Continuous
 62
     7
370
    25
100
AcDbLine
 10
-820.2438661764
 20
191.8605507805
 30
0.0
 11
282.8427124746
 21
-444.9377764412
 31
0.0
  0
LINE
  5
184
330
12E
100
AcDbEntity
  8
0
  6
Continuous
 62
     7
370
    25
100
AcDbLine
 10
282.8427124746
 20
-444.9377764412
 30
0.0
 11
820.2438661764
 21
-134.7026939485
 31
0.0
  0
LINE
  5
185
330
12E
100
AcDbEntity
  8
0
  6
Continuous
 62
     7
370
    25
100
AcDbLine
 10
820.2438661764
 20
-134.7026939485
 30
0.0
 11
-282.8427124746
 21
502.0956332732
 31
0.0
  0
LINE
  5
186
330
12E
100
AcDbEntity
  8
0
  6
Continuous
 62
     7
370
    25
100
AcDbLine
 10
-848.5281374239
 20
191.8605507805
 30
0.0
 11
-848.5281374239
 21
163.2816223645
 31
0.0
  0
LINE
  5
187
330
12E
100
AcDbEntity
  8
0
  6
Continuous
 62
     7
370
    25
100
AcDbLine
 10
282.8427124746
 20
-461.2659386776
 30
0.0
 11
282.8427124746
 21
-489.8448670936
 31
0.0
  0
LINE
  5
188
330
12E
100
AcDbEntity
  8
0
  6
Continuous
 62
     7
370
    25
100
AcDbLine
 10
-848.5281374239
 20
163.2816223645
 30
0.0
 11
282.8427124746
 21
-489.8448670936
 31
0.0
  0
LINE
  5
189
330
12E
100
AcDbEntity
  8
0
  6
Continuous
 62
     7
370
    25
100
AcDbLine
 10
848.5281374239
 20
-134.7026939485
 30
0.0
 11
848.5281374239
 21
-163.2816223645
 31
0.0
  0
LINE
  5
18A
330
12E
100
AcDbEntity
  8
0
  6
Continuous
 62
     7
370
    25
100
AcDbLine
 10
282.8427124746
 20
-489.8448670936
 30
0.0
 11
848.5281374239
 21
-163.2816223645
 31
0.0
  0
LINE
  5
18B
330
12E
100
AcDbEntity
  8
0
  6
Continuous
 62
     7
370
    25
100
AcDbLine
 10
282.8427124746
 20
-444.9377764412
 30
0.0
 11
29.0095089718
 21
-32.0952208628
 31
0.0
  0
LINE
  5
18C
330
12E
100
AcDbEntity
  8
0
  6
Continuous
 62
     7
370
    25
100
AcDbLine
 10
-820.2438661764
 20
191.8605507805
 30
0.0
 11
-84.1275760181
 21
33.217428083
 31
0.0
  0
LINE
  5
18D
330
12E
100
AcDbEntity
  8
0
  6
Continuous
 62
     7
370
    25
100
AcDbLine
 10
820.2438661764
 20
-134.7026939485
 30
0.0
 11
84.1275760181
 21
-0.2762380431
 31
0.0
  0
LINE
  5
18E
330
12E
100
AcDbEntity
  8
0
  6
Continuous
 62
     7
370
    25
100
AcDbLine
 10
-29.0095089718
 20
65.0364109027
 30
0.0
 11
-282.8427124746
 21
502.0956332732
 31
0.0
  0
LINE
  5
18F
330
12E
100
AcDbEntity
  8
0
  6
Continuous
 62
     7
370
    25
100
AcDbLine
 10
98.6048727694
 20
8.3892675443
 30
0.0
 11
96.8732836951
 21
9.3888926393
 31
0.0
  0
LINE
  5
190
330
12E
100
AcDbEntity
  8
0
  6
Continuous
 62
     7
370
    25
100
AcDbLine
 10
-96.8732836951
 20
9.3888926393
 30
0.0
 11
-98.5320759958
 21
8.4312922272
 31
0.0
  0
LINE
  5
191
330
12E
100
AcDbEntity
  8
0
  6
Continuous
 62
     7
370
    25
100
AcDbLine
 10
-74.8280374816
 20
-4.1527715274
 30
0.0
 11
-77.4497149754
 21
-4.0521943176
 31
0.0
  0
LINE
  5
192
330
12E
100
AcDbEntity
  8
0
  6
Continuous
 62
     7
370
    25
100
AcDbLine
 10
-62.6181064333
 20
-11.201414687
 30
0.0
 11
-61.5116038838
 21
-13.4200550558
 31
0.0
  0
LINE
  5
193
330
12E
100
AcDbEntity
  8
0
  6
Continuous
 62
     7
370
    25
100
AcDbLine
 10
5.0
 20
-44.4636395245
 30
0.0
 11
5.0
 21
-45.4449198973
 31
0.0
  0
LINE
  5
194
330
12E
100
AcDbEntity
  8
0
  6
Continuous
 62
     7
370
    25
100
AcDbLine
 10
16.9131182505
 20
-37.5863427459
 30
0.0
 11
20.1919361157
 21
-36.9979426961
 31
0.0
  0
LINE
  5
195
330
12E
100
AcDbEntity
  8
0
  6
Continuous
 62
     7
370
    25
100
AcDbLine
 10
-3.5355339059
 20
71.4383637857
 30
0.0
 11
-95.4594154602
 21
18.3718365173
 31
0.0
  0
LINE
  5
196
330
12E
100
AcDbEntity
  8
0
  6
Continuous
 62
     7
370
    25
100
AcDbLine
 10
95.4594154602
 20
18.3718365173
 30
0.0
 11
3.5355339059
 21
71.4383637857
 31
0.0
  0
LINE
  5
197
330
12E
100
AcDbEntity
  8
0
  6
Continuous
 62
     7
370
    25
100
AcDbLine
 10
3.5355339059
 20
-38.7767313103
 30
0.0
 11
95.4594154602
 21
14.2897959582
 31
0.0
  0
LINE
  5
198
330
12E
100
AcDbEntity
  8
0
  6
Continuous
 62
     7
370
    25
100
AcDbLine
 10
-95.4594154602
 20
14.2897959582
 30
0.0
 11
-3.5355339059
 21
-38.7767313103
 31
0.0
  0
LINE
  5
199
330
12E
100
AcDbEntity
  8
0
  6
Continuous
 62
     7
370
    25
100
AcDbLine
 10
-3.5355339059
 20
-38.7767313103
 30
0.0
 11
-3.5355339059
 21
-45.3090578054
 31
0.0
  0
LINE
  5
19A
330
12E
100
AcDbEntity
  8
0
  6
Continuous
 62
     7
370
    25
100
AcDbLine
 10
3.5355339059
 20
-38.7767313103
 30
0.0
 11
3.5355339059
 21
-45.3090578054
 31
0.0
  0
LINE
  5
19B
330
12E
100
AcDbEntity
  8
0
  6
Continuous
 62
     7
370
    25
100
AcDbLine
 10
-95.4594154602
 20
14.2897959582
 30
0.0
 11
-95.4594154602
 21
7.7574694631
 31
0.0
  0
LINE
  5
19C
330
12E
100
AcDbEntity
  8
0
  6
Continuous
 62
     7
370
    25
100
AcDbLine
 10
-95.4594154602
 20
7.7574694631
 30
0.0
 11
-3.5355339059
 21
-45.3090578054
 31
0.0
  0
LINE
  5
19D
330
12E
100
AcDbEntity
  8
0
  6
Continuous
 62
     7
370
    25
100
AcDbLine
 10
95.4594154602
 20
14.2897959582
 30
0.0
 11
95.4594154602
 21
7.7574694631
 31
0.0
  0
LINE
  5
19E
330
12E
100
AcDbEntity
  8
0
  6
Continuous
 62
     7
370
    25
100
AcDbLine
 10
3.5355339059
 20
-45.3090578054
 30
0.0
 11
95.4594154602
 21
7.7574694631
 31
0.0
  0
LINE
  5
19F
330
12E
100
AcDbEntity
  8
0
  6
Continuous
 62
     7
370
    25
100
AcDbLine
 10
-4.0
 20
-45.0409272366
 30
0.0
 11
-4.0
 21
-45.9628179257
 31
0.0
  0
LINE
  5
1A0
330
12E
100
AcDbEntity
  8
0
  6
Continuous
 62
     7
370
    25
100
AcDbLine
 10
4.0
 20
-45.0409272366
 30
0.0
 11
4.0
 21
-46.0009370591
 31
0.0
  0
LINE
  5
1A1
330
12E
100
AcDbEntity
  8
0
  6
Continuous
 62
    60
370
    25
100
AcDbLine
 10
111.3693180369
 20
16.0295317239
 30
0.0
 11
111.3693180369
 21
18.0986778332
 31
0.0
  0
LINE
  5
1A2
330
12E
100
AcDbEntity
  8
0
  6
Continuous
 62
    60
370
    25
100
AcDbLine
 10
-111.3693180369
 20
16.0576575536
 30
0.0
 11
-111.3693180369
 21
18.0705520034
 31
0.0
  0
LINE
  5
1A3
330
12E
100
AcDbEntity
  8
0
  6
Continuous
 62
    60
370
    25
100
AcDbLine
 10
1.767766953
 20
72.0973595465
 30
0.0
 11
1.767766953
 21
81.3703064994
 31
0.0
  0
LINE
  5
1A4
330
12E
100
AcDbEntity
  8
0
  6
Continuous
 62
    60
370
    25
100
AcDbLine
 10
-1.767766953
 20
72.0973595465
 30
0.0
 11
-1.767766953
 21
81.3421806697
 31
0.0
  0
LINE
  5
1A5
330
12E
100
AcDbEntity
  8
0
  6
Continuous
 62
    60
370
    25
100
AcDbLine
 10
91.9238815543
 20
5.7164491835
 30
0.0
 11
91.9238815543
 21
4.3903050516
 31
0.0
  0
LINE
  5
1A6
330
12E
100
AcDbEntity
  8
0
  6
Continuous
 62
    60
370
    25
100
AcDbLine
 10
-91.9238815543
 20
5.7164491835
 30
0.0
 11
-91.9238815543
 21
4.5054875413
 31
0.0
  0
ARC
  5
1A7
330
12E
100
AcDbEntity
  8
0
  6
Continuous
 62
     7
370
    25
100
AcDbCircle
 10
0.0
 20
64.614808361
 30
0.0
 40
7.685109539558517
100
AcDbArc
 50
62.6096722366
 51
117.3903277634
  0
ARC
  5
1A8
330
12E
100
AcDbEntity
  8
0
  6
Continuous
 62
     7
370
    25
100
AcDbCircle
 10
94.6847803262
 20
16.3308162377
 30
0.0
 40
2.183076584171363
100
AcDbArc
 50
290.7834207995
 51
69.2165792005
  0
ARC
  5
1A9
330
12E
100
AcDbEntity
  8
0
  6
Continuous
 62
     7
370
    25
100
AcDbCircle
 10
0.0
 20
-31.9531758855
 30
0.0
 40
7.685109539558604
100
AcDbArc
 50
242.6096722366
 51
297.3903277634
  0
ARC
  5
1AA
330
12E
100
AcDbEntity
  8
0
  6
Continuous
 62
     7
370
    25
100
AcDbCircle
 10
-94.6847803262
 20
16.3308162377
 30
0.0
 40
2.183076584171356
100
AcDbArc
 50
110.7834207995
 51
249.2165792005
  0
ARC
  5
1AB
330
12E
100
AcDbEntity
  8
0
  6
Continuous
 62
     7
370
    25
100
AcDbCircle
 10
0.0
 20
-38.4855023806
 30
0.0
 40
7.68510953955864
100
AcDbArc
 50
242.6096722366
 51
297.3903277634
  0
ARC
  5
1AC
330
12E
100
AcDbEntity
  8
0
  6
Continuous
 62
     7
370
    25
100
AcDbCircle
 10
94.4215962418
 20
10.0480216271
 30
0.0
 40
2.514696392468902
100
AcDbArc
 50
294.3746582936
 51
354.3052007488
  0
ARC
  5
1AD
330
12E
100
AcDbEntity
  8
0
  6
Continuous
 62
     7
370
    25
100
AcDbCircle
 10
-94.4215962418
 20
10.0480216271
 30
0.0
 40
2.514696392468859
100
AcDbArc
 50
185.6947992512
 51
245.6253417064
  0
VIEWPORT
  5
283
330
12E
100
AcDbEntity
  8
0
100
AcDbViewport
 10
0.0
 20
0.0
 30
0.0
 40
205.6
 41
156.0
 68
     1
 69
     1
 12
0.0
 22
0.0
 13
0.0
 23
0.0
 14
10.0
 24
10.0
 15
10.0
 25
10.0
 16
0.0
 26
0.0
 36
1.0
 17
0.0
 27
0.0
 37
0.0
 42
50.0
 43
0.0
 44
0.0
 45
1238.2879377432
 50
0.0
 51
0.0
 72
   100
 90
   557152
  1

281
     0
 71
     1
 74
     0
110
0.0
120
0.0
130
0.0
111
1.0
121
0.0
131
0.0
112
0.0
122
1.0
132
0.0
 79
     0
146
0.0
  0
ENDBLK
  5
131
330
12E
100
AcDbEntity
  8
0
100
AcDbBlockEnd
  0
BLOCK
  5
1B0
330
1AE
100
AcDbEntity
  8
0
100
AcDbBlockBegin
  2
*Paper_Space6
 70
     0
 10
0.0
 20
0.0
 30
0.0
  3
*Paper_Space6
  1

  0
SPLINE
  5
1C3
330
1AE
100
AcDbEntity
  8
0
  6
Continuous
 62
     7
370
    25
100
AcDbSpline
210
0.0
220
0.0
230
1.0
 70
     8
 71
     3
 72
    10
 73
     6
 74
     0
 42
0.000000001
 43
0.00000001
 40
0.0
 40
0.0
 40
0.0
 40
0.0
 40
0.5000000000000003
 40
0.5000000000000003
 40
1.0
 40
1.0
 40
1.0
 40
1.0
 10
52.56429611435521
 20
-19.69236371784502
 30
0.0
 10
49.56721752811212
 20
-22.56163512431294
 30
0.0
 10
46.57033862992837
 20
-25.41080038715332
 30
0.0
 10
40.57707510217705
 20
-31.05936411245262
 30
0.0
 10
37.58069258570688
 20
-33.85854981186672
 30
0.0
 10
34.58455709211368
 20
-36.6328633308383
 30
0.0
  0
SPLINE
  5
1C6
330
1AE
100
AcDbEntity
  8
0
  6
Continuous
 62
     7
370
    25
100
AcDbSpline
210
0.0
220
0.0
230
1.0
 70
     8
 71
     3
 72
    10
 73
     6
 74
     0
 42
0.000000001
 43
0.00000001
 40
0.0
 40
0.0
 40
0.0
 40
0.0
 40
0.5000000000000003
 40
0.5000000000000003
 40
1.0
 40
1.0
 40
1.0
 40
1.0
 10
-106.9223423762737
 20
1.82567981858911
 30
0.0
 10
-103.9262068826806
 20
4.599993337560698
 30
0.0
 10
-100.9298243662104
 20
7.399179036974787
 30
0.0
 10
-94.93656083845907
 20
13.04774276227413
 30
0.0
 10
-91.93968194027528
 20
15.89690802511447
 30
0.0
 10
-88.94260335403219
 20
18.76617943158241
 30
0.0
  0
SPLINE
  5
1C7
330
1AE
100
AcDbEntity
  8
0
  6
Continuous
 62
     7
370
    25
100
AcDbSpline
210
0.0
220
0.0
230
1.0
 70
     8
 71
     3
 72
    20
 73
    16
 74
     0
 42
0.000000001
 43
0.00000001
 40
0.0
 40
0.0
 40
0.0
 40
0.0
 40
0.1249999999999988
 40
0.1249999999999988
 40
0.2499999999999976
 40
0.2499999999999976
 40
0.3749999999999963
 40
0.3749999999999963
 40
0.4999999999999951
 40
0.4999999999999951
 40
0.6249999999999939
 40
0.6249999999999939
 40
0.7499999999999927
 40
0.7499999999999927
 40
1.0
 40
1.0
 40
1.0
 40
1.0
 10
-105.8780355444054
 20
0.1155177780913924
 30
0.0
 10
-106.0240268254948
 20
0.1571905889150085
 30
0.0
 10
-106.1600299980624
 20
0.2051423619379988
 30
0.0
 10
-106.4128731342425
 20
0.3131002077323627
 30
0.0
 10
-106.5308165387365
 20
0.3738553481627549
 30
0.0
 10
-106.7399709310086
 20
0.5042964351560584
 30
0.0
 10
-106.8311212270649
 20
0.5736088611610415
 30
0.0
 10
-106.986809429813
 20
0.7203551656149998
 30
0.0
 10
-107.0513441628289
 20
0.7983333328235795
 30
0.0
 10
-107.1477320848472
 20
0.9559692817330406
 30
0.0
 10
-107.1805696768564
 20
1.03635322545808
 30
0.0
 10
-107.2148064261632
 20
1.200335845349468
 30
0.0
 10
-107.215670741759
 20
1.282712190900807
 30
0.0
 10
-107.1708091274696
 20
1.524625941248477
 30
0.0
 10
-107.0763746278937
 20
1.683051503233973
 30
0.0
 10
-106.9223423762737
 20
1.82567981858911
 30
0.0
  0
SPLINE
  5
1C8
330
1AE
100
AcDbEntity
  8
0
  6
Continuous
 62
     7
370
    25
100
AcDbSpline
210
0.0
220
0.0
230
1.0
 70
     8
 71
     3
 72
    18
 73
    14
 74
     0
 42
0.000000001
 43
0.00000001
 40
0.0
 40
0.0
 40
0.0
 40
0.0
 40
0.1250000000000001
 40
0.1250000000000001
 40
0.2500000000000002
 40
0.2500000000000002
 40
0.5000000000000002
 40
0.5000000000000002
 40
0.7500000000000002
 40
0.7500000000000002
 40
0.8750000000000002
 40
0.8750000000000002
 40
1.0
 40
1.0
 40
1.0
 40
1.0
 10
31.20677331559501
 20
-37.14119589791643
 30
0.0
 10
25.49515008904583
 20
-35.66696946911263
 30
0.0
 10
19.7835577518012
 20
-34.19528597151238
 30
0.0
 10
8.360395562437693
 20
-31.25377004188257
 30
0.0
 10
2.648829380219903
 20
-29.78423973079949
 30
0.0
 10
-14.48602300422497
 20
-25.36298425470407
 30
0.0
 10
-25.90941410874978
 20
-22.40276705893382
 30
0.0
 10
-48.75970918674658
 20
-16.19256331711946
 30
0.0
 10
-60.18350480648313
 20
-12.94341029677688
 30
0.0
 10
-77.31902005033385
 20
-8.05070721152927
 30
0.0
 10
-83.03079531785586
 20
-6.415615003697588
 30
0.0
 10
-94.45438257358343
 20
-3.147867801864469
 30
0.0
 10
-100.1661900425206
 20
-1.514912856378649
 30
0.0
 10
-105.8780355444054
 20
0.1155177780913716
 30
0.0
  0
SPLINE
  5
1C9
330
1AE
100
AcDbEntity
  8
0
  6
Continuous
 62
     7
370
    25
100
AcDbSpline
210
0.0
220
0.0
230
1.0
 70
     8
 71
     3
 72
    20
 73
    16
 74
     0
 42
0.000000001
 43
0.00000001
 40
0.0
 40
0.0
 40
0.0
 40
0.0
 40
0.1249999999999988
 40
0.1249999999999988
 40
0.2499999999999976
 40
0.2499999999999976
 40
0.3749999999999963
 40
0.3749999999999963
 40
0.4999999999999951
 40
0.4999999999999951
 40
0.6249999999999939
 40
0.6249999999999939
 40
0.7499999999999927
 40
0.7499999999999927
 40
1.0
 40
1.0
 40
1.0
 40
1.0
 10
34.58455709211371
 20
-36.6328633308383
 30
0.0
 10
34.50754066321966
 20
-36.70417776916081
 30
0.0
 10
34.41749727239404
 20
-36.77059827267441
 30
0.0
 10
34.21241611929345
 20
-36.89404627121733
 30
0.0
 10
34.09592976996107
 20
-36.9516112900943
 30
0.0
 10
33.84387410422875
 20
-37.05366483690531
 30
0.0
 10
33.70906171759134
 20
-37.09811880020937
 30
0.0
 10
33.4220246604488
 20
-37.17400375784868
 30
0.0
 10
33.26869235951411
 20
-37.20543668878815
 30
0.0
 10
32.95725207101235
 20
-37.25232721576214
 30
0.0
 10
32.79774138965769
 20
-37.26826406548258
 30
0.0
 10
32.47095982120609
 20
-37.28477718458105
 30
0.0
 10
32.30605726880402
 20
-37.28509404755889
 30
0.0
 10
31.8198838156798
 20
-37.26287619262261
 30
0.0
 10
31.49875779661992
 20
-37.21655997948378
 30
0.0
 10
31.20677331559499
 20
-37.14119589791644
 30
0.0
  0
SPLINE
  5
1CA
330
1AE
100
AcDbEntity
  8
0
  6
Continuous
 62
     7
370
    25
100
AcDbSpline
210
0.0
220
0.0
230
1.0
 70
     8
 71
     3
 72
    10
 73
     6
 74
     0
 42
0.000000001
 43
0.00000001
 40
0.0
 40
0.0
 40
0.0
 40
0.0
 40
0.5
 40
0.5
 40
1.0
 40
1.0
 40
1.0
 40
1.0
 10
88.94260335403187
 20
15.81397937664194
 30
0.0
 10
82.87965119382733
 20
9.812868422148071
 30
0.0
 10
76.81665062999237
 20
3.831944704612769
 30
0.0
 10
64.69034703807344
 20
-8.003699979828273
 30
0.0
 10
58.62727116774383
 20
-13.85819828961638
 30
0.0
 10
52.56429611435526
 20
-19.69236371784504
 30
0.0
  0
SPLINE
  5
1CC
330
1AE
100
AcDbEntity
  8
0
  6
Continuous
 62
     7
370
    25
100
AcDbSpline
210
0.0
220
0.0
230
1.0
 70
     8
 71
     3
 72
    10
 73
     6
 74
     0
 42
0.000000001
 43
0.00000001
 40
0.0
 40
0.0
 40
0.0
 40
0.0
 40
0.5
 40
0.5
 40
1.0
 40
1.0
 40
1.0
 40
1.0
 10
106.9223423762733
 20
33.9710327238241
 30
0.0
 10
103.9262068826802
 20
30.89670605774263
 30
0.0
 10
100.9298243662101
 20
27.84676936830209
 30
0.0
 10
94.93656083845869
 20
21.79611522345707
 30
0.0
 10
91.93968194027505
 20
18.79518912990336
 30
0.0
 10
88.94260335403195
 20
15.81397937664193
 30
0.0
  0
SPLINE
  5
1CD
330
1AE
100
AcDbEntity
  8
0
  6
Continuous
 62
     7
370
    25
100
AcDbSpline
210
0.0
220
0.0
230
1.0
 70
     8
 71
     3
 72
    20
 73
    16
 74
     0
 42
0.000000001
 43
0.00000001
 40
0.0
 40
0.0
 40
0.0
 40
0.0
 40
0.1250000000000012
 40
0.1250000000000012
 40
0.2500000000000024
 40
0.2500000000000024
 40
0.3750000000000037
 40
0.3750000000000037
 40
0.5000000000000049
 40
0.5000000000000049
 40
0.6250000000000061
 40
0.6250000000000061
 40
0.7500000000000073
 40
0.7500000000000073
 40
1.0
 40
1.0
 40
1.0
 40
1.0
 10
105.878035544405
 20
35.74024519076733
 30
0.0
 10
106.0240268254944
 20
35.70256339762024
 30
0.0
 10
106.160029998062
 20
35.65773506944759
 30
0.0
 10
106.4128731342421
 20
35.55437465692108
 30
0.0
 10
106.5308165387361
 20
35.49509574299525
 30
0.0
 10
106.7399709310082
 20
35.3658343445118
 30
0.0
 10
106.8311212270645
 20
35.2962464920729
 30
0.0
 10
106.9868094298126
 20
35.14725684342395
 30
0.0
 10
107.0513441628284
 20
35.0672767432115
 30
0.0
 10
107.1477320848467
 20
34.90409918233804
 30
0.0
 10
107.180569676856
 20
34.82017383828747
 30
0.0
 10
107.2148064261629
 20
34.64754826966557
 30
0.0
 10
107.2156707417586
 20
34.56012281980805
 30
0.0
 10
107.1708091274692
 20
34.30134489528768
 30
0.0
 10
107.0763746278933
 20
34.12908480778503
 30
0.0
 10
106.9223423762734
 20
33.97103272382408
 30
0.0
  0
SPLINE
  5
1CE
330
1AE
100
AcDbEntity
  8
0
  6
Continuous
 62
     7
370
    25
100
AcDbSpline
210
0.0
220
0.0
230
1.0
 70
     8
 71
     3
 72
    18
 73
    14
 74
     0
 42
0.000000001
 43
0.00000001
 40
0.0
 40
0.0
 40
0.0
 40
0.0
 40
0.1250000000000001
 40
0.1250000000000001
 40
0.25
 40
0.25
 40
0.5
 40
0.5
 40
0.7500000000000001
 40
0.7500000000000001
 40
0.875
 40
0.875
 40
1.0
 40
1.0
 40
1.0
 40
1.0
 10
-31.20677331559538
 20
72.99695886677513
 30
0.0
 10
-25.49515008904622
 20
71.36659168019011
 30
0.0
 10
-19.78355775180157
 20
69.73369835250368
 30
0.0
 10
-8.360395562438082
 20
66.46607285351092
 30
0.0
 10
-2.648829380220277
 20
64.83104055605912
 30
0.0
 10
14.4860230042246
 20
59.93852458691897
 30
0.0
 10
25.9094141087494
 20
56.68947592559513
 30
0.0
 10
48.75970918674622
 20
50.47923850820497
 30
0.0
 10
60.18350480648281
 20
47.51890579431976
 30
0.0
 10
77.3190200503335
 20
43.09747713236555
 30
0.0
 10
83.03079531785555
 20
41.62789308185123
 30
0.0
 10
94.45438257358313
 20
38.68626780720241
 30
0.0
 10
100.1661900425203
 20
37.21452899103303
 30
0.0
 10
105.8780355444051
 20
35.74024519076735
 30
0.0
  0
SPLINE
  5
1CF
330
1AE
100
AcDbEntity
  8
0
  6
Continuous
 62
     7
370
    25
100
AcDbSpline
210
0.0
220
0.0
230
1.0
 70
     8
 71
     3
 72
    20
 73
    16
 74
     0
 42
0.000000001
 43
0.00000001
 40
0.0
 40
0.0
 40
0.0
 40
0.0
 40
0.1249999999999993
 40
0.1249999999999993
 40
0.2499999999999986
 40
0.2499999999999986
 40
0.3749999999999978
 40
0.3749999999999978
 40
0.4999999999999971
 40
0.4999999999999971
 40
0.6249999999999964
 40
0.6249999999999964
 40
0.7499999999999957
 40
0.7499999999999957
 40
1.0
 40
1.0
 40
1.0
 40
1.0
 10
-34.58455709211407
 20
72.42957587325147
 30
0.0
 10
-34.50754066322003
 20
72.50860222622573
 30
0.0
 10
-34.41749727239442
 20
72.58224068415822
 30
0.0
 10
-34.21241611929383
 20
72.71918310801132
 30
0.0
 10
-34.09592976996139
 20
72.78308450809146
 30
0.0
 10
-33.84387410422912
 20
72.89646469085872
 30
0.0
 10
-33.70906171759174
 20
72.94590365338554
 30
0.0
 10
-33.42202466044925
 20
73.03040365735451
 30
0.0
 10
-33.2686923595145
 20
73.06546877874086
 30
0.0
 10
-32.95725207101276
 20
73.117912687001
 30
0.0
 10
-32.79774138965808
 20
73.13582449710465
 30
0.0
 10
-32.4709598212065
 20
73.15462448276034
 30
0.0
 10
-32.30605726880438
 20
73.15522121890814
 30
0.0
 10
-31.81988381568017
 20
73.13126858172566
 30
0.0
 10
-31.49875779662031
 20
73.08030503615171
 30
0.0
 10
-31.20677331559536
 20
72.99695886677515
 30
0.0
  0
SPLINE
  5
1D0
330
1AE
100
AcDbEntity
  8
0
  6
Continuous
 62
     7
370
    25
100
AcDbSpline
210
0.0
220
0.0
230
1.0
 70
     8
 71
     3
 72
    10
 73
     6
 74
     0
 42
0.000000001
 43
0.00000001
 40
0.0
 40
0.0
 40
0.0
 40
0.0
 40
0.5000000000000003
 40
0.5000000000000003
 40
1.0
 40
1.0
 40
1.0
 40
1.0
 10
-52.56429611435562
 20
54.27252252606939
 30
0.0
 10
-49.56721752811255
 20
57.25373227933083
 30
0.0
 10
-46.57033862992872
 20
60.2546583728845
 30
0.0
 10
-40.57707510217744
 20
66.30531251772948
 30
0.0
 10
-37.58069258570732
 20
69.35524920717
 30
0.0
 10
-34.58455709211414
 20
72.42957587325148
 30
0.0
  0
SPLINE
  5
1D2
330
1AE
100
AcDbEntity
  8
0
  6
Continuous
 62
     7
370
    25
100
AcDbSpline
210
0.0
220
0.0
230
1.0
 70
     8
 71
     3
 72
    10
 73
     6
 74
     0
 42
0.000000001
 43
0.00000001
 40
0.0
 40
0.0
 40
0.0
 40
0.0
 40
0.5
 40
0.5
 40
1.0
 40
1.0
 40
1.0
 40
1.0
 10
-88.94260335403222
 20
18.76617943158242
 30
0.0
 10
-82.87965119382766
 20
24.60032283058919
 30
0.0
 10
-76.81665062999278
 20
30.45474795317919
 30
0.0
 10
-64.69034703807385
 20
42.29039137820708
 30
0.0
 10
-58.62727116774416
 20
48.27138891189856
 30
0.0
 10
-52.56429611435559
 20
54.27252252606937
 30
0.0
  0
SPLINE
  5
1D8
330
1AE
100
AcDbEntity
  8
0
  6
Continuous
 62
     7
370
    25
100
AcDbSpline
210
0.0
220
0.0
230
1.0
 70
     8
 71
     3
 72
    10
 73
     6
 74
     0
 42
0.000000001
 43
0.00000001
 40
0.0
 40
0.0
 40
0.0
 40
0.0
 40
0.2812404308378793
 40
0.7497379769994454
 40
1.0
 40
1.0
 40
1.0
 40
1.0
 10
40.33122039805129
 20
-27.60044148959682
 30
0.0
 10
41.18357632186166
 20
-27.23536711501835
 30
0.0
 10
43.4558086751446
 20
-26.26214245370145
 30
0.0
 10
46.26098350723996
 20
-24.82706667115842
 30
0.0
 10
48.07551544976012
 20
-23.71397622575046
 30
0.0
 10
48.7073100779187
 20
-23.32641371026963
 30
0.0
  0
SPLINE
  5
1D9
330
1AE
100
AcDbEntity
  8
0
  6
Continuous
 62
     7
370
    25
100
AcDbSpline
210
0.0
220
0.0
230
1.0
 70
     8
 71
     3
 72
    11
 73
     7
 74
     0
 42
0.000000001
 43
0.00000001
 40
0.0
 40
0.0
 40
0.0
 40
0.0
 40
0.006084291506342
 40
0.4410574390210849
 40
0.8790424239978836
 40
1.0
 40
1.0
 40
1.0
 40
1.0
 10
62.81020527307583
 20
-9.802522394124248
 30
0.0
 10
62.81766686334658
 20
-9.790452491545178
 30
0.0
 10
63.35856630782799
 20
-8.915491074063944
 30
0.0
 10
64.009748090529
 20
-7.131613637200233
 30
0.0
 10
64.6774502516662
 20
-5.113352781894035
 30
0.0
 10
64.77349388378867
 20
-3.970964850081749
 30
0.0
 10
64.79427813917196
 20
-3.723747184559768
 30
0.0
  0
LWPOLYLINE
  5
1DE
330
1AE
100
AcDbEntity
  8
0
  6
Continuous
 62
     7
370
    25
100
AcDbPolyline
 90
        9
 70
   128
 43
0.0
 10
92.2444687979
 20
29.9258188284
 10
92.6147383354
 20
30.3932386389
 10
92.80084016
 20
30.8888814008
 10
92.7956224831
 20
31.3936998408
 10
92.599285817
 20
31.8882940694
 10
92.2193752697
 20
32.3536571077
 10
91.6704905905
 20
32.7719053152
 10
90.9737251097
 20
33.1269656477
 10
90.1558551341
 20
33.4051933359
  0
LWPOLYLINE
  5
1E2
330
1AE
100
AcDbEntity
  8
0
  6
Continuous
 62
     7
370
    25
100
AcDbPolyline
 90
        9
 70
   128
 43
0.0
 10
-92.2444687979
 20
4.3608731996
 10
-92.6147383354
 20
3.8934533892
 10
-92.80084016
 20
3.3978106273
 10
-92.7956224831
 20
2.8929921873
 10
-92.599285817
 20
2.3983979587
 10
-92.2193752697
 20
1.9330349204
 10
-91.6704905905
 20
1.5147867129
 10
-90.9737251097
 20
1.1597263804
 10
-90.1558551341
 20
0.8814986922
  0
LWPOLYLINE
  5
1E4
330
1AE
100
AcDbEntity
  8
0
  6
Continuous
 62
     7
370
    25
100
AcDbPolyline
 90
        3
 70
   128
 43
0.0
 10
30.3480998583
 20
-36.9262344716
 10
31.0338602373
 20
-36.5689246395
 10
31.574068237
 20
-36.1476904617
  0
LINE
  5
1EF
330
1AE
100
AcDbEntity
  8
0
  6
Continuous
 62
     7
370
    25
100
AcDbLine
 10
31.1519776286
 20
-37.2303596606
 30
0.0
 11
31.1519776286
 21
-36.490975213
 31
0.0
  0
LINE
  5
1F0
330
1AE
100
AcDbEntity
  8
0
  6
Continuous
 62
     7
370
    25
100
AcDbLine
 10
-92.8223781895
 20
3.1590437262
 30
0.0
 11
-92.8223781895
 21
-3.6982946794
 31
0.0
  0
LINE
  5
1F1
330
1AE
100
AcDbEntity
  8
0
  6
Continuous
 62
     7
370
    25
100
AcDbLine
 10
92.8223781895
 20
24.2703098962
 30
0.0
 11
92.8223781895
 21
31.1276483019
 31
0.0
  0
LINE
  5
1F2
330
1AE
100
AcDbEntity
  8
0
  6
Continuous
 62
     7
370
    25
100
AcDbLine
 10
91.8223781895
 20
18.7221542534
 30
0.0
 11
91.8223781895
 21
22.6565070493
 31
0.0
  0
LINE
  5
1F3
330
1AE
100
AcDbEntity
  8
0
  6
Continuous
 62
     7
370
    25
100
AcDbLine
 10
894.212652914
 20
19.9117424991
 30
0.0
 11
-520.8563417699
 21
404.4971739934
 31
0.0
  0
LINE
  5
1F4
330
1AE
100
AcDbEntity
  8
0
  6
Continuous
 62
     7
370
    25
100
AcDbLine
 10
520.8563417699
 20
-344.4954629443
 30
0.0
 11
894.212652914
 21
19.9117424991
 31
0.0
  0
LINE
  5
1F5
330
1AE
100
AcDbEntity
  8
0
  6
Continuous
 62
     7
370
    25
100
AcDbLine
 10
-894.212652914
 20
40.08996855
 30
0.0
 11
520.8563417699
 21
-344.4954629443
 31
0.0
  0
LINE
  5
1F6
330
1AE
100
AcDbEntity
  8
0
  6
Continuous
 62
     7
370
    25
100
AcDbLine
 10
-520.8563417699
 20
404.4971739934
 30
0.0
 11
-894.212652914
 21
40.08996855
 31
0.0
  0
LINE
  5
1F7
330
1AE
100
AcDbEntity
  8
0
  6
Continuous
 62
     7
370
    25
100
AcDbLine
 10
-512.501887115
 20
390.5796759637
 30
0.0
 11
-867.1903827018
 21
44.3928307924
 31
0.0
  0
LINE
  5
1F8
330
1AE
100
AcDbEntity
  8
0
  6
Continuous
 62
     7
370
    25
100
AcDbLine
 10
-867.1903827018
 20
44.3928307924
 30
0.0
 11
512.501887115
 21
-330.5779649145
 31
0.0
  0
LINE
  5
1F9
330
1AE
100
AcDbEntity
  8
0
  6
Continuous
 62
     7
370
    25
100
AcDbLine
 10
512.501887115
 20
-330.5779649145
 30
0.0
 11
867.1903827018
 21
15.6088802567
 31
0.0
  0
LINE
  5
1FA
330
1AE
100
AcDbEntity
  8
0
  6
Continuous
 62
     7
370
    25
100
AcDbLine
 10
867.1903827018
 20
15.6088802567
 30
0.0
 11
-512.501887115
 21
390.5796759637
 31
0.0
  0
LINE
  5
1FB
330
1AE
100
AcDbEntity
  8
0
  6
Continuous
 62
     7
370
    25
100
AcDbLine
 10
-894.212652914
 20
40.08996855
 30
0.0
 11
-894.212652914
 21
10.0891130254
 31
0.0
  0
LINE
  5
1FC
330
1AE
100
AcDbEntity
  8
0
  6
Continuous
 62
     7
370
    25
100
AcDbLine
 10
520.8563417699
 20
-344.4954629443
 30
0.0
 11
520.8563417699
 21
-374.4963184688
 31
0.0
  0
LINE
  5
1FD
330
1AE
100
AcDbEntity
  8
0
  6
Continuous
 62
     7
370
    25
100
AcDbLine
 10
-894.212652914
 20
10.0891130254
 30
0.0
 11
520.8563417699
 21
-374.4963184688
 31
0.0
  0
LINE
  5
1FE
330
1AE
100
AcDbEntity
  8
0
  6
Continuous
 62
     7
370
    25
100
AcDbLine
 10
894.212652914
 20
19.9117424991
 30
0.0
 11
894.212652914
 21
-10.0891130254
 31
0.0
  0
LINE
  5
1FF
330
1AE
100
AcDbEntity
  8
0
  6
Continuous
 62
     7
370
    25
100
AcDbLine
 10
520.8563417699
 20
-374.4963184688
 30
0.0
 11
894.212652914
 21
-10.0891130254
 31
0.0
  0
LINE
  5
200
330
1AE
100
AcDbEntity
  8
0
  6
Continuous
 62
     7
370
    25
100
AcDbLine
 10
512.501887115
 20
-330.5779649145
 30
0.0
 11
52.5642961144
 21
-19.6923637178
 31
0.0
  0
LINE
  5
201
330
1AE
100
AcDbEntity
  8
0
  6
Continuous
 62
     7
370
    25
100
AcDbLine
 10
-867.1903827018
 20
44.3928307924
 30
0.0
 11
-88.942603354
 21
18.7661794316
 31
0.0
  0
LINE
  5
202
330
1AE
100
AcDbEntity
  8
0
  6
Continuous
 62
     7
370
    25
100
AcDbLine
 10
867.1903827018
 20
15.6088802567
 30
0.0
 11
88.942603354
 21
15.8139793766
 31
0.0
  0
LINE
  5
203
330
1AE
100
AcDbEntity
  8
0
  6
Continuous
 62
     7
370
    25
100
AcDbLine
 10
-52.5642961144
 20
54.2725225261
 30
0.0
 11
-512.501887115
 21
390.5796759637
 31
0.0
  0
LINE
  5
204
330
1AE
100
AcDbEntity
  8
0
  6
Continuous
 62
     7
370
    25
100
AcDbLine
 10
-92.8223781895
 20
-2.3106791519
 30
0.0
 11
-93.8573757889
 21
-3.3208685382
 31
0.0
  0
LINE
  5
205
330
1AE
100
AcDbEntity
  8
0
  6
Continuous
 62
     7
370
    25
100
AcDbLine
 10
94.0930898406
 20
21.0152594278
 30
0.0
 11
91.8223781895
 21
21.6323901991
 31
0.0
  0
LINE
  5
206
330
1AE
100
AcDbEntity
  8
0
  6
Continuous
 62
     7
370
    25
100
AcDbLine
 10
82.581678986
 20
9.5319252282
 30
0.0
 11
77.2836026029
 21
8.4662163699
 31
0.0
  0
LINE
  5
207
330
1AE
100
AcDbEntity
  8
0
  6
Continuous
 62
     7
370
    25
100
AcDbLine
 10
64.6647968002
 20
-3.8501249409
 30
0.0
 11
64.7707525956
 21
-4.436448033
 31
0.0
  0
LINE
  5
208
330
1AE
100
AcDbEntity
  8
0
  6
Continuous
 62
     7
370
    25
100
AcDbLine
 10
-31.574068237
 20
63.5770440842
 30
0.0
 11
-92.2444687979
 21
4.3608731996
 31
0.0
  0
LINE
  5
209
330
1AE
100
AcDbEntity
  8
0
  6
Continuous
 62
     7
370
    25
100
AcDbLine
 10
90.1558551341
 20
33.4051933359
 30
0.0
 11
-24.8185006839
 21
64.6527596448
 31
0.0
  0
LINE
  5
20A
330
1AE
100
AcDbEntity
  8
0
  6
Continuous
 62
     7
370
    25
100
AcDbLine
 10
31.574068237
 20
-29.2903520561
 30
0.0
 11
92.2444687979
 21
29.9258188284
 31
0.0
  0
LINE
  5
20B
330
1AE
100
AcDbEntity
  8
0
  6
Continuous
 62
     7
370
    25
100
AcDbLine
 10
-90.1558551341
 20
0.8814986922
 30
0.0
 11
24.8185006839
 21
-30.3660676167
 31
0.0
  0
LINE
  5
20C
330
1AE
100
AcDbEntity
  8
0
  6
Continuous
 62
     7
370
    25
100
AcDbLine
 10
31.574068237
 20
-29.2903520561
 30
0.0
 11
31.574068237
 21
-36.1476904617
 31
0.0
  0
LINE
  5
20D
330
1AE
100
AcDbEntity
  8
0
  6
Continuous
 62
     7
370
    25
100
AcDbLine
 10
92.2444687979
 20
29.9258188284
 30
0.0
 11
92.2444687979
 21
23.0684804228
 31
0.0
  0
LINE
  5
20E
330
1AE
100
AcDbEntity
  8
0
  6
Continuous
 62
     7
370
    25
100
AcDbLine
 10
31.574068237
 20
-36.1476904617
 30
0.0
 11
92.2444687979
 21
23.0684804228
 31
0.0
  0
LINE
  5
20F
330
1AE
100
AcDbEntity
  8
0
  6
Continuous
 62
    60
370
    25
100
AcDbLine
 10
-106.9223423763
 20
0.6820584708
 30
0.0
 11
-106.9223423763
 21
1.8256798186
 31
0.0
  0
LINE
  5
210
330
1AE
100
AcDbEntity
  8
0
  6
Continuous
 62
    60
370
    25
100
AcDbLine
 10
-34.5845570921
 20
60.6387146708
 30
0.0
 11
-34.5845570921
 21
72.4295758733
 31
0.0
  0
LINE
  5
211
330
1AE
100
AcDbEntity
  8
0
  6
Continuous
 62
    60
370
    25
100
AcDbLine
 10
105.8780355444
 20
32.9164270461
 30
0.0
 11
105.8780355444
 21
35.7402451908
 31
0.0
  0
LINE
  5
212
330
1AE
100
AcDbEntity
  8
0
  6
Continuous
 62
    60
370
    25
100
AcDbLine
 10
-31.2067733156
 20
63.8819656894
 30
0.0
 11
-31.2067733156
 21
72.9969588668
 31
0.0
  0
LINE
  5
213
330
1AE
100
AcDbEntity
  8
0
  6
Continuous
 62
    60
370
    25
100
AcDbLine
 10
24.8185006839
 20
-30.3660676167
 30
0.0
 11
24.8185006839
 21
-35.4950423996
 31
0.0
  0
LINE
  5
214
330
1AE
100
AcDbEntity
  8
0
  6
Continuous
 62
    60
370
    25
100
AcDbLine
 10
-90.1558551341
 20
0.8814986922
 30
0.0
 11
-90.1558551341
 21
-4.3790346611
 31
0.0
  0
LINE
  5
215
330
1AE
100
AcDbEntity
  8
0
  6
Continuous
 62
    60
370
    25
100
AcDbLine
 10
89.0038764974
 20
19.9055629926
 30
0.0
 11
89.0038764974
 21
15.7967293043
 31
0.0
  0
ARC
  5
216
330
1AE
100
AcDbEntity
  8
0
  6
Continuous
 62
     7
370
    25
100
AcDbCircle
 10
-27.1104672824
 20
57.2958954606
 30
0.0
 40
7.705618827393979
100
AcDbArc
 50
72.6960345908
 51
125.398914916
  0
ARC
  5
217
330
1AE
100
AcDbEntity
  8
0
  6
Continuous
 62
     7
370
    25
100
AcDbCircle
 10
27.1104672824
 20
-23.0092034325
 30
0.0
 40
7.705618827393971
100
AcDbArc
 50
252.6960345908
 51
305.398914916
  0
ARC
  5
218
330
1AE
100
AcDbEntity
  8
0
  6
Continuous
 62
     7
370
    25
100
AcDbCircle
 10
91.1630990458
 20
24.3283267181
 30
0.0
 40
1.660293115197194
100
AcDbArc
 50
310.6406362013
 51
357.9974645044
  0
VIEWPORT
  5
285
330
1AE
100
AcDbEntity
  8
0
100
AcDbViewport
 10
0.0
 20
0.0
 30
0.0
 40
205.6
 41
156.0
 68
     1
 69
     1
 12
0.0
 22
0.0
 13
0.0
 23
0.0
 14
10.0
 24
10.0
 15
10.0
 25
10.0
 16
0.0
 26
0.0
 36
1.0
 17
0.0
 27
0.0
 37
0.0
 42
50.0
 43
0.0
 44
0.0
 45
1238.2879377432
 50
0.0
 51
0.0
 72
   100
 90
   557152
  1

281
     0
 71
     1
 74
     0
110
0.0
120
0.0
130
0.0
111
1.0
121
0.0
131
0.0
112
0.0
122
1.0
132
0.0
 79
     0
146
0.0
  0
ENDBLK
  5
1B1
330
1AE
100
AcDbEntity
  8
0
100
AcDbBlockEnd
  0
BLOCK
  5
21B
330
219
100
AcDbEntity
  8
0
100
AcDbBlockBegin
  2
*Paper_Space7
 70
     0
 10
0.0
 20
0.0
 30
0.0
  3
*Paper_Space7
  1

  0
SPLINE
  5
22D
330
219
100
AcDbEntity
  8
0
  6
Continuous
 62
     7
370
    25
100
AcDbSpline
210
0.0
220
0.0
230
1.0
 70
     8
 71
     3
 72
    10
 73
     6
 74
     0
 42
0.000000001
 43
0.00000001
 40
0.0
 40
0.0
 40
0.0
 40
0.0
 40
0.5000000000000003
 40
0.5000000000000003
 40
1.0
 40
1.0
 40
1.0
 40
1.0
 10
61.05363097950823
 20
-2.562907197192189
 30
0.0
 10
58.78314080340656
 20
-4.503730123019756
 30
0.0
 10
56.51280190454502
 20
-6.422519010638194
 30
0.0
 10
51.97249854880108
 20
-10.20555805376087
 30
0.0
 10
49.70253569273319
 20
-12.06957504525584
 30
0.0
 10
47.43275997323822
 20
-13.90633496625699
 30
0.0
  0
SPLINE
  5
230
330
219
100
AcDbEntity
  8
0
  6
Continuous
 62
     7
370
    25
100
AcDbSpline
210
0.0
220
0.0
230
1.0
 70
     8
 71
     3
 72
    10
 73
     6
 74
     0
 42
0.000000001
 43
0.00000001
 40
0.0
 40
0.0
 40
0.0
 40
0.0
 40
0.5000000000000003
 40
0.5000000000000003
 40
1.0
 40
1.0
 40
1.0
 40
1.0
 10
-102.2335355026244
 20
4.949845856572023
 30
0.0
 10
-99.9637597831294
 20
6.78660577757317
 30
0.0
 10
-97.69379692706151
 20
8.650622769068143
 30
0.0
 10
-93.15349357131757
 20
12.43366181219085
 30
0.0
 10
-90.883154672456
 20
14.35245069980926
 30
0.0
 10
-88.61266449635433
 20
16.29327362563684
 30
0.0
  0
SPLINE
  5
231
330
219
100
AcDbEntity
  8
0
  6
Continuous
 62
     7
370
    25
100
AcDbSpline
210
0.0
220
0.0
230
1.0
 70
     8
 71
     3
 72
    20
 73
    16
 74
     0
 42
0.000000001
 43
0.00000001
 40
0.0
 40
0.0
 40
0.0
 40
0.0
 40
0.1249999999999988
 40
0.1249999999999988
 40
0.2499999999999976
 40
0.2499999999999976
 40
0.3749999999999963
 40
0.3749999999999963
 40
0.4999999999999951
 40
0.4999999999999951
 40
0.6249999999999939
 40
0.6249999999999939
 40
0.7499999999999927
 40
0.7499999999999927
 40
1.0
 40
1.0
 40
1.0
 40
1.0
 10
-100.7788831120944
 20
3.908181227333205
 30
0.0
 10
-100.9332923620641
 20
3.929829849399588
 30
0.0
 10
-101.0794048089785
 20
3.955724778683171
 30
0.0
 10
-101.3557114203142
 20
4.015669857353063
 30
0.0
 10
-101.4871804067325
 20
4.050156024089771
 30
0.0
 10
-101.7259528189347
 20
4.1255619159771
 30
0.0
 10
-101.8331036515971
 20
4.166249096931741
 30
0.0
 10
-102.0231545604109
 20
4.253550650899055
 30
0.0
 10
-102.1061864767952
 20
4.300506922316156
 30
0.0
 10
-102.2404092928135
 20
4.396495594668762
 30
0.0
 10
-102.2927518606691
 20
4.445953311304842
 30
0.0
 10
-102.3672013992734
 20
4.547874301059032
 30
0.0
 10
-102.388477375287
 20
4.599586656615254
 30
0.0
 10
-102.4041683774876
 20
4.752940788868395
 30
0.0
 10
-102.3502253737913
 20
4.855417461420302
 30
0.0
 10
-102.2335355026243
 20
4.949845856572034
 30
0.0
  0
SPLINE
  5
232
330
219
100
AcDbEntity
  8
0
  6
Continuous
 62
     7
370
    25
100
AcDbSpline
210
0.0
220
0.0
230
1.0
 70
     8
 71
     3
 72
    18
 73
    14
 74
     0
 42
0.000000001
 43
0.00000001
 40
0.0
 40
0.0
 40
0.0
 40
0.0
 40
0.1250000000000001
 40
0.1250000000000001
 40
0.2500000000000002
 40
0.2500000000000002
 40
0.5000000000000002
 40
0.5000000000000002
 40
0.7500000000000002
 40
0.7500000000000002
 40
0.8750000000000002
 40
0.8750000000000002
 40
1.0
 40
1.0
 40
1.0
 40
1.0
 10
44.21034063014748
 20
-14.3587439447824
 30
0.0
 10
38.16938084173461
 20
-13.68352513766733
 30
0.0
 10
32.12845372372722
 20
-13.01109821467061
 30
0.0
 10
20.04662326934774
 20
-11.66827665353083
 30
0.0
 10
14.00572381448604
 20
-10.99821371396895
 30
0.0
 10
-4.117137258295267
 20
-8.974120493941623
 30
0.0
 10
-16.19920982725926
 20
-7.610767102771147
 30
0.0
 10
-40.36707038884358
 20
-4.565921397414336
 30
0.0
 10
-52.4495707976757
 20
-2.884830896773615
 30
0.0
 10
-70.57313295084295
 20
-0.3422963737023041
 30
0.0
 10
-76.61425354702736
 20
0.509835526886545
 30
0.0
 10
-88.69653357742244
 20
2.21141252219028
 30
0.0
 10
-94.73768823178024
 20
3.061188286048837
 30
0.0
 10
-100.7788831120945
 20
3.908181227333198
 30
0.0
  0
SPLINE
  5
233
330
219
100
AcDbEntity
  8
0
  6
Continuous
 62
     7
370
    25
100
AcDbSpline
210
0.0
220
0.0
230
1.0
 70
     8
 71
     3
 72
    20
 73
    16
 74
     0
 42
0.000000001
 43
0.00000001
 40
0.0
 40
0.0
 40
0.0
 40
0.0
 40
0.1249999999999988
 40
0.1249999999999988
 40
0.2499999999999976
 40
0.2499999999999976
 40
0.3749999999999963
 40
0.3749999999999963
 40
0.4999999999999951
 40
0.4999999999999951
 40
0.6249999999999939
 40
0.6249999999999939
 40
0.7499999999999927
 40
0.7499999999999927
 40
1.0
 40
1.0
 40
1.0
 40
1.0
 10
47.43275997323825
 20
-13.90633496625699
 30
0.0
 10
47.37441480804804
 20
-13.95354934963643
 30
0.0
 10
47.30190663090404
 20
-13.99827166440018
 30
0.0
 10
47.12971619207725
 20
-14.08293136938924
 30
0.0
 10
47.02873297507232
 20
-14.1232600659374
 30
0.0
 10
46.80452381814148
 20
-14.19661546865132
 30
0.0
 10
46.68204003434747
 20
-14.2295899272766
 30
0.0
 10
46.41649937188149
 20
-14.28820426714967
 30
0.0
 10
46.27234411596814
 20
-14.3138906336634
 30
0.0
 10
45.97524694795791
 20
-14.35559246725949
 30
0.0
 10
45.82103486824219
 20
-14.3719613290072
 30
0.0
 10
45.50101612816837
 20
-14.39553521227678
 30
0.0
 10
45.337493326209
 20
-14.40248318496135
 30
0.0
 10
44.84951192178558
 20
-14.40868471068176
 30
0.0
 10
44.51916115957477
 20
-14.39326187517694
 30
0.0
 10
44.21034063014748
 20
-14.35874394478241
 30
0.0
  0
SPLINE
  5
234
330
219
100
AcDbEntity
  8
0
  6
Continuous
 62
     7
370
    25
100
AcDbSpline
210
0.0
220
0.0
230
1.0
 70
     8
 71
     3
 72
    10
 73
     6
 74
     0
 42
0.000000001
 43
0.00000001
 40
0.0
 40
0.0
 40
0.0
 40
0.0
 40
0.5
 40
0.5
 40
1.0
 40
1.0
 40
1.0
 40
1.0
 10
88.612664496354
 20
21.7418758230197
 30
0.0
 10
84.01956727791415
 20
17.59931997512547
 30
0.0
 10
79.42643339041575
 20
13.47898794634675
 30
0.0
 10
70.23993647830403
 20
5.377258503758037
 30
0.0
 10
65.64674554108677
 20
1.396013895287495
 30
0.0
 10
61.05363097950828
 20
-2.562907197192203
 30
0.0
  0
SPLINE
  5
237
330
219
100
AcDbEntity
  8
0
  6
Continuous
 62
     7
370
    25
100
AcDbSpline
210
0.0
220
0.0
230
1.0
 70
     8
 71
     3
 72
    10
 73
     6
 74
     0
 42
0.000000001
 43
0.00000001
 40
0.0
 40
0.0
 40
0.0
 40
0.0
 40
0.5
 40
0.5
 40
1.0
 40
1.0
 40
1.0
 40
1.0
 10
-88.61266449635437
 20
16.29327362563685
 30
0.0
 10
-84.0195672779145
 20
20.25217976962865
 30
0.0
 10
-79.42643339041616
 20
24.23337441067955
 30
0.0
 10
-70.23993647830444
 20
32.33510246802397
 30
0.0
 10
-65.64674554108711
 20
36.45548515602122
 30
0.0
 10
-61.05363097950861
 20
40.59805664584871
 30
0.0
  0
SPLINE
  5
238
330
219
100
AcDbEntity
  8
0
  6
Continuous
 62
     7
370
    25
100
AcDbSpline
210
0.0
220
0.0
230
1.0
 70
     8
 71
     3
 72
    10
 73
     6
 74
     0
 42
0.000000001
 43
0.00000001
 40
0.0
 40
0.0
 40
0.0
 40
0.0
 40
0.5
 40
0.5
 40
1.0
 40
1.0
 40
1.0
 40
1.0
 10
102.233535502624
 20
34.42340626965778
 30
0.0
 10
99.96375978312903
 20
32.25665813344426
 30
0.0
 10
97.69379692706117
 20
30.11683698983574
 30
0.0
 10
93.1534935713172
 20
25.89153366203729
 30
0.0
 10
90.88315467245577
 20
23.8058211374094
 30
0.0
 10
88.6126644963541
 20
21.74187582301969
 30
0.0
  0
SPLINE
  5
239
330
219
100
AcDbEntity
  8
0
  6
Continuous
 62
     7
370
    25
100
AcDbSpline
210
0.0
220
0.0
230
1.0
 70
     8
 71
     3
 72
    20
 73
    16
 74
     0
 42
0.000000001
 43
0.00000001
 40
0.0
 40
0.0
 40
0.0
 40
0.0
 40
0.1250000000000012
 40
0.1250000000000012
 40
0.2500000000000024
 40
0.2500000000000024
 40
0.3750000000000037
 40
0.3750000000000037
 40
0.5000000000000049
 40
0.5000000000000049
 40
0.6250000000000061
 40
0.6250000000000061
 40
0.7500000000000073
 40
0.7500000000000073
 40
1.0
 40
1.0
 40
1.0
 40
1.0
 10
100.7788831120941
 20
35.5300212019683
 30
0.0
 10
100.9332923620636
 20
35.51276235019248
 30
0.0
 10
101.0794048089781
 20
35.49030293699015
 30
0.0
 10
101.3557114203138
 20
35.43541463270907
 30
0.0
 10
101.4871804067321
 20
35.40255218597991
 30
0.0
 10
101.7259528189343
 20
35.32844384824854
 30
0.0
 10
101.8331036515968
 20
35.28745372231222
 30
0.0
 10
102.0231545604105
 20
35.19768468598908
 30
0.0
 10
102.1061864767948
 20
35.14852646340655
 30
0.0
 10
102.240409292813
 20
35.04644250270071
 30
0.0
 10
102.2927518606688
 20
34.99308955552545
 30
0.0
 10
102.3672013992731
 20
34.88166207829487
 30
0.0
 10
102.3884773752866
 20
34.82439614972203
 30
0.0
 10
102.4041683774872
 20
34.65249290123885
 30
0.0
 10
102.350225373791
 20
34.53479946092965
 30
0.0
 10
102.233535502624
 20
34.42340626965776
 30
0.0
  0
SPLINE
  5
23A
330
219
100
AcDbEntity
  8
0
  6
Continuous
 62
     7
370
    25
100
AcDbSpline
210
0.0
220
0.0
230
1.0
 70
     8
 71
     3
 72
    18
 73
    14
 74
     0
 42
0.000000001
 43
0.00000001
 40
0.0
 40
0.0
 40
0.0
 40
0.0
 40
0.1250000000000001
 40
0.1250000000000001
 40
0.25
 40
0.25
 40
0.5
 40
0.5
 40
0.7500000000000001
 40
0.7500000000000001
 40
0.875
 40
0.875
 40
1.0
 40
1.0
 40
1.0
 40
1.0
 10
-44.21034063014785
 20
53.7969463740839
 30
0.0
 10
-38.16938084173502
 20
52.949986393362
 30
0.0
 10
-32.1284537237276
 20
52.10024276069007
 30
0.0
 10
-20.04662326934812
 20
50.39872920290144
 30
0.0
 10
-14.00572381448641
 20
49.54662855725224
 30
0.0
 10
4.117137258294902
 20
47.00419002303452
 30
0.0
 10
16.1992098272589
 20
45.32314728813573
 30
0.0
 10
40.36707038884322
 20
42.27826454259164
 30
0.0
 10
52.44957079767537
 20
40.91485111164961
 30
0.0
 10
70.57313295084259
 20
38.89067722482358
 30
0.0
 10
76.61425354702706
 20
38.22058981782569
 30
0.0
 10
88.69653357742213
 20
36.87771841169318
 30
0.0
 10
94.73768823177993
 20
36.20526628611202
 30
0.0
 10
100.7788831120941
 20
35.53002120196832
 30
0.0
  0
SPLINE
  5
23B
330
219
100
AcDbEntity
  8
0
  6
Continuous
 62
     7
370
    25
100
AcDbSpline
210
0.0
220
0.0
230
1.0
 70
     8
 71
     3
 72
    20
 73
    16
 74
     0
 42
0.000000001
 43
0.00000001
 40
0.0
 40
0.0
 40
0.0
 40
0.0
 40
0.1249999999999993
 40
0.1249999999999993
 40
0.2499999999999986
 40
0.2499999999999986
 40
0.3749999999999978
 40
0.3749999999999978
 40
0.4999999999999971
 40
0.4999999999999971
 40
0.6249999999999964
 40
0.6249999999999964
 40
0.7499999999999957
 40
0.7499999999999957
 40
1.0
 40
1.0
 40
1.0
 40
1.0
 10
-47.4327599732386
 20
53.27958709248676
 30
0.0
 10
-47.37441480804841
 20
53.33528390730736
 30
0.0
 10
-47.30190663090442
 20
53.38794534047013
 30
0.0
 10
-47.12971619207763
 20
53.48744773274246
 30
0.0
 10
-47.02873297507266
 20
53.53474589427672
 30
0.0
 10
-46.80452381814185
 20
53.62055960563332
 30
0.0
 10
-46.68204003434786
 20
53.65901712729165
 30
0.0
 10
-46.41649937188191
 20
53.7271072644412
 30
0.0
 10
-46.27234411596854
 20
53.75678872268488
 30
0.0
 10
-45.9752469479583
 20
53.80459878985889
 30
0.0
 10
-45.82103486824259
 20
53.82313993524901
 30
0.0
 10
-45.5010161281688
 20
53.84922917166533
 30
0.0
 10
-45.33749332620935
 20
53.8564849803522
 30
0.0
 10
-44.84951192178592
 20
53.86077839736902
 30
0.0
 10
-44.51916115957516
 20
53.84024390275677
 30
0.0
 10
-44.21034063014784
 20
53.79694637408392
 30
0.0
  0
SPLINE
  5
23C
330
219
100
AcDbEntity
  8
0
  6
Continuous
 62
     7
370
    25
100
AcDbSpline
210
0.0
220
0.0
230
1.0
 70
     8
 71
     3
 72
    10
 73
     6
 74
     0
 42
0.000000001
 43
0.00000001
 40
0.0
 40
0.0
 40
0.0
 40
0.0
 40
0.5000000000000003
 40
0.5000000000000003
 40
1.0
 40
1.0
 40
1.0
 40
1.0
 10
-61.05363097950864
 20
40.59805664584874
 30
0.0
 10
-58.78314080340699
 20
42.66200196023844
 30
0.0
 10
-56.5128019045454
 20
44.74771448486631
 30
0.0
 10
-51.97249854880147
 20
48.97301781266475
 30
0.0
 10
-49.70253569273361
 20
51.11283895627326
 30
0.0
 10
-47.43275997323866
 20
53.27958709248677
 30
0.0
  0
SPLINE
  5
23D
330
219
100
AcDbEntity
  8
0
  6
Continuous
 62
     7
370
    25
100
AcDbSpline
210
0.0
220
0.0
230
1.0
 70
     8
 71
     3
 72
     9
 73
     5
 74
     0
 42
0.000000001
 43
0.00000001
 40
0.0
 40
0.0
 40
0.0
 40
0.0
 40
0.9822106892380534
 40
1.0
 40
1.0
 40
1.0
 40
1.0
 10
73.0101911698924
 20
7.832475803089259
 30
0.0
 10
72.11221372616258
 20
7.654282762072476
 30
0.0
 10
71.19797256225665
 20
7.472862377455191
 30
0.0
 10
70.28377715770019
 20
7.290443351481489
 30
0.0
 10
70.2675142515514
 20
7.287198242739554
 30
0.0
  0
SPLINE
  5
23E
330
219
100
AcDbEntity
  8
0
  6
Continuous
 62
     7
370
    25
100
AcDbSpline
210
0.0
220
0.0
230
1.0
 70
     8
 71
     3
 72
     9
 73
     5
 74
     0
 42
0.000000001
 43
0.00000001
 40
0.0
 40
0.0
 40
0.0
 40
0.0
 40
0.2802834178914438
 40
1.0
 40
1.0
 40
1.0
 40
1.0
 10
64.64774353059997
 20
0.5464268274815651
 30
0.0
 10
64.62371239758414
 20
0.6683205014250491
 30
0.0
 10
64.53797370780859
 20
1.103214848227591
 30
0.0
 10
64.27562965349213
 20
1.529517737131492
 30
0.0
 10
64.08681628738297
 20
1.836334995276414
 30
0.0
  0
LWPOLYLINE
  5
23F
330
219
100
AcDbEntity
  8
0
  6
Continuous
 62
     7
370
    25
100
AcDbPolyline
 90
        3
 70
   128
 43
0.0
 10
61.2218504987
 20
-0.6903273353
 10
62.0212651679
 20
-1.4857108719
 10
62.2040421628
 20
-1.683268332
  0
LWPOLYLINE
  5
243
330
219
100
AcDbEntity
  8
0
  6
Continuous
 62
     7
370
    25
100
AcDbPolyline
 90
        9
 70
   128
 43
0.0
 10
88.459974654
 20
30.8739125631
 10
88.7149802561
 20
31.189385422
 10
88.7804488922
 20
31.5153796
 10
88.6538646392
 20
31.8393673238
 10
88.340092059
 20
32.1488979267
 10
87.8511892559
 20
32.4320763213
 10
87.2059444905
 20
32.6780201208
 10
86.4291541572
 20
32.8772778427
 10
85.5506698729
 20
33.0221921246
  0
LWPOLYLINE
  5
247
330
219
100
AcDbEntity
  8
0
  6
Continuous
 62
     7
370
    25
100
AcDbPolyline
 90
        9
 70
   128
 43
0.0
 10
-88.459974654
 20
6.8384491013
 10
-88.7149802561
 20
6.5229762424
 10
-88.7804488922
 20
6.1969820644
 10
-88.6538646392
 20
5.8729943406
 10
-88.340092059
 20
5.5634637377
 10
-87.8511892559
 20
5.2802853431
 10
-87.2059444905
 20
5.0343415436
 10
-86.4291541572
 20
4.8350838217
 10
-85.5506698729
 20
4.6901695398
  0
LWPOLYLINE
  5
24A
330
219
100
AcDbEntity
  8
0
  6
Continuous
 62
     7
370
    25
100
AcDbPolyline
 90
        3
 70
   128
 43
0.0
 10
88.459974654
 20
23.3314402302
 10
88.7149802561
 20
23.6469130891
 10
88.7829029204
 20
23.9206958809
  0
LINE
  5
253
330
219
100
AcDbEntity
  8
0
  6
Continuous
 62
     7
370
    25
100
AcDbLine
 10
-88.7829029204
 20
6.2491934506
 30
0.0
 11
-88.7829029204
 21
2.2209945837
 31
0.0
  0
LINE
  5
254
330
219
100
AcDbEntity
  8
0
  6
Continuous
 62
     7
370
    25
100
AcDbLine
 10
88.7829029204
 20
23.9206958809
 30
0.0
 11
88.7829029204
 21
31.4631682138
 31
0.0
  0
LINE
  5
255
330
219
100
AcDbEntity
  8
0
  6
Continuous
 62
     7
370
    25
100
AcDbLine
 10
87.7829029204
 20
20.9961559612
 30
0.0
 11
87.7829029204
 21
22.7343190879
 31
0.0
  0
LINE
  5
256
330
219
100
AcDbEntity
  8
0
  6
Continuous
 62
     7
370
    25
100
AcDbLine
 10
889.7528335842
 20
63.4393252091
 30
0.0
 11
-606.9101211744
 21
252.0011334374
 31
0.0
  0
LINE
  5
257
330
219
100
AcDbEntity
  8
0
  6
Continuous
 62
     7
370
    25
100
AcDbLine
 10
606.9101211744
 20
-186.0045005247
 30
0.0
 11
889.7528335842
 21
63.4393252091
 31
0.0
  0
LINE
  5
258
330
219
100
AcDbEntity
  8
0
  6
Continuous
 62
     7
370
    25
100
AcDbLine
 10
-889.7528335842
 20
2.5573077036
 30
0.0
 11
606.9101211744
 21
-186.0045005247
 31
0.0
  0
LINE
  5
259
330
219
100
AcDbEntity
  8
0
  6
Continuous
 62
     7
370
    25
100
AcDbLine
 10
-606.9101211744
 20
252.0011334374
 30
0.0
 11
-889.7528335842
 21
2.5573077036
 31
0.0
  0
LINE
  5
25A
330
219
100
AcDbEntity
  8
0
  6
Continuous
 62
     7
370
    25
100
AcDbLine
 10
-595.2729020502
 20
243.4080151912
 30
0.0
 11
-863.9734788395
 21
6.4363807441
 31
0.0
  0
LINE
  5
25B
330
219
100
AcDbEntity
  8
0
  6
Continuous
 62
     7
370
    25
100
AcDbLine
 10
-863.9734788395
 20
6.4363807441
 30
0.0
 11
595.2729020502
 21
-177.4113822785
 31
0.0
  0
LINE
  5
25C
330
219
100
AcDbEntity
  8
0
  6
Continuous
 62
     7
370
    25
100
AcDbLine
 10
595.2729020502
 20
-177.4113822785
 30
0.0
 11
863.9734788395
 21
59.5602521686
 31
0.0
  0
LINE
  5
25D
330
219
100
AcDbEntity
  8
0
  6
Continuous
 62
     7
370
    25
100
AcDbLine
 10
863.9734788395
 20
59.5602521686
 30
0.0
 11
-595.2729020502
 21
243.4080151912
 31
0.0
  0
LINE
  5
25E
330
219
100
AcDbEntity
  8
0
  6
Continuous
 62
     7
370
    25
100
AcDbLine
 10
-889.7528335842
 20
2.5573077036
 30
0.0
 11
-889.7528335842
 21
-30.4410087527
 31
0.0
  0
LINE
  5
25F
330
219
100
AcDbEntity
  8
0
  6
Continuous
 62
     7
370
    25
100
AcDbLine
 10
606.9101211744
 20
-186.0045005247
 30
0.0
 11
606.9101211744
 21
-219.002816981
 31
0.0
  0
LINE
  5
260
330
219
100
AcDbEntity
  8
0
  6
Continuous
 62
     7
370
    25
100
AcDbLine
 10
-889.7528335842
 20
-30.4410087527
 30
0.0
 11
606.9101211744
 21
-219.002816981
 31
0.0
  0
LINE
  5
261
330
219
100
AcDbEntity
  8
0
  6
Continuous
 62
     7
370
    25
100
AcDbLine
 10
889.7528335842
 20
63.4393252091
 30
0.0
 11
889.7528335842
 21
30.4410087527
 31
0.0
  0
LINE
  5
262
330
219
100
AcDbEntity
  8
0
  6
Continuous
 62
     7
370
    25
100
AcDbLine
 10
606.9101211744
 20
-219.002816981
 30
0.0
 11
889.7528335842
 21
30.4410087527
 31
0.0
  0
LINE
  5
263
330
219
100
AcDbEntity
  8
0
  6
Continuous
 62
     7
370
    25
100
AcDbLine
 10
595.2729020502
 20
-177.4113822785
 30
0.0
 11
61.0536309795
 21
-2.5629071972
 31
0.0
  0
LINE
  5
264
330
219
100
AcDbEntity
  8
0
  6
Continuous
 62
     7
370
    25
100
AcDbLine
 10
-863.9734788395
 20
6.4363807441
 30
0.0
 11
-88.6126644964
 21
16.2932736256
 31
0.0
  0
LINE
  5
265
330
219
100
AcDbEntity
  8
0
  6
Continuous
 62
     7
370
    25
100
AcDbLine
 10
863.9734788395
 20
59.5602521686
 30
0.0
 11
88.6126644964
 21
21.741875823
 31
0.0
  0
LINE
  5
266
330
219
100
AcDbEntity
  8
0
  6
Continuous
 62
     7
370
    25
100
AcDbLine
 10
-61.0536309795
 20
40.5980566458
 30
0.0
 11
-595.2729020502
 21
243.4080151912
 31
0.0
  0
LINE
  5
267
330
219
100
AcDbEntity
  8
0
  6
Continuous
 62
     7
370
    25
100
AcDbLine
 10
-42.4980338874
 20
47.3730707831
 30
0.0
 11
-88.459974654
 21
6.8384491013
 31
0.0
  0
LINE
  5
268
330
219
100
AcDbEntity
  8
0
  6
Continuous
 62
     7
370
    25
100
AcDbLine
 10
85.5506698729
 20
33.0221921246
 30
0.0
 11
-36.0531952012
 21
48.3428390432
 31
0.0
  0
LINE
  5
269
330
219
100
AcDbEntity
  8
0
  6
Continuous
 62
     7
370
    25
100
AcDbLine
 10
42.4980338874
 20
-9.6607091187
 30
0.0
 11
88.459974654
 21
30.8739125631
 31
0.0
  0
LINE
  5
26A
330
219
100
AcDbEntity
  8
0
  6
Continuous
 62
     7
370
    25
100
AcDbLine
 10
-85.5506698729
 20
4.6901695398
 30
0.0
 11
36.0531952012
 21
-10.6304773788
 31
0.0
  0
LINE
  5
26B
330
219
100
AcDbEntity
  8
0
  6
Continuous
 62
     7
370
    25
100
AcDbLine
 10
88.459974654
 20
30.8739125631
 30
0.0
 11
88.459974654
 21
23.3314402302
 31
0.0
  0
LINE
  5
26C
330
219
100
AcDbEntity
  8
0
  6
Continuous
 62
     7
370
    25
100
AcDbLine
 10
45.7054093182
 20
-14.3745422011
 30
0.0
 11
88.459974654
 21
23.3314402302
 31
0.0
  0
LINE
  5
26D
330
219
100
AcDbEntity
  8
0
  6
Continuous
 62
    60
370
    25
100
AcDbLine
 10
-102.2335355026
 20
4.4263491912
 30
0.0
 11
-102.2335355026
 21
4.9498458566
 31
0.0
  0
LINE
  5
26E
330
219
100
AcDbEntity
  8
0
  6
Continuous
 62
    60
370
    25
100
AcDbLine
 10
-47.4327599732
 20
43.0210514458
 30
0.0
 11
-47.4327599732
 21
53.2795870925
 31
0.0
  0
LINE
  5
26F
330
219
100
AcDbEntity
  8
0
  6
Continuous
 62
    60
370
    25
100
AcDbLine
 10
100.7788831121
 20
33.0690715453
 30
0.0
 11
100.7788831121
 21
35.530021202
 31
0.0
  0
LINE
  5
270
330
219
100
AcDbEntity
  8
0
  6
Continuous
 62
    60
370
    25
100
AcDbLine
 10
-44.2103406301
 20
45.8629581798
 30
0.0
 11
-44.2103406301
 21
53.7969463741
 31
0.0
  0
LINE
  5
271
330
219
100
AcDbEntity
  8
0
  6
Continuous
 62
    60
370
    25
100
AcDbLine
 10
36.0531952012
 20
-10.6304773788
 30
0.0
 11
36.0531952012
 21
-13.4506074649
 31
0.0
  0
LINE
  5
272
330
219
100
AcDbEntity
  8
0
  6
Continuous
 62
    60
370
    25
100
AcDbLine
 10
42.4980338874
 20
-9.6607091187
 30
0.0
 11
42.4980338874
 21
-14.1681125246
 31
0.0
  0
LINE
  5
273
330
219
100
AcDbEntity
  8
0
  6
Continuous
 62
    60
370
    25
100
AcDbLine
 10
-85.5506698729
 20
4.6901695398
 30
0.0
 11
-85.5506698729
 21
1.7663939309
 31
0.0
  0
LINE
  5
274
330
219
100
AcDbEntity
  8
0
  6
Continuous
 62
    60
370
    25
100
AcDbLine
 10
85.4286542317
 20
20.658066903
 30
0.0
 11
85.4286542317
 21
18.8803554016
 31
0.0
  0
ARC
  5
275
330
219
100
AcDbEntity
  8
0
  6
Continuous
 62
     7
370
    25
100
AcDbCircle
 10
-37.8934071433
 20
38.6721482657
 30
0.0
 40
9.844218613218631
100
AcDbArc
 50
79.2261330329
 51
117.8883001309
  0
ARC
  5
276
330
219
100
AcDbEntity
  8
0
  6
Continuous
 62
     7
370
    25
100
AcDbCircle
 10
37.8934071433
 20
-0.9597866013
 30
0.0
 40
9.844218613218638
100
AcDbArc
 50
259.2261330329
 51
297.8883001309
  0
VIEWPORT
  5
287
330
219
100
AcDbEntity
  8
0
100
AcDbViewport
 10
0.0
 20
0.0
 30
0.0
 40
205.6
 41
156.0
 68
     1
 69
     1
 12
0.0
 22
0.0
 13
0.0
 23
0.0
 14
10.0
 24
10.0
 15
10.0
 25
10.0
 16
0.0
 26
0.0
 36
1.0
 17
0.0
 27
0.0
 37
0.0
 42
50.0
 43
0.0
 44
0.0
 45
1238.2879377432
 50
0.0
 51
0.0
 72
   100
 90
   557152
  1

281
     0
 71
     1
 74
     0
110
0.0
120
0.0
130
0.0
111
1.0
121
0.0
131
0.0
112
0.0
122
1.0
132
0.0
 79
     0
146
0.0
  0
ENDBLK
  5
21C
330
219
100
AcDbEntity
  8
0
100
AcDbBlockEnd
  0
ENDSEC
  0
SECTION
  2
ENTITIES
  0
SPLINE
  5
73
330
1F
100
AcDbEntity
  8
0
  6
Continuous
 62
     7
370
    25
100
AcDbSpline
210
0.0
220
0.0
230
1.0
 70
    24
 71
     3
 72
    10
 73
     6
 74
     0
 42
0.000000001
 43
0.00000001
 40
0.0
 40
0.0
 40
0.0
 40
0.0
 40
0.5000000000000003
 40
0.5000000000000003
 40
1.0
 40
1.0
 40
1.0
 40
1.0
 10
79.99999999999996
 20
-38.97435897435903
 30
0.0
 10
79.99999999999996
 20
-45.39627497638797
 30
0.0
 10
79.99999999999994
 20
-51.81776310176745
 30
0.0
 10
79.99999999999993
 20
-64.65968027067574
 30
0.0
 10
79.99999999999994
 20
-71.08010478641742
 30
0.0
 10
79.99999999999993
 20
-77.50000000000006
 30
0.0
  0
SPLINE
  5
77
330
1F
100
AcDbEntity
  8
0
  6
Continuous
 62
     7
370
    25
100
AcDbSpline
210
0.0
220
0.0
230
1.0
 70
    24
 71
     3
 72
    10
 73
     6
 74
     0
 42
0.000000001
 43
0.00000001
 40
0.0
 40
0.0
 40
0.0
 40
0.0
 40
0.5000000000000003
 40
0.5000000000000003
 40
1.0
 40
1.0
 40
1.0
 40
1.0
 10
-80.00000000000009
 20
-77.50000000000007
 30
0.0
 10
-80.00000000000009
 20
-71.08010478641744
 30
0.0
 10
-80.00000000000007
 20
-64.65968027067575
 30
0.0
 10
-80.00000000000009
 20
-51.8177631017674
 30
0.0
 10
-80.00000000000003
 20
-45.39627497638795
 30
0.0
 10
-80.00000000000003
 20
-38.97435897435899
 30
0.0
  0
SPLINE
  5
78
330
1F
100
AcDbEntity
  8
0
  6
Continuous
 62
     7
370
    25
100
AcDbSpline
210
0.0
220
0.0
230
1.0
 70
     8
 71
     3
 72
    20
 73
    16
 74
     0
 42
0.000000001
 43
0.00000001
 40
0.0
 40
0.0
 40
0.0
 40
0.0
 40
0.1249999999999988
 40
0.1249999999999988
 40
0.2499999999999976
 40
0.2499999999999976
 40
0.3749999999999963
 40
0.3749999999999963
 40
0.4999999999999951
 40
0.4999999999999951
 40
0.6249999999999939
 40
0.6249999999999939
 40
0.7499999999999927
 40
0.7499999999999927
 40
1.0
 40
1.0
 40
1.0
 40
1.0
 10
-77.50000000000009
 20
-80.00000000000007
 30
0.0
 10
-77.66507043163324
 20
-80.00000000000009
 30
0.0
 10
-77.82738987331595
 20
-79.98381153245496
 30
0.0
 10
-78.146750639498
 20
-79.92037548083246
 30
0.0
 10
-78.3054456115072
 20
-79.87235849780348
 30
0.0
 10
-78.60808864571914
 20
-79.74699066051126
 30
0.0
 10
-78.75163500503417
 20
-79.6702710136666
 30
0.0
 10
-79.0233172131046
 20
-79.4890126009776
 30
0.0
 10
-79.15195886678505
 20
-79.38350850158089
 30
0.0
 10
-79.38255669104944
 20
-79.15304345921764
 30
0.0
 10
-79.48604226813598
 20
-79.02729349662874
 30
0.0
 10
-79.66882854547484
 20
-78.75426155804936
 30
0.0
 10
-79.74652486146135
 20
-78.6088739757855
 30
0.0
 10
-79.93369622469797
 20
-78.1580459522275
 30
0.0
 10
-80.00000000000006
 20
-77.83004879686756
 30
0.0
 10
-80.00000000000004
 20
-77.50000000000004
 30
0.0
  0
SPLINE
  5
79
330
1F
100
AcDbEntity
  8
0
  6
Continuous
 62
     7
370
    25
100
AcDbSpline
210
0.0
220
0.0
230
1.0
 70
    24
 71
     3
 72
    18
 73
    14
 74
     0
 42
0.000000001
 43
0.00000001
 40
0.0
 40
0.0
 40
0.0
 40
0.0
 40
0.1250000000000001
 40
0.1250000000000001
 40
0.2500000000000002
 40
0.2500000000000002
 40
0.5000000000000002
 40
0.5000000000000002
 40
0.7500000000000002
 40
0.7500000000000002
 40
0.8750000000000002
 40
0.8750000000000002
 40
1.0
 40
1.0
 40
1.0
 40
1.0
 10
77.49999999999996
 20
-80.00000000000004
 30
0.0
 10
71.04194233863466
 20
-80.00000000000004
 30
0.0
 10
64.5839196034019
 20
-80.00000000000003
 30
0.0
 10
51.66789955657394
 20
-80.00000000000001
 30
0.0
 10
45.20990639448791
 20
-80.00000000000009
 30
0.0
 10
25.83575296585138
 20
-80.00000000000006
 30
0.0
 10
12.91947408764526
 20
-80.00000000000006
 30
0.0
 10
-12.91705562372931
 20
-80.00000000000006
 30
0.0
 10
-25.8337918819934
 20
-80.00000000000004
 30
0.0
 10
-45.20869479708838
 20
-80.00000000000009
 30
0.0
 10
-51.66692436919263
 20
-80.00000000000006
 30
0.0
 10
-64.58342503299764
 20
-80.00000000000003
 30
0.0
 10
-71.0416910148207
 20
-80.00000000000009
 30
0.0
 10
-77.5000000000001
 20
-80.00000000000011
 30
0.0
  0
SPLINE
  5
7A
330
1F
100
AcDbEntity
  8
0
  6
Continuous
 62
     7
370
    25
100
AcDbSpline
210
0.0
220
0.0
230
1.0
 70
     8
 71
     3
 72
    20
 73
    16
 74
     0
 42
0.000000001
 43
0.00000001
 40
0.0
 40
0.0
 40
0.0
 40
0.0
 40
0.1249999999999988
 40
0.1249999999999988
 40
0.2499999999999976
 40
0.2499999999999976
 40
0.3749999999999963
 40
0.3749999999999963
 40
0.4999999999999951
 40
0.4999999999999951
 40
0.6249999999999939
 40
0.6249999999999939
 40
0.7499999999999927
 40
0.7499999999999927
 40
1.0
 40
1.0
 40
1.0
 40
1.0
 10
79.99999999999996
 20
-77.50000000000004
 30
0.0
 10
79.99999999999996
 20
-77.66502504785969
 30
0.0
 10
79.98382034224724
 20
-77.82730179218366
 30
0.0
 10
79.92041763625906
 20
-78.14658210755782
 30
0.0
 10
79.87242764546781
 20
-78.30523619665696
 30
0.0
 10
79.74711135334455
 20
-78.6078397136123
 30
0.0
 10
79.67042079298197
 20
-78.75137201943758
 30
0.0
 10
79.48922544385528
 20
-79.02303659941529
 30
0.0
 10
79.38374377257765
 20
-79.15169096535959
 30
0.0
 10
79.15330567327374
 20
-79.38232675072538
 30
0.0
 10
79.02756730855347
 20
-79.48583193665989
 30
0.0
 10
78.75455503439662
 20
-79.66865903924285
 30
0.0
 10
78.60912615202206
 20
-79.74640271161532
 30
0.0
 10
78.1582271292731
 20
-79.93365587166635
 30
0.0
 10
77.83014303288033
 20
-80.0000000000001
 30
0.0
 10
77.49999999999996
 20
-80.00000000000007
 30
0.0
  0
SPLINE
  5
7C
330
1F
100
AcDbEntity
  8
0
  6
Continuous
 62
     7
370
    25
100
AcDbSpline
210
0.0
220
0.0
230
1.0
 70
     8
 71
     3
 72
    10
 73
     6
 74
     0
 42
0.000000001
 43
0.00000001
 40
0.0
 40
0.0
 40
0.0
 40
0.0
 40
0.5
 40
0.5
 40
1.0
 40
1.0
 40
1.0
 40
1.0
 10
79.99999999999996
 20
38.97435897435897
 30
0.0
 10
79.99999999999996
 20
25.98311821214711
 30
0.0
 10
79.9999999998959
 20
12.99177373445071
 30
0.0
 10
79.9999999998959
 20
-12.99156331912395
 30
0.0
 10
80.00000000000001
 20
-25.98306915834341
 30
0.0
 10
80.00000000000001
 20
-38.97435897435903
 30
0.0
  0
SPLINE
  5
7F
330
1F
100
AcDbEntity
  8
0
  6
Continuous
 62
     7
370
    25
100
AcDbSpline
210
0.0
220
0.0
230
1.0
 70
    24
 71
     3
 72
    10
 73
     6
 74
     0
 42
0.000000001
 43
0.00000001
 40
0.0
 40
0.0
 40
0.0
 40
0.0
 40
0.5
 40
0.5
 40
1.0
 40
1.0
 40
1.0
 40
1.0
 10
79.99999999999993
 20
77.50000000000004
 30
0.0
 10
79.99999999999993
 20
71.08010478641744
 30
0.0
 10
79.99999999999999
 20
64.65968027067574
 30
0.0
 10
79.99999999999994
 20
51.8177631017674
 30
0.0
 10
80.00000000000004
 20
45.39627497638795
 30
0.0
 10
80.00000000000004
 20
38.974358974359
 30
0.0
  0
SPLINE
  5
80
330
1F
100
AcDbEntity
  8
0
  6
Continuous
 62
     7
370
    25
100
AcDbSpline
210
0.0
220
0.0
230
1.0
 70
     8
 71
     3
 72
    20
 73
    16
 74
     0
 42
0.000000001
 43
0.00000001
 40
0.0
 40
0.0
 40
0.0
 40
0.0
 40
0.1250000000000012
 40
0.1250000000000012
 40
0.2500000000000024
 40
0.2500000000000024
 40
0.3750000000000037
 40
0.3750000000000037
 40
0.5000000000000049
 40
0.5000000000000049
 40
0.6250000000000061
 40
0.6250000000000061
 40
0.7500000000000073
 40
0.7500000000000073
 40
1.0
 40
1.0
 40
1.0
 40
1.0
 10
77.49999999999996
 20
80.00000000000001
 30
0.0
 10
77.66507043163308
 20
80.00000000000003
 30
0.0
 10
77.82738987331581
 20
79.98381153245491
 30
0.0
 10
78.14675063949785
 20
79.92037548083242
 30
0.0
 10
78.30544561150703
 20
79.87235849780343
 30
0.0
 10
78.60808864571898
 20
79.74699066051123
 30
0.0
 10
78.75163500503403
 20
79.67027101366664
 30
0.0
 10
79.02331721310449
 20
79.4890126009776
 30
0.0
 10
79.15195886678487
 20
79.38350850158079
 30
0.0
 10
79.38255669104927
 20
79.15304345921756
 30
0.0
 10
79.48604226813583
 20
79.02729349662874
 30
0.0
 10
79.66882854547475
 20
78.75426155804938
 30
0.0
 10
79.7465248614612
 20
78.6088739757855
 30
0.0
 10
79.93369622469778
 20
78.15804595222745
 30
0.0
 10
79.99999999999997
 20
77.8300487968675
 30
0.0
 10
79.99999999999996
 20
77.50000000000003
 30
0.0
  0
SPLINE
  5
81
330
1F
100
AcDbEntity
  8
0
  6
Continuous
 62
     7
370
    25
100
AcDbSpline
210
0.0
220
0.0
230
1.0
 70
    24
 71
     3
 72
    18
 73
    14
 74
     0
 42
0.000000001
 43
0.00000001
 40
0.0
 40
0.0
 40
0.0
 40
0.0
 40
0.1250000000000001
 40
0.1250000000000001
 40
0.25
 40
0.25
 40
0.5
 40
0.5
 40
0.7500000000000001
 40
0.7500000000000001
 40
0.875
 40
0.875
 40
1.0
 40
1.0
 40
1.0
 40
1.0
 10
-77.50000000000007
 20
79.99999999999999
 30
0.0
 10
-71.04194233863481
 20
80.00000000000001
 30
0.0
 10
-64.58391960340202
 20
79.99999999999999
 30
0.0
 10
-51.66789955657406
 20
79.99999999999996
 30
0.0
 10
-45.209906394488
 20
79.99999999999999
 30
0.0
 10
-25.83575296585147
 20
79.99999999999996
 30
0.0
 10
-12.91947408764537
 20
79.99999999999999
 30
0.0
 10
12.91705562372922
 20
80.0
 30
0.0
 10
25.83379188199332
 20
80.00000000000001
 30
0.0
 10
45.20869479708829
 20
80.00000000000003
 30
0.0
 10
51.66692436919257
 20
80.00000000000004
 30
0.0
 10
64.58342503299757
 20
80.00000000000003
 30
0.0
 10
71.04169101482063
 20
80.00000000000009
 30
0.0
 10
77.5
 20
80.00000000000009
 30
0.0
  0
SPLINE
  5
82
330
1F
100
AcDbEntity
  8
0
  6
Continuous
 62
     7
370
    25
100
AcDbSpline
210
0.0
220
0.0
230
1.0
 70
     8
 71
     3
 72
    20
 73
    16
 74
     0
 42
0.000000001
 43
0.00000001
 40
0.0
 40
0.0
 40
0.0
 40
0.0
 40
0.1249999999999993
 40
0.1249999999999993
 40
0.2499999999999986
 40
0.2499999999999986
 40
0.3749999999999978
 40
0.3749999999999978
 40
0.4999999999999971
 40
0.4999999999999971
 40
0.6249999999999964
 40
0.6249999999999964
 40
0.7499999999999957
 40
0.7499999999999957
 40
1.0
 40
1.0
 40
1.0
 40
1.0
 10
-80.00000000000006
 20
77.49999999999999
 30
0.0
 10
-80.00000000000009
 20
77.66502504785964
 30
0.0
 10
-79.98382034224738
 20
77.82730179218363
 30
0.0
 10
-79.9204176362592
 20
78.14658210755779
 30
0.0
 10
-79.87242764546788
 20
78.30523619665689
 30
0.0
 10
-79.74711135334465
 20
78.60783971361225
 30
0.0
 10
-79.67042079298213
 20
78.75137201943755
 30
0.0
 10
-79.48922544385546
 20
79.02303659941524
 30
0.0
 10
-79.38374377257777
 20
79.15169096535952
 30
0.0
 10
-79.15330567327388
 20
79.38232675072531
 30
0.0
 10
-79.02756730855361
 20
79.48583193665986
 30
0.0
 10
-78.7545550343968
 20
79.66865903924287
 30
0.0
 10
-78.60912615202214
 20
79.74640271161525
 30
0.0
 10
-78.15822712927317
 20
79.93365587166623
 30
0.0
 10
-77.83014303288044
 20
80.00000000000001
 30
0.0
 10
-77.50000000000007
 20
80.00000000000001
 30
0.0
  0
SPLINE
  5
83
330
1F
100
AcDbEntity
  8
0
  6
Continuous
 62
     7
370
    25
100
AcDbSpline
210
0.0
220
0.0
230
1.0
 70
    24
 71
     3
 72
    10
 73
     6
 74
     0
 42
0.000000001
 43
0.00000001
 40
0.0
 40
0.0
 40
0.0
 40
0.0
 40
0.5000000000000003
 40
0.5000000000000003
 40
1.0
 40
1.0
 40
1.0
 40
1.0
 10
-80.00000000000013
 20
38.974358974359
 30
0.0
 10
-80.00000000000014
 20
45.39627497638794
 30
0.0
 10
-80.00000000000006
 20
51.81776310176739
 30
0.0
 10
-80.00000000000004
 20
64.65968027067568
 30
0.0
 10
-80.00000000000011
 20
71.08010478641737
 30
0.0
 10
-80.00000000000011
 20
77.49999999999997
 30
0.0
  0
SPLINE
  5
8A
330
1F
100
AcDbEntity
  8
0
  6
Continuous
 62
     7
370
    25
100
AcDbSpline
210
0.0
220
0.0
230
1.0
 70
     8
 71
     3
 72
    10
 73
     6
 74
     0
 42
0.000000001
 43
0.00000001
 40
0.0
 40
0.0
 40
0.0
 40
0.0
 40
0.5
 40
0.5
 40
1.0
 40
1.0
 40
1.0
 40
1.0
 10
-80.00000000000007
 20
-38.97435897435897
 30
0.0
 10
-80.00000000000006
 20
-25.98311821214712
 30
0.0
 10
-79.99999999989609
 20
-12.99177373445074
 30
0.0
 10
-79.99999999989606
 20
12.9915633191239
 30
0.0
 10
-80.0000000000001
 20
25.98306915834336
 30
0.0
 10
-80.00000000000009
 20
38.97435897435897
 30
0.0
  0
LINE
  5
97
330
1F
100
AcDbEntity
  8
0
  6
Continuous
 62
     7
370
    25
100
AcDbLine
 10
780.0
 20
-380.0
 30
0.0
 11
80.0
 21
-38.9743589744
 31
0.0
  0
LINE
  5
98
330
1F
100
AcDbEntity
  8
0
  6
Continuous
 62
     7
370
    25
100
AcDbLine
 10
-780.0
 20
-380.0
 30
0.0
 11
780.0
 21
-380.0
 31
0.0
  0
LINE
  5
99
330
1F
100
AcDbEntity
  8
0
  6
Continuous
 62
     7
370
    25
100
AcDbLine
 10
-780.0
 20
-380.0
 30
0.0
 11
-80.0
 21
-38.9743589744
 31
0.0
  0
LINE
  5
9A
330
1F
100
AcDbEntity
  8
0
  6
Continuous
 62
     7
370
    25
100
AcDbLine
 10
780.0
 20
-380.0
 30
0.0
 11
780.0
 21
380.0
 31
0.0
  0
LINE
  5
9B
330
1F
100
AcDbEntity
  8
0
  6
Continuous
 62
     7
370
    25
100
AcDbLine
 10
780.0
 20
380.0
 30
0.0
 11
80.0
 21
38.9743589744
 31
0.0
  0
LINE
  5
9C
330
1F
100
AcDbEntity
  8
0
  6
Continuous
 62
     7
370
    25
100
AcDbLine
 10
780.0
 20
380.0
 30
0.0
 11
-780.0
 21
380.0
 31
0.0
  0
LINE
  5
9D
330
1F
100
AcDbEntity
  8
0
  6
Continuous
 62
     7
370
    25
100
AcDbLine
 10
-80.0
 20
38.9743589744
 30
0.0
 11
-780.0
 21
380.0
 31
0.0
  0
LINE
  5
9E
330
1F
100
AcDbEntity
  8
0
  6
Continuous
 62
     7
370
    25
100
AcDbLine
 10
800.0
 20
400.0
 30
0.0
 11
-800.0
 21
400.0
 31
0.0
  0
LINE
  5
9F
330
1F
100
AcDbEntity
  8
0
  6
Continuous
 62
     7
370
    25
100
AcDbLine
 10
800.0
 20
-400.0
 30
0.0
 11
800.0
 21
400.0
 31
0.0
  0
LINE
  5
A0
330
1F
100
AcDbEntity
  8
0
  6
Continuous
 62
     7
370
    25
100
AcDbLine
 10
-800.0
 20
-400.0
 30
0.0
 11
800.0
 21
-400.0
 31
0.0
  0
LINE
  5
A1
330
1F
100
AcDbEntity
  8
0
  6
Continuous
 62
     7
370
    25
100
AcDbLine
 10
-800.0
 20
400.0
 30
0.0
 11
-800.0
 21
-400.0
 31
0.0
  0
LINE
  5
A2
330
1F
100
AcDbEntity
  8
0
  6
Continuous
 62
     7
370
    25
100
AcDbLine
 10
-780.0
 20
380.0
 30
0.0
 11
-780.0
 21
-380.0
 31
0.0
  0
LINE
  5
A3
330
1F
100
AcDbEntity
  8
0
  6
Continuous
 62
     7
370
    25
100
AcDbLine
 10
-79.2456219697
 20
79.2456219697
 30
0.0
 11
-68.5355339059
 21
68.5355339059
 31
0.0
  0
LINE
  5
A4
330
1F
100
AcDbEntity
  8
0
  6
Continuous
 62
     7
370
    25
100
AcDbLine
 10
79.2456022991
 20
79.2456022991
 30
0.0
 11
68.5355339059
 21
68.5355339059
 31
0.0
  0
LINE
  5
A5
330
1F
100
AcDbEntity
  8
0
  6
Continuous
 62
     7
370
    25
100
AcDbLine
 10
79.2456219697
 20
-79.2456219697
 30
0.0
 11
68.5355339059
 21
-68.5355339059
 31
0.0
  0
LINE
  5
A6
330
1F
100
AcDbEntity
  8
0
  6
Continuous
 62
     7
370
    25
100
AcDbLine
 10
-68.5355339059
 20
-68.5355339059
 30
0.0
 11
-79.2456022991
 21
-79.2456022991
 31
0.0
  0
LINE
  5
A7
330
1F
100
AcDbEntity
  8
0
  6
Continuous
 62
     7
370
    25
100
AcDbLine
 10
-70.0
 20
65.0
 30
0.0
 11
-70.0
 21
-65.0
 31
0.0
  0
LINE
  5
A8
330
1F
100
AcDbEntity
  8
0
  6
Continuous
 62
     7
370
    25
100
AcDbLine
 10
65.0
 20
70.0
 30
0.0
 11
-65.0
 21
70.0
 31
0.0
  0
LINE
  5
A9
330
1F
100
AcDbEntity
  8
0
  6
Continuous
 62
     7
370
    25
100
AcDbLine
 10
70.0
 20
-65.0
 30
0.0
 11
70.0
 21
65.0
 31
0.0
  0
LINE
  5
AA
330
1F
100
AcDbEntity
  8
0
  6
Continuous
 62
     7
370
    25
100
AcDbLine
 10
-65.0
 20
-70.0
 30
0.0
 11
65.0
 21
-70.0
 31
0.0
  0
ARC
  5
AB
330
1F
100
AcDbEntity
  8
0
  6
Continuous
 62
     7
370
    25
100
AcDbCircle
 10
-65.0
 20
65.0
 30
0.0
 40
5.000000000000028
100
AcDbArc
 50
90.0
 51
180.0
  0
ARC
  5
AC
330
1F
100
AcDbEntity
  8
0
  6
Continuous
 62
     7
370
    25
100
AcDbCircle
 10
65.0
 20
-65.0
 30
0.0
 40
5.000000000000043
100
AcDbArc
 50
270.0
 51
0.0
  0
ARC
  5
AD
330
1F
100
AcDbEntity
  8
0
  6
Continuous
 62
     7
370
    25
100
AcDbCircle
 10
-65.0
 20
-65.0
 30
0.0
 40
5.000000000000028
100
AcDbArc
 50
180.0
 51
270.0
  0
ARC
  5
AE
330
1F
100
AcDbEntity
  8
0
  6
Continuous
 62
     7
370
    25
100
AcDbCircle
 10
65.0
 20
65.0
 30
0.0
 40
5.000000000000071
100
AcDbArc
 50
0.0
 51
90.0
  0
LINE
  5
B6
330
1B
100
AcDbEntity
 67
     1
  8
0
  6
Continuous
 62
     7
370
    25
100
AcDbLine
 10
-800.0
 20
35.0
 30
0.0
 11
800.0
 21
35.0
 31
0.0
  0
LINE
  5
B7
330
1B
100
AcDbEntity
 67
     1
  8
0
  6
Continuous
 62
     7
370
    25
100
AcDbLine
 10
800.0
 20
35.0
 30
0.0
 11
800.0
 21
0.0
 31
0.0
  0
LINE
  5
B8
330
1B
100
AcDbEntity
 67
     1
  8
0
  6
Continuous
 62
     7
370
    25
100
AcDbLine
 10
-800.0
 20
0.0
 30
0.0
 11
800.0
 21
0.0
 31
0.0
  0
LINE
  5
B9
330
1B
100
AcDbEntity
 67
     1
  8
0
  6
Continuous
 62
     7
370
    25
100
AcDbLine
 10
-800.0
 20
35.0
 30
0.0
 11
-800.0
 21
0.0
 31
0.0
  0
LINE
  5
BA
330
1B
100
AcDbEntity
 67
     1
  8
0
  6
Continuous
 62
     7
370
    25
100
AcDbLine
 10
130.0
 20
-26.0
 30
0.0
 11
-130.0
 21
-26.0
 31
0.0
  0
LINE
  5
BB
330
1B
100
AcDbEntity
 67
     1
  8
0
  6
Continuous
 62
     7
370
    25
100
AcDbLine
 10
130.0
 20
-26.0
 30
0.0
 11
130.0
 21
0.0
 31
0.0
  0
LINE
  5
BC
330
1B
100
AcDbEntity
 67
     1
  8
0
  6
Continuous
 62
     7
370
    25
100
AcDbLine
 10
-130.0
 20
-26.0
 30
0.0
 11
-130.0
 21
0.0
 31
0.0
  0
VIEWPORT
  5
277
330
1B
100
AcDbEntity
 67
     1
  8
0
100
AcDbViewport
 10
0.0
 20
0.0
 30
0.0
 40
205.6
 41
156.0
 68
     1
 69
     1
 12
0.0
 22
0.0
 13
0.0
 23
0.0
 14
10.0
 24
10.0
 15
10.0
 25
10.0
 16
0.0
 26
0.0
 36
1.0
 17
0.0
 27
0.0
 37
0.0
 42
50.0
 43
0.0
 44
0.0
 45
1238.2879377432
 50
0.0
 51
0.0
 72
   100
 90
   557152
  1

281
     0
 71
     1
 74
     0
110
0.0
120
0.0
130
0.0
111
1.0
121
0.0
131
0.0
112
0.0
122
1.0
132
0.0
 79
     0
146
0.0
  0
ENDSEC
  0
SECTION
  2
OBJECTS
  0
DICTIONARY
  5
C
330
0
100
AcDbDictionary
281
     1
  3
ACAD_GROUP
350
D
  3
ACAD_LAYOUT
350
1A
  3
ACAD_MLINESTYLE
350
17
  3
ACAD_PLOTSETTINGS
350
19
  3
ACAD_PLOTSTYLENAME
350
E
  3
ACAD_SCALELIST
350
47
  0
DICTIONARY
  5
D
102
{ACAD_REACTORS
330
C
102
}
330
C
100
AcDbDictionary
281
     1
  0
DICTIONARY
  5
1A
102
{ACAD_REACTORS
330
C
102
}
330
C
100
AcDbDictionary
281
     1
  3
_Dimetrisch
350
21A
  3
_Isometrisch
350
12F
  3
_Links
350
F0
  3
_Normal auf
350
CC
  3
_Rechts
350
26
  3
_Rückseite
350
DE
  3
_Trimetrisch
350
1AF
  3
_Unten
350
102
  3
_Vorderseite
350
1E
  3
Model
350
22
  0
DICTIONARY
  5
17
102
{ACAD_REACTORS
330
C
102
}
330
C
100
AcDbDictionary
281
     1
  3
Standard
350
18
  0
DICTIONARY
  5
19
102
{ACAD_REACTORS
330
C
102
}
330
C
100
AcDbDictionary
281
     1
  0
ACDBDICTIONARYWDFLT
  5
E
102
{ACAD_REACTORS
330
C
102
}
330
C
100
AcDbDictionary
281
     1
  3
Normal
350
F
100
AcDbDictionaryWithDefault
340
F
  0
DICTIONARY
  5
47
102
{ACAD_REACTORS
330
C
102
}
330
C
100
AcDbDictionary
281
     1
  3
A0
350
48
  3
A1
350
49
  3
A2
350
4A
  3
A3
350
4B
  3
A4
350
4C
  3
A5
350
4D
  3
A6
350
4E
  3
A7
350
4F
  3
A8
350
50
  3
A9
350
51
  3
B0
350
52
  3
B1
350
53
  3
B2
350
54
  3
B3
350
55
  3
B4
350
56
  3
B5
350
57
  3
B6
350
58
  3
B7
350
59
  3
B8
350
5A
  3
B9
350
5B
  3
C0
350
5C
  3
C1
350
5D
  3
C2
350
5E
  3
C3
350
5F
  3
C4
350
60
  3
C5
350
61
  3
C6
350
62
  3
C7
350
63
  3
C8
350
64
  3
C9
350
65
  3
D0
350
66
  3
D1
350
67
  3
D2
350
68
  0
LAYOUT
  5
21A
102
{ACAD_REACTORS
330
1A
102
}
330
1A
100
AcDbPlotSettings
  1

  2
none_device
  4
ISO_A4_(210.00_x_297.00_MM)
  6

 40
7.5
 41
20.0
 42
7.5
 43
20.0
 44
210.0
 45
297.0
 46
0.0
 47
0.0
 48
0.0
 49
0.0
140
0.0
141
0.0
142
1.0
143
6.2256809339
 70
   688
 72
     1
 73
     1
 74
     1
  7

 75
     0
147
0.160625
148
800.0
149
26.0
100
AcDbLayout
  1
_Dimetrisch
 70
     1
 71
     9
 10
0.0
 20
0.0
 11
0.0
 21
0.0
 12
0.0
 22
0.0
 32
0.0
 14
0.0
 24
0.0
 34
0.0
 15
0.0
 25
0.0
 35
0.0
146
0.0
 13
0.0
 23
0.0
 33
0.0
 16
1.0
 26
0.0
 36
0.0
 17
0.0
 27
1.0
 37
0.0
 76
     0
330
219
331
287
  0
LAYOUT
  5
12F
102
{ACAD_REACTORS
330
1A
102
}
330
1A
100
AcDbPlotSettings
  1

  2
none_device
  4
ISO_A4_(210.00_x_297.00_MM)
  6

 40
7.5
 41
20.0
 42
7.5
 43
20.0
 44
210.0
 45
297.0
 46
0.0
 47
0.0
 48
0.0
 49
0.0
140
0.0
141
0.0
142
1.0
143
6.2256809339
 70
   688
 72
     1
 73
     1
 74
     1
  7

 75
     0
147
0.160625
148
800.0
149
26.0
100
AcDbLayout
  1
_Isometrisch
 70
     1
 71
     7
 10
0.0
 20
0.0
 11
0.0
 21
0.0
 12
0.0
 22
0.0
 32
0.0
 14
0.0
 24
0.0
 34
0.0
 15
0.0
 25
0.0
 35
0.0
146
0.0
 13
0.0
 23
0.0
 33
0.0
 16
1.0
 26
0.0
 36
0.0
 17
0.0
 27
1.0
 37
0.0
 76
     0
330
12E
331
283
  0
LAYOUT
  5
F0
102
{ACAD_REACTORS
330
1A
102
}
330
1A
100
AcDbPlotSettings
  1

  2
none_device
  4
ISO_A4_(210.00_x_297.00_MM)
  6

 40
7.5
 41
20.0
 42
7.5
 43
20.0
 44
210.0
 45
297.0
 46
0.0
 47
0.0
 48
0.0
 49
0.0
140
0.0
141
0.0
142
1.0
143
6.2256809339
 70
   688
 72
     1
 73
     1
 74
     1
  7

 75
     0
147
0.160625
148
800.0
149
26.0
100
AcDbLayout
  1
_Links
 70
     1
 71
     5
 10
0.0
 20
0.0
 11
0.0
 21
0.0
 12
0.0
 22
0.0
 32
0.0
 14
0.0
 24
0.0
 34
0.0
 15
0.0
 25
0.0
 35
0.0
146
0.0
 13
0.0
 23
0.0
 33
0.0
 16
1.0
 26
0.0
 36
0.0
 17
0.0
 27
1.0
 37
0.0
 76
     0
330
EF
331
27F
  0
LAYOUT
  5
CC
102
{ACAD_REACTORS
330
1A
102
}
330
1A
100
AcDbPlotSettings
  1

  2
none_device
  4
ISO_A4_(210.00_x_297.00_MM)
  6

 40
7.5
 41
20.0
 42
7.5
 43
20.0
 44
210.0
 45
297.0
 46
0.0
 47
0.0
 48
0.0
 49
0.0
140
0.0
141
0.0
142
1.0
143
6.2256809339
 70
   688
 72
     1
 73
     1
 74
     1
  7

 75
     0
147
0.160625
148
800.0
149
26.0
100
AcDbLayout
  1
_Normal auf
 70
     1
 71
     3
 10
0.0
 20
0.0
 11
0.0
 21
0.0
 12
0.0
 22
0.0
 32
0.0
 14
0.0
 24
0.0
 34
0.0
 15
0.0
 25
0.0
 35
0.0
146
0.0
 13
0.0
 23
0.0
 33
0.0
 16
1.0
 26
0.0
 36
0.0
 17
0.0
 27
1.0
 37
0.0
 76
     0
330
CB
331
27B
  0
LAYOUT
  5
26
102
{ACAD_REACTORS
330
1A
102
}
330
1A
100
AcDbPlotSettings
  1

  2
none_device
  4
ISO_A4_(210.00_x_297.00_MM)
  6

 40
7.5
 41
20.0
 42
7.5
 43
20.0
 44
210.0
 45
297.0
 46
0.0
 47
0.0
 48
0.0
 49
0.0
140
0.0
141
0.0
142
1.0
143
6.2256809339
 70
   688
 72
     1
 73
     1
 74
     1
  7

 75
     0
147
0.160625
148
800.0
149
26.0
100
AcDbLayout
  1
_Rechts
 70
     1
 71
     2
 10
0.0
 20
0.0
 11
0.0
 21
0.0
 12
0.0
 22
0.0
 32
0.0
 14
0.0
 24
0.0
 34
0.0
 15
0.0
 25
0.0
 35
0.0
146
0.0
 13
0.0
 23
0.0
 33
0.0
 16
1.0
 26
0.0
 36
0.0
 17
0.0
 27
1.0
 37
0.0
 76
     0
330
23
331
279
  0
LAYOUT
  5
DE
102
{ACAD_REACTORS
330
1A
102
}
330
1A
100
AcDbPlotSettings
  1

  2
none_device
  4
ISO_A4_(210.00_x_297.00_MM)
  6

 40
7.5
 41
20.0
 42
7.5
 43
20.0
 44
210.0
 45
297.0
 46
0.0
 47
0.0
 48
0.0
 49
0.0
140
0.0
141
0.0
142
1.0
143
6.2256809339
 70
   688
 72
     1
 73
     1
 74
     1
  7

 75
     0
147
0.160625
148
800.0
149
26.0
100
AcDbLayout
  1
_Rückseite
 70
     1
 71
     4
 10
0.0
 20
0.0
 11
0.0
 21
0.0
 12
0.0
 22
0.0
 32
0.0
 14
0.0
 24
0.0
 34
0.0
 15
0.0
 25
0.0
 35
0.0
146
0.0
 13
0.0
 23
0.0
 33
0.0
 16
1.0
 26
0.0
 36
0.0
 17
0.0
 27
1.0
 37
0.0
 76
     0
330
DD
331
27D
  0
LAYOUT
  5
1AF
102
{ACAD_REACTORS
330
1A
102
}
330
1A
100
AcDbPlotSettings
  1

  2
none_device
  4
ISO_A4_(210.00_x_297.00_MM)
  6

 40
7.5
 41
20.0
 42
7.5
 43
20.0
 44
210.0
 45
297.0
 46
0.0
 47
0.0
 48
0.0
 49
0.0
140
0.0
141
0.0
142
1.0
143
6.2256809339
 70
   688
 72
     1
 73
     1
 74
     1
  7

 75
     0
147
0.160625
148
800.0
149
26.0
100
AcDbLayout
  1
_Trimetrisch
 70
     1
 71
     8
 10
0.0
 20
0.0
 11
0.0
 21
0.0
 12
0.0
 22
0.0
 32
0.0
 14
0.0
 24
0.0
 34
0.0
 15
0.0
 25
0.0
 35
0.0
146
0.0
 13
0.0
 23
0.0
 33
0.0
 16
1.0
 26
0.0
 36
0.0
 17
0.0
 27
1.0
 37
0.0
 76
     0
330
1AE
331
285
  0
LAYOUT
  5
102
102
{ACAD_REACTORS
330
1A
102
}
330
1A
100
AcDbPlotSettings
  1

  2
none_device
  4
ISO_A4_(210.00_x_297.00_MM)
  6

 40
7.5
 41
20.0
 42
7.5
 43
20.0
 44
210.0
 45
297.0
 46
0.0
 47
0.0
 48
0.0
 49
0.0
140
0.0
141
0.0
142
1.0
143
6.2256809339
 70
   688
 72
     1
 73
     1
 74
     1
  7

 75
     0
147
0.160625
148
800.0
149
26.0
100
AcDbLayout
  1
_Unten
 70
     1
 71
     6
 10
0.0
 20
0.0
 11
0.0
 21
0.0
 12
0.0
 22
0.0
 32
0.0
 14
0.0
 24
0.0
 34
0.0
 15
0.0
 25
0.0
 35
0.0
146
0.0
 13
0.0
 23
0.0
 33
0.0
 16
1.0
 26
0.0
 36
0.0
 17
0.0
 27
1.0
 37
0.0
 76
     0
330
101
331
281
  0
LAYOUT
  5
1E
102
{ACAD_REACTORS
330
1A
102
}
330
1A
100
AcDbPlotSettings
  1

  2
none_device
  4
ISO_A4_(210.00_x_297.00_MM)
  6

 40
7.5
 41
20.0
 42
7.5
 43
20.0
 44
210.0
 45
297.0
 46
0.0
 47
0.0
 48
0.0
 49
0.0
140
0.0
141
0.0
142
1.0
143
6.2256809339
 70
   688
 72
     1
 73
     1
 74
     1
  7

 75
     0
147
0.160625
148
800.0
149
26.0
100
AcDbLayout
  1
_Vorderseite
 70
     1
 71
     1
 10
-924.513618677
 20
-72.6926070039
 11
924.513618677
 21
1234.7003891051
 12
0.0
 22
0.0
 32
0.0
 14
-800.0
 24
-26.0
 34
0.0
 15
800.0
 25
35.0
 35
0.0
146
0.0
 13
0.0
 23
0.0
 33
0.0
 16
1.0
 26
0.0
 36
0.0
 17
0.0
 27
1.0
 37
0.0
 76
     0
330
1B
331
277
  0
LAYOUT
  5
22
102
{ACAD_REACTORS
330
1A
102
}
330
1A
100
AcDbPlotSettings
  1

  2
none_device
  4
ANSI_A_(11.00_x_8.50_Inches)
  6

 40
6.35
 41
19.05
 42
6.35000508
 43
19.05000254
 44
279.4
 45
215.9
 46
133.34999746
 47
88.89999873
 48
0.0
 49
0.0
140
0.0
141
0.0
142
0.00680625
143
1.0
 70
  1696
 72
     0
 73
     0
 74
     0
  7

 75
     0
147
0.0179189148
148
-1300.4909072572
149
0.0
100
AcDbLayout
  1
Model
 70
     1
 71
     0
 10
0.0
 20
0.0
 11
420.0
 21
297.0
 12
0.0
 22
0.0
 32
0.0
 14
-800.0
 24
-400.0
 34
0.0
 15
800.0
 25
400.0
 35
0.0
146
0.0
 13
0.0
 23
0.0
 33
0.0
 16
1.0
 26
0.0
 36
0.0
 17
0.0
 27
1.0
 37
0.0
 76
     0
330
1F
331
29
  0
MLINESTYLE
  5
18
102
{ACAD_REACTORS
330
17
102
}
330
17
100
AcDbMlineStyle
  2
Standard
 70
     0
  3

 62
   256
 51
90.0
 52
90.0
 71
     2
 49
0.5
 62
   256
  6
BYLAYER
 49
-0.5
 62
   256
  6
BYLAYER
  0
ACDBPLACEHOLDER
  5
F
102
{ACAD_REACTORS
330
E
102
}
330
E
  0
SCALE
  5
48
102
{ACAD_REACTORS
330
47
102
}
330
47
100
AcDbScale
 70
     0
300
1:1
140
1.0
141
1.0
290
     1
  0
SCALE
  5
49
102
{ACAD_REACTORS
330
47
102
}
330
47
100
AcDbScale
 70
     0
300
1:2
140
1.0
141
2.0
290
     0
  0
SCALE
  5
4A
102
{ACAD_REACTORS
330
47
102
}
330
47
100
AcDbScale
 70
     0
300
1:4
140
1.0
141
4.0
290
     0
  0
SCALE
  5
4B
102
{ACAD_REACTORS
330
47
102
}
330
47
100
AcDbScale
 70
     0
300
1:5
140
1.0
141
5.0
290
     0
  0
SCALE
  5
4C
102
{ACAD_REACTORS
330
47
102
}
330
47
100
AcDbScale
 70
     0
300
1:8
140
1.0
141
8.0
290
     0
  0
SCALE
  5
4D
102
{ACAD_REACTORS
330
47
102
}
330
47
100
AcDbScale
 70
     0
300
1:10
140
1.0
141
10.0
290
     0
  0
SCALE
  5
4E
102
{ACAD_REACTORS
330
47
102
}
330
47
100
AcDbScale
 70
     0
300
1:16
140
1.0
141
16.0
290
     0
  0
SCALE
  5
4F
102
{ACAD_REACTORS
330
47
102
}
330
47
100
AcDbScale
 70
     0
300
1:20
140
1.0
141
20.0
290
     0
  0
SCALE
  5
50
102
{ACAD_REACTORS
330
47
102
}
330
47
100
AcDbScale
 70
     0
300
1:30
140
1.0
141
30.0
290
     0
  0
SCALE
  5
51
102
{ACAD_REACTORS
330
47
102
}
330
47
100
AcDbScale
 70
     0
300
1:40
140
1.0
141
40.0
290
     0
  0
SCALE
  5
52
102
{ACAD_REACTORS
330
47
102
}
330
47
100
AcDbScale
 70
     0
300
1:50
140
1.0
141
50.0
290
     0
  0
SCALE
  5
53
102
{ACAD_REACTORS
330
47
102
}
330
47
100
AcDbScale
 70
     0
300
1:100
140
1.0
141
100.0
290
     0
  0
SCALE
  5
54
102
{ACAD_REACTORS
330
47
102
}
330
47
100
AcDbScale
 70
     0
300
2:1
140
2.0
141
1.0
290
     0
  0
SCALE
  5
55
102
{ACAD_REACTORS
330
47
102
}
330
47
100
AcDbScale
 70
     0
300
4:1
140
4.0
141
1.0
290
     0
  0
SCALE
  5
56
102
{ACAD_REACTORS
330
47
102
}
330
47
100
AcDbScale
 70
     0
300
8:1
140
8.0
141
1.0
290
     0
  0
SCALE
  5
57
102
{ACAD_REACTORS
330
47
102
}
330
47
100
AcDbScale
 70
     0
300
10:1
140
10.0
141
1.0
290
     0
  0
SCALE
  5
58
102
{ACAD_REACTORS
330
47
102
}
330
47
100
AcDbScale
 70
     0
300
100:1
140
100.0
141
1.0
290
     0
  0
SCALE
  5
59
102
{ACAD_REACTORS
330
47
102
}
330
47
100
AcDbScale
 70
     0
300
1/128" = 1'-0"
140
0.0078125
141
12.0
290
     0
  0
SCALE
  5
5A
102
{ACAD_REACTORS
330
47
102
}
330
47
100
AcDbScale
 70
     0
300
1/64" = 1'-0"
140
0.015625
141
12.0
290
     0
  0
SCALE
  5
5B
102
{ACAD_REACTORS
330
47
102
}
330
47
100
AcDbScale
 70
     0
300
1/32" = 1'-0"
140
0.03125
141
12.0
290
     0
  0
SCALE
  5
5C
102
{ACAD_REACTORS
330
47
102
}
330
47
100
AcDbScale
 70
     0
300
1/16" = 1'-0"
140
0.0625
141
12.0
290
     0
  0
SCALE
  5
5D
102
{ACAD_REACTORS
330
47
102
}
330
47
100
AcDbScale
 70
     0
300
3/32" = 1'-0"
140
0.09375
141
12.0
290
     0
  0
SCALE
  5
5E
102
{ACAD_REACTORS
330
47
102
}
330
47
100
AcDbScale
 70
     0
300
1/8" = 1'-0"
140
0.125
141
12.0
290
     0
  0
SCALE
  5
5F
102
{ACAD_REACTORS
330
47
102
}
330
47
100
AcDbScale
 70
     0
300
3/16" = 1'-0"
140
0.1875
141
12.0
290
     0
  0
SCALE
  5
60
102
{ACAD_REACTORS
330
47
102
}
330
47
100
AcDbScale
 70
     0
300
1/4" = 1'-0"
140
0.25
141
12.0
290
     0
  0
SCALE
  5
61
102
{ACAD_REACTORS
330
47
102
}
330
47
100
AcDbScale
 70
     0
300
3/8" = 1'-0"
140
0.375
141
12.0
290
     0
  0
SCALE
  5
62
102
{ACAD_REACTORS
330
47
102
}
330
47
100
AcDbScale
 70
     0
300
1/2" = 1'-0"
140
0.5
141
12.0
290
     0
  0
SCALE
  5
63
102
{ACAD_REACTORS
330
47
102
}
330
47
100
AcDbScale
 70
     0
300
3/4" = 1'-0"
140
0.75
141
12.0
290
     0
  0
SCALE
  5
64
102
{ACAD_REACTORS
330
47
102
}
330
47
100
AcDbScale
 70
     0
300
1" = 1'-0"
140
1.0
141
12.0
290
     0
  0
SCALE
  5
65
102
{ACAD_REACTORS
330
47
102
}
330
47
100
AcDbScale
 70
     0
300
1-1/2" = 1'-0"
140
1.5
141
12.0
290
     0
  0
SCALE
  5
66
102
{ACAD_REACTORS
330
47
102
}
330
47
100
AcDbScale
 70
     0
300
3" = 1'-0"
140
3.0
141
12.0
290
     0
  0
SCALE
  5
67
102
{ACAD_REACTORS
330
47
102
}
330
47
100
AcDbScale
 70
     0
300
6" = 1'-0"
140
6.0
141
12.0
290
     0
  0
SCALE
  5
68
102
{ACAD_REACTORS
330
47
102
}
330
47
100
AcDbScale
 70
     0
300
1'-0" = 1'-0"
140
12.0
141
12.0
290
     0
  0
ENDSEC
  0
EOF
