  0
SECTION
  2
HEADER
  9
$ACADVER
  1
AC1015
  9
$ACADMAINTVER
 70
     6
  9
$DWGCODEPAGE
  3
ANSI_1252
  9
$INSBASE
 10
0.0
 20
0.0
 30
0.0
  9
$EXTMIN
 10
-850.0
 20
-350.0
 30
0.0
  9
$EXTMAX
 10
850.0
 20
350.0
 30
0.0
  9
$LIMMIN
 10
0.0
 20
0.0
  9
$LIMMAX
 10
420.0
 20
297.0
  9
$ORTHOMODE
 70
     0
  9
$REGENMODE
 70
     1
  9
$FILLMODE
 70
     1
  9
$QTEXTMODE
 70
     0
  9
$MIRRTEXT
 70
     1
  9
$LTSCALE
 40
1.0
  9
$ATTMODE
 70
     1
  9
$TEXTSIZE
 40
3.5
  9
$TRACEWID
 40
1.0
  9
$TEXTSTYLE
  7
STANDARD
  9
$CLAYER
  8
0
  9
$CELTYPE
  6
ByLayer
  9
$CECOLOR
 62
   256
  9
$CELTSCALE
 40
1.0
  9
$DISPSILH
 70
     0
  9
$DIMSCALE
 40
1.0
  9
$DIMASZ
 40
7.4083333333
  9
$DIMEXO
 40
1.0
  9
$DIMDLI
 40
3.75
  9
$DIMRND
 40
0.0
  9
$DIMDLE
 40
0.0
  9
$DIMEXE
 40
1.0
  9
$DIMTP
 40
0.0
  9
$DIMTM
 40
0.0
  9
$DIMTXT
 40
7.0555555556
  9
$DIMCEN
 40
2.5
  9
$DIMTSZ
 40
0.0
  9
$DIMTOL
 70
     0
  9
$DIMLIM
 70
     0
  9
$DIMTIH
 70
     1
  9
$DIMTOH
 70
     1
  9
$DIMSE1
 70
     0
  9
$DIMSE2
 70
     0
  9
$DIMTAD
 70
     1
  9
$DIMZIN
 70
     0
  9
$DIMBLK
  1

  9
$DIMASO
 70
     1
  9
$DIMSHO
 70
     1
  9
$DIMPOST
  1

  9
$DIMAPOST
  1

  9
$DIMALT
 70
     0
  9
$DIMALTD
 70
     3
  9
$DIMALTF
 40
0.0393700787
  9
$DIMLFAC
 40
1.0
  9
$DIMTOFL
 70
     1
  9
$DIMTVP
 40
0.0
  9
$DIMTIX
 70
     0
  9
$DIMSOXD
 70
     0
  9
$DIMSAH
 70
     0
  9
$DIMBLK1
  1

  9
$DIMBLK2
  1

  9
$DIMSTYLE
  2
ISO-25
  9
$DIMCLRD
 70
     0
  9
$DIMCLRE
 70
     0
  9
$DIMCLRT
 70
     0
  9
$DIMTFAC
 40
1.0
  9
$DIMGAP
 40
1.524
  9
$DIMJUST
 70
     0
  9
$DIMSD1
 70
     0
  9
$DIMSD2
 70
     0
  9
$DIMTOLJ
 70
     0
  9
$DIMTZIN
 70
     0
  9
$DIMALTZ
 70
     0
  9
$DIMALTTZ
 70
     0
  9
$DIMUPT
 70
     0
  9
$DIMDEC
 70
     2
  9
$DIMTDEC
 70
     2
  9
$DIMALTU
 70
     2
  9
$DIMALTTD
 70
     3
  9
$DIMTXSTY
  7
STANDARD
  9
$DIMAUNIT
 70
     0
  9
$DIMADEC
 70
     2
  9
$DIMALTRND
 40
0.0
  9
$DIMAZIN
 70
     0
  9
$DIMDSEP
 70
    44
  9
$DIMATFIT
 70
     3
  9
$DIMFRAC
 70
     0
  9
$DIMLDRBLK
  1

  9
$DIMLUNIT
 70
     2
  9
$DIMLWD
 70
    -2
  9
$DIMLWE
 70
    -2
  9
$DIMTMOVE
 70
     0
  9
$LUNITS
 70
     2
  9
$LUPREC
 70
     2
  9
$SKETCHINC
 40
1.0
  9
$FILLETRAD
 40
10.0
  9
$AUNITS
 70
     0
  9
$AUPREC
 70
     2
  9
$MENU
  1
.
  9
$ELEVATION
 40
0.0
  9
$PELEVATION
 40
0.0
  9
$THICKNESS
 40
0.0
  9
$LIMCHECK
 70
     0
  9
$CHAMFERA
 40
0.0
  9
$CHAMFERB
 40
0.0
  9
$CHAMFERC
 40
0.0
  9
$CHAMFERD
 40
0.0
  9
$SKPOLY
 70
     0
  9
$TDCREATE
 40
2458232.513141921
  9
$TDUCREATE
 40
2458232.429808588
  9
$TDUPDATE
 40
2458232.513239711
  9
$TDUUPDATE
 40
2458232.429906377
  9
$TDINDWG
 40
0.0000000116
  9
$TDUSRTIMER
 40
0.0000000116
  9
$USRTIMER
 70
     1
  9
$ANGBASE
 50
0.0
  9
$ANGDIR
 70
     0
  9
$PDMODE
 70
     0
  9
$PDSIZE
 40
-1.0
  9
$PLINEWID
 40
0.0
  9
$SPLFRAME
 70
     0
  9
$SPLINETYPE
 70
     6
  9
$SPLINESEGS
 70
     8
  9
$HANDSEED
  5
28C
  9
$SURFTAB1
 70
     6
  9
$SURFTAB2
 70
     6
  9
$SURFTYPE
 70
     6
  9
$SURFU
 70
     6
  9
$SURFV
 70
     6
  9
$UCSBASE
  2

  9
$UCSNAME
  2

  9
$UCSORG
 10
0.0
 20
0.0
 30
0.0
  9
$UCSXDIR
 10
1.0
 20
0.0
 30
0.0
  9
$UCSYDIR
 10
0.0
 20
1.0
 30
0.0
  9
$UCSORTHOREF
  2

  9
$UCSORTHOVIEW
 70
     0
  9
$UCSORGTOP
 10
0.0
 20
0.0
 30
0.0
  9
$UCSORGBOTTOM
 10
0.0
 20
0.0
 30
0.0
  9
$UCSORGLEFT
 10
0.0
 20
0.0
 30
0.0
  9
$UCSORGRIGHT
 10
0.0
 20
0.0
 30
0.0
  9
$UCSORGFRONT
 10
0.0
 20
0.0
 30
0.0
  9
$UCSORGBACK
 10
0.0
 20
0.0
 30
0.0
  9
$PUCSBASE
  2

  9
$PUCSNAME
  2

  9
$PUCSORG
 10
0.0
 20
0.0
 30
0.0
  9
$PUCSXDIR
 10
1.0
 20
0.0
 30
0.0
  9
$PUCSYDIR
 10
0.0
 20
1.0
 30
0.0
  9
$PUCSORTHOREF
  2

  9
$PUCSORTHOVIEW
 70
     0
  9
$PUCSORGTOP
 10
0.0
 20
0.0
 30
0.0
  9
$PUCSORGBOTTOM
 10
0.0
 20
0.0
 30
0.0
  9
$PUCSORGLEFT
 10
0.0
 20
0.0
 30
0.0
  9
$PUCSORGRIGHT
 10
0.0
 20
0.0
 30
0.0
  9
$PUCSORGFRONT
 10
0.0
 20
0.0
 30
0.0
  9
$PUCSORGBACK
 10
0.0
 20
0.0
 30
0.0
  9
$USERI1
 70
     0
  9
$USERI2
 70
     0
  9
$USERI3
 70
     0
  9
$USERI4
 70
     0
  9
$USERI5
 70
     0
  9
$USERR1
 40
0.0
  9
$USERR2
 40
0.0
  9
$USERR3
 40
0.0
  9
$USERR4
 40
0.0
  9
$USERR5
 40
0.0
  9
$WORLDVIEW
 70
     1
  9
$SHADEDGE
 70
     3
  9
$SHADEDIF
 70
    70
  9
$TILEMODE
 70
     1
  9
$MAXACTVP
 70
    64
  9
$PINSBASE
 10
0.0
 20
0.0
 30
0.0
  9
$PLIMCHECK
 70
     0
  9
$PEXTMIN
 10
-850.0
 20
-26.0
 30
0.0
  9
$PEXTMAX
 10
850.0
 20
35.0
 30
0.0
  9
$PLIMMIN
 10
-982.2957198444
 20
-75.6108949416
  9
$PLIMMAX
 10
982.2957198444
 20
1313.4941634241
  9
$UNITMODE
 70
     0
  9
$VISRETAIN
 70
     1
  9
$PLINEGEN
 70
     0
  9
$PSLTSCALE
 70
     1
  9
$TREEDEPTH
 70
  3020
  9
$CMLSTYLE
  2
Standard
  9
$CMLJUST
 70
     0
  9
$CMLSCALE
 40
20.0
  9
$PROXYGRAPHICS
 70
     1
  9
$MEASUREMENT
 70
     1
  9
$CELWEIGHT
370
    -1
  9
$ENDCAPS
280
     0
  9
$JOINSTYLE
280
     0
  9
$LWDISPLAY
290
     1
  9
$INSUNITS
 70
     4
  9
$HYPERLINKBASE
  1

  9
$STYLESHEET
  1

  9
$XEDIT
290
     1
  9
$CEPSNTYPE
380
     0
  9
$PSTYLEMODE
290
     1
  9
$FINGERPRINTGUID
  2
{E5A87054-C6C4-4542-92A0-7C6BFD20E725}
  9
$VERSIONGUID
  2
{FAEB1C32-E019-11D5-929B-00C0DF256EC4}
  9
$EXTNAMES
290
     1
  9
$PSVPSCALE
 40
0.0
  9
$OLESTARTUP
290
     0
  0
ENDSEC
  0
SECTION
  2
CLASSES
  0
CLASS
  1
ACDBDICTIONARYWDFLT
  2
AcDbDictionaryWithDefault
  3
ObjectDBX Classes
 90
        0
280
     0
281
     0
  0
CLASS
  1
VISUALSTYLE
  2
AcDbVisualStyle
  3
ObjectDBX Classes
 90
     4095
280
     0
281
     0
  0
CLASS
  1
MATERIAL
  2
AcDbMaterial
  3
ObjectDBX Classes
 90
     1153
280
     0
281
     0
  0
CLASS
  1
SCALE
  2
AcDbScale
  3
ObjectDBX Classes
 90
     1153
280
     0
281
     0
  0
CLASS
  1
TABLESTYLE
  2
AcDbTableStyle
  3
ObjectDBX Classes
 90
     4095
280
     0
281
     0
  0
CLASS
  1
MLEADERSTYLE
  2
AcDbMLeaderStyle
  3
ACDB_MLEADERSTYLE_CLASS
 90
     4095
280
     0
281
     0
  0
CLASS
  1
SUN
  2
AcDbSun
  3
SCENEOE
 90
     1153
280
     0
281
     0
  0
CLASS
  1
ACDBPLACEHOLDER
  2
AcDbPlaceHolder
  3
ObjectDBX Classes
 90
        0
280
     0
281
     0
  0
CLASS
  1
LAYOUT
  2
AcDbLayout
  3
ObjectDBX Classes
 90
        0
280
     0
281
     0
  0
ENDSEC
  0
SECTION
  2
TABLES
  0
TABLE
  2
VPORT
  5
8
330
0
100
AcDbSymbolTable
 70
     1
  0
VPORT
  5
29
330
8
100
AcDbSymbolTableRecord
100
AcDbViewportTableRecord
  2
*Active
 70
     0
 10
0.0
 20
0.0
 11
1.0
 21
1.0
 12
0.0
 22
0.0
 13
0.0
 23
0.0
 14
10.0
 24
10.0
 15
10.0
 25
10.0
 16
0.0
 26
0.0
 36
1.0
 17
0.0
 27
0.0
 37
0.0
 40
714.0
 41
2.4285714286
 42
50.0
 43
0.0
 44
0.0
 50
0.0
 51
0.0
 71
     0
 72
   100
 73
     1
 74
     3
 75
     0
 76
     0
 77
     0
 78
     0
281
     0
 65
     1
110
0.0
120
0.0
130
0.0
111
1.0
121
0.0
131
0.0
112
0.0
122
1.0
132
0.0
 79
     0
146
0.0
  0
ENDTAB
  0
TABLE
  2
LTYPE
  5
5
330
0
100
AcDbSymbolTable
 70
     6
  0
LTYPE
  5
14
330
5
100
AcDbSymbolTableRecord
100
AcDbLinetypeTableRecord
  2
ByBlock
 70
     0
  3

 72
    65
 73
     0
 40
0.0
  0
LTYPE
  5
15
330
5
100
AcDbSymbolTableRecord
100
AcDbLinetypeTableRecord
  2
ByLayer
 70
     0
  3

 72
    65
 73
     0
 40
0.0
  0
LTYPE
  5
16
330
5
100
AcDbSymbolTableRecord
100
AcDbLinetypeTableRecord
  2
Continuous
 70
     0
  3
Solid line
 72
    65
 73
     0
 40
0.0
  0
LTYPE
  5
6E
330
5
100
AcDbSymbolTableRecord
100
AcDbLinetypeTableRecord
  2
HIDDEN
 70
     0
  3
Hidden __ __ __ __ __ __ __ __ __ __ __ __ __ __
 72
    65
 73
     2
 40
1.905
 49
1.27
 74
     0
 49
-0.635
 74
     0
  0
LTYPE
  5
6F
330
5
100
AcDbSymbolTableRecord
100
AcDbLinetypeTableRecord
  2
PHANTOM
 70
     0
  3
Phantom ______  __  __  ______  __  __  ______
 72
    65
 73
     6
 40
12.7
 49
6.35
 74
     0
 49
-1.27
 74
     0
 49
1.27
 74
     0
 49
-1.27
 74
     0
 49
1.27
 74
     0
 49
-1.27
 74
     0
  0
LTYPE
  5
70
330
5
100
AcDbSymbolTableRecord
100
AcDbLinetypeTableRecord
  2
CENTER
 70
     0
  3
Center ____ _ ____ _ ____ _ ____ _ ____ _ ____
 72
    65
 73
     4
 40
10.16
 49
6.35
 74
     0
 49
-1.27
 74
     0
 49
1.27
 74
     0
 49
-1.27
 74
     0
  0
LTYPE
  5
71
330
5
100
AcDbSymbolTableRecord
100
AcDbLinetypeTableRecord
  2
CENTERX2
 70
     0
  3
Center (2x) ________  __  ________  __  _____
 72
    65
 73
     4
 40
20.32
 49
12.7
 74
     0
 49
-2.54
 74
     0
 49
2.54
 74
     0
 49
-2.54
 74
     0
  0
LTYPE
  5
72
330
5
100
AcDbSymbolTableRecord
100
AcDbLinetypeTableRecord
  2
DOT2
 70
     0
  3
Dot (.5x) ........................................
 72
    65
 73
     2
 40
0.635
 49
0.0
 74
     0
 49
-0.635
 74
     0
  0
ENDTAB
  0
TABLE
  2
LAYER
  5
2
330
0
100
AcDbSymbolTable
 70
     1
  0
LAYER
  5
10
330
2
100
AcDbSymbolTableRecord
100
AcDbLayerTableRecord
  2
0
 70
     0
 62
     7
  6
Continuous
370
    -3
390
F
  0
ENDTAB
  0
TABLE
  2
STYLE
  5
3
330
0
100
AcDbSymbolTable
 70
     1
  0
STYLE
  5
11
330
3
100
AcDbSymbolTableRecord
100
AcDbTextStyleTableRecord
  2
STANDARD
 70
     0
 40
0.0
 41
1.0
 50
0.0
 71
     0
 42
3.5
  3
GOTHIC.TTF
  4

1001
ACAD
1000
CENTURY GOTHIC
1071
       34
  0
ENDTAB
  0
TABLE
  2
VIEW
  5
6
330
0
100
AcDbSymbolTable
 70
     0
  0
ENDTAB
  0
TABLE
  2
UCS
  5
7
330
0
100
AcDbSymbolTable
 70
     0
  0
ENDTAB
  0
TABLE
  2
APPID
  5
9
330
0
100
AcDbSymbolTable
 70
     1
  0
APPID
  5
12
330
9
100
AcDbSymbolTableRecord
100
AcDbRegAppTableRecord
  2
ACAD
 70
     0
  0
ENDTAB
  0
TABLE
  2
DIMSTYLE
  5
A
330
0
100
AcDbSymbolTable
 70
     1
100
AcDbDimStyleTable
  0
DIMSTYLE
105
27
330
A
100
AcDbSymbolTableRecord
100
AcDbDimStyleTableRecord
  2
ISO-25
 70
     0
 41
2.5
 42
0.625
 43
3.75
 44
1.25
 73
     0
 74
     0
 77
     1
 78
     8
140
2.5
141
2.5
143
0.0393700787
147
0.625
171
     3
172
     1
178
     0
271
     2
272
     2
274
     3
278
    44
283
     0
284
     8
340
11
  0
ENDTAB
  0
TABLE
  2
BLOCK_RECORD
  5
1
330
0
100
AcDbSymbolTable
 70
     8
  0
BLOCK_RECORD
  5
1F
330
1
100
AcDbSymbolTableRecord
100
AcDbBlockTableRecord
  2
*Model_Space
340
22
  0
BLOCK_RECORD
  5
1B
330
1
100
AcDbSymbolTableRecord
100
AcDbBlockTableRecord
  2
*Paper_Space
340
1E
  0
BLOCK_RECORD
  5
23
330
1
100
AcDbSymbolTableRecord
100
AcDbBlockTableRecord
  2
*Paper_Space0
340
26
  0
BLOCK_RECORD
  5
CD
330
1
100
AcDbSymbolTableRecord
100
AcDbBlockTableRecord
  2
*Paper_Space1
340
CE
  0
BLOCK_RECORD
  5
DF
330
1
100
AcDbSymbolTableRecord
100
AcDbBlockTableRecord
  2
*Paper_Space2
340
E0
  0
BLOCK_RECORD
  5
F1
330
1
100
AcDbSymbolTableRecord
100
AcDbBlockTableRecord
  2
*Paper_Space3
340
F2
  0
BLOCK_RECORD
  5
103
330
1
100
AcDbSymbolTableRecord
100
AcDbBlockTableRecord
  2
*Paper_Space4
340
104
  0
BLOCK_RECORD
  5
130
330
1
100
AcDbSymbolTableRecord
100
AcDbBlockTableRecord
  2
*Paper_Space5
340
131
  0
BLOCK_RECORD
  5
1B1
330
1
100
AcDbSymbolTableRecord
100
AcDbBlockTableRecord
  2
*Paper_Space6
340
1B2
  0
BLOCK_RECORD
  5
21C
330
1
100
AcDbSymbolTableRecord
100
AcDbBlockTableRecord
  2
*Paper_Space7
340
21D
  0
ENDTAB
  0
ENDSEC
  0
SECTION
  2
BLOCKS
  0
BLOCK
  5
20
330
1F
100
AcDbEntity
  8
0
100
AcDbBlockBegin
  2
*Model_Space
 70
     0
 10
0.0
 20
0.0
 30
0.0
  3
*Model_Space
  1

  0
ENDBLK
  5
21
330
1F
100
AcDbEntity
  8
0
100
AcDbBlockEnd
  0
BLOCK
  5
1C
330
1B
100
AcDbEntity
 67
     1
  8
0
100
AcDbBlockBegin
  2
*Paper_Space
 70
     0
 10
0.0
 20
0.0
 30
0.0
  3
*Paper_Space
  1

  0
ENDBLK
  5
1D
330
1B
100
AcDbEntity
 67
     1
  8
0
100
AcDbBlockEnd
  0
BLOCK
  5
24
330
23
100
AcDbEntity
  8
0
100
AcDbBlockBegin
  2
*Paper_Space0
 70
     0
 10
0.0
 20
0.0
 30
0.0
  3
*Paper_Space0
  1

  0
LINE
  5
C6
330
23
100
AcDbEntity
  8
0
  6
Continuous
 62
     7
370
    25
100
AcDbLine
 10
350.0
 20
35.0
 30
0.0
 11
350.0
 21
0.0
 31
0.0
  0
LINE
  5
C7
330
23
100
AcDbEntity
  8
0
  6
Continuous
 62
     7
370
    25
100
AcDbLine
 10
-350.0
 20
0.0
 30
0.0
 11
350.0
 21
0.0
 31
0.0
  0
LINE
  5
C8
330
23
100
AcDbEntity
  8
0
  6
Continuous
 62
     7
370
    25
100
AcDbLine
 10
-350.0
 20
35.0
 30
0.0
 11
-350.0
 21
0.0
 31
0.0
  0
LINE
  5
C9
330
23
100
AcDbEntity
  8
0
  6
Continuous
 62
     7
370
    25
100
AcDbLine
 10
-350.0
 20
35.0
 30
0.0
 11
350.0
 21
35.0
 31
0.0
  0
LINE
  5
CA
330
23
100
AcDbEntity
  8
0
  6
Continuous
 62
     7
370
    25
100
AcDbLine
 10
-130.0
 20
-26.0
 30
0.0
 11
-130.0
 21
0.0
 31
0.0
  0
LINE
  5
CB
330
23
100
AcDbEntity
  8
0
  6
Continuous
 62
     7
370
    25
100
AcDbLine
 10
130.0
 20
-26.0
 30
0.0
 11
130.0
 21
0.0
 31
0.0
  0
LINE
  5
CC
330
23
100
AcDbEntity
  8
0
  6
Continuous
 62
     7
370
    25
100
AcDbLine
 10
130.0
 20
-26.0
 30
0.0
 11
-130.0
 21
-26.0
 31
0.0
  0
VIEWPORT
  5
27C
330
23
100
AcDbEntity
  8
0
100
AcDbViewport
 10
0.0
 20
0.0
 30
0.0
 40
205.6
 41
156.0
 68
     1
 69
     1
 12
0.0
 22
0.0
 13
0.0
 23
0.0
 14
10.0
 24
10.0
 15
10.0
 25
10.0
 16
0.0
 26
0.0
 36
1.0
 17
0.0
 27
0.0
 37
0.0
 42
50.0
 43
0.0
 44
0.0
 45
1315.6809338521
 50
0.0
 51
0.0
 72
   100
 90
   557152
  1

281
     0
 71
     1
 74
     0
110
0.0
120
0.0
130
0.0
111
1.0
121
0.0
131
0.0
112
0.0
122
1.0
132
0.0
 79
     0
146
0.0
  0
ENDBLK
  5
25
330
23
100
AcDbEntity
  8
0
100
AcDbBlockEnd
  0
BLOCK
  5
CF
330
CD
100
AcDbEntity
  8
0
100
AcDbBlockBegin
  2
*Paper_Space1
 70
     0
 10
0.0
 20
0.0
 30
0.0
  3
*Paper_Space1
  1

  0
LINE
  5
D8
330
CD
100
AcDbEntity
  8
0
  6
Continuous
 62
     7
370
    25
100
AcDbLine
 10
-850.0
 20
35.0
 30
0.0
 11
850.0
 21
35.0
 31
0.0
  0
LINE
  5
D9
330
CD
100
AcDbEntity
  8
0
  6
Continuous
 62
     7
370
    25
100
AcDbLine
 10
850.0
 20
35.0
 30
0.0
 11
850.0
 21
0.0
 31
0.0
  0
LINE
  5
DA
330
CD
100
AcDbEntity
  8
0
  6
Continuous
 62
     7
370
    25
100
AcDbLine
 10
-850.0
 20
0.0
 30
0.0
 11
850.0
 21
0.0
 31
0.0
  0
LINE
  5
DB
330
CD
100
AcDbEntity
  8
0
  6
Continuous
 62
     7
370
    25
100
AcDbLine
 10
-850.0
 20
35.0
 30
0.0
 11
-850.0
 21
0.0
 31
0.0
  0
LINE
  5
DC
330
CD
100
AcDbEntity
  8
0
  6
Continuous
 62
     7
370
    25
100
AcDbLine
 10
130.0
 20
-26.0
 30
0.0
 11
-130.0
 21
-26.0
 31
0.0
  0
LINE
  5
DD
330
CD
100
AcDbEntity
  8
0
  6
Continuous
 62
     7
370
    25
100
AcDbLine
 10
130.0
 20
-26.0
 30
0.0
 11
130.0
 21
0.0
 31
0.0
  0
LINE
  5
DE
330
CD
100
AcDbEntity
  8
0
  6
Continuous
 62
     7
370
    25
100
AcDbLine
 10
-130.0
 20
-26.0
 30
0.0
 11
-130.0
 21
0.0
 31
0.0
  0
VIEWPORT
  5
27E
330
CD
100
AcDbEntity
  8
0
100
AcDbViewport
 10
0.0
 20
0.0
 30
0.0
 40
205.6
 41
156.0
 68
     1
 69
     1
 12
0.0
 22
0.0
 13
0.0
 23
0.0
 14
10.0
 24
10.0
 15
10.0
 25
10.0
 16
0.0
 26
0.0
 36
1.0
 17
0.0
 27
0.0
 37
0.0
 42
50.0
 43
0.0
 44
0.0
 45
1315.6809338521
 50
0.0
 51
0.0
 72
   100
 90
   557152
  1

281
     0
 71
     1
 74
     0
110
0.0
120
0.0
130
0.0
111
1.0
121
0.0
131
0.0
112
0.0
122
1.0
132
0.0
 79
     0
146
0.0
  0
ENDBLK
  5
D0
330
CD
100
AcDbEntity
  8
0
100
AcDbBlockEnd
  0
BLOCK
  5
E1
330
DF
100
AcDbEntity
  8
0
100
AcDbBlockBegin
  2
*Paper_Space2
 70
     0
 10
0.0
 20
0.0
 30
0.0
  3
*Paper_Space2
  1

  0
LINE
  5
EA
330
DF
100
AcDbEntity
  8
0
  6
Continuous
 62
     7
370
    25
100
AcDbLine
 10
-850.0
 20
35.0
 30
0.0
 11
850.0
 21
35.0
 31
0.0
  0
LINE
  5
EB
330
DF
100
AcDbEntity
  8
0
  6
Continuous
 62
     7
370
    25
100
AcDbLine
 10
-850.0
 20
35.0
 30
0.0
 11
-850.0
 21
0.0
 31
0.0
  0
LINE
  5
EC
330
DF
100
AcDbEntity
  8
0
  6
Continuous
 62
     7
370
    25
100
AcDbLine
 10
-850.0
 20
0.0
 30
0.0
 11
850.0
 21
0.0
 31
0.0
  0
LINE
  5
ED
330
DF
100
AcDbEntity
  8
0
  6
Continuous
 62
     7
370
    25
100
AcDbLine
 10
850.0
 20
35.0
 30
0.0
 11
850.0
 21
0.0
 31
0.0
  0
LINE
  5
EE
330
DF
100
AcDbEntity
  8
0
  6
Continuous
 62
     7
370
    25
100
AcDbLine
 10
130.0
 20
-26.0
 30
0.0
 11
130.0
 21
0.0
 31
0.0
  0
LINE
  5
EF
330
DF
100
AcDbEntity
  8
0
  6
Continuous
 62
     7
370
    25
100
AcDbLine
 10
130.0
 20
-26.0
 30
0.0
 11
-130.0
 21
-26.0
 31
0.0
  0
LINE
  5
F0
330
DF
100
AcDbEntity
  8
0
  6
Continuous
 62
     7
370
    25
100
AcDbLine
 10
-130.0
 20
-26.0
 30
0.0
 11
-130.0
 21
0.0
 31
0.0
  0
VIEWPORT
  5
280
330
DF
100
AcDbEntity
  8
0
100
AcDbViewport
 10
0.0
 20
0.0
 30
0.0
 40
205.6
 41
156.0
 68
     1
 69
     1
 12
0.0
 22
0.0
 13
0.0
 23
0.0
 14
10.0
 24
10.0
 15
10.0
 25
10.0
 16
0.0
 26
0.0
 36
1.0
 17
0.0
 27
0.0
 37
0.0
 42
50.0
 43
0.0
 44
0.0
 45
1315.6809338521
 50
0.0
 51
0.0
 72
   100
 90
   557152
  1

281
     0
 71
     1
 74
     0
110
0.0
120
0.0
130
0.0
111
1.0
121
0.0
131
0.0
112
0.0
122
1.0
132
0.0
 79
     0
146
0.0
  0
ENDBLK
  5
E2
330
DF
100
AcDbEntity
  8
0
100
AcDbBlockEnd
  0
BLOCK
  5
F3
330
F1
100
AcDbEntity
  8
0
100
AcDbBlockBegin
  2
*Paper_Space3
 70
     0
 10
0.0
 20
0.0
 30
0.0
  3
*Paper_Space3
  1

  0
LINE
  5
FC
330
F1
100
AcDbEntity
  8
0
  6
Continuous
 62
     7
370
    25
100
AcDbLine
 10
-350.0
 20
35.0
 30
0.0
 11
-350.0
 21
0.0
 31
0.0
  0
LINE
  5
FD
330
F1
100
AcDbEntity
  8
0
  6
Continuous
 62
     7
370
    25
100
AcDbLine
 10
-350.0
 20
35.0
 30
0.0
 11
350.0
 21
35.0
 31
0.0
  0
LINE
  5
FE
330
F1
100
AcDbEntity
  8
0
  6
Continuous
 62
     7
370
    25
100
AcDbLine
 10
350.0
 20
35.0
 30
0.0
 11
350.0
 21
0.0
 31
0.0
  0
LINE
  5
FF
330
F1
100
AcDbEntity
  8
0
  6
Continuous
 62
     7
370
    25
100
AcDbLine
 10
-350.0
 20
0.0
 30
0.0
 11
350.0
 21
0.0
 31
0.0
  0
LINE
  5
100
330
F1
100
AcDbEntity
  8
0
  6
Continuous
 62
     7
370
    25
100
AcDbLine
 10
130.0
 20
-26.0
 30
0.0
 11
-130.0
 21
-26.0
 31
0.0
  0
LINE
  5
101
330
F1
100
AcDbEntity
  8
0
  6
Continuous
 62
     7
370
    25
100
AcDbLine
 10
-130.0
 20
-26.0
 30
0.0
 11
-130.0
 21
0.0
 31
0.0
  0
LINE
  5
102
330
F1
100
AcDbEntity
  8
0
  6
Continuous
 62
     7
370
    25
100
AcDbLine
 10
130.0
 20
-26.0
 30
0.0
 11
130.0
 21
0.0
 31
0.0
  0
VIEWPORT
  5
282
330
F1
100
AcDbEntity
  8
0
100
AcDbViewport
 10
0.0
 20
0.0
 30
0.0
 40
205.6
 41
156.0
 68
     1
 69
     1
 12
0.0
 22
0.0
 13
0.0
 23
0.0
 14
10.0
 24
10.0
 15
10.0
 25
10.0
 16
0.0
 26
0.0
 36
1.0
 17
0.0
 27
0.0
 37
0.0
 42
50.0
 43
0.0
 44
0.0
 45
1315.6809338521
 50
0.0
 51
0.0
 72
   100
 90
   557152
  1

281
     0
 71
     1
 74
     0
110
0.0
120
0.0
130
0.0
111
1.0
121
0.0
131
0.0
112
0.0
122
1.0
132
0.0
 79
     0
146
0.0
  0
ENDBLK
  5
F4
330
F1
100
AcDbEntity
  8
0
100
AcDbBlockEnd
  0
BLOCK
  5
105
330
103
100
AcDbEntity
  8
0
100
AcDbBlockBegin
  2
*Paper_Space4
 70
     0
 10
0.0
 20
0.0
 30
0.0
  3
*Paper_Space4
  1

  0
CIRCLE
  5
10F
330
103
100
AcDbEntity
  8
0
  6
Continuous
 62
     7
370
    25
100
AcDbCircle
 10
0.0
 20
0.0
 30
0.0
 40
44.99999999999998
  0
LINE
  5
11C
330
103
100
AcDbEntity
  8
0
  6
Continuous
 62
     7
370
    25
100
AcDbLine
 10
850.0
 20
-350.0
 30
0.0
 11
-850.0
 21
-350.0
 31
0.0
  0
LINE
  5
11D
330
103
100
AcDbEntity
  8
0
  6
Continuous
 62
     7
370
    25
100
AcDbLine
 10
-850.0
 20
350.0
 30
0.0
 11
850.0
 21
350.0
 31
0.0
  0
LINE
  5
11E
330
103
100
AcDbEntity
  8
0
  6
Continuous
 62
     7
370
    25
100
AcDbLine
 10
850.0
 20
350.0
 30
0.0
 11
850.0
 21
-350.0
 31
0.0
  0
LINE
  5
11F
330
103
100
AcDbEntity
  8
0
  6
Continuous
 62
     7
370
    25
100
AcDbLine
 10
-850.0
 20
-350.0
 30
0.0
 11
-850.0
 21
350.0
 31
0.0
  0
LINE
  5
120
330
103
100
AcDbEntity
  8
0
  6
Continuous
 62
     7
370
    25
100
AcDbLine
 10
130.0
 20
-130.0
 30
0.0
 11
130.0
 21
130.0
 31
0.0
  0
LINE
  5
121
330
103
100
AcDbEntity
  8
0
  6
Continuous
 62
     7
370
    25
100
AcDbLine
 10
-130.0
 20
-130.0
 30
0.0
 11
130.0
 21
-130.0
 31
0.0
  0
LINE
  5
122
330
103
100
AcDbEntity
  8
0
  6
Continuous
 62
     7
370
    25
100
AcDbLine
 10
-130.0
 20
130.0
 30
0.0
 11
-130.0
 21
-130.0
 31
0.0
  0
LINE
  5
123
330
103
100
AcDbEntity
  8
0
  6
Continuous
 62
     7
370
    25
100
AcDbLine
 10
130.0
 20
130.0
 30
0.0
 11
-130.0
 21
130.0
 31
0.0
  0
LINE
  5
124
330
103
100
AcDbEntity
  8
0
  6
Continuous
 62
     7
370
    25
100
AcDbLine
 10
-28.8654208587
 20
34.5222751082
 30
0.0
 11
-19.3431457505
 21
25.0
 31
0.0
  0
LINE
  5
125
330
103
100
AcDbEntity
  8
0
  6
Continuous
 62
     7
370
    25
100
AcDbLine
 10
-19.3431457505
 20
25.0
 30
0.0
 11
19.3431457505
 21
25.0
 31
0.0
  0
LINE
  5
126
330
103
100
AcDbEntity
  8
0
  6
Continuous
 62
     7
370
    25
100
AcDbLine
 10
19.3431457505
 20
25.0
 30
0.0
 11
28.8654208587
 21
34.5222751082
 31
0.0
  0
LINE
  5
127
330
103
100
AcDbEntity
  8
0
  6
Continuous
 62
     7
370
    25
100
AcDbLine
 10
34.5222751082
 20
28.8654208587
 30
0.0
 11
25.0
 21
19.3431457505
 31
0.0
  0
LINE
  5
128
330
103
100
AcDbEntity
  8
0
  6
Continuous
 62
     7
370
    25
100
AcDbLine
 10
25.0
 20
19.3431457505
 30
0.0
 11
25.0
 21
-19.3431457505
 31
0.0
  0
LINE
  5
129
330
103
100
AcDbEntity
  8
0
  6
Continuous
 62
     7
370
    25
100
AcDbLine
 10
25.0
 20
-19.3431457505
 30
0.0
 11
34.5222751082
 21
-28.8654208587
 31
0.0
  0
LINE
  5
12A
330
103
100
AcDbEntity
  8
0
  6
Continuous
 62
     7
370
    25
100
AcDbLine
 10
-25.0
 20
19.3431457505
 30
0.0
 11
-34.5222751082
 21
28.8654208587
 31
0.0
  0
LINE
  5
12B
330
103
100
AcDbEntity
  8
0
  6
Continuous
 62
     7
370
    25
100
AcDbLine
 10
-25.0
 20
-19.3431457505
 30
0.0
 11
-25.0
 21
19.3431457505
 31
0.0
  0
LINE
  5
12C
330
103
100
AcDbEntity
  8
0
  6
Continuous
 62
     7
370
    25
100
AcDbLine
 10
-34.5222751082
 20
-28.8654208587
 30
0.0
 11
-25.0
 21
-19.3431457505
 31
0.0
  0
LINE
  5
12D
330
103
100
AcDbEntity
  8
0
  6
Continuous
 62
     7
370
    25
100
AcDbLine
 10
-19.3431457505
 20
-25.0
 30
0.0
 11
-28.8654208587
 21
-34.5222751082
 31
0.0
  0
LINE
  5
12E
330
103
100
AcDbEntity
  8
0
  6
Continuous
 62
     7
370
    25
100
AcDbLine
 10
28.8654208587
 20
-34.5222751082
 30
0.0
 11
19.3431457505
 21
-25.0
 31
0.0
  0
LINE
  5
12F
330
103
100
AcDbEntity
  8
0
  6
Continuous
 62
     7
370
    25
100
AcDbLine
 10
19.3431457505
 20
-25.0
 30
0.0
 11
-19.3431457505
 21
-25.0
 31
0.0
  0
VIEWPORT
  5
284
330
103
100
AcDbEntity
  8
0
100
AcDbViewport
 10
0.0
 20
0.0
 30
0.0
 40
205.6
 41
156.0
 68
     1
 69
     1
 12
0.0
 22
0.0
 13
0.0
 23
0.0
 14
10.0
 24
10.0
 15
10.0
 25
10.0
 16
0.0
 26
0.0
 36
1.0
 17
0.0
 27
0.0
 37
0.0
 42
50.0
 43
0.0
 44
0.0
 45
1315.6809338521
 50
0.0
 51
0.0
 72
   100
 90
   557152
  1

281
     0
 71
     1
 74
     0
110
0.0
120
0.0
130
0.0
111
1.0
121
0.0
131
0.0
112
0.0
122
1.0
132
0.0
 79
     0
146
0.0
  0
ENDBLK
  5
106
330
103
100
AcDbEntity
  8
0
100
AcDbBlockEnd
  0
BLOCK
  5
132
330
130
100
AcDbEntity
  8
0
100
AcDbBlockBegin
  2
*Paper_Space5
 70
     0
 10
0.0
 20
0.0
 30
0.0
  3
*Paper_Space5
  1

  0
SPLINE
  5
145
330
130
100
AcDbEntity
  8
0
  6
Continuous
 62
     7
370
    25
100
AcDbSpline
210
0.0
220
0.0
230
1.0
 70
     8
 71
     3
 72
    10
 73
     6
 74
     0
 42
0.000000001
 43
0.00000001
 40
0.0
 40
0.0
 40
0.0
 40
0.0
 40
0.5
 40
0.5
 40
1.0
 40
1.0
 40
1.0
 40
1.0
 10
34.07743523790567
 20
-29.21760388552637
 30
0.0
 10
28.69137628077679
 20
-32.27642769818074
 30
0.0
 10
23.30574219337173
 20
-35.30919140492711
 30
0.0
 10
12.53574479504303
 20
-41.29677358525748
 30
0.0
 10
7.151397975776478
 20
-44.25058051505141
 30
0.0
 10
1.767766952966036
 20
-47.16048285384412
 30
0.0
  0
SPLINE
  5
148
330
130
100
AcDbEntity
  8
0
  6
Continuous
 62
     7
370
    25
100
AcDbSpline
210
0.0
220
0.0
230
1.0
 70
     8
 71
     3
 72
    10
 73
     6
 74
     0
 42
0.000000001
 43
0.00000001
 40
0.0
 40
0.0
 40
0.0
 40
0.0
 40
0.5
 40
0.5
 40
1.0
 40
1.0
 40
1.0
 40
1.0
 10
-111.3693180368814
 20
18.15216609197273
 30
0.0
 10
-105.985687014071
 20
21.06206843076545
 30
0.0
 10
-100.6013401948045
 20
24.01587536055938
 30
0.0
 10
-89.83134279647572
 20
30.00345754088974
 30
0.0
 10
-84.4457087090708
 20
33.03622124763617
 30
0.0
 10
-79.0596497519419
 20
36.09504506029054
 30
0.0
  0
SPLINE
  5
149
330
130
100
AcDbEntity
  8
0
  6
Continuous
 62
     7
370
    25
100
AcDbSpline
210
0.0
220
0.0
230
1.0
 70
     8
 71
     3
 72
    20
 73
    16
 74
     0
 42
0.000000001
 43
0.00000001
 40
0.0
 40
0.0
 40
0.0
 40
0.0
 40
0.1249999999999988
 40
0.1249999999999988
 40
0.2499999999999976
 40
0.2499999999999976
 40
0.3749999999999963
 40
0.3749999999999963
 40
0.4999999999999951
 40
0.4999999999999951
 40
0.6249999999999939
 40
0.6249999999999939
 40
0.7499999999999927
 40
0.7499999999999927
 40
1.0
 40
1.0
 40
1.0
 40
1.0
 10
-111.3693180368815
 20
16.14656968135228
 30
0.0
 10
-111.4860437747616
 20
16.21601651013531
 30
0.0
 10
-111.5893775579764
 20
16.29046736746463
 30
0.0
 10
-111.7703499788665
 20
16.44897867531463
 30
0.0
 10
-111.8486140841177
 20
16.53402844842255
 30
0.0
 10
-111.9739663351551
 20
16.70910347432337
 30
0.0
 10
-112.0212188608361
 20
16.79872152218762
 30
0.0
 10
-112.0851531470717
 20
16.98209483594124
 30
0.0
 10
-112.1015090134564
 20
17.07642815214697
 30
0.0
 10
-112.1015929885138
 20
17.26131107465693
 30
0.0
 10
-112.0858444621239
 20
17.35280606784802
 30
0.0
 10
-112.0220193476902
 20
17.53386938481998
 30
0.0
 10
-111.9741528978047
 20
17.62203092190151
 30
0.0
 10
-111.7877148507117
 20
17.87286429836554
 30
0.0
 10
-111.6026761281174
 20
18.02603388629473
 30
0.0
 10
-111.3693180368814
 20
18.15216609197272
 30
0.0
  0
SPLINE
  5
14A
330
130
100
AcDbEntity
  8
0
  6
Continuous
 62
     7
370
    25
100
AcDbSpline
210
0.0
220
0.0
230
1.0
 70
     8
 71
     3
 72
    22
 73
    18
 74
     0
 42
0.000000001
 43
0.00000001
 40
0.0
 40
0.0
 40
0.0
 40
0.0
 40
0.125
 40
0.125
 40
0.25
 40
0.25
 40
0.375
 40
0.375
 40
0.5
 40
0.5
 40
0.625
 40
0.625
 40
0.75
 40
0.75
 40
0.875
 40
0.875
 40
1.0
 40
1.0
 40
1.0
 40
1.0
 10
-1.767766952966716
 20
-47.12505898490779
 30
0.0
 10
-6.334290030353844
 20
-44.56954986462885
 30
0.0
 10
-10.90078033918269
 20
-42.01692251295869
 30
0.0
 10
-20.03372452186653
 20
-36.91487201417857
 30
0.0
 10
-24.60017513906477
 20
-34.36573526756093
 30
0.0
 10
-33.7331497792336
 20
-29.26100624312427
 30
0.0
 10
-38.29966681743741
 20
-26.70602822735099
 30
0.0
 10
-47.43313079363573
 20
-21.55826547537841
 30
0.0
 10
-52.00010933678863
 20
-18.96280299570789
 30
0.0
 10
-61.13500017537302
 20
-13.6893538924692
 30
0.0
 10
-65.70207454922809
 20
-11.01184936530431
 30
0.0
 10
-74.83583508778146
 20
-5.614173946325081
 30
0.0
 10
-79.40254535371893
 20
-2.896650210827034
 30
0.0
 10
-88.53591880312175
 20
2.543565065445452
 30
0.0
 10
-93.10256116371576
 20
5.266854487753998
 30
0.0
 10
-102.2358977858278
 20
10.70971100934151
 30
0.0
 10
-106.8025881110822
 20
13.42956041659905
 30
0.0
 10
-111.3693180368815
 20
16.14656968135231
 30
0.0
  0
SPLINE
  5
14B
330
130
100
AcDbEntity
  8
0
  6
Continuous
 62
     7
370
    25
100
AcDbSpline
210
0.0
220
0.0
230
1.0
 70
     8
 71
     3
 72
    20
 73
    16
 74
     0
 42
0.000000001
 43
0.00000001
 40
0.0
 40
0.0
 40
0.0
 40
0.0
 40
0.125
 40
0.125
 40
0.25
 40
0.25
 40
0.375
 40
0.375
 40
0.5
 40
0.5
 40
0.625
 40
0.625
 40
0.75
 40
0.75
 40
1.0
 40
1.0
 40
1.0
 40
1.0
 10
1.767766952966022
 20
-47.16048285384414
 30
0.0
 10
1.65108722000467
 20
-47.22354932819859
 30
0.0
 10
1.524910423773285
 20
-47.27914845662328
 30
0.0
 10
1.254333970995045
 20
-47.37601535519979
 30
0.0
 10
1.108225487270929
 20
-47.41760963976738
 30
0.0
 10
0.8056547582563911
 20
-47.4835419113898
 30
0.0
 10
0.649939344214992
 20
-47.50797207570018
 30
0.0
 10
0.3297269051707602
 20
-47.53991894692705
 30
0.0
 10
0.1641665289151759
 20
-47.54724804575731
 30
0.0
 10
-0.1618685131830888
 20
-47.5440014698736
 30
0.0
 10
-0.3239723257829827
 20
-47.53369800415254
 30
0.0
 10
-0.6463095163427579
 20
-47.49533366396971
 30
0.0
 10
-0.8041287462785887
 20
-47.46740021665057
 30
0.0
 10
-1.255395270749048
 20
-47.36028879712973
 30
0.0
 10
-1.534313327369773
 20
-47.25570386707855
 30
0.0
 10
-1.767766952966751
 20
-47.1250589849078
 30
0.0
  0
SPLINE
  5
14C
330
130
100
AcDbEntity
  8
0
  6
Continuous
 62
     7
370
    25
100
AcDbSpline
210
0.0
220
0.0
230
1.0
 70
     8
 71
     3
 72
    10
 73
     6
 74
     0
 42
0.000000001
 43
0.00000001
 40
0.0
 40
0.0
 40
0.0
 40
0.0
 40
0.5
 40
0.5
 40
1.0
 40
1.0
 40
1.0
 40
1.0
 10
79.05964975194146
 20
-3.249924184177567
 30
0.0
 10
71.56270061166454
 20
-7.632535050962893
 30
0.0
 10
64.06569736644418
 20
-11.99749273376943
 30
0.0
 10
49.07146434895579
 20
-20.65347944385319
 30
0.0
 10
41.5743981132818
 20
-24.94441368982494
 30
0.0
 10
34.07743523790567
 20
-29.21760388552636
 30
0.0
  0
SPLINE
  5
14E
330
130
100
AcDbEntity
  8
0
  6
Continuous
 62
     7
370
    25
100
AcDbSpline
210
0.0
220
0.0
230
1.0
 70
     8
 71
     3
 72
    10
 73
     6
 74
     0
 42
0.000000001
 43
0.00000001
 40
0.0
 40
0.0
 40
0.0
 40
0.0
 40
0.5
 40
0.5
 40
1.0
 40
1.0
 40
1.0
 40
1.0
 10
111.3693180368811
 20
16.11114581241575
 30
0.0
 10
105.9856870140707
 20
12.80524007946651
 30
0.0
 10
100.6013401948041
 20
9.542412496521568
 30
0.0
 10
89.8313427964754
 20
3.095220362355159
 30
0.0
 10
84.44570870907035
 20
-0.0901366917943625
 30
0.0
 10
79.05964975194145
 20
-3.249924184177543
 30
0.0
  0
SPLINE
  5
14F
330
130
100
AcDbEntity
  8
0
  6
Continuous
 62
     7
370
    25
100
AcDbSpline
210
0.0
220
0.0
230
1.0
 70
     8
 71
     3
 72
    20
 73
    16
 74
     0
 42
0.000000001
 43
0.00000001
 40
0.0
 40
0.0
 40
0.0
 40
0.0
 40
0.1249999999999988
 40
0.1249999999999988
 40
0.2499999999999976
 40
0.2499999999999976
 40
0.3749999999999963
 40
0.3749999999999963
 40
0.4999999999999951
 40
0.4999999999999951
 40
0.6249999999999939
 40
0.6249999999999939
 40
0.7499999999999927
 40
0.7499999999999927
 40
1.0
 40
1.0
 40
1.0
 40
1.0
 10
111.3693180368811
 20
18.18758996090885
 30
0.0
 10
111.4860437747612
 20
18.12226812136731
 30
0.0
 10
111.5893775579761
 20
18.05097803989694
 30
0.0
 10
111.7703499788662
 20
17.89695511093212
 30
0.0
 10
111.8486140841174
 20
17.81323206476284
 30
0.0
 10
111.9739663351547
 20
17.63885964304429
 30
0.0
 10
112.0212188608357
 20
17.54864192415131
 30
0.0
 10
112.0851531470712
 20
17.36221118617473
 30
0.0
 10
112.1015090134559
 20
17.26538118815904
 30
0.0
 10
112.1015929885134
 20
17.07384497790362
 30
0.0
 10
112.0858444621236
 20
16.97818826734142
 30
0.0
 10
112.0220193476899
 20
16.7871137259824
 30
0.0
 10
111.9741528978044
 20
16.69316509678112
 30
0.0
 10
111.7877148507114
 20
16.42315628793683
 30
0.0
 10
111.602676128117
 20
16.25444312391021
 30
0.0
 10
111.3693180368811
 20
16.11114581241575
 30
0.0
  0
SPLINE
  5
150
330
130
100
AcDbEntity
  8
0
  6
Continuous
 62
     7
370
    25
100
AcDbSpline
210
0.0
220
0.0
230
1.0
 70
     8
 71
     3
 72
    22
 73
    18
 74
     0
 42
0.000000001
 43
0.00000001
 40
0.0
 40
0.0
 40
0.0
 40
0.0
 40
0.125
 40
0.125
 40
0.25
 40
0.25
 40
0.375
 40
0.375
 40
0.5
 40
0.5
 40
0.625
 40
0.625
 40
0.75
 40
0.75
 40
0.875
 40
0.875
 40
1.0
 40
1.0
 40
1.0
 40
1.0
 10
1.76776695296639
 20
81.45921862716891
 30
0.0
 10
6.334290030353518
 20
78.74233242838655
 30
0.0
 10
10.90078033918235
 20
76.02260229476751
 30
0.0
 10
20.0337245218662
 20
70.5799798898945
 30
0.0
 10
24.60017513906444
 20
67.85680497820418
 30
0.0
 10
33.73314977923325
 20
62.4168259335241
 30
0.0
 10
38.29966681743703
 20
59.69941560292874
 30
0.0
 10
47.43313079363537
 20
54.30190531043079
 30
0.0
 10
52.00010933678828
 20
51.62444660146028
 30
0.0
 10
61.13500017537268
 20
46.3509752399838
 30
0.0
 10
65.70207454922776
 20
43.75544793473402
 30
0.0
 10
74.83583508778115
 20
38.60750790563583
 30
0.0
 10
79.40254535371858
 20
36.05242019877269
 30
0.0
 10
88.53591880312135
 20
30.94746695058799
 30
0.0
 10
93.10256116371544
 20
28.39822333237601
 30
0.0
 10
102.2358977858275
 20
23.2959538493911
 30
0.0
 10
106.8025881110818
 20
20.74321483731005
 30
0.0
 10
111.3693180368811
 20
18.18758996090885
 30
0.0
  0
SPLINE
  5
151
330
130
100
AcDbEntity
  8
0
  6
Continuous
 62
     7
370
    25
100
AcDbSpline
210
0.0
220
0.0
230
1.0
 70
     8
 71
     3
 72
    20
 73
    16
 74
     0
 42
0.000000001
 43
0.00000001
 40
0.0
 40
0.0
 40
0.0
 40
0.0
 40
0.125
 40
0.125
 40
0.25
 40
0.25
 40
0.375
 40
0.375
 40
0.5
 40
0.5
 40
0.625
 40
0.625
 40
0.75
 40
0.75
 40
1.0
 40
1.0
 40
1.0
 40
1.0
 10
-1.767766952966342
 20
81.42379475823259
 30
0.0
 10
-1.651087220005003
 20
81.49544383605415
 30
0.0
 10
-1.524910423773701
 20
81.55911166497395
 30
0.0
 10
-1.25433397099544
 20
81.6711358751933
 30
0.0
 10
-1.108225487271269
 20
81.71988710259261
 30
0.0
 10
-0.8056547582567242
 20
81.79869753003227
 30
0.0
 10
-0.6499393442153251
 20
81.82884156947907
 30
0.0
 10
-0.3297269051710378
 20
81.87076487322126
 30
0.0
 10
-0.1641665289155089
 20
81.88236103764606
 30
0.0
 10
0.1618685131827141
 20
81.88578062290131
 30
0.0
 10
0.3239723257826704
 20
81.87793779430952
 30
0.0
 10
0.6463095163424665
 20
81.84268212374005
 30
0.0
 10
0.8041287462782278
 20
81.81535719558812
 30
0.0
 10
1.255395270748721
 20
81.70722445416511
 30
0.0
 10
1.534313327369349
 20
81.59811356379603
 30
0.0
 10
1.767766952966356
 20
81.4592186271689
 30
0.0
  0
SPLINE
  5
152
330
130
100
AcDbEntity
  8
0
  6
Continuous
 62
     7
370
    25
100
AcDbSpline
210
0.0
220
0.0
230
1.0
 70
     8
 71
     3
 72
    10
 73
     6
 74
     0
 42
0.000000001
 43
0.00000001
 40
0.0
 40
0.0
 40
0.0
 40
0.0
 40
0.5
 40
0.5
 40
1.0
 40
1.0
 40
1.0
 40
1.0
 10
-34.07743523790592
 20
62.06272476163929
 30
0.0
 10
-28.69137628077704
 20
65.22251225402248
 30
0.0
 10
-23.30574219337195
 20
68.40786930817197
 30
0.0
 10
-12.53574479504327
 20
74.85506144233837
 30
0.0
 10
-7.151397975776748
 20
78.11788902528338
 30
0.0
 10
-1.767766952966335
 20
81.42379475823259
 30
0.0
  0
SPLINE
  5
154
330
130
100
AcDbEntity
  8
0
  6
Continuous
 62
     7
370
    25
100
AcDbSpline
210
0.0
220
0.0
230
1.0
 70
     8
 71
     3
 72
    10
 73
     6
 74
     0
 42
0.000000001
 43
0.00000001
 40
0.0
 40
0.0
 40
0.0
 40
0.0
 40
0.5
 40
0.5
 40
1.0
 40
1.0
 40
1.0
 40
1.0
 10
-79.05964975194183
 20
36.0950450602905
 30
0.0
 10
-71.5627006116649
 20
40.36822742712946
 30
0.0
 10
-64.06569736644441
 20
44.65912544613995
 30
0.0
 10
-49.071464348956
 20
53.31511168234285
 30
0.0
 10
-41.57439811328202
 20
57.68010586550843
 30
0.0
 10
-34.07743523790587
 20
62.06272476163927
 30
0.0
  0
SPLINE
  5
159
330
130
100
AcDbEntity
  8
0
  6
Continuous
 62
     7
370
    25
100
AcDbSpline
210
0.0
220
0.0
230
1.0
 70
    24
 71
     3
 72
     9
 73
     5
 74
     0
 42
0.000000001
 43
0.00000001
 40
0.0
 40
0.0
 40
0.0
 40
0.0
 40
0.9641459067865222
 40
0.9999999999999999
 40
0.9999999999999999
 40
0.9999999999999999
 40
0.9999999999999999
 10
-5.000000000000241
 20
-45.31874737021774
 30
0.0
 10
-5.000000000000212
 20
-45.04377322959134
 30
0.0
 10
-5.000000000000192
 20
-44.75857351169507
 30
0.0
 10
-5.000000000000234
 20
-44.47384809612302
 30
0.0
 10
-5.000000000000234
 20
-44.46363952453286
 30
0.0
  0
SPLINE
  5
15D
330
130
100
AcDbEntity
  8
0
  6
Continuous
 62
     7
370
    25
100
AcDbSpline
210
0.0
220
0.0
230
1.0
 70
     8
 71
     3
 72
     9
 73
     5
 74
     0
 42
0.000000001
 43
0.00000001
 40
0.0
 40
0.0
 40
0.0
 40
0.0
 40
0.9801626249771802
 40
1.0
 40
1.0
 40
1.0
 40
1.0
 10
77.70157514064616
 20
-4.039463858647018
 30
0.0
 10
76.76492946736693
 20
-4.074928707041035
 30
0.0
 10
75.8093271525969
 20
-4.111111323568402
 30
0.0
 10
74.8537726673747
 20
-4.148123583222401
 30
0.0
 10
74.83481697469662
 20
-4.148857809297593
 30
0.0
  0
SPLINE
  5
160
330
130
100
AcDbEntity
  8
0
  6
Continuous
 62
     7
370
    25
100
AcDbSpline
210
0.0
220
0.0
230
1.0
 70
     8
 71
     3
 72
     9
 73
     5
 74
     0
 42
0.000000001
 43
0.00000001
 40
0.0
 40
0.0
 40
0.0
 40
0.0
 40
0.3125318413465245
 40
1.0
 40
1.0
 40
1.0
 40
1.0
 10
61.47546601957177
 20
-13.47278718772388
 30
0.0
 10
61.63751361456332
 20
-13.23482172239363
 30
0.0
 10
62.15601308742786
 20
-12.47340981535406
 30
0.0
 10
62.49681147831382
 20
-11.68096544099625
 30
0.0
 10
62.73109952056826
 20
-11.13618516612119
 30
0.0
  0
LWPOLYLINE
  5
161
330
130
100
AcDbEntity
  8
0
  6
Continuous
 62
     7
370
    25
100
AcDbPolyline
 90
        3
 70
   128
 43
0.0
 10
43.9162371762
 20
-21.9977740021
 10
43.007757221
 20
-23.974873309
 10
42.8570938415
 20
-24.2518580649
  0
LWPOLYLINE
  5
162
330
130
100
AcDbEntity
  8
0
  6
Continuous
 62
     7
370
    25
100
AcDbPolyline
 90
        3
 70
   128
 43
0.0
 10
-42.9014040181
 20
-24.1715126381
 10
-43.2901580752
 20
-23.4237587737
 10
-43.9162371762
 20
-21.9977740021
  0
LINE
  5
17C
330
130
100
AcDbEntity
  8
0
  6
Continuous
 62
     7
370
    25
100
AcDbLine
 10
96.9238815543
 20
9.7984897426
 30
0.0
 11
96.9238815543
 21
16.3308162377
 31
0.0
  0
LINE
  5
17D
330
130
100
AcDbEntity
  8
0
  6
Continuous
 62
     7
370
    25
100
AcDbLine
 10
-96.9238815543
 20
16.3308162377
 30
0.0
 11
-96.9238815543
 21
9.7984897426
 31
0.0
  0
LINE
  5
17E
330
130
100
AcDbEntity
  8
0
  6
Continuous
 62
     7
370
    25
100
AcDbLine
 10
95.9238815543
 20
6.8557064117
 30
0.0
 11
95.9238815543
 21
8.0666266064
 31
0.0
  0
LINE
  5
17F
330
130
100
AcDbEntity
  8
0
  6
Continuous
 62
     7
370
    25
100
AcDbLine
 10
-95.9238815543
 20
8.0666266064
 30
0.0
 11
-95.9238815543
 21
6.9452268214
 31
0.0
  0
LINE
  5
180
330
130
100
AcDbEntity
  8
0
  6
Continuous
 62
     7
370
    25
100
AcDbLine
 10
848.5281374239
 20
-175.5230995397
 30
0.0
 11
-353.5533905933
 21
518.4237955096
 31
0.0
  0
LINE
  5
181
330
130
100
AcDbEntity
  8
0
  6
Continuous
 62
     7
370
    25
100
AcDbLine
 10
353.5533905933
 20
-461.2659386776
 30
0.0
 11
848.5281374239
 21
-175.5230995397
 31
0.0
  0
LINE
  5
182
330
130
100
AcDbEntity
  8
0
  6
Continuous
 62
     7
370
    25
100
AcDbLine
 10
-848.5281374239
 20
232.6809563717
 30
0.0
 11
353.5533905933
 21
-461.2659386776
 31
0.0
  0
LINE
  5
183
330
130
100
AcDbEntity
  8
0
  6
Continuous
 62
     7
370
    25
100
AcDbLine
 10
-353.5533905933
 20
518.4237955096
 30
0.0
 11
-848.5281374239
 21
232.6809563717
 31
0.0
  0
LINE
  5
184
330
130
100
AcDbEntity
  8
0
  6
Continuous
 62
     7
370
    25
100
AcDbLine
 10
-353.5533905933
 20
502.0956332732
 30
0.0
 11
-820.2438661764
 21
232.6809563717
 31
0.0
  0
LINE
  5
185
330
130
100
AcDbEntity
  8
0
  6
Continuous
 62
     7
370
    25
100
AcDbLine
 10
-820.2438661764
 20
232.6809563717
 30
0.0
 11
353.5533905933
 21
-444.9377764412
 31
0.0
  0
LINE
  5
186
330
130
100
AcDbEntity
  8
0
  6
Continuous
 62
     7
370
    25
100
AcDbLine
 10
353.5533905933
 20
-444.9377764412
 30
0.0
 11
820.2438661764
 21
-175.5230995397
 31
0.0
  0
LINE
  5
187
330
130
100
AcDbEntity
  8
0
  6
Continuous
 62
     7
370
    25
100
AcDbLine
 10
820.2438661764
 20
-175.5230995397
 30
0.0
 11
-353.5533905933
 21
502.0956332732
 31
0.0
  0
LINE
  5
188
330
130
100
AcDbEntity
  8
0
  6
Continuous
 62
     7
370
    25
100
AcDbLine
 10
-848.5281374239
 20
232.6809563717
 30
0.0
 11
-848.5281374239
 21
204.1020279557
 31
0.0
  0
LINE
  5
189
330
130
100
AcDbEntity
  8
0
  6
Continuous
 62
     7
370
    25
100
AcDbLine
 10
353.5533905933
 20
-461.2659386776
 30
0.0
 11
353.5533905933
 21
-489.8448670936
 31
0.0
  0
LINE
  5
18A
330
130
100
AcDbEntity
  8
0
  6
Continuous
 62
     7
370
    25
100
AcDbLine
 10
-848.5281374239
 20
204.1020279557
 30
0.0
 11
353.5533905933
 21
-489.8448670936
 31
0.0
  0
LINE
  5
18B
330
130
100
AcDbEntity
  8
0
  6
Continuous
 62
     7
370
    25
100
AcDbLine
 10
848.5281374239
 20
-175.5230995397
 30
0.0
 11
848.5281374239
 21
-204.1020279557
 31
0.0
  0
LINE
  5
18C
330
130
100
AcDbEntity
  8
0
  6
Continuous
 62
     7
370
    25
100
AcDbLine
 10
353.5533905933
 20
-489.8448670936
 30
0.0
 11
848.5281374239
 21
-204.1020279557
 31
0.0
  0
LINE
  5
18D
330
130
100
AcDbEntity
  8
0
  6
Continuous
 62
     7
370
    25
100
AcDbLine
 10
353.5533905933
 20
-444.9377764412
 30
0.0
 11
34.0774352379
 21
-29.2176038855
 31
0.0
  0
LINE
  5
18E
330
130
100
AcDbEntity
  8
0
  6
Continuous
 62
     7
370
    25
100
AcDbLine
 10
-820.2438661764
 20
232.6809563717
 30
0.0
 11
-79.0596497519
 21
36.0950450603
 31
0.0
  0
LINE
  5
18F
330
130
100
AcDbEntity
  8
0
  6
Continuous
 62
     7
370
    25
100
AcDbLine
 10
820.2438661764
 20
-175.5230995397
 30
0.0
 11
79.0596497519
 21
-3.2499241842
 31
0.0
  0
LINE
  5
190
330
130
100
AcDbEntity
  8
0
  6
Continuous
 62
     7
370
    25
100
AcDbLine
 10
-34.0774352379
 20
62.0627247616
 30
0.0
 11
-353.5533905933
 21
502.0956332732
 31
0.0
  0
LINE
  5
191
330
130
100
AcDbEntity
  8
0
  6
Continuous
 62
     7
370
    25
100
AcDbLine
 10
98.5428412452
 20
8.425077581
 30
0.0
 11
96.8732836951
 21
9.3888926393
 31
0.0
  0
LINE
  5
192
330
130
100
AcDbEntity
  8
0
  6
Continuous
 62
     7
370
    25
100
AcDbLine
 10
-96.8732836951
 20
9.3888926393
 30
0.0
 11
-98.4743447998
 21
8.4646197372
 31
0.0
  0
LINE
  5
193
330
130
100
AcDbEntity
  8
0
  6
Continuous
 62
     7
370
    25
100
AcDbLine
 10
-74.8280374816
 20
-4.1527715274
 30
0.0
 11
-77.4429162977
 21
-4.0524551399
 31
0.0
  0
LINE
  5
194
330
130
100
AcDbEntity
  8
0
  6
Continuous
 62
     7
370
    25
100
AcDbLine
 10
-62.6181064333
 20
-11.201414687
 30
0.0
 11
-61.5013680995
 21
-13.4405787538
 31
0.0
  0
LINE
  5
195
330
130
100
AcDbEntity
  8
0
  6
Continuous
 62
     7
370
    25
100
AcDbLine
 10
-19.5930069128
 20
-37.1635439872
 30
0.0
 11
-16.7961554438
 21
-37.653863937
 31
0.0
  0
LINE
  5
196
330
130
100
AcDbEntity
  8
0
  6
Continuous
 62
     7
370
    25
100
AcDbLine
 10
5.0
 20
-44.4636395245
 30
0.0
 11
5.0
 21
-45.3654917741
 31
0.0
  0
LINE
  5
197
330
130
100
AcDbEntity
  8
0
  6
Continuous
 62
     7
370
    25
100
AcDbLine
 10
16.9131182505
 20
-37.5863427459
 30
0.0
 11
20.0079606498
 21
-37.0309580016
 31
0.0
  0
LINE
  5
198
330
130
100
AcDbEntity
  8
0
  6
Continuous
 62
     7
370
    25
100
AcDbLine
 10
-3.5355339059
 20
71.4383637857
 30
0.0
 11
-95.4594154602
 21
18.3718365173
 31
0.0
  0
LINE
  5
199
330
130
100
AcDbEntity
  8
0
  6
Continuous
 62
     7
370
    25
100
AcDbLine
 10
95.4594154602
 20
18.3718365173
 30
0.0
 11
3.5355339059
 21
71.4383637857
 31
0.0
  0
LINE
  5
19A
330
130
100
AcDbEntity
  8
0
  6
Continuous
 62
     7
370
    25
100
AcDbLine
 10
3.5355339059
 20
-38.7767313103
 30
0.0
 11
95.4594154602
 21
14.2897959582
 31
0.0
  0
LINE
  5
19B
330
130
100
AcDbEntity
  8
0
  6
Continuous
 62
     7
370
    25
100
AcDbLine
 10
-95.4594154602
 20
14.2897959582
 30
0.0
 11
-3.5355339059
 21
-38.7767313103
 31
0.0
  0
LINE
  5
19C
330
130
100
AcDbEntity
  8
0
  6
Continuous
 62
     7
370
    25
100
AcDbLine
 10
-3.5355339059
 20
-38.7767313103
 30
0.0
 11
-3.5355339059
 21
-45.3090578054
 31
0.0
  0
LINE
  5
19D
330
130
100
AcDbEntity
  8
0
  6
Continuous
 62
     7
370
    25
100
AcDbLine
 10
3.5355339059
 20
-38.7767313103
 30
0.0
 11
3.5355339059
 21
-45.3090578054
 31
0.0
  0
LINE
  5
19E
330
130
100
AcDbEntity
  8
0
  6
Continuous
 62
     7
370
    25
100
AcDbLine
 10
-95.4594154602
 20
14.2897959582
 30
0.0
 11
-95.4594154602
 21
7.7574694631
 31
0.0
  0
LINE
  5
19F
330
130
100
AcDbEntity
  8
0
  6
Continuous
 62
     7
370
    25
100
AcDbLine
 10
-95.4594154602
 20
7.7574694631
 30
0.0
 11
-3.5355339059
 21
-45.3090578054
 31
0.0
  0
LINE
  5
1A0
330
130
100
AcDbEntity
  8
0
  6
Continuous
 62
     7
370
    25
100
AcDbLine
 10
95.4594154602
 20
14.2897959582
 30
0.0
 11
95.4594154602
 21
7.7574694631
 31
0.0
  0
LINE
  5
1A1
330
130
100
AcDbEntity
  8
0
  6
Continuous
 62
     7
370
    25
100
AcDbLine
 10
3.5355339059
 20
-45.3090578054
 30
0.0
 11
95.4594154602
 21
7.7574694631
 31
0.0
  0
LINE
  5
1A2
330
130
100
AcDbEntity
  8
0
  6
Continuous
 62
     7
370
    25
100
AcDbLine
 10
-4.0
 20
-45.0409272366
 30
0.0
 11
-4.0
 21
-45.8775906183
 31
0.0
  0
LINE
  5
1A3
330
130
100
AcDbEntity
  8
0
  6
Continuous
 62
     7
370
    25
100
AcDbLine
 10
4.0
 20
-45.0409272366
 30
0.0
 11
4.0
 21
-45.920832634
 31
0.0
  0
LINE
  5
1A4
330
130
100
AcDbEntity
  8
0
  6
Continuous
 62
    60
370
    25
100
AcDbLine
 10
111.3693180369
 20
16.1111458124
 30
0.0
 11
111.3693180369
 21
18.1875899609
 31
0.0
  0
LINE
  5
1A5
330
130
100
AcDbEntity
  8
0
  6
Continuous
 62
    60
370
    25
100
AcDbLine
 10
-111.3693180369
 20
16.1465696814
 30
0.0
 11
-111.3693180369
 21
18.152166092
 31
0.0
  0
LINE
  5
1A6
330
130
100
AcDbEntity
  8
0
  6
Continuous
 62
    60
370
    25
100
AcDbLine
 10
1.767766953
 20
72.0973595465
 30
0.0
 11
1.767766953
 21
81.4592186272
 31
0.0
  0
LINE
  5
1A7
330
130
100
AcDbEntity
  8
0
  6
Continuous
 62
    60
370
    25
100
AcDbLine
 10
-1.767766953
 20
72.0973595465
 30
0.0
 11
-1.767766953
 21
81.4237947582
 31
0.0
  0
LINE
  5
1A8
330
130
100
AcDbEntity
  8
0
  6
Continuous
 62
    60
370
    25
100
AcDbLine
 10
91.9238815543
 20
5.7164491835
 30
0.0
 11
91.9238815543
 21
4.4587681546
 31
0.0
  0
LINE
  5
1A9
330
130
100
AcDbEntity
  8
0
  6
Continuous
 62
    60
370
    25
100
AcDbLine
 10
-91.9238815543
 20
5.7164491835
 30
0.0
 11
-91.9238815543
 21
4.5622982792
 31
0.0
  0
ARC
  5
1AA
330
130
100
AcDbEntity
  8
0
  6
Continuous
 62
     7
370
    25
100
AcDbCircle
 10
0.0
 20
64.614808361
 30
0.0
 40
7.685109539558636
100
AcDbArc
 50
62.6096722366
 51
117.3903277634
  0
ARC
  5
1AB
330
130
100
AcDbEntity
  8
0
  6
Continuous
 62
     7
370
    25
100
AcDbCircle
 10
94.6847803262
 20
16.3308162377
 30
0.0
 40
2.183076584171368
100
AcDbArc
 50
290.7834207995
 51
69.2165792005
  0
ARC
  5
1AC
330
130
100
AcDbEntity
  8
0
  6
Continuous
 62
     7
370
    25
100
AcDbCircle
 10
0.0
 20
-31.9531758855
 30
0.0
 40
7.685109539558596
100
AcDbArc
 50
242.6096722366
 51
297.3903277634
  0
ARC
  5
1AD
330
130
100
AcDbEntity
  8
0
  6
Continuous
 62
     7
370
    25
100
AcDbCircle
 10
-94.6847803262
 20
16.3308162377
 30
0.0
 40
2.183076584171361
100
AcDbArc
 50
110.7834207995
 51
249.2165792005
  0
ARC
  5
1AE
330
130
100
AcDbEntity
  8
0
  6
Continuous
 62
     7
370
    25
100
AcDbCircle
 10
0.0
 20
-38.4855023806
 30
0.0
 40
7.685109539558542
100
AcDbArc
 50
242.6096722366
 51
297.3903277634
  0
ARC
  5
1AF
330
130
100
AcDbEntity
  8
0
  6
Continuous
 62
     7
370
    25
100
AcDbCircle
 10
94.4215962418
 20
10.0480216271
 30
0.0
 40
2.514696392468929
100
AcDbArc
 50
294.3746582936
 51
354.3052007488
  0
ARC
  5
1B0
330
130
100
AcDbEntity
  8
0
  6
Continuous
 62
     7
370
    25
100
AcDbCircle
 10
-94.4215962418
 20
10.0480216271
 30
0.0
 40
2.514696392468847
100
AcDbArc
 50
185.6947992512
 51
245.6253417064
  0
VIEWPORT
  5
286
330
130
100
AcDbEntity
  8
0
100
AcDbViewport
 10
0.0
 20
0.0
 30
0.0
 40
205.6
 41
156.0
 68
     1
 69
     1
 12
0.0
 22
0.0
 13
0.0
 23
0.0
 14
10.0
 24
10.0
 15
10.0
 25
10.0
 16
0.0
 26
0.0
 36
1.0
 17
0.0
 27
0.0
 37
0.0
 42
50.0
 43
0.0
 44
0.0
 45
1315.6809338521
 50
0.0
 51
0.0
 72
   100
 90
   557152
  1

281
     0
 71
     1
 74
     0
110
0.0
120
0.0
130
0.0
111
1.0
121
0.0
131
0.0
112
0.0
122
1.0
132
0.0
 79
     0
146
0.0
  0
ENDBLK
  5
133
330
130
100
AcDbEntity
  8
0
100
AcDbBlockEnd
  0
BLOCK
  5
1B3
330
1B1
100
AcDbEntity
  8
0
100
AcDbBlockBegin
  2
*Paper_Space6
 70
     0
 10
0.0
 20
0.0
 30
0.0
  3
*Paper_Space6
  1

  0
SPLINE
  5
1C6
330
1B1
100
AcDbEntity
  8
0
  6
Continuous
 62
     7
370
    25
100
AcDbSpline
210
0.0
220
0.0
230
1.0
 70
     8
 71
     3
 72
    10
 73
     6
 74
     0
 42
0.000000001
 43
0.00000001
 40
0.0
 40
0.0
 40
0.0
 40
0.0
 40
0.5
 40
0.5
 40
1.0
 40
1.0
 40
1.0
 40
1.0
 10
55.90916266461092
 20
-16.47809593630885
 30
0.0
 10
52.35432632775736
 20
-19.89473164668422
 30
0.0
 10
48.79977040787372
 20
-23.28399442639023
 30
0.0
 10
41.69149728941419
 20
-29.98064812116386
 30
0.0
 10
38.1377909754466
 20
-33.28697653410151
 30
0.0
 10
34.58455709211374
 20
-36.54718858320757
 30
0.0
  0
SPLINE
  5
1C9
330
1B1
100
AcDbEntity
  8
0
  6
Continuous
 62
     7
370
    25
100
AcDbSpline
210
0.0
220
0.0
230
1.0
 70
     8
 71
     3
 72
    10
 73
     6
 74
     0
 42
0.000000001
 43
0.00000001
 40
0.0
 40
0.0
 40
0.0
 40
0.0
 40
0.5
 40
0.5
 40
1.0
 40
1.0
 40
1.0
 40
1.0
 10
-106.9223423762738
 20
1.91135456621986
 30
0.0
 10
-103.3691084929409
 20
5.171566615325925
 30
0.0
 10
-99.81540217897332
 20
8.477895028263578
 30
0.0
 10
-92.7071290605138
 20
15.1745487230372
 30
0.0
 10
-89.1525731406303
 20
18.56381150274324
 30
0.0
 10
-85.59773680377673
 20
21.9804472131186
 30
0.0
  0
SPLINE
  5
1CA
330
1B1
100
AcDbEntity
  8
0
  6
Continuous
 62
     7
370
    25
100
AcDbSpline
210
0.0
220
0.0
230
1.0
 70
     8
 71
     3
 72
    20
 73
    16
 74
     0
 42
0.000000001
 43
0.00000001
 40
0.0
 40
0.0
 40
0.0
 40
0.0
 40
0.1249999999999988
 40
0.1249999999999988
 40
0.2499999999999976
 40
0.2499999999999976
 40
0.3749999999999963
 40
0.3749999999999963
 40
0.4999999999999951
 40
0.4999999999999951
 40
0.6249999999999939
 40
0.6249999999999939
 40
0.7499999999999927
 40
0.7499999999999927
 40
1.0
 40
1.0
 40
1.0
 40
1.0
 10
-105.8780355444054
 20
0.2088536743744748
 30
0.0
 10
-106.0240309733759
 20
0.2506972164444954
 30
0.0
 10
-106.1600390079122
 20
0.2987481424812713
 30
0.0
 10
-106.4128922264248
 20
0.4067688956782139
 30
0.0
 10
-106.5308413907145
 20
0.4674867450743664
 30
0.0
 10
-106.7399996187165
 20
0.5977135820168997
 30
0.0
 10
-106.831151122314
 20
0.6668528900536443
 30
0.0
 10
-106.9868395834392
 20
0.8131252303708245
 30
0.0
 10
-107.0513709115609
 20
0.8907967064171601
 30
0.0
 10
-107.1477502985703
 20
1.04771437420291
 30
0.0
 10
-107.1805833942182
 20
1.127686253849979
 30
0.0
 10
-107.2148099410601
 20
1.290739256055093
 30
0.0
 10
-107.2156683914132
 20
1.372595479676705
 30
0.0
 10
-107.1707957771297
 20
1.612866326700761
 30
0.0
 10
-107.0763603379833
 20
1.770037886532815
 30
0.0
 10
-106.9223423762737
 20
1.911354566219853
 30
0.0
  0
SPLINE
  5
1CB
330
1B1
100
AcDbEntity
  8
0
  6
Continuous
 62
     7
370
    25
100
AcDbSpline
210
0.0
220
0.0
230
1.0
 70
     8
 71
     3
 72
    22
 73
    18
 74
     0
 42
0.000000001
 43
0.00000001
 40
0.0
 40
0.0
 40
0.0
 40
0.0
 40
0.125
 40
0.125
 40
0.25
 40
0.25
 40
0.375
 40
0.375
 40
0.5
 40
0.5
 40
0.625
 40
0.625
 40
0.75
 40
0.75
 40
0.875
 40
0.875
 40
1.0
 40
1.0
 40
1.0
 40
1.0
 10
31.20677331559503
 20
-37.04786000163334
 30
0.0
 10
25.49516670941564
 20
-35.58027085918397
 30
0.0
 10
19.7836010887105
 20
-34.11569814686798
 30
0.0
 10
8.360515418566084
 20
-31.18990665535869
 30
0.0
 10
2.648999442410136
 20
-29.72898765980263
 30
0.0
 10
-8.774124322619482
 20
-26.80039247840693
 30
0.0
 10
-14.48572337525346
 20
-25.33335925832758
 30
0.0
 10
-25.90945918030815
 20
-22.35971943590981
 30
0.0
 10
-31.62163546307355
 20
-20.85031027016222
 30
0.0
 10
-43.04715592496501
 20
-17.74511031075093
 30
0.0
 10
-48.75945206856598
 20
-16.14960264438769
 30
0.0
 10
-60.183558800796
 20
-12.91369481281325
 30
0.0
 10
-65.89539953419704
 20
-11.27607992445856
 30
0.0
 10
-77.31902211230978
 20
-7.995412693701582
 30
0.0
 10
-83.03077791268812
 20
-6.351727181952108
 30
0.0
 10
-94.45435442884225
 20
-3.068277493269982
 30
0.0
 10
-100.1661702213123
 20
-1.428215914930587
 30
0.0
 10
-105.8780355444054
 20
0.2088536743744956
 30
0.0
  0
SPLINE
  5
1CC
330
1B1
100
AcDbEntity
  8
0
  6
Continuous
 62
     7
370
    25
100
AcDbSpline
210
0.0
220
0.0
230
1.0
 70
     8
 71
     3
 72
    20
 73
    16
 74
     0
 42
0.000000001
 43
0.00000001
 40
0.0
 40
0.0
 40
0.0
 40
0.0
 40
0.125
 40
0.125
 40
0.25
 40
0.25
 40
0.375
 40
0.375
 40
0.5
 40
0.5
 40
0.625
 40
0.625
 40
0.75
 40
0.75
 40
1.0
 40
1.0
 40
1.0
 40
1.0
 10
34.58455709211374
 20
-36.54718858320759
 30
0.0
 10
34.50754765760757
 20
-36.61784733929159
 30
0.0
 10
34.41751269636269
 20
-36.68363671723476
 30
0.0
 10
34.21244948240466
 20
-36.80586893366917
 30
0.0
 10
34.09597319315322
 20
-36.86284329884123
 30
0.0
 10
33.84393217630731
 20
-36.96380023467444
 30
0.0
 10
33.70912624359387
 20
-37.00774848309961
 30
0.0
 10
33.42209937292373
 20
-37.08270777771179
 30
0.0
 10
33.26876769075409
 20
-37.11372023575678
 30
0.0
 10
32.95732409578625
 20
-37.15989448803921
 30
0.0
 10
32.79781074867264
 20
-37.17553006954542
 30
0.0
 10
32.47102157341341
 20
-37.19155984966087
 30
0.0
 10
32.30610726828504
 20
-37.19169929979681
 30
0.0
 10
31.8199097386313
 20
-37.16915323706453
 30
0.0
 10
31.49876686245761
 20
-37.12288732557006
 30
0.0
 10
31.20677331559501
 20
-37.04786000163336
 30
0.0
  0
SPLINE
  5
1CD
330
1B1
100
AcDbEntity
  8
0
  6
Continuous
 62
     7
370
    25
100
AcDbSpline
210
0.0
220
0.0
230
1.0
 70
     8
 71
     3
 72
    10
 73
     6
 74
     0
 42
0.000000001
 43
0.00000001
 40
0.0
 40
0.0
 40
0.0
 40
0.0
 40
0.5
 40
0.5
 40
1.0
 40
1.0
 40
1.0
 40
1.0
 10
85.59773680377621
 20
12.49886256883048
 30
0.0
 10
80.64969827847833
 20
7.6119887549813
 30
0.0
 10
75.70162404353024
 20
2.743644382932642
 30
0.0
 10
65.80532606423172
 20
-6.915446078631208
 30
0.0
 10
60.85721025516971
 20
-11.70608642776655
 30
0.0
 10
55.9091626646109
 20
-16.47809593630885
 30
0.0
  0
SPLINE
  5
1CF
330
1B1
100
AcDbEntity
  8
0
  6
Continuous
 62
     7
370
    25
100
AcDbSpline
210
0.0
220
0.0
230
1.0
 70
     8
 71
     3
 72
    10
 73
     6
 74
     0
 42
0.000000001
 43
0.00000001
 40
0.0
 40
0.0
 40
0.0
 40
0.0
 40
0.5
 40
0.5
 40
1.0
 40
1.0
 40
1.0
 40
1.0
 10
106.9223423762733
 20
34.05670747145483
 30
0.0
 10
103.3691084929405
 20
30.38078912145474
 30
0.0
 10
99.8154021789729
 20
26.75006492172115
 30
0.0
 10
92.70712906051338
 20
19.57093366088975
 30
0.0
 10
89.15257314062977
 20
16.02148534508471
 30
0.0
 10
85.59773680377617
 20
12.49886256883049
 30
0.0
  0
SPLINE
  5
1D0
330
1B1
100
AcDbEntity
  8
0
  6
Continuous
 62
     7
370
    25
100
AcDbSpline
210
0.0
220
0.0
230
1.0
 70
     8
 71
     3
 72
    20
 73
    16
 74
     0
 42
0.000000001
 43
0.00000001
 40
0.0
 40
0.0
 40
0.0
 40
0.0
 40
0.1249999999999988
 40
0.1249999999999988
 40
0.2499999999999976
 40
0.2499999999999976
 40
0.3749999999999963
 40
0.3749999999999963
 40
0.4999999999999951
 40
0.4999999999999951
 40
0.6249999999999939
 40
0.6249999999999939
 40
0.7499999999999927
 40
0.7499999999999927
 40
1.0
 40
1.0
 40
1.0
 40
1.0
 10
105.8780355444049
 20
35.8335810870504
 30
0.0
 10
106.0240309733755
 20
35.79606777053934
 30
0.0
 10
106.1600390079118
 20
35.75133488283171
 30
0.0
 10
106.4128922264244
 20
35.64802582506694
 30
0.0
 10
106.5308413907141
 20
35.588700713097
 30
0.0
 10
106.7399996187161
 20
35.45921143797821
 30
0.0
 10
106.8311511223135
 20
35.38944262264739
 30
0.0
 10
106.9868395834388
 20
35.23996073783452
 30
0.0
 10
107.0513709115604
 20
35.15966835910135
 30
0.0
 10
107.1477502985698
 20
34.99576637330658
 30
0.0
 10
107.1805833942179
 20
34.91142571258533
 30
0.0
 10
107.2148099410597
 20
34.73786338364519
 30
0.0
 10
107.2156683914128
 20
34.64993213467397
 30
0.0
 10
107.1707957771294
 20
34.38953179335651
 30
0.0
 10
107.0763603379829
 20
34.2160432963025
 30
0.0
 10
106.9223423762733
 20
34.05670747145483
 30
0.0
  0
SPLINE
  5
1D1
330
1B1
100
AcDbEntity
  8
0
  6
Continuous
 62
     7
370
    25
100
AcDbSpline
210
0.0
220
0.0
230
1.0
 70
     8
 71
     3
 72
    22
 73
    18
 74
     0
 42
0.000000001
 43
0.00000001
 40
0.0
 40
0.0
 40
0.0
 40
0.0
 40
0.125
 40
0.125
 40
0.25
 40
0.25
 40
0.375
 40
0.375
 40
0.5
 40
0.5
 40
0.625
 40
0.625
 40
0.75
 40
0.75
 40
0.875
 40
0.875
 40
1.0
 40
1.0
 40
1.0
 40
1.0
 10
-31.20677331559541
 20
73.09029476305822
 30
0.0
 10
-25.49516670941601
 20
71.45329932423952
 30
0.0
 10
-19.78360108871088
 20
69.81330973323482
 30
0.0
 10
-8.360515418566465
 20
66.53000138868984
 30
0.0
 10
-2.648999442410517
 20
64.88638506557459
 30
0.0
 10
8.77412432261909
 20
61.605859704169
 30
0.0
 10
14.48572337525306
 20
59.96831244876385
 30
0.0
 10
25.90945918030775
 20
56.73249904965157
 30
0.0
 10
31.62163546307317
 20
55.13701398235228
 30
0.0
 10
43.04715592496463
 20
52.03179065725818
 30
0.0
 10
48.75945206856559
 20
50.52233893936095
 30
0.0
 10
60.18355880079564
 20
47.54859192928883
 30
0.0
 10
65.89539953419663
 20
46.08149497485123
 30
0.0
 10
77.31902211230934
 20
43.15277052939148
 30
0.0
 10
83.03077791268773
 20
41.6917903643
 30
0.0
 10
94.45435442884188
 20
38.76587341407209
 30
0.0
 10
100.1661702213118
 20
37.30123670644046
 30
0.0
 10
105.878035544405
 20
35.83358108705041
 30
0.0
  0
SPLINE
  5
1D2
330
1B1
100
AcDbEntity
  8
0
  6
Continuous
 62
     7
370
    25
100
AcDbSpline
210
0.0
220
0.0
230
1.0
 70
     8
 71
     3
 72
    20
 73
    16
 74
     0
 42
0.000000001
 43
0.00000001
 40
0.0
 40
0.0
 40
0.0
 40
0.0
 40
0.125
 40
0.125
 40
0.25
 40
0.25
 40
0.375
 40
0.375
 40
0.5
 40
0.5
 40
0.625
 40
0.625
 40
0.75
 40
0.75
 40
1.0
 40
1.0
 40
1.0
 40
1.0
 10
-34.58455709211412
 20
72.51525062088224
 30
0.0
 10
-34.50754765760797
 20
72.59491900262098
 30
0.0
 10
-34.41751269636318
 20
72.66917853431872
 30
0.0
 10
-34.21244948240511
 20
72.80732220516872
 30
0.0
 10
-34.0959731931536
 20
72.87180960248695
 30
0.0
 10
-33.84393217630768
 20
72.98628543890564
 30
0.0
 10
-33.70912624359425
 20
73.03623185283084
 30
0.0
 10
-33.42209937292404
 20
73.12166395125803
 30
0.0
 10
-33.26876769075444
 20
73.15715578013709
 30
0.0
 10
-32.95732409578663
 20
73.21032786432987
 30
0.0
 10
-32.79781074867299
 20
73.22854651046116
 30
0.0
 10
-32.47102157341374
 20
73.24783963014578
 30
0.0
 10
-32.30610726828546
 20
73.24861787594799
 30
0.0
 10
-31.81990973863168
 20
73.2249996760668
 30
0.0
 10
-31.49876686245806
 20
73.17398261786624
 30
0.0
 10
-31.20677331559544
 20
73.09029476305822
 30
0.0
  0
SPLINE
  5
1D3
330
1B1
100
AcDbEntity
  8
0
  6
Continuous
 62
     7
370
    25
100
AcDbSpline
210
0.0
220
0.0
230
1.0
 70
     8
 71
     3
 72
    10
 73
     6
 74
     0
 42
0.000000001
 43
0.00000001
 40
0.0
 40
0.0
 40
0.0
 40
0.0
 40
0.5
 40
0.5
 40
1.0
 40
1.0
 40
1.0
 40
1.0
 10
-55.90916266461122
 20
50.95740571825792
 30
0.0
 10
-52.35432632775765
 20
54.48002849451214
 30
0.0
 10
-48.79977040787396
 20
58.02947681031716
 30
0.0
 10
-41.69149728941449
 20
65.20860807114855
 30
0.0
 10
-38.13779097544693
 20
68.83933227088218
 30
0.0
 10
-34.58455709211411
 20
72.51525062088224
 30
0.0
  0
SPLINE
  5
1D5
330
1B1
100
AcDbEntity
  8
0
  6
Continuous
 62
     7
370
    25
100
AcDbSpline
210
0.0
220
0.0
230
1.0
 70
     8
 71
     3
 72
    10
 73
     6
 74
     0
 42
0.000000001
 43
0.00000001
 40
0.0
 40
0.0
 40
0.0
 40
0.0
 40
0.5
 40
0.5
 40
1.0
 40
1.0
 40
1.0
 40
1.0
 10
-85.59773680377666
 20
21.98044721311858
 30
0.0
 10
-80.64969827847874
 20
26.75244797891731
 30
0.0
 10
-75.70162404353051
 20
31.54304789388202
 30
0.0
 10
-65.80532606423198
 20
41.20213785798735
 30
0.0
 10
-60.85721025516997
 20
46.0705229512072
 30
0.0
 10
-55.90916266461116
 20
50.9574057182579
 30
0.0
  0
SPLINE
  5
1DB
330
1B1
100
AcDbEntity
  8
0
  6
Continuous
 62
     7
370
    25
100
AcDbSpline
210
0.0
220
0.0
230
1.0
 70
     8
 71
     3
 72
    10
 73
     6
 74
     0
 42
0.000000001
 43
0.00000001
 40
0.0
 40
0.0
 40
0.0
 40
0.0
 40
0.2890359852157071
 40
0.7705195664437683
 40
1.0
 40
1.0
 40
1.0
 40
1.0
 10
40.33122039805129
 20
-27.60044148959686
 30
0.0
 10
41.18343608673461
 20
-27.23531037422861
 30
0.0
 10
43.45529459760754
 20
-26.26193445185444
 30
0.0
 10
46.18820645239846
 20
-24.86693760160259
 30
0.0
 10
47.93620136113045
 20
-23.79624287290322
 30
0.0
 10
48.50040801740068
 20
-23.45065085215538
 30
0.0
  0
SPLINE
  5
1DC
330
1B1
100
AcDbEntity
  8
0
  6
Continuous
 62
     7
370
    25
100
AcDbSpline
210
0.0
220
0.0
230
1.0
 70
     8
 71
     3
 72
    11
 73
     7
 74
     0
 42
0.000000001
 43
0.00000001
 40
0.0
 40
0.0
 40
0.0
 40
0.0
 40
0.0081878138614585
 40
0.4422403845789409
 40
0.8792984185082515
 40
0.9999999999999999
 40
0.9999999999999999
 40
0.9999999999999999
 40
0.9999999999999999
 10
62.80241650283801
 20
-9.815145858520548
 30
0.0
 10
62.8124853350456
 20
-9.798869165175928
 30
0.0
 10
63.3563233244159
 20
-8.919732041861362
 30
0.0
 10
64.01007011582779
 20
-7.131643851644415
 30
0.0
 10
64.67743216417749
 20
-5.113351084811785
 30
0.0
 10
64.77349066593558
 20
-3.970964548162479
 30
0.0
 10
64.79427813917201
 20
-3.723747184559775
 30
0.0
  0
LWPOLYLINE
  5
1E1
330
1B1
100
AcDbEntity
  8
0
  6
Continuous
 62
     7
370
    25
100
AcDbPolyline
 90
        9
 70
   128
 43
0.0
 10
92.2444687979
 20
29.9258188284
 10
92.6147383354
 20
30.3932386389
 10
92.80084016
 20
30.8888814008
 10
92.7956224831
 20
31.3936998408
 10
92.599285817
 20
31.8882940694
 10
92.2193752697
 20
32.3536571077
 10
91.6704905905
 20
32.7719053152
 10
90.9737251097
 20
33.1269656477
 10
90.1558551341
 20
33.4051933359
  0
LWPOLYLINE
  5
1E5
330
1B1
100
AcDbEntity
  8
0
  6
Continuous
 62
     7
370
    25
100
AcDbPolyline
 90
        9
 70
   128
 43
0.0
 10
-92.2444687979
 20
4.3608731996
 10
-92.6147383354
 20
3.8934533892
 10
-92.80084016
 20
3.3978106273
 10
-92.7956224831
 20
2.8929921873
 10
-92.599285817
 20
2.3983979587
 10
-92.2193752697
 20
1.9330349204
 10
-91.6704905905
 20
1.5147867129
 10
-90.9737251097
 20
1.1597263804
 10
-90.1558551341
 20
0.8814986922
  0
LWPOLYLINE
  5
1E7
330
1B1
100
AcDbEntity
  8
0
  6
Continuous
 62
     7
370
    25
100
AcDbPolyline
 90
        3
 70
   128
 43
0.0
 10
30.4860721937
 20
-36.8649438216
 10
31.0338602373
 20
-36.5689246395
 10
31.574068237
 20
-36.1476904617
  0
LINE
  5
1F2
330
1B1
100
AcDbEntity
  8
0
  6
Continuous
 62
     7
370
    25
100
AcDbLine
 10
31.1519776286
 20
-37.1370668022
 30
0.0
 11
31.1519776286
 21
-36.490975213
 31
0.0
  0
LINE
  5
1F3
330
1B1
100
AcDbEntity
  8
0
  6
Continuous
 62
     7
370
    25
100
AcDbLine
 10
-92.8223781895
 20
3.1590437262
 30
0.0
 11
-92.8223781895
 21
-3.6982946794
 31
0.0
  0
LINE
  5
1F4
330
1B1
100
AcDbEntity
  8
0
  6
Continuous
 62
     7
370
    25
100
AcDbLine
 10
92.8223781895
 20
24.2703098962
 30
0.0
 11
92.8223781895
 21
31.1276483019
 31
0.0
  0
LINE
  5
1F5
330
1B1
100
AcDbEntity
  8
0
  6
Continuous
 62
     7
370
    25
100
AcDbLine
 10
91.8223781895
 20
18.7915863949
 30
0.0
 11
91.8223781895
 21
22.6565070493
 31
0.0
  0
LINE
  5
1F6
330
1B1
100
AcDbEntity
  8
0
  6
Continuous
 62
     7
370
    25
100
AcDbLine
 10
915.0987895513
 20
-14.8820025753
 30
0.0
 11
-588.4120173003
 21
393.7400183874
 31
0.0
  0
LINE
  5
1F7
330
1B1
100
AcDbEntity
  8
0
  6
Continuous
 62
     7
370
    25
100
AcDbLine
 10
588.4120173003
 20
-333.7383073383
 30
0.0
 11
915.0987895513
 21
-14.8820025753
 31
0.0
  0
LINE
  5
1F8
330
1B1
100
AcDbEntity
  8
0
  6
Continuous
 62
     7
370
    25
100
AcDbLine
 10
-915.0987895513
 20
74.8837136244
 30
0.0
 11
588.4120173003
 21
-333.7383073383
 31
0.0
  0
LINE
  5
1F9
330
1B1
100
AcDbEntity
  8
0
  6
Continuous
 62
     7
370
    25
100
AcDbLine
 10
-588.4120173003
 20
393.7400183874
 30
0.0
 11
-915.0987895513
 21
74.8837136244
 31
0.0
  0
LINE
  5
1FA
330
1B1
100
AcDbEntity
  8
0
  6
Continuous
 62
     7
370
    25
100
AcDbLine
 10
-580.0575626453
 20
379.8225203576
 30
0.0
 11
-888.0765193392
 21
79.1865758668
 31
0.0
  0
LINE
  5
1FB
330
1B1
100
AcDbEntity
  8
0
  6
Continuous
 62
     7
370
    25
100
AcDbLine
 10
-888.0765193392
 20
79.1865758668
 30
0.0
 11
580.0575626453
 21
-319.8208093085
 31
0.0
  0
LINE
  5
1FC
330
1B1
100
AcDbEntity
  8
0
  6
Continuous
 62
     7
370
    25
100
AcDbLine
 10
580.0575626453
 20
-319.8208093085
 30
0.0
 11
888.0765193392
 21
-19.1848648177
 31
0.0
  0
LINE
  5
1FD
330
1B1
100
AcDbEntity
  8
0
  6
Continuous
 62
     7
370
    25
100
AcDbLine
 10
888.0765193392
 20
-19.1848648177
 30
0.0
 11
-580.0575626453
 21
379.8225203576
 31
0.0
  0
LINE
  5
1FE
330
1B1
100
AcDbEntity
  8
0
  6
Continuous
 62
     7
370
    25
100
AcDbLine
 10
-915.0987895513
 20
74.8837136244
 30
0.0
 11
-915.0987895513
 21
44.8828580998
 31
0.0
  0
LINE
  5
1FF
330
1B1
100
AcDbEntity
  8
0
  6
Continuous
 62
     7
370
    25
100
AcDbLine
 10
588.4120173003
 20
-333.7383073383
 30
0.0
 11
588.4120173003
 21
-363.7391628628
 31
0.0
  0
LINE
  5
200
330
1B1
100
AcDbEntity
  8
0
  6
Continuous
 62
     7
370
    25
100
AcDbLine
 10
-915.0987895513
 20
44.8828580998
 30
0.0
 11
588.4120173003
 21
-363.7391628628
 31
0.0
  0
LINE
  5
201
330
1B1
100
AcDbEntity
  8
0
  6
Continuous
 62
     7
370
    25
100
AcDbLine
 10
915.0987895513
 20
-14.8820025753
 30
0.0
 11
915.0987895513
 21
-44.8828580998
 31
0.0
  0
LINE
  5
202
330
1B1
100
AcDbEntity
  8
0
  6
Continuous
 62
     7
370
    25
100
AcDbLine
 10
588.4120173003
 20
-363.7391628628
 30
0.0
 11
915.0987895513
 21
-44.8828580998
 31
0.0
  0
LINE
  5
203
330
1B1
100
AcDbEntity
  8
0
  6
Continuous
 62
     7
370
    25
100
AcDbLine
 10
580.0575626453
 20
-319.8208093085
 30
0.0
 11
55.9091626646
 21
-16.4780959363
 31
0.0
  0
LINE
  5
204
330
1B1
100
AcDbEntity
  8
0
  6
Continuous
 62
     7
370
    25
100
AcDbLine
 10
-888.0765193392
 20
79.1865758668
 30
0.0
 11
-85.5977368038
 21
21.9804472131
 31
0.0
  0
LINE
  5
205
330
1B1
100
AcDbEntity
  8
0
  6
Continuous
 62
     7
370
    25
100
AcDbLine
 10
888.0765193392
 20
-19.1848648177
 30
0.0
 11
85.5977368038
 21
12.4988625688
 31
0.0
  0
LINE
  5
206
330
1B1
100
AcDbEntity
  8
0
  6
Continuous
 62
     7
370
    25
100
AcDbLine
 10
-55.9091626646
 20
50.9574057183
 30
0.0
 11
-580.0575626453
 21
379.8225203576
 31
0.0
  0
LINE
  5
207
330
1B1
100
AcDbEntity
  8
0
  6
Continuous
 62
     7
370
    25
100
AcDbLine
 10
-92.8223781895
 20
-2.3106791519
 30
0.0
 11
-93.7966765541
 21
-3.2616242243
 31
0.0
  0
LINE
  5
208
330
1B1
100
AcDbEntity
  8
0
  6
Continuous
 62
     7
370
    25
100
AcDbLine
 10
94.0370566469
 20
21.0304880492
 30
0.0
 11
91.8223781895
 21
21.6323901991
 31
0.0
  0
LINE
  5
209
330
1B1
100
AcDbEntity
  8
0
  6
Continuous
 62
     7
370
    25
100
AcDbLine
 10
82.5770665602
 20
9.5309974381
 30
0.0
 11
77.2836026029
 21
8.4662163699
 31
0.0
  0
LINE
  5
20A
330
1B1
100
AcDbEntity
  8
0
  6
Continuous
 62
     7
370
    25
100
AcDbLine
 10
64.6647968002
 20
-3.8501249409
 30
0.0
 11
64.7707525956
 21
-4.436448033
 31
0.0
  0
LINE
  5
20B
330
1B1
100
AcDbEntity
  8
0
  6
Continuous
 62
     7
370
    25
100
AcDbLine
 10
-31.574068237
 20
63.5770440842
 30
0.0
 11
-92.2444687979
 21
4.3608731996
 31
0.0
  0
LINE
  5
20C
330
1B1
100
AcDbEntity
  8
0
  6
Continuous
 62
     7
370
    25
100
AcDbLine
 10
90.1558551341
 20
33.4051933359
 30
0.0
 11
-24.8185006839
 21
64.6527596448
 31
0.0
  0
LINE
  5
20D
330
1B1
100
AcDbEntity
  8
0
  6
Continuous
 62
     7
370
    25
100
AcDbLine
 10
31.574068237
 20
-29.2903520561
 30
0.0
 11
92.2444687979
 21
29.9258188284
 31
0.0
  0
LINE
  5
20E
330
1B1
100
AcDbEntity
  8
0
  6
Continuous
 62
     7
370
    25
100
AcDbLine
 10
-90.1558551341
 20
0.8814986922
 30
0.0
 11
24.8185006839
 21
-30.3660676167
 31
0.0
  0
LINE
  5
20F
330
1B1
100
AcDbEntity
  8
0
  6
Continuous
 62
     7
370
    25
100
AcDbLine
 10
31.574068237
 20
-29.2903520561
 30
0.0
 11
31.574068237
 21
-36.1476904617
 31
0.0
  0
LINE
  5
210
330
1B1
100
AcDbEntity
  8
0
  6
Continuous
 62
     7
370
    25
100
AcDbLine
 10
92.2444687979
 20
29.9258188284
 30
0.0
 11
92.2444687979
 21
23.0684804228
 31
0.0
  0
LINE
  5
211
330
1B1
100
AcDbEntity
  8
0
  6
Continuous
 62
     7
370
    25
100
AcDbLine
 10
31.574068237
 20
-36.1476904617
 30
0.0
 11
92.2444687979
 21
23.0684804228
 31
0.0
  0
LINE
  5
212
330
1B1
100
AcDbEntity
  8
0
  6
Continuous
 62
    60
370
    25
100
AcDbLine
 10
-106.9223423763
 20
0.7748213041
 30
0.0
 11
-106.9223423763
 21
1.9113545662
 31
0.0
  0
LINE
  5
213
330
1B1
100
AcDbEntity
  8
0
  6
Continuous
 62
    60
370
    25
100
AcDbLine
 10
-34.5845570921
 20
60.6387146708
 30
0.0
 11
-34.5845570921
 21
72.5152506209
 31
0.0
  0
LINE
  5
214
330
1B1
100
AcDbEntity
  8
0
  6
Continuous
 62
    60
370
    25
100
AcDbLine
 10
105.8780355444
 20
33.0009784623
 30
0.0
 11
105.8780355444
 21
35.8335810871
 31
0.0
  0
LINE
  5
215
330
1B1
100
AcDbEntity
  8
0
  6
Continuous
 62
    60
370
    25
100
AcDbLine
 10
-31.2067733156
 20
63.8819656894
 30
0.0
 11
-31.2067733156
 21
73.0902947631
 31
0.0
  0
LINE
  5
216
330
1B1
100
AcDbEntity
  8
0
  6
Continuous
 62
    60
370
    25
100
AcDbLine
 10
24.8185006839
 20
-30.3660676167
 30
0.0
 11
24.8185006839
 21
-35.4105571561
 31
0.0
  0
LINE
  5
217
330
1B1
100
AcDbEntity
  8
0
  6
Continuous
 62
    60
370
    25
100
AcDbLine
 10
-90.1558551341
 20
0.8814986922
 30
0.0
 11
-90.1558551341
 21
-4.3074825819
 31
0.0
  0
LINE
  5
218
330
1B1
100
AcDbEntity
  8
0
  6
Continuous
 62
    60
370
    25
100
AcDbLine
 10
89.0038764974
 20
19.9055629926
 30
0.0
 11
89.0038764974
 21
15.942257148
 31
0.0
  0
ARC
  5
219
330
1B1
100
AcDbEntity
  8
0
  6
Continuous
 62
     7
370
    25
100
AcDbCircle
 10
-27.1104672824
 20
57.2958954606
 30
0.0
 40
7.705618827393995
100
AcDbArc
 50
72.6960345908
 51
125.398914916
  0
ARC
  5
21A
330
1B1
100
AcDbEntity
  8
0
  6
Continuous
 62
     7
370
    25
100
AcDbCircle
 10
27.1104672824
 20
-23.0092034325
 30
0.0
 40
7.705618827393928
100
AcDbArc
 50
252.6960345908
 51
305.398914916
  0
ARC
  5
21B
330
1B1
100
AcDbEntity
  8
0
  6
Continuous
 62
     7
370
    25
100
AcDbCircle
 10
91.1630990458
 20
24.3283267181
 30
0.0
 40
1.660293115197129
100
AcDbArc
 50
310.6406362013
 51
357.9974645044
  0
VIEWPORT
  5
288
330
1B1
100
AcDbEntity
  8
0
100
AcDbViewport
 10
0.0
 20
0.0
 30
0.0
 40
205.6
 41
156.0
 68
     1
 69
     1
 12
0.0
 22
0.0
 13
0.0
 23
0.0
 14
10.0
 24
10.0
 15
10.0
 25
10.0
 16
0.0
 26
0.0
 36
1.0
 17
0.0
 27
0.0
 37
0.0
 42
50.0
 43
0.0
 44
0.0
 45
1315.6809338521
 50
0.0
 51
0.0
 72
   100
 90
   557152
  1

281
     0
 71
     1
 74
     0
110
0.0
120
0.0
130
0.0
111
1.0
121
0.0
131
0.0
112
0.0
122
1.0
132
0.0
 79
     0
146
0.0
  0
ENDBLK
  5
1B4
330
1B1
100
AcDbEntity
  8
0
100
AcDbBlockEnd
  0
BLOCK
  5
21E
330
21C
100
AcDbEntity
  8
0
100
AcDbBlockBegin
  2
*Paper_Space7
 70
     0
 10
0.0
 20
0.0
 30
0.0
  3
*Paper_Space7
  1

  0
SPLINE
  5
230
330
21C
100
AcDbEntity
  8
0
  6
Continuous
 62
     7
370
    25
100
AcDbSpline
210
0.0
220
0.0
230
1.0
 70
     8
 71
     3
 72
    10
 73
     6
 74
     0
 42
0.000000001
 43
0.00000001
 40
0.0
 40
0.0
 40
0.0
 40
0.0
 40
0.5
 40
0.5
 40
1.0
 40
1.0
 40
1.0
 40
1.0
 10
63.58759411200206
 20
-0.383624323546345
 30
0.0
 10
60.89456463405543
 20
-2.700364830840076
 30
0.0
 10
58.20174759097065
 20
-4.987111200347402
 30
0.0
 10
52.81674889304163
 20
-9.470892098914453
 30
0.0
 10
50.12457548402597
 20
-11.66676238159989
 30
0.0
 10
47.43275997323826
 20
-13.81210023910659
 30
0.0
  0
SPLINE
  5
233
330
21C
100
AcDbEntity
  8
0
  6
Continuous
 62
     7
370
    25
100
AcDbSpline
210
0.0
220
0.0
230
1.0
 70
     8
 71
     3
 72
    10
 73
     6
 74
     0
 42
0.000000001
 43
0.00000001
 40
0.0
 40
0.0
 40
0.0
 40
0.0
 40
0.5
 40
0.5
 40
1.0
 40
1.0
 40
1.0
 40
1.0
 10
-102.2335355026244
 20
5.044080583722441
 30
0.0
 10
-99.5417199918367
 20
7.189418441229132
 30
0.0
 10
-96.84954658282103
 20
9.38528872391459
 30
0.0
 10
-91.46454788489203
 20
13.86906962248162
 30
0.0
 10
-88.7717308418074
 20
16.15581599198897
 30
0.0
 10
-86.07870136386076
 20
18.47255649928269
 30
0.0
  0
SPLINE
  5
234
330
21C
100
AcDbEntity
  8
0
  6
Continuous
 62
     7
370
    25
100
AcDbSpline
210
0.0
220
0.0
230
1.0
 70
     8
 71
     3
 72
    20
 73
    16
 74
     0
 42
0.000000001
 43
0.00000001
 40
0.0
 40
0.0
 40
0.0
 40
0.0
 40
0.1249999999999988
 40
0.1249999999999988
 40
0.2499999999999976
 40
0.2499999999999976
 40
0.3749999999999963
 40
0.3749999999999963
 40
0.4999999999999951
 40
0.4999999999999951
 40
0.6249999999999939
 40
0.6249999999999939
 40
0.7499999999999927
 40
0.7499999999999927
 40
1.0
 40
1.0
 40
1.0
 40
1.0
 10
-100.7788831120945
 20
4.010842547766673
 30
0.0
 10
-100.9332967491151
 20
4.032678272047088
 30
0.0
 10
-101.0794144669832
 20
4.058681210621764
 30
0.0
 10
-101.3557324721901
 20
4.11869242185588
 30
0.0
 10
-101.4872082450983
 20
4.153135295558084
 30
0.0
 10
-101.7259861020607
 20
4.228302254351848
 30
0.0
 10
-101.8331390763011
 20
4.268797175537569
 30
0.0
 10
-102.023192438676
 20
4.355573218241791
 30
0.0
 10
-102.1062216482551
 20
4.402191018139614
 30
0.0
 10
-102.2404367337704
 20
4.497388590496552
 30
0.0
 10
-102.2927752310082
 20
4.546392513994798
 30
0.0
 10
-102.367215504602
 20
4.647289792288636
 30
0.0
 10
-102.3884839382513
 20
4.698433579132109
 30
0.0
 10
-102.4041615617047
 20
4.8499858039204
 30
0.0
 10
-102.3502145482156
 20
4.951089079408211
 30
0.0
 10
-102.2335355026244
 20
5.044080583722434
 30
0.0
  0
SPLINE
  5
235
330
21C
100
AcDbEntity
  8
0
  6
Continuous
 62
     7
370
    25
100
AcDbSpline
210
0.0
220
0.0
230
1.0
 70
     8
 71
     3
 72
    22
 73
    18
 74
     0
 42
0.000000001
 43
0.00000001
 40
0.0
 40
0.0
 40
0.0
 40
0.0
 40
0.125
 40
0.125
 40
0.25
 40
0.25
 40
0.375
 40
0.375
 40
0.5
 40
0.5
 40
0.625
 40
0.625
 40
0.75
 40
0.75
 40
0.875
 40
0.875
 40
1.0
 40
1.0
 40
1.0
 40
1.0
 10
44.2103406301475
 20
-14.25608262434894
 30
0.0
 10
38.16939842044766
 20
-13.58816149790009
 30
0.0
 10
32.12849955947585
 20
-12.9235513902358
 30
0.0
 10
20.04675003647211
 20
-11.59801265768003
 30
0.0
 10
14.00590368259216
 20
-10.93741309370172
 30
0.0
 10
1.92411386812303
 20
-9.608796859108937
 30
0.0
 10
-4.116820352488195
 20
-8.94148594716149
 30
0.0
 10
-16.19925749767815
 20
-7.563425950912351
 30
0.0
 10
-22.24080223195148
 20
-6.849600841426877
 30
0.0
 10
-34.32512693865582
 20
-5.327131885811135
 30
0.0
 10
-40.36679844503212
 20
-4.518625816497722
 30
0.0
 10
-52.44962790534194
 20
-2.852155409842176
 30
0.0
 10
-58.49081774221801
 20
-1.997259627756105
 30
0.0
 10
-70.57313513171398
 20
-0.2814775831530766
 30
0.0
 10
-76.61423513826436
 20
0.580109425276188
 30
0.0
 10
-88.69650380983398
 20
2.298959561715646
 30
0.0
 10
-94.73766726766588
 20
3.156550620948061
 30
0.0
 10
-100.7788831120945
 20
4.010842547766694
 30
0.0
  0
SPLINE
  5
236
330
21C
100
AcDbEntity
  8
0
  6
Continuous
 62
     7
370
    25
100
AcDbSpline
210
0.0
220
0.0
230
1.0
 70
     8
 71
     3
 72
    20
 73
    16
 74
     0
 42
0.000000001
 43
0.00000001
 40
0.0
 40
0.0
 40
0.0
 40
0.0
 40
0.125
 40
0.125
 40
0.25
 40
0.25
 40
0.375
 40
0.375
 40
0.5
 40
0.5
 40
0.625
 40
0.625
 40
0.75
 40
0.75
 40
1.0
 40
1.0
 40
1.0
 40
1.0
 10
47.43275997323827
 20
-13.8121002391066
 30
0.0
 10
47.37442010677098
 20
-13.85859626516506
 30
0.0
 10
47.30191908558379
 20
-13.90262634930463
 30
0.0
 10
47.12974469993539
 20
-13.98595138598762
 30
0.0
 10
47.02877090560957
 20
-14.02563106539243
 30
0.0
 10
46.80457616963954
 20
-14.09777990622361
 30
0.0
 10
46.68209899888161
 20
-14.13019745885542
 30
0.0
 10
46.41656921780972
 20
-14.18779175798175
 30
0.0
 10
46.27241532559402
 20
-14.21301418877611
 30
0.0
 10
45.97531630768009
 20
-14.25392559582225
 30
0.0
 10
45.8211022522522
 20
-14.26996192477439
 30
0.0
 10
45.50107714178382
 20
-14.29300224994605
 30
0.0
 10
45.33754317023757
 20
-14.29975463172847
 30
0.0
 10
44.84953862377987
 20
-14.3055947260553
 30
0.0
 10
44.51917074815557
 20
-14.2902286487837
 30
0.0
 10
44.21034063014748
 20
-14.25608262434895
 30
0.0
  0
SPLINE
  5
237
330
21C
100
AcDbEntity
  8
0
  6
Continuous
 62
     7
370
    25
100
AcDbSpline
210
0.0
220
0.0
230
1.0
 70
     8
 71
     3
 72
    10
 73
     6
 74
     0
 42
0.000000001
 43
0.00000001
 40
0.0
 40
0.0
 40
0.0
 40
0.0
 40
0.5
 40
0.5
 40
1.0
 40
1.0
 40
1.0
 40
1.0
 10
86.07870136386023
 20
19.45166784323406
 30
0.0
 10
82.33022679458172
 20
16.08264885616549
 30
0.0
 10
78.58172517281537
 20
12.7340251120081
 30
0.0
 10
71.08460866579105
 20
6.122189562379532
 30
0.0
 10
67.33607554883017
 20
2.859050301186159
 30
0.0
 10
63.58759411200204
 20
-0.3836243235463399
 30
0.0
  0
SPLINE
  5
23A
330
21C
100
AcDbEntity
  8
0
  6
Continuous
 62
     7
370
    25
100
AcDbSpline
210
0.0
220
0.0
230
1.0
 70
     8
 71
     3
 72
    10
 73
     6
 74
     0
 42
0.000000001
 43
0.00000001
 40
0.0
 40
0.0
 40
0.0
 40
0.0
 40
0.5
 40
0.5
 40
1.0
 40
1.0
 40
1.0
 40
1.0
 10
-86.07870136386067
 20
18.47255649928269
 30
0.0
 10
-82.33022679458213
 20
21.71522518314842
 30
0.0
 10
-78.58172517281564
 20
24.97833682597651
 30
0.0
 10
-71.08460866579132
 20
31.59017182844422
 30
0.0
 10
-67.33607554883045
 20
34.9388235066424
 30
0.0
 10
-63.58759411200231
 20
38.30784866606309
 30
0.0
  0
SPLINE
  5
23B
330
21C
100
AcDbEntity
  8
0
  6
Continuous
 62
     7
370
    25
100
AcDbSpline
210
0.0
220
0.0
230
1.0
 70
     8
 71
     3
 72
    10
 73
     6
 74
     0
 42
0.000000001
 43
0.00000001
 40
0.0
 40
0.0
 40
0.0
 40
0.0
 40
0.5
 40
0.5
 40
1.0
 40
1.0
 40
1.0
 40
1.0
 10
102.233535502624
 20
34.51764099680817
 30
0.0
 10
99.5417199918363
 20
31.91506257632604
 30
0.0
 10
96.84954658282061
 20
29.36238530788541
 30
0.0
 10
91.4645478848916
 20
24.34792129613768
 30
0.0
 10
88.77173084180684
 20
21.8849848507308
 30
0.0
 10
86.0787013638602
 20
19.45166784323407
 30
0.0
  0
SPLINE
  5
23C
330
21C
100
AcDbEntity
  8
0
  6
Continuous
 62
     7
370
    25
100
AcDbSpline
210
0.0
220
0.0
230
1.0
 70
     8
 71
     3
 72
    20
 73
    16
 74
     0
 42
0.000000001
 43
0.00000001
 40
0.0
 40
0.0
 40
0.0
 40
0.0
 40
0.1249999999999988
 40
0.1249999999999988
 40
0.2499999999999976
 40
0.2499999999999976
 40
0.3749999999999963
 40
0.3749999999999963
 40
0.4999999999999951
 40
0.4999999999999951
 40
0.6249999999999939
 40
0.6249999999999939
 40
0.7499999999999927
 40
0.7499999999999927
 40
1.0
 40
1.0
 40
1.0
 40
1.0
 10
100.778883112094
 20
35.63268252240177
 30
0.0
 10
100.9332967491147
 20
35.61560966740702
 30
0.0
 10
101.0794144669829
 20
35.59325628071627
 30
0.0
 10
101.3557324721897
 20
35.53842752225552
 30
0.0
 10
101.4872082450979
 20
35.5055165378787
 30
0.0
 10
101.7259861020602
 20
35.43116083256557
 30
0.0
 10
101.8331390763007
 20
35.38997350842872
 30
0.0
 10
102.0231924386755
 20
35.29966724756579
 30
0.0
 10
102.1062216482546
 20
35.25016668400177
 30
0.0
 10
102.2404367337699
 20
35.14728697285699
 30
0.0
 10
102.2927752310079
 20
35.09347777237935
 30
0.0
 10
102.3672155046016
 20
34.98102115408398
 30
0.0
 10
102.3884839382509
 20
34.92319537082872
 30
0.0
 10
102.4041615617044
 20
34.74950246334368
 30
0.0
 10
102.3502145482152
 20
34.6304519843967
 30
0.0
 10
102.233535502624
 20
34.51764099680817
 30
0.0
  0
SPLINE
  5
23D
330
21C
100
AcDbEntity
  8
0
  6
Continuous
 62
     7
370
    25
100
AcDbSpline
210
0.0
220
0.0
230
1.0
 70
     8
 71
     3
 72
    22
 73
    18
 74
     0
 42
0.000000001
 43
0.00000001
 40
0.0
 40
0.0
 40
0.0
 40
0.0
 40
0.125
 40
0.125
 40
0.25
 40
0.25
 40
0.375
 40
0.375
 40
0.5
 40
0.5
 40
0.625
 40
0.625
 40
0.75
 40
0.75
 40
0.875
 40
0.875
 40
1.0
 40
1.0
 40
1.0
 40
1.0
 10
-44.21034063014788
 20
53.89960769451739
 30
0.0
 10
-38.16939842044805
 20
53.04535446254857
 30
0.0
 10
-32.12849955947625
 20
52.18780113464796
 30
0.0
 10
-20.04675003647251
 20
50.46902514106516
 30
0.0
 10
-14.00590368259255
 20
49.60747450002208
 30
0.0
 10
-1.924113868123432
 20
47.89176585598132
 30
0.0
 10
4.116820352487785
 20
47.03690442257221
 30
0.0
 10
16.19925749767775
 20
45.37047642817806
 30
0.0
 10
22.24080223195108
 20
44.56197535732399
 30
0.0
 10
34.32512693865543
 20
43.0394807015013
 30
0.0
 10
40.36679844503173
 20
42.3256286469078
 30
0.0
 10
52.44962790534155
 20
40.94751220880175
 30
0.0
 10
58.49081774221759
 20
40.28017123628673
 30
0.0
 10
70.57313513171354
 20
38.95149546584495
 30
0.0
 10
76.61423513826395
 20
38.29086835478759
 30
0.0
 10
88.69650380983359
 20
36.96527295194581
 30
0.0
 10
94.73766726766543
 20
36.30063390347149
 30
0.0
 10
100.778883112094
 20
35.63268252240177
 30
0.0
  0
SPLINE
  5
23E
330
21C
100
AcDbEntity
  8
0
  6
Continuous
 62
     7
370
    25
100
AcDbSpline
210
0.0
220
0.0
230
1.0
 70
     8
 71
     3
 72
    20
 73
    16
 74
     0
 42
0.000000001
 43
0.00000001
 40
0.0
 40
0.0
 40
0.0
 40
0.0
 40
0.125
 40
0.125
 40
0.25
 40
0.25
 40
0.375
 40
0.375
 40
0.5
 40
0.5
 40
0.625
 40
0.625
 40
0.75
 40
0.75
 40
1.0
 40
1.0
 40
1.0
 40
1.0
 10
-47.43275997323865
 20
53.37382181963718
 30
0.0
 10
-47.37442010677137
 20
53.43022764571001
 30
0.0
 10
-47.30191908558429
 20
53.48357415796936
 30
0.0
 10
-47.12974469993588
 20
53.58440040249813
 30
0.0
 10
-47.02877090560997
 20
53.63234375998717
 30
0.0
 10
-46.80457616963991
 20
53.71936220876325
 30
0.0
 10
-46.682098998882
 20
53.75837721869642
 30
0.0
 10
-46.41656921781005
 20
53.82749068580745
 30
0.0
 10
-46.27241532559437
 20
53.85764003264219
 30
0.0
 10
-45.97531630768047
 20
53.90624844258537
 30
0.0
 10
-45.82110225225256
 20
53.92512591664601
 30
0.0
 10
-45.50107714178417
 20
53.95175562985095
 30
0.0
 10
-45.33754317023799
 20
53.95921063098131
 30
0.0
 10
-44.84953862378025
 20
53.96387146824011
 30
0.0
 10
-44.51917074815604
 20
53.94327954524525
 30
0.0
 10
-44.2103406301479
 20
53.89960769451738
 30
0.0
  0
SPLINE
  5
23F
330
21C
100
AcDbEntity
  8
0
  6
Continuous
 62
     7
370
    25
100
AcDbSpline
210
0.0
220
0.0
230
1.0
 70
     8
 71
     3
 72
    10
 73
     6
 74
     0
 42
0.000000001
 43
0.00000001
 40
0.0
 40
0.0
 40
0.0
 40
0.0
 40
0.5
 40
0.5
 40
1.0
 40
1.0
 40
1.0
 40
1.0
 10
-63.58759411200238
 20
38.3078486660631
 30
0.0
 10
-60.89456463405574
 20
40.74116567355982
 30
0.0
 10
-58.20174759097092
 20
43.20410211896671
 30
0.0
 10
-52.81674889304194
 20
48.21856613071442
 30
0.0
 10
-50.12457548402632
 20
50.77124339915508
 30
0.0
 10
-47.43275997323864
 20
53.37382181963719
 30
0.0
  0
SPLINE
  5
240
330
21C
100
AcDbEntity
  8
0
  6
Continuous
 62
     7
370
    25
100
AcDbSpline
210
0.0
220
0.0
230
1.0
 70
     8
 71
     3
 72
     9
 73
     5
 74
     0
 42
0.000000001
 43
0.00000001
 40
0.0
 40
0.0
 40
0.0
 40
0.0
 40
0.982236716862172
 40
1.0
 40
1.0
 40
1.0
 40
1.0
 10
73.0142098755333
 20
7.83327471815894
 30
0.0
 10
72.11489284091395
 20
7.654815859717353
 30
0.0
 10
71.19931208611149
 20
7.473129657829397
 30
0.0
 10
70.2837771577073
 20
7.290443351327418
 30
0.0
 10
70.2675142515515
 20
7.28719824273962
 30
0.0
  0
SPLINE
  5
241
330
21C
100
AcDbEntity
  8
0
  6
Continuous
 62
     7
370
    25
100
AcDbSpline
210
0.0
220
0.0
230
1.0
 70
     8
 71
     3
 72
     9
 73
     5
 74
     0
 42
0.000000001
 43
0.00000001
 40
0.0
 40
0.0
 40
0.0
 40
0.0
 40
0.2846698975118029
 40
1.0
 40
1.0
 40
1.0
 40
1.0
 10
64.64962434315285
 20
0.5384411398730807
 30
0.0
 10
64.62514141117815
 20
0.6630052297871212
 30
0.0
 10
64.53913677145778
 20
1.100579033701097
 30
0.0
 10
64.27544380447804
 20
1.52950869599062
 30
0.0
 10
64.086816287383
 20
1.836334995276414
 30
0.0
  0
LWPOLYLINE
  5
242
330
21C
100
AcDbEntity
  8
0
  6
Continuous
 62
     7
370
    25
100
AcDbPolyline
 90
        3
 70
   128
 43
0.0
 10
61.2218504987
 20
-0.6903273353
 10
62.0212651679
 20
-1.4857108719
 10
62.1831160531
 20
-1.6603066032
  0
LWPOLYLINE
  5
246
330
21C
100
AcDbEntity
  8
0
  6
Continuous
 62
     7
370
    25
100
AcDbPolyline
 90
        9
 70
   128
 43
0.0
 10
88.459974654
 20
30.8739125631
 10
88.7149802561
 20
31.189385422
 10
88.7804488922
 20
31.5153796
 10
88.6538646392
 20
31.8393673238
 10
88.340092059
 20
32.1488979267
 10
87.8511892559
 20
32.4320763213
 10
87.2059444905
 20
32.6780201208
 10
86.4291541572
 20
32.8772778427
 10
85.5506698729
 20
33.0221921246
  0
LWPOLYLINE
  5
24A
330
21C
100
AcDbEntity
  8
0
  6
Continuous
 62
     7
370
    25
100
AcDbPolyline
 90
        9
 70
   128
 43
0.0
 10
-88.459974654
 20
6.8384491013
 10
-88.7149802561
 20
6.5229762424
 10
-88.7804488922
 20
6.1969820644
 10
-88.6538646392
 20
5.8729943406
 10
-88.340092059
 20
5.5634637377
 10
-87.8511892559
 20
5.2802853431
 10
-87.2059444905
 20
5.0343415436
 10
-86.4291541572
 20
4.8350838217
 10
-85.5506698729
 20
4.6901695398
  0
LWPOLYLINE
  5
24D
330
21C
100
AcDbEntity
  8
0
  6
Continuous
 62
     7
370
    25
100
AcDbPolyline
 90
        3
 70
   128
 43
0.0
 10
88.459974654
 20
23.3314402302
 10
88.7149802561
 20
23.6469130891
 10
88.7829029204
 20
23.9206958809
  0
LINE
  5
256
330
21C
100
AcDbEntity
  8
0
  6
Continuous
 62
     7
370
    25
100
AcDbLine
 10
-88.7829029204
 20
6.2491934506
 30
0.0
 11
-88.7829029204
 21
2.3063709315
 31
0.0
  0
LINE
  5
257
330
21C
100
AcDbEntity
  8
0
  6
Continuous
 62
     7
370
    25
100
AcDbLine
 10
88.7829029204
 20
23.9206958809
 30
0.0
 11
88.7829029204
 21
31.4631682138
 31
0.0
  0
LINE
  5
258
330
21C
100
AcDbEntity
  8
0
  6
Continuous
 62
     7
370
    25
100
AcDbLine
 10
87.7829029204
 20
21.0410035602
 30
0.0
 11
87.7829029204
 21
22.7343190879
 31
0.0
  0
LINE
  5
259
330
21C
100
AcDbEntity
  8
0
  6
Continuous
 62
     7
370
    25
100
AcDbLine
 10
918.8458813948
 20
41.9565295936
 30
0.0
 11
-671.3585080363
 21
242.3034508361
 31
0.0
  0
LINE
  5
25A
330
21C
100
AcDbEntity
  8
0
  6
Continuous
 62
     7
370
    25
100
AcDbLine
 10
671.3585080363
 20
-176.3068179234
 30
0.0
 11
918.8458813948
 21
41.9565295936
 31
0.0
  0
LINE
  5
25B
330
21C
100
AcDbEntity
  8
0
  6
Continuous
 62
     7
370
    25
100
AcDbLine
 10
-918.8458813948
 20
24.0401033191
 30
0.0
 11
671.3585080363
 21
-176.3068179234
 31
0.0
  0
LINE
  5
25C
330
21C
100
AcDbEntity
  8
0
  6
Continuous
 62
     7
370
    25
100
AcDbLine
 10
-671.3585080363
 20
242.3034508361
 30
0.0
 11
-918.8458813948
 21
24.0401033191
 31
0.0
  0
LINE
  5
25D
330
21C
100
AcDbEntity
  8
0
  6
Continuous
 62
     7
370
    25
100
AcDbLine
 10
-659.721288912
 20
233.71033259
 30
0.0
 11
-893.0665266501
 21
27.9191763596
 31
0.0
  0
LINE
  5
25E
330
21C
100
AcDbEntity
  8
0
  6
Continuous
 62
     7
370
    25
100
AcDbLine
 10
-893.0665266501
 20
27.9191763596
 30
0.0
 11
659.721288912
 21
-167.7136996772
 31
0.0
  0
LINE
  5
25F
330
21C
100
AcDbEntity
  8
0
  6
Continuous
 62
     7
370
    25
100
AcDbLine
 10
659.721288912
 20
-167.7136996772
 30
0.0
 11
893.0665266501
 21
38.0774565531
 31
0.0
  0
LINE
  5
260
330
21C
100
AcDbEntity
  8
0
  6
Continuous
 62
     7
370
    25
100
AcDbLine
 10
893.0665266501
 20
38.0774565531
 30
0.0
 11
-659.721288912
 21
233.71033259
 31
0.0
  0
LINE
  5
261
330
21C
100
AcDbEntity
  8
0
  6
Continuous
 62
     7
370
    25
100
AcDbLine
 10
-918.8458813948
 20
24.0401033191
 30
0.0
 11
-918.8458813948
 21
-8.9582131372
 31
0.0
  0
LINE
  5
262
330
21C
100
AcDbEntity
  8
0
  6
Continuous
 62
     7
370
    25
100
AcDbLine
 10
671.3585080363
 20
-176.3068179234
 30
0.0
 11
671.3585080363
 21
-209.3051343798
 31
0.0
  0
LINE
  5
263
330
21C
100
AcDbEntity
  8
0
  6
Continuous
 62
     7
370
    25
100
AcDbLine
 10
-918.8458813948
 20
-8.9582131372
 30
0.0
 11
671.3585080363
 21
-209.3051343798
 31
0.0
  0
LINE
  5
264
330
21C
100
AcDbEntity
  8
0
  6
Continuous
 62
     7
370
    25
100
AcDbLine
 10
918.8458813948
 20
41.9565295936
 30
0.0
 11
918.8458813948
 21
8.9582131372
 31
0.0
  0
LINE
  5
265
330
21C
100
AcDbEntity
  8
0
  6
Continuous
 62
     7
370
    25
100
AcDbLine
 10
671.3585080363
 20
-209.3051343798
 30
0.0
 11
918.8458813948
 21
8.9582131372
 31
0.0
  0
LINE
  5
266
330
21C
100
AcDbEntity
  8
0
  6
Continuous
 62
     7
370
    25
100
AcDbLine
 10
659.721288912
 20
-167.7136996772
 30
0.0
 11
63.587594112
 21
-0.3836243235
 31
0.0
  0
LINE
  5
267
330
21C
100
AcDbEntity
  8
0
  6
Continuous
 62
     7
370
    25
100
AcDbLine
 10
-893.0665266501
 20
27.9191763596
 30
0.0
 11
-86.0787013639
 21
18.4725564993
 31
0.0
  0
LINE
  5
268
330
21C
100
AcDbEntity
  8
0
  6
Continuous
 62
     7
370
    25
100
AcDbLine
 10
893.0665266501
 20
38.0774565531
 30
0.0
 11
86.0787013639
 21
19.4516678432
 31
0.0
  0
LINE
  5
269
330
21C
100
AcDbEntity
  8
0
  6
Continuous
 62
     7
370
    25
100
AcDbLine
 10
-63.587594112
 20
38.3078486661
 30
0.0
 11
-659.721288912
 21
233.71033259
 31
0.0
  0
LINE
  5
26A
330
21C
100
AcDbEntity
  8
0
  6
Continuous
 62
     7
370
    25
100
AcDbLine
 10
-42.4980338874
 20
47.3730707831
 30
0.0
 11
-88.459974654
 21
6.8384491013
 31
0.0
  0
LINE
  5
26B
330
21C
100
AcDbEntity
  8
0
  6
Continuous
 62
     7
370
    25
100
AcDbLine
 10
85.5506698729
 20
33.0221921246
 30
0.0
 11
-36.0531952012
 21
48.3428390432
 31
0.0
  0
LINE
  5
26C
330
21C
100
AcDbEntity
  8
0
  6
Continuous
 62
     7
370
    25
100
AcDbLine
 10
42.4980338874
 20
-9.6607091187
 30
0.0
 11
88.459974654
 21
30.8739125631
 31
0.0
  0
LINE
  5
26D
330
21C
100
AcDbEntity
  8
0
  6
Continuous
 62
     7
370
    25
100
AcDbLine
 10
-85.5506698729
 20
4.6901695398
 30
0.0
 11
36.0531952012
 21
-10.6304773788
 31
0.0
  0
LINE
  5
26E
330
21C
100
AcDbEntity
  8
0
  6
Continuous
 62
     7
370
    25
100
AcDbLine
 10
88.459974654
 20
30.8739125631
 30
0.0
 11
88.459974654
 21
23.3314402302
 31
0.0
  0
LINE
  5
26F
330
21C
100
AcDbEntity
  8
0
  6
Continuous
 62
     7
370
    25
100
AcDbLine
 10
45.8389054243
 20
-14.2568097018
 30
0.0
 11
88.459974654
 21
23.3314402302
 31
0.0
  0
LINE
  5
270
330
21C
100
AcDbEntity
  8
0
  6
Continuous
 62
    60
370
    25
100
AcDbLine
 10
-102.2335355026
 20
4.5268154251
 30
0.0
 11
-102.2335355026
 21
5.0440805837
 31
0.0
  0
LINE
  5
271
330
21C
100
AcDbEntity
  8
0
  6
Continuous
 62
    60
370
    25
100
AcDbLine
 10
-47.4327599732
 20
43.0210514458
 30
0.0
 11
-47.4327599732
 21
53.3738218196
 31
0.0
  0
LINE
  5
272
330
21C
100
AcDbEntity
  8
0
  6
Continuous
 62
    60
370
    25
100
AcDbLine
 10
100.7788831121
 20
33.1610344433
 30
0.0
 11
100.7788831121
 21
35.6326825224
 31
0.0
  0
LINE
  5
273
330
21C
100
AcDbEntity
  8
0
  6
Continuous
 62
    60
370
    25
100
AcDbLine
 10
-44.2103406301
 20
45.8629581798
 30
0.0
 11
-44.2103406301
 21
53.8996076945
 31
0.0
  0
LINE
  5
274
330
21C
100
AcDbEntity
  8
0
  6
Continuous
 62
    60
370
    25
100
AcDbLine
 10
36.0531952012
 20
-10.6304773788
 30
0.0
 11
36.0531952012
 21
-13.3596989571
 31
0.0
  0
LINE
  5
275
330
21C
100
AcDbEntity
  8
0
  6
Continuous
 62
    60
370
    25
100
AcDbLine
 10
42.4980338874
 20
-9.6607091187
 30
0.0
 11
42.4980338874
 21
-14.0679182952
 31
0.0
  0
LINE
  5
276
330
21C
100
AcDbEntity
  8
0
  6
Continuous
 62
    60
370
    25
100
AcDbLine
 10
-85.5506698729
 20
4.6901695398
 30
0.0
 11
-85.5506698729
 21
1.8471129636
 31
0.0
  0
LINE
  5
277
330
21C
100
AcDbEntity
  8
0
  6
Continuous
 62
    60
370
    25
100
AcDbLine
 10
85.4286542317
 20
20.658066903
 30
0.0
 11
85.4286542317
 21
18.8722566815
 31
0.0
  0
ARC
  5
278
330
21C
100
AcDbEntity
  8
0
  6
Continuous
 62
     7
370
    25
100
AcDbCircle
 10
-37.8934071433
 20
38.6721482657
 30
0.0
 40
9.844218613218702
100
AcDbArc
 50
79.2261330329
 51
117.8883001309
  0
ARC
  5
279
330
21C
100
AcDbEntity
  8
0
  6
Continuous
 62
     7
370
    25
100
AcDbCircle
 10
37.8934071433
 20
-0.9597866013
 30
0.0
 40
9.844218613218574
100
AcDbArc
 50
259.2261330329
 51
297.8883001309
  0
VIEWPORT
  5
28A
330
21C
100
AcDbEntity
  8
0
100
AcDbViewport
 10
0.0
 20
0.0
 30
0.0
 40
205.6
 41
156.0
 68
     1
 69
     1
 12
0.0
 22
0.0
 13
0.0
 23
0.0
 14
10.0
 24
10.0
 15
10.0
 25
10.0
 16
0.0
 26
0.0
 36
1.0
 17
0.0
 27
0.0
 37
0.0
 42
50.0
 43
0.0
 44
0.0
 45
1315.6809338521
 50
0.0
 51
0.0
 72
   100
 90
   557152
  1

281
     0
 71
     1
 74
     0
110
0.0
120
0.0
130
0.0
111
1.0
121
0.0
131
0.0
112
0.0
122
1.0
132
0.0
 79
     0
146
0.0
  0
ENDBLK
  5
21F
330
21C
100
AcDbEntity
  8
0
100
AcDbBlockEnd
  0
ENDSEC
  0
SECTION
  2
ENTITIES
  0
SPLINE
  5
73
330
1F
100
AcDbEntity
  8
0
  6
Continuous
 62
     7
370
    25
100
AcDbSpline
210
0.0
220
0.0
230
1.0
 70
    24
 71
     3
 72
    10
 73
     6
 74
     0
 42
0.000000001
 43
0.00000001
 40
0.0
 40
0.0
 40
0.0
 40
0.0
 40
0.5
 40
0.5
 40
1.0
 40
1.0
 40
1.0
 40
1.0
 10
80.00000000000013
 20
-31.80722891566273
 30
0.0
 10
80.00000000000014
 20
-39.42426654057549
 30
0.0
 10
80.00000000000011
 20
-47.04070330896253
 30
0.0
 10
80.00000000000009
 20
-62.27177969640187
 30
0.0
 10
80.00000000000009
 20
-69.88639599272905
 30
0.0
 10
80.00000000000007
 20
-77.5000000000001
 30
0.0
  0
SPLINE
  5
77
330
1F
100
AcDbEntity
  8
0
  6
Continuous
 62
     7
370
    25
100
AcDbSpline
210
0.0
220
0.0
230
1.0
 70
    24
 71
     3
 72
    10
 73
     6
 74
     0
 42
0.000000001
 43
0.00000001
 40
0.0
 40
0.0
 40
0.0
 40
0.0
 40
0.5
 40
0.5
 40
1.0
 40
1.0
 40
1.0
 40
1.0
 10
-80.0
 20
-77.50000000000013
 30
0.0
 10
-80.0
 20
-69.88639599272908
 30
0.0
 10
-80.0
 20
-62.27177969640191
 30
0.0
 10
-79.99999999999997
 20
-47.04070330896254
 30
0.0
 10
-80.0000000000001
 20
-39.42426654057552
 30
0.0
 10
-80.0000000000001
 20
-31.80722891566277
 30
0.0
  0
SPLINE
  5
78
330
1F
100
AcDbEntity
  8
0
  6
Continuous
 62
     7
370
    25
100
AcDbSpline
210
0.0
220
0.0
230
1.0
 70
     8
 71
     3
 72
    20
 73
    16
 74
     0
 42
0.000000001
 43
0.00000001
 40
0.0
 40
0.0
 40
0.0
 40
0.0
 40
0.1249999999999988
 40
0.1249999999999988
 40
0.2499999999999976
 40
0.2499999999999976
 40
0.3749999999999963
 40
0.3749999999999963
 40
0.4999999999999951
 40
0.4999999999999951
 40
0.6249999999999939
 40
0.6249999999999939
 40
0.7499999999999927
 40
0.7499999999999927
 40
1.0
 40
1.0
 40
1.0
 40
1.0
 10
-77.5
 20
-80.00000000000016
 30
0.0
 10
-77.66507512158802
 20
-80.00000000000017
 30
0.0
 10
-77.82740054532398
 20
-79.98381061393798
 30
0.0
 10
-78.14677546264507
 20
-79.92036934865519
 30
0.0
 10
-78.30547956421046
 20
-79.87234740618305
 30
0.0
 10
-78.60813216459206
 20
-79.7469696592924
 30
0.0
 10
-78.75168314616869
 20
-79.67024384039028
 30
0.0
 10
-79.02337386123844
 20
-79.48896986001553
 30
0.0
 10
-79.15201503502666
 20
-79.3834593742929
 30
0.0
 10
-79.38260809433766
 20
-79.15298507364709
 30
0.0
 10
-79.48609116840912
 20
-79.02723021996763
 30
0.0
 10
-79.66887165860695
 20
-78.7541873873176
 30
0.0
 10
-79.74655629804509
 20
-78.60880936526873
 30
0.0
 10
-79.93370865088126
 20
-78.15799379769128
 30
0.0
 10
-79.99999999999999
 20
-77.83001817751546
 30
0.0
 10
-79.99999999999996
 20
-77.50000000000013
 30
0.0
  0
SPLINE
  5
79
330
1F
100
AcDbEntity
  8
0
  6
Continuous
 62
     7
370
    25
100
AcDbSpline
210
0.0
220
0.0
230
1.0
 70
    24
 71
     3
 72
    22
 73
    18
 74
     0
 42
0.000000001
 43
0.00000001
 40
0.0
 40
0.0
 40
0.0
 40
0.0
 40
0.125
 40
0.125
 40
0.25
 40
0.25
 40
0.375
 40
0.375
 40
0.5
 40
0.5
 40
0.625
 40
0.625
 40
0.75
 40
0.75
 40
0.875
 40
0.875
 40
1.0
 40
1.0
 40
1.0
 40
1.0
 10
77.50000000000007
 20
-80.00000000000011
 30
0.0
 10
71.04196113106946
 20
-80.00000000000011
 30
0.0
 10
64.58396860387842
 20
-80.00000000000013
 30
0.0
 10
51.66803507633041
 20
-80.00000000000011
 30
0.0
 10
45.21009868158168
 20
-80.00000000000013
 30
0.0
 10
32.29412208064537
 20
-80.00000000000013
 30
0.0
 10
25.83609175240975
 20
-80.00000000000016
 30
0.0
 10
12.91942312582395
 20
-80.00000000000016
 30
0.0
 10
6.46074013103018
 20
-80.00000000000014
 30
0.0
 10
-6.457946383693622
 20
-80.00000000000014
 30
0.0
 10
-12.91676490356611
 20
-80.00000000000013
 30
0.0
 10
-25.8338529326565
 20
-80.00000000000013
 30
0.0
 10
-32.2921565261737
 20
-80.00000000000016
 30
0.0
 10
-45.2086971285375
 20
-80.00000000000016
 30
0.0
 10
-51.66690468939708
 20
-80.00000000000014
 30
0.0
 10
-64.58339321010688
 20
-80.00000000000013
 30
0.0
 10
-71.04166860323967
 20
-80.00000000000013
 30
0.0
 10
-77.50000000000004
 20
-80.00000000000011
 30
0.0
  0
SPLINE
  5
7A
330
1F
100
AcDbEntity
  8
0
  6
Continuous
 62
     7
370
    25
100
AcDbSpline
210
0.0
220
0.0
230
1.0
 70
     8
 71
     3
 72
    20
 73
    16
 74
     0
 42
0.000000001
 43
0.00000001
 40
0.0
 40
0.0
 40
0.0
 40
0.0
 40
0.125
 40
0.125
 40
0.25
 40
0.25
 40
0.375
 40
0.375
 40
0.5
 40
0.5
 40
0.625
 40
0.625
 40
0.75
 40
0.75
 40
1.0
 40
1.0
 40
1.0
 40
1.0
 10
80.00000000000009
 20
-77.50000000000013
 30
0.0
 10
80.00000000000009
 20
-77.66501006080814
 30
0.0
 10
79.98382324336178
 20
-77.82727424065705
 30
0.0
 10
79.92042981767047
 20
-78.14653370414351
 30
0.0
 10
79.87244661449716
 20
-78.30517910023063
 30
0.0
 10
79.74714284437977
 20
-78.60777495866272
 30
0.0
 10
79.67045877874737
 20
-78.75130574343821
 30
0.0
 10
79.48927535260235
 20
-79.0229710914301
 30
0.0
 10
79.38379705327384
 20
-79.15163052159383
 30
0.0
 10
79.1533614217527
 20
-79.38227806841694
 30
0.0
 10
79.02762322198959
 20
-79.48578927894498
 30
0.0
 10
78.75460865806414
 20
-79.66862834156642
 30
0.0
 10
78.60917123750346
 20
-79.74638101638428
 30
0.0
 10
78.1582537434301
 20
-79.93365076146199
 30
0.0
 10
77.83015328350449
 20
-80.00000000000016
 30
0.0
 10
77.50000000000007
 20
-80.00000000000016
 30
0.0
  0
SPLINE
  5
7C
330
1F
100
AcDbEntity
  8
0
  6
Continuous
 62
     7
370
    25
100
AcDbSpline
210
0.0
220
0.0
230
1.0
 70
    24
 71
     3
 72
    10
 73
     6
 74
     0
 42
0.000000001
 43
0.00000001
 40
0.0
 40
0.0
 40
0.0
 40
0.0
 40
0.5
 40
0.5
 40
1.0
 40
1.0
 40
1.0
 40
1.0
 10
80.00000000000001
 20
31.80722891566257
 30
0.0
 10
80.00000000000004
 20
21.20494176506162
 30
0.0
 10
79.99999999997236
 20
10.60257809854357
 30
0.0
 10
79.99999999997233
 20
-10.6024695921709
 30
0.0
 10
80.0000000000001
 20
-21.20492234069821
 30
0.0
 10
80.00000000000011
 20
-31.80722891566273
 30
0.0
  0
SPLINE
  5
7F
330
1F
100
AcDbEntity
  8
0
  6
Continuous
 62
     7
370
    25
100
AcDbSpline
210
0.0
220
0.0
230
1.0
 70
    24
 71
     3
 72
    10
 73
     6
 74
     0
 42
0.000000001
 43
0.00000001
 40
0.0
 40
0.0
 40
0.0
 40
0.0
 40
0.5
 40
0.5
 40
1.0
 40
1.0
 40
1.0
 40
1.0
 10
80.00000000000001
 20
77.49999999999996
 30
0.0
 10
80.00000000000004
 20
69.88639599272891
 30
0.0
 10
80.0
 20
62.27177969640175
 30
0.0
 10
79.99999999999999
 20
47.04070330896237
 30
0.0
 10
79.99999999999999
 20
39.42426654057534
 30
0.0
 10
79.99999999999997
 20
31.80722891566257
 30
0.0
  0
SPLINE
  5
80
330
1F
100
AcDbEntity
  8
0
  6
Continuous
 62
     7
370
    25
100
AcDbSpline
210
0.0
220
0.0
230
1.0
 70
     8
 71
     3
 72
    20
 73
    16
 74
     0
 42
0.000000001
 43
0.00000001
 40
0.0
 40
0.0
 40
0.0
 40
0.0
 40
0.1249999999999988
 40
0.1249999999999988
 40
0.2499999999999976
 40
0.2499999999999976
 40
0.3749999999999963
 40
0.3749999999999963
 40
0.4999999999999951
 40
0.4999999999999951
 40
0.6249999999999939
 40
0.6249999999999939
 40
0.7499999999999927
 40
0.7499999999999927
 40
1.0
 40
1.0
 40
1.0
 40
1.0
 10
77.50000000000001
 20
79.99999999999993
 30
0.0
 10
77.66507512158805
 20
79.99999999999994
 30
0.0
 10
77.82740054532404
 20
79.9838106139378
 30
0.0
 10
78.14677546264512
 20
79.92036934865503
 30
0.0
 10
78.30547956421043
 20
79.8723474061829
 30
0.0
 10
78.60813216459206
 20
79.74696965929226
 30
0.0
 10
78.75168314616866
 20
79.67024384039007
 30
0.0
 10
79.02337386123841
 20
79.4889698600153
 30
0.0
 10
79.15201503502662
 20
79.38345937429266
 30
0.0
 10
79.3826080943376
 20
79.15298507364687
 30
0.0
 10
79.4860911684092
 20
79.0272302199675
 30
0.0
 10
79.66887165860697
 20
78.75418738731744
 30
0.0
 10
79.74655629804519
 20
78.60880936526853
 30
0.0
 10
79.93370865088134
 20
78.1579937976911
 30
0.0
 10
80.00000000000004
 20
77.83001817751529
 30
0.0
 10
80.00000000000001
 20
77.49999999999996
 30
0.0
  0
SPLINE
  5
81
330
1F
100
AcDbEntity
  8
0
  6
Continuous
 62
     7
370
    25
100
AcDbSpline
210
0.0
220
0.0
230
1.0
 70
    24
 71
     3
 72
    22
 73
    18
 74
     0
 42
0.000000001
 43
0.00000001
 40
0.0
 40
0.0
 40
0.0
 40
0.0
 40
0.125
 40
0.125
 40
0.25
 40
0.25
 40
0.375
 40
0.375
 40
0.5
 40
0.5
 40
0.625
 40
0.625
 40
0.75
 40
0.75
 40
0.875
 40
0.875
 40
1.0
 40
1.0
 40
1.0
 40
1.0
 10
-77.50000000000001
 20
79.99999999999993
 30
0.0
 10
-71.0419611310694
 20
79.99999999999993
 30
0.0
 10
-64.58396860387836
 20
79.99999999999993
 30
0.0
 10
-51.66803507633037
 20
79.99999999999991
 30
0.0
 10
-45.21009868158161
 20
79.99999999999991
 30
0.0
 10
-32.29412208064532
 20
79.99999999999991
 30
0.0
 10
-25.83609175240969
 20
79.9999999999999
 30
0.0
 10
-12.91942312582389
 20
79.99999999999991
 30
0.0
 10
-6.460740131030127
 20
79.99999999999993
 30
0.0
 10
6.457946383693674
 20
79.99999999999994
 30
0.0
 10
12.91676490356616
 20
79.99999999999993
 30
0.0
 10
25.83385293265656
 20
79.99999999999994
 30
0.0
 10
32.29215652617374
 20
79.99999999999993
 30
0.0
 10
45.20869712853752
 20
79.99999999999993
 30
0.0
 10
51.66690468939711
 20
79.99999999999997
 30
0.0
 10
64.58339321010693
 20
79.99999999999994
 30
0.0
 10
71.04166860323966
 20
79.99999999999993
 30
0.0
 10
77.50000000000001
 20
79.99999999999994
 30
0.0
  0
SPLINE
  5
82
330
1F
100
AcDbEntity
  8
0
  6
Continuous
 62
     7
370
    25
100
AcDbSpline
210
0.0
220
0.0
230
1.0
 70
     8
 71
     3
 72
    20
 73
    16
 74
     0
 42
0.000000001
 43
0.00000001
 40
0.0
 40
0.0
 40
0.0
 40
0.0
 40
0.125
 40
0.125
 40
0.25
 40
0.25
 40
0.375
 40
0.375
 40
0.5
 40
0.5
 40
0.625
 40
0.625
 40
0.75
 40
0.75
 40
1.0
 40
1.0
 40
1.0
 40
1.0
 10
-80.00000000000001
 20
77.49999999999993
 30
0.0
 10
-80.00000000000004
 20
77.66501006080796
 30
0.0
 10
-79.98382324336184
 20
77.82727424065686
 30
0.0
 10
-79.9204298176705
 20
78.14653370414334
 30
0.0
 10
-79.87244661449711
 20
78.30517910023042
 30
0.0
 10
-79.74714284437968
 20
78.60777495866249
 30
0.0
 10
-79.6704587787473
 20
78.751305743438
 30
0.0
 10
-79.48927535260223
 20
79.02297109142994
 30
0.0
 10
-79.38379705327372
 20
79.15163052159357
 30
0.0
 10
-79.15336142175259
 20
79.38227806841664
 30
0.0
 10
-79.0276232219895
 20
79.48578927894478
 30
0.0
 10
-78.75460865806404
 20
79.66862834156622
 30
0.0
 10
-78.60917123750343
 20
79.74638101638405
 30
0.0
 10
-78.15825374343004
 20
79.9336507614618
 30
0.0
 10
-77.83015328350444
 20
79.99999999999984
 30
0.0
 10
-77.50000000000003
 20
79.99999999999989
 30
0.0
  0
SPLINE
  5
83
330
1F
100
AcDbEntity
  8
0
  6
Continuous
 62
     7
370
    25
100
AcDbSpline
210
0.0
220
0.0
230
1.0
 70
    24
 71
     3
 72
    10
 73
     6
 74
     0
 42
0.000000001
 43
0.00000001
 40
0.0
 40
0.0
 40
0.0
 40
0.0
 40
0.5
 40
0.5
 40
1.0
 40
1.0
 40
1.0
 40
1.0
 10
-80.00000000000001
 20
31.80722891566259
 30
0.0
 10
-80.00000000000001
 20
39.42426654057535
 30
0.0
 10
-79.99999999999994
 20
47.04070330896239
 30
0.0
 10
-79.99999999999994
 20
62.27177969640172
 30
0.0
 10
-80.00000000000001
 20
69.88639599272894
 30
0.0
 10
-80.00000000000001
 20
77.49999999999994
 30
0.0
  0
SPLINE
  5
8A
330
1F
100
AcDbEntity
  8
0
  6
Continuous
 62
     7
370
    25
100
AcDbSpline
210
0.0
220
0.0
230
1.0
 70
    24
 71
     3
 72
    10
 73
     6
 74
     0
 42
0.000000001
 43
0.00000001
 40
0.0
 40
0.0
 40
0.0
 40
0.0
 40
0.5
 40
0.5
 40
1.0
 40
1.0
 40
1.0
 40
1.0
 10
-80.00000000000001
 20
-31.80722891566276
 30
0.0
 10
-80.00000000000001
 20
-21.2049417650618
 30
0.0
 10
-79.99999999997219
 20
-10.60257809854373
 30
0.0
 10
-79.99999999997216
 20
10.60246959217077
 30
0.0
 10
-79.99999999999994
 20
21.20492234069809
 30
0.0
 10
-79.99999999999993
 20
31.8072289156626
 30
0.0
  0
LINE
  5
98
330
1F
100
AcDbEntity
  8
0
  6
Continuous
 62
     7
370
    25
100
AcDbLine
 10
830.0
 20
-330.0
 30
0.0
 11
80.0
 21
-31.8072289157
 31
0.0
  0
LINE
  5
99
330
1F
100
AcDbEntity
  8
0
  6
Continuous
 62
     7
370
    25
100
AcDbLine
 10
-830.0
 20
-330.0
 30
0.0
 11
830.0
 21
-330.0
 31
0.0
  0
LINE
  5
9A
330
1F
100
AcDbEntity
  8
0
  6
Continuous
 62
     7
370
    25
100
AcDbLine
 10
-830.0
 20
-330.0
 30
0.0
 11
-80.0
 21
-31.8072289157
 31
0.0
  0
LINE
  5
9B
330
1F
100
AcDbEntity
  8
0
  6
Continuous
 62
     7
370
    25
100
AcDbLine
 10
830.0
 20
-330.0
 30
0.0
 11
830.0
 21
330.0
 31
0.0
  0
LINE
  5
9C
330
1F
100
AcDbEntity
  8
0
  6
Continuous
 62
     7
370
    25
100
AcDbLine
 10
830.0
 20
330.0
 30
0.0
 11
80.0
 21
31.8072289157
 31
0.0
  0
LINE
  5
9D
330
1F
100
AcDbEntity
  8
0
  6
Continuous
 62
     7
370
    25
100
AcDbLine
 10
830.0
 20
330.0
 30
0.0
 11
-830.0
 21
330.0
 31
0.0
  0
LINE
  5
9E
330
1F
100
AcDbEntity
  8
0
  6
Continuous
 62
     7
370
    25
100
AcDbLine
 10
-80.0
 20
31.8072289157
 30
0.0
 11
-830.0
 21
330.0
 31
0.0
  0
LINE
  5
9F
330
1F
100
AcDbEntity
  8
0
  6
Continuous
 62
     7
370
    25
100
AcDbLine
 10
850.0
 20
350.0
 30
0.0
 11
-850.0
 21
350.0
 31
0.0
  0
LINE
  5
A0
330
1F
100
AcDbEntity
  8
0
  6
Continuous
 62
     7
370
    25
100
AcDbLine
 10
850.0
 20
-350.0
 30
0.0
 11
850.0
 21
350.0
 31
0.0
  0
LINE
  5
A1
330
1F
100
AcDbEntity
  8
0
  6
Continuous
 62
     7
370
    25
100
AcDbLine
 10
-850.0
 20
-350.0
 30
0.0
 11
850.0
 21
-350.0
 31
0.0
  0
LINE
  5
A2
330
1F
100
AcDbEntity
  8
0
  6
Continuous
 62
     7
370
    25
100
AcDbLine
 10
-850.0
 20
350.0
 30
0.0
 11
-850.0
 21
-350.0
 31
0.0
  0
LINE
  5
A3
330
1F
100
AcDbEntity
  8
0
  6
Continuous
 62
     7
370
    25
100
AcDbLine
 10
-830.0
 20
330.0
 30
0.0
 11
-830.0
 21
-330.0
 31
0.0
  0
LINE
  5
A4
330
1F
100
AcDbEntity
  8
0
  6
Continuous
 62
     7
370
    25
100
AcDbLine
 10
79.2456257199
 20
-79.2456257199
 30
0.0
 11
68.5355339059
 21
-68.5355339059
 31
0.0
  0
LINE
  5
A5
330
1F
100
AcDbEntity
  8
0
  6
Continuous
 62
     7
370
    25
100
AcDbLine
 10
-68.5355339059
 20
-68.5355339059
 30
0.0
 11
-79.2455974733
 21
-79.2455974733
 31
0.0
  0
LINE
  5
A6
330
1F
100
AcDbEntity
  8
0
  6
Continuous
 62
     7
370
    25
100
AcDbLine
 10
-79.2456257199
 20
79.2456257199
 30
0.0
 11
-68.5355339059
 21
68.5355339059
 31
0.0
  0
LINE
  5
A7
330
1F
100
AcDbEntity
  8
0
  6
Continuous
 62
     7
370
    25
100
AcDbLine
 10
79.2455974733
 20
79.2455974733
 30
0.0
 11
68.5355339059
 21
68.5355339059
 31
0.0
  0
LINE
  5
A8
330
1F
100
AcDbEntity
  8
0
  6
Continuous
 62
     7
370
    25
100
AcDbLine
 10
80.0
 20
-15.7908979444
 30
0.0
 11
80.0
 21
31.6322189157
 31
0.0
  0
LINE
  5
A9
330
1F
100
AcDbEntity
  8
0
  6
Continuous
 62
     7
370
    25
100
AcDbLine
 10
-70.0
 20
65.0
 30
0.0
 11
-70.0
 21
-65.0
 31
0.0
  0
LINE
  5
AA
330
1F
100
AcDbEntity
  8
0
  6
Continuous
 62
     7
370
    25
100
AcDbLine
 10
65.0
 20
70.0
 30
0.0
 11
-65.0
 21
70.0
 31
0.0
  0
LINE
  5
AB
330
1F
100
AcDbEntity
  8
0
  6
Continuous
 62
     7
370
    25
100
AcDbLine
 10
70.0
 20
-65.0
 30
0.0
 11
70.0
 21
65.0
 31
0.0
  0
LINE
  5
AC
330
1F
100
AcDbEntity
  8
0
  6
Continuous
 62
     7
370
    25
100
AcDbLine
 10
-65.0
 20
-70.0
 30
0.0
 11
65.0
 21
-70.0
 31
0.0
  0
ARC
  5
AD
330
1F
100
AcDbEntity
  8
0
  6
Continuous
 62
     7
370
    25
100
AcDbCircle
 10
-65.0
 20
65.0
 30
0.0
 40
5.000000000000043
100
AcDbArc
 50
90.0
 51
180.0
  0
ARC
  5
AE
330
1F
100
AcDbEntity
  8
0
  6
Continuous
 62
     7
370
    25
100
AcDbCircle
 10
65.0
 20
-65.0
 30
0.0
 40
4.999999999999986
100
AcDbArc
 50
270.0
 51
0.0
  0
ARC
  5
AF
330
1F
100
AcDbEntity
  8
0
  6
Continuous
 62
     7
370
    25
100
AcDbCircle
 10
-65.0
 20
-65.0
 30
0.0
 40
5.000000000000028
100
AcDbArc
 50
180.0
 51
270.0
  0
ARC
  5
B0
330
1F
100
AcDbEntity
  8
0
  6
Continuous
 62
     7
370
    25
100
AcDbCircle
 10
65.0
 20
65.0
 30
0.0
 40
5.000000000000014
100
AcDbArc
 50
0.0
 51
90.0
  0
LINE
  5
B8
330
1B
100
AcDbEntity
 67
     1
  8
0
  6
Continuous
 62
     7
370
    25
100
AcDbLine
 10
-850.0
 20
35.0
 30
0.0
 11
850.0
 21
35.0
 31
0.0
  0
LINE
  5
B9
330
1B
100
AcDbEntity
 67
     1
  8
0
  6
Continuous
 62
     7
370
    25
100
AcDbLine
 10
850.0
 20
35.0
 30
0.0
 11
850.0
 21
0.0
 31
0.0
  0
LINE
  5
BA
330
1B
100
AcDbEntity
 67
     1
  8
0
  6
Continuous
 62
     7
370
    25
100
AcDbLine
 10
-850.0
 20
0.0
 30
0.0
 11
850.0
 21
0.0
 31
0.0
  0
LINE
  5
BB
330
1B
100
AcDbEntity
 67
     1
  8
0
  6
Continuous
 62
     7
370
    25
100
AcDbLine
 10
-850.0
 20
35.0
 30
0.0
 11
-850.0
 21
0.0
 31
0.0
  0
LINE
  5
BC
330
1B
100
AcDbEntity
 67
     1
  8
0
  6
Continuous
 62
     7
370
    25
100
AcDbLine
 10
130.0
 20
-26.0
 30
0.0
 11
-130.0
 21
-26.0
 31
0.0
  0
LINE
  5
BD
330
1B
100
AcDbEntity
 67
     1
  8
0
  6
Continuous
 62
     7
370
    25
100
AcDbLine
 10
130.0
 20
-26.0
 30
0.0
 11
130.0
 21
0.0
 31
0.0
  0
LINE
  5
BE
330
1B
100
AcDbEntity
 67
     1
  8
0
  6
Continuous
 62
     7
370
    25
100
AcDbLine
 10
-130.0
 20
-26.0
 30
0.0
 11
-130.0
 21
0.0
 31
0.0
  0
VIEWPORT
  5
27A
330
1B
100
AcDbEntity
 67
     1
  8
0
100
AcDbViewport
 10
0.0
 20
0.0
 30
0.0
 40
205.6
 41
156.0
 68
     1
 69
     1
 12
0.0
 22
0.0
 13
0.0
 23
0.0
 14
10.0
 24
10.0
 15
10.0
 25
10.0
 16
0.0
 26
0.0
 36
1.0
 17
0.0
 27
0.0
 37
0.0
 42
50.0
 43
0.0
 44
0.0
 45
1315.6809338521
 50
0.0
 51
0.0
 72
   100
 90
   557152
  1

281
     0
 71
     1
 74
     0
110
0.0
120
0.0
130
0.0
111
1.0
121
0.0
131
0.0
112
0.0
122
1.0
132
0.0
 79
     0
146
0.0
  0
ENDSEC
  0
SECTION
  2
OBJECTS
  0
DICTIONARY
  5
C
330
0
100
AcDbDictionary
281
     1
  3
ACAD_GROUP
350
D
  3
ACAD_LAYOUT
350
1A
  3
ACAD_MLINESTYLE
350
17
  3
ACAD_PLOTSETTINGS
350
19
  3
ACAD_PLOTSTYLENAME
350
E
  3
ACAD_SCALELIST
350
47
  0
DICTIONARY
  5
D
102
{ACAD_REACTORS
330
C
102
}
330
C
100
AcDbDictionary
281
     1
  0
DICTIONARY
  5
1A
102
{ACAD_REACTORS
330
C
102
}
330
C
100
AcDbDictionary
281
     1
  3
_Dimetrisch
350
21D
  3
_Isometrisch
350
131
  3
_Links
350
F2
  3
_Normal auf
350
CE
  3
_Rechts
350
26
  3
_Rückseite
350
E0
  3
_Trimetrisch
350
1B2
  3
_Unten
350
104
  3
_Vorderseite
350
1E
  3
Model
350
22
  0
DICTIONARY
  5
17
102
{ACAD_REACTORS
330
C
102
}
330
C
100
AcDbDictionary
281
     1
  3
Standard
350
18
  0
DICTIONARY
  5
19
102
{ACAD_REACTORS
330
C
102
}
330
C
100
AcDbDictionary
281
     1
  0
ACDBDICTIONARYWDFLT
  5
E
102
{ACAD_REACTORS
330
C
102
}
330
C
100
AcDbDictionary
281
     1
  3
Normal
350
F
100
AcDbDictionaryWithDefault
340
F
  0
DICTIONARY
  5
47
102
{ACAD_REACTORS
330
C
102
}
330
C
100
AcDbDictionary
281
     1
  3
A0
350
48
  3
A1
350
49
  3
A2
350
4A
  3
A3
350
4B
  3
A4
350
4C
  3
A5
350
4D
  3
A6
350
4E
  3
A7
350
4F
  3
A8
350
50
  3
A9
350
51
  3
B0
350
52
  3
B1
350
53
  3
B2
350
54
  3
B3
350
55
  3
B4
350
56
  3
B5
350
57
  3
B6
350
58
  3
B7
350
59
  3
B8
350
5A
  3
B9
350
5B
  3
C0
350
5C
  3
C1
350
5D
  3
C2
350
5E
  3
C3
350
5F
  3
C4
350
60
  3
C5
350
61
  3
C6
350
62
  3
C7
350
63
  3
C8
350
64
  3
C9
350
65
  3
D0
350
66
  3
D1
350
67
  3
D2
350
68
  0
LAYOUT
  5
21D
102
{ACAD_REACTORS
330
1A
102
}
330
1A
100
AcDbPlotSettings
  1

  2
none_device
  4
ISO_A4_(210.00_x_297.00_MM)
  6

 40
7.5
 41
20.0
 42
7.5
 43
20.0
 44
210.0
 45
297.0
 46
0.0
 47
0.0
 48
0.0
 49
0.0
140
0.0
141
0.0
142
1.0
143
6.6147859922
 70
   688
 72
     1
 73
     1
 74
     1
  7

 75
     0
147
0.1511764706
148
850.0
149
26.0
100
AcDbLayout
  1
_Dimetrisch
 70
     1
 71
     9
 10
0.0
 20
0.0
 11
0.0
 21
0.0
 12
0.0
 22
0.0
 32
0.0
 14
0.0
 24
0.0
 34
0.0
 15
0.0
 25
0.0
 35
0.0
146
0.0
 13
0.0
 23
0.0
 33
0.0
 16
1.0
 26
0.0
 36
0.0
 17
0.0
 27
1.0
 37
0.0
 76
     0
330
21C
331
28A
  0
LAYOUT
  5
131
102
{ACAD_REACTORS
330
1A
102
}
330
1A
100
AcDbPlotSettings
  1

  2
none_device
  4
ISO_A4_(210.00_x_297.00_MM)
  6

 40
7.5
 41
20.0
 42
7.5
 43
20.0
 44
210.0
 45
297.0
 46
0.0
 47
0.0
 48
0.0
 49
0.0
140
0.0
141
0.0
142
1.0
143
6.6147859922
 70
   688
 72
     1
 73
     1
 74
     1
  7

 75
     0
147
0.1511764706
148
850.0
149
26.0
100
AcDbLayout
  1
_Isometrisch
 70
     1
 71
     7
 10
0.0
 20
0.0
 11
0.0
 21
0.0
 12
0.0
 22
0.0
 32
0.0
 14
0.0
 24
0.0
 34
0.0
 15
0.0
 25
0.0
 35
0.0
146
0.0
 13
0.0
 23
0.0
 33
0.0
 16
1.0
 26
0.0
 36
0.0
 17
0.0
 27
1.0
 37
0.0
 76
     0
330
130
331
286
  0
LAYOUT
  5
F2
102
{ACAD_REACTORS
330
1A
102
}
330
1A
100
AcDbPlotSettings
  1

  2
none_device
  4
ISO_A4_(210.00_x_297.00_MM)
  6

 40
7.5
 41
20.0
 42
7.5
 43
20.0
 44
210.0
 45
297.0
 46
0.0
 47
0.0
 48
0.0
 49
0.0
140
0.0
141
0.0
142
1.0
143
6.6147859922
 70
   688
 72
     1
 73
     1
 74
     1
  7

 75
     0
147
0.1511764706
148
850.0
149
26.0
100
AcDbLayout
  1
_Links
 70
     1
 71
     5
 10
0.0
 20
0.0
 11
0.0
 21
0.0
 12
0.0
 22
0.0
 32
0.0
 14
0.0
 24
0.0
 34
0.0
 15
0.0
 25
0.0
 35
0.0
146
0.0
 13
0.0
 23
0.0
 33
0.0
 16
1.0
 26
0.0
 36
0.0
 17
0.0
 27
1.0
 37
0.0
 76
     0
330
F1
331
282
  0
LAYOUT
  5
CE
102
{ACAD_REACTORS
330
1A
102
}
330
1A
100
AcDbPlotSettings
  1

  2
none_device
  4
ISO_A4_(210.00_x_297.00_MM)
  6

 40
7.5
 41
20.0
 42
7.5
 43
20.0
 44
210.0
 45
297.0
 46
0.0
 47
0.0
 48
0.0
 49
0.0
140
0.0
141
0.0
142
1.0
143
6.6147859922
 70
   688
 72
     1
 73
     1
 74
     1
  7

 75
     0
147
0.1511764706
148
850.0
149
26.0
100
AcDbLayout
  1
_Normal auf
 70
     1
 71
     3
 10
0.0
 20
0.0
 11
0.0
 21
0.0
 12
0.0
 22
0.0
 32
0.0
 14
0.0
 24
0.0
 34
0.0
 15
0.0
 25
0.0
 35
0.0
146
0.0
 13
0.0
 23
0.0
 33
0.0
 16
1.0
 26
0.0
 36
0.0
 17
0.0
 27
1.0
 37
0.0
 76
     0
330
CD
331
27E
  0
LAYOUT
  5
26
102
{ACAD_REACTORS
330
1A
102
}
330
1A
100
AcDbPlotSettings
  1

  2
none_device
  4
ISO_A4_(210.00_x_297.00_MM)
  6

 40
7.5
 41
20.0
 42
7.5
 43
20.0
 44
210.0
 45
297.0
 46
0.0
 47
0.0
 48
0.0
 49
0.0
140
0.0
141
0.0
142
1.0
143
6.6147859922
 70
   688
 72
     1
 73
     1
 74
     1
  7

 75
     0
147
0.1511764706
148
850.0
149
26.0
100
AcDbLayout
  1
_Rechts
 70
     1
 71
     2
 10
0.0
 20
0.0
 11
0.0
 21
0.0
 12
0.0
 22
0.0
 32
0.0
 14
0.0
 24
0.0
 34
0.0
 15
0.0
 25
0.0
 35
0.0
146
0.0
 13
0.0
 23
0.0
 33
0.0
 16
1.0
 26
0.0
 36
0.0
 17
0.0
 27
1.0
 37
0.0
 76
     0
330
23
331
27C
  0
LAYOUT
  5
E0
102
{ACAD_REACTORS
330
1A
102
}
330
1A
100
AcDbPlotSettings
  1

  2
none_device
  4
ISO_A4_(210.00_x_297.00_MM)
  6

 40
7.5
 41
20.0
 42
7.5
 43
20.0
 44
210.0
 45
297.0
 46
0.0
 47
0.0
 48
0.0
 49
0.0
140
0.0
141
0.0
142
1.0
143
6.6147859922
 70
   688
 72
     1
 73
     1
 74
     1
  7

 75
     0
147
0.1511764706
148
850.0
149
26.0
100
AcDbLayout
  1
_Rückseite
 70
     1
 71
     4
 10
0.0
 20
0.0
 11
0.0
 21
0.0
 12
0.0
 22
0.0
 32
0.0
 14
0.0
 24
0.0
 34
0.0
 15
0.0
 25
0.0
 35
0.0
146
0.0
 13
0.0
 23
0.0
 33
0.0
 16
1.0
 26
0.0
 36
0.0
 17
0.0
 27
1.0
 37
0.0
 76
     0
330
DF
331
280
  0
LAYOUT
  5
1B2
102
{ACAD_REACTORS
330
1A
102
}
330
1A
100
AcDbPlotSettings
  1

  2
none_device
  4
ISO_A4_(210.00_x_297.00_MM)
  6

 40
7.5
 41
20.0
 42
7.5
 43
20.0
 44
210.0
 45
297.0
 46
0.0
 47
0.0
 48
0.0
 49
0.0
140
0.0
141
0.0
142
1.0
143
6.6147859922
 70
   688
 72
     1
 73
     1
 74
     1
  7

 75
     0
147
0.1511764706
148
850.0
149
26.0
100
AcDbLayout
  1
_Trimetrisch
 70
     1
 71
     8
 10
0.0
 20
0.0
 11
0.0
 21
0.0
 12
0.0
 22
0.0
 32
0.0
 14
0.0
 24
0.0
 34
0.0
 15
0.0
 25
0.0
 35
0.0
146
0.0
 13
0.0
 23
0.0
 33
0.0
 16
1.0
 26
0.0
 36
0.0
 17
0.0
 27
1.0
 37
0.0
 76
     0
330
1B1
331
288
  0
LAYOUT
  5
104
102
{ACAD_REACTORS
330
1A
102
}
330
1A
100
AcDbPlotSettings
  1

  2
none_device
  4
ISO_A4_(210.00_x_297.00_MM)
  6

 40
7.5
 41
20.0
 42
7.5
 43
20.0
 44
210.0
 45
297.0
 46
0.0
 47
0.0
 48
0.0
 49
0.0
140
0.0
141
0.0
142
1.0
143
6.6147859922
 70
   688
 72
     1
 73
     1
 74
     1
  7

 75
     0
147
0.1511764706
148
850.0
149
26.0
100
AcDbLayout
  1
_Unten
 70
     1
 71
     6
 10
0.0
 20
0.0
 11
0.0
 21
0.0
 12
0.0
 22
0.0
 32
0.0
 14
0.0
 24
0.0
 34
0.0
 15
0.0
 25
0.0
 35
0.0
146
0.0
 13
0.0
 23
0.0
 33
0.0
 16
1.0
 26
0.0
 36
0.0
 17
0.0
 27
1.0
 37
0.0
 76
     0
330
103
331
284
  0
LAYOUT
  5
1E
102
{ACAD_REACTORS
330
1A
102
}
330
1A
100
AcDbPlotSettings
  1

  2
none_device
  4
ISO_A4_(210.00_x_297.00_MM)
  6

 40
7.5
 41
20.0
 42
7.5
 43
20.0
 44
210.0
 45
297.0
 46
0.0
 47
0.0
 48
0.0
 49
0.0
140
0.0
141
0.0
142
1.0
143
6.6147859922
 70
   688
 72
     1
 73
     1
 74
     1
  7

 75
     0
147
0.1511764706
148
850.0
149
26.0
100
AcDbLayout
  1
_Vorderseite
 70
     1
 71
     1
 10
-982.2957198444
 20
-75.6108949416
 11
982.2957198444
 21
1313.4941634241
 12
0.0
 22
0.0
 32
0.0
 14
-850.0
 24
-26.0
 34
0.0
 15
850.0
 25
35.0
 35
0.0
146
0.0
 13
0.0
 23
0.0
 33
0.0
 16
1.0
 26
0.0
 36
0.0
 17
0.0
 27
1.0
 37
0.0
 76
     0
330
1B
331
27A
  0
LAYOUT
  5
22
102
{ACAD_REACTORS
330
1A
102
}
330
1A
100
AcDbPlotSettings
  1

  2
none_device
  4
ANSI_A_(11.00_x_8.50_Inches)
  6

 40
6.35
 41
19.05
 42
6.35000508
 43
19.05000254
 44
279.4
 45
215.9
 46
133.34999746
 47
88.89999873
 48
0.0
 49
0.0
140
0.0
141
0.0
142
0.0064058824
143
1.0
 70
  1696
 72
     0
 73
     0
 74
     0
  7

 75
     0
147
0.0179189148
148
-1300.4909072572
149
0.0
100
AcDbLayout
  1
Model
 70
     1
 71
     0
 10
0.0
 20
0.0
 11
420.0
 21
297.0
 12
0.0
 22
0.0
 32
0.0
 14
-850.0
 24
-350.0
 34
0.0
 15
850.0
 25
350.0
 35
0.0
146
0.0
 13
0.0
 23
0.0
 33
0.0
 16
1.0
 26
0.0
 36
0.0
 17
0.0
 27
1.0
 37
0.0
 76
     0
330
1F
331
29
  0
MLINESTYLE
  5
18
102
{ACAD_REACTORS
330
17
102
}
330
17
100
AcDbMlineStyle
  2
Standard
 70
     0
  3

 62
   256
 51
90.0
 52
90.0
 71
     2
 49
0.5
 62
   256
  6
BYLAYER
 49
-0.5
 62
   256
  6
BYLAYER
  0
ACDBPLACEHOLDER
  5
F
102
{ACAD_REACTORS
330
E
102
}
330
E
  0
SCALE
  5
48
102
{ACAD_REACTORS
330
47
102
}
330
47
100
AcDbScale
 70
     0
300
1:1
140
1.0
141
1.0
290
     1
  0
SCALE
  5
49
102
{ACAD_REACTORS
330
47
102
}
330
47
100
AcDbScale
 70
     0
300
1:2
140
1.0
141
2.0
290
     0
  0
SCALE
  5
4A
102
{ACAD_REACTORS
330
47
102
}
330
47
100
AcDbScale
 70
     0
300
1:4
140
1.0
141
4.0
290
     0
  0
SCALE
  5
4B
102
{ACAD_REACTORS
330
47
102
}
330
47
100
AcDbScale
 70
     0
300
1:5
140
1.0
141
5.0
290
     0
  0
SCALE
  5
4C
102
{ACAD_REACTORS
330
47
102
}
330
47
100
AcDbScale
 70
     0
300
1:8
140
1.0
141
8.0
290
     0
  0
SCALE
  5
4D
102
{ACAD_REACTORS
330
47
102
}
330
47
100
AcDbScale
 70
     0
300
1:10
140
1.0
141
10.0
290
     0
  0
SCALE
  5
4E
102
{ACAD_REACTORS
330
47
102
}
330
47
100
AcDbScale
 70
     0
300
1:16
140
1.0
141
16.0
290
     0
  0
SCALE
  5
4F
102
{ACAD_REACTORS
330
47
102
}
330
47
100
AcDbScale
 70
     0
300
1:20
140
1.0
141
20.0
290
     0
  0
SCALE
  5
50
102
{ACAD_REACTORS
330
47
102
}
330
47
100
AcDbScale
 70
     0
300
1:30
140
1.0
141
30.0
290
     0
  0
SCALE
  5
51
102
{ACAD_REACTORS
330
47
102
}
330
47
100
AcDbScale
 70
     0
300
1:40
140
1.0
141
40.0
290
     0
  0
SCALE
  5
52
102
{ACAD_REACTORS
330
47
102
}
330
47
100
AcDbScale
 70
     0
300
1:50
140
1.0
141
50.0
290
     0
  0
SCALE
  5
53
102
{ACAD_REACTORS
330
47
102
}
330
47
100
AcDbScale
 70
     0
300
1:100
140
1.0
141
100.0
290
     0
  0
SCALE
  5
54
102
{ACAD_REACTORS
330
47
102
}
330
47
100
AcDbScale
 70
     0
300
2:1
140
2.0
141
1.0
290
     0
  0
SCALE
  5
55
102
{ACAD_REACTORS
330
47
102
}
330
47
100
AcDbScale
 70
     0
300
4:1
140
4.0
141
1.0
290
     0
  0
SCALE
  5
56
102
{ACAD_REACTORS
330
47
102
}
330
47
100
AcDbScale
 70
     0
300
8:1
140
8.0
141
1.0
290
     0
  0
SCALE
  5
57
102
{ACAD_REACTORS
330
47
102
}
330
47
100
AcDbScale
 70
     0
300
10:1
140
10.0
141
1.0
290
     0
  0
SCALE
  5
58
102
{ACAD_REACTORS
330
47
102
}
330
47
100
AcDbScale
 70
     0
300
100:1
140
100.0
141
1.0
290
     0
  0
SCALE
  5
59
102
{ACAD_REACTORS
330
47
102
}
330
47
100
AcDbScale
 70
     0
300
1/128" = 1'-0"
140
0.0078125
141
12.0
290
     0
  0
SCALE
  5
5A
102
{ACAD_REACTORS
330
47
102
}
330
47
100
AcDbScale
 70
     0
300
1/64" = 1'-0"
140
0.015625
141
12.0
290
     0
  0
SCALE
  5
5B
102
{ACAD_REACTORS
330
47
102
}
330
47
100
AcDbScale
 70
     0
300
1/32" = 1'-0"
140
0.03125
141
12.0
290
     0
  0
SCALE
  5
5C
102
{ACAD_REACTORS
330
47
102
}
330
47
100
AcDbScale
 70
     0
300
1/16" = 1'-0"
140
0.0625
141
12.0
290
     0
  0
SCALE
  5
5D
102
{ACAD_REACTORS
330
47
102
}
330
47
100
AcDbScale
 70
     0
300
3/32" = 1'-0"
140
0.09375
141
12.0
290
     0
  0
SCALE
  5
5E
102
{ACAD_REACTORS
330
47
102
}
330
47
100
AcDbScale
 70
     0
300
1/8" = 1'-0"
140
0.125
141
12.0
290
     0
  0
SCALE
  5
5F
102
{ACAD_REACTORS
330
47
102
}
330
47
100
AcDbScale
 70
     0
300
3/16" = 1'-0"
140
0.1875
141
12.0
290
     0
  0
SCALE
  5
60
102
{ACAD_REACTORS
330
47
102
}
330
47
100
AcDbScale
 70
     0
300
1/4" = 1'-0"
140
0.25
141
12.0
290
     0
  0
SCALE
  5
61
102
{ACAD_REACTORS
330
47
102
}
330
47
100
AcDbScale
 70
     0
300
3/8" = 1'-0"
140
0.375
141
12.0
290
     0
  0
SCALE
  5
62
102
{ACAD_REACTORS
330
47
102
}
330
47
100
AcDbScale
 70
     0
300
1/2" = 1'-0"
140
0.5
141
12.0
290
     0
  0
SCALE
  5
63
102
{ACAD_REACTORS
330
47
102
}
330
47
100
AcDbScale
 70
     0
300
3/4" = 1'-0"
140
0.75
141
12.0
290
     0
  0
SCALE
  5
64
102
{ACAD_REACTORS
330
47
102
}
330
47
100
AcDbScale
 70
     0
300
1" = 1'-0"
140
1.0
141
12.0
290
     0
  0
SCALE
  5
65
102
{ACAD_REACTORS
330
47
102
}
330
47
100
AcDbScale
 70
     0
300
1-1/2" = 1'-0"
140
1.5
141
12.0
290
     0
  0
SCALE
  5
66
102
{ACAD_REACTORS
330
47
102
}
330
47
100
AcDbScale
 70
     0
300
3" = 1'-0"
140
3.0
141
12.0
290
     0
  0
SCALE
  5
67
102
{ACAD_REACTORS
330
47
102
}
330
47
100
AcDbScale
 70
     0
300
6" = 1'-0"
140
6.0
141
12.0
290
     0
  0
SCALE
  5
68
102
{ACAD_REACTORS
330
47
102
}
330
47
100
AcDbScale
 70
     0
300
1'-0" = 1'-0"
140
12.0
141
12.0
290
     0
  0
ENDSEC
  0
EOF
