  0
SECTION
  2
HEADER
  9
$ACADVER
  1
AC1015
  9
$ACADMAINTVER
 70
     6
  9
$DWGCODEPAGE
  3
ANSI_1252
  9
$INSBASE
 10
0.0
 20
0.0
 30
0.0
  9
$EXTMIN
 10
-850.0
 20
-400.0
 30
0.0
  9
$EXTMAX
 10
850.0
 20
400.0
 30
0.0
  9
$LIMMIN
 10
0.0
 20
0.0
  9
$LIMMAX
 10
420.0
 20
297.0
  9
$ORTHOMODE
 70
     0
  9
$REGENMODE
 70
     1
  9
$FILLMODE
 70
     1
  9
$QTEXTMODE
 70
     0
  9
$MIRRTEXT
 70
     1
  9
$LTSCALE
 40
1.0
  9
$ATTMODE
 70
     1
  9
$TEXTSIZE
 40
3.5
  9
$TRACEWID
 40
1.0
  9
$TEXTSTYLE
  7
STANDARD
  9
$CLAYER
  8
0
  9
$CELTYPE
  6
ByLayer
  9
$CECOLOR
 62
   256
  9
$CELTSCALE
 40
1.0
  9
$DISPSILH
 70
     0
  9
$DIMSCALE
 40
1.0
  9
$DIMASZ
 40
7.4083333333
  9
$DIMEXO
 40
1.0
  9
$DIMDLI
 40
3.75
  9
$DIMRND
 40
0.0
  9
$DIMDLE
 40
0.0
  9
$DIMEXE
 40
1.0
  9
$DIMTP
 40
0.0
  9
$DIMTM
 40
0.0
  9
$DIMTXT
 40
7.0555555556
  9
$DIMCEN
 40
2.5
  9
$DIMTSZ
 40
0.0
  9
$DIMTOL
 70
     0
  9
$DIMLIM
 70
     0
  9
$DIMTIH
 70
     1
  9
$DIMTOH
 70
     1
  9
$DIMSE1
 70
     0
  9
$DIMSE2
 70
     0
  9
$DIMTAD
 70
     1
  9
$DIMZIN
 70
     0
  9
$DIMBLK
  1

  9
$DIMASO
 70
     1
  9
$DIMSHO
 70
     1
  9
$DIMPOST
  1

  9
$DIMAPOST
  1

  9
$DIMALT
 70
     0
  9
$DIMALTD
 70
     3
  9
$DIMALTF
 40
0.0393700787
  9
$DIMLFAC
 40
1.0
  9
$DIMTOFL
 70
     1
  9
$DIMTVP
 40
0.0
  9
$DIMTIX
 70
     0
  9
$DIMSOXD
 70
     0
  9
$DIMSAH
 70
     0
  9
$DIMBLK1
  1

  9
$DIMBLK2
  1

  9
$DIMSTYLE
  2
ISO-25
  9
$DIMCLRD
 70
     0
  9
$DIMCLRE
 70
     0
  9
$DIMCLRT
 70
     0
  9
$DIMTFAC
 40
1.0
  9
$DIMGAP
 40
1.524
  9
$DIMJUST
 70
     0
  9
$DIMSD1
 70
     0
  9
$DIMSD2
 70
     0
  9
$DIMTOLJ
 70
     0
  9
$DIMTZIN
 70
     0
  9
$DIMALTZ
 70
     0
  9
$DIMALTTZ
 70
     0
  9
$DIMUPT
 70
     0
  9
$DIMDEC
 70
     2
  9
$DIMTDEC
 70
     2
  9
$DIMALTU
 70
     2
  9
$DIMALTTD
 70
     3
  9
$DIMTXSTY
  7
STANDARD
  9
$DIMAUNIT
 70
     0
  9
$DIMADEC
 70
     2
  9
$DIMALTRND
 40
0.0
  9
$DIMAZIN
 70
     0
  9
$DIMDSEP
 70
    44
  9
$DIMATFIT
 70
     3
  9
$DIMFRAC
 70
     0
  9
$DIMLDRBLK
  1

  9
$DIMLUNIT
 70
     2
  9
$DIMLWD
 70
    -2
  9
$DIMLWE
 70
    -2
  9
$DIMTMOVE
 70
     0
  9
$LUNITS
 70
     2
  9
$LUPREC
 70
     2
  9
$SKETCHINC
 40
1.0
  9
$FILLETRAD
 40
10.0
  9
$AUNITS
 70
     0
  9
$AUPREC
 70
     2
  9
$MENU
  1
.
  9
$ELEVATION
 40
0.0
  9
$PELEVATION
 40
0.0
  9
$THICKNESS
 40
0.0
  9
$LIMCHECK
 70
     0
  9
$CHAMFERA
 40
0.0
  9
$CHAMFERB
 40
0.0
  9
$CHAMFERC
 40
0.0
  9
$CHAMFERD
 40
0.0
  9
$SKPOLY
 70
     0
  9
$TDCREATE
 40
2458232.516051053
  9
$TDUCREATE
 40
2458232.43271772
  9
$TDUPDATE
 40
2458232.516079363
  9
$TDUUPDATE
 40
2458232.43274603
  9
$TDINDWG
 40
0.0000000116
  9
$TDUSRTIMER
 40
0.0000000116
  9
$USRTIMER
 70
     1
  9
$ANGBASE
 50
0.0
  9
$ANGDIR
 70
     0
  9
$PDMODE
 70
     0
  9
$PDSIZE
 40
-1.0
  9
$PLINEWID
 40
0.0
  9
$SPLFRAME
 70
     0
  9
$SPLINETYPE
 70
     6
  9
$SPLINESEGS
 70
     8
  9
$HANDSEED
  5
28C
  9
$SURFTAB1
 70
     6
  9
$SURFTAB2
 70
     6
  9
$SURFTYPE
 70
     6
  9
$SURFU
 70
     6
  9
$SURFV
 70
     6
  9
$UCSBASE
  2

  9
$UCSNAME
  2

  9
$UCSORG
 10
0.0
 20
0.0
 30
0.0
  9
$UCSXDIR
 10
1.0
 20
0.0
 30
0.0
  9
$UCSYDIR
 10
0.0
 20
1.0
 30
0.0
  9
$UCSORTHOREF
  2

  9
$UCSORTHOVIEW
 70
     0
  9
$UCSORGTOP
 10
0.0
 20
0.0
 30
0.0
  9
$UCSORGBOTTOM
 10
0.0
 20
0.0
 30
0.0
  9
$UCSORGLEFT
 10
0.0
 20
0.0
 30
0.0
  9
$UCSORGRIGHT
 10
0.0
 20
0.0
 30
0.0
  9
$UCSORGFRONT
 10
0.0
 20
0.0
 30
0.0
  9
$UCSORGBACK
 10
0.0
 20
0.0
 30
0.0
  9
$PUCSBASE
  2

  9
$PUCSNAME
  2

  9
$PUCSORG
 10
0.0
 20
0.0
 30
0.0
  9
$PUCSXDIR
 10
1.0
 20
0.0
 30
0.0
  9
$PUCSYDIR
 10
0.0
 20
1.0
 30
0.0
  9
$PUCSORTHOREF
  2

  9
$PUCSORTHOVIEW
 70
     0
  9
$PUCSORGTOP
 10
0.0
 20
0.0
 30
0.0
  9
$PUCSORGBOTTOM
 10
0.0
 20
0.0
 30
0.0
  9
$PUCSORGLEFT
 10
0.0
 20
0.0
 30
0.0
  9
$PUCSORGRIGHT
 10
0.0
 20
0.0
 30
0.0
  9
$PUCSORGFRONT
 10
0.0
 20
0.0
 30
0.0
  9
$PUCSORGBACK
 10
0.0
 20
0.0
 30
0.0
  9
$USERI1
 70
     0
  9
$USERI2
 70
     0
  9
$USERI3
 70
     0
  9
$USERI4
 70
     0
  9
$USERI5
 70
     0
  9
$USERR1
 40
0.0
  9
$USERR2
 40
0.0
  9
$USERR3
 40
0.0
  9
$USERR4
 40
0.0
  9
$USERR5
 40
0.0
  9
$WORLDVIEW
 70
     1
  9
$SHADEDGE
 70
     3
  9
$SHADEDIF
 70
    70
  9
$TILEMODE
 70
     1
  9
$MAXACTVP
 70
    64
  9
$PINSBASE
 10
0.0
 20
0.0
 30
0.0
  9
$PLIMCHECK
 70
     0
  9
$PEXTMIN
 10
-850.0
 20
-26.0
 30
0.0
  9
$PEXTMAX
 10
850.0
 20
35.0
 30
0.0
  9
$PLIMMIN
 10
-982.2957198444
 20
-75.6108949416
  9
$PLIMMAX
 10
982.2957198444
 20
1313.4941634241
  9
$UNITMODE
 70
     0
  9
$VISRETAIN
 70
     1
  9
$PLINEGEN
 70
     0
  9
$PSLTSCALE
 70
     1
  9
$TREEDEPTH
 70
  3020
  9
$CMLSTYLE
  2
Standard
  9
$CMLJUST
 70
     0
  9
$CMLSCALE
 40
20.0
  9
$PROXYGRAPHICS
 70
     1
  9
$MEASUREMENT
 70
     1
  9
$CELWEIGHT
370
    -1
  9
$ENDCAPS
280
     0
  9
$JOINSTYLE
280
     0
  9
$LWDISPLAY
290
     1
  9
$INSUNITS
 70
     4
  9
$HYPERLINKBASE
  1

  9
$STYLESHEET
  1

  9
$XEDIT
290
     1
  9
$CEPSNTYPE
380
     0
  9
$PSTYLEMODE
290
     1
  9
$FINGERPRINTGUID
  2
{B89E1716-3393-4A26-A035-112D0E004033}
  9
$VERSIONGUID
  2
{FAEB1C32-E019-11D5-929B-00C0DF256EC4}
  9
$EXTNAMES
290
     1
  9
$PSVPSCALE
 40
0.0
  9
$OLESTARTUP
290
     0
  0
ENDSEC
  0
SECTION
  2
CLASSES
  0
CLASS
  1
ACDBDICTIONARYWDFLT
  2
AcDbDictionaryWithDefault
  3
ObjectDBX Classes
 90
        0
280
     0
281
     0
  0
CLASS
  1
VISUALSTYLE
  2
AcDbVisualStyle
  3
ObjectDBX Classes
 90
     4095
280
     0
281
     0
  0
CLASS
  1
MATERIAL
  2
AcDbMaterial
  3
ObjectDBX Classes
 90
     1153
280
     0
281
     0
  0
CLASS
  1
SCALE
  2
AcDbScale
  3
ObjectDBX Classes
 90
     1153
280
     0
281
     0
  0
CLASS
  1
TABLESTYLE
  2
AcDbTableStyle
  3
ObjectDBX Classes
 90
     4095
280
     0
281
     0
  0
CLASS
  1
MLEADERSTYLE
  2
AcDbMLeaderStyle
  3
ACDB_MLEADERSTYLE_CLASS
 90
     4095
280
     0
281
     0
  0
CLASS
  1
SUN
  2
AcDbSun
  3
SCENEOE
 90
     1153
280
     0
281
     0
  0
CLASS
  1
ACDBPLACEHOLDER
  2
AcDbPlaceHolder
  3
ObjectDBX Classes
 90
        0
280
     0
281
     0
  0
CLASS
  1
LAYOUT
  2
AcDbLayout
  3
ObjectDBX Classes
 90
        0
280
     0
281
     0
  0
ENDSEC
  0
SECTION
  2
TABLES
  0
TABLE
  2
VPORT
  5
8
330
0
100
AcDbSymbolTable
 70
     1
  0
VPORT
  5
29
330
8
100
AcDbSymbolTableRecord
100
AcDbViewportTableRecord
  2
*Active
 70
     0
 10
0.0
 20
0.0
 11
1.0
 21
1.0
 12
0.0
 22
0.0
 13
0.0
 23
0.0
 14
10.0
 24
10.0
 15
10.0
 25
10.0
 16
0.0
 26
0.0
 36
1.0
 17
0.0
 27
0.0
 37
0.0
 40
816.0
 41
2.125
 42
50.0
 43
0.0
 44
0.0
 50
0.0
 51
0.0
 71
     0
 72
   100
 73
     1
 74
     3
 75
     0
 76
     0
 77
     0
 78
     0
281
     0
 65
     1
110
0.0
120
0.0
130
0.0
111
1.0
121
0.0
131
0.0
112
0.0
122
1.0
132
0.0
 79
     0
146
0.0
  0
ENDTAB
  0
TABLE
  2
LTYPE
  5
5
330
0
100
AcDbSymbolTable
 70
     6
  0
LTYPE
  5
14
330
5
100
AcDbSymbolTableRecord
100
AcDbLinetypeTableRecord
  2
ByBlock
 70
     0
  3

 72
    65
 73
     0
 40
0.0
  0
LTYPE
  5
15
330
5
100
AcDbSymbolTableRecord
100
AcDbLinetypeTableRecord
  2
ByLayer
 70
     0
  3

 72
    65
 73
     0
 40
0.0
  0
LTYPE
  5
16
330
5
100
AcDbSymbolTableRecord
100
AcDbLinetypeTableRecord
  2
Continuous
 70
     0
  3
Solid line
 72
    65
 73
     0
 40
0.0
  0
LTYPE
  5
6E
330
5
100
AcDbSymbolTableRecord
100
AcDbLinetypeTableRecord
  2
HIDDEN
 70
     0
  3
Hidden __ __ __ __ __ __ __ __ __ __ __ __ __ __
 72
    65
 73
     2
 40
1.905
 49
1.27
 74
     0
 49
-0.635
 74
     0
  0
LTYPE
  5
6F
330
5
100
AcDbSymbolTableRecord
100
AcDbLinetypeTableRecord
  2
PHANTOM
 70
     0
  3
Phantom ______  __  __  ______  __  __  ______
 72
    65
 73
     6
 40
12.7
 49
6.35
 74
     0
 49
-1.27
 74
     0
 49
1.27
 74
     0
 49
-1.27
 74
     0
 49
1.27
 74
     0
 49
-1.27
 74
     0
  0
LTYPE
  5
70
330
5
100
AcDbSymbolTableRecord
100
AcDbLinetypeTableRecord
  2
CENTER
 70
     0
  3
Center ____ _ ____ _ ____ _ ____ _ ____ _ ____
 72
    65
 73
     4
 40
10.16
 49
6.35
 74
     0
 49
-1.27
 74
     0
 49
1.27
 74
     0
 49
-1.27
 74
     0
  0
LTYPE
  5
71
330
5
100
AcDbSymbolTableRecord
100
AcDbLinetypeTableRecord
  2
CENTERX2
 70
     0
  3
Center (2x) ________  __  ________  __  _____
 72
    65
 73
     4
 40
20.32
 49
12.7
 74
     0
 49
-2.54
 74
     0
 49
2.54
 74
     0
 49
-2.54
 74
     0
  0
LTYPE
  5
72
330
5
100
AcDbSymbolTableRecord
100
AcDbLinetypeTableRecord
  2
DOT2
 70
     0
  3
Dot (.5x) ........................................
 72
    65
 73
     2
 40
0.635
 49
0.0
 74
     0
 49
-0.635
 74
     0
  0
ENDTAB
  0
TABLE
  2
LAYER
  5
2
330
0
100
AcDbSymbolTable
 70
     1
  0
LAYER
  5
10
330
2
100
AcDbSymbolTableRecord
100
AcDbLayerTableRecord
  2
0
 70
     0
 62
     7
  6
Continuous
370
    -3
390
F
  0
ENDTAB
  0
TABLE
  2
STYLE
  5
3
330
0
100
AcDbSymbolTable
 70
     1
  0
STYLE
  5
11
330
3
100
AcDbSymbolTableRecord
100
AcDbTextStyleTableRecord
  2
STANDARD
 70
     0
 40
0.0
 41
1.0
 50
0.0
 71
     0
 42
3.5
  3
GOTHIC.TTF
  4

1001
ACAD
1000
CENTURY GOTHIC
1071
       34
  0
ENDTAB
  0
TABLE
  2
VIEW
  5
6
330
0
100
AcDbSymbolTable
 70
     0
  0
ENDTAB
  0
TABLE
  2
UCS
  5
7
330
0
100
AcDbSymbolTable
 70
     0
  0
ENDTAB
  0
TABLE
  2
APPID
  5
9
330
0
100
AcDbSymbolTable
 70
     1
  0
APPID
  5
12
330
9
100
AcDbSymbolTableRecord
100
AcDbRegAppTableRecord
  2
ACAD
 70
     0
  0
ENDTAB
  0
TABLE
  2
DIMSTYLE
  5
A
330
0
100
AcDbSymbolTable
 70
     1
100
AcDbDimStyleTable
  0
DIMSTYLE
105
27
330
A
100
AcDbSymbolTableRecord
100
AcDbDimStyleTableRecord
  2
ISO-25
 70
     0
 41
2.5
 42
0.625
 43
3.75
 44
1.25
 73
     0
 74
     0
 77
     1
 78
     8
140
2.5
141
2.5
143
0.0393700787
147
0.625
171
     3
172
     1
178
     0
271
     2
272
     2
274
     3
278
    44
283
     0
284
     8
340
11
  0
ENDTAB
  0
TABLE
  2
BLOCK_RECORD
  5
1
330
0
100
AcDbSymbolTable
 70
     8
  0
BLOCK_RECORD
  5
1F
330
1
100
AcDbSymbolTableRecord
100
AcDbBlockTableRecord
  2
*Model_Space
340
22
  0
BLOCK_RECORD
  5
1B
330
1
100
AcDbSymbolTableRecord
100
AcDbBlockTableRecord
  2
*Paper_Space
340
1E
  0
BLOCK_RECORD
  5
23
330
1
100
AcDbSymbolTableRecord
100
AcDbBlockTableRecord
  2
*Paper_Space0
340
26
  0
BLOCK_RECORD
  5
CD
330
1
100
AcDbSymbolTableRecord
100
AcDbBlockTableRecord
  2
*Paper_Space1
340
CE
  0
BLOCK_RECORD
  5
DF
330
1
100
AcDbSymbolTableRecord
100
AcDbBlockTableRecord
  2
*Paper_Space2
340
E0
  0
BLOCK_RECORD
  5
F1
330
1
100
AcDbSymbolTableRecord
100
AcDbBlockTableRecord
  2
*Paper_Space3
340
F2
  0
BLOCK_RECORD
  5
103
330
1
100
AcDbSymbolTableRecord
100
AcDbBlockTableRecord
  2
*Paper_Space4
340
104
  0
BLOCK_RECORD
  5
130
330
1
100
AcDbSymbolTableRecord
100
AcDbBlockTableRecord
  2
*Paper_Space5
340
131
  0
BLOCK_RECORD
  5
1B0
330
1
100
AcDbSymbolTableRecord
100
AcDbBlockTableRecord
  2
*Paper_Space6
340
1B1
  0
BLOCK_RECORD
  5
21C
330
1
100
AcDbSymbolTableRecord
100
AcDbBlockTableRecord
  2
*Paper_Space7
340
21D
  0
ENDTAB
  0
ENDSEC
  0
SECTION
  2
BLOCKS
  0
BLOCK
  5
20
330
1F
100
AcDbEntity
  8
0
100
AcDbBlockBegin
  2
*Model_Space
 70
     0
 10
0.0
 20
0.0
 30
0.0
  3
*Model_Space
  1

  0
ENDBLK
  5
21
330
1F
100
AcDbEntity
  8
0
100
AcDbBlockEnd
  0
BLOCK
  5
1C
330
1B
100
AcDbEntity
 67
     1
  8
0
100
AcDbBlockBegin
  2
*Paper_Space
 70
     0
 10
0.0
 20
0.0
 30
0.0
  3
*Paper_Space
  1

  0
ENDBLK
  5
1D
330
1B
100
AcDbEntity
 67
     1
  8
0
100
AcDbBlockEnd
  0
BLOCK
  5
24
330
23
100
AcDbEntity
  8
0
100
AcDbBlockBegin
  2
*Paper_Space0
 70
     0
 10
0.0
 20
0.0
 30
0.0
  3
*Paper_Space0
  1

  0
LINE
  5
C6
330
23
100
AcDbEntity
  8
0
  6
Continuous
 62
     7
370
    25
100
AcDbLine
 10
-400.0
 20
35.0
 30
0.0
 11
-400.0
 21
0.0
 31
0.0
  0
LINE
  5
C7
330
23
100
AcDbEntity
  8
0
  6
Continuous
 62
     7
370
    25
100
AcDbLine
 10
400.0
 20
35.0
 30
0.0
 11
400.0
 21
0.0
 31
0.0
  0
LINE
  5
C8
330
23
100
AcDbEntity
  8
0
  6
Continuous
 62
     7
370
    25
100
AcDbLine
 10
-400.0
 20
0.0
 30
0.0
 11
400.0
 21
0.0
 31
0.0
  0
LINE
  5
C9
330
23
100
AcDbEntity
  8
0
  6
Continuous
 62
     7
370
    25
100
AcDbLine
 10
-400.0
 20
35.0
 30
0.0
 11
400.0
 21
35.0
 31
0.0
  0
LINE
  5
CA
330
23
100
AcDbEntity
  8
0
  6
Continuous
 62
     7
370
    25
100
AcDbLine
 10
-130.0
 20
-26.0
 30
0.0
 11
-130.0
 21
0.0
 31
0.0
  0
LINE
  5
CB
330
23
100
AcDbEntity
  8
0
  6
Continuous
 62
     7
370
    25
100
AcDbLine
 10
130.0
 20
-26.0
 30
0.0
 11
130.0
 21
0.0
 31
0.0
  0
LINE
  5
CC
330
23
100
AcDbEntity
  8
0
  6
Continuous
 62
     7
370
    25
100
AcDbLine
 10
130.0
 20
-26.0
 30
0.0
 11
-130.0
 21
-26.0
 31
0.0
  0
VIEWPORT
  5
27C
330
23
100
AcDbEntity
  8
0
100
AcDbViewport
 10
0.0
 20
0.0
 30
0.0
 40
205.6
 41
156.0
 68
     1
 69
     1
 12
0.0
 22
0.0
 13
0.0
 23
0.0
 14
10.0
 24
10.0
 15
10.0
 25
10.0
 16
0.0
 26
0.0
 36
1.0
 17
0.0
 27
0.0
 37
0.0
 42
50.0
 43
0.0
 44
0.0
 45
1315.6809338521
 50
0.0
 51
0.0
 72
   100
 90
   557152
  1

281
     0
 71
     1
 74
     0
110
0.0
120
0.0
130
0.0
111
1.0
121
0.0
131
0.0
112
0.0
122
1.0
132
0.0
 79
     0
146
0.0
  0
ENDBLK
  5
25
330
23
100
AcDbEntity
  8
0
100
AcDbBlockEnd
  0
BLOCK
  5
CF
330
CD
100
AcDbEntity
  8
0
100
AcDbBlockBegin
  2
*Paper_Space1
 70
     0
 10
0.0
 20
0.0
 30
0.0
  3
*Paper_Space1
  1

  0
LINE
  5
D8
330
CD
100
AcDbEntity
  8
0
  6
Continuous
 62
     7
370
    25
100
AcDbLine
 10
-850.0
 20
35.0
 30
0.0
 11
850.0
 21
35.0
 31
0.0
  0
LINE
  5
D9
330
CD
100
AcDbEntity
  8
0
  6
Continuous
 62
     7
370
    25
100
AcDbLine
 10
850.0
 20
35.0
 30
0.0
 11
850.0
 21
0.0
 31
0.0
  0
LINE
  5
DA
330
CD
100
AcDbEntity
  8
0
  6
Continuous
 62
     7
370
    25
100
AcDbLine
 10
-850.0
 20
0.0
 30
0.0
 11
850.0
 21
0.0
 31
0.0
  0
LINE
  5
DB
330
CD
100
AcDbEntity
  8
0
  6
Continuous
 62
     7
370
    25
100
AcDbLine
 10
-850.0
 20
35.0
 30
0.0
 11
-850.0
 21
0.0
 31
0.0
  0
LINE
  5
DC
330
CD
100
AcDbEntity
  8
0
  6
Continuous
 62
     7
370
    25
100
AcDbLine
 10
130.0
 20
-26.0
 30
0.0
 11
-130.0
 21
-26.0
 31
0.0
  0
LINE
  5
DD
330
CD
100
AcDbEntity
  8
0
  6
Continuous
 62
     7
370
    25
100
AcDbLine
 10
130.0
 20
-26.0
 30
0.0
 11
130.0
 21
0.0
 31
0.0
  0
LINE
  5
DE
330
CD
100
AcDbEntity
  8
0
  6
Continuous
 62
     7
370
    25
100
AcDbLine
 10
-130.0
 20
-26.0
 30
0.0
 11
-130.0
 21
0.0
 31
0.0
  0
VIEWPORT
  5
27E
330
CD
100
AcDbEntity
  8
0
100
AcDbViewport
 10
0.0
 20
0.0
 30
0.0
 40
205.6
 41
156.0
 68
     1
 69
     1
 12
0.0
 22
0.0
 13
0.0
 23
0.0
 14
10.0
 24
10.0
 15
10.0
 25
10.0
 16
0.0
 26
0.0
 36
1.0
 17
0.0
 27
0.0
 37
0.0
 42
50.0
 43
0.0
 44
0.0
 45
1315.6809338521
 50
0.0
 51
0.0
 72
   100
 90
   557152
  1

281
     0
 71
     1
 74
     0
110
0.0
120
0.0
130
0.0
111
1.0
121
0.0
131
0.0
112
0.0
122
1.0
132
0.0
 79
     0
146
0.0
  0
ENDBLK
  5
D0
330
CD
100
AcDbEntity
  8
0
100
AcDbBlockEnd
  0
BLOCK
  5
E1
330
DF
100
AcDbEntity
  8
0
100
AcDbBlockBegin
  2
*Paper_Space2
 70
     0
 10
0.0
 20
0.0
 30
0.0
  3
*Paper_Space2
  1

  0
LINE
  5
EA
330
DF
100
AcDbEntity
  8
0
  6
Continuous
 62
     7
370
    25
100
AcDbLine
 10
-850.0
 20
35.0
 30
0.0
 11
850.0
 21
35.0
 31
0.0
  0
LINE
  5
EB
330
DF
100
AcDbEntity
  8
0
  6
Continuous
 62
     7
370
    25
100
AcDbLine
 10
-850.0
 20
35.0
 30
0.0
 11
-850.0
 21
0.0
 31
0.0
  0
LINE
  5
EC
330
DF
100
AcDbEntity
  8
0
  6
Continuous
 62
     7
370
    25
100
AcDbLine
 10
-850.0
 20
0.0
 30
0.0
 11
850.0
 21
0.0
 31
0.0
  0
LINE
  5
ED
330
DF
100
AcDbEntity
  8
0
  6
Continuous
 62
     7
370
    25
100
AcDbLine
 10
850.0
 20
35.0
 30
0.0
 11
850.0
 21
0.0
 31
0.0
  0
LINE
  5
EE
330
DF
100
AcDbEntity
  8
0
  6
Continuous
 62
     7
370
    25
100
AcDbLine
 10
130.0
 20
-26.0
 30
0.0
 11
130.0
 21
0.0
 31
0.0
  0
LINE
  5
EF
330
DF
100
AcDbEntity
  8
0
  6
Continuous
 62
     7
370
    25
100
AcDbLine
 10
130.0
 20
-26.0
 30
0.0
 11
-130.0
 21
-26.0
 31
0.0
  0
LINE
  5
F0
330
DF
100
AcDbEntity
  8
0
  6
Continuous
 62
     7
370
    25
100
AcDbLine
 10
-130.0
 20
-26.0
 30
0.0
 11
-130.0
 21
0.0
 31
0.0
  0
VIEWPORT
  5
280
330
DF
100
AcDbEntity
  8
0
100
AcDbViewport
 10
0.0
 20
0.0
 30
0.0
 40
205.6
 41
156.0
 68
     1
 69
     1
 12
0.0
 22
0.0
 13
0.0
 23
0.0
 14
10.0
 24
10.0
 15
10.0
 25
10.0
 16
0.0
 26
0.0
 36
1.0
 17
0.0
 27
0.0
 37
0.0
 42
50.0
 43
0.0
 44
0.0
 45
1315.6809338521
 50
0.0
 51
0.0
 72
   100
 90
   557152
  1

281
     0
 71
     1
 74
     0
110
0.0
120
0.0
130
0.0
111
1.0
121
0.0
131
0.0
112
0.0
122
1.0
132
0.0
 79
     0
146
0.0
  0
ENDBLK
  5
E2
330
DF
100
AcDbEntity
  8
0
100
AcDbBlockEnd
  0
BLOCK
  5
F3
330
F1
100
AcDbEntity
  8
0
100
AcDbBlockBegin
  2
*Paper_Space3
 70
     0
 10
0.0
 20
0.0
 30
0.0
  3
*Paper_Space3
  1

  0
LINE
  5
FC
330
F1
100
AcDbEntity
  8
0
  6
Continuous
 62
     7
370
    25
100
AcDbLine
 10
-400.0
 20
35.0
 30
0.0
 11
-400.0
 21
0.0
 31
0.0
  0
LINE
  5
FD
330
F1
100
AcDbEntity
  8
0
  6
Continuous
 62
     7
370
    25
100
AcDbLine
 10
-400.0
 20
35.0
 30
0.0
 11
400.0
 21
35.0
 31
0.0
  0
LINE
  5
FE
330
F1
100
AcDbEntity
  8
0
  6
Continuous
 62
     7
370
    25
100
AcDbLine
 10
400.0
 20
35.0
 30
0.0
 11
400.0
 21
0.0
 31
0.0
  0
LINE
  5
FF
330
F1
100
AcDbEntity
  8
0
  6
Continuous
 62
     7
370
    25
100
AcDbLine
 10
-400.0
 20
0.0
 30
0.0
 11
400.0
 21
0.0
 31
0.0
  0
LINE
  5
100
330
F1
100
AcDbEntity
  8
0
  6
Continuous
 62
     7
370
    25
100
AcDbLine
 10
130.0
 20
-26.0
 30
0.0
 11
-130.0
 21
-26.0
 31
0.0
  0
LINE
  5
101
330
F1
100
AcDbEntity
  8
0
  6
Continuous
 62
     7
370
    25
100
AcDbLine
 10
-130.0
 20
-26.0
 30
0.0
 11
-130.0
 21
0.0
 31
0.0
  0
LINE
  5
102
330
F1
100
AcDbEntity
  8
0
  6
Continuous
 62
     7
370
    25
100
AcDbLine
 10
130.0
 20
-26.0
 30
0.0
 11
130.0
 21
0.0
 31
0.0
  0
VIEWPORT
  5
282
330
F1
100
AcDbEntity
  8
0
100
AcDbViewport
 10
0.0
 20
0.0
 30
0.0
 40
205.6
 41
156.0
 68
     1
 69
     1
 12
0.0
 22
0.0
 13
0.0
 23
0.0
 14
10.0
 24
10.0
 15
10.0
 25
10.0
 16
0.0
 26
0.0
 36
1.0
 17
0.0
 27
0.0
 37
0.0
 42
50.0
 43
0.0
 44
0.0
 45
1315.6809338521
 50
0.0
 51
0.0
 72
   100
 90
   557152
  1

281
     0
 71
     1
 74
     0
110
0.0
120
0.0
130
0.0
111
1.0
121
0.0
131
0.0
112
0.0
122
1.0
132
0.0
 79
     0
146
0.0
  0
ENDBLK
  5
F4
330
F1
100
AcDbEntity
  8
0
100
AcDbBlockEnd
  0
BLOCK
  5
105
330
103
100
AcDbEntity
  8
0
100
AcDbBlockBegin
  2
*Paper_Space4
 70
     0
 10
0.0
 20
0.0
 30
0.0
  3
*Paper_Space4
  1

  0
CIRCLE
  5
10F
330
103
100
AcDbEntity
  8
0
  6
Continuous
 62
     7
370
    25
100
AcDbCircle
 10
0.0
 20
0.0
 30
0.0
 40
45.0
  0
LINE
  5
11C
330
103
100
AcDbEntity
  8
0
  6
Continuous
 62
     7
370
    25
100
AcDbLine
 10
850.0
 20
-400.0
 30
0.0
 11
-850.0
 21
-400.0
 31
0.0
  0
LINE
  5
11D
330
103
100
AcDbEntity
  8
0
  6
Continuous
 62
     7
370
    25
100
AcDbLine
 10
-850.0
 20
400.0
 30
0.0
 11
850.0
 21
400.0
 31
0.0
  0
LINE
  5
11E
330
103
100
AcDbEntity
  8
0
  6
Continuous
 62
     7
370
    25
100
AcDbLine
 10
850.0
 20
400.0
 30
0.0
 11
850.0
 21
-400.0
 31
0.0
  0
LINE
  5
11F
330
103
100
AcDbEntity
  8
0
  6
Continuous
 62
     7
370
    25
100
AcDbLine
 10
-850.0
 20
-400.0
 30
0.0
 11
-850.0
 21
400.0
 31
0.0
  0
LINE
  5
120
330
103
100
AcDbEntity
  8
0
  6
Continuous
 62
     7
370
    25
100
AcDbLine
 10
130.0
 20
-130.0
 30
0.0
 11
130.0
 21
130.0
 31
0.0
  0
LINE
  5
121
330
103
100
AcDbEntity
  8
0
  6
Continuous
 62
     7
370
    25
100
AcDbLine
 10
-130.0
 20
-130.0
 30
0.0
 11
130.0
 21
-130.0
 31
0.0
  0
LINE
  5
122
330
103
100
AcDbEntity
  8
0
  6
Continuous
 62
     7
370
    25
100
AcDbLine
 10
-130.0
 20
130.0
 30
0.0
 11
-130.0
 21
-130.0
 31
0.0
  0
LINE
  5
123
330
103
100
AcDbEntity
  8
0
  6
Continuous
 62
     7
370
    25
100
AcDbLine
 10
130.0
 20
130.0
 30
0.0
 11
-130.0
 21
130.0
 31
0.0
  0
LINE
  5
124
330
103
100
AcDbEntity
  8
0
  6
Continuous
 62
     7
370
    25
100
AcDbLine
 10
-28.8654208587
 20
34.5222751082
 30
0.0
 11
-19.3431457505
 21
25.0
 31
0.0
  0
LINE
  5
125
330
103
100
AcDbEntity
  8
0
  6
Continuous
 62
     7
370
    25
100
AcDbLine
 10
-19.3431457505
 20
25.0
 30
0.0
 11
19.3431457505
 21
25.0
 31
0.0
  0
LINE
  5
126
330
103
100
AcDbEntity
  8
0
  6
Continuous
 62
     7
370
    25
100
AcDbLine
 10
19.3431457505
 20
25.0
 30
0.0
 11
28.8654208587
 21
34.5222751082
 31
0.0
  0
LINE
  5
127
330
103
100
AcDbEntity
  8
0
  6
Continuous
 62
     7
370
    25
100
AcDbLine
 10
34.5222751082
 20
28.8654208587
 30
0.0
 11
25.0
 21
19.3431457505
 31
0.0
  0
LINE
  5
128
330
103
100
AcDbEntity
  8
0
  6
Continuous
 62
     7
370
    25
100
AcDbLine
 10
25.0
 20
19.3431457505
 30
0.0
 11
25.0
 21
-19.3431457505
 31
0.0
  0
LINE
  5
129
330
103
100
AcDbEntity
  8
0
  6
Continuous
 62
     7
370
    25
100
AcDbLine
 10
25.0
 20
-19.3431457505
 30
0.0
 11
34.5222751082
 21
-28.8654208587
 31
0.0
  0
LINE
  5
12A
330
103
100
AcDbEntity
  8
0
  6
Continuous
 62
     7
370
    25
100
AcDbLine
 10
-25.0
 20
19.3431457505
 30
0.0
 11
-34.5222751082
 21
28.8654208587
 31
0.0
  0
LINE
  5
12B
330
103
100
AcDbEntity
  8
0
  6
Continuous
 62
     7
370
    25
100
AcDbLine
 10
-25.0
 20
-19.3431457505
 30
0.0
 11
-25.0
 21
19.3431457505
 31
0.0
  0
LINE
  5
12C
330
103
100
AcDbEntity
  8
0
  6
Continuous
 62
     7
370
    25
100
AcDbLine
 10
-34.5222751082
 20
-28.8654208587
 30
0.0
 11
-25.0
 21
-19.3431457505
 31
0.0
  0
LINE
  5
12D
330
103
100
AcDbEntity
  8
0
  6
Continuous
 62
     7
370
    25
100
AcDbLine
 10
-19.3431457505
 20
-25.0
 30
0.0
 11
-28.8654208587
 21
-34.5222751082
 31
0.0
  0
LINE
  5
12E
330
103
100
AcDbEntity
  8
0
  6
Continuous
 62
     7
370
    25
100
AcDbLine
 10
28.8654208587
 20
-34.5222751082
 30
0.0
 11
19.3431457505
 21
-25.0
 31
0.0
  0
LINE
  5
12F
330
103
100
AcDbEntity
  8
0
  6
Continuous
 62
     7
370
    25
100
AcDbLine
 10
19.3431457505
 20
-25.0
 30
0.0
 11
-19.3431457505
 21
-25.0
 31
0.0
  0
VIEWPORT
  5
284
330
103
100
AcDbEntity
  8
0
100
AcDbViewport
 10
0.0
 20
0.0
 30
0.0
 40
205.6
 41
156.0
 68
     1
 69
     1
 12
0.0
 22
0.0
 13
0.0
 23
0.0
 14
10.0
 24
10.0
 15
10.0
 25
10.0
 16
0.0
 26
0.0
 36
1.0
 17
0.0
 27
0.0
 37
0.0
 42
50.0
 43
0.0
 44
0.0
 45
1315.6809338521
 50
0.0
 51
0.0
 72
   100
 90
   557152
  1

281
     0
 71
     1
 74
     0
110
0.0
120
0.0
130
0.0
111
1.0
121
0.0
131
0.0
112
0.0
122
1.0
132
0.0
 79
     0
146
0.0
  0
ENDBLK
  5
106
330
103
100
AcDbEntity
  8
0
100
AcDbBlockEnd
  0
BLOCK
  5
132
330
130
100
AcDbEntity
  8
0
100
AcDbBlockBegin
  2
*Paper_Space5
 70
     0
 10
0.0
 20
0.0
 30
0.0
  3
*Paper_Space5
  1

  0
SPLINE
  5
145
330
130
100
AcDbEntity
  8
0
  6
Continuous
 62
     7
370
    25
100
AcDbSpline
210
0.0
220
0.0
230
1.0
 70
     8
 71
     3
 72
    10
 73
     6
 74
     0
 42
0.000000001
 43
0.00000001
 40
0.0
 40
0.0
 40
0.0
 40
0.0
 40
0.5
 40
0.5
 40
1.0
 40
1.0
 40
1.0
 40
1.0
 10
30.66969171411505
 20
-31.15915564464287
 30
0.0
 10
25.85197182279569
 20
-33.8899076563343
 30
0.0
 10
21.03456187357208
 20
-36.60023037895471
 30
0.0
 10
11.40054894136223
 20
-41.967686061465
 30
0.0
 10
6.583950966839121
 20
-44.62448889730409
 30
0.0
 10
1.76776695296603
 20
-47.25400624369175
 30
0.0
  0
SPLINE
  5
148
330
130
100
AcDbEntity
  8
0
  6
Continuous
 62
     7
370
    25
100
AcDbSpline
210
0.0
220
0.0
230
1.0
 70
     8
 71
     3
 72
    10
 73
     6
 74
     0
 42
0.000000001
 43
0.00000001
 40
0.0
 40
0.0
 40
0.0
 40
0.0
 40
0.4999999999999998
 40
0.4999999999999998
 40
1.0
 40
1.0
 40
1.0
 40
1.0
 10
-111.3693180368815
 20
18.05864270212512
 30
0.0
 10
-106.5531340230084
 20
20.6881600485128
 30
0.0
 10
-101.7365360484852
 20
23.34496288435183
 30
0.0
 10
-92.10252311627539
 20
28.7124185668621
 30
0.0
 10
-87.28511316705193
 20
31.42274128948253
 30
0.0
 10
-82.46739327573255
 20
34.15349330117395
 30
0.0
  0
SPLINE
  5
149
330
130
100
AcDbEntity
  8
0
  6
Continuous
 62
     7
370
    25
100
AcDbSpline
210
0.0
220
0.0
230
1.0
 70
     8
 71
     3
 72
    20
 73
    16
 74
     0
 42
0.000000001
 43
0.00000001
 40
0.0
 40
0.0
 40
0.0
 40
0.0
 40
0.1250000000000007
 40
0.1250000000000007
 40
0.2500000000000014
 40
0.2500000000000014
 40
0.3750000000000022
 40
0.3750000000000022
 40
0.5000000000000029
 40
0.5000000000000029
 40
0.6250000000000036
 40
0.6250000000000036
 40
0.7500000000000043
 40
0.7500000000000043
 40
1.0
 40
1.0
 40
1.0
 40
1.0
 10
-111.3693180368815
 20
16.04609878935707
 30
0.0
 10
-111.4860408828943
 20
16.11534138488625
 30
0.0
 10
-111.5893712845982
 20
16.18965831094045
 30
0.0
 10
-111.7703375192076
 20
16.34803477451856
 30
0.0
 10
-111.8485985995209
 20
16.4330841294443
 30
0.0
 10
-111.9739509052008
 20
16.60829952317663
 30
0.0
 10
-112.0212043841403
 20
16.69805398333601
 30
0.0
 10
-112.0851434182296
 20
16.88182862986132
 30
0.0
 10
-112.101504055979
 20
16.97643314926205
 30
0.0
 10
-112.1015979046902
 20
17.16196788126562
 30
0.0
 10
-112.0858546401453
 20
17.25384332772035
 30
0.0
 10
-112.0220415575205
 20
17.43577679970565
 30
0.0
 10
-111.9741766790806
 20
17.52443205073306
 30
0.0
 10
-111.787743597066
 20
17.77683625755182
 30
0.0
 10
-111.6026985357355
 20
17.93122272226615
 30
0.0
 10
-111.3693180368815
 20
18.05864270212515
 30
0.0
  0
SPLINE
  5
14A
330
130
100
AcDbEntity
  8
0
  6
Continuous
 62
     7
370
    25
100
AcDbSpline
210
0.0
220
0.0
230
1.0
 70
     8
 71
     3
 72
    18
 73
    14
 74
     0
 42
0.000000001
 43
0.00000001
 40
0.0
 40
0.0
 40
0.0
 40
0.0
 40
0.125
 40
0.125
 40
0.25
 40
0.25
 40
0.5
 40
0.5
 40
0.7499999999999999
 40
0.7499999999999999
 40
0.8749999999999999
 40
0.8749999999999999
 40
1.0
 40
1.0
 40
1.0
 40
1.0
 10
-1.76776695296673
 20
-47.22552987690301
 30
0.0
 10
-6.334314996220066
 20
-44.66208388002993
 30
0.0
 10
-10.90083900680007
 20
-42.10103819101023
 30
0.0
 10
-20.03386754257786
 20
-36.98089295169661
 30
0.0
 10
-24.60036922275653
 20
-34.42207755296798
 30
0.0
 10
-38.29998603311387
 20
-26.7344681383973
 30
0.0
 10
-47.43316690532732
 20
-21.5992406583417
 30
0.0
 10
-65.70228742539042
 20
-11.05271717084062
 30
0.0
 10
-74.8357791930677
 20
-5.642823780546935
 30
0.0
 10
-88.53589877189997
 20
2.487104237947325
 30
0.0
 10
-93.10255960289749
 20
5.200754088817941
 30
0.0
 10
-102.2359121370977
 20
10.62557170296534
 30
0.0
 10
-106.8026003509423
 20
13.33702000636847
 30
0.0
 10
-111.3693180368815
 20
16.04609878935707
 30
0.0
  0
SPLINE
  5
14B
330
130
100
AcDbEntity
  8
0
  6
Continuous
 62
     7
370
    25
100
AcDbSpline
210
0.0
220
0.0
230
1.0
 70
     8
 71
     3
 72
    20
 73
    16
 74
     0
 42
0.000000001
 43
0.00000001
 40
0.0
 40
0.0
 40
0.0
 40
0.0
 40
0.125
 40
0.125
 40
0.25
 40
0.25
 40
0.375
 40
0.375
 40
0.5
 40
0.5
 40
0.625
 40
0.625
 40
0.75
 40
0.75
 40
1.0
 40
1.0
 40
1.0
 40
1.0
 10
1.767766952965995
 20
-47.25400624369171
 30
0.0
 10
1.651076238777874
 20
-47.31771648736932
 30
0.0
 10
1.52488819360682
 20
-47.37393068831575
 30
0.0
 10
1.254290059558932
 20
-47.47197389603367
 30
0.0
 10
1.108170599738431
 20
-47.51413503085109
 30
0.0
 10
0.8055856269615567
 20
-47.58111137731947
 30
0.0
 10
0.6498646789133145
 20
-47.60601842972041
 30
0.0
 10
0.3296448945916131
 20
-47.63882881853258
 30
0.0
 10
0.1640860322804846
 20
-47.64654530796976
 30
0.0
 10
-0.1619418828039121
 20
-47.64394780076783
 30
0.0
 10
-0.3240412321110012
 20
-47.63391097760434
 30
0.0
 10
-0.6463676271030033
 20
-47.59595901046377
 30
0.0
 10
-0.8041746085006574
 20
-47.56816823068225
 30
0.0
 10
-1.255416293226369
 20
-47.46128061085538
 30
0.0
 10
-1.534319733099719
 20
-47.35657620239461
 30
0.0
 10
-1.76776695296673
 20
-47.22552987690301
 30
0.0
  0
SPLINE
  5
14C
330
130
100
AcDbEntity
  8
0
  6
Continuous
 62
     7
370
    25
100
AcDbSpline
210
0.0
220
0.0
230
1.0
 70
     8
 71
     3
 72
    10
 73
     6
 74
     0
 42
0.000000001
 43
0.00000001
 40
0.0
 40
0.0
 40
0.0
 40
0.0
 40
0.5
 40
0.5
 40
1.0
 40
1.0
 40
1.0
 40
1.0
 10
82.46739327573208
 20
-1.256979018847304
 30
0.0
 10
73.83455935023228
 20
-6.308525894010653
 30
0.0
 10
65.20166285687736
 20
-11.34171373710384
 30
0.0
 10
47.9355330979178
 20
-21.3092386744875
 30
0.0
 10
39.30254955247007
 20
-26.24343101200818
 30
0.0
 10
30.66969171411501
 20
-31.15915564464286
 30
0.0
  0
SPLINE
  5
14E
330
130
100
AcDbEntity
  8
0
  6
Continuous
 62
     7
370
    25
100
AcDbSpline
210
0.0
220
0.0
230
1.0
 70
     8
 71
     3
 72
    10
 73
     6
 74
     0
 42
0.000000001
 43
0.00000001
 40
0.0
 40
0.0
 40
0.0
 40
0.0
 40
0.5
 40
0.5
 40
1.0
 40
1.0
 40
1.0
 40
1.0
 10
111.3693180368811
 20
16.01762242256814
 30
0.0
 10
106.553134023008
 20
13.08649206825232
 30
0.0
 10
101.7365360484848
 20
10.18216925459473
 30
0.0
 10
92.10252311627495
 20
4.426430369429184
 30
0.0
 10
87.28511316705146
 20
1.574689956518729
 30
0.0
 10
82.46739327573209
 20
-1.256979018847325
 30
0.0
  0
SPLINE
  5
14F
330
130
100
AcDbEntity
  8
0
  6
Continuous
 62
     7
370
    25
100
AcDbSpline
210
0.0
220
0.0
230
1.0
 70
     8
 71
     3
 72
    20
 73
    16
 74
     0
 42
0.000000001
 43
0.00000001
 40
0.0
 40
0.0
 40
0.0
 40
0.0
 40
0.125
 40
0.125
 40
0.25
 40
0.25
 40
0.375
 40
0.375
 40
0.5
 40
0.5
 40
0.625
 40
0.625
 40
0.75
 40
0.75
 40
1.0
 40
1.0
 40
1.0
 40
1.0
 10
111.3693180368811
 20
18.08711906891363
 30
0.0
 10
111.4860408828939
 20
18.02159633499707
 30
0.0
 10
111.5893712845978
 20
17.95017753739692
 30
0.0
 10
111.7703375192072
 20
17.7960350072997
 30
0.0
 10
111.8485985995206
 20
17.71232292601254
 30
0.0
 10
111.9739509052005
 20
17.53810669092804
 30
0.0
 10
112.02120438414
 20
17.4480342969448
 30
0.0
 10
112.0851434182293
 20
17.26202506734382
 30
0.0
 10
112.1015040559787
 20
17.16547144799863
 30
0.0
 10
112.1015979046899
 20
16.97459137282299
 30
0.0
 10
112.0858546401449
 20
16.87931744423204
 30
0.0
 10
112.0220415575201
 20
16.68911808055071
 30
0.0
 10
111.9741766790802
 20
16.59564576731861
 30
0.0
 10
111.7877435970656
 20
16.32718235194028
 30
0.0
 10
111.602698535735
 20
16.15965783116666
 30
0.0
 10
111.3693180368811
 20
16.01762242256812
 30
0.0
  0
SPLINE
  5
150
330
130
100
AcDbEntity
  8
0
  6
Continuous
 62
     7
370
    25
100
AcDbSpline
210
0.0
220
0.0
230
1.0
 70
     8
 71
     3
 72
    18
 73
    14
 74
     0
 42
0.000000001
 43
0.00000001
 40
0.0
 40
0.0
 40
0.0
 40
0.0
 40
0.1250000000000001
 40
0.1250000000000001
 40
0.2500000000000001
 40
0.2500000000000001
 40
0.4999999999999999
 40
0.4999999999999999
 40
0.7499999999999999
 40
0.7499999999999999
 40
0.8749999999999999
 40
0.8749999999999999
 40
1.0
 40
1.0
 40
1.0
 40
1.0
 10
1.76776695296637
 20
81.35874773517368
 30
0.0
 10
6.334314996219705
 20
78.6497695880099
 30
0.0
 10
10.90083900679972
 20
75.93841888052665
 30
0.0
 10
20.03386754257749
 20
70.51379382417798
 30
0.0
 10
24.60036922275618
 20
67.80023860853649
 30
0.0
 10
38.29998603311353
 20
59.67060713330746
 30
0.0
 10
47.43316690532696
 20
54.26088843379584
 30
0.0
 10
65.70228742539008
 20
43.71433434761231
 30
0.0
 10
74.83577919306737
 20
38.57892260607687
 30
0.0
 10
88.53589877189965
 20
30.89102925064618
 30
0.0
 10
93.10255960289714
 20
28.33212473552236
 30
0.0
 10
102.2359121370973
 20
23.21179797339146
 30
0.0
 10
106.8026003509419
 20
20.65066029523787
 30
0.0
 10
111.3693180368811
 20
18.08711906891363
 30
0.0
  0
SPLINE
  5
151
330
130
100
AcDbEntity
  8
0
  6
Continuous
 62
     7
370
    25
100
AcDbSpline
210
0.0
220
0.0
230
1.0
 70
     8
 71
     3
 72
    20
 73
    16
 74
     0
 42
0.000000001
 43
0.00000001
 40
0.0
 40
0.0
 40
0.0
 40
0.0
 40
0.1250000000000012
 40
0.1250000000000012
 40
0.2500000000000025
 40
0.2500000000000025
 40
0.3750000000000038
 40
0.3750000000000038
 40
0.500000000000005
 40
0.500000000000005
 40
0.6250000000000062
 40
0.6250000000000062
 40
0.7500000000000075
 40
0.7500000000000075
 40
1.0
 40
1.0
 40
1.0
 40
1.0
 10
-1.767766952966356
 20
81.33027136838497
 30
0.0
 10
-1.651076238778214
 20
81.40128935553795
 30
0.0
 10
-1.524888193607174
 20
81.4643501922556
 30
0.0
 10
-1.254290059559286
 20
81.57520763731115
 30
0.0
 10
-1.108170599738827
 20
81.62339346216224
 30
0.0
 10
-0.8055856269619452
 20
81.70115563887839
 30
0.0
 10
-0.6498646789136684
 20
81.73081858142986
 30
0.0
 10
-0.3296448945920016
 20
81.7718677763779
 30
0.0
 10
-0.1640860322808455
 20
81.78306960867619
 30
0.0
 10
0.1619418828035374
 20
81.78582853767965
 30
0.0
 10
0.3240412321106542
 20
81.77771408918782
 30
0.0
 10
0.6463676271026425
 20
81.74203849695056
 30
0.0
 10
0.8041746085003174
 20
81.71457061268222
 30
0.0
 10
1.255416293226015
 20
81.60621599915815
 30
0.0
 10
1.534319733099372
 20
81.49723383258161
 30
0.0
 10
1.767766952966404
 20
81.35874773517368
 30
0.0
  0
SPLINE
  5
152
330
130
100
AcDbEntity
  8
0
  6
Continuous
 62
     7
370
    25
100
AcDbSpline
210
0.0
220
0.0
230
1.0
 70
     8
 71
     3
 72
    10
 73
     6
 74
     0
 42
0.000000001
 43
0.00000001
 40
0.0
 40
0.0
 40
0.0
 40
0.0
 40
0.4999999999999998
 40
0.4999999999999998
 40
1.0
 40
1.0
 40
1.0
 40
1.0
 10
-30.66969171411534
 20
64.05566992696954
 30
0.0
 10
-25.851971822796
 20
66.8873389023356
 30
0.0
 10
-21.03456187357244
 20
69.73907931524603
 30
0.0
 10
-11.40054894136262
 20
75.49481820041157
 30
0.0
 10
-6.583950966839447
 20
78.39914101406917
 30
0.0
 10
-1.767766952966376
 20
81.33027136838497
 30
0.0
  0
SPLINE
  5
154
330
130
100
AcDbEntity
  8
0
  6
Continuous
 62
     7
370
    25
100
AcDbSpline
210
0.0
220
0.0
230
1.0
 70
     8
 71
     3
 72
    10
 73
     6
 74
     0
 42
0.000000001
 43
0.00000001
 40
0.0
 40
0.0
 40
0.0
 40
0.0
 40
0.5
 40
0.5
 40
1.0
 40
1.0
 40
1.0
 40
1.0
 10
-82.46739327573249
 20
34.15349330117395
 30
0.0
 10
-73.83455935023267
 20
39.06920431734304
 30
0.0
 10
-65.2016628568777
 20
44.00334660479577
 30
0.0
 10
-47.93553309791811
 20
53.97087075765577
 30
0.0
 10
-39.30254955247042
 20
59.00410905907679
 30
0.0
 10
-30.66969171411534
 20
64.05566992696956
 30
0.0
  0
SPLINE
  5
159
330
130
100
AcDbEntity
  8
0
  6
Continuous
 62
     7
370
    25
100
AcDbSpline
210
0.0
220
0.0
230
1.0
 70
    24
 71
     3
 72
     9
 73
     5
 74
     0
 42
0.000000001
 43
0.00000001
 40
0.0
 40
0.0
 40
0.0
 40
0.0
 40
0.9676995542312613
 40
1.0
 40
1.0
 40
1.0
 40
1.0
 10
-5.000000000000241
 20
-45.41282881717152
 30
0.0
 10
-5.000000000000247
 20
-45.10647682035694
 30
0.0
 10
-5.000000000000247
 20
-44.78989922612839
 30
0.0
 10
-5.000000000000234
 20
-44.47384811626711
 30
0.0
 10
-5.000000000000234
 20
-44.46363952453286
 30
0.0
  0
SPLINE
  5
15C
330
130
100
AcDbEntity
  8
0
  6
Continuous
 62
     7
370
    25
100
AcDbSpline
210
0.0
220
0.0
230
1.0
 70
     8
 71
     3
 72
     9
 73
     5
 74
     0
 42
0.000000001
 43
0.00000001
 40
0.0
 40
0.0
 40
0.0
 40
0.0
 40
0.0267967281233292
 40
1.0
 40
1.0
 40
1.0
 40
1.0
 10
-19.77311683755829
 20
-37.12776887337935
 30
0.0
 10
-19.74722843910103
 20
-37.13372609175234
 30
0.0
 10
-18.78112547540659
 20
-37.35603750027822
 30
0.0
 10
-17.77516219738581
 20
-37.50697300749462
 30
0.0
 10
-16.7961554438282
 20
-37.65386393695997
 30
0.0
  0
SPLINE
  5
15D
330
130
100
AcDbEntity
  8
0
  6
Continuous
 62
     7
370
    25
100
AcDbSpline
210
0.0
220
0.0
230
1.0
 70
     8
 71
     3
 72
     9
 73
     5
 74
     0
 42
0.000000001
 43
0.00000001
 40
0.0
 40
0.0
 40
0.0
 40
0.0
 40
0.9800393592968144
 40
0.9999999999999999
 40
0.9999999999999999
 40
0.9999999999999999
 40
0.9999999999999999
 10
77.68387164430371
 20
-4.040139210834175
 30
0.0
 10
76.75312723488852
 20
-4.075380648959147
 30
0.0
 10
75.80342618402157
 20
-4.111339855893705
 30
0.0
 10
74.85377266733573
 20
-4.148123582546176
 30
0.0
 10
74.83481697469662
 20
-4.148857809297601
 30
0.0
  0
SPLINE
  5
160
330
130
100
AcDbEntity
  8
0
  6
Continuous
 62
     7
370
    25
100
AcDbSpline
210
0.0
220
0.0
230
1.0
 70
     8
 71
     3
 72
     9
 73
     5
 74
     0
 42
0.000000001
 43
0.00000001
 40
0.0
 40
0.0
 40
0.0
 40
0.0
 40
0.3114495249111203
 40
1.0
 40
1.0
 40
1.0
 40
1.0
 10
61.47782377356064
 20
-13.46918140580335
 30
0.0
 10
61.63903641580262
 20
-13.23240930469546
 30
0.0
 10
62.15665686260853
 20
-12.47218306522548
 30
0.0
 10
62.49685555162286
 20
-11.68097313764901
 30
0.0
 10
62.73109952056826
 20
-11.13618516612119
 30
0.0
  0
LWPOLYLINE
  5
161
330
130
100
AcDbEntity
  8
0
  6
Continuous
 62
     7
370
    25
100
AcDbPolyline
 90
        3
 70
   128
 43
0.0
 10
43.9162371762
 20
-21.9977740021
 10
43.007757221
 20
-23.974873309
 10
42.855384557
 20
-24.2549394521
  0
LWPOLYLINE
  5
162
330
130
100
AcDbEntity
  8
0
  6
Continuous
 62
     7
370
    25
100
AcDbPolyline
 90
        3
 70
   128
 43
0.0
 10
-42.8832244875
 20
-24.204585908
 10
-43.2901580752
 20
-23.4237587737
 10
-43.9162371762
 20
-21.9977740021
  0
LINE
  5
17C
330
130
100
AcDbEntity
  8
0
  6
Continuous
 62
     7
370
    25
100
AcDbLine
 10
96.9238815543
 20
9.7984897426
 30
0.0
 11
96.9238815543
 21
16.3308162377
 31
0.0
  0
LINE
  5
17D
330
130
100
AcDbEntity
  8
0
  6
Continuous
 62
     7
370
    25
100
AcDbLine
 10
-96.9238815543
 20
16.3308162377
 30
0.0
 11
-96.9238815543
 21
9.7984897426
 31
0.0
  0
LINE
  5
17E
330
130
100
AcDbEntity
  8
0
  6
Continuous
 62
     7
370
    25
100
AcDbLine
 10
95.9238815543
 20
6.7859272489
 30
0.0
 11
95.9238815543
 21
8.0666266064
 31
0.0
  0
LINE
  5
17F
330
130
100
AcDbEntity
  8
0
  6
Continuous
 62
     7
370
    25
100
AcDbLine
 10
-95.9238815543
 20
8.0666266064
 30
0.0
 11
-95.9238815543
 21
6.8752895322
 31
0.0
  0
LINE
  5
180
330
130
100
AcDbEntity
  8
0
  6
Continuous
 62
     7
370
    25
100
AcDbLine
 10
883.8834764832
 20
-155.1128967441
 30
0.0
 11
-318.1980515339
 21
538.8339983052
 31
0.0
  0
LINE
  5
181
330
130
100
AcDbEntity
  8
0
  6
Continuous
 62
     7
370
    25
100
AcDbLine
 10
318.1980515339
 20
-481.6761414732
 30
0.0
 11
883.8834764832
 21
-155.1128967441
 31
0.0
  0
LINE
  5
182
330
130
100
AcDbEntity
  8
0
  6
Continuous
 62
     7
370
    25
100
AcDbLine
 10
-883.8834764832
 20
212.2707535761
 30
0.0
 11
318.1980515339
 21
-481.6761414732
 31
0.0
  0
LINE
  5
183
330
130
100
AcDbEntity
  8
0
  6
Continuous
 62
     7
370
    25
100
AcDbLine
 10
-318.1980515339
 20
538.8339983052
 30
0.0
 11
-883.8834764832
 21
212.2707535761
 31
0.0
  0
LINE
  5
184
330
130
100
AcDbEntity
  8
0
  6
Continuous
 62
     7
370
    25
100
AcDbLine
 10
-318.1980515339
 20
522.5058360687
 30
0.0
 11
-855.5992052357
 21
212.2707535761
 31
0.0
  0
LINE
  5
185
330
130
100
AcDbEntity
  8
0
  6
Continuous
 62
     7
370
    25
100
AcDbLine
 10
-855.5992052357
 20
212.2707535761
 30
0.0
 11
318.1980515339
 21
-465.3479792367
 31
0.0
  0
LINE
  5
186
330
130
100
AcDbEntity
  8
0
  6
Continuous
 62
     7
370
    25
100
AcDbLine
 10
318.1980515339
 20
-465.3479792367
 30
0.0
 11
855.5992052357
 21
-155.1128967441
 31
0.0
  0
LINE
  5
187
330
130
100
AcDbEntity
  8
0
  6
Continuous
 62
     7
370
    25
100
AcDbLine
 10
855.5992052357
 20
-155.1128967441
 30
0.0
 11
-318.1980515339
 21
522.5058360687
 31
0.0
  0
LINE
  5
188
330
130
100
AcDbEntity
  8
0
  6
Continuous
 62
     7
370
    25
100
AcDbLine
 10
318.1980515339
 20
-481.6761414732
 30
0.0
 11
318.1980515339
 21
-510.2550698892
 31
0.0
  0
LINE
  5
189
330
130
100
AcDbEntity
  8
0
  6
Continuous
 62
     7
370
    25
100
AcDbLine
 10
883.8834764832
 20
-155.1128967441
 30
0.0
 11
883.8834764832
 21
-183.6918251601
 31
0.0
  0
LINE
  5
18A
330
130
100
AcDbEntity
  8
0
  6
Continuous
 62
     7
370
    25
100
AcDbLine
 10
318.1980515339
 20
-510.2550698892
 30
0.0
 11
883.8834764832
 21
-183.6918251601
 31
0.0
  0
LINE
  5
18B
330
130
100
AcDbEntity
  8
0
  6
Continuous
 62
     7
370
    25
100
AcDbLine
 10
-883.8834764832
 20
212.2707535761
 30
0.0
 11
-883.8834764832
 21
183.6918251601
 31
0.0
  0
LINE
  5
18C
330
130
100
AcDbEntity
  8
0
  6
Continuous
 62
     7
370
    25
100
AcDbLine
 10
-883.8834764832
 20
183.6918251601
 30
0.0
 11
318.1980515339
 21
-510.2550698892
 31
0.0
  0
LINE
  5
18D
330
130
100
AcDbEntity
  8
0
  6
Continuous
 62
     7
370
    25
100
AcDbLine
 10
318.1980515339
 20
-465.3479792367
 30
0.0
 11
30.6696917141
 21
-31.1591556446
 31
0.0
  0
LINE
  5
18E
330
130
100
AcDbEntity
  8
0
  6
Continuous
 62
     7
370
    25
100
AcDbLine
 10
-855.5992052357
 20
212.2707535761
 30
0.0
 11
-82.4673932757
 21
34.1534933012
 31
0.0
  0
LINE
  5
18F
330
130
100
AcDbEntity
  8
0
  6
Continuous
 62
     7
370
    25
100
AcDbLine
 10
855.5992052357
 20
-155.1128967441
 30
0.0
 11
82.4673932757
 21
-1.2569790188
 31
0.0
  0
LINE
  5
190
330
130
100
AcDbEntity
  8
0
  6
Continuous
 62
     7
370
    25
100
AcDbLine
 10
-30.6696917141
 20
64.055669927
 30
0.0
 11
-318.1980515339
 21
522.5058360687
 31
0.0
  0
LINE
  5
191
330
130
100
AcDbEntity
  8
0
  6
Continuous
 62
     7
370
    25
100
AcDbLine
 10
98.6056550544
 20
8.3888159408
 30
0.0
 11
96.8732836951
 21
9.3888926393
 31
0.0
  0
LINE
  5
192
330
130
100
AcDbEntity
  8
0
  6
Continuous
 62
     7
370
    25
100
AcDbLine
 10
-96.8732836951
 20
9.3888926393
 30
0.0
 11
-98.5383725272
 21
8.427657317
 31
0.0
  0
LINE
  5
193
330
130
100
AcDbEntity
  8
0
  6
Continuous
 62
     7
370
    25
100
AcDbLine
 10
-74.8280374816
 20
-4.1527715274
 30
0.0
 11
-77.4533565516
 21
-4.0520546133
 31
0.0
  0
LINE
  5
194
330
130
100
AcDbEntity
  8
0
  6
Continuous
 62
     7
370
    25
100
AcDbLine
 10
-62.6181064333
 20
-11.201414687
 30
0.0
 11
-61.5112674638
 21
-13.4207296091
 31
0.0
  0
LINE
  5
195
330
130
100
AcDbEntity
  8
0
  6
Continuous
 62
     7
370
    25
100
AcDbLine
 10
5.0
 20
-44.4636395245
 30
0.0
 11
5.0
 21
-45.454046261
 31
0.0
  0
LINE
  5
196
330
130
100
AcDbEntity
  8
0
  6
Continuous
 62
     7
370
    25
100
AcDbLine
 10
16.9131182505
 20
-37.5863427459
 30
0.0
 11
20.1814602823
 21
-36.9998226362
 31
0.0
  0
LINE
  5
197
330
130
100
AcDbEntity
  8
0
  6
Continuous
 62
     7
370
    25
100
AcDbLine
 10
-3.5355339059
 20
71.4383637857
 30
0.0
 11
-95.4594154602
 21
18.3718365173
 31
0.0
  0
LINE
  5
198
330
130
100
AcDbEntity
  8
0
  6
Continuous
 62
     7
370
    25
100
AcDbLine
 10
95.4594154602
 20
18.3718365173
 30
0.0
 11
3.5355339059
 21
71.4383637857
 31
0.0
  0
LINE
  5
199
330
130
100
AcDbEntity
  8
0
  6
Continuous
 62
     7
370
    25
100
AcDbLine
 10
3.5355339059
 20
-38.7767313103
 30
0.0
 11
95.4594154602
 21
14.2897959582
 31
0.0
  0
LINE
  5
19A
330
130
100
AcDbEntity
  8
0
  6
Continuous
 62
     7
370
    25
100
AcDbLine
 10
-95.4594154602
 20
14.2897959582
 30
0.0
 11
-3.5355339059
 21
-38.7767313103
 31
0.0
  0
LINE
  5
19B
330
130
100
AcDbEntity
  8
0
  6
Continuous
 62
     7
370
    25
100
AcDbLine
 10
-3.5355339059
 20
-38.7767313103
 30
0.0
 11
-3.5355339059
 21
-45.3090578054
 31
0.0
  0
LINE
  5
19C
330
130
100
AcDbEntity
  8
0
  6
Continuous
 62
     7
370
    25
100
AcDbLine
 10
3.5355339059
 20
-38.7767313103
 30
0.0
 11
3.5355339059
 21
-45.3090578054
 31
0.0
  0
LINE
  5
19D
330
130
100
AcDbEntity
  8
0
  6
Continuous
 62
     7
370
    25
100
AcDbLine
 10
-95.4594154602
 20
14.2897959582
 30
0.0
 11
-95.4594154602
 21
7.7574694631
 31
0.0
  0
LINE
  5
19E
330
130
100
AcDbEntity
  8
0
  6
Continuous
 62
     7
370
    25
100
AcDbLine
 10
-95.4594154602
 20
7.7574694631
 30
0.0
 11
-3.5355339059
 21
-45.3090578054
 31
0.0
  0
LINE
  5
19F
330
130
100
AcDbEntity
  8
0
  6
Continuous
 62
     7
370
    25
100
AcDbLine
 10
95.4594154602
 20
14.2897959582
 30
0.0
 11
95.4594154602
 21
7.7574694631
 31
0.0
  0
LINE
  5
1A0
330
130
100
AcDbEntity
  8
0
  6
Continuous
 62
     7
370
    25
100
AcDbLine
 10
3.5355339059
 20
-45.3090578054
 30
0.0
 11
95.4594154602
 21
7.7574694631
 31
0.0
  0
LINE
  5
1A1
330
130
100
AcDbEntity
  8
0
  6
Continuous
 62
     7
370
    25
100
AcDbLine
 10
-4.0
 20
-45.0409272366
 30
0.0
 11
-4.0
 21
-45.973648855
 31
0.0
  0
LINE
  5
1A2
330
130
100
AcDbEntity
  8
0
  6
Continuous
 62
     7
370
    25
100
AcDbLine
 10
4.0
 20
-45.0409272366
 30
0.0
 11
4.0
 21
-46.0109244181
 31
0.0
  0
LINE
  5
1A3
330
130
100
AcDbEntity
  8
0
  6
Continuous
 62
    60
370
    25
100
AcDbLine
 10
111.3693180369
 20
16.0176224226
 30
0.0
 11
111.3693180369
 21
18.0871190689
 31
0.0
  0
LINE
  5
1A4
330
130
100
AcDbEntity
  8
0
  6
Continuous
 62
    60
370
    25
100
AcDbLine
 10
-111.3693180369
 20
16.0460987894
 30
0.0
 11
-111.3693180369
 21
18.0586427021
 31
0.0
  0
LINE
  5
1A5
330
130
100
AcDbEntity
  8
0
  6
Continuous
 62
    60
370
    25
100
AcDbLine
 10
1.767766953
 20
72.0973595465
 30
0.0
 11
1.767766953
 21
81.3587477352
 31
0.0
  0
LINE
  5
1A6
330
130
100
AcDbEntity
  8
0
  6
Continuous
 62
    60
370
    25
100
AcDbLine
 10
-1.767766953
 20
72.0973595465
 30
0.0
 11
-1.767766953
 21
81.3302713684
 31
0.0
  0
LINE
  5
1A7
330
130
100
AcDbEntity
  8
0
  6
Continuous
 62
    60
370
    25
100
AcDbLine
 10
91.9238815543
 20
5.7164491835
 30
0.0
 11
91.9238815543
 21
4.3951381808
 31
0.0
  0
LINE
  5
1A8
330
130
100
AcDbEntity
  8
0
  6
Continuous
 62
    60
370
    25
100
AcDbLine
 10
-91.9238815543
 20
5.7164491835
 30
0.0
 11
-91.9238815543
 21
4.5002684656
 31
0.0
  0
ARC
  5
1A9
330
130
100
AcDbEntity
  8
0
  6
Continuous
 62
     7
370
    25
100
AcDbCircle
 10
0.0
 20
64.614808361
 30
0.0
 40
7.685109539558636
100
AcDbArc
 50
62.6096722366
 51
117.3903277634
  0
ARC
  5
1AA
330
130
100
AcDbEntity
  8
0
  6
Continuous
 62
     7
370
    25
100
AcDbCircle
 10
94.6847803262
 20
16.3308162377
 30
0.0
 40
2.183076584171368
100
AcDbArc
 50
290.7834207995
 51
69.2165792005
  0
ARC
  5
1AB
330
130
100
AcDbEntity
  8
0
  6
Continuous
 62
     7
370
    25
100
AcDbCircle
 10
0.0
 20
-31.9531758855
 30
0.0
 40
7.685109539558596
100
AcDbArc
 50
242.6096722366
 51
297.3903277634
  0
ARC
  5
1AC
330
130
100
AcDbEntity
  8
0
  6
Continuous
 62
     7
370
    25
100
AcDbCircle
 10
-94.6847803262
 20
16.3308162377
 30
0.0
 40
2.183076584171361
100
AcDbArc
 50
110.7834207995
 51
249.2165792005
  0
ARC
  5
1AD
330
130
100
AcDbEntity
  8
0
  6
Continuous
 62
     7
370
    25
100
AcDbCircle
 10
0.0
 20
-38.4855023806
 30
0.0
 40
7.685109539558542
100
AcDbArc
 50
242.6096722366
 51
297.3903277634
  0
ARC
  5
1AE
330
130
100
AcDbEntity
  8
0
  6
Continuous
 62
     7
370
    25
100
AcDbCircle
 10
94.4215962418
 20
10.0480216271
 30
0.0
 40
2.514696392468929
100
AcDbArc
 50
294.3746582936
 51
354.3052007488
  0
ARC
  5
1AF
330
130
100
AcDbEntity
  8
0
  6
Continuous
 62
     7
370
    25
100
AcDbCircle
 10
-94.4215962418
 20
10.0480216271
 30
0.0
 40
2.514696392468847
100
AcDbArc
 50
185.6947992512
 51
245.6253417064
  0
VIEWPORT
  5
286
330
130
100
AcDbEntity
  8
0
100
AcDbViewport
 10
0.0
 20
0.0
 30
0.0
 40
205.6
 41
156.0
 68
     1
 69
     1
 12
0.0
 22
0.0
 13
0.0
 23
0.0
 14
10.0
 24
10.0
 15
10.0
 25
10.0
 16
0.0
 26
0.0
 36
1.0
 17
0.0
 27
0.0
 37
0.0
 42
50.0
 43
0.0
 44
0.0
 45
1315.6809338521
 50
0.0
 51
0.0
 72
   100
 90
   557152
  1

281
     0
 71
     1
 74
     0
110
0.0
120
0.0
130
0.0
111
1.0
121
0.0
131
0.0
112
0.0
122
1.0
132
0.0
 79
     0
146
0.0
  0
ENDBLK
  5
133
330
130
100
AcDbEntity
  8
0
100
AcDbBlockEnd
  0
BLOCK
  5
1B2
330
1B0
100
AcDbEntity
  8
0
100
AcDbBlockBegin
  2
*Paper_Space6
 70
     0
 10
0.0
 20
0.0
 30
0.0
  3
*Paper_Space6
  1

  0
SPLINE
  5
1C5
330
1B0
100
AcDbEntity
  8
0
  6
Continuous
 62
     7
370
    25
100
AcDbSpline
210
0.0
220
0.0
230
1.0
 70
     8
 71
     3
 72
    10
 73
     6
 74
     0
 42
0.000000001
 43
0.00000001
 40
0.0
 40
0.0
 40
0.0
 40
0.0
 40
0.5
 40
0.5
 40
1.0
 40
1.0
 40
1.0
 40
1.0
 10
53.66002826012865
 20
-18.64634483862852
 30
0.0
 10
50.4802996558258
 20
-21.69688842276669
 30
0.0
 10
47.30077561545978
 20
-24.72597443847946
 30
0.0
 10
40.94226013805164
 20
-30.72827947574024
 30
0.0
 10
37.76327200663001
 20
-33.70115175691053
 30
0.0
 10
34.58455709211377
 20
-36.6453651721316
 30
0.0
  0
SPLINE
  5
1C8
330
1B0
100
AcDbEntity
  8
0
  6
Continuous
 62
     7
370
    25
100
AcDbSpline
210
0.0
220
0.0
230
1.0
 70
     8
 71
     3
 72
    10
 73
     6
 74
     0
 42
0.000000001
 43
0.00000001
 40
0.0
 40
0.0
 40
0.0
 40
0.0
 40
0.4999999999999998
 40
0.4999999999999998
 40
1.0
 40
1.0
 40
1.0
 40
1.0
 10
-106.9223423762738
 20
1.813177977295841
 30
0.0
 10
-103.7436274617576
 20
4.757391392516914
 30
0.0
 10
-100.5646393303359
 20
7.730263673687163
 30
0.0
 10
-94.20612385292773
 20
13.73256871094793
 30
0.0
 10
-91.02659981256184
 20
16.7616547266607
 30
0.0
 10
-87.84687120825896
 20
19.81219831079887
 30
0.0
  0
SPLINE
  5
1C9
330
1B0
100
AcDbEntity
  8
0
  6
Continuous
 62
     7
370
    25
100
AcDbSpline
210
0.0
220
0.0
230
1.0
 70
     8
 71
     3
 72
    20
 73
    16
 74
     0
 42
0.000000001
 43
0.00000001
 40
0.0
 40
0.0
 40
0.0
 40
0.0
 40
0.1250000000000007
 40
0.1250000000000007
 40
0.2500000000000014
 40
0.2500000000000014
 40
0.3750000000000022
 40
0.3750000000000022
 40
0.5000000000000029
 40
0.5000000000000029
 40
0.6250000000000036
 40
0.6250000000000036
 40
0.7500000000000043
 40
0.7500000000000043
 40
1.0
 40
1.0
 40
1.0
 40
1.0
 10
-105.8780355444054
 20
0.1033839145815896
 30
0.0
 10
-106.0240273563554
 20
0.145013831369771
 30
0.0
 10
-106.1600308260699
 20
0.1929251916052283
 30
0.0
 10
-106.4128742346778
 20
0.3008068369927466
 30
0.0
 10
-106.5308175968729
 20
0.3615258310491476
 30
0.0
 10
-106.7399718301614
 20
0.491901572685069
 30
0.0
 10
-106.8311219643737
 20
0.5611848147519181
 30
0.0
 10
-106.9868097999938
 20
0.7078797248801159
 30
0.0
 10
-107.0513443625493
 20
0.7858356826077815
 30
0.0
 10
-107.1477320760521
 20
0.9434365151191684
 30
0.0
 10
-107.1805696030171
 20
1.02380720660445
 30
0.0
 10
-107.2148063598807
 20
1.187772323183539
 30
0.0
 10
-107.2156707624814
 20
1.270144869006014
 30
0.0
 10
-107.1708093992514
 20
1.512061436225884
 30
0.0
 10
-107.0763751271669
 20
1.670508595561802
 30
0.0
 10
-106.9223423762738
 20
1.813177977295861
 30
0.0
  0
SPLINE
  5
1CA
330
1B0
100
AcDbEntity
  8
0
  6
Continuous
 62
     7
370
    25
100
AcDbSpline
210
0.0
220
0.0
230
1.0
 70
     8
 71
     3
 72
    18
 73
    14
 74
     0
 42
0.000000001
 43
0.00000001
 40
0.0
 40
0.0
 40
0.0
 40
0.0
 40
0.125
 40
0.125
 40
0.25
 40
0.25
 40
0.5
 40
0.5
 40
0.7499999999999999
 40
0.7499999999999999
 40
0.8749999999999999
 40
0.8749999999999999
 40
1.0
 40
1.0
 40
1.0
 40
1.0
 10
31.20677331559502
 20
-37.15332976142624
 30
0.0
 10
25.49513548320612
 20
-35.67741549089848
 30
0.0
 10
19.78352770983004
 20
-34.20401455942147
 30
0.0
 10
8.360336534538611
 20
-31.25925047943388
 30
0.0
 10
2.648756691048304
 20
-29.78818486326869
 30
0.0
 10
-14.4861226362088
 20
-25.36329911717648
 30
0.0
 10
-25.90950434722679
 20
-22.40274292270362
 30
0.0
 10
-48.75971832472509
 20
-16.19256044502968
 30
0.0
 10
-60.18348889014165
 20
-12.94375522946376
 30
0.0
 10
-77.31899705813694
 20
-8.054677365209004
 30
0.0
 10
-83.03077596048513
 20
-6.421115950514706
 30
0.0
 10
-94.45437237878062
 20
-3.156606917996262
 30
0.0
 10
-100.1661855303919
 20
-1.525363873489324
 30
0.0
 10
-105.8780355444054
 20
0.1033839145815896
 30
0.0
  0
SPLINE
  5
1CB
330
1B0
100
AcDbEntity
  8
0
  6
Continuous
 62
     7
370
    25
100
AcDbSpline
210
0.0
220
0.0
230
1.0
 70
     8
 71
     3
 72
    20
 73
    16
 74
     0
 42
0.000000001
 43
0.00000001
 40
0.0
 40
0.0
 40
0.0
 40
0.0
 40
0.125
 40
0.125
 40
0.25
 40
0.25
 40
0.375
 40
0.375
 40
0.5
 40
0.5
 40
0.625
 40
0.625
 40
0.75
 40
0.75
 40
1.0
 40
1.0
 40
1.0
 40
1.0
 10
34.5845570921137
 20
-36.64536517213157
 30
0.0
 10
34.50754040992157
 20
-36.71670014711484
 30
0.0
 10
34.41749676883255
 20
-36.78313611393013
 30
0.0
 10
34.21241528262208
 20
-36.90660552244488
 30
0.0
 10
34.09592887737585
 20
-36.96417646805566
 30
0.0
 10
33.84387318398944
 20
-37.066232005076
 30
0.0
 10
33.70906088745127
 20
-37.11068212614477
 30
0.0
 10
33.42202428969389
 20
-37.18655006487683
 30
0.0
 10
33.26869227807258
 20
-37.21796964269948
 30
0.0
 10
32.95725252767861
 20
-37.26482531710403
 30
0.0
 10
32.79774217136098
 20
-37.2807406200541
 30
0.0
 10
32.47096137882582
 20
-37.29720239328202
 30
0.0
 10
32.30605870189757
 20
-37.29748977441362
 30
0.0
 10
31.81988539681238
 20
-37.27517467729638
 30
0.0
 10
31.49875885045179
 20
-37.22878020669765
 30
0.0
 10
31.20677331559502
 20
-37.15332976142624
 30
0.0
  0
SPLINE
  5
1CC
330
1B0
100
AcDbEntity
  8
0
  6
Continuous
 62
     7
370
    25
100
AcDbSpline
210
0.0
220
0.0
230
1.0
 70
     8
 71
     3
 72
    10
 73
     6
 74
     0
 42
0.000000001
 43
0.00000001
 40
0.0
 40
0.0
 40
0.0
 40
0.0
 40
0.5
 40
0.5
 40
1.0
 40
1.0
 40
1.0
 40
1.0
 10
87.84687120825846
 20
14.72106192486524
 30
0.0
 10
82.14914083199318
 20
9.088605261080604
 30
0.0
 10
76.45136916048465
 20
3.4754186831371
 30
0.0
 10
65.05560354549092
 20
-7.647198322219967
 30
0.0
 10
59.35777441904451
 20
-13.15646725708615
 30
0.0
 10
53.6600282601286
 20
-18.64634483862851
 30
0.0
  0
SPLINE
  5
1CE
330
1B0
100
AcDbEntity
  8
0
  6
Continuous
 62
     7
370
    25
100
AcDbSpline
210
0.0
220
0.0
230
1.0
 70
     8
 71
     3
 72
    10
 73
     6
 74
     0
 42
0.000000001
 43
0.00000001
 40
0.0
 40
0.0
 40
0.0
 40
0.0
 40
0.5
 40
0.5
 40
1.0
 40
1.0
 40
1.0
 40
1.0
 10
106.9223423762733
 20
33.95853088253082
 30
0.0
 10
103.7436274617571
 20
30.69769788859527
 30
0.0
 10
100.5646393303354
 20
27.46499042445773
 30
0.0
 10
94.20612385292722
 20
21.05508339121178
 30
0.0
 10
91.02659981256134
 20
17.87754353449934
 30
0.0
 10
87.84687120825848
 20
14.72106192486523
 30
0.0
  0
SPLINE
  5
1CF
330
1B0
100
AcDbEntity
  8
0
  6
Continuous
 62
     7
370
    25
100
AcDbSpline
210
0.0
220
0.0
230
1.0
 70
     8
 71
     3
 72
    20
 73
    16
 74
     0
 42
0.000000001
 43
0.00000001
 40
0.0
 40
0.0
 40
0.0
 40
0.0
 40
0.125
 40
0.125
 40
0.25
 40
0.25
 40
0.375
 40
0.375
 40
0.5
 40
0.5
 40
0.625
 40
0.625
 40
0.75
 40
0.75
 40
1.0
 40
1.0
 40
1.0
 40
1.0
 10
105.8780355444049
 20
35.72811132725752
 30
0.0
 10
106.0240273563549
 20
35.69038635152196
 30
0.0
 10
106.1600308260694
 20
35.64551731434972
 30
0.0
 10
106.4128742346774
 20
35.54208025921456
 30
0.0
 10
106.5308175968725
 20
35.48276507402895
 30
0.0
 10
106.739971830161
 20
35.35343820356843
 30
0.0
 10
106.8311219643733
 20
35.28382120907472
 30
0.0
 10
106.9868097999934
 20
35.13478053555627
 30
0.0
 10
107.0513443625489
 20
35.05477850160821
 30
0.0
 10
107.1477320760516
 20
34.89156637164366
 30
0.0
 10
107.1805696030166
 20
34.8076281086215
 30
0.0
 10
107.2148063598803
 20
34.63498583595928
 30
0.0
 10
107.215670762481
 20
34.54755655794753
 30
0.0
 10
107.170809399251
 20
34.28878176606572
 30
0.0
 10
107.0763751271665
 20
34.11654287472462
 30
0.0
 10
106.9223423762734
 20
33.9585308825308
 30
0.0
  0
SPLINE
  5
1D0
330
1B0
100
AcDbEntity
  8
0
  6
Continuous
 62
     7
370
    25
100
AcDbSpline
210
0.0
220
0.0
230
1.0
 70
     8
 71
     3
 72
    18
 73
    14
 74
     0
 42
0.000000001
 43
0.00000001
 40
0.0
 40
0.0
 40
0.0
 40
0.0
 40
0.1250000000000001
 40
0.1250000000000001
 40
0.2500000000000001
 40
0.2500000000000001
 40
0.4999999999999999
 40
0.4999999999999999
 40
0.7499999999999999
 40
0.7499999999999999
 40
0.8749999999999999
 40
0.8749999999999999
 40
1.0
 40
1.0
 40
1.0
 40
1.0
 10
-31.20677331559542
 20
72.98482500326534
 30
0.0
 10
-25.49513548320652
 20
71.35613771929569
 30
0.0
 10
-19.78352770983042
 20
69.72495343506647
 30
0.0
 10
-8.36033653453902
 20
66.46056033092331
 30
0.0
 10
-2.6487566910487
 20
64.82705591287139
 30
0.0
 10
14.48612263620841
 20
59.93815556876994
 30
0.0
 10
25.90950434722639
 20
56.68945101205639
 30
0.0
 10
48.75971832472469
 20
50.47923641328126
 30
0.0
 10
60.18348889014128
 20
47.51856951307403
 30
0.0
 10
77.31899705813655
 20
43.09351947625872
 30
0.0
 10
83.03077596048476
 20
41.62240265687128
 30
0.0
 10
94.45437237878018
 20
38.67753423252857
 30
0.0
 10
100.1661855303915
 20
37.20408042652211
 30
0.0
 10
105.878035544405
 20
35.72811132725754
 30
0.0
  0
SPLINE
  5
1D1
330
1B0
100
AcDbEntity
  8
0
  6
Continuous
 62
     7
370
    25
100
AcDbSpline
210
0.0
220
0.0
230
1.0
 70
     8
 71
     3
 72
    20
 73
    16
 74
     0
 42
0.000000001
 43
0.00000001
 40
0.0
 40
0.0
 40
0.0
 40
0.0
 40
0.1250000000000012
 40
0.1250000000000012
 40
0.2500000000000025
 40
0.2500000000000025
 40
0.3750000000000038
 40
0.3750000000000038
 40
0.500000000000005
 40
0.500000000000005
 40
0.6250000000000062
 40
0.6250000000000062
 40
0.7500000000000075
 40
0.7500000000000075
 40
1.0
 40
1.0
 40
1.0
 40
1.0
 10
-34.58455709211412
 20
72.41707403195821
 30
0.0
 10
-34.50754040992197
 20
72.49608034272512
 30
0.0
 10
-34.41749676883296
 20
72.56970359548798
 30
0.0
 10
-34.21241528262248
 20
72.70662480588378
 30
0.0
 10
-34.09592887737631
 20
72.77052019629701
 30
0.0
 10
-33.84387318398988
 20
72.88389820595404
 30
0.0
 10
-33.70906088745164
 20
72.93334084357977
 30
0.0
 10
-33.42202428969432
 20
73.0178575052093
 30
0.0
 10
-33.268692278073
 20
73.05293583699599
 30
0.0
 10
-32.95725252767906
 20
73.1054144538141
 30
0.0
 10
-32.79774217136136
 20
73.12334777801216
 30
0.0
 10
-32.47096137882623
 20
73.14219918578479
 30
0.0
 10
-32.30605870189797
 20
73.14282552789838
 30
0.0
 10
-31.8198853968128
 20
73.11897044770957
 30
0.0
 10
-31.49875885045219
 20
73.06808538175567
 30
0.0
 10
-31.2067733155954
 20
72.98482500326534
 30
0.0
  0
SPLINE
  5
1D2
330
1B0
100
AcDbEntity
  8
0
  6
Continuous
 62
     7
370
    25
100
AcDbSpline
210
0.0
220
0.0
230
1.0
 70
     8
 71
     3
 72
    10
 73
     6
 74
     0
 42
0.000000001
 43
0.00000001
 40
0.0
 40
0.0
 40
0.0
 40
0.0
 40
0.4999999999999998
 40
0.4999999999999998
 40
1.0
 40
1.0
 40
1.0
 40
1.0
 10
-53.66002826012901
 20
53.17960507429266
 30
0.0
 10
-50.48029965582617
 20
56.33608668392679
 30
0.0
 10
-47.3007756154602
 20
59.51362654063922
 30
0.0
 10
-40.94226013805208
 20
65.92353357388515
 30
0.0
 10
-37.76327200663037
 20
69.1562410380227
 30
0.0
 10
-34.58455709211414
 20
72.41707403195821
 30
0.0
  0
SPLINE
  5
1D4
330
1B0
100
AcDbEntity
  8
0
  6
Continuous
 62
     7
370
    25
100
AcDbSpline
210
0.0
220
0.0
230
1.0
 70
     8
 71
     3
 72
    10
 73
     6
 74
     0
 42
0.000000001
 43
0.00000001
 40
0.0
 40
0.0
 40
0.0
 40
0.0
 40
0.5
 40
0.5
 40
1.0
 40
1.0
 40
1.0
 40
1.0
 10
-87.8468712082589
 20
19.81219831079887
 30
0.0
 10
-82.1491408319936
 20
25.30206068548269
 30
0.0
 10
-76.45136916048502
 20
30.81127375672688
 30
0.0
 10
-65.05560354549128
 20
41.9338899385268
 30
0.0
 10
-59.35777441904492
 20
47.54713280866487
 30
0.0
 10
-53.66002826012902
 20
53.17960507429269
 30
0.0
  0
SPLINE
  5
1DA
330
1B0
100
AcDbEntity
  8
0
  6
Continuous
 62
     7
370
    25
100
AcDbSpline
210
0.0
220
0.0
230
1.0
 70
     8
 71
     3
 72
    10
 73
     6
 74
     0
 42
0.000000001
 43
0.00000001
 40
0.0
 40
0.0
 40
0.0
 40
0.0
 40
0.2819730153561498
 40
0.7516909196580401
 40
1.0
 40
1.0
 40
1.0
 40
1.0
 10
40.33122039805129
 20
-27.60044148959686
 30
0.0
 10
41.18356332527786
 20
-27.23536185644695
 30
0.0
 10
43.45576103193327
 20
-26.26212317669507
 30
0.0
 10
46.2539703593626
 20
-24.83090631318001
 30
0.0
 10
48.0620922852884
 20
-23.72189954383874
 30
0.0
 10
48.68737949896527
 20
-23.3383812960883
 30
0.0
  0
SPLINE
  5
1DB
330
1B0
100
AcDbEntity
  8
0
  6
Continuous
 62
     7
370
    25
100
AcDbSpline
210
0.0
220
0.0
230
1.0
 70
     8
 71
     3
 72
    11
 73
     7
 74
     0
 42
0.000000001
 43
0.00000001
 40
0.0
 40
0.0
 40
0.0
 40
0.0
 40
0.0078597425134211
 40
0.4420558890146906
 40
0.8792584928740401
 40
1.0
 40
1.0
 40
1.0
 40
1.0
 10
62.80363343549687
 20
-9.81317354381324
 30
0.0
 10
62.81329469855897
 20
-9.797554108095703
 30
0.0
 10
63.35667359737518
 20
-8.919069408344713
 30
0.0
 10
64.01002003720103
 20
-7.131639152951893
 30
0.0
 10
64.6774349769894
 20
-5.113351348727521
 30
0.0
 10
64.77349116634863
 20
-3.970964595114391
 30
0.0
 10
64.79427813917201
 20
-3.723747184559775
 30
0.0
  0
LWPOLYLINE
  5
1E0
330
1B0
100
AcDbEntity
  8
0
  6
Continuous
 62
     7
370
    25
100
AcDbPolyline
 90
        9
 70
   128
 43
0.0
 10
92.2444687979
 20
29.9258188284
 10
92.6147383354
 20
30.3932386389
 10
92.80084016
 20
30.8888814008
 10
92.7956224831
 20
31.3936998408
 10
92.599285817
 20
31.8882940694
 10
92.2193752697
 20
32.3536571077
 10
91.6704905905
 20
32.7719053152
 10
90.9737251097
 20
33.1269656477
 10
90.1558551341
 20
33.4051933359
  0
LWPOLYLINE
  5
1E4
330
1B0
100
AcDbEntity
  8
0
  6
Continuous
 62
     7
370
    25
100
AcDbPolyline
 90
        9
 70
   128
 43
0.0
 10
-92.2444687979
 20
4.3608731996
 10
-92.6147383354
 20
3.8934533892
 10
-92.80084016
 20
3.3978106273
 10
-92.7956224831
 20
2.8929921873
 10
-92.599285817
 20
2.3983979587
 10
-92.2193752697
 20
1.9330349204
 10
-91.6704905905
 20
1.5147867129
 10
-90.9737251097
 20
1.1597263804
 10
-90.1558551341
 20
0.8814986922
  0
LINE
  5
1F1
330
1B0
100
AcDbEntity
  8
0
  6
Continuous
 62
     7
370
    25
100
AcDbLine
 10
31.1519776286
 20
-37.1719614532
 30
0.0
 11
31.1519776286
 21
-36.490975213
 31
0.0
  0
LINE
  5
1F2
330
1B0
100
AcDbEntity
  8
0
  6
Continuous
 62
     7
370
    25
100
AcDbLine
 10
-92.8223781895
 20
3.1590437262
 30
0.0
 11
-92.8223781895
 21
-3.6982946794
 31
0.0
  0
LINE
  5
1F3
330
1B0
100
AcDbEntity
  8
0
  6
Continuous
 62
     7
370
    25
100
AcDbLine
 10
92.8223781895
 20
24.2703098962
 30
0.0
 11
92.8223781895
 21
31.1276483019
 31
0.0
  0
LINE
  5
1F4
330
1B0
100
AcDbEntity
  8
0
  6
Continuous
 62
     7
370
    25
100
AcDbLine
 10
91.8223781895
 20
18.7303307638
 30
0.0
 11
91.8223781895
 21
22.6565070493
 31
0.0
  0
LINE
  5
1F5
330
1B0
100
AcDbEntity
  8
0
  6
Continuous
 62
     7
370
    25
100
AcDbLine
 10
938.4335589978
 20
7.893447765
 30
0.0
 11
-565.0772478538
 21
416.5154687276
 31
0.0
  0
LINE
  5
1F6
330
1B0
100
AcDbEntity
  8
0
  6
Continuous
 62
     7
370
    25
100
AcDbLine
 10
565.0772478538
 20
-356.5137576785
 30
0.0
 11
938.4335589978
 21
7.893447765
 31
0.0
  0
LINE
  5
1F7
330
1B0
100
AcDbEntity
  8
0
  6
Continuous
 62
     7
370
    25
100
AcDbLine
 10
-938.4335589978
 20
52.1082632842
 30
0.0
 11
565.0772478538
 21
-356.5137576785
 31
0.0
  0
LINE
  5
1F8
330
1B0
100
AcDbEntity
  8
0
  6
Continuous
 62
     7
370
    25
100
AcDbLine
 10
-565.0772478538
 20
416.5154687276
 30
0.0
 11
-938.4335589978
 21
52.1082632842
 31
0.0
  0
LINE
  5
1F9
330
1B0
100
AcDbEntity
  8
0
  6
Continuous
 62
     7
370
    25
100
AcDbLine
 10
-556.7227931988
 20
402.5979706979
 30
0.0
 11
-911.4112887857
 21
56.4111255266
 31
0.0
  0
LINE
  5
1FA
330
1B0
100
AcDbEntity
  8
0
  6
Continuous
 62
     7
370
    25
100
AcDbLine
 10
-911.4112887857
 20
56.4111255266
 30
0.0
 11
556.7227931988
 21
-342.5962596487
 31
0.0
  0
LINE
  5
1FB
330
1B0
100
AcDbEntity
  8
0
  6
Continuous
 62
     7
370
    25
100
AcDbLine
 10
556.7227931988
 20
-342.5962596487
 30
0.0
 11
911.4112887857
 21
3.5905855225
 31
0.0
  0
LINE
  5
1FC
330
1B0
100
AcDbEntity
  8
0
  6
Continuous
 62
     7
370
    25
100
AcDbLine
 10
911.4112887857
 20
3.5905855225
 30
0.0
 11
-556.7227931988
 21
402.5979706979
 31
0.0
  0
LINE
  5
1FD
330
1B0
100
AcDbEntity
  8
0
  6
Continuous
 62
     7
370
    25
100
AcDbLine
 10
565.0772478538
 20
-356.5137576785
 30
0.0
 11
565.0772478538
 21
-386.514613203
 31
0.0
  0
LINE
  5
1FE
330
1B0
100
AcDbEntity
  8
0
  6
Continuous
 62
     7
370
    25
100
AcDbLine
 10
938.4335589978
 20
7.893447765
 30
0.0
 11
938.4335589978
 21
-22.1074077596
 31
0.0
  0
LINE
  5
1FF
330
1B0
100
AcDbEntity
  8
0
  6
Continuous
 62
     7
370
    25
100
AcDbLine
 10
565.0772478538
 20
-386.514613203
 30
0.0
 11
938.4335589978
 21
-22.1074077596
 31
0.0
  0
LINE
  5
200
330
1B0
100
AcDbEntity
  8
0
  6
Continuous
 62
     7
370
    25
100
AcDbLine
 10
-938.4335589978
 20
52.1082632842
 30
0.0
 11
-938.4335589978
 21
22.1074077596
 31
0.0
  0
LINE
  5
201
330
1B0
100
AcDbEntity
  8
0
  6
Continuous
 62
     7
370
    25
100
AcDbLine
 10
-938.4335589978
 20
22.1074077596
 30
0.0
 11
565.0772478538
 21
-386.514613203
 31
0.0
  0
LINE
  5
202
330
1B0
100
AcDbEntity
  8
0
  6
Continuous
 62
     7
370
    25
100
AcDbLine
 10
556.7227931988
 20
-342.5962596487
 30
0.0
 11
53.6600282601
 21
-18.6463448386
 31
0.0
  0
LINE
  5
203
330
1B0
100
AcDbEntity
  8
0
  6
Continuous
 62
     7
370
    25
100
AcDbLine
 10
-911.4112887857
 20
56.4111255266
 30
0.0
 11
-87.8468712083
 21
19.8121983108
 31
0.0
  0
LINE
  5
204
330
1B0
100
AcDbEntity
  8
0
  6
Continuous
 62
     7
370
    25
100
AcDbLine
 10
911.4112887857
 20
3.5905855225
 30
0.0
 11
87.8468712083
 21
14.7210619249
 31
0.0
  0
LINE
  5
205
330
1B0
100
AcDbEntity
  8
0
  6
Continuous
 62
     7
370
    25
100
AcDbLine
 10
-53.6600282601
 20
53.1796050743
 30
0.0
 11
-556.7227931988
 21
402.5979706979
 31
0.0
  0
LINE
  5
206
330
1B0
100
AcDbEntity
  8
0
  6
Continuous
 62
     7
370
    25
100
AcDbLine
 10
-92.8223781895
 20
-2.3106791519
 30
0.0
 11
-93.8643862719
 21
-3.3277109846
 31
0.0
  0
LINE
  5
207
330
1B0
100
AcDbEntity
  8
0
  6
Continuous
 62
     7
370
    25
100
AcDbLine
 10
94.0891321407
 20
21.0163350458
 30
0.0
 11
91.8223781895
 21
21.6323901991
 31
0.0
  0
LINE
  5
208
330
1B0
100
AcDbEntity
  8
0
  6
Continuous
 62
     7
370
    25
100
AcDbLine
 10
82.5661154467
 20
9.5287946199
 30
0.0
 11
77.2836026029
 21
8.4662163699
 31
0.0
  0
LINE
  5
209
330
1B0
100
AcDbEntity
  8
0
  6
Continuous
 62
     7
370
    25
100
AcDbLine
 10
64.6647968002
 20
-3.8501249409
 30
0.0
 11
64.7707525956
 21
-4.436448033
 31
0.0
  0
LINE
  5
20A
330
1B0
100
AcDbEntity
  8
0
  6
Continuous
 62
     7
370
    25
100
AcDbLine
 10
-31.574068237
 20
63.5770440842
 30
0.0
 11
-92.2444687979
 21
4.3608731996
 31
0.0
  0
LINE
  5
20B
330
1B0
100
AcDbEntity
  8
0
  6
Continuous
 62
     7
370
    25
100
AcDbLine
 10
90.1558551341
 20
33.4051933359
 30
0.0
 11
-24.8185006839
 21
64.6527596448
 31
0.0
  0
LINE
  5
20C
330
1B0
100
AcDbEntity
  8
0
  6
Continuous
 62
     7
370
    25
100
AcDbLine
 10
31.574068237
 20
-29.2903520561
 30
0.0
 11
92.2444687979
 21
29.9258188284
 31
0.0
  0
LINE
  5
20D
330
1B0
100
AcDbEntity
  8
0
  6
Continuous
 62
     7
370
    25
100
AcDbLine
 10
-90.1558551341
 20
0.8814986922
 30
0.0
 11
24.8185006839
 21
-30.3660676167
 31
0.0
  0
LINE
  5
20E
330
1B0
100
AcDbEntity
  8
0
  6
Continuous
 62
     7
370
    25
100
AcDbLine
 10
31.574068237
 20
-29.2903520561
 30
0.0
 11
31.574068237
 21
-36.1476904617
 31
0.0
  0
LINE
  5
20F
330
1B0
100
AcDbEntity
  8
0
  6
Continuous
 62
     7
370
    25
100
AcDbLine
 10
92.2444687979
 20
29.9258188284
 30
0.0
 11
92.2444687979
 21
23.0684804228
 31
0.0
  0
LINE
  5
210
330
1B0
100
AcDbEntity
  8
0
  6
Continuous
 62
     7
370
    25
100
AcDbLine
 10
31.574068237
 20
-36.1476904617
 30
0.0
 11
92.2444687979
 21
23.0684804228
 31
0.0
  0
LINE
  5
211
330
1B0
100
AcDbEntity
  8
0
  6
Continuous
 62
    60
370
    25
100
AcDbLine
 10
-106.9223423763
 20
0.6696033423
 30
0.0
 11
-106.9223423763
 21
1.8131779773
 31
0.0
  0
LINE
  5
212
330
1B0
100
AcDbEntity
  8
0
  6
Continuous
 62
    60
370
    25
100
AcDbLine
 10
-34.5845570921
 20
60.6387146708
 30
0.0
 11
-34.5845570921
 21
72.417074032
 31
0.0
  0
LINE
  5
213
330
1B0
100
AcDbEntity
  8
0
  6
Continuous
 62
    60
370
    25
100
AcDbLine
 10
105.8780355444
 20
32.9053553104
 30
0.0
 11
105.8780355444
 21
35.7281113273
 31
0.0
  0
LINE
  5
214
330
1B0
100
AcDbEntity
  8
0
  6
Continuous
 62
    60
370
    25
100
AcDbLine
 10
-31.2067733156
 20
63.8819656894
 30
0.0
 11
-31.2067733156
 21
72.9848250033
 31
0.0
  0
LINE
  5
215
330
1B0
100
AcDbEntity
  8
0
  6
Continuous
 62
    60
370
    25
100
AcDbLine
 10
24.8185006839
 20
-30.3660676167
 30
0.0
 11
24.8185006839
 21
-35.5054280601
 31
0.0
  0
LINE
  5
216
330
1B0
100
AcDbEntity
  8
0
  6
Continuous
 62
    60
370
    25
100
AcDbLine
 10
-90.1558551341
 20
0.8814986922
 30
0.0
 11
-90.1558551341
 21
-4.3868664486
 31
0.0
  0
LINE
  5
217
330
1B0
100
AcDbEntity
  8
0
  6
Continuous
 62
    60
370
    25
100
AcDbLine
 10
89.0038764974
 20
19.9055629926
 30
0.0
 11
89.0038764974
 21
15.8878930421
 31
0.0
  0
ARC
  5
218
330
1B0
100
AcDbEntity
  8
0
  6
Continuous
 62
     7
370
    25
100
AcDbCircle
 10
-27.1104672824
 20
57.2958954606
 30
0.0
 40
7.705618827393995
100
AcDbArc
 50
72.6960345908
 51
125.398914916
  0
ARC
  5
219
330
1B0
100
AcDbEntity
  8
0
  6
Continuous
 62
     7
370
    25
100
AcDbCircle
 10
27.1104672824
 20
-23.0092034325
 30
0.0
 40
7.705618827393899
100
AcDbArc
 50
252.6960345908
 51
305.398914916
  0
ARC
  5
21A
330
1B0
100
AcDbEntity
  8
0
  6
Continuous
 62
     7
370
    25
100
AcDbCircle
 10
28.6987987342
 20
-32.9756650651
 30
0.0
 40
4.281228775744196
100
AcDbArc
 50
292.3792508641
 51
312.1906063828
  0
ARC
  5
21B
330
1B0
100
AcDbEntity
  8
0
  6
Continuous
 62
     7
370
    25
100
AcDbCircle
 10
91.1630990458
 20
24.3283267181
 30
0.0
 40
1.660293115197129
100
AcDbArc
 50
310.6406362013
 51
357.9974645044
  0
VIEWPORT
  5
288
330
1B0
100
AcDbEntity
  8
0
100
AcDbViewport
 10
0.0
 20
0.0
 30
0.0
 40
205.6
 41
156.0
 68
     1
 69
     1
 12
0.0
 22
0.0
 13
0.0
 23
0.0
 14
10.0
 24
10.0
 15
10.0
 25
10.0
 16
0.0
 26
0.0
 36
1.0
 17
0.0
 27
0.0
 37
0.0
 42
50.0
 43
0.0
 44
0.0
 45
1315.6809338521
 50
0.0
 51
0.0
 72
   100
 90
   557152
  1

281
     0
 71
     1
 74
     0
110
0.0
120
0.0
130
0.0
111
1.0
121
0.0
131
0.0
112
0.0
122
1.0
132
0.0
 79
     0
146
0.0
  0
ENDBLK
  5
1B3
330
1B0
100
AcDbEntity
  8
0
100
AcDbBlockEnd
  0
BLOCK
  5
21E
330
21C
100
AcDbEntity
  8
0
100
AcDbBlockBegin
  2
*Paper_Space7
 70
     0
 10
0.0
 20
0.0
 30
0.0
  3
*Paper_Space7
  1

  0
SPLINE
  5
230
330
21C
100
AcDbEntity
  8
0
  6
Continuous
 62
     7
370
    25
100
AcDbSpline
210
0.0
220
0.0
230
1.0
 70
     8
 71
     3
 72
    10
 73
     6
 74
     0
 42
0.000000001
 43
0.00000001
 40
0.0
 40
0.0
 40
0.0
 40
0.0
 40
0.5
 40
0.5
 40
1.0
 40
1.0
 40
1.0
 40
1.0
 10
61.88372235049759
 20
-1.856627582925536
 30
0.0
 10
59.47486240539053
 20
-3.92278108892032
 30
0.0
 10
57.06615743133131
 20
-5.965416084515511
 30
0.0
 10
52.24915096633144
 20
-9.989453206388651
 30
0.0
 10
49.84085197962241
 20
-11.97047528880432
 30
0.0
 10
47.4327599732383
 20
-13.92008589795775
 30
0.0
  0
SPLINE
  5
233
330
21C
100
AcDbEntity
  8
0
  6
Continuous
 62
     7
370
    25
100
AcDbSpline
210
0.0
220
0.0
230
1.0
 70
     8
 71
     3
 72
    10
 73
     6
 74
     0
 42
0.000000001
 43
0.00000001
 40
0.0
 40
0.0
 40
0.0
 40
0.0
 40
0.4999999999999998
 40
0.4999999999999998
 40
1.0
 40
1.0
 40
1.0
 40
1.0
 10
-102.2335355026244
 20
4.936094924871272
 30
0.0
 10
-99.82544349624033
 20
6.885705534024705
 30
0.0
 10
-97.41714450953123
 20
8.866727616440345
 30
0.0
 10
-92.60013804453135
 20
12.89076473831349
 30
0.0
 10
-90.19143307047227
 20
14.93339973390867
 30
0.0
 10
-87.78257312536518
 20
16.99955323990346
 30
0.0
  0
SPLINE
  5
234
330
21C
100
AcDbEntity
  8
0
  6
Continuous
 62
     7
370
    25
100
AcDbSpline
210
0.0
220
0.0
230
1.0
 70
     8
 71
     3
 72
    20
 73
    16
 74
     0
 42
0.000000001
 43
0.00000001
 40
0.0
 40
0.0
 40
0.0
 40
0.0
 40
0.1250000000000007
 40
0.1250000000000007
 40
0.2500000000000014
 40
0.2500000000000014
 40
0.3750000000000022
 40
0.3750000000000022
 40
0.5000000000000029
 40
0.5000000000000029
 40
0.6250000000000036
 40
0.6250000000000036
 40
0.7500000000000043
 40
0.7500000000000043
 40
1.0
 40
1.0
 40
1.0
 40
1.0
 10
-100.7788831120945
 20
3.894835039001777
 30
0.0
 10
-100.9332929235344
 20
3.916436393428826
 30
0.0
 10
-101.0794057009264
 20
3.942286792125549
 30
0.0
 10
-101.3557126357659
 20
4.002147944569441
 30
0.0
 10
-101.4871815952282
 20
4.036594326623649
 30
0.0
 10
-101.7259538648968
 20
4.111928321922129
 30
0.0
 10
-101.8331045319253
 20
4.152583419365117
 30
0.0
 10
-102.023155032012
 20
4.239828543777534
 30
0.0
 10
-102.1061867460908
 20
4.286760456850263
 30
0.0
 10
-102.2404092893867
 20
4.382710638096251
 30
0.0
 10
-102.2927517526243
 20
4.432153857381143
 30
0.0
 10
-102.3672012026163
 20
4.534055777622541
 30
0.0
 10
-102.3884772683829
 20
4.585763943712087
 30
0.0
 10
-102.4041684817393
 20
4.739121236174794
 30
0.0
 10
-102.3502257520247
 20
4.841621562718907
 30
0.0
 10
-102.2335355026245
 20
4.936094924871286
 30
0.0
  0
SPLINE
  5
235
330
21C
100
AcDbEntity
  8
0
  6
Continuous
 62
     7
370
    25
100
AcDbSpline
210
0.0
220
0.0
230
1.0
 70
     8
 71
     3
 72
    18
 73
    14
 74
     0
 42
0.000000001
 43
0.00000001
 40
0.0
 40
0.0
 40
0.0
 40
0.0
 40
0.125
 40
0.125
 40
0.25
 40
0.25
 40
0.5
 40
0.5
 40
0.7499999999999999
 40
0.7499999999999999
 40
0.8749999999999999
 40
0.8749999999999999
 40
1.0
 40
1.0
 40
1.0
 40
1.0
 10
44.21034063014749
 20
-14.37209013311383
 30
0.0
 10
38.16936539371102
 20
-13.69501726765741
 30
0.0
 10
32.12842194951303
 20
-13.02070387510277
 30
0.0
 10
20.04656083785486
 20
-11.67431443511968
 30
0.0
 10
14.00564693400123
 20
-11.002565057682
 30
0.0
 10
-4.117242635135451
 20
-8.97448332213492
 30
0.0
 10
-16.19930526895585
 20
-7.610755505733359
 30
0.0
 10
-40.36708005372493
 20
-4.565919752346423
 30
0.0
 10
-52.44955396358581
 20
-2.885207655534586
 30
0.0
 10
-70.5731086328984
 20
-0.3466593860762882
 30
0.0
 10
-76.61423307349587
 20
0.503788173764945
 30
0.0
 10
-88.69652279477951
 20
2.201801948059801
 30
0.0
 10
-94.73768345947876
 20
3.049693829101984
 30
0.0
 10
-100.7788831120945
 20
3.894835039001777
 30
0.0
  0
SPLINE
  5
236
330
21C
100
AcDbEntity
  8
0
  6
Continuous
 62
     7
370
    25
100
AcDbSpline
210
0.0
220
0.0
230
1.0
 70
     8
 71
     3
 72
    20
 73
    16
 74
     0
 42
0.000000001
 43
0.00000001
 40
0.0
 40
0.0
 40
0.0
 40
0.0
 40
0.125
 40
0.125
 40
0.25
 40
0.25
 40
0.375
 40
0.375
 40
0.5
 40
0.5
 40
0.625
 40
0.625
 40
0.75
 40
0.75
 40
1.0
 40
1.0
 40
1.0
 40
1.0
 10
47.43275997323823
 20
-13.92008589795774
 30
0.0
 10
47.37441461615756
 20
-13.96732276717112
 30
0.0
 10
47.30190622171727
 20
-14.01206204147392
 30
0.0
 10
47.12971547597628
 20
-14.09674526434059
 30
0.0
 10
47.02873219351556
 20
-14.13708050106509
 30
0.0
 10
46.80452298715013
 20
-14.21043813583336
 30
0.0
 10
46.68203927266371
 20
-14.24340840286467
 30
0.0
 10
46.41649902260604
 20
-14.30200408713191
 30
0.0
 10
46.27234403661675
 20
-14.32767578710048
 30
0.0
 10
45.97524738525333
 20
-14.36933929665842
 30
0.0
 10
45.82103562414239
 20
-14.38568445290136
 30
0.0
 10
45.50101766317826
 20
-14.40920181072033
 30
0.0
 10
45.33749475257677
 20
-14.41611733269025
 30
0.0
 10
44.84951353290792
 20
-14.42221182236247
 30
0.0
 10
44.51916227417138
 20
-14.40670288142855
 30
0.0
 10
44.21034063014749
 20
-14.37209013311383
 30
0.0
  0
SPLINE
  5
237
330
21C
100
AcDbEntity
  8
0
  6
Continuous
 62
     7
370
    25
100
AcDbSpline
210
0.0
220
0.0
230
1.0
 70
     8
 71
     3
 72
    10
 73
     6
 74
     0
 42
0.000000001
 43
0.00000001
 40
0.0
 40
0.0
 40
0.0
 40
0.0
 40
0.5
 40
0.5
 40
1.0
 40
1.0
 40
1.0
 40
1.0
 10
87.78257312536464
 20
20.9840118818519
 30
0.0
 10
83.46615616360498
 20
17.09886931494923
 30
0.0
 10
79.14970791788413
 20
13.23493889919456
 30
0.0
 10
70.51664304038484
 20
5.621290873373069
 30
0.0
 10
66.20015126868483
 20
1.871684068161567
 30
0.0
 10
61.88372235049755
 20
-1.856627582925532
 30
0.0
  0
SPLINE
  5
23A
330
21C
100
AcDbEntity
  8
0
  6
Continuous
 62
     7
370
    25
100
AcDbSpline
210
0.0
220
0.0
230
1.0
 70
     8
 71
     3
 72
    10
 73
     6
 74
     0
 42
0.000000001
 43
0.00000001
 40
0.0
 40
0.0
 40
0.0
 40
0.0
 40
0.5
 40
0.5
 40
1.0
 40
1.0
 40
1.0
 40
1.0
 10
-87.7825731253651
 20
16.99955323990347
 30
0.0
 10
-83.4661561636054
 20
20.72785456363679
 30
0.0
 10
-79.14970791788451
 20
24.47742321813003
 30
0.0
 10
-70.51664304038522
 20
32.0910703381107
 30
0.0
 10
-66.20015126868527
 20
35.95503937597598
 30
0.0
 10
-61.88372235049798
 20
39.84019270468094
 30
0.0
  0
SPLINE
  5
23B
330
21C
100
AcDbEntity
  8
0
  6
Continuous
 62
     7
370
    25
100
AcDbSpline
210
0.0
220
0.0
230
1.0
 70
     8
 71
     3
 72
    10
 73
     6
 74
     0
 42
0.000000001
 43
0.00000001
 40
0.0
 40
0.0
 40
0.0
 40
0.0
 40
0.5
 40
0.5
 40
1.0
 40
1.0
 40
1.0
 40
1.0
 10
102.233535502624
 20
34.40965533795701
 30
0.0
 10
99.82544349623987
 20
32.11179089163753
 30
0.0
 10
97.41714450953073
 20
29.84497283960275
 30
0.0
 10
92.60013804453085
 20
25.37260918114993
 30
0.0
 10
90.19143307047176
 20
23.16668794791877
 30
0.0
 10
87.78257312536468
 20
20.98401188185188
 30
0.0
  0
SPLINE
  5
23C
330
21C
100
AcDbEntity
  8
0
  6
Continuous
 62
     7
370
    25
100
AcDbSpline
210
0.0
220
0.0
230
1.0
 70
     8
 71
     3
 72
    20
 73
    16
 74
     0
 42
0.000000001
 43
0.00000001
 40
0.0
 40
0.0
 40
0.0
 40
0.0
 40
0.125
 40
0.125
 40
0.25
 40
0.25
 40
0.375
 40
0.375
 40
0.5
 40
0.5
 40
0.625
 40
0.625
 40
0.75
 40
0.75
 40
1.0
 40
1.0
 40
1.0
 40
1.0
 10
100.778883112094
 20
35.51667501363687
 30
0.0
 10
100.9332929235339
 20
35.49936875274448
 30
0.0
 10
101.079405700926
 20
35.47686464326007
 30
0.0
 10
101.3557126357654
 20
35.42189215125943
 30
0.0
 10
101.4871815952279
 20
35.38898983615108
 30
0.0
 10
101.7259538648964
 20
35.31480950738519
 30
0.0
 10
101.8331045319249
 20
35.27378731147095
 30
0.0
 10
102.0231550320115
 20
35.18396205254803
 30
0.0
 10
102.1061867460904
 20
35.13477963463355
 30
0.0
 10
102.2404092893862
 20
35.03265751709266
 30
0.0
 10
102.2927517526238
 20
34.97929028122571
 30
0.0
 10
102.3672012026158
 20
34.86784424841265
 30
0.0
 10
102.3884772683825
 20
34.81057411930242
 30
0.0
 10
102.4041684817389
 20
34.63867425455103
 30
0.0
 10
102.3502257520242
 20
34.52100422936896
 30
0.0
 10
102.233535502624
 20
34.40965533795701
 30
0.0
  0
SPLINE
  5
23D
330
21C
100
AcDbEntity
  8
0
  6
Continuous
 62
     7
370
    25
100
AcDbSpline
210
0.0
220
0.0
230
1.0
 70
     8
 71
     3
 72
    18
 73
    14
 74
     0
 42
0.000000001
 43
0.00000001
 40
0.0
 40
0.0
 40
0.0
 40
0.0
 40
0.1250000000000001
 40
0.1250000000000001
 40
0.2500000000000001
 40
0.2500000000000001
 40
0.4999999999999999
 40
0.4999999999999999
 40
0.7499999999999999
 40
0.7499999999999999
 40
0.8749999999999999
 40
0.8749999999999999
 40
1.0
 40
1.0
 40
1.0
 40
1.0
 10
-44.21034063014789
 20
53.78360018575248
 30
0.0
 10
-38.16936539371144
 20
52.93849037083584
 30
0.0
 10
-32.12842194951342
 20
52.09062909390849
 30
0.0
 10
-20.04656083785527
 20
50.39267569005505
 30
0.0
 10
-14.00564693400164
 20
49.54225784147797
 30
0.0
 10
4.117242635135052
 20
47.00380064237338
 30
0.0
 10
16.19930526895544
 20
45.3231348361265
 30
0.0
 10
40.36708005372451
 20
42.27826375233837
 30
0.0
 10
52.4495539635854
 20
40.91447859468059
 30
0.0
 10
70.573108632898
 20
38.88632033999564
 30
0.0
 10
76.61423307349547
 20
38.21454762354912
 30
0.0
 10
88.69652279477904
 20
36.86811055453335
 30
0.0
 10
94.73768345947833
 20
36.19377303167208
 30
0.0
 10
100.7788831120941
 20
35.51667501363688
 30
0.0
  0
SPLINE
  5
23E
330
21C
100
AcDbEntity
  8
0
  6
Continuous
 62
     7
370
    25
100
AcDbSpline
210
0.0
220
0.0
230
1.0
 70
     8
 71
     3
 72
    20
 73
    16
 74
     0
 42
0.000000001
 43
0.00000001
 40
0.0
 40
0.0
 40
0.0
 40
0.0
 40
0.1250000000000012
 40
0.1250000000000012
 40
0.2500000000000025
 40
0.2500000000000025
 40
0.3750000000000038
 40
0.3750000000000038
 40
0.500000000000005
 40
0.500000000000005
 40
0.6250000000000062
 40
0.6250000000000062
 40
0.7500000000000075
 40
0.7500000000000075
 40
1.0
 40
1.0
 40
1.0
 40
1.0
 10
-47.43275997323864
 20
53.26583616078602
 30
0.0
 10
-47.37441461615797
 20
53.32151082823565
 30
0.0
 10
-47.30190622171768
 20
53.3741554883021
 30
0.0
 10
-47.1297154759767
 20
53.47363451640888
 30
0.0
 10
-47.02873219351604
 20
53.52092608912287
 30
0.0
 10
-46.80452298715058
 20
53.60673745324657
 30
0.0
 10
-46.68203927266409
 20
53.64519905172092
 30
0.0
 10
-46.41649902260649
 20
53.71330757454306
 30
0.0
 10
-46.27234403661719
 20
53.74300358378647
 30
0.0
 10
-45.97524738525381
 20
53.79085183807698
 30
0.0
 10
-45.82103562414279
 20
53.80941664114644
 30
0.0
 10
-45.50101766317868
 20
53.83556238790774
 30
0.0
 10
-45.33749475257717
 20
53.84285073730391
 30
0.0
 10
-44.84951353290835
 20
53.84725138032258
 30
0.0
 10
-44.5191622741718
 20
53.82680317735708
 30
0.0
 10
-44.21034063014788
 20
53.78360018575248
 30
0.0
  0
SPLINE
  5
23F
330
21C
100
AcDbEntity
  8
0
  6
Continuous
 62
     7
370
    25
100
AcDbSpline
210
0.0
220
0.0
230
1.0
 70
     8
 71
     3
 72
    10
 73
     6
 74
     0
 42
0.000000001
 43
0.00000001
 40
0.0
 40
0.0
 40
0.0
 40
0.0
 40
0.4999999999999998
 40
0.4999999999999998
 40
1.0
 40
1.0
 40
1.0
 40
1.0
 10
-61.88372235049797
 20
39.84019270468092
 30
0.0
 10
-59.47486240539091
 20
42.02286877074781
 30
0.0
 10
-57.06615743133174
 20
44.22879000397897
 30
0.0
 10
-52.24915096633188
 20
48.70115366243179
 30
0.0
 10
-49.84085197962276
 20
50.96797171446656
 30
0.0
 10
-47.43275997323866
 20
53.26583616078602
 30
0.0
  0
SPLINE
  5
240
330
21C
100
AcDbEntity
  8
0
  6
Continuous
 62
     7
370
    25
100
AcDbSpline
210
0.0
220
0.0
230
1.0
 70
     8
 71
     3
 72
     9
 73
     5
 74
     0
 42
0.000000001
 43
0.00000001
 40
0.0
 40
0.0
 40
0.0
 40
0.0
 40
0.9822242898527342
 40
1.0
 40
1.0
 40
1.0
 40
1.0
 10
73.01228965786599
 20
7.83289298061246
 30
0.0
 10
72.11361270647794
 20
7.654561135035367
 30
0.0
 10
71.19867203491015
 20
7.473001945938319
 30
0.0
 10
70.28377715770395
 20
7.290443351401008
 30
0.0
 10
70.2675142515515
 20
7.28719824273962
 30
0.0
  0
SPLINE
  5
241
330
21C
100
AcDbEntity
  8
0
  6
Continuous
 62
     7
370
    25
100
AcDbSpline
210
0.0
220
0.0
230
1.0
 70
     8
 71
     3
 72
     9
 73
     5
 74
     0
 42
0.000000001
 43
0.00000001
 40
0.0
 40
0.0
 40
0.0
 40
0.0
 40
0.283546436434082
 40
1.0
 40
1.0
 40
1.0
 40
1.0
 10
64.64914043728177
 20
0.5404957418123184
 30
0.0
 10
64.6247735298584
 20
0.6643727617682716
 30
0.0
 10
64.53883731521292
 20
1.101257180115571
 30
0.0
 10
64.27549140395458
 20
1.529511011599207
 30
0.0
 10
64.086816287383
 20
1.836334995276414
 30
0.0
  0
LWPOLYLINE
  5
242
330
21C
100
AcDbEntity
  8
0
  6
Continuous
 62
     7
370
    25
100
AcDbPolyline
 90
        3
 70
   128
 43
0.0
 10
61.2218504987
 20
-0.6903273353
 10
62.0212651679
 20
-1.4857108719
 10
62.2101119836
 20
-1.6899457624
  0
LWPOLYLINE
  5
246
330
21C
100
AcDbEntity
  8
0
  6
Continuous
 62
     7
370
    25
100
AcDbPolyline
 90
        9
 70
   128
 43
0.0
 10
88.459974654
 20
30.8739125631
 10
88.7149802561
 20
31.189385422
 10
88.7804488922
 20
31.5153796
 10
88.6538646392
 20
31.8393673238
 10
88.340092059
 20
32.1488979267
 10
87.8511892559
 20
32.4320763213
 10
87.2059444905
 20
32.6780201208
 10
86.4291541572
 20
32.8772778427
 10
85.5506698729
 20
33.0221921246
  0
LWPOLYLINE
  5
24A
330
21C
100
AcDbEntity
  8
0
  6
Continuous
 62
     7
370
    25
100
AcDbPolyline
 90
        9
 70
   128
 43
0.0
 10
-88.459974654
 20
6.8384491013
 10
-88.7149802561
 20
6.5229762424
 10
-88.7804488922
 20
6.1969820644
 10
-88.6538646392
 20
5.8729943406
 10
-88.340092059
 20
5.5634637377
 10
-87.8511892559
 20
5.2802853431
 10
-87.2059444905
 20
5.0343415436
 10
-86.4291541572
 20
4.8350838217
 10
-85.5506698729
 20
4.6901695398
  0
LWPOLYLINE
  5
24D
330
21C
100
AcDbEntity
  8
0
  6
Continuous
 62
     7
370
    25
100
AcDbPolyline
 90
        3
 70
   128
 43
0.0
 10
88.459974654
 20
23.3314402302
 10
88.7149802561
 20
23.6469130891
 10
88.7829029204
 20
23.9206958809
  0
LINE
  5
256
330
21C
100
AcDbEntity
  8
0
  6
Continuous
 62
     7
370
    25
100
AcDbLine
 10
-88.7829029204
 20
6.2491934506
 30
0.0
 11
-88.7829029204
 21
2.2110619967
 31
0.0
  0
LINE
  5
257
330
21C
100
AcDbEntity
  8
0
  6
Continuous
 62
     7
370
    25
100
AcDbLine
 10
88.7829029204
 20
23.9206958809
 30
0.0
 11
88.7829029204
 21
31.4631682138
 31
0.0
  0
LINE
  5
258
330
21C
100
AcDbEntity
  8
0
  6
Continuous
 62
     7
370
    25
100
AcDbLine
 10
87.7829029204
 20
20.9596140155
 30
0.0
 11
87.7829029204
 21
22.7343190879
 31
0.0
  0
LINE
  5
259
330
21C
100
AcDbEntity
  8
0
  6
Continuous
 62
     7
370
    25
100
AcDbLine
 10
936.5235509204
 20
57.546768702
 30
0.0
 11
-653.6808385107
 21
257.8936899445
 31
0.0
  0
LINE
  5
25A
330
21C
100
AcDbEntity
  8
0
  6
Continuous
 62
     7
370
    25
100
AcDbLine
 10
653.6808385107
 20
-191.8970570318
 30
0.0
 11
936.5235509204
 21
57.546768702
 31
0.0
  0
LINE
  5
25B
330
21C
100
AcDbEntity
  8
0
  6
Continuous
 62
     7
370
    25
100
AcDbLine
 10
-936.5235509204
 20
8.4498642108
 30
0.0
 11
653.6808385107
 21
-191.8970570318
 31
0.0
  0
LINE
  5
25C
330
21C
100
AcDbEntity
  8
0
  6
Continuous
 62
     7
370
    25
100
AcDbLine
 10
-653.6808385107
 20
257.8936899445
 30
0.0
 11
-936.5235509204
 21
8.4498642108
 31
0.0
  0
LINE
  5
25D
330
21C
100
AcDbEntity
  8
0
  6
Continuous
 62
     7
370
    25
100
AcDbLine
 10
-642.0436193864
 20
249.3005716983
 30
0.0
 11
-910.7441961757
 21
12.3289372512
 31
0.0
  0
LINE
  5
25E
330
21C
100
AcDbEntity
  8
0
  6
Continuous
 62
     7
370
    25
100
AcDbLine
 10
-910.7441961757
 20
12.3289372512
 30
0.0
 11
642.0436193864
 21
-183.3039387856
 31
0.0
  0
LINE
  5
25F
330
21C
100
AcDbEntity
  8
0
  6
Continuous
 62
     7
370
    25
100
AcDbLine
 10
642.0436193864
 20
-183.3039387856
 30
0.0
 11
910.7441961757
 21
53.6676956615
 31
0.0
  0
LINE
  5
260
330
21C
100
AcDbEntity
  8
0
  6
Continuous
 62
     7
370
    25
100
AcDbLine
 10
910.7441961757
 20
53.6676956615
 30
0.0
 11
-642.0436193864
 21
249.3005716983
 31
0.0
  0
LINE
  5
261
330
21C
100
AcDbEntity
  8
0
  6
Continuous
 62
     7
370
    25
100
AcDbLine
 10
-936.5235509204
 20
8.4498642108
 30
0.0
 11
-936.5235509204
 21
-24.5484522456
 31
0.0
  0
LINE
  5
262
330
21C
100
AcDbEntity
  8
0
  6
Continuous
 62
     7
370
    25
100
AcDbLine
 10
653.6808385107
 20
-191.8970570318
 30
0.0
 11
653.6808385107
 21
-224.8953734882
 31
0.0
  0
LINE
  5
263
330
21C
100
AcDbEntity
  8
0
  6
Continuous
 62
     7
370
    25
100
AcDbLine
 10
-936.5235509204
 20
-24.5484522456
 30
0.0
 11
653.6808385107
 21
-224.8953734882
 31
0.0
  0
LINE
  5
264
330
21C
100
AcDbEntity
  8
0
  6
Continuous
 62
     7
370
    25
100
AcDbLine
 10
936.5235509204
 20
57.546768702
 30
0.0
 11
936.5235509204
 21
24.5484522456
 31
0.0
  0
LINE
  5
265
330
21C
100
AcDbEntity
  8
0
  6
Continuous
 62
     7
370
    25
100
AcDbLine
 10
653.6808385107
 20
-224.8953734882
 30
0.0
 11
936.5235509204
 21
24.5484522456
 31
0.0
  0
LINE
  5
266
330
21C
100
AcDbEntity
  8
0
  6
Continuous
 62
     7
370
    25
100
AcDbLine
 10
642.0436193864
 20
-183.3039387856
 30
0.0
 11
61.8837223505
 21
-1.8566275829
 31
0.0
  0
LINE
  5
267
330
21C
100
AcDbEntity
  8
0
  6
Continuous
 62
     7
370
    25
100
AcDbLine
 10
-910.7441961757
 20
12.3289372512
 30
0.0
 11
-87.7825731254
 21
16.9995532399
 31
0.0
  0
LINE
  5
268
330
21C
100
AcDbEntity
  8
0
  6
Continuous
 62
     7
370
    25
100
AcDbLine
 10
910.7441961757
 20
53.6676956615
 30
0.0
 11
87.7825731254
 21
20.9840118819
 31
0.0
  0
LINE
  5
269
330
21C
100
AcDbEntity
  8
0
  6
Continuous
 62
     7
370
    25
100
AcDbLine
 10
-61.8837223505
 20
39.8401927047
 30
0.0
 11
-642.0436193864
 21
249.3005716983
 31
0.0
  0
LINE
  5
26A
330
21C
100
AcDbEntity
  8
0
  6
Continuous
 62
     7
370
    25
100
AcDbLine
 10
-42.4980338874
 20
47.3730707831
 30
0.0
 11
-88.459974654
 21
6.8384491013
 31
0.0
  0
LINE
  5
26B
330
21C
100
AcDbEntity
  8
0
  6
Continuous
 62
     7
370
    25
100
AcDbLine
 10
85.5506698729
 20
33.0221921246
 30
0.0
 11
-36.0531952012
 21
48.3428390432
 31
0.0
  0
LINE
  5
26C
330
21C
100
AcDbEntity
  8
0
  6
Continuous
 62
     7
370
    25
100
AcDbLine
 10
42.4980338874
 20
-9.6607091187
 30
0.0
 11
88.459974654
 21
30.8739125631
 31
0.0
  0
LINE
  5
26D
330
21C
100
AcDbEntity
  8
0
  6
Continuous
 62
     7
370
    25
100
AcDbLine
 10
-85.5506698729
 20
4.6901695398
 30
0.0
 11
36.0531952012
 21
-10.6304773788
 31
0.0
  0
LINE
  5
26E
330
21C
100
AcDbEntity
  8
0
  6
Continuous
 62
     7
370
    25
100
AcDbLine
 10
88.459974654
 20
30.8739125631
 30
0.0
 11
88.459974654
 21
23.3314402302
 31
0.0
  0
LINE
  5
26F
330
21C
100
AcDbEntity
  8
0
  6
Continuous
 62
     7
370
    25
100
AcDbLine
 10
45.6874476112
 20
-14.3903829377
 30
0.0
 11
88.459974654
 21
23.3314402302
 31
0.0
  0
LINE
  5
270
330
21C
100
AcDbEntity
  8
0
  6
Continuous
 62
    60
370
    25
100
AcDbLine
 10
-102.2335355026
 20
4.4125686497
 30
0.0
 11
-102.2335355026
 21
4.9360949249
 31
0.0
  0
LINE
  5
271
330
21C
100
AcDbEntity
  8
0
  6
Continuous
 62
    60
370
    25
100
AcDbLine
 10
-47.4327599732
 20
43.0210514458
 30
0.0
 11
-47.4327599732
 21
53.2658361608
 31
0.0
  0
LINE
  5
272
330
21C
100
AcDbEntity
  8
0
  6
Continuous
 62
    60
370
    25
100
AcDbLine
 10
100.7788831121
 20
33.0582128639
 30
0.0
 11
100.7788831121
 21
35.5166750136
 31
0.0
  0
LINE
  5
273
330
21C
100
AcDbEntity
  8
0
  6
Continuous
 62
    60
370
    25
100
AcDbLine
 10
-44.2103406301
 20
45.8629581798
 30
0.0
 11
-44.2103406301
 21
53.7836001858
 31
0.0
  0
LINE
  5
274
330
21C
100
AcDbEntity
  8
0
  6
Continuous
 62
    60
370
    25
100
AcDbLine
 10
36.0531952012
 20
-10.6304773788
 30
0.0
 11
36.0531952012
 21
-13.4616322083
 31
0.0
  0
LINE
  5
275
330
21C
100
AcDbEntity
  8
0
  6
Continuous
 62
    60
370
    25
100
AcDbLine
 10
42.4980338874
 20
-9.6607091187
 30
0.0
 11
42.4980338874
 21
-14.1809714069
 31
0.0
  0
LINE
  5
276
330
21C
100
AcDbEntity
  8
0
  6
Continuous
 62
    60
370
    25
100
AcDbLine
 10
-85.5506698729
 20
4.6901695398
 30
0.0
 11
-85.5506698729
 21
1.7573811148
 31
0.0
  0
LINE
  5
277
330
21C
100
AcDbEntity
  8
0
  6
Continuous
 62
    60
370
    25
100
AcDbLine
 10
85.4286542317
 20
20.658066903
 30
0.0
 11
85.4286542317
 21
18.8834004957
 31
0.0
  0
ARC
  5
278
330
21C
100
AcDbEntity
  8
0
  6
Continuous
 62
     7
370
    25
100
AcDbCircle
 10
-37.8934071433
 20
38.6721482657
 30
0.0
 40
9.844218613218702
100
AcDbArc
 50
79.2261330329
 51
117.8883001309
  0
ARC
  5
279
330
21C
100
AcDbEntity
  8
0
  6
Continuous
 62
     7
370
    25
100
AcDbCircle
 10
37.8934071433
 20
-0.9597866013
 30
0.0
 40
9.844218613218581
100
AcDbArc
 50
259.2261330329
 51
297.8883001309
  0
VIEWPORT
  5
28A
330
21C
100
AcDbEntity
  8
0
100
AcDbViewport
 10
0.0
 20
0.0
 30
0.0
 40
205.6
 41
156.0
 68
     1
 69
     1
 12
0.0
 22
0.0
 13
0.0
 23
0.0
 14
10.0
 24
10.0
 15
10.0
 25
10.0
 16
0.0
 26
0.0
 36
1.0
 17
0.0
 27
0.0
 37
0.0
 42
50.0
 43
0.0
 44
0.0
 45
1315.6809338521
 50
0.0
 51
0.0
 72
   100
 90
   557152
  1

281
     0
 71
     1
 74
     0
110
0.0
120
0.0
130
0.0
111
1.0
121
0.0
131
0.0
112
0.0
122
1.0
132
0.0
 79
     0
146
0.0
  0
ENDBLK
  5
21F
330
21C
100
AcDbEntity
  8
0
100
AcDbBlockEnd
  0
ENDSEC
  0
SECTION
  2
ENTITIES
  0
SPLINE
  5
73
330
1F
100
AcDbEntity
  8
0
  6
Continuous
 62
     7
370
    25
100
AcDbSpline
210
0.0
220
0.0
230
1.0
 70
    24
 71
     3
 72
    10
 73
     6
 74
     0
 42
0.000000001
 43
0.00000001
 40
0.0
 40
0.0
 40
0.0
 40
0.0
 40
0.5
 40
0.5
 40
1.0
 40
1.0
 40
1.0
 40
1.0
 10
79.99999999999984
 20
-36.62650602409639
 30
0.0
 10
79.99999999999984
 20
-43.43979083411485
 30
0.0
 10
79.99999999999984
 20
-50.25263731981795
 30
0.0
 10
79.99999999999983
 20
-63.87718906862687
 30
0.0
 10
79.9999999999999
 20
-70.68888724869629
 30
0.0
 10
79.9999999999999
 20
-77.5000000000001
 30
0.0
  0
SPLINE
  5
77
330
1F
100
AcDbEntity
  8
0
  6
Continuous
 62
     7
370
    25
100
AcDbSpline
210
0.0
220
0.0
230
1.0
 70
    24
 71
     3
 72
    10
 73
     6
 74
     0
 42
0.000000001
 43
0.00000001
 40
0.0
 40
0.0
 40
0.0
 40
0.0
 40
0.4999999999999998
 40
0.4999999999999998
 40
1.0
 40
1.0
 40
1.0
 40
1.0
 10
-80.00000000000024
 20
-77.5000000000001
 30
0.0
 10
-80.00000000000026
 20
-70.68888724869632
 30
0.0
 10
-80.00000000000024
 20
-63.87718906862691
 30
0.0
 10
-80.00000000000021
 20
-50.25263731981802
 30
0.0
 10
-80.00000000000033
 20
-43.43979083411499
 30
0.0
 10
-80.0000000000003
 20
-36.62650602409655
 30
0.0
  0
SPLINE
  5
78
330
1F
100
AcDbEntity
  8
0
  6
Continuous
 62
     7
370
    25
100
AcDbSpline
210
0.0
220
0.0
230
1.0
 70
     8
 71
     3
 72
    20
 73
    16
 74
     0
 42
0.000000001
 43
0.00000001
 40
0.0
 40
0.0
 40
0.0
 40
0.0
 40
0.1250000000000007
 40
0.1250000000000007
 40
0.2500000000000014
 40
0.2500000000000014
 40
0.3750000000000022
 40
0.3750000000000022
 40
0.5000000000000029
 40
0.5000000000000029
 40
0.6250000000000036
 40
0.6250000000000036
 40
0.7500000000000043
 40
0.7500000000000043
 40
1.0
 40
1.0
 40
1.0
 40
1.0
 10
-77.50000000000024
 20
-80.00000000000009
 30
0.0
 10
-77.66507103187041
 20
-80.0000000000001
 30
0.0
 10
-77.82739087055971
 20
-79.98381141680589
 30
0.0
 10
-78.14675207802978
 20
-79.92037511265204
 30
0.0
 10
-78.30544706921083
 20
-79.87235800265599
 30
0.0
 10
-78.60809002018223
 20
-79.74698998245188
 30
0.0
 10
-78.75163621738348
 20
-79.67027029603622
 30
0.0
 10
-79.02331793337022
 20
-79.48901202922355
 30
0.0
 10
-79.15195931136084
 20
-79.38350808702721
 30
0.0
 10
-79.38255670324251
 20
-79.1530434172657
 30
0.0
 10
-79.48604207180935
 20
-79.02729371046338
 30
0.0
 10
-79.66882799370637
 20
-78.75426246166157
 30
0.0
 10
-79.74652439952028
 20
-78.6088748955966
 30
0.0
 10
-79.93369584173452
 20
-78.15804726032229
 30
0.0
 10
-80.00000000000031
 20
-77.83004986667274
 30
0.0
 10
-80.0000000000003
 20
-77.5000000000001
 30
0.0
  0
SPLINE
  5
79
330
1F
100
AcDbEntity
  8
0
  6
Continuous
 62
     7
370
    25
100
AcDbSpline
210
0.0
220
0.0
230
1.0
 70
    24
 71
     3
 72
    18
 73
    14
 74
     0
 42
0.000000001
 43
0.00000001
 40
0.0
 40
0.0
 40
0.0
 40
0.0
 40
0.125
 40
0.125
 40
0.25
 40
0.25
 40
0.5
 40
0.5
 40
0.7499999999999999
 40
0.7499999999999999
 40
0.8749999999999999
 40
0.8749999999999999
 40
1.0
 40
1.0
 40
1.0
 40
1.0
 10
77.49999999999984
 20
-80.00000000000007
 30
0.0
 10
71.04192582400265
 20
-80.00000000000007
 30
0.0
 10
64.58388563533799
 20
-80.00000000000006
 30
0.0
 10
51.66783281450054
 20
-80.00000000000006
 30
0.0
 10
45.2098242057924
 20
-80.00000000000013
 30
0.0
 10
25.83564031327057
 20
-80.00000000000013
 30
0.0
 10
12.9193720561797
 20
-80.00000000000009
 30
0.0
 10
-12.91706595592221
 20
-80.00000000000009
 30
0.0
 10
-25.83377388559445
 20
-80.00000000000006
 30
0.0
 10
-45.20866880011228
 20
-80.00000000000006
 30
0.0
 10
-51.66690248206694
 20
-80.00000000000007
 30
0.0
 10
-64.58341350586758
 20
-80.00000000000007
 30
0.0
 10
-71.04168591301597
 20
-80.00000000000009
 30
0.0
 10
-77.50000000000024
 20
-80.00000000000009
 30
0.0
  0
SPLINE
  5
7A
330
1F
100
AcDbEntity
  8
0
  6
Continuous
 62
     7
370
    25
100
AcDbSpline
210
0.0
220
0.0
230
1.0
 70
     8
 71
     3
 72
    20
 73
    16
 74
     0
 42
0.000000001
 43
0.00000001
 40
0.0
 40
0.0
 40
0.0
 40
0.0
 40
0.125
 40
0.125
 40
0.25
 40
0.25
 40
0.375
 40
0.375
 40
0.5
 40
0.5
 40
0.625
 40
0.625
 40
0.75
 40
0.75
 40
1.0
 40
1.0
 40
1.0
 40
1.0
 10
79.99999999999982
 20
-77.50000000000007
 30
0.0
 10
79.99999999999983
 20
-77.66502559060793
 30
0.0
 10
79.98382023786124
 20
-77.82730267335958
 30
0.0
 10
79.92041732629924
 20
-78.14658331292095
 30
0.0
 10
79.87242724848235
 20
-78.30523735690885
 30
0.0
 10
79.74711084903461
 20
-78.60784072973247
 30
0.0
 10
79.67042029263317
 20
-78.75137285000645
 30
0.0
 10
79.48922518612542
 20
-79.02303690542662
 30
0.0
 10
79.38374370606137
 20
-79.15169101381403
 30
0.0
 10
79.15330601742264
 20
-79.38232642439988
 30
0.0
 10
79.02756792536658
 20
-79.48583143058575
 30
0.0
 10
78.75455637198918
 20
-79.66865823651688
 30
0.0
 10
78.60912743571606
 20
-79.74640207357348
 30
0.0
 10
78.15822868652732
 20
-79.93365543483192
 30
0.0
 10
77.83014422443408
 20
-80.00000000000007
 30
0.0
 10
77.49999999999984
 20
-80.00000000000007
 30
0.0
  0
SPLINE
  5
7C
330
1F
100
AcDbEntity
  8
0
  6
Continuous
 62
     7
370
    25
100
AcDbSpline
210
0.0
220
0.0
230
1.0
 70
    24
 71
     3
 72
    10
 73
     6
 74
     0
 42
0.000000001
 43
0.00000001
 40
0.0
 40
0.0
 40
0.0
 40
0.0
 40
0.5
 40
0.5
 40
1.0
 40
1.0
 40
1.0
 40
1.0
 10
79.99999999999979
 20
36.62650602409636
 30
0.0
 10
79.9999999999998
 20
24.41783520494002
 30
0.0
 10
79.99999999994202
 20
12.20907590153217
 30
0.0
 10
79.999999999942
 20
-12.2089189732821
 30
0.0
 10
79.99999999999979
 20
-24.41780138705581
 30
0.0
 10
79.9999999999998
 20
-36.6265060240964
 30
0.0
  0
SPLINE
  5
7F
330
1F
100
AcDbEntity
  8
0
  6
Continuous
 62
     7
370
    25
100
AcDbSpline
210
0.0
220
0.0
230
1.0
 70
    24
 71
     3
 72
    10
 73
     6
 74
     0
 42
0.000000001
 43
0.00000001
 40
0.0
 40
0.0
 40
0.0
 40
0.0
 40
0.5
 40
0.5
 40
1.0
 40
1.0
 40
1.0
 40
1.0
 10
79.9999999999998
 20
77.5
 30
0.0
 10
79.9999999999998
 20
70.6888872486962
 30
0.0
 10
79.99999999999976
 20
63.8771890686268
 30
0.0
 10
79.99999999999973
 20
50.25263731981786
 30
0.0
 10
79.99999999999984
 20
43.43979083411481
 30
0.0
 10
79.99999999999983
 20
36.62650602409635
 30
0.0
  0
SPLINE
  5
80
330
1F
100
AcDbEntity
  8
0
  6
Continuous
 62
     7
370
    25
100
AcDbSpline
210
0.0
220
0.0
230
1.0
 70
     8
 71
     3
 72
    20
 73
    16
 74
     0
 42
0.000000001
 43
0.00000001
 40
0.0
 40
0.0
 40
0.0
 40
0.0
 40
0.125
 40
0.125
 40
0.25
 40
0.25
 40
0.375
 40
0.375
 40
0.5
 40
0.5
 40
0.625
 40
0.625
 40
0.75
 40
0.75
 40
1.0
 40
1.0
 40
1.0
 40
1.0
 10
77.49999999999979
 20
79.99999999999999
 30
0.0
 10
77.66507103186996
 20
79.99999999999999
 30
0.0
 10
77.82739087055924
 20
79.9838114168058
 30
0.0
 10
78.14675207802931
 20
79.92037511265194
 30
0.0
 10
78.30544706921043
 20
79.87235800265594
 30
0.0
 10
78.60809002018182
 20
79.7469899824518
 30
0.0
 10
78.75163621738305
 20
79.67027029603614
 30
0.0
 10
79.0233179333698
 20
79.48901202922347
 30
0.0
 10
79.15195931136037
 20
79.38350808702718
 30
0.0
 10
79.38255670324207
 20
79.15304341726565
 30
0.0
 10
79.4860420718089
 20
79.0272937104633
 30
0.0
 10
79.66882799370595
 20
78.75426246166144
 30
0.0
 10
79.74652439951981
 20
78.60887489559653
 30
0.0
 10
79.9336958417341
 20
78.15804726032218
 30
0.0
 10
79.99999999999982
 20
77.83004986667262
 30
0.0
 10
79.99999999999984
 20
77.5
 30
0.0
  0
SPLINE
  5
81
330
1F
100
AcDbEntity
  8
0
  6
Continuous
 62
     7
370
    25
100
AcDbSpline
210
0.0
220
0.0
230
1.0
 70
    24
 71
     3
 72
    18
 73
    14
 74
     0
 42
0.000000001
 43
0.00000001
 40
0.0
 40
0.0
 40
0.0
 40
0.0
 40
0.1250000000000001
 40
0.1250000000000001
 40
0.2500000000000001
 40
0.2500000000000001
 40
0.4999999999999999
 40
0.4999999999999999
 40
0.7499999999999999
 40
0.7499999999999999
 40
0.8749999999999999
 40
0.8749999999999999
 40
1.0
 40
1.0
 40
1.0
 40
1.0
 10
-77.50000000000024
 20
79.99999999999996
 30
0.0
 10
-71.04192582400307
 20
79.99999999999997
 30
0.0
 10
-64.58388563533836
 20
79.99999999999991
 30
0.0
 10
-51.66783281450093
 20
79.99999999999993
 30
0.0
 10
-45.20982420579279
 20
80.00000000000003
 30
0.0
 10
-25.83564031327097
 20
80.00000000000006
 30
0.0
 10
-12.91937205618011
 20
79.99999999999999
 30
0.0
 10
12.91706595592179
 20
80.00000000000001
 30
0.0
 10
25.83377388559402
 20
80.00000000000003
 30
0.0
 10
45.20866880011186
 20
80.00000000000003
 30
0.0
 10
51.66690248206653
 20
80.00000000000001
 30
0.0
 10
64.58341350586711
 20
80.0
 30
0.0
 10
71.04168591301554
 20
80.00000000000001
 30
0.0
 10
77.49999999999982
 20
80.00000000000003
 30
0.0
  0
SPLINE
  5
82
330
1F
100
AcDbEntity
  8
0
  6
Continuous
 62
     7
370
    25
100
AcDbSpline
210
0.0
220
0.0
230
1.0
 70
     8
 71
     3
 72
    20
 73
    16
 74
     0
 42
0.000000001
 43
0.00000001
 40
0.0
 40
0.0
 40
0.0
 40
0.0
 40
0.1250000000000012
 40
0.1250000000000012
 40
0.2500000000000025
 40
0.2500000000000025
 40
0.3750000000000038
 40
0.3750000000000038
 40
0.500000000000005
 40
0.500000000000005
 40
0.6250000000000062
 40
0.6250000000000062
 40
0.7500000000000075
 40
0.7500000000000075
 40
1.0
 40
1.0
 40
1.0
 40
1.0
 10
-80.00000000000023
 20
77.49999999999996
 30
0.0
 10
-80.00000000000024
 20
77.66502559060784
 30
0.0
 10
-79.98382023786165
 20
77.82730267335948
 30
0.0
 10
-79.92041732629966
 20
78.14658331292088
 30
0.0
 10
-79.87242724848282
 20
78.30523735690876
 30
0.0
 10
-79.74711084903507
 20
78.60784072973236
 30
0.0
 10
-79.67042029263355
 20
78.75137285000632
 30
0.0
 10
-79.48922518612585
 20
79.02303690542651
 30
0.0
 10
-79.38374370606181
 20
79.15169101381396
 30
0.0
 10
-79.15330601742312
 20
79.38232642439984
 30
0.0
 10
-79.02756792536698
 20
79.48583143058568
 30
0.0
 10
-78.75455637198958
 20
79.66865823651676
 30
0.0
 10
-78.60912743571647
 20
79.7464020735734
 30
0.0
 10
-78.15822868652775
 20
79.93365543483185
 30
0.0
 10
-77.83014422443449
 20
80.0
 30
0.0
 10
-77.50000000000024
 20
80.0
 30
0.0
  0
SPLINE
  5
83
330
1F
100
AcDbEntity
  8
0
  6
Continuous
 62
     7
370
    25
100
AcDbSpline
210
0.0
220
0.0
230
1.0
 70
    24
 71
     3
 72
    10
 73
     6
 74
     0
 42
0.000000001
 43
0.00000001
 40
0.0
 40
0.0
 40
0.0
 40
0.0
 40
0.4999999999999998
 40
0.4999999999999998
 40
1.0
 40
1.0
 40
1.0
 40
1.0
 10
-80.00000000000024
 20
36.62650602409636
 30
0.0
 10
-80.00000000000026
 20
43.43979083411482
 30
0.0
 10
-80.0000000000003
 20
50.25263731981789
 30
0.0
 10
-80.00000000000027
 20
63.87718906862676
 30
0.0
 10
-80.00000000000026
 20
70.68888724869618
 30
0.0
 10
-80.00000000000024
 20
77.49999999999994
 30
0.0
  0
SPLINE
  5
8A
330
1F
100
AcDbEntity
  8
0
  6
Continuous
 62
     7
370
    25
100
AcDbSpline
210
0.0
220
0.0
230
1.0
 70
    24
 71
     3
 72
    10
 73
     6
 74
     0
 42
0.000000001
 43
0.00000001
 40
0.0
 40
0.0
 40
0.0
 40
0.0
 40
0.5
 40
0.5
 40
1.0
 40
1.0
 40
1.0
 40
1.0
 10
-80.00000000000024
 20
-36.62650602409651
 30
0.0
 10
-80.00000000000023
 20
-24.41783520494014
 30
0.0
 10
-79.99999999994239
 20
-12.20907590153226
 30
0.0
 10
-79.99999999994236
 20
12.20891897328202
 30
0.0
 10
-80.00000000000026
 20
24.41780138705578
 30
0.0
 10
-80.00000000000027
 20
36.6265060240964
 30
0.0
  0
LINE
  5
98
330
1F
100
AcDbEntity
  8
0
  6
Continuous
 62
     7
370
    25
100
AcDbLine
 10
830.0
 20
-380.0
 30
0.0
 11
80.0
 21
-36.6265060241
 31
0.0
  0
LINE
  5
99
330
1F
100
AcDbEntity
  8
0
  6
Continuous
 62
     7
370
    25
100
AcDbLine
 10
-830.0
 20
-380.0
 30
0.0
 11
830.0
 21
-380.0
 31
0.0
  0
LINE
  5
9A
330
1F
100
AcDbEntity
  8
0
  6
Continuous
 62
     7
370
    25
100
AcDbLine
 10
-830.0
 20
-380.0
 30
0.0
 11
-80.0
 21
-36.6265060241
 31
0.0
  0
LINE
  5
9B
330
1F
100
AcDbEntity
  8
0
  6
Continuous
 62
     7
370
    25
100
AcDbLine
 10
830.0
 20
-380.0
 30
0.0
 11
830.0
 21
380.0
 31
0.0
  0
LINE
  5
9C
330
1F
100
AcDbEntity
  8
0
  6
Continuous
 62
     7
370
    25
100
AcDbLine
 10
830.0
 20
380.0
 30
0.0
 11
80.0
 21
36.6265060241
 31
0.0
  0
LINE
  5
9D
330
1F
100
AcDbEntity
  8
0
  6
Continuous
 62
     7
370
    25
100
AcDbLine
 10
830.0
 20
380.0
 30
0.0
 11
-830.0
 21
380.0
 31
0.0
  0
LINE
  5
9E
330
1F
100
AcDbEntity
  8
0
  6
Continuous
 62
     7
370
    25
100
AcDbLine
 10
-80.0
 20
36.6265060241
 30
0.0
 11
-830.0
 21
380.0
 31
0.0
  0
LINE
  5
9F
330
1F
100
AcDbEntity
  8
0
  6
Continuous
 62
     7
370
    25
100
AcDbLine
 10
850.0
 20
400.0
 30
0.0
 11
-850.0
 21
400.0
 31
0.0
  0
LINE
  5
A0
330
1F
100
AcDbEntity
  8
0
  6
Continuous
 62
     7
370
    25
100
AcDbLine
 10
850.0
 20
-400.0
 30
0.0
 11
850.0
 21
400.0
 31
0.0
  0
LINE
  5
A1
330
1F
100
AcDbEntity
  8
0
  6
Continuous
 62
     7
370
    25
100
AcDbLine
 10
-850.0
 20
-400.0
 30
0.0
 11
850.0
 21
-400.0
 31
0.0
  0
LINE
  5
A2
330
1F
100
AcDbEntity
  8
0
  6
Continuous
 62
     7
370
    25
100
AcDbLine
 10
-850.0
 20
400.0
 30
0.0
 11
-850.0
 21
-400.0
 31
0.0
  0
LINE
  5
A3
330
1F
100
AcDbEntity
  8
0
  6
Continuous
 62
     7
370
    25
100
AcDbLine
 10
-830.0
 20
380.0
 30
0.0
 11
-830.0
 21
-380.0
 31
0.0
  0
LINE
  5
A4
330
1F
100
AcDbEntity
  8
0
  6
Continuous
 62
     7
370
    25
100
AcDbLine
 10
79.245622019
 20
-79.245622019
 30
0.0
 11
68.5355339059
 21
-68.5355339059
 31
0.0
  0
LINE
  5
A5
330
1F
100
AcDbEntity
  8
0
  6
Continuous
 62
     7
370
    25
100
AcDbLine
 10
-68.5355339059
 20
-68.5355339059
 30
0.0
 11
-79.2456023097
 21
-79.2456023097
 31
0.0
  0
LINE
  5
A6
330
1F
100
AcDbEntity
  8
0
  6
Continuous
 62
     7
370
    25
100
AcDbLine
 10
-79.245622019
 20
79.245622019
 30
0.0
 11
-68.5355339059
 21
68.5355339059
 31
0.0
  0
LINE
  5
A7
330
1F
100
AcDbEntity
  8
0
  6
Continuous
 62
     7
370
    25
100
AcDbLine
 10
79.2456023097
 20
79.2456023097
 30
0.0
 11
68.5355339059
 21
68.5355339059
 31
0.0
  0
LINE
  5
A8
330
1F
100
AcDbEntity
  8
0
  6
Continuous
 62
     7
370
    25
100
AcDbLine
 10
-80.0
 20
-18.3137430158
 30
0.0
 11
-80.0
 21
-36.4514960241
 31
0.0
  0
LINE
  5
A9
330
1F
100
AcDbEntity
  8
0
  6
Continuous
 62
     7
370
    25
100
AcDbLine
 10
-70.0
 20
65.0
 30
0.0
 11
-70.0
 21
-65.0
 31
0.0
  0
LINE
  5
AA
330
1F
100
AcDbEntity
  8
0
  6
Continuous
 62
     7
370
    25
100
AcDbLine
 10
65.0
 20
70.0
 30
0.0
 11
-65.0
 21
70.0
 31
0.0
  0
LINE
  5
AB
330
1F
100
AcDbEntity
  8
0
  6
Continuous
 62
     7
370
    25
100
AcDbLine
 10
70.0
 20
-65.0
 30
0.0
 11
70.0
 21
65.0
 31
0.0
  0
LINE
  5
AC
330
1F
100
AcDbEntity
  8
0
  6
Continuous
 62
     7
370
    25
100
AcDbLine
 10
-65.0
 20
-70.0
 30
0.0
 11
65.0
 21
-70.0
 31
0.0
  0
ARC
  5
AD
330
1F
100
AcDbEntity
  8
0
  6
Continuous
 62
     7
370
    25
100
AcDbCircle
 10
-65.0
 20
65.0
 30
0.0
 40
4.999999999999986
100
AcDbArc
 50
90.0
 51
180.0
  0
ARC
  5
AE
330
1F
100
AcDbEntity
  8
0
  6
Continuous
 62
     7
370
    25
100
AcDbCircle
 10
65.0
 20
-65.0
 30
0.0
 40
5.0
100
AcDbArc
 50
270.0
 51
0.0
  0
ARC
  5
AF
330
1F
100
AcDbEntity
  8
0
  6
Continuous
 62
     7
370
    25
100
AcDbCircle
 10
-65.0
 20
-65.0
 30
0.0
 40
4.999999999999986
100
AcDbArc
 50
180.0
 51
270.0
  0
ARC
  5
B0
330
1F
100
AcDbEntity
  8
0
  6
Continuous
 62
     7
370
    25
100
AcDbCircle
 10
65.0
 20
65.0
 30
0.0
 40
5.0
100
AcDbArc
 50
0.0
 51
90.0
  0
LINE
  5
B8
330
1B
100
AcDbEntity
 67
     1
  8
0
  6
Continuous
 62
     7
370
    25
100
AcDbLine
 10
-850.0
 20
35.0
 30
0.0
 11
850.0
 21
35.0
 31
0.0
  0
LINE
  5
B9
330
1B
100
AcDbEntity
 67
     1
  8
0
  6
Continuous
 62
     7
370
    25
100
AcDbLine
 10
850.0
 20
35.0
 30
0.0
 11
850.0
 21
0.0
 31
0.0
  0
LINE
  5
BA
330
1B
100
AcDbEntity
 67
     1
  8
0
  6
Continuous
 62
     7
370
    25
100
AcDbLine
 10
-850.0
 20
0.0
 30
0.0
 11
850.0
 21
0.0
 31
0.0
  0
LINE
  5
BB
330
1B
100
AcDbEntity
 67
     1
  8
0
  6
Continuous
 62
     7
370
    25
100
AcDbLine
 10
-850.0
 20
35.0
 30
0.0
 11
-850.0
 21
0.0
 31
0.0
  0
LINE
  5
BC
330
1B
100
AcDbEntity
 67
     1
  8
0
  6
Continuous
 62
     7
370
    25
100
AcDbLine
 10
130.0
 20
-26.0
 30
0.0
 11
-130.0
 21
-26.0
 31
0.0
  0
LINE
  5
BD
330
1B
100
AcDbEntity
 67
     1
  8
0
  6
Continuous
 62
     7
370
    25
100
AcDbLine
 10
130.0
 20
-26.0
 30
0.0
 11
130.0
 21
0.0
 31
0.0
  0
LINE
  5
BE
330
1B
100
AcDbEntity
 67
     1
  8
0
  6
Continuous
 62
     7
370
    25
100
AcDbLine
 10
-130.0
 20
-26.0
 30
0.0
 11
-130.0
 21
0.0
 31
0.0
  0
VIEWPORT
  5
27A
330
1B
100
AcDbEntity
 67
     1
  8
0
100
AcDbViewport
 10
0.0
 20
0.0
 30
0.0
 40
205.6
 41
156.0
 68
     1
 69
     1
 12
0.0
 22
0.0
 13
0.0
 23
0.0
 14
10.0
 24
10.0
 15
10.0
 25
10.0
 16
0.0
 26
0.0
 36
1.0
 17
0.0
 27
0.0
 37
0.0
 42
50.0
 43
0.0
 44
0.0
 45
1315.6809338521
 50
0.0
 51
0.0
 72
   100
 90
   557152
  1

281
     0
 71
     1
 74
     0
110
0.0
120
0.0
130
0.0
111
1.0
121
0.0
131
0.0
112
0.0
122
1.0
132
0.0
 79
     0
146
0.0
  0
ENDSEC
  0
SECTION
  2
OBJECTS
  0
DICTIONARY
  5
C
330
0
100
AcDbDictionary
281
     1
  3
ACAD_GROUP
350
D
  3
ACAD_LAYOUT
350
1A
  3
ACAD_MLINESTYLE
350
17
  3
ACAD_PLOTSETTINGS
350
19
  3
ACAD_PLOTSTYLENAME
350
E
  3
ACAD_SCALELIST
350
47
  0
DICTIONARY
  5
D
102
{ACAD_REACTORS
330
C
102
}
330
C
100
AcDbDictionary
281
     1
  0
DICTIONARY
  5
1A
102
{ACAD_REACTORS
330
C
102
}
330
C
100
AcDbDictionary
281
     1
  3
_Dimetrisch
350
21D
  3
_Isometrisch
350
131
  3
_Links
350
F2
  3
_Normal auf
350
CE
  3
_Rechts
350
26
  3
_Rückseite
350
E0
  3
_Trimetrisch
350
1B1
  3
_Unten
350
104
  3
_Vorderseite
350
1E
  3
Model
350
22
  0
DICTIONARY
  5
17
102
{ACAD_REACTORS
330
C
102
}
330
C
100
AcDbDictionary
281
     1
  3
Standard
350
18
  0
DICTIONARY
  5
19
102
{ACAD_REACTORS
330
C
102
}
330
C
100
AcDbDictionary
281
     1
  0
ACDBDICTIONARYWDFLT
  5
E
102
{ACAD_REACTORS
330
C
102
}
330
C
100
AcDbDictionary
281
     1
  3
Normal
350
F
100
AcDbDictionaryWithDefault
340
F
  0
DICTIONARY
  5
47
102
{ACAD_REACTORS
330
C
102
}
330
C
100
AcDbDictionary
281
     1
  3
A0
350
48
  3
A1
350
49
  3
A2
350
4A
  3
A3
350
4B
  3
A4
350
4C
  3
A5
350
4D
  3
A6
350
4E
  3
A7
350
4F
  3
A8
350
50
  3
A9
350
51
  3
B0
350
52
  3
B1
350
53
  3
B2
350
54
  3
B3
350
55
  3
B4
350
56
  3
B5
350
57
  3
B6
350
58
  3
B7
350
59
  3
B8
350
5A
  3
B9
350
5B
  3
C0
350
5C
  3
C1
350
5D
  3
C2
350
5E
  3
C3
350
5F
  3
C4
350
60
  3
C5
350
61
  3
C6
350
62
  3
C7
350
63
  3
C8
350
64
  3
C9
350
65
  3
D0
350
66
  3
D1
350
67
  3
D2
350
68
  0
LAYOUT
  5
21D
102
{ACAD_REACTORS
330
1A
102
}
330
1A
100
AcDbPlotSettings
  1

  2
none_device
  4
ISO_A4_(210.00_x_297.00_MM)
  6

 40
7.5
 41
20.0
 42
7.5
 43
20.0
 44
210.0
 45
297.0
 46
0.0
 47
0.0
 48
0.0
 49
0.0
140
0.0
141
0.0
142
1.0
143
6.6147859922
 70
   688
 72
     1
 73
     1
 74
     1
  7

 75
     0
147
0.1511764706
148
850.0
149
26.0
100
AcDbLayout
  1
_Dimetrisch
 70
     1
 71
     9
 10
0.0
 20
0.0
 11
0.0
 21
0.0
 12
0.0
 22
0.0
 32
0.0
 14
0.0
 24
0.0
 34
0.0
 15
0.0
 25
0.0
 35
0.0
146
0.0
 13
0.0
 23
0.0
 33
0.0
 16
1.0
 26
0.0
 36
0.0
 17
0.0
 27
1.0
 37
0.0
 76
     0
330
21C
331
28A
  0
LAYOUT
  5
131
102
{ACAD_REACTORS
330
1A
102
}
330
1A
100
AcDbPlotSettings
  1

  2
none_device
  4
ISO_A4_(210.00_x_297.00_MM)
  6

 40
7.5
 41
20.0
 42
7.5
 43
20.0
 44
210.0
 45
297.0
 46
0.0
 47
0.0
 48
0.0
 49
0.0
140
0.0
141
0.0
142
1.0
143
6.6147859922
 70
   688
 72
     1
 73
     1
 74
     1
  7

 75
     0
147
0.1511764706
148
850.0
149
26.0
100
AcDbLayout
  1
_Isometrisch
 70
     1
 71
     7
 10
0.0
 20
0.0
 11
0.0
 21
0.0
 12
0.0
 22
0.0
 32
0.0
 14
0.0
 24
0.0
 34
0.0
 15
0.0
 25
0.0
 35
0.0
146
0.0
 13
0.0
 23
0.0
 33
0.0
 16
1.0
 26
0.0
 36
0.0
 17
0.0
 27
1.0
 37
0.0
 76
     0
330
130
331
286
  0
LAYOUT
  5
F2
102
{ACAD_REACTORS
330
1A
102
}
330
1A
100
AcDbPlotSettings
  1

  2
none_device
  4
ISO_A4_(210.00_x_297.00_MM)
  6

 40
7.5
 41
20.0
 42
7.5
 43
20.0
 44
210.0
 45
297.0
 46
0.0
 47
0.0
 48
0.0
 49
0.0
140
0.0
141
0.0
142
1.0
143
6.6147859922
 70
   688
 72
     1
 73
     1
 74
     1
  7

 75
     0
147
0.1511764706
148
850.0
149
26.0
100
AcDbLayout
  1
_Links
 70
     1
 71
     5
 10
0.0
 20
0.0
 11
0.0
 21
0.0
 12
0.0
 22
0.0
 32
0.0
 14
0.0
 24
0.0
 34
0.0
 15
0.0
 25
0.0
 35
0.0
146
0.0
 13
0.0
 23
0.0
 33
0.0
 16
1.0
 26
0.0
 36
0.0
 17
0.0
 27
1.0
 37
0.0
 76
     0
330
F1
331
282
  0
LAYOUT
  5
CE
102
{ACAD_REACTORS
330
1A
102
}
330
1A
100
AcDbPlotSettings
  1

  2
none_device
  4
ISO_A4_(210.00_x_297.00_MM)
  6

 40
7.5
 41
20.0
 42
7.5
 43
20.0
 44
210.0
 45
297.0
 46
0.0
 47
0.0
 48
0.0
 49
0.0
140
0.0
141
0.0
142
1.0
143
6.6147859922
 70
   688
 72
     1
 73
     1
 74
     1
  7

 75
     0
147
0.1511764706
148
850.0
149
26.0
100
AcDbLayout
  1
_Normal auf
 70
     1
 71
     3
 10
0.0
 20
0.0
 11
0.0
 21
0.0
 12
0.0
 22
0.0
 32
0.0
 14
0.0
 24
0.0
 34
0.0
 15
0.0
 25
0.0
 35
0.0
146
0.0
 13
0.0
 23
0.0
 33
0.0
 16
1.0
 26
0.0
 36
0.0
 17
0.0
 27
1.0
 37
0.0
 76
     0
330
CD
331
27E
  0
LAYOUT
  5
26
102
{ACAD_REACTORS
330
1A
102
}
330
1A
100
AcDbPlotSettings
  1

  2
none_device
  4
ISO_A4_(210.00_x_297.00_MM)
  6

 40
7.5
 41
20.0
 42
7.5
 43
20.0
 44
210.0
 45
297.0
 46
0.0
 47
0.0
 48
0.0
 49
0.0
140
0.0
141
0.0
142
1.0
143
6.6147859922
 70
   688
 72
     1
 73
     1
 74
     1
  7

 75
     0
147
0.1511764706
148
850.0
149
26.0
100
AcDbLayout
  1
_Rechts
 70
     1
 71
     2
 10
0.0
 20
0.0
 11
0.0
 21
0.0
 12
0.0
 22
0.0
 32
0.0
 14
0.0
 24
0.0
 34
0.0
 15
0.0
 25
0.0
 35
0.0
146
0.0
 13
0.0
 23
0.0
 33
0.0
 16
1.0
 26
0.0
 36
0.0
 17
0.0
 27
1.0
 37
0.0
 76
     0
330
23
331
27C
  0
LAYOUT
  5
E0
102
{ACAD_REACTORS
330
1A
102
}
330
1A
100
AcDbPlotSettings
  1

  2
none_device
  4
ISO_A4_(210.00_x_297.00_MM)
  6

 40
7.5
 41
20.0
 42
7.5
 43
20.0
 44
210.0
 45
297.0
 46
0.0
 47
0.0
 48
0.0
 49
0.0
140
0.0
141
0.0
142
1.0
143
6.6147859922
 70
   688
 72
     1
 73
     1
 74
     1
  7

 75
     0
147
0.1511764706
148
850.0
149
26.0
100
AcDbLayout
  1
_Rückseite
 70
     1
 71
     4
 10
0.0
 20
0.0
 11
0.0
 21
0.0
 12
0.0
 22
0.0
 32
0.0
 14
0.0
 24
0.0
 34
0.0
 15
0.0
 25
0.0
 35
0.0
146
0.0
 13
0.0
 23
0.0
 33
0.0
 16
1.0
 26
0.0
 36
0.0
 17
0.0
 27
1.0
 37
0.0
 76
     0
330
DF
331
280
  0
LAYOUT
  5
1B1
102
{ACAD_REACTORS
330
1A
102
}
330
1A
100
AcDbPlotSettings
  1

  2
none_device
  4
ISO_A4_(210.00_x_297.00_MM)
  6

 40
7.5
 41
20.0
 42
7.5
 43
20.0
 44
210.0
 45
297.0
 46
0.0
 47
0.0
 48
0.0
 49
0.0
140
0.0
141
0.0
142
1.0
143
6.6147859922
 70
   688
 72
     1
 73
     1
 74
     1
  7

 75
     0
147
0.1511764706
148
850.0
149
26.0
100
AcDbLayout
  1
_Trimetrisch
 70
     1
 71
     8
 10
0.0
 20
0.0
 11
0.0
 21
0.0
 12
0.0
 22
0.0
 32
0.0
 14
0.0
 24
0.0
 34
0.0
 15
0.0
 25
0.0
 35
0.0
146
0.0
 13
0.0
 23
0.0
 33
0.0
 16
1.0
 26
0.0
 36
0.0
 17
0.0
 27
1.0
 37
0.0
 76
     0
330
1B0
331
288
  0
LAYOUT
  5
104
102
{ACAD_REACTORS
330
1A
102
}
330
1A
100
AcDbPlotSettings
  1

  2
none_device
  4
ISO_A4_(210.00_x_297.00_MM)
  6

 40
7.5
 41
20.0
 42
7.5
 43
20.0
 44
210.0
 45
297.0
 46
0.0
 47
0.0
 48
0.0
 49
0.0
140
0.0
141
0.0
142
1.0
143
6.6147859922
 70
   688
 72
     1
 73
     1
 74
     1
  7

 75
     0
147
0.1511764706
148
850.0
149
26.0
100
AcDbLayout
  1
_Unten
 70
     1
 71
     6
 10
0.0
 20
0.0
 11
0.0
 21
0.0
 12
0.0
 22
0.0
 32
0.0
 14
0.0
 24
0.0
 34
0.0
 15
0.0
 25
0.0
 35
0.0
146
0.0
 13
0.0
 23
0.0
 33
0.0
 16
1.0
 26
0.0
 36
0.0
 17
0.0
 27
1.0
 37
0.0
 76
     0
330
103
331
284
  0
LAYOUT
  5
1E
102
{ACAD_REACTORS
330
1A
102
}
330
1A
100
AcDbPlotSettings
  1

  2
none_device
  4
ISO_A4_(210.00_x_297.00_MM)
  6

 40
7.5
 41
20.0
 42
7.5
 43
20.0
 44
210.0
 45
297.0
 46
0.0
 47
0.0
 48
0.0
 49
0.0
140
0.0
141
0.0
142
1.0
143
6.6147859922
 70
   688
 72
     1
 73
     1
 74
     1
  7

 75
     0
147
0.1511764706
148
850.0
149
26.0
100
AcDbLayout
  1
_Vorderseite
 70
     1
 71
     1
 10
-982.2957198444
 20
-75.6108949416
 11
982.2957198444
 21
1313.4941634241
 12
0.0
 22
0.0
 32
0.0
 14
-850.0
 24
-26.0
 34
0.0
 15
850.0
 25
35.0
 35
0.0
146
0.0
 13
0.0
 23
0.0
 33
0.0
 16
1.0
 26
0.0
 36
0.0
 17
0.0
 27
1.0
 37
0.0
 76
     0
330
1B
331
27A
  0
LAYOUT
  5
22
102
{ACAD_REACTORS
330
1A
102
}
330
1A
100
AcDbPlotSettings
  1

  2
none_device
  4
ANSI_A_(11.00_x_8.50_Inches)
  6

 40
6.35
 41
19.05
 42
6.35000508
 43
19.05000254
 44
279.4
 45
215.9
 46
133.34999746
 47
88.89999873
 48
0.0
 49
0.0
140
0.0
141
0.0
142
0.0064058824
143
1.0
 70
  1696
 72
     0
 73
     0
 74
     0
  7

 75
     0
147
0.0179189148
148
-1300.4909072572
149
0.0
100
AcDbLayout
  1
Model
 70
     1
 71
     0
 10
0.0
 20
0.0
 11
420.0
 21
297.0
 12
0.0
 22
0.0
 32
0.0
 14
-850.0
 24
-400.0
 34
0.0
 15
850.0
 25
400.0
 35
0.0
146
0.0
 13
0.0
 23
0.0
 33
0.0
 16
1.0
 26
0.0
 36
0.0
 17
0.0
 27
1.0
 37
0.0
 76
     0
330
1F
331
29
  0
MLINESTYLE
  5
18
102
{ACAD_REACTORS
330
17
102
}
330
17
100
AcDbMlineStyle
  2
Standard
 70
     0
  3

 62
   256
 51
90.0
 52
90.0
 71
     2
 49
0.5
 62
   256
  6
BYLAYER
 49
-0.5
 62
   256
  6
BYLAYER
  0
ACDBPLACEHOLDER
  5
F
102
{ACAD_REACTORS
330
E
102
}
330
E
  0
SCALE
  5
48
102
{ACAD_REACTORS
330
47
102
}
330
47
100
AcDbScale
 70
     0
300
1:1
140
1.0
141
1.0
290
     1
  0
SCALE
  5
49
102
{ACAD_REACTORS
330
47
102
}
330
47
100
AcDbScale
 70
     0
300
1:2
140
1.0
141
2.0
290
     0
  0
SCALE
  5
4A
102
{ACAD_REACTORS
330
47
102
}
330
47
100
AcDbScale
 70
     0
300
1:4
140
1.0
141
4.0
290
     0
  0
SCALE
  5
4B
102
{ACAD_REACTORS
330
47
102
}
330
47
100
AcDbScale
 70
     0
300
1:5
140
1.0
141
5.0
290
     0
  0
SCALE
  5
4C
102
{ACAD_REACTORS
330
47
102
}
330
47
100
AcDbScale
 70
     0
300
1:8
140
1.0
141
8.0
290
     0
  0
SCALE
  5
4D
102
{ACAD_REACTORS
330
47
102
}
330
47
100
AcDbScale
 70
     0
300
1:10
140
1.0
141
10.0
290
     0
  0
SCALE
  5
4E
102
{ACAD_REACTORS
330
47
102
}
330
47
100
AcDbScale
 70
     0
300
1:16
140
1.0
141
16.0
290
     0
  0
SCALE
  5
4F
102
{ACAD_REACTORS
330
47
102
}
330
47
100
AcDbScale
 70
     0
300
1:20
140
1.0
141
20.0
290
     0
  0
SCALE
  5
50
102
{ACAD_REACTORS
330
47
102
}
330
47
100
AcDbScale
 70
     0
300
1:30
140
1.0
141
30.0
290
     0
  0
SCALE
  5
51
102
{ACAD_REACTORS
330
47
102
}
330
47
100
AcDbScale
 70
     0
300
1:40
140
1.0
141
40.0
290
     0
  0
SCALE
  5
52
102
{ACAD_REACTORS
330
47
102
}
330
47
100
AcDbScale
 70
     0
300
1:50
140
1.0
141
50.0
290
     0
  0
SCALE
  5
53
102
{ACAD_REACTORS
330
47
102
}
330
47
100
AcDbScale
 70
     0
300
1:100
140
1.0
141
100.0
290
     0
  0
SCALE
  5
54
102
{ACAD_REACTORS
330
47
102
}
330
47
100
AcDbScale
 70
     0
300
2:1
140
2.0
141
1.0
290
     0
  0
SCALE
  5
55
102
{ACAD_REACTORS
330
47
102
}
330
47
100
AcDbScale
 70
     0
300
4:1
140
4.0
141
1.0
290
     0
  0
SCALE
  5
56
102
{ACAD_REACTORS
330
47
102
}
330
47
100
AcDbScale
 70
     0
300
8:1
140
8.0
141
1.0
290
     0
  0
SCALE
  5
57
102
{ACAD_REACTORS
330
47
102
}
330
47
100
AcDbScale
 70
     0
300
10:1
140
10.0
141
1.0
290
     0
  0
SCALE
  5
58
102
{ACAD_REACTORS
330
47
102
}
330
47
100
AcDbScale
 70
     0
300
100:1
140
100.0
141
1.0
290
     0
  0
SCALE
  5
59
102
{ACAD_REACTORS
330
47
102
}
330
47
100
AcDbScale
 70
     0
300
1/128" = 1'-0"
140
0.0078125
141
12.0
290
     0
  0
SCALE
  5
5A
102
{ACAD_REACTORS
330
47
102
}
330
47
100
AcDbScale
 70
     0
300
1/64" = 1'-0"
140
0.015625
141
12.0
290
     0
  0
SCALE
  5
5B
102
{ACAD_REACTORS
330
47
102
}
330
47
100
AcDbScale
 70
     0
300
1/32" = 1'-0"
140
0.03125
141
12.0
290
     0
  0
SCALE
  5
5C
102
{ACAD_REACTORS
330
47
102
}
330
47
100
AcDbScale
 70
     0
300
1/16" = 1'-0"
140
0.0625
141
12.0
290
     0
  0
SCALE
  5
5D
102
{ACAD_REACTORS
330
47
102
}
330
47
100
AcDbScale
 70
     0
300
3/32" = 1'-0"
140
0.09375
141
12.0
290
     0
  0
SCALE
  5
5E
102
{ACAD_REACTORS
330
47
102
}
330
47
100
AcDbScale
 70
     0
300
1/8" = 1'-0"
140
0.125
141
12.0
290
     0
  0
SCALE
  5
5F
102
{ACAD_REACTORS
330
47
102
}
330
47
100
AcDbScale
 70
     0
300
3/16" = 1'-0"
140
0.1875
141
12.0
290
     0
  0
SCALE
  5
60
102
{ACAD_REACTORS
330
47
102
}
330
47
100
AcDbScale
 70
     0
300
1/4" = 1'-0"
140
0.25
141
12.0
290
     0
  0
SCALE
  5
61
102
{ACAD_REACTORS
330
47
102
}
330
47
100
AcDbScale
 70
     0
300
3/8" = 1'-0"
140
0.375
141
12.0
290
     0
  0
SCALE
  5
62
102
{ACAD_REACTORS
330
47
102
}
330
47
100
AcDbScale
 70
     0
300
1/2" = 1'-0"
140
0.5
141
12.0
290
     0
  0
SCALE
  5
63
102
{ACAD_REACTORS
330
47
102
}
330
47
100
AcDbScale
 70
     0
300
3/4" = 1'-0"
140
0.75
141
12.0
290
     0
  0
SCALE
  5
64
102
{ACAD_REACTORS
330
47
102
}
330
47
100
AcDbScale
 70
     0
300
1" = 1'-0"
140
1.0
141
12.0
290
     0
  0
SCALE
  5
65
102
{ACAD_REACTORS
330
47
102
}
330
47
100
AcDbScale
 70
     0
300
1-1/2" = 1'-0"
140
1.5
141
12.0
290
     0
  0
SCALE
  5
66
102
{ACAD_REACTORS
330
47
102
}
330
47
100
AcDbScale
 70
     0
300
3" = 1'-0"
140
3.0
141
12.0
290
     0
  0
SCALE
  5
67
102
{ACAD_REACTORS
330
47
102
}
330
47
100
AcDbScale
 70
     0
300
6" = 1'-0"
140
6.0
141
12.0
290
     0
  0
SCALE
  5
68
102
{ACAD_REACTORS
330
47
102
}
330
47
100
AcDbScale
 70
     0
300
1'-0" = 1'-0"
140
12.0
141
12.0
290
     0
  0
ENDSEC
  0
EOF
