  0
SECTION
  2
HEADER
  9
$ACADVER
  1
AC1015
  9
$ACADMAINTVER
 70
     6
  9
$DWGCODEPAGE
  3
ANSI_1252
  9
$INSBASE
 10
0.0
 20
0.0
 30
0.0
  9
$EXTMIN
 10
-500.0
 20
-400.0
 30
0.0
  9
$EXTMAX
 10
500.0
 20
400.0
 30
0.0
  9
$LIMMIN
 10
0.0
 20
0.0
  9
$LIMMAX
 10
420.0
 20
297.0
  9
$ORTHOMODE
 70
     0
  9
$REGENMODE
 70
     1
  9
$FILLMODE
 70
     1
  9
$QTEXTMODE
 70
     0
  9
$MIRRTEXT
 70
     1
  9
$LTSCALE
 40
1.0
  9
$ATTMODE
 70
     1
  9
$TEXTSIZE
 40
3.5
  9
$TRACEWID
 40
1.0
  9
$TEXTSTYLE
  7
STANDARD
  9
$CLAYER
  8
0
  9
$CELTYPE
  6
ByLayer
  9
$CECOLOR
 62
   256
  9
$CELTSCALE
 40
1.0
  9
$DISPSILH
 70
     0
  9
$DIMSCALE
 40
1.0
  9
$DIMASZ
 40
12.7
  9
$DIMEXO
 40
1.0
  9
$DIMDLI
 40
3.75
  9
$DIMRND
 40
0.0
  9
$DIMDLE
 40
0.0
  9
$DIMEXE
 40
1.0
  9
$DIMTP
 40
0.0
  9
$DIMTM
 40
0.0
  9
$DIMTXT
 40
9.8777777778
  9
$DIMCEN
 40
2.5
  9
$DIMTSZ
 40
0.0
  9
$DIMTOL
 70
     0
  9
$DIMLIM
 70
     0
  9
$DIMTIH
 70
     1
  9
$DIMTOH
 70
     1
  9
$DIMSE1
 70
     0
  9
$DIMSE2
 70
     0
  9
$DIMTAD
 70
     1
  9
$DIMZIN
 70
     0
  9
$DIMBLK
  1

  9
$DIMASO
 70
     1
  9
$DIMSHO
 70
     1
  9
$DIMPOST
  1

  9
$DIMAPOST
  1

  9
$DIMALT
 70
     0
  9
$DIMALTD
 70
     3
  9
$DIMALTF
 40
0.0393700787
  9
$DIMLFAC
 40
1.0
  9
$DIMTOFL
 70
     1
  9
$DIMTVP
 40
0.0
  9
$DIMTIX
 70
     0
  9
$DIMSOXD
 70
     0
  9
$DIMSAH
 70
     0
  9
$DIMBLK1
  1

  9
$DIMBLK2
  1

  9
$DIMSTYLE
  2
ISO-25
  9
$DIMCLRD
 70
     0
  9
$DIMCLRE
 70
     0
  9
$DIMCLRT
 70
     0
  9
$DIMTFAC
 40
1.0
  9
$DIMGAP
 40
1.524
  9
$DIMJUST
 70
     0
  9
$DIMSD1
 70
     0
  9
$DIMSD2
 70
     0
  9
$DIMTOLJ
 70
     0
  9
$DIMTZIN
 70
     0
  9
$DIMALTZ
 70
     0
  9
$DIMALTTZ
 70
     0
  9
$DIMUPT
 70
     0
  9
$DIMDEC
 70
     2
  9
$DIMTDEC
 70
     2
  9
$DIMALTU
 70
     2
  9
$DIMALTTD
 70
     3
  9
$DIMTXSTY
  7
STANDARD
  9
$DIMAUNIT
 70
     0
  9
$DIMADEC
 70
     2
  9
$DIMALTRND
 40
0.0
  9
$DIMAZIN
 70
     0
  9
$DIMDSEP
 70
    44
  9
$DIMATFIT
 70
     3
  9
$DIMFRAC
 70
     0
  9
$DIMLDRBLK
  1

  9
$DIMLUNIT
 70
     2
  9
$DIMLWD
 70
    -2
  9
$DIMLWE
 70
    -2
  9
$DIMTMOVE
 70
     0
  9
$LUNITS
 70
     2
  9
$LUPREC
 70
     2
  9
$SKETCHINC
 40
1.0
  9
$FILLETRAD
 40
10.0
  9
$AUNITS
 70
     0
  9
$AUPREC
 70
     2
  9
$MENU
  1
.
  9
$ELEVATION
 40
0.0
  9
$PELEVATION
 40
0.0
  9
$THICKNESS
 40
0.0
  9
$LIMCHECK
 70
     0
  9
$CHAMFERA
 40
0.0
  9
$CHAMFERB
 40
0.0
  9
$CHAMFERC
 40
0.0
  9
$CHAMFERD
 40
0.0
  9
$SKPOLY
 70
     0
  9
$TDCREATE
 40
2458232.482461331
  9
$TDUCREATE
 40
2458232.399127997
  9
$TDUPDATE
 40
2458232.482489572
  9
$TDUUPDATE
 40
2458232.399156238
  9
$TDINDWG
 40
0.0000000116
  9
$TDUSRTIMER
 40
0.0000000116
  9
$USRTIMER
 70
     1
  9
$ANGBASE
 50
0.0
  9
$ANGDIR
 70
     0
  9
$PDMODE
 70
     0
  9
$PDSIZE
 40
-1.0
  9
$PLINEWID
 40
0.0
  9
$SPLFRAME
 70
     0
  9
$SPLINETYPE
 70
     6
  9
$SPLINESEGS
 70
     8
  9
$HANDSEED
  5
28E
  9
$SURFTAB1
 70
     6
  9
$SURFTAB2
 70
     6
  9
$SURFTYPE
 70
     6
  9
$SURFU
 70
     6
  9
$SURFV
 70
     6
  9
$UCSBASE
  2

  9
$UCSNAME
  2

  9
$UCSORG
 10
0.0
 20
0.0
 30
0.0
  9
$UCSXDIR
 10
1.0
 20
0.0
 30
0.0
  9
$UCSYDIR
 10
0.0
 20
1.0
 30
0.0
  9
$UCSORTHOREF
  2

  9
$UCSORTHOVIEW
 70
     0
  9
$UCSORGTOP
 10
0.0
 20
0.0
 30
0.0
  9
$UCSORGBOTTOM
 10
0.0
 20
0.0
 30
0.0
  9
$UCSORGLEFT
 10
0.0
 20
0.0
 30
0.0
  9
$UCSORGRIGHT
 10
0.0
 20
0.0
 30
0.0
  9
$UCSORGFRONT
 10
0.0
 20
0.0
 30
0.0
  9
$UCSORGBACK
 10
0.0
 20
0.0
 30
0.0
  9
$PUCSBASE
  2

  9
$PUCSNAME
  2

  9
$PUCSORG
 10
0.0
 20
0.0
 30
0.0
  9
$PUCSXDIR
 10
1.0
 20
0.0
 30
0.0
  9
$PUCSYDIR
 10
0.0
 20
1.0
 30
0.0
  9
$PUCSORTHOREF
  2

  9
$PUCSORTHOVIEW
 70
     0
  9
$PUCSORGTOP
 10
0.0
 20
0.0
 30
0.0
  9
$PUCSORGBOTTOM
 10
0.0
 20
0.0
 30
0.0
  9
$PUCSORGLEFT
 10
0.0
 20
0.0
 30
0.0
  9
$PUCSORGRIGHT
 10
0.0
 20
0.0
 30
0.0
  9
$PUCSORGFRONT
 10
0.0
 20
0.0
 30
0.0
  9
$PUCSORGBACK
 10
0.0
 20
0.0
 30
0.0
  9
$USERI1
 70
     0
  9
$USERI2
 70
     0
  9
$USERI3
 70
     0
  9
$USERI4
 70
     0
  9
$USERI5
 70
     0
  9
$USERR1
 40
0.0
  9
$USERR2
 40
0.0
  9
$USERR3
 40
0.0
  9
$USERR4
 40
0.0
  9
$USERR5
 40
0.0
  9
$WORLDVIEW
 70
     1
  9
$SHADEDGE
 70
     3
  9
$SHADEDIF
 70
    70
  9
$TILEMODE
 70
     1
  9
$MAXACTVP
 70
    64
  9
$PINSBASE
 10
0.0
 20
0.0
 30
0.0
  9
$PLIMCHECK
 70
     0
  9
$PEXTMIN
 10
-500.0
 20
-26.0
 30
0.0
  9
$PEXTMAX
 10
500.0
 20
35.0
 30
0.0
  9
$PLIMMIN
 10
-577.8210116732
 20
-55.1828793774
  9
$PLIMMAX
 10
577.8210116732
 20
761.9377431907
  9
$UNITMODE
 70
     0
  9
$VISRETAIN
 70
     1
  9
$PLINEGEN
 70
     0
  9
$PSLTSCALE
 70
     1
  9
$TREEDEPTH
 70
  3020
  9
$CMLSTYLE
  2
Standard
  9
$CMLJUST
 70
     0
  9
$CMLSCALE
 40
20.0
  9
$PROXYGRAPHICS
 70
     1
  9
$MEASUREMENT
 70
     1
  9
$CELWEIGHT
370
    -1
  9
$ENDCAPS
280
     0
  9
$JOINSTYLE
280
     0
  9
$LWDISPLAY
290
     1
  9
$INSUNITS
 70
     4
  9
$HYPERLINKBASE
  1

  9
$STYLESHEET
  1

  9
$XEDIT
290
     1
  9
$CEPSNTYPE
380
     0
  9
$PSTYLEMODE
290
     1
  9
$FINGERPRINTGUID
  2
{E2FA57C8-07A2-49B1-861E-08B7BB7C279E}
  9
$VERSIONGUID
  2
{FAEB1C32-E019-11D5-929B-00C0DF256EC4}
  9
$EXTNAMES
290
     1
  9
$PSVPSCALE
 40
0.0
  9
$OLESTARTUP
290
     0
  0
ENDSEC
  0
SECTION
  2
CLASSES
  0
CLASS
  1
ACDBDICTIONARYWDFLT
  2
AcDbDictionaryWithDefault
  3
ObjectDBX Classes
 90
        0
280
     0
281
     0
  0
CLASS
  1
VISUALSTYLE
  2
AcDbVisualStyle
  3
ObjectDBX Classes
 90
     4095
280
     0
281
     0
  0
CLASS
  1
MATERIAL
  2
AcDbMaterial
  3
ObjectDBX Classes
 90
     1153
280
     0
281
     0
  0
CLASS
  1
SCALE
  2
AcDbScale
  3
ObjectDBX Classes
 90
     1153
280
     0
281
     0
  0
CLASS
  1
TABLESTYLE
  2
AcDbTableStyle
  3
ObjectDBX Classes
 90
     4095
280
     0
281
     0
  0
CLASS
  1
MLEADERSTYLE
  2
AcDbMLeaderStyle
  3
ACDB_MLEADERSTYLE_CLASS
 90
     4095
280
     0
281
     0
  0
CLASS
  1
SUN
  2
AcDbSun
  3
SCENEOE
 90
     1153
280
     0
281
     0
  0
CLASS
  1
ACDBPLACEHOLDER
  2
AcDbPlaceHolder
  3
ObjectDBX Classes
 90
        0
280
     0
281
     0
  0
CLASS
  1
LAYOUT
  2
AcDbLayout
  3
ObjectDBX Classes
 90
        0
280
     0
281
     0
  0
ENDSEC
  0
SECTION
  2
TABLES
  0
TABLE
  2
VPORT
  5
8
330
0
100
AcDbSymbolTable
 70
     1
  0
VPORT
  5
29
330
8
100
AcDbSymbolTableRecord
100
AcDbViewportTableRecord
  2
*Active
 70
     0
 10
0.0
 20
0.0
 11
1.0
 21
1.0
 12
0.0
 22
0.0
 13
0.0
 23
0.0
 14
10.0
 24
10.0
 15
10.0
 25
10.0
 16
0.0
 26
0.0
 36
1.0
 17
0.0
 27
0.0
 37
0.0
 40
816.0
 41
1.25
 42
50.0
 43
0.0
 44
0.0
 50
0.0
 51
0.0
 71
     0
 72
   100
 73
     1
 74
     3
 75
     0
 76
     0
 77
     0
 78
     0
281
     0
 65
     1
110
0.0
120
0.0
130
0.0
111
1.0
121
0.0
131
0.0
112
0.0
122
1.0
132
0.0
 79
     0
146
0.0
  0
ENDTAB
  0
TABLE
  2
LTYPE
  5
5
330
0
100
AcDbSymbolTable
 70
     6
  0
LTYPE
  5
14
330
5
100
AcDbSymbolTableRecord
100
AcDbLinetypeTableRecord
  2
ByBlock
 70
     0
  3

 72
    65
 73
     0
 40
0.0
  0
LTYPE
  5
15
330
5
100
AcDbSymbolTableRecord
100
AcDbLinetypeTableRecord
  2
ByLayer
 70
     0
  3

 72
    65
 73
     0
 40
0.0
  0
LTYPE
  5
16
330
5
100
AcDbSymbolTableRecord
100
AcDbLinetypeTableRecord
  2
Continuous
 70
     0
  3
Solid line
 72
    65
 73
     0
 40
0.0
  0
LTYPE
  5
6E
330
5
100
AcDbSymbolTableRecord
100
AcDbLinetypeTableRecord
  2
HIDDEN
 70
     0
  3
Hidden __ __ __ __ __ __ __ __ __ __ __ __ __ __
 72
    65
 73
     2
 40
1.905
 49
1.27
 74
     0
 49
-0.635
 74
     0
  0
LTYPE
  5
6F
330
5
100
AcDbSymbolTableRecord
100
AcDbLinetypeTableRecord
  2
PHANTOM
 70
     0
  3
Phantom ______  __  __  ______  __  __  ______
 72
    65
 73
     6
 40
12.7
 49
6.35
 74
     0
 49
-1.27
 74
     0
 49
1.27
 74
     0
 49
-1.27
 74
     0
 49
1.27
 74
     0
 49
-1.27
 74
     0
  0
LTYPE
  5
70
330
5
100
AcDbSymbolTableRecord
100
AcDbLinetypeTableRecord
  2
CENTER
 70
     0
  3
Center ____ _ ____ _ ____ _ ____ _ ____ _ ____
 72
    65
 73
     4
 40
10.16
 49
6.35
 74
     0
 49
-1.27
 74
     0
 49
1.27
 74
     0
 49
-1.27
 74
     0
  0
LTYPE
  5
71
330
5
100
AcDbSymbolTableRecord
100
AcDbLinetypeTableRecord
  2
CENTERX2
 70
     0
  3
Center (2x) ________  __  ________  __  _____
 72
    65
 73
     4
 40
20.32
 49
12.7
 74
     0
 49
-2.54
 74
     0
 49
2.54
 74
     0
 49
-2.54
 74
     0
  0
LTYPE
  5
72
330
5
100
AcDbSymbolTableRecord
100
AcDbLinetypeTableRecord
  2
DOT2
 70
     0
  3
Dot (.5x) ........................................
 72
    65
 73
     2
 40
0.635
 49
0.0
 74
     0
 49
-0.635
 74
     0
  0
ENDTAB
  0
TABLE
  2
LAYER
  5
2
330
0
100
AcDbSymbolTable
 70
     1
  0
LAYER
  5
10
330
2
100
AcDbSymbolTableRecord
100
AcDbLayerTableRecord
  2
0
 70
     0
 62
     7
  6
Continuous
370
    -3
390
F
  0
ENDTAB
  0
TABLE
  2
STYLE
  5
3
330
0
100
AcDbSymbolTable
 70
     1
  0
STYLE
  5
11
330
3
100
AcDbSymbolTableRecord
100
AcDbTextStyleTableRecord
  2
STANDARD
 70
     0
 40
0.0
 41
1.0
 50
0.0
 71
     0
 42
3.5
  3
GOTHIC.TTF
  4

1001
ACAD
1000
CENTURY GOTHIC
1071
       34
  0
ENDTAB
  0
TABLE
  2
VIEW
  5
6
330
0
100
AcDbSymbolTable
 70
     0
  0
ENDTAB
  0
TABLE
  2
UCS
  5
7
330
0
100
AcDbSymbolTable
 70
     0
  0
ENDTAB
  0
TABLE
  2
APPID
  5
9
330
0
100
AcDbSymbolTable
 70
     1
  0
APPID
  5
12
330
9
100
AcDbSymbolTableRecord
100
AcDbRegAppTableRecord
  2
ACAD
 70
     0
  0
ENDTAB
  0
TABLE
  2
DIMSTYLE
  5
A
330
0
100
AcDbSymbolTable
 70
     1
100
AcDbDimStyleTable
  0
DIMSTYLE
105
27
330
A
100
AcDbSymbolTableRecord
100
AcDbDimStyleTableRecord
  2
ISO-25
 70
     0
 41
2.5
 42
0.625
 43
3.75
 44
1.25
 73
     0
 74
     0
 77
     1
 78
     8
140
2.5
141
2.5
143
0.0393700787
147
0.625
171
     3
172
     1
178
     0
271
     2
272
     2
274
     3
278
    44
283
     0
284
     8
340
11
  0
ENDTAB
  0
TABLE
  2
BLOCK_RECORD
  5
1
330
0
100
AcDbSymbolTable
 70
     8
  0
BLOCK_RECORD
  5
1F
330
1
100
AcDbSymbolTableRecord
100
AcDbBlockTableRecord
  2
*Model_Space
340
22
  0
BLOCK_RECORD
  5
1B
330
1
100
AcDbSymbolTableRecord
100
AcDbBlockTableRecord
  2
*Paper_Space
340
1E
  0
BLOCK_RECORD
  5
23
330
1
100
AcDbSymbolTableRecord
100
AcDbBlockTableRecord
  2
*Paper_Space0
340
26
  0
BLOCK_RECORD
  5
CF
330
1
100
AcDbSymbolTableRecord
100
AcDbBlockTableRecord
  2
*Paper_Space1
340
D0
  0
BLOCK_RECORD
  5
E1
330
1
100
AcDbSymbolTableRecord
100
AcDbBlockTableRecord
  2
*Paper_Space2
340
E2
  0
BLOCK_RECORD
  5
F3
330
1
100
AcDbSymbolTableRecord
100
AcDbBlockTableRecord
  2
*Paper_Space3
340
F4
  0
BLOCK_RECORD
  5
105
330
1
100
AcDbSymbolTableRecord
100
AcDbBlockTableRecord
  2
*Paper_Space4
340
106
  0
BLOCK_RECORD
  5
132
330
1
100
AcDbSymbolTableRecord
100
AcDbBlockTableRecord
  2
*Paper_Space5
340
133
  0
BLOCK_RECORD
  5
1B2
330
1
100
AcDbSymbolTableRecord
100
AcDbBlockTableRecord
  2
*Paper_Space6
340
1B3
  0
BLOCK_RECORD
  5
21E
330
1
100
AcDbSymbolTableRecord
100
AcDbBlockTableRecord
  2
*Paper_Space7
340
21F
  0
ENDTAB
  0
ENDSEC
  0
SECTION
  2
BLOCKS
  0
BLOCK
  5
20
330
1F
100
AcDbEntity
  8
0
100
AcDbBlockBegin
  2
*Model_Space
 70
     0
 10
0.0
 20
0.0
 30
0.0
  3
*Model_Space
  1

  0
ENDBLK
  5
21
330
1F
100
AcDbEntity
  8
0
100
AcDbBlockEnd
  0
BLOCK
  5
1C
330
1B
100
AcDbEntity
 67
     1
  8
0
100
AcDbBlockBegin
  2
*Paper_Space
 70
     0
 10
0.0
 20
0.0
 30
0.0
  3
*Paper_Space
  1

  0
ENDBLK
  5
1D
330
1B
100
AcDbEntity
 67
     1
  8
0
100
AcDbBlockEnd
  0
BLOCK
  5
24
330
23
100
AcDbEntity
  8
0
100
AcDbBlockBegin
  2
*Paper_Space0
 70
     0
 10
0.0
 20
0.0
 30
0.0
  3
*Paper_Space0
  1

  0
LINE
  5
C8
330
23
100
AcDbEntity
  8
0
  6
Continuous
 62
     7
370
    25
100
AcDbLine
 10
400.0
 20
35.0
 30
0.0
 11
400.0
 21
0.0
 31
0.0
  0
LINE
  5
C9
330
23
100
AcDbEntity
  8
0
  6
Continuous
 62
     7
370
    25
100
AcDbLine
 10
-400.0
 20
0.0
 30
0.0
 11
400.0
 21
0.0
 31
0.0
  0
LINE
  5
CA
330
23
100
AcDbEntity
  8
0
  6
Continuous
 62
     7
370
    25
100
AcDbLine
 10
-400.0
 20
35.0
 30
0.0
 11
-400.0
 21
0.0
 31
0.0
  0
LINE
  5
CB
330
23
100
AcDbEntity
  8
0
  6
Continuous
 62
     7
370
    25
100
AcDbLine
 10
-400.0
 20
35.0
 30
0.0
 11
400.0
 21
35.0
 31
0.0
  0
LINE
  5
CC
330
23
100
AcDbEntity
  8
0
  6
Continuous
 62
     7
370
    25
100
AcDbLine
 10
-130.0
 20
-26.0
 30
0.0
 11
-130.0
 21
0.0
 31
0.0
  0
LINE
  5
CD
330
23
100
AcDbEntity
  8
0
  6
Continuous
 62
     7
370
    25
100
AcDbLine
 10
130.0
 20
-26.0
 30
0.0
 11
130.0
 21
0.0
 31
0.0
  0
LINE
  5
CE
330
23
100
AcDbEntity
  8
0
  6
Continuous
 62
     7
370
    25
100
AcDbLine
 10
130.0
 20
-26.0
 30
0.0
 11
-130.0
 21
-26.0
 31
0.0
  0
VIEWPORT
  5
27E
330
23
100
AcDbEntity
  8
0
100
AcDbViewport
 10
0.0
 20
0.0
 30
0.0
 40
205.6
 41
156.0
 68
     1
 69
     1
 12
0.0
 22
0.0
 13
0.0
 23
0.0
 14
10.0
 24
10.0
 15
10.0
 25
10.0
 16
0.0
 26
0.0
 36
1.0
 17
0.0
 27
0.0
 37
0.0
 42
50.0
 43
0.0
 44
0.0
 45
816.0
 50
0.0
 51
0.0
 72
   100
 90
   557152
  1

281
     0
 71
     1
 74
     0
110
0.0
120
0.0
130
0.0
111
1.0
121
0.0
131
0.0
112
0.0
122
1.0
132
0.0
 79
     0
146
0.0
  0
ENDBLK
  5
25
330
23
100
AcDbEntity
  8
0
100
AcDbBlockEnd
  0
BLOCK
  5
D1
330
CF
100
AcDbEntity
  8
0
100
AcDbBlockBegin
  2
*Paper_Space1
 70
     0
 10
0.0
 20
0.0
 30
0.0
  3
*Paper_Space1
  1

  0
LINE
  5
DA
330
CF
100
AcDbEntity
  8
0
  6
Continuous
 62
     7
370
    25
100
AcDbLine
 10
-500.0
 20
35.0
 30
0.0
 11
500.0
 21
35.0
 31
0.0
  0
LINE
  5
DB
330
CF
100
AcDbEntity
  8
0
  6
Continuous
 62
     7
370
    25
100
AcDbLine
 10
500.0
 20
35.0
 30
0.0
 11
500.0
 21
0.0
 31
0.0
  0
LINE
  5
DC
330
CF
100
AcDbEntity
  8
0
  6
Continuous
 62
     7
370
    25
100
AcDbLine
 10
-500.0
 20
0.0
 30
0.0
 11
500.0
 21
0.0
 31
0.0
  0
LINE
  5
DD
330
CF
100
AcDbEntity
  8
0
  6
Continuous
 62
     7
370
    25
100
AcDbLine
 10
-500.0
 20
35.0
 30
0.0
 11
-500.0
 21
0.0
 31
0.0
  0
LINE
  5
DE
330
CF
100
AcDbEntity
  8
0
  6
Continuous
 62
     7
370
    25
100
AcDbLine
 10
-120.0
 20
-26.0
 30
0.0
 11
-380.0
 21
-26.0
 31
0.0
  0
LINE
  5
DF
330
CF
100
AcDbEntity
  8
0
  6
Continuous
 62
     7
370
    25
100
AcDbLine
 10
-120.0
 20
-26.0
 30
0.0
 11
-120.0
 21
0.0
 31
0.0
  0
LINE
  5
E0
330
CF
100
AcDbEntity
  8
0
  6
Continuous
 62
     7
370
    25
100
AcDbLine
 10
-380.0
 20
-26.0
 30
0.0
 11
-380.0
 21
0.0
 31
0.0
  0
VIEWPORT
  5
280
330
CF
100
AcDbEntity
  8
0
100
AcDbViewport
 10
0.0
 20
0.0
 30
0.0
 40
205.6
 41
156.0
 68
     1
 69
     1
 12
0.0
 22
0.0
 13
0.0
 23
0.0
 14
10.0
 24
10.0
 15
10.0
 25
10.0
 16
0.0
 26
0.0
 36
1.0
 17
0.0
 27
0.0
 37
0.0
 42
50.0
 43
0.0
 44
0.0
 45
816.0
 50
0.0
 51
0.0
 72
   100
 90
   557152
  1

281
     0
 71
     1
 74
     0
110
0.0
120
0.0
130
0.0
111
1.0
121
0.0
131
0.0
112
0.0
122
1.0
132
0.0
 79
     0
146
0.0
  0
ENDBLK
  5
D2
330
CF
100
AcDbEntity
  8
0
100
AcDbBlockEnd
  0
BLOCK
  5
E3
330
E1
100
AcDbEntity
  8
0
100
AcDbBlockBegin
  2
*Paper_Space2
 70
     0
 10
0.0
 20
0.0
 30
0.0
  3
*Paper_Space2
  1

  0
LINE
  5
EC
330
E1
100
AcDbEntity
  8
0
  6
Continuous
 62
     7
370
    25
100
AcDbLine
 10
-500.0
 20
35.0
 30
0.0
 11
500.0
 21
35.0
 31
0.0
  0
LINE
  5
ED
330
E1
100
AcDbEntity
  8
0
  6
Continuous
 62
     7
370
    25
100
AcDbLine
 10
-500.0
 20
35.0
 30
0.0
 11
-500.0
 21
0.0
 31
0.0
  0
LINE
  5
EE
330
E1
100
AcDbEntity
  8
0
  6
Continuous
 62
     7
370
    25
100
AcDbLine
 10
-500.0
 20
0.0
 30
0.0
 11
500.0
 21
0.0
 31
0.0
  0
LINE
  5
EF
330
E1
100
AcDbEntity
  8
0
  6
Continuous
 62
     7
370
    25
100
AcDbLine
 10
500.0
 20
35.0
 30
0.0
 11
500.0
 21
0.0
 31
0.0
  0
LINE
  5
F0
330
E1
100
AcDbEntity
  8
0
  6
Continuous
 62
     7
370
    25
100
AcDbLine
 10
380.0
 20
-26.0
 30
0.0
 11
380.0
 21
0.0
 31
0.0
  0
LINE
  5
F1
330
E1
100
AcDbEntity
  8
0
  6
Continuous
 62
     7
370
    25
100
AcDbLine
 10
380.0
 20
-26.0
 30
0.0
 11
120.0
 21
-26.0
 31
0.0
  0
LINE
  5
F2
330
E1
100
AcDbEntity
  8
0
  6
Continuous
 62
     7
370
    25
100
AcDbLine
 10
120.0
 20
-26.0
 30
0.0
 11
120.0
 21
0.0
 31
0.0
  0
VIEWPORT
  5
282
330
E1
100
AcDbEntity
  8
0
100
AcDbViewport
 10
0.0
 20
0.0
 30
0.0
 40
205.6
 41
156.0
 68
     1
 69
     1
 12
0.0
 22
0.0
 13
0.0
 23
0.0
 14
10.0
 24
10.0
 15
10.0
 25
10.0
 16
0.0
 26
0.0
 36
1.0
 17
0.0
 27
0.0
 37
0.0
 42
50.0
 43
0.0
 44
0.0
 45
816.0
 50
0.0
 51
0.0
 72
   100
 90
   557152
  1

281
     0
 71
     1
 74
     0
110
0.0
120
0.0
130
0.0
111
1.0
121
0.0
131
0.0
112
0.0
122
1.0
132
0.0
 79
     0
146
0.0
  0
ENDBLK
  5
E4
330
E1
100
AcDbEntity
  8
0
100
AcDbBlockEnd
  0
BLOCK
  5
F5
330
F3
100
AcDbEntity
  8
0
100
AcDbBlockBegin
  2
*Paper_Space3
 70
     0
 10
0.0
 20
0.0
 30
0.0
  3
*Paper_Space3
  1

  0
LINE
  5
FE
330
F3
100
AcDbEntity
  8
0
  6
Continuous
 62
     7
370
    25
100
AcDbLine
 10
-400.0
 20
35.0
 30
0.0
 11
-400.0
 21
0.0
 31
0.0
  0
LINE
  5
FF
330
F3
100
AcDbEntity
  8
0
  6
Continuous
 62
     7
370
    25
100
AcDbLine
 10
-400.0
 20
35.0
 30
0.0
 11
400.0
 21
35.0
 31
0.0
  0
LINE
  5
100
330
F3
100
AcDbEntity
  8
0
  6
Continuous
 62
     7
370
    25
100
AcDbLine
 10
400.0
 20
35.0
 30
0.0
 11
400.0
 21
0.0
 31
0.0
  0
LINE
  5
101
330
F3
100
AcDbEntity
  8
0
  6
Continuous
 62
     7
370
    25
100
AcDbLine
 10
-400.0
 20
0.0
 30
0.0
 11
400.0
 21
0.0
 31
0.0
  0
LINE
  5
102
330
F3
100
AcDbEntity
  8
0
  6
Continuous
 62
     7
370
    25
100
AcDbLine
 10
130.0
 20
-26.0
 30
0.0
 11
-130.0
 21
-26.0
 31
0.0
  0
LINE
  5
103
330
F3
100
AcDbEntity
  8
0
  6
Continuous
 62
     7
370
    25
100
AcDbLine
 10
-130.0
 20
-26.0
 30
0.0
 11
-130.0
 21
0.0
 31
0.0
  0
LINE
  5
104
330
F3
100
AcDbEntity
  8
0
  6
Continuous
 62
     7
370
    25
100
AcDbLine
 10
130.0
 20
-26.0
 30
0.0
 11
130.0
 21
0.0
 31
0.0
  0
VIEWPORT
  5
284
330
F3
100
AcDbEntity
  8
0
100
AcDbViewport
 10
0.0
 20
0.0
 30
0.0
 40
205.6
 41
156.0
 68
     1
 69
     1
 12
0.0
 22
0.0
 13
0.0
 23
0.0
 14
10.0
 24
10.0
 15
10.0
 25
10.0
 16
0.0
 26
0.0
 36
1.0
 17
0.0
 27
0.0
 37
0.0
 42
50.0
 43
0.0
 44
0.0
 45
816.0
 50
0.0
 51
0.0
 72
   100
 90
   557152
  1

281
     0
 71
     1
 74
     0
110
0.0
120
0.0
130
0.0
111
1.0
121
0.0
131
0.0
112
0.0
122
1.0
132
0.0
 79
     0
146
0.0
  0
ENDBLK
  5
F6
330
F3
100
AcDbEntity
  8
0
100
AcDbBlockEnd
  0
BLOCK
  5
107
330
105
100
AcDbEntity
  8
0
100
AcDbBlockBegin
  2
*Paper_Space4
 70
     0
 10
0.0
 20
0.0
 30
0.0
  3
*Paper_Space4
  1

  0
CIRCLE
  5
111
330
105
100
AcDbEntity
  8
0
  6
Continuous
 62
     7
370
    25
100
AcDbCircle
 10
-250.0
 20
0.0
 30
0.0
 40
45.0
  0
LINE
  5
11E
330
105
100
AcDbEntity
  8
0
  6
Continuous
 62
     7
370
    25
100
AcDbLine
 10
500.0
 20
-400.0
 30
0.0
 11
-500.0
 21
-400.0
 31
0.0
  0
LINE
  5
11F
330
105
100
AcDbEntity
  8
0
  6
Continuous
 62
     7
370
    25
100
AcDbLine
 10
-500.0
 20
400.0
 30
0.0
 11
500.0
 21
400.0
 31
0.0
  0
LINE
  5
120
330
105
100
AcDbEntity
  8
0
  6
Continuous
 62
     7
370
    25
100
AcDbLine
 10
500.0
 20
400.0
 30
0.0
 11
500.0
 21
-400.0
 31
0.0
  0
LINE
  5
121
330
105
100
AcDbEntity
  8
0
  6
Continuous
 62
     7
370
    25
100
AcDbLine
 10
-500.0
 20
-400.0
 30
0.0
 11
-500.0
 21
400.0
 31
0.0
  0
LINE
  5
122
330
105
100
AcDbEntity
  8
0
  6
Continuous
 62
     7
370
    25
100
AcDbLine
 10
-120.0
 20
-130.0
 30
0.0
 11
-120.0
 21
130.0
 31
0.0
  0
LINE
  5
123
330
105
100
AcDbEntity
  8
0
  6
Continuous
 62
     7
370
    25
100
AcDbLine
 10
-380.0
 20
-130.0
 30
0.0
 11
-120.0
 21
-130.0
 31
0.0
  0
LINE
  5
124
330
105
100
AcDbEntity
  8
0
  6
Continuous
 62
     7
370
    25
100
AcDbLine
 10
-380.0
 20
130.0
 30
0.0
 11
-380.0
 21
-130.0
 31
0.0
  0
LINE
  5
125
330
105
100
AcDbEntity
  8
0
  6
Continuous
 62
     7
370
    25
100
AcDbLine
 10
-120.0
 20
130.0
 30
0.0
 11
-380.0
 21
130.0
 31
0.0
  0
LINE
  5
126
330
105
100
AcDbEntity
  8
0
  6
Continuous
 62
     7
370
    25
100
AcDbLine
 10
-278.8654208587
 20
34.5222751082
 30
0.0
 11
-269.3431457505
 21
25.0
 31
0.0
  0
LINE
  5
127
330
105
100
AcDbEntity
  8
0
  6
Continuous
 62
     7
370
    25
100
AcDbLine
 10
-269.3431457505
 20
25.0
 30
0.0
 11
-230.6568542495
 21
25.0
 31
0.0
  0
LINE
  5
128
330
105
100
AcDbEntity
  8
0
  6
Continuous
 62
     7
370
    25
100
AcDbLine
 10
-230.6568542495
 20
25.0
 30
0.0
 11
-221.1345791413
 21
34.5222751082
 31
0.0
  0
LINE
  5
129
330
105
100
AcDbEntity
  8
0
  6
Continuous
 62
     7
370
    25
100
AcDbLine
 10
-215.4777248918
 20
28.8654208587
 30
0.0
 11
-225.0
 21
19.3431457505
 31
0.0
  0
LINE
  5
12A
330
105
100
AcDbEntity
  8
0
  6
Continuous
 62
     7
370
    25
100
AcDbLine
 10
-225.0
 20
19.3431457505
 30
0.0
 11
-225.0
 21
-19.3431457505
 31
0.0
  0
LINE
  5
12B
330
105
100
AcDbEntity
  8
0
  6
Continuous
 62
     7
370
    25
100
AcDbLine
 10
-225.0
 20
-19.3431457505
 30
0.0
 11
-215.4777248918
 21
-28.8654208587
 31
0.0
  0
LINE
  5
12C
330
105
100
AcDbEntity
  8
0
  6
Continuous
 62
     7
370
    25
100
AcDbLine
 10
-275.0
 20
19.3431457505
 30
0.0
 11
-284.5222751082
 21
28.8654208587
 31
0.0
  0
LINE
  5
12D
330
105
100
AcDbEntity
  8
0
  6
Continuous
 62
     7
370
    25
100
AcDbLine
 10
-275.0
 20
-19.3431457505
 30
0.0
 11
-275.0
 21
19.3431457505
 31
0.0
  0
LINE
  5
12E
330
105
100
AcDbEntity
  8
0
  6
Continuous
 62
     7
370
    25
100
AcDbLine
 10
-284.5222751082
 20
-28.8654208587
 30
0.0
 11
-275.0
 21
-19.3431457505
 31
0.0
  0
LINE
  5
12F
330
105
100
AcDbEntity
  8
0
  6
Continuous
 62
     7
370
    25
100
AcDbLine
 10
-269.3431457505
 20
-25.0
 30
0.0
 11
-278.8654208587
 21
-34.5222751082
 31
0.0
  0
LINE
  5
130
330
105
100
AcDbEntity
  8
0
  6
Continuous
 62
     7
370
    25
100
AcDbLine
 10
-221.1345791413
 20
-34.5222751082
 30
0.0
 11
-230.6568542495
 21
-25.0
 31
0.0
  0
LINE
  5
131
330
105
100
AcDbEntity
  8
0
  6
Continuous
 62
     7
370
    25
100
AcDbLine
 10
-230.6568542495
 20
-25.0
 30
0.0
 11
-269.3431457505
 21
-25.0
 31
0.0
  0
VIEWPORT
  5
286
330
105
100
AcDbEntity
  8
0
100
AcDbViewport
 10
0.0
 20
0.0
 30
0.0
 40
205.6
 41
156.0
 68
     1
 69
     1
 12
0.0
 22
0.0
 13
0.0
 23
0.0
 14
10.0
 24
10.0
 15
10.0
 25
10.0
 16
0.0
 26
0.0
 36
1.0
 17
0.0
 27
0.0
 37
0.0
 42
50.0
 43
0.0
 44
0.0
 45
816.0
 50
0.0
 51
0.0
 72
   100
 90
   557152
  1

281
     0
 71
     1
 74
     0
110
0.0
120
0.0
130
0.0
111
1.0
121
0.0
131
0.0
112
0.0
122
1.0
132
0.0
 79
     0
146
0.0
  0
ENDBLK
  5
108
330
105
100
AcDbEntity
  8
0
100
AcDbBlockEnd
  0
BLOCK
  5
134
330
132
100
AcDbEntity
  8
0
100
AcDbBlockBegin
  2
*Paper_Space5
 70
     0
 10
0.0
 20
0.0
 30
0.0
  3
*Paper_Space5
  1

  0
SPLINE
  5
147
330
132
100
AcDbEntity
  8
0
  6
Continuous
 62
     7
370
    25
100
AcDbSpline
210
0.0
220
0.0
230
1.0
 70
     8
 71
     3
 72
     8
 73
     4
 74
     0
 42
0.000000001
 43
0.00000001
 40
0.0
 40
0.0
 40
0.0
 40
0.0
 40
1.0
 40
1.0
 40
1.0
 40
1.0
 10
-161.3682076355477
 20
62.28142557355876
 30
0.0
 10
-165.9154653727352
 20
59.73795559931693
 30
0.0
 10
-170.4623904068452
 20
57.21438066433745
 30
0.0
 10
-175.0089283436704
 20
54.7139534433225
 30
0.0
  0
SPLINE
  5
14A
330
132
100
AcDbEntity
  8
0
  6
Continuous
 62
     7
370
    25
100
AcDbSpline
210
0.0
220
0.0
230
1.0
 70
     8
 71
     3
 72
     8
 73
     4
 74
     0
 42
0.000000001
 43
0.00000001
 40
0.0
 40
0.0
 40
0.0
 40
0.0
 40
1.0
 40
1.0
 40
1.0
 40
1.0
 10
-288.1460133335179
 20
118.4767977377995
 30
0.0
 10
-288.2789687223455
 20
118.5566148617391
 30
0.0
 10
-288.3954510376157
 20
118.6433711461938
 30
0.0
 10
-288.4954535401268
 20
118.7370774267145
 30
0.0
  0
SPLINE
  5
14B
330
132
100
AcDbEntity
  8
0
  6
Continuous
 62
     7
370
    25
100
AcDbSpline
210
0.0
220
0.0
230
1.0
 70
     8
 71
     3
 72
    20
 73
    16
 74
     0
 42
0.000000001
 43
0.00000001
 40
0.0
 40
0.0
 40
0.0
 40
0.0
 40
0.25
 40
0.25
 40
0.375
 40
0.375
 40
0.5
 40
0.5
 40
0.625
 40
0.625
 40
0.75
 40
0.75
 40
0.875
 40
0.875
 40
1.0
 40
1.0
 40
1.0
 40
1.0
 10
-178.5444622496031
 20
54.73679038495841
 30
0.0
 10
-187.6782293830566
 20
59.87194713094119
 30
0.0
 10
-196.8119587205623
 20
65.00281461101778
 30
0.0
 10
-210.5127726023977
 20
72.72406836891965
 30
0.0
 10
-215.0797496097321
 20
75.30225083140546
 30
0.0
 10
-224.2139413874177
 20
80.4855982468742
 30
0.0
 10
-228.7811568735936
 20
83.09070195667218
 30
0.0
 10
-237.9161409439837
 20
88.36424793265951
 30
0.0
 10
-242.483236986939
 20
91.03569275956045
 30
0.0
 10
-251.6165278333256
 20
96.45749212028292
 30
0.0
 10
-256.1827555561624
 20
99.2049710510573
 30
0.0
 10
-265.3150345458174
 20
104.7153519686749
 30
0.0
 10
-269.8810512711486
 20
107.4768732944912
 30
0.0
 10
-279.0133455431045
 20
112.9864661481516
 30
0.0
 10
-283.57960548336
 20
115.7354455854079
 30
0.0
 10
-288.1460133335178
 20
118.4767977377996
 30
0.0
  0
SPLINE
  5
14C
330
132
100
AcDbEntity
  8
0
  6
Continuous
 62
     7
370
    25
100
AcDbSpline
210
0.0
220
0.0
230
1.0
 70
     8
 71
     3
 72
    20
 73
    16
 74
     0
 42
0.000000001
 43
0.00000001
 40
0.0
 40
0.0
 40
0.0
 40
0.0
 40
0.125
 40
0.125
 40
0.25
 40
0.25
 40
0.375
 40
0.375
 40
0.5
 40
0.5
 40
0.625
 40
0.625
 40
0.75
 40
0.75
 40
1.0
 40
1.0
 40
1.0
 40
1.0
 10
-175.0089283436704
 20
54.7139534433225
 30
0.0
 10
-175.1256259995836
 20
54.64977406122374
 30
0.0
 10
-175.2518211843514
 20
54.59310860371289
 30
0.0
 10
-175.5224331673631
 20
54.49419627482112
 30
0.0
 10
-175.6685596998515
 20
54.45161303582142
 30
0.0
 10
-175.9711538914854
 20
54.38385182997372
 30
0.0
 10
-176.1268784773818
 20
54.3585824214858
 30
0.0
 10
-176.4471032763753
 20
54.32510679729416
 30
0.0
 10
-176.6126613395585
 20
54.3170866588467
 30
0.0
 10
-176.938684981765
 20
54.31916301125814
 30
0.0
 10
-177.100781633601
 20
54.32897855071439
 30
0.0
 10
-177.4231014763189
 20
54.3665691097599
 30
0.0
 10
-177.5809005274255
 20
54.39422243819843
 30
0.0
 10
-178.0321262286088
 20
54.50083858651769
 30
0.0
 10
-178.3110198421468
 20
54.60554515657319
 30
0.0
 10
-178.5444622496032
 20
54.73679038495841
 30
0.0
  0
SPLINE
  5
14D
330
132
100
AcDbEntity
  8
0
  6
Continuous
 62
     7
370
    25
100
AcDbSpline
210
0.0
220
0.0
230
1.0
 70
     8
 71
     3
 72
    14
 73
    10
 74
     0
 42
0.000000001
 43
0.00000001
 40
0.0
 40
0.0
 40
0.0
 40
0.0
 40
0.25
 40
0.25
 40
0.5
 40
0.5
 40
0.75
 40
0.75
 40
1.0
 40
1.0
 40
1.0
 40
1.0
 10
-79.04809796787806
 20
109.8038133422386
 30
0.0
 10
-85.90790672237688
 20
105.7583621522902
 30
0.0
 10
-92.76775934010186
 20
101.7182636023334
 30
0.0
 10
-106.4878170095086
 20
93.68110051022609
 30
0.0
 10
-113.3479254181144
 20
89.6858307131465
 30
0.0
 10
-127.0683802854938
 20
81.76518071431025
 30
0.0
 10
-133.9284886248443
 20
77.83993797551119
 30
0.0
 10
-147.6485462977782
 20
70.036259662446
 30
0.0
 10
-154.5083988884647
 20
66.15614098187977
 30
0.0
 10
-161.3682076355478
 20
62.28142557355886
 30
0.0
  0
SPLINE
  5
14F
330
132
100
AcDbEntity
  8
0
  6
Continuous
 62
     7
370
    25
100
AcDbSpline
210
0.0
220
0.0
230
1.0
 70
     8
 71
     3
 72
     8
 73
     4
 74
     0
 42
0.000000001
 43
0.00000001
 40
0.0
 40
0.0
 40
0.0
 40
0.0
 40
1.0
 40
1.0
 40
1.0
 40
1.0
 10
-65.40737725975535
 20
117.9855821095824
 30
0.0
 10
-69.95391519658061
 20
115.2366883636774
 30
0.0
 10
-74.50084023069051
 20
112.5104953987253
 30
0.0
 10
-79.04809796787804
 20
109.8038133422386
 30
0.0
  0
SPLINE
  5
150
330
132
100
AcDbEntity
  8
0
  6
Continuous
 62
     7
370
    25
100
AcDbSpline
210
0.0
220
0.0
230
1.0
 70
     8
 71
     3
 72
    20
 73
    16
 74
     0
 42
0.000000001
 43
0.00000001
 40
0.0
 40
0.0
 40
0.0
 40
0.0
 40
0.125
 40
0.125
 40
0.25
 40
0.25
 40
0.375
 40
0.375
 40
0.5
 40
0.5
 40
0.625
 40
0.625
 40
0.75
 40
0.75
 40
1.0
 40
1.0
 40
1.0
 40
1.0
 10
-65.40737725975532
 20
120.0494393307751
 30
0.0
 10
-65.29065662615504
 20
119.9838170371179
 30
0.0
 10
-65.18732855957282
 20
119.9123485764108
 30
0.0
 10
-65.0063664022572
 20
119.758202046775
 30
0.0
 10
-64.92810719663744
 20
119.6745372900498
 30
0.0
 10
-64.80275472067558
 20
119.5005071798736
 30
0.0
 10
-64.75550051831466
 20
119.4105733740109
 30
0.0
 10
-64.69155823407044
 20
119.2249306959747
 30
0.0
 10
-64.67519446455105
 20
119.1286056054335
 30
0.0
 10
-64.67509419736133
 20
118.938251075013
 30
0.0
 10
-64.69083407117886
 20
118.8432765318
 30
0.0
 10
-64.75463953704278
 20
118.6537501528777
 30
0.0
 10
-64.802503383697
 20
118.5606406601142
 30
0.0
 10
-64.98893340736429
 20
118.2933399452703
 30
0.0
 10
-65.17398259281575
 20
118.1266954466298
 30
0.0
 10
-65.40737725975544
 20
117.9855821095824
 30
0.0
  0
SPLINE
  5
151
330
132
100
AcDbEntity
  8
0
  6
Continuous
 62
     7
370
    25
100
AcDbSpline
210
0.0
220
0.0
230
1.0
 70
     8
 71
     3
 72
    20
 73
    16
 74
     0
 42
0.000000001
 43
0.00000001
 40
0.0
 40
0.0
 40
0.0
 40
0.0
 40
0.1250000000000002
 40
0.1250000000000002
 40
0.2500000000000004
 40
0.2500000000000004
 40
0.3750000000000007
 40
0.3750000000000007
 40
0.5000000000000009
 40
0.5000000000000009
 40
0.6250000000000006
 40
0.6250000000000006
 40
0.7500000000000002
 40
0.7500000000000002
 40
1.0
 40
1.0
 40
1.0
 40
1.0
 10
-175.00892834367
 20
183.7894466836162
 30
0.0
 10
-170.4425752140511
 20
181.048127381612
 30
0.0
 10
-165.8763699888529
 20
178.2991809886362
 30
0.0
 10
-156.7441851407904
 20
172.7896544089262
 30
0.0
 10
-152.1782230633022
 20
170.0281663351433
 30
0.0
 10
-143.046053636367
 20
164.5178507524397
 30
0.0
 10
-138.4798807436283
 20
161.7704035985445
 30
0.0
 10
-129.346698363035
 20
156.3486634635139
 30
0.0
 10
-124.7796550980903
 20
153.6772458157791
 30
0.0
 10
-115.6447791086786
 20
148.403756120894
 30
0.0
 10
-111.0775498138445
 20
145.7986420186832
 30
0.0
 10
-101.9432682299337
 20
140.6152409703477
 30
0.0
 10
-97.37621632807384
 20
138.0370156024941
 30
0.0
 10
-83.67514834646948
 20
130.3156176719069
 30
0.0
 10
-74.54128645069775
 20
125.1846759438556
 30
0.0
 10
-65.40737725975535
 20
120.049439330775
 30
0.0
  0
SPLINE
  5
152
330
132
100
AcDbEntity
  8
0
  6
Continuous
 62
     7
370
    25
100
AcDbSpline
210
0.0
220
0.0
230
1.0
 70
     8
 71
     3
 72
     8
 73
     4
 74
     0
 42
0.000000001
 43
0.00000001
 40
0.0
 40
0.0
 40
0.0
 40
0.0
 40
1.0
 40
1.0
 40
1.0
 40
1.0
 10
-175.4472465975723
 20
183.9984181679546
 30
0.0
 10
-175.2879880910642
 20
183.9389196504085
 30
0.0
 10
-175.1418837324975
 20
183.8692638075557
 30
0.0
 10
-175.00892834367
 20
183.7894466836162
 30
0.0
  0
SPLINE
  5
154
330
132
100
AcDbEntity
  8
0
  6
Continuous
 62
     7
370
    25
100
AcDbSpline
210
0.0
220
0.0
230
1.0
 70
     8
 71
     3
 72
    14
 73
    10
 74
     0
 42
0.000000001
 43
0.00000001
 40
0.0
 40
0.0
 40
0.0
 40
0.0
 40
0.25
 40
0.25
 40
0.5
 40
0.5
 40
0.75
 40
0.75
 40
1.0
 40
1.0
 40
1.0
 40
1.0
 10
-178.5444622496028
 20
183.8389612885418
 30
0.0
 10
-178.344244760796
 20
183.9591190599672
 30
0.0
 10
-178.1165681942806
 20
184.0547919315131
 30
0.0
 10
-177.6062725755813
 20
184.1972305891081
 30
0.0
 10
-177.337978525049
 20
184.239993036962
 30
0.0
 10
-176.7752629286771
 20
184.2687432196652
 30
0.0
 10
-176.4965477644989
 20
184.2539238331044
 30
0.0
 10
-175.9447054184087
 20
184.166109449139
 30
0.0
 10
-175.6868461008805
 20
184.0955387312133
 30
0.0
 10
-175.4472465975723
 20
183.9984181679546
 30
0.0
  0
SPLINE
  5
155
330
132
100
AcDbEntity
  8
0
  6
Continuous
 62
     7
370
    25
100
AcDbSpline
210
0.0
220
0.0
230
1.0
 70
     8
 71
     3
 72
    22
 73
    18
 74
     0
 42
0.000000001
 43
0.00000001
 40
0.0
 40
0.0
 40
0.0
 40
0.0
 40
0.125
 40
0.125
 40
0.25
 40
0.25
 40
0.375
 40
0.375
 40
0.5
 40
0.5
 40
0.625
 40
0.625
 40
0.75
 40
0.75
 40
0.875
 40
0.875
 40
1.0
 40
1.0
 40
1.0
 40
1.0
 10
-288.1460133335179
 20
120.567332622282
 30
0.0
 10
-283.579519764135
 20
123.0991755797656
 30
0.0
 10
-279.0130980502049
 20
125.6264714717843
 30
0.0
 10
-269.8803769097721
 20
130.673324818212
 30
0.0
 10
-265.3140831770216
 20
133.1925219678244
 30
0.0
 10
-256.1814777872857
 20
138.2320505257362
 30
0.0
 10
-251.6151898212356
 20
140.7508827543506
 30
0.0
 10
-242.4819152100689
 20
145.8327601325218
 30
0.0
 10
-237.914854296474
 20
148.4001849891256
 30
0.0
 10
-228.7785498531633
 20
153.6744337667444
 30
0.0
 10
-224.2113292747429
 20
156.380096298297
 30
0.0
 10
-215.0775964204688
 20
161.8435290144327
 30
0.0
 10
-210.5110255605775
 20
164.5969900995061
 30
0.0
 10
-201.3778589869277
 20
170.102080849304
 30
0.0
 10
-196.8112860526895
 20
172.855183325334
 30
0.0
 10
-187.6779860662251
 20
178.3530947649123
 30
0.0
 10
-183.1112655806312
 20
181.0982570969906
 30
0.0
 10
-178.5444622496028
 20
183.8389612885418
 30
0.0
  0
SPLINE
  5
156
330
132
100
AcDbEntity
  8
0
  6
Continuous
 62
     7
370
    25
100
AcDbSpline
210
0.0
220
0.0
230
1.0
 70
     8
 71
     3
 72
    14
 73
    10
 74
     0
 42
0.000000001
 43
0.00000001
 40
0.0
 40
0.0
 40
0.0
 40
0.0
 40
0.25
 40
0.25
 40
0.5
 40
0.5
 40
0.75
 40
0.75
 40
1.0
 40
1.0
 40
1.0
 40
1.0
 10
-288.4954535401268
 20
118.7370774267146
 30
0.0
 10
-288.6459042419403
 20
118.8856625383295
 30
0.0
 10
-288.7526301577768
 20
119.0433892824623
 30
0.0
 10
-288.8785537627431
 20
119.3770864958662
 30
0.0
 10
-288.8942209395418
 20
119.5437775027953
 30
0.0
 10
-288.830868126589
 20
119.8764071628501
 30
0.0
 10
-288.7535537646969
 20
120.0332294131768
 30
0.0
 10
-288.5079378826255
 20
120.3271471136002
 30
0.0
 10
-288.3462309131377
 20
120.4563241512915
 30
0.0
 10
-288.1460133335179
 20
120.5673326222819
 30
0.0
  0
SPLINE
  5
15B
330
132
100
AcDbEntity
  8
0
  6
Continuous
 62
     7
370
    25
100
AcDbSpline
210
0.0
220
0.0
230
1.0
 70
    24
 71
     3
 72
     9
 73
     5
 74
     0
 42
0.000000001
 43
0.00000001
 40
0.0
 40
0.0
 40
0.0
 40
0.0
 40
0.970303545541442
 40
1.0
 40
1.0
 40
1.0
 40
1.0
 10
-181.7766952966368
 20
56.55495067088575
 30
0.0
 10
-181.7766952966371
 20
56.88906287146823
 30
0.0
 10
-181.7766952966374
 20
57.23340068422564
 30
0.0
 10
-181.7766952966368
 20
57.57716584681081
 30
0.0
 10
-181.7766952966368
 20
57.58737445330598
 30
0.0
  0
SPLINE
  5
15E
330
132
100
AcDbEntity
  8
0
  6
Continuous
 62
     7
370
    25
100
AcDbSpline
210
0.0
220
0.0
230
1.0
 70
     8
 71
     3
 72
     9
 73
     5
 74
     0
 42
0.000000001
 43
0.00000001
 40
0.0
 40
0.0
 40
0.0
 40
0.0
 40
0.0821781981371058
 40
1.0
 40
1.0
 40
1.0
 40
1.0
 10
-196.7247608671677
 20
64.96337258115584
 30
0.0
 10
-196.640641826854
 20
64.94388625309523
 30
0.0
 10
-195.6170243441074
 20
64.70676340905214
 30
0.0
 10
-194.5511413712173
 20
64.5453232961737
 30
0.0
 10
-193.5728507404644
 20
64.39715004087867
 30
0.0
  0
SPLINE
  5
15F
330
132
100
AcDbEntity
  8
0
  6
Continuous
 62
     7
370
    25
100
AcDbSpline
210
0.0
220
0.0
230
1.0
 70
     8
 71
     3
 72
     9
 73
     5
 74
     0
 42
0.000000001
 43
0.00000001
 40
0.0
 40
0.0
 40
0.0
 40
0.0
 40
0.9799953482516995
 40
1.0
 40
1.0
 40
1.0
 40
1.0
 10
-99.09909169231202
 20
98.0106356540956
 30
0.0
 10
-100.0277467202222
 20
97.9754733158561
 30
0.0
 10
-100.9753583895705
 20
97.93959320856558
 30
0.0
 10
-101.9229226293148
 20
97.90289039553402
 30
0.0
 10
-101.9418783219401
 20
97.90215616854113
 30
0.0
  0
SPLINE
  5
162
330
132
100
AcDbEntity
  8
0
  6
Continuous
 62
     7
370
    25
100
AcDbSpline
210
0.0
220
0.0
230
1.0
 70
     8
 71
     3
 72
     9
 73
     5
 74
     0
 42
0.000000001
 43
0.00000001
 40
0.0
 40
0.0
 40
0.0
 40
0.0
 40
0.3114459885662141
 40
1.0
 40
1.0
 40
1.0
 40
1.0
 10
-115.2988638315336
 20
88.58184433493516
 30
0.0
 10
-115.1376539128747
 20
88.81861254297164
 30
0.0
 10
-114.6200363336563
 20
89.5788349145181
 30
0.0
 10
-114.279839601009
 20
90.37004081504192
 30
0.0
 10
-114.0455957760681
 20
90.91482881171773
 30
0.0
  0
LWPOLYLINE
  5
163
330
132
100
AcDbEntity
  8
0
  6
Continuous
 62
     7
370
    25
100
AcDbPolyline
 90
        3
 70
   128
 43
0.0
 10
-219.6549275676
 20
77.8373726658
 10
-220.3280660041
 20
79.1818413564
 10
-220.6929324728
 20
80.0532399757
  0
LWPOLYLINE
  5
164
330
132
100
AcDbEntity
  8
0
  6
Continuous
 62
     7
370
    25
100
AcDbPolyline
 90
        3
 70
   128
 43
0.0
 10
-132.8604581204
 20
80.0532399757
 10
-132.9854280284
 20
79.7396276851
 10
-133.8646650726
 20
77.8989044435
  0
LINE
  5
17E
330
132
100
AcDbEntity
  8
0
  6
Continuous
 62
     7
370
    25
100
AcDbLine
 10
-79.8528137424
 20
111.8495037205
 30
0.0
 11
-79.8528137424
 21
118.3818302156
 31
0.0
  0
LINE
  5
17F
330
132
100
AcDbEntity
  8
0
  6
Continuous
 62
     7
370
    25
100
AcDbLine
 10
-273.7005768509
 20
118.3818302156
 30
0.0
 11
-273.7005768509
 21
111.8495037205
 31
0.0
  0
LINE
  5
180
330
132
100
AcDbEntity
  8
0
  6
Continuous
 62
     7
370
    25
100
AcDbLine
 10
-80.8528137424
 20
108.7423530427
 30
0.0
 11
-80.8528137424
 21
110.1176405842
 31
0.0
  0
LINE
  5
181
330
132
100
AcDbEntity
  8
0
  6
Continuous
 62
     7
370
    25
100
AcDbLine
 10
-272.7005768509
 20
110.1176405842
 30
0.0
 11
-272.7005768509
 21
109.1653540581
 31
0.0
  0
LINE
  5
182
330
132
100
AcDbEntity
  8
0
  6
Continuous
 62
     7
370
    25
100
AcDbLine
 10
636.3961030679
 20
-12.2414771751
 30
0.0
 11
-70.7106781187
 21
395.9625787362
 31
0.0
  0
LINE
  5
183
330
132
100
AcDbEntity
  8
0
  6
Continuous
 62
     7
370
    25
100
AcDbLine
 10
70.7106781187
 20
-338.8047219042
 30
0.0
 11
636.3961030679
 21
-12.2414771751
 31
0.0
  0
LINE
  5
184
330
132
100
AcDbEntity
  8
0
  6
Continuous
 62
     7
370
    25
100
AcDbLine
 10
-636.3961030679
 20
69.3993340071
 30
0.0
 11
70.7106781187
 21
-338.8047219042
 31
0.0
  0
LINE
  5
185
330
132
100
AcDbEntity
  8
0
  6
Continuous
 62
     7
370
    25
100
AcDbLine
 10
-70.7106781187
 20
395.9625787362
 30
0.0
 11
-636.3961030679
 21
69.3993340071
 31
0.0
  0
LINE
  5
186
330
132
100
AcDbEntity
  8
0
  6
Continuous
 62
     7
370
    25
100
AcDbLine
 10
-70.7106781187
 20
379.6344164998
 30
0.0
 11
-608.1118318204
 21
69.3993340071
 31
0.0
  0
LINE
  5
187
330
132
100
AcDbEntity
  8
0
  6
Continuous
 62
     7
370
    25
100
AcDbLine
 10
-608.1118318204
 20
69.3993340071
 30
0.0
 11
70.7106781187
 21
-322.4765596678
 31
0.0
  0
LINE
  5
188
330
132
100
AcDbEntity
  8
0
  6
Continuous
 62
     7
370
    25
100
AcDbLine
 10
70.7106781187
 20
-322.4765596678
 30
0.0
 11
608.1118318204
 21
-12.2414771751
 31
0.0
  0
LINE
  5
189
330
132
100
AcDbEntity
  8
0
  6
Continuous
 62
     7
370
    25
100
AcDbLine
 10
608.1118318204
 20
-12.2414771751
 30
0.0
 11
-70.7106781187
 21
379.6344164998
 31
0.0
  0
LINE
  5
18A
330
132
100
AcDbEntity
  8
0
  6
Continuous
 62
     7
370
    25
100
AcDbLine
 10
-636.3961030679
 20
69.3993340071
 30
0.0
 11
-636.3961030679
 21
40.8204055911
 31
0.0
  0
LINE
  5
18B
330
132
100
AcDbEntity
  8
0
  6
Continuous
 62
     7
370
    25
100
AcDbLine
 10
70.7106781187
 20
-338.8047219042
 30
0.0
 11
70.7106781187
 21
-367.3836503202
 31
0.0
  0
LINE
  5
18C
330
132
100
AcDbEntity
  8
0
  6
Continuous
 62
     7
370
    25
100
AcDbLine
 10
-636.3961030679
 20
40.8204055911
 30
0.0
 11
70.7106781187
 21
-367.3836503202
 31
0.0
  0
LINE
  5
18D
330
132
100
AcDbEntity
  8
0
  6
Continuous
 62
     7
370
    25
100
AcDbLine
 10
636.3961030679
 20
-12.2414771751
 30
0.0
 11
636.3961030679
 21
-40.8204055911
 31
0.0
  0
LINE
  5
18E
330
132
100
AcDbEntity
  8
0
  6
Continuous
 62
     7
370
    25
100
AcDbLine
 10
70.7106781187
 20
-367.3836503202
 30
0.0
 11
636.3961030679
 21
-40.8204055911
 31
0.0
  0
LINE
  5
18F
330
132
100
AcDbEntity
  8
0
  6
Continuous
 62
     7
370
    25
100
AcDbLine
 10
70.7106781187
 20
-322.4765596678
 30
0.0
 11
-161.3682076355
 21
62.2814255736
 31
0.0
  0
LINE
  5
190
330
132
100
AcDbEntity
  8
0
  6
Continuous
 62
     7
370
    25
100
AcDbLine
 10
-608.1118318204
 20
69.3993340071
 30
0.0
 11
-288.4954535401
 21
118.7370774267
 31
0.0
  0
LINE
  5
191
330
132
100
AcDbEntity
  8
0
  6
Continuous
 62
     7
370
    25
100
AcDbLine
 10
608.1118318204
 20
-12.2414771751
 30
0.0
 11
-79.0480979679
 21
109.8038133422
 31
0.0
  0
LINE
  5
192
330
132
100
AcDbEntity
  8
0
  6
Continuous
 62
     7
370
    25
100
AcDbLine
 10
-175.4472465976
 20
183.998418168
 30
0.0
 11
-70.7106781187
 21
379.6344164998
 31
0.0
  0
LINE
  5
193
330
132
100
AcDbEntity
  8
0
  6
Continuous
 62
     7
370
    25
100
AcDbLine
 10
-273.6499789917
 20
111.4399066171
 30
0.0
 11
-275.0923363786
 21
110.6072514212
 31
0.0
  0
LINE
  5
194
330
132
100
AcDbEntity
  8
0
  6
Continuous
 62
     7
370
    25
100
AcDbLine
 10
-78.0776293915
 20
110.3859049823
 30
0.0
 11
-79.9034116015
 21
111.4399066171
 31
0.0
  0
LINE
  5
195
330
132
100
AcDbEntity
  8
0
  6
Continuous
 62
     7
370
    25
100
AcDbLine
 10
-251.6047327782
 20
97.8982424505
 30
0.0
 11
-254.0509487613
 21
97.9920883101
 31
0.0
  0
LINE
  5
196
330
132
100
AcDbEntity
  8
0
  6
Continuous
 62
     7
370
    25
100
AcDbLine
 10
-239.3948017299
 20
90.8495992909
 30
0.0
 11
-238.3046193832
 21
88.6636824441
 31
0.0
  0
LINE
  5
197
330
132
100
AcDbEntity
  8
0
  6
Continuous
 62
     7
370
    25
100
AcDbLine
 10
-171.7766952966
 20
57.5873744533
 30
0.0
 11
-171.7766952966
 21
56.5071016226
 31
0.0
  0
LINE
  5
198
330
132
100
AcDbEntity
  8
0
  6
Continuous
 62
     7
370
    25
100
AcDbLine
 10
-159.8635770462
 20
64.4646712319
 30
0.0
 11
-156.4239651137
 21
65.0819265707
 31
0.0
  0
LINE
  5
199
330
132
100
AcDbEntity
  8
0
  6
Continuous
 62
     7
370
    25
100
AcDbLine
 10
-180.3122292026
 20
173.4893777636
 30
0.0
 11
-272.2361107568
 21
120.4228504951
 31
0.0
  0
LINE
  5
19A
330
132
100
AcDbEntity
  8
0
  6
Continuous
 62
     7
370
    25
100
AcDbLine
 10
-81.3172798365
 20
120.4228504951
 30
0.0
 11
-173.2411613907
 21
173.4893777636
 31
0.0
  0
LINE
  5
19B
330
132
100
AcDbEntity
  8
0
  6
Continuous
 62
     7
370
    25
100
AcDbLine
 10
-173.2411613907
 20
63.2742826675
 30
0.0
 11
-81.3172798365
 21
116.340809936
 31
0.0
  0
LINE
  5
19C
330
132
100
AcDbEntity
  8
0
  6
Continuous
 62
     7
370
    25
100
AcDbLine
 10
-272.2361107568
 20
116.340809936
 30
0.0
 11
-180.3122292026
 21
63.2742826675
 31
0.0
  0
LINE
  5
19D
330
132
100
AcDbEntity
  8
0
  6
Continuous
 62
     7
370
    25
100
AcDbLine
 10
-180.3122292026
 20
63.2742826675
 30
0.0
 11
-180.3122292026
 21
56.7419561724
 31
0.0
  0
LINE
  5
19E
330
132
100
AcDbEntity
  8
0
  6
Continuous
 62
     7
370
    25
100
AcDbLine
 10
-173.2411613907
 20
63.2742826675
 30
0.0
 11
-173.2411613907
 21
56.7419561724
 31
0.0
  0
LINE
  5
19F
330
132
100
AcDbEntity
  8
0
  6
Continuous
 62
     7
370
    25
100
AcDbLine
 10
-272.2361107568
 20
116.340809936
 30
0.0
 11
-272.2361107568
 21
109.8084834409
 31
0.0
  0
LINE
  5
1A0
330
132
100
AcDbEntity
  8
0
  6
Continuous
 62
     7
370
    25
100
AcDbLine
 10
-272.2361107568
 20
109.8084834409
 30
0.0
 11
-180.3122292026
 21
56.7419561724
 31
0.0
  0
LINE
  5
1A1
330
132
100
AcDbEntity
  8
0
  6
Continuous
 62
     7
370
    25
100
AcDbLine
 10
-81.3172798365
 20
116.340809936
 30
0.0
 11
-81.3172798365
 21
109.8084834409
 31
0.0
  0
LINE
  5
1A2
330
132
100
AcDbEntity
  8
0
  6
Continuous
 62
     7
370
    25
100
AcDbLine
 10
-173.2411613907
 20
56.7419561724
 30
0.0
 11
-81.3172798365
 21
109.8084834409
 31
0.0
  0
LINE
  5
1A3
330
132
100
AcDbEntity
  8
0
  6
Continuous
 62
     7
370
    25
100
AcDbLine
 10
-180.7766952966
 20
57.0100867412
 30
0.0
 11
-180.7766952966
 21
55.9924416378
 31
0.0
  0
LINE
  5
1A4
330
132
100
AcDbEntity
  8
0
  6
Continuous
 62
     7
370
    25
100
AcDbLine
 10
-172.7766952966
 20
57.0100867412
 30
0.0
 11
-172.7766952966
 21
55.9523309259
 31
0.0
  0
LINE
  5
1A5
330
132
100
AcDbEntity
  8
0
  6
Continuous
 62
    60
370
    25
100
AcDbLine
 10
-288.1460133335
 20
118.4767977378
 30
0.0
 11
-288.1460133335
 21
120.5673326223
 31
0.0
  0
LINE
  5
1A6
330
132
100
AcDbEntity
  8
0
  6
Continuous
 62
    60
370
    25
100
AcDbLine
 10
-65.4073772598
 20
117.9855821096
 30
0.0
 11
-65.4073772598
 21
120.0494393308
 31
0.0
  0
LINE
  5
1A7
330
132
100
AcDbEntity
  8
0
  6
Continuous
 62
    60
370
    25
100
AcDbLine
 10
-178.5444622496
 20
174.1483735243
 30
0.0
 11
-178.5444622496
 21
183.8389612885
 31
0.0
  0
LINE
  5
1A8
330
132
100
AcDbEntity
  8
0
  6
Continuous
 62
    60
370
    25
100
AcDbLine
 10
-175.0089283437
 20
174.1483735243
 30
0.0
 11
-175.0089283437
 21
183.7894466836
 31
0.0
  0
LINE
  5
1A9
330
132
100
AcDbEntity
  8
0
  6
Continuous
 62
    60
370
    25
100
AcDbLine
 10
-84.8528137424
 20
107.7674631614
 30
0.0
 11
-84.8528137424
 21
106.3897159913
 31
0.0
  0
LINE
  5
1AA
330
132
100
AcDbEntity
  8
0
  6
Continuous
 62
    60
370
    25
100
AcDbLine
 10
-268.7005768509
 20
107.7674631614
 30
0.0
 11
-268.7005768509
 21
106.7539120272
 31
0.0
  0
ARC
  5
1AB
330
132
100
AcDbEntity
  8
0
  6
Continuous
 62
     7
370
    25
100
AcDbCircle
 10
-176.7766952966
 20
166.6658223388
 30
0.0
 40
7.685109539558717
100
AcDbArc
 50
62.6096722366
 51
117.3903277634
  0
ARC
  5
1AC
330
132
100
AcDbEntity
  8
0
  6
Continuous
 62
     7
370
    25
100
AcDbCircle
 10
-82.0919149704
 20
118.3818302156
 30
0.0
 40
2.183076584171386
100
AcDbArc
 50
290.7834207995
 51
69.2165792005
  0
ARC
  5
1AD
330
132
100
AcDbEntity
  8
0
  6
Continuous
 62
     7
370
    25
100
AcDbCircle
 10
-176.7766952966
 20
70.0978380923
 30
0.0
 40
7.685109539558558
100
AcDbArc
 50
242.6096722366
 51
297.3903277634
  0
ARC
  5
1AE
330
132
100
AcDbEntity
  8
0
  6
Continuous
 62
     7
370
    25
100
AcDbCircle
 10
-271.4614756228
 20
118.3818302156
 30
0.0
 40
2.183076584171414
100
AcDbArc
 50
110.7834207995
 51
249.2165792005
  0
ARC
  5
1AF
330
132
100
AcDbEntity
  8
0
  6
Continuous
 62
     7
370
    25
100
AcDbCircle
 10
-176.7766952966
 20
63.5655115972
 30
0.0
 40
7.685109539558618
100
AcDbArc
 50
242.6096722366
 51
297.3903277634
  0
ARC
  5
1B0
330
132
100
AcDbEntity
  8
0
  6
Continuous
 62
     7
370
    25
100
AcDbCircle
 10
-82.3550990548
 20
112.099035605
 30
0.0
 40
2.514696392469087
100
AcDbArc
 50
294.3746582936
 51
354.3052007488
  0
ARC
  5
1B1
330
132
100
AcDbEntity
  8
0
  6
Continuous
 62
     7
370
    25
100
AcDbCircle
 10
-271.1982915384
 20
112.099035605
 30
0.0
 40
2.51469639246891
100
AcDbArc
 50
185.6947992512
 51
245.6253417064
  0
VIEWPORT
  5
288
330
132
100
AcDbEntity
  8
0
100
AcDbViewport
 10
0.0
 20
0.0
 30
0.0
 40
205.6
 41
156.0
 68
     1
 69
     1
 12
0.0
 22
0.0
 13
0.0
 23
0.0
 14
10.0
 24
10.0
 15
10.0
 25
10.0
 16
0.0
 26
0.0
 36
1.0
 17
0.0
 27
0.0
 37
0.0
 42
50.0
 43
0.0
 44
0.0
 45
816.0
 50
0.0
 51
0.0
 72
   100
 90
   557152
  1

281
     0
 71
     1
 74
     0
110
0.0
120
0.0
130
0.0
111
1.0
121
0.0
131
0.0
112
0.0
122
1.0
132
0.0
 79
     0
146
0.0
  0
ENDBLK
  5
135
330
132
100
AcDbEntity
  8
0
100
AcDbBlockEnd
  0
BLOCK
  5
1B4
330
1B2
100
AcDbEntity
  8
0
100
AcDbBlockBegin
  2
*Paper_Space6
 70
     0
 10
0.0
 20
0.0
 30
0.0
  3
*Paper_Space6
  1

  0
SPLINE
  5
1C7
330
1B2
100
AcDbEntity
  8
0
  6
Continuous
 62
     7
370
    25
100
AcDbSpline
210
0.0
220
0.0
230
1.0
 70
     8
 71
     3
 72
     8
 73
     4
 74
     0
 42
0.000000001
 43
0.00000001
 40
0.0
 40
0.0
 40
0.0
 40
0.0
 40
1.0
 40
1.0
 40
1.0
 40
1.0
 10
-177.5170028770342
 20
31.82366675545283
 30
0.0
 10
-180.5182245802979
 20
28.98004866616293
 30
0.0
 10
-183.5192266972185
 20
26.15732818315648
 30
0.0
 10
-186.5199733272416
 20
23.35892189256829
 30
0.0
  0
SPLINE
  5
1CA
330
1B2
100
AcDbEntity
  8
0
  6
Continuous
 62
     7
370
    25
100
AcDbSpline
210
0.0
220
0.0
230
1.0
 70
     8
 71
     3
 72
     8
 73
     4
 74
     0
 42
0.000000001
 43
0.00000001
 40
0.0
 40
0.0
 40
0.0
 40
0.0
 40
1.0
 40
1.0
 40
1.0
 40
1.0
 10
-326.9825659637606
 20
60.59343354971725
 30
0.0
 10
-327.148860727695
 20
60.64184494313023
 30
0.0
 10
-327.3033012928588
 20
60.69854842819867
 30
0.0
 10
-327.4458827502525
 20
60.76355581474988
 30
0.0
  0
SPLINE
  5
1CB
330
1B2
100
AcDbEntity
  8
0
  6
Continuous
 62
     7
370
    25
100
AcDbSpline
210
0.0
220
0.0
230
1.0
 70
     8
 71
     3
 72
    20
 73
    16
 74
     0
 42
0.000000001
 43
0.00000001
 40
0.0
 40
0.0
 40
0.0
 40
0.0
 40
0.25
 40
0.25
 40
0.375
 40
0.375
 40
0.5
 40
0.5
 40
0.625
 40
0.625
 40
0.75
 40
0.75
 40
0.875
 40
0.875
 40
1.0
 40
1.0
 40
1.0
 40
1.0
 10
-189.8977571037602
 20
22.84503729197063
 30
0.0
 10
-201.3218720846018
 20
25.80536323971078
 30
0.0
 10
-212.745939791931
 20
28.76119656854858
 30
0.0
 10
-229.8823163636444
 20
33.22108209300695
 30
0.0
 10
-235.5944907254755
 20
34.71235189353382
 30
0.0
 10
-247.0191368326818
 20
37.72315321803659
 30
0.0
 10
-252.7316094733791
 20
39.24262026124249
 30
0.0
 10
-264.1572465455205
 20
42.34789710597869
 30
0.0
 10
-269.8695697918807
 20
43.93703780964771
 30
0.0
 10
-281.2930890537669
 20
47.19839483137982
 30
0.0
 10
-287.0043262434402
 20
48.8675837132763
 30
0.0
 10
-298.4265799193443
 20
52.22219884956226
 30
0.0
 10
-304.1375532025998
 20
53.90618493983367
 30
0.0
 10
-315.5598259929351
 20
57.25996873618308
 30
0.0
 10
-321.2711034787415
 20
58.93072420888166
 30
0.0
 10
-326.9825659637605
 20
60.59343354971731
 30
0.0
  0
SPLINE
  5
1CC
330
1B2
100
AcDbEntity
  8
0
  6
Continuous
 62
     7
370
    25
100
AcDbSpline
210
0.0
220
0.0
230
1.0
 70
     8
 71
     3
 72
    20
 73
    16
 74
     0
 42
0.000000001
 43
0.00000001
 40
0.0
 40
0.0
 40
0.0
 40
0.0
 40
0.125
 40
0.125
 40
0.25
 40
0.25
 40
0.375
 40
0.375
 40
0.5
 40
0.5
 40
0.625
 40
0.625
 40
0.75
 40
0.75
 40
1.0
 40
1.0
 40
1.0
 40
1.0
 10
-186.5199733272416
 20
23.35892189256829
 30
0.0
 10
-186.5969945910205
 20
23.2870941724564
 30
0.0
 10
-186.687043737997
 20
23.22018391831315
 30
0.0
 10
-186.8921368891955
 20
23.09580064336905
 30
0.0
 10
-187.0086298018211
 20
23.03778561241968
 30
0.0
 10
-187.260694970619
 20
22.93490450570121
 30
0.0
 10
-187.3955114218002
 20
22.89007318432353
 30
0.0
 10
-187.6825545353831
 20
22.81350548350584
 30
0.0
 10
-187.8358869247085
 20
22.78176683011881
 30
0.0
 10
-188.1473245170386
 20
22.73436397889232
 30
0.0
 10
-188.3068331326019
 20
22.71821647010459
 30
0.0
 10
-188.6336089696798
 20
22.70137580068594
 30
0.0
 10
-188.7985041409653
 20
22.70094530851419
 30
0.0
 10
-189.2846619332905
 20
22.72297795229494
 30
0.0
 10
-189.6057775880555
 20
22.7693767670198
 30
0.0
 10
-189.8977571037602
 20
22.84503729197063
 30
0.0
  0
SPLINE
  5
1CD
330
1B2
100
AcDbEntity
  8
0
  6
Continuous
 62
     7
370
    25
100
AcDbSpline
210
0.0
220
0.0
230
1.0
 70
     8
 71
     3
 72
    14
 73
    10
 74
     0
 42
0.000000001
 43
0.00000001
 40
0.0
 40
0.0
 40
0.0
 40
0.0
 40
0.25
 40
0.25
 40
0.5
 40
0.5
 40
0.75
 40
0.75
 40
1.0
 40
1.0
 40
1.0
 40
1.0
 10
-123.1851584932892
 20
84.85321249367489
 30
0.0
 10
-127.7126799367896
 20
80.34459745140849
 30
0.0
 10
-132.2402303303241
 20
75.84159969190996
 30
0.0
 10
-141.2955637262534
 20
66.88076585669681
 30
0.0
 10
-145.8232829435466
 20
62.42481751201087
 30
0.0
 10
-154.8788784928979
 20
53.58627864407156
 30
0.0
 10
-159.4065976644821
 20
49.20384151377637
 30
0.0
 10
-168.4619310627394
 20
40.48810934988616
 30
0.0
 10
-172.9894814384284
 20
36.15305116139131
 30
0.0
 10
-177.5170028770344
 20
31.82366675545288
 30
0.0
  0
SPLINE
  5
1D0
330
1B2
100
AcDbEntity
  8
0
  6
Continuous
 62
     7
370
    25
100
AcDbSpline
210
0.0
220
0.0
230
1.0
 70
     8
 71
     3
 72
    14
 73
    10
 74
     0
 42
0.000000001
 43
0.00000001
 40
0.0
 40
0.0
 40
0.0
 40
0.0
 40
0.25
 40
0.25
 40
0.5
 40
0.5
 40
0.75
 40
0.75
 40
1.0
 40
1.0
 40
1.0
 40
1.0
 10
-255.6890875114694
 20
132.9889950319178
 30
0.0
 10
-255.5569425776413
 20
133.1227748239938
 30
0.0
 10
-255.3871439034974
 20
133.2394344688546
 30
0.0
 10
-254.9722051433661
 20
133.438587122814
 30
0.0
 10
-254.7387103963772
 20
133.5154855645609
 30
0.0
 10
-254.2198308576238
 20
133.6240463635618
 30
0.0
 10
-253.9489261240059
 20
133.652674786557
 30
0.0
 10
-253.3845188475204
 20
133.6587890328426
 30
0.0
 10
-253.106628893929
 20
133.6361012645727
 30
0.0
 10
-252.8332806502272
 20
133.5877428194305
 30
0.0
  0
SPLINE
  5
1D1
330
1B2
100
AcDbEntity
  8
0
  6
Continuous
 62
     7
370
    25
100
AcDbSpline
210
0.0
220
0.0
230
1.0
 70
     8
 71
     3
 72
    22
 73
    18
 74
     0
 42
0.000000001
 43
0.00000001
 40
0.0
 40
0.0
 40
0.0
 40
0.0
 40
0.125
 40
0.125
 40
0.25
 40
0.25
 40
0.375
 40
0.375
 40
0.5
 40
0.5
 40
0.625
 40
0.625
 40
0.75
 40
0.75
 40
0.875
 40
0.875
 40
1.0
 40
1.0
 40
1.0
 40
1.0
 10
-328.0268727956291
 20
62.38509897725544
 30
0.0
 10
-325.0129553094558
 20
65.21724591538799
 30
0.0
 10
-321.9990852483808
 20
68.04461680838924
 30
0.0
 10
-315.9714258367824
 20
73.69123046701927
 30
0.0
 10
-312.9576402441753
 20
76.51009478373801
 30
0.0
 10
-306.9300572288411
 20
82.14901479449802
 30
0.0
 10
-303.9162754422963
 20
84.96749581364382
 30
0.0
 10
-297.8882507361678
 20
90.6508972329907
 30
0.0
 10
-294.8739587988725
 20
93.52041808521054
 30
0.0
 10
-288.843934382476
 20
99.4058778943687
 30
0.0
 10
-285.8295370652866
 20
102.4205204480052
 30
0.0
 10
-279.8012099155231
 20
108.5044787520649
 30
0.0
 10
-276.7872414170772
 20
111.5692732429126
 30
0.0
 10
-270.7592880164606
 20
117.6969406318985
 30
0.0
 10
-267.7453181489315
 20
120.7613587505209
 30
0.0
 10
-261.7172766949302
 20
126.8814947203587
 30
0.0
 10
-258.703209442481
 20
129.9375832710469
 30
0.0
 10
-255.6890875114694
 20
132.9889950319178
 30
0.0
  0
SPLINE
  5
1D2
330
1B2
100
AcDbEntity
  8
0
  6
Continuous
 62
     7
370
    25
100
AcDbSpline
210
0.0
220
0.0
230
1.0
 70
     8
 71
     3
 72
    14
 73
    10
 74
     0
 42
0.000000001
 43
0.00000001
 40
0.0
 40
0.0
 40
0.0
 40
0.0
 40
0.25
 40
0.25
 40
0.5
 40
0.5
 40
0.75
 40
0.75
 40
1.0
 40
1.0
 40
1.0
 40
1.0
 10
-327.4458827502525
 20
60.76355581474989
 30
0.0
 10
-327.6603921854348
 20
60.86934279528294
 30
0.0
 10
-327.838488122937
 20
60.98931008997967
 30
0.0
 10
-328.1217883843201
 20
61.25757170497916
 30
0.0
 10
-328.2190880933825
 20
61.3984102181045
 30
0.0
 10
-328.324736856429
 20
61.69311893235432
 30
0.0
 10
-328.330162267791
 20
61.838916238877
 30
0.0
 10
-328.2461817527785
 20
62.12669359403813
 30
0.0
 10
-328.1590177893943
 20
62.26092369999622
 30
0.0
 10
-328.0268727956291
 20
62.38509897725541
 30
0.0
  0
SPLINE
  5
1D3
330
1B2
100
AcDbEntity
  8
0
  6
Continuous
 62
     7
370
    25
100
AcDbSpline
210
0.0
220
0.0
230
1.0
 70
     8
 71
     3
 72
     8
 73
     4
 74
     0
 42
0.000000001
 43
0.00000001
 40
0.0
 40
0.0
 40
0.0
 40
0.0
 40
1.0
 40
1.0
 40
1.0
 40
1.0
 10
-114.1821880430819
 20
93.96281794723069
 30
0.0
 10
-117.1829346731049
 20
90.90358283173298
 30
0.0
 10
-120.1839367900255
 20
87.86816318256476
 30
0.0
 10
-123.1851584932892
 20
84.85321249367489
 30
0.0
  0
SPLINE
  5
1D4
330
1B2
100
AcDbEntity
  8
0
  6
Continuous
 62
     7
370
    25
100
AcDbSpline
210
0.0
220
0.0
230
1.0
 70
     8
 71
     3
 72
    20
 73
    16
 74
     0
 42
0.000000001
 43
0.00000001
 40
0.0
 40
0.0
 40
0.0
 40
0.0
 40
0.125
 40
0.125
 40
0.25
 40
0.25
 40
0.375
 40
0.375
 40
0.5
 40
0.5
 40
0.625
 40
0.625
 40
0.75
 40
0.75
 40
1.0
 40
1.0
 40
1.0
 40
1.0
 10
-115.2264948749503
 20
95.7264783806544
 30
0.0
 10
-115.0805058301888
 20
95.6886483029619
 30
0.0
 10
-114.9445055369265
 20
95.64372641171329
 30
0.0
 10
-114.6916686452414
 20
95.5402835264022
 30
0.0
 10
-114.5737289648417
 20
95.48101700575684
 30
0.0
 10
-114.3645772000446
 20
95.35188453156016
 30
0.0
 10
-114.2734278269307
 20
95.28241257034786
 30
0.0
 10
-114.1177401116911
 20
95.13375593601486
 30
0.0
 10
-114.0532033637098
 20
95.05399396643375
 30
0.0
 10
-113.9568101430872
 20
94.8913342647108
 30
0.0
 10
-113.9239696990207
 20
94.80771067427719
 30
0.0
 10
-113.8897263313064
 20
94.63577577209087
 30
0.0
 10
-113.8888581336097
 20
94.54872860723987
 30
0.0
 10
-113.9337123343809
 20
94.29117646657845
 30
0.0
 10
-114.0281459411539
 20
94.11986253165801
 30
0.0
 10
-114.182188043082
 20
93.9628179472307
 30
0.0
  0
SPLINE
  5
1D5
330
1B2
100
AcDbEntity
  8
0
  6
Continuous
 62
     7
370
    25
100
AcDbSpline
210
0.0
220
0.0
230
1.0
 70
     8
 71
     3
 72
    20
 73
    16
 74
     0
 42
0.000000001
 43
0.00000001
 40
0.0
 40
0.0
 40
0.0
 40
0.0
 40
0.1250000000000002
 40
0.1250000000000002
 40
0.2500000000000004
 40
0.2500000000000004
 40
0.3750000000000007
 40
0.3750000000000007
 40
0.5000000000000009
 40
0.5000000000000009
 40
0.6250000000000006
 40
0.6250000000000006
 40
0.7500000000000002
 40
0.7500000000000002
 40
1.0
 40
1.0
 40
1.0
 40
1.0
 10
-252.3113037349506
 20
133.474874638401
 30
0.0
 10
-246.5999096919795
 20
131.8121852222751
 30
0.0
 10
-240.888700641365
 20
130.1414498792851
 30
0.0
 10
-229.466564713632
 20
126.7877065386213
 30
0.0
 10
-223.7556597814998
 20
125.1037408140322
 30
0.0
 10
-212.3335431418359
 20
121.749165110735
 30
0.0
 10
-206.6223745312426
 20
120.0799949974766
 30
0.0
 10
-195.1989909336094
 20
116.8186712874226
 30
0.0
 10
-189.4867336996678
 20
115.229545071945
 30
0.0
 10
-178.0612318104698
 20
112.124298550183
 30
0.0
 10
-172.3487418985088
 20
110.604824271726
 30
0.0
 10
-160.9239834656183
 20
107.5939905416702
 30
0.0
 10
-155.2117154290025
 20
106.1026956291003
 30
0.0
 10
-138.0750210404525
 20
101.6427263700063
 30
0.0
 10
-126.650787535063
 20
98.68685037034679
 30
0.0
 10
-115.2264948749503
 20
95.72647838065437
 30
0.0
  0
SPLINE
  5
1D6
330
1B2
100
AcDbEntity
  8
0
  6
Continuous
 62
     7
370
    25
100
AcDbSpline
210
0.0
220
0.0
230
1.0
 70
     8
 71
     3
 72
     8
 73
     4
 74
     0
 42
0.000000001
 43
0.00000001
 40
0.0
 40
0.0
 40
0.0
 40
0.0
 40
1.0
 40
1.0
 40
1.0
 40
1.0
 10
-252.8332806502272
 20
133.5877428194304
 30
0.0
 10
-252.6515898184538
 20
133.560907381227
 30
0.0
 10
-252.477598498885
 20
133.523286031814
 30
0.0
 10
-252.3113037349506
 20
133.474874638401
 30
0.0
  0
SPLINE
  5
1DC
330
1B2
100
AcDbEntity
  8
0
  6
Continuous
 62
     7
370
    25
100
AcDbSpline
210
0.0
220
0.0
230
1.0
 70
     8
 71
     3
 72
    10
 73
     6
 74
     0
 42
0.000000001
 43
0.00000001
 40
0.0
 40
0.0
 40
0.0
 40
0.0
 40
0.27791836339103
 40
0.7408819241209411
 40
1.0
 40
1.0
 40
1.0
 40
1.0
 10
-180.7733100213042
 20
32.49103218138335
 30
0.0
 10
-179.920895625077
 20
32.85608289733105
 30
0.0
 10
-177.6485073945209
 20
33.82924448886116
 30
0.0
 10
-174.8112734336888
 20
35.28206997750678
 30
0.0
 10
-172.9672482174375
 20
36.41394830427647
 30
0.0
 10
-172.3055221165613
 20
36.8201214006304
 30
0.0
  0
SPLINE
  5
1DD
330
1B2
100
AcDbEntity
  8
0
  6
Continuous
 62
     7
370
    25
100
AcDbSpline
210
0.0
220
0.0
230
1.0
 70
     8
 71
     3
 72
    10
 73
     6
 74
     0
 42
0.000000001
 43
0.00000001
 40
0.0
 40
0.0
 40
0.0
 40
0.0
 40
0.4365694071862286
 40
0.8780711945913856
 40
1.0
 40
1.0
 40
1.0
 40
1.0
 10
-158.2669640855692
 20
50.33653459360611
 30
0.0
 10
-157.8579475370161
 20
51.20715091120932
 30
0.0
 10
-157.0352933530909
 20
52.95821980757499
 30
0.0
 10
-156.4303571047516
 20
54.97842819872881
 30
0.0
 10
-156.3316195187758
 20
56.12056349279447
 30
0.0
 10
-156.3102522801832
 20
56.36772648642067
 30
0.0
  0
LWPOLYLINE
  5
1E2
330
1B2
100
AcDbEntity
  8
0
  6
Continuous
 62
     7
370
    25
100
AcDbPolyline
 90
        9
 70
   128
 43
0.0
 10
-128.8600616215
 20
90.0172924994
 10
-128.489792084
 20
90.4847123099
 10
-128.3036902593
 20
90.9803550718
 10
-128.3089079363
 20
91.4851735118
 10
-128.5052446024
 20
91.9797677404
 10
-128.8851551496
 20
92.4451307787
 10
-129.4340398289
 20
92.8633789861
 10
-130.1308053096
 20
93.2184393187
 10
-130.9486752852
 20
93.4966670069
  0
LWPOLYLINE
  5
1E6
330
1B2
100
AcDbEntity
  8
0
  6
Continuous
 62
     7
370
    25
100
AcDbPolyline
 90
        9
 70
   128
 43
0.0
 10
-313.3489992172
 20
64.4523468706
 10
-313.7192687547
 20
63.9849270602
 10
-313.9053705794
 20
63.4892842983
 10
-313.9001529024
 20
62.9844658583
 10
-313.7038162364
 20
62.4898716297
 10
-313.3239056891
 20
62.0245085914
 10
-312.7750210098
 20
61.6062603839
 10
-312.0782555291
 20
61.2512000514
 10
-311.2603855535
 20
60.9729723632
  0
LINE
  5
1F3
330
1B2
100
AcDbEntity
  8
0
  6
Continuous
 62
     7
370
    25
100
AcDbLine
 10
-189.9525527908
 20
22.8264171962
 30
0.0
 11
-189.9525527908
 21
23.6004984579
 31
0.0
  0
LINE
  5
1F4
330
1B2
100
AcDbEntity
  8
0
  6
Continuous
 62
     7
370
    25
100
AcDbLine
 10
-313.9269086088
 20
63.2505173972
 30
0.0
 11
-313.9269086088
 21
56.7649702165
 31
0.0
  0
LINE
  5
1F5
330
1B2
100
AcDbEntity
  8
0
  6
Continuous
 62
     7
370
    25
100
AcDbLine
 10
-128.2821522299
 20
84.3617835672
 30
0.0
 11
-128.2821522299
 21
91.2191219728
 31
0.0
  0
LINE
  5
1F6
330
1B2
100
AcDbEntity
  8
0
  6
Continuous
 62
     7
370
    25
100
AcDbLine
 10
-129.2821522299
 20
78.7969340083
 30
0.0
 11
-129.2821522299
 21
82.7479807202
 31
0.0
  0
LINE
  5
1F7
330
1B2
100
AcDbEntity
  8
0
  6
Continuous
 62
     7
370
    25
100
AcDbLine
 10
628.8872164107
 20
92.0215109043
 30
0.0
 11
-255.5309052667
 21
332.3874055882
 31
0.0
  0
LINE
  5
1F8
330
1B2
100
AcDbEntity
  8
0
  6
Continuous
 62
     7
370
    25
100
AcDbLine
 10
255.5309052667
 20
-272.3856945391
 30
0.0
 11
628.8872164107
 21
92.0215109043
 31
0.0
  0
LINE
  5
1F9
330
1B2
100
AcDbEntity
  8
0
  6
Continuous
 62
     7
370
    25
100
AcDbLine
 10
-628.8872164107
 20
-32.0197998552
 30
0.0
 11
255.5309052667
 21
-272.3856945391
 31
0.0
  0
LINE
  5
1FA
330
1B2
100
AcDbEntity
  8
0
  6
Continuous
 62
     7
370
    25
100
AcDbLine
 10
-255.5309052667
 20
332.3874055882
 30
0.0
 11
-628.8872164107
 21
-32.0197998552
 31
0.0
  0
LINE
  5
1FB
330
1B2
100
AcDbEntity
  8
0
  6
Continuous
 62
     7
370
    25
100
AcDbLine
 10
-247.1764506117
 20
318.4699075585
 30
0.0
 11
-601.8649461986
 21
-27.7169376128
 31
0.0
  0
LINE
  5
1FC
330
1B2
100
AcDbEntity
  8
0
  6
Continuous
 62
     7
370
    25
100
AcDbLine
 10
-601.8649461986
 20
-27.7169376128
 30
0.0
 11
247.1764506117
 21
-258.4681965093
 31
0.0
  0
LINE
  5
1FD
330
1B2
100
AcDbEntity
  8
0
  6
Continuous
 62
     7
370
    25
100
AcDbLine
 10
247.1764506117
 20
-258.4681965093
 30
0.0
 11
601.8649461986
 21
87.7186486619
 31
0.0
  0
LINE
  5
1FE
330
1B2
100
AcDbEntity
  8
0
  6
Continuous
 62
     7
370
    25
100
AcDbLine
 10
601.8649461986
 20
87.7186486619
 30
0.0
 11
-247.1764506117
 21
318.4699075585
 31
0.0
  0
LINE
  5
1FF
330
1B2
100
AcDbEntity
  8
0
  6
Continuous
 62
     7
370
    25
100
AcDbLine
 10
-628.8872164107
 20
-32.0197998552
 30
0.0
 11
-628.8872164107
 21
-62.0206553797
 31
0.0
  0
LINE
  5
200
330
1B2
100
AcDbEntity
  8
0
  6
Continuous
 62
     7
370
    25
100
AcDbLine
 10
255.5309052667
 20
-272.3856945391
 30
0.0
 11
255.5309052667
 21
-302.3865500637
 31
0.0
  0
LINE
  5
201
330
1B2
100
AcDbEntity
  8
0
  6
Continuous
 62
     7
370
    25
100
AcDbLine
 10
-628.8872164107
 20
-62.0206553797
 30
0.0
 11
255.5309052667
 21
-302.3865500637
 31
0.0
  0
LINE
  5
202
330
1B2
100
AcDbEntity
  8
0
  6
Continuous
 62
     7
370
    25
100
AcDbLine
 10
628.8872164107
 20
92.0215109043
 30
0.0
 11
628.8872164107
 21
62.0206553797
 31
0.0
  0
LINE
  5
203
330
1B2
100
AcDbEntity
  8
0
  6
Continuous
 62
     7
370
    25
100
AcDbLine
 10
255.5309052667
 20
-302.3865500637
 30
0.0
 11
628.8872164107
 21
62.0206553797
 31
0.0
  0
LINE
  5
204
330
1B2
100
AcDbEntity
  8
0
  6
Continuous
 62
     7
370
    25
100
AcDbLine
 10
247.1764506117
 20
-258.4681965093
 30
0.0
 11
-177.517002877
 21
31.8236667555
 31
0.0
  0
LINE
  5
205
330
1B2
100
AcDbEntity
  8
0
  6
Continuous
 62
     7
370
    25
100
AcDbLine
 10
-601.8649461986
 20
-27.7169376128
 30
0.0
 11
-327.4458827503
 21
60.7635558147
 31
0.0
  0
LINE
  5
206
330
1B2
100
AcDbEntity
  8
0
  6
Continuous
 62
     7
370
    25
100
AcDbLine
 10
601.8649461986
 20
87.7186486619
 30
0.0
 11
-123.1851584933
 21
84.8532124937
 31
0.0
  0
LINE
  5
207
330
1B2
100
AcDbEntity
  8
0
  6
Continuous
 62
     7
370
    25
100
AcDbLine
 10
-252.8332806502
 20
133.5877428194
 30
0.0
 11
-247.1764506117
 21
318.4699075585
 31
0.0
  0
LINE
  5
208
330
1B2
100
AcDbEntity
  8
0
  6
Continuous
 62
     7
370
    25
100
AcDbLine
 10
-313.9269086088
 20
57.7807945191
 30
0.0
 11
-314.7272287976
 21
56.9996574799
 31
0.0
  0
LINE
  5
209
330
1B2
100
AcDbEntity
  8
0
  6
Continuous
 62
     7
370
    25
100
AcDbLine
 10
-126.968557765
 20
81.0950784688
 30
0.0
 11
-129.2821522299
 21
81.7238638701
 31
0.0
  0
LINE
  5
20A
330
1B2
100
AcDbEntity
  8
0
  6
Continuous
 62
     7
370
    25
100
AcDbLine
 10
-138.5384929626
 20
69.6202526032
 30
0.0
 11
-143.8209278165
 21
68.5576900409
 31
0.0
  0
LINE
  5
20B
330
1B2
100
AcDbEntity
  8
0
  6
Continuous
 62
     7
370
    25
100
AcDbLine
 10
-156.4397336192
 20
56.2413487301
 30
0.0
 11
-156.3165062775
 21
55.5473112177
 31
0.0
  0
LINE
  5
20C
330
1B2
100
AcDbEntity
  8
0
  6
Continuous
 62
     7
370
    25
100
AcDbLine
 10
-252.6785986563
 20
123.6685177552
 30
0.0
 11
-313.3489992172
 21
64.4523468706
 31
0.0
  0
LINE
  5
20D
330
1B2
100
AcDbEntity
  8
0
  6
Continuous
 62
     7
370
    25
100
AcDbLine
 10
-130.9486752852
 20
93.4966670069
 30
0.0
 11
-245.9230311033
 21
124.7442333158
 31
0.0
  0
LINE
  5
20E
330
1B2
100
AcDbEntity
  8
0
  6
Continuous
 62
     7
370
    25
100
AcDbLine
 10
-189.5304621824
 20
30.8011216149
 30
0.0
 11
-128.8600616215
 21
90.0172924994
 31
0.0
  0
LINE
  5
20F
330
1B2
100
AcDbEntity
  8
0
  6
Continuous
 62
     7
370
    25
100
AcDbLine
 10
-311.2603855535
 20
60.9729723632
 30
0.0
 11
-196.2860297354
 21
29.7254060543
 31
0.0
  0
LINE
  5
210
330
1B2
100
AcDbEntity
  8
0
  6
Continuous
 62
     7
370
    25
100
AcDbLine
 10
-189.5304621824
 20
30.8011216149
 30
0.0
 11
-189.5304621824
 21
23.9437832093
 31
0.0
  0
LINE
  5
211
330
1B2
100
AcDbEntity
  8
0
  6
Continuous
 62
     7
370
    25
100
AcDbLine
 10
-128.8600616215
 20
90.0172924994
 30
0.0
 11
-128.8600616215
 21
83.1599540938
 31
0.0
  0
LINE
  5
212
330
1B2
100
AcDbEntity
  8
0
  6
Continuous
 62
     7
370
    25
100
AcDbLine
 10
-189.5304621824
 20
23.9437832093
 30
0.0
 11
-128.8600616215
 21
83.1599540938
 31
0.0
  0
LINE
  5
213
330
1B2
100
AcDbEntity
  8
0
  6
Continuous
 62
    60
370
    25
100
AcDbLine
 10
-328.0268727956
 20
61.1907766857
 30
0.0
 11
-328.0268727956
 21
62.3850989773
 31
0.0
  0
LINE
  5
214
330
1B2
100
AcDbEntity
  8
0
  6
Continuous
 62
    60
370
    25
100
AcDbLine
 10
-255.6890875115
 20
120.7301883417
 30
0.0
 11
-255.6890875115
 21
132.9889950319
 31
0.0
  0
LINE
  5
215
330
1B2
100
AcDbEntity
  8
0
  6
Continuous
 62
    60
370
    25
100
AcDbLine
 10
-115.226494875
 20
92.906141902
 30
0.0
 11
-115.226494875
 21
95.7264783807
 31
0.0
  0
LINE
  5
216
330
1B2
100
AcDbEntity
  8
0
  6
Continuous
 62
    60
370
    25
100
AcDbLine
 10
-252.311303735
 20
123.9734393604
 30
0.0
 11
-252.311303735
 21
133.4748746384
 31
0.0
  0
LINE
  5
217
330
1B2
100
AcDbEntity
  8
0
  6
Continuous
 62
    60
370
    25
100
AcDbLine
 10
-196.2860297354
 20
29.7254060543
 30
0.0
 11
-196.2860297354
 21
24.5019947956
 31
0.0
  0
LINE
  5
218
330
1B2
100
AcDbEntity
  8
0
  6
Continuous
 62
    60
370
    25
100
AcDbLine
 10
-311.2603855535
 20
60.9729723632
 30
0.0
 11
-311.2603855535
 21
55.9830344267
 31
0.0
  0
LINE
  5
219
330
1B2
100
AcDbEntity
  8
0
  6
Continuous
 62
    60
370
    25
100
AcDbLine
 10
-132.1006539219
 20
79.9970366636
 30
0.0
 11
-132.1006539219
 21
75.9972540519
 31
0.0
  0
ARC
  5
21A
330
1B2
100
AcDbEntity
  8
0
  6
Continuous
 62
     7
370
    25
100
AcDbCircle
 10
-248.2149977018
 20
117.3873691316
 30
0.0
 40
7.705618827393979
100
AcDbArc
 50
72.6960345908
 51
125.398914916
  0
ARC
  5
21B
330
1B2
100
AcDbEntity
  8
0
  6
Continuous
 62
     7
370
    25
100
AcDbCircle
 10
-193.9940631369
 20
37.0822702385
 30
0.0
 40
7.705618827393806
100
AcDbArc
 50
252.6960345908
 51
305.398914916
  0
ARC
  5
21C
330
1B2
100
AcDbEntity
  8
0
  6
Continuous
 62
     7
370
    25
100
AcDbCircle
 10
-192.4626386738
 20
27.1968610169
 30
0.0
 40
4.379517576156085
100
AcDbArc
 50
290.5285314947
 51
312.0300621569
  0
ARC
  5
21D
330
1B2
100
AcDbEntity
  8
0
  6
Continuous
 62
     7
370
    25
100
AcDbCircle
 10
-129.9414313736
 20
84.419800389
 30
0.0
 40
1.660293115197921
100
AcDbArc
 50
310.6406362013
 51
357.9974645044
  0
VIEWPORT
  5
28A
330
1B2
100
AcDbEntity
  8
0
100
AcDbViewport
 10
0.0
 20
0.0
 30
0.0
 40
205.6
 41
156.0
 68
     1
 69
     1
 12
0.0
 22
0.0
 13
0.0
 23
0.0
 14
10.0
 24
10.0
 15
10.0
 25
10.0
 16
0.0
 26
0.0
 36
1.0
 17
0.0
 27
0.0
 37
0.0
 42
50.0
 43
0.0
 44
0.0
 45
816.0
 50
0.0
 51
0.0
 72
   100
 90
   557152
  1

281
     0
 71
     1
 74
     0
110
0.0
120
0.0
130
0.0
111
1.0
121
0.0
131
0.0
112
0.0
122
1.0
132
0.0
 79
     0
146
0.0
  0
ENDBLK
  5
1B5
330
1B2
100
AcDbEntity
  8
0
100
AcDbBlockEnd
  0
BLOCK
  5
220
330
21E
100
AcDbEntity
  8
0
100
AcDbBlockBegin
  2
*Paper_Space7
 70
     0
 10
0.0
 20
0.0
 30
0.0
  3
*Paper_Space7
  1

  0
SPLINE
  5
232
330
21E
100
AcDbEntity
  8
0
  6
Continuous
 62
     7
370
    25
100
AcDbSpline
210
0.0
220
0.0
230
1.0
 70
     8
 71
     3
 72
     8
 73
     4
 74
     0
 42
0.000000001
 43
0.00000001
 40
0.0
 40
0.0
 40
0.0
 40
0.0
 40
1.0
 40
1.0
 40
1.0
 40
1.0
 10
-179.6004663553002
 20
21.10714632954217
 30
0.0
 10
-181.8740952233724
 20
19.19621957857708
 30
0.0
 10
-184.1475577399058
 20
17.30818933801413
 30
0.0
 10
-186.420826707797
 20
15.4467989983122
 30
0.0
  0
SPLINE
  5
235
330
21E
100
AcDbEntity
  8
0
  6
Continuous
 62
     7
370
    25
100
AcDbSpline
210
0.0
220
0.0
230
1.0
 70
     8
 71
     3
 72
     8
 73
     4
 74
     0
 42
0.000000001
 43
0.00000001
 40
0.0
 40
0.0
 40
0.0
 40
0.0
 40
1.0
 40
1.0
 40
1.0
 40
1.0
 10
-334.6324697931296
 20
33.79601626588011
 30
0.0
 10
-334.8083532402873
 20
33.82171285981176
 30
0.0
 10
-334.9746324886135
 20
33.85291115487217
 30
0.0
 10
-335.1313035262534
 20
33.88962270808351
 30
0.0
  0
SPLINE
  5
236
330
21E
100
AcDbEntity
  8
0
  6
Continuous
 62
     7
370
    25
100
AcDbSpline
210
0.0
220
0.0
230
1.0
 70
     8
 71
     3
 72
    20
 73
    16
 74
     0
 42
0.000000001
 43
0.00000001
 40
0.0
 40
0.0
 40
0.0
 40
0.0
 40
0.25
 40
0.25
 40
0.375
 40
0.375
 40
0.5
 40
0.5
 40
0.625
 40
0.625
 40
0.75
 40
0.75
 40
0.875
 40
0.875
 40
1.0
 40
1.0
 40
1.0
 40
1.0
 10
-189.6432460508877
 20
14.98828326863416
 30
0.0
 10
-201.7260842354303
 20
16.35163634568551
 30
0.0
 10
-213.8088724206337
 20
17.71005576725226
 30
0.0
 10
-231.9333455664867
 20
19.77638613370625
 30
0.0
 10
-237.9748882690631
 20
20.47025984662905
 30
0.0
 10
-250.0582882051228
 20
21.88904342531312
 30
0.0
 10
-256.1001463855529
 20
22.6138822195316
 30
0.0
 10
-268.1845944263433
 20
24.1364164223013
 30
0.0
 10
-274.2262945982447
 20
24.93791489928088
 30
0.0
 10
-286.3085027142215
 20
26.6324745207319
 30
0.0
 10
-292.3490542065771
 20
27.52219892854538
 30
0.0
 10
-304.4299237619166
 20
29.31954399951952
 30
0.0
 10
-310.4701961308086
 20
30.22558776600849
 30
0.0
 10
-322.551085902732
 20
32.02201526890461
 30
0.0
 10
-328.5916800147263
 20
32.91345611328722
 30
0.0
 10
-334.6324697931295
 20
33.79601626588015
 30
0.0
  0
SPLINE
  5
237
330
21E
100
AcDbEntity
  8
0
  6
Continuous
 62
     7
370
    25
100
AcDbSpline
210
0.0
220
0.0
230
1.0
 70
     8
 71
     3
 72
    20
 73
    16
 74
     0
 42
0.000000001
 43
0.00000001
 40
0.0
 40
0.0
 40
0.0
 40
0.0
 40
0.125
 40
0.125
 40
0.25
 40
0.25
 40
0.375
 40
0.375
 40
0.5
 40
0.5
 40
0.625
 40
0.625
 40
0.75
 40
0.75
 40
1.0
 40
1.0
 40
1.0
 40
1.0
 10
-186.420826707797
 20
15.4467989983122
 30
0.0
 10
-186.4791755357402
 20
15.39902201010689
 30
0.0
 10
-186.5516886055576
 20
15.35376233378527
 30
0.0
 10
-186.7238897923525
 20
15.26807561451777
 30
0.0
 10
-186.8248791732707
 20
15.22725233695513
 30
0.0
 10
-187.0490977123731
 20
15.15298638918014
 30
0.0
 10
-187.1715856884887
 20
15.11959639912248
 30
0.0
 10
-187.4371329117841
 20
15.06022980274355
 30
0.0
 10
-187.581288759003
 20
15.03420620622564
 30
0.0
 10
-187.878384196142
 20
14.99193917451387
 30
0.0
 10
-188.032594663671
 20
14.97533785852077
 30
0.0
 10
-188.3526084696798
 20
14.95140250180744
 30
0.0
 10
-188.516124250949
 20
14.94432927394047
 30
0.0
 10
-189.0040905649945
 20
14.93792382269272
 30
0.0
 10
-189.3344307730848
 20
14.95343845379823
 30
0.0
 10
-189.6432460508877
 20
14.98828326863416
 30
0.0
  0
SPLINE
  5
238
330
21E
100
AcDbEntity
  8
0
  6
Continuous
 62
     7
370
    25
100
AcDbSpline
210
0.0
220
0.0
230
1.0
 70
     8
 71
     3
 72
    14
 73
    10
 74
     0
 42
0.000000001
 43
0.00000001
 40
0.0
 40
0.0
 40
0.0
 40
0.0
 40
0.25
 40
0.25
 40
0.5
 40
0.5
 40
0.75
 40
0.75
 40
1.0
 40
1.0
 40
1.0
 40
1.0
 10
-138.4404115309079
 20
57.40690266879782
 30
0.0
 10
-141.8703159073705
 20
54.28344232768435
 30
0.0
 10
-145.3002422154461
 20
51.16617224358447
 30
0.0
 10
-152.1602710485757
 20
44.98140028467077
 30
0.0
 10
-155.5903252520917
 20
41.91594888804183
 30
0.0
 10
-162.4505526842076
 20
35.86579698069772
 30
0.0
 10
-165.8806068530961
 20
32.88120147024804
 30
0.0
 10
-172.7406356879893
 20
26.96601990804773
 30
0.0
 10
-176.1705619825457
 20
24.0334686526466
 30
0.0
 10
-179.6004663553004
 20
21.10714632954219
 30
0.0
  0
SPLINE
  5
23B
330
21E
100
AcDbEntity
  8
0
  6
Continuous
 62
     7
370
    25
100
AcDbSpline
210
0.0
220
0.0
230
1.0
 70
     8
 71
     3
 72
    14
 73
    10
 74
     0
 42
0.000000001
 43
0.00000001
 40
0.0
 40
0.0
 40
0.0
 40
0.0
 40
0.25
 40
0.25
 40
0.5
 40
0.5
 40
0.75
 40
0.75
 40
1.0
 40
1.0
 40
1.0
 40
1.0
 10
-281.2863466542739
 20
83.25706872646565
 30
0.0
 10
-281.1862379098935
 20
83.35063843436491
 30
0.0
 10
-281.0451948125709
 20
83.4337274120771
 30
0.0
 10
-280.6812028508667
 20
83.57903278019349
 30
0.0
 10
-280.4684680452527
 20
83.6371680637516
 30
0.0
 10
-279.9816754271831
 20
83.72453799145937
 30
0.0
 10
-279.7212009773257
 20
83.75133203110896
 30
0.0
 10
-279.1664314743321
 20
83.77129038296802
 30
0.0
 10
-278.8874812180134
 20
83.7638999741701
 30
0.0
 10
-278.6072000679433
 20
83.73919631981711
 30
0.0
  0
SPLINE
  5
23C
330
21E
100
AcDbEntity
  8
0
  6
Continuous
 62
     7
370
    25
100
AcDbSpline
210
0.0
220
0.0
230
1.0
 70
     8
 71
     3
 72
    22
 73
    18
 74
     0
 42
0.000000001
 43
0.00000001
 40
0.0
 40
0.0
 40
0.0
 40
0.0
 40
0.125
 40
0.125
 40
0.25
 40
0.25
 40
0.375
 40
0.375
 40
0.5
 40
0.5
 40
0.625
 40
0.625
 40
0.75
 40
0.75
 40
0.875
 40
0.875
 40
1.0
 40
1.0
 40
1.0
 40
1.0
 10
-336.0871221836596
 20
34.92732749055092
 30
0.0
 10
-333.803875399492
 20
36.82048964690831
 30
0.0
 10
-331.5206645430507
 20
38.70841779931163
 30
0.0
 10
-326.9543039738819
 20
42.47536659808822
 30
0.0
 10
-324.6711571080305
 20
44.35397250736478
 30
0.0
 10
-320.10485441421
 20
48.11248994038455
 30
0.0
 10
-317.8217104317088
 20
49.99067579897959
 30
0.0
 10
-313.255073127173
 20
53.79793981249146
 30
0.0
 10
-310.9715426708995
 20
55.7320581885969
 30
0.0
 10
-306.403390450292
 20
59.76075799861839
 30
0.0
 10
-304.1197801616058
 20
61.85445482549046
 30
0.0
 10
-299.5529137355165
 20
66.10217374787949
 30
0.0
 10
-297.2696283060945
 20
68.25120717685527
 30
0.0
 10
-292.7030450203172
 20
72.54715380026988
 30
0.0
 10
-290.419758553722
 20
74.6957726976483
 30
0.0
 10
-285.8531085615375
 20
78.98339971884226
 30
0.0
 10
-283.5697483192642
 20
81.12281733681773
 30
0.0
 10
-281.2863466542739
 20
83.25706872646565
 30
0.0
  0
SPLINE
  5
23D
330
21E
100
AcDbEntity
  8
0
  6
Continuous
 62
     7
370
    25
100
AcDbSpline
210
0.0
220
0.0
230
1.0
 70
     8
 71
     3
 72
    14
 73
    10
 74
     0
 42
0.000000001
 43
0.00000001
 40
0.0
 40
0.0
 40
0.0
 40
0.0
 40
0.25
 40
0.25
 40
0.5
 40
0.5
 40
0.75
 40
0.75
 40
1.0
 40
1.0
 40
1.0
 40
1.0
 10
-335.1313035262534
 20
33.88962270808353
 30
0.0
 10
-335.3670103033329
 20
33.95363731137234
 30
0.0
 10
-335.5703312870053
 20
34.02762088483556
 30
0.0
 10
-335.9121446421057
 20
34.19547817690552
 30
0.0
 10
-336.0411069033085
 20
34.28468690588854
 30
0.0
 10
-336.2148356816567
 20
34.47336511111175
 30
0.0
 10
-336.2548145018073
 20
34.56766620935696
 30
0.0
 10
-336.2408333960014
 20
34.75567627511136
 30
0.0
 10
-336.1872309734466
 20
34.84432193300123
 30
0.0
 10
-336.0871221836596
 20
34.9273274905509
 30
0.0
  0
SPLINE
  5
23E
330
21E
100
AcDbEntity
  8
0
  6
Continuous
 62
     7
370
    25
100
AcDbSpline
210
0.0
220
0.0
230
1.0
 70
     8
 71
     3
 72
     8
 73
     4
 74
     0
 42
0.000000001
 43
0.00000001
 40
0.0
 40
0.0
 40
0.0
 40
0.0
 40
1.0
 40
1.0
 40
1.0
 40
1.0
 10
-131.6200511784112
 20
63.77654023422696
 30
0.0
 10
-133.8933201463023
 20
61.62826100569807
 30
0.0
 10
-136.1667826628357
 20
59.50628029031417
 30
0.0
 10
-138.4404115309079
 20
57.40690266879782
 30
0.0
  0
SPLINE
  5
23F
330
21E
100
AcDbEntity
  8
0
  6
Continuous
 62
     7
370
    25
100
AcDbSpline
210
0.0
220
0.0
230
1.0
 70
     8
 71
     3
 72
    20
 73
    16
 74
     0
 42
0.000000001
 43
0.00000001
 40
0.0
 40
0.0
 40
0.0
 40
0.0
 40
0.125
 40
0.125
 40
0.25
 40
0.25
 40
0.375
 40
0.375
 40
0.5
 40
0.5
 40
0.625
 40
0.625
 40
0.75
 40
0.75
 40
1.0
 40
1.0
 40
1.0
 40
1.0
 10
-133.0747035689411
 20
64.87704841538489
 30
0.0
 10
-132.920296684248
 20
64.85962609306713
 30
0.0
 10
-132.774187352223
 20
64.83706315923926
 30
0.0
 10
-132.4978877852365
 20
64.78208227054121
 30
0.0
 10
-132.3664231681311
 20
64.74923201906041
 30
0.0
 10
-132.1276544083199
 20
64.67526338922497
 30
0.0
 10
-132.0205051048174
 20
64.63439952815452
 30
0.0
 10
-131.830456135357
 20
64.54499398812119
 30
0.0
 10
-131.7474226904196
 20
64.4960748771686
 30
0.0
 10
-131.6131951676309
 20
64.39455968631077
 30
0.0
 10
-131.5608500629507
 20
64.34153820134145
 30
0.0
 10
-131.4863945985362
 20
64.23086944892356
 30
0.0
 10
-131.4651136791209
 20
64.17402183773794
 30
0.0
 10
-131.4494137714289
 20
64.00347009842397
 30
0.0
 10
-131.5033538449682
 20
63.88682127047981
 30
0.0
 10
-131.6200511784114
 20
63.77654023422696
 30
0.0
  0
SPLINE
  5
240
330
21E
100
AcDbEntity
  8
0
  6
Continuous
 62
     7
370
    25
100
AcDbSpline
210
0.0
220
0.0
230
1.0
 70
     8
 71
     3
 72
    20
 73
    16
 74
     0
 42
0.000000001
 43
0.00000001
 40
0.0
 40
0.0
 40
0.0
 40
0.0
 40
0.1250000000000002
 40
0.1250000000000002
 40
0.2500000000000004
 40
0.2500000000000004
 40
0.3750000000000007
 40
0.3750000000000007
 40
0.5000000000000009
 40
0.5000000000000009
 40
0.6250000000000006
 40
0.6250000000000006
 40
0.7500000000000002
 40
0.7500000000000002
 40
1.0
 40
1.0
 40
1.0
 40
1.0
 10
-278.063927311183
 20
83.68478141263084
 30
0.0
 10
-272.0232099212486
 20
82.80223183600238
 30
0.0
 10
-265.9826881904714
 20
81.91080179420078
 30
0.0
 10
-253.9019431727527
 20
80.11439611363426
 30
0.0
 10
-247.8617430961619
 20
79.2083634232054
 30
0.0
 10
-235.7810184786772
 20
77.41103902091551
 30
0.0
 10
-229.7405395197237
 20
76.52132389478533
 30
0.0
 10
-217.6584748905044
 20
74.826778436423
 30
0.0
 10
-211.6168445373482
 20
74.02528495825409
 30
0.0
 10
-199.5325394742531
 20
72.5027617110037
 30
0.0
 10
-193.4906630266849
 20
71.77791782014361
 30
0.0
 10
-181.4071442881564
 20
70.3591172082968
 30
0.0
 10
-175.3655025094355
 20
69.66523139435469
 30
0.0
 10
-157.240693221184
 20
67.59886158299574
 30
0.0
 10
-145.1577296778775
 20
66.24042269666789
 30
0.0
 10
-133.0747035689412
 20
64.87704841538488
 30
0.0
  0
SPLINE
  5
241
330
21E
100
AcDbEntity
  8
0
  6
Continuous
 62
     7
370
    25
100
AcDbSpline
210
0.0
220
0.0
230
1.0
 70
     8
 71
     3
 72
     8
 73
     4
 74
     0
 42
0.000000001
 43
0.00000001
 40
0.0
 40
0.0
 40
0.0
 40
0.0
 40
1.0
 40
1.0
 40
1.0
 40
1.0
 10
-278.6072000679433
 20
83.73919631981708
 30
0.0
 10
-278.4209010283117
 20
83.72861420831093
 30
0.0
 10
-278.2398107583406
 20
83.71047800656251
 30
0.0
 10
-278.063927311183
 20
83.68478141263085
 30
0.0
  0
SPLINE
  5
242
330
21E
100
AcDbEntity
  8
0
  6
Continuous
 62
     7
370
    25
100
AcDbSpline
210
0.0
220
0.0
230
1.0
 70
     8
 71
     3
 72
     9
 73
     5
 74
     0
 42
0.000000001
 43
0.00000001
 40
0.0
 40
0.0
 40
0.0
 40
0.0
 40
0.9821426166960282
 40
1.0
 40
1.0
 40
1.0
 40
1.0
 10
-160.8538506319974
 20
37.29317987013019
 30
0.0
 10
-161.7483429773165
 20
37.11567838344908
 30
0.0
 10
-162.6590990427933
 20
36.93494955276436
 30
0.0
 10
-163.5698095233535
 20
36.75322588755495
 30
0.0
 10
-163.5860724294838
 20
36.74998077840991
 30
0.0
  0
SPLINE
  5
243
330
21E
100
AcDbEntity
  8
0
  6
Continuous
 62
     7
370
    25
100
AcDbSpline
210
0.0
220
0.0
230
1.0
 70
     8
 71
     3
 72
     9
 73
     5
 74
     0
 42
0.000000001
 43
0.00000001
 40
0.0
 40
0.0
 40
0.0
 40
0.0
 40
0.2776601116425022
 40
1.0
 40
1.0
 40
1.0
 40
1.0
 10
-169.2069570429772
 20
30.01393880727252
 30
0.0
 10
-169.23071952396
 20
30.1342510063683
 30
0.0
 10
-169.3163007075239
 20
30.56755847132633
 30
0.0
 10
-169.5778458817217
 20
30.99230567979874
 30
0.0
 10
-169.7667703936521
 20
31.29911753094686
 30
0.0
  0
LWPOLYLINE
  5
244
330
21E
100
AcDbEntity
  8
0
  6
Continuous
 62
     7
370
    25
100
AcDbPolyline
 90
        3
 70
   128
 43
0.0
 10
-172.6317361824
 20
28.7724552003
 10
-172.2023548976
 20
28.3579929042
 10
-171.6752546969
 20
27.8077125704
  0
LWPOLYLINE
  5
248
330
21E
100
AcDbEntity
  8
0
  6
Continuous
 62
     7
370
    25
100
AcDbPolyline
 90
        9
 70
   128
 43
0.0
 10
-145.3936120271
 20
60.3366950988
 10
-145.1386064249
 20
60.6521679576
 10
-145.0731377889
 20
60.9781621357
 10
-145.1997220419
 20
61.3021498594
 10
-145.513494622
 20
61.6116804624
 10
-146.0023974251
 20
61.894858857
 10
-146.6476421905
 20
62.1408026564
 10
-147.4244325238
 20
62.3400603784
 10
-148.3029168081
 20
62.4849746603
  0
LWPOLYLINE
  5
24C
330
21E
100
AcDbEntity
  8
0
  6
Continuous
 62
     7
370
    25
100
AcDbPolyline
 90
        9
 70
   128
 43
0.0
 10
-322.313561335
 20
36.301231637
 10
-322.5685669371
 20
35.9857587781
 10
-322.6340355732
 20
35.6597646001
 10
-322.5074513202
 20
35.3357768763
 10
-322.19367874
 20
35.0262462734
 10
-321.704775937
 20
34.7430678787
 10
-321.0595311716
 20
34.4971240793
 10
-320.2827408383
 20
34.2978663574
 10
-319.404256554
 20
34.1529520754
  0
LWPOLYLINE
  5
24F
330
21E
100
AcDbEntity
  8
0
  6
Continuous
 62
     7
370
    25
100
AcDbPolyline
 90
        3
 70
   128
 43
0.0
 10
-145.3936120271
 20
52.7942227659
 10
-145.1386064249
 20
53.1096956248
 10
-145.0706837607
 20
53.3834784166
  0
LINE
  5
258
330
21E
100
AcDbEntity
  8
0
  6
Continuous
 62
     7
370
    25
100
AcDbLine
 10
-322.6364896014
 20
35.7119759863
 30
0.0
 11
-322.6364896014
 21
32.0169078645
 31
0.0
  0
LINE
  5
259
330
21E
100
AcDbEntity
  8
0
  6
Continuous
 62
     7
370
    25
100
AcDbLine
 10
-145.0706837607
 20
53.3834784166
 30
0.0
 11
-145.0706837607
 21
60.9259507495
 31
0.0
  0
LINE
  5
25A
330
21E
100
AcDbEntity
  8
0
  6
Continuous
 62
     7
370
    25
100
AcDbLine
 10
-146.0706837607
 20
50.4860739629
 30
0.0
 11
-146.0706837607
 21
52.1971016236
 31
0.0
  0
LINE
  5
25B
330
21E
100
AcDbEntity
  8
0
  6
Continuous
 62
     7
370
    25
100
AcDbLine
 10
609.1285295669
 20
98.7946642519
 30
0.0
 11
-326.2858171572
 21
216.6457943946
 31
0.0
  0
LINE
  5
25C
330
21E
100
AcDbEntity
  8
0
  6
Continuous
 62
     7
370
    25
100
AcDbLine
 10
326.2858171572
 20
-150.6491614819
 30
0.0
 11
609.1285295669
 21
98.7946642519
 31
0.0
  0
LINE
  5
25D
330
21E
100
AcDbEntity
  8
0
  6
Continuous
 62
     7
370
    25
100
AcDbLine
 10
-609.1285295669
 20
-32.7980313392
 30
0.0
 11
326.2858171572
 21
-150.6491614819
 31
0.0
  0
LINE
  5
25E
330
21E
100
AcDbEntity
  8
0
  6
Continuous
 62
     7
370
    25
100
AcDbLine
 10
-326.2858171572
 20
216.6457943946
 30
0.0
 11
-609.1285295669
 21
-32.7980313392
 31
0.0
  0
LINE
  5
25F
330
21E
100
AcDbEntity
  8
0
  6
Continuous
 62
     7
370
    25
100
AcDbLine
 10
-314.648598033
 20
208.0526761484
 30
0.0
 11
-583.3491748222
 21
-28.9189582987
 31
0.0
  0
LINE
  5
260
330
21E
100
AcDbEntity
  8
0
  6
Continuous
 62
     7
370
    25
100
AcDbLine
 10
-583.3491748222
 20
-28.9189582987
 30
0.0
 11
314.648598033
 21
-142.0560432357
 31
0.0
  0
LINE
  5
261
330
21E
100
AcDbEntity
  8
0
  6
Continuous
 62
     7
370
    25
100
AcDbLine
 10
314.648598033
 20
-142.0560432357
 30
0.0
 11
583.3491748222
 21
94.9155912114
 31
0.0
  0
LINE
  5
262
330
21E
100
AcDbEntity
  8
0
  6
Continuous
 62
     7
370
    25
100
AcDbLine
 10
583.3491748222
 20
94.9155912114
 30
0.0
 11
-314.648598033
 21
208.0526761484
 31
0.0
  0
LINE
  5
263
330
21E
100
AcDbEntity
  8
0
  6
Continuous
 62
     7
370
    25
100
AcDbLine
 10
-609.1285295669
 20
-32.7980313392
 30
0.0
 11
-609.1285295669
 21
-65.7963477955
 31
0.0
  0
LINE
  5
264
330
21E
100
AcDbEntity
  8
0
  6
Continuous
 62
     7
370
    25
100
AcDbLine
 10
326.2858171572
 20
-150.6491614819
 30
0.0
 11
326.2858171572
 21
-183.6474779382
 31
0.0
  0
LINE
  5
265
330
21E
100
AcDbEntity
  8
0
  6
Continuous
 62
     7
370
    25
100
AcDbLine
 10
-609.1285295669
 20
-65.7963477955
 30
0.0
 11
326.2858171572
 21
-183.6474779382
 31
0.0
  0
LINE
  5
266
330
21E
100
AcDbEntity
  8
0
  6
Continuous
 62
     7
370
    25
100
AcDbLine
 10
609.1285295669
 20
98.7946642519
 30
0.0
 11
609.1285295669
 21
65.7963477955
 31
0.0
  0
LINE
  5
267
330
21E
100
AcDbEntity
  8
0
  6
Continuous
 62
     7
370
    25
100
AcDbLine
 10
326.2858171572
 20
-183.6474779382
 30
0.0
 11
609.1285295669
 21
65.7963477955
 31
0.0
  0
LINE
  5
268
330
21E
100
AcDbEntity
  8
0
  6
Continuous
 62
     7
370
    25
100
AcDbLine
 10
314.648598033
 20
-142.0560432357
 30
0.0
 11
-179.6004663553
 21
21.1071463295
 31
0.0
  0
LINE
  5
269
330
21E
100
AcDbEntity
  8
0
  6
Continuous
 62
     7
370
    25
100
AcDbLine
 10
-583.3491748222
 20
-28.9189582987
 30
0.0
 11
-335.1313035263
 21
33.8896227081
 31
0.0
  0
LINE
  5
26A
330
21E
100
AcDbEntity
  8
0
  6
Continuous
 62
     7
370
    25
100
AcDbLine
 10
583.3491748222
 20
94.9155912114
 30
0.0
 11
-138.4404115309
 21
57.4069026688
 31
0.0
  0
LINE
  5
26B
330
21E
100
AcDbEntity
  8
0
  6
Continuous
 62
     7
370
    25
100
AcDbLine
 10
-278.6072000679
 20
83.7391963198
 30
0.0
 11
-314.648598033
 21
208.0526761484
 31
0.0
  0
LINE
  5
26C
330
21E
100
AcDbEntity
  8
0
  6
Continuous
 62
     7
370
    25
100
AcDbLine
 10
-276.3516205684
 20
76.8358533187
 30
0.0
 11
-322.313561335
 21
36.301231637
 31
0.0
  0
LINE
  5
26D
330
21E
100
AcDbEntity
  8
0
  6
Continuous
 62
     7
370
    25
100
AcDbLine
 10
-148.3029168081
 20
62.4849746603
 30
0.0
 11
-269.9067818823
 21
77.8056215789
 31
0.0
  0
LINE
  5
26E
330
21E
100
AcDbEntity
  8
0
  6
Continuous
 62
     7
370
    25
100
AcDbLine
 10
-191.3555527936
 20
19.802073417
 30
0.0
 11
-145.3936120271
 21
60.3366950988
 31
0.0
  0
LINE
  5
26F
330
21E
100
AcDbEntity
  8
0
  6
Continuous
 62
     7
370
    25
100
AcDbLine
 10
-319.404256554
 20
34.1529520754
 30
0.0
 11
-197.8003914798
 21
18.8323051569
 31
0.0
  0
LINE
  5
270
330
21E
100
AcDbEntity
  8
0
  6
Continuous
 62
     7
370
    25
100
AcDbLine
 10
-145.3936120271
 20
60.3366950988
 30
0.0
 11
-145.3936120271
 21
52.7942227659
 31
0.0
  0
LINE
  5
271
330
21E
100
AcDbEntity
  8
0
  6
Continuous
 62
     7
370
    25
100
AcDbLine
 10
-188.2961993428
 20
14.9576972188
 30
0.0
 11
-145.3936120271
 21
52.7942227659
 31
0.0
  0
LINE
  5
272
330
21E
100
AcDbEntity
  8
0
  6
Continuous
 62
    60
370
    25
100
AcDbLine
 10
-336.0871221837
 20
34.3512607117
 30
0.0
 11
-336.0871221837
 21
34.9273274906
 31
0.0
  0
LINE
  5
273
330
21E
100
AcDbEntity
  8
0
  6
Continuous
 62
    60
370
    25
100
AcDbLine
 10
-281.2863466543
 20
72.4838339815
 30
0.0
 11
-281.2863466543
 21
83.2570687265
 31
0.0
  0
LINE
  5
274
330
21E
100
AcDbEntity
  8
0
  6
Continuous
 62
    60
370
    25
100
AcDbLine
 10
-133.0747035689
 20
62.4180183919
 30
0.0
 11
-133.0747035689
 21
64.8770484154
 31
0.0
  0
LINE
  5
275
330
21E
100
AcDbEntity
  8
0
  6
Continuous
 62
    60
370
    25
100
AcDbLine
 10
-278.0639273112
 20
75.3257407155
 30
0.0
 11
-278.0639273112
 21
83.6847814126
 31
0.0
  0
LINE
  5
276
330
21E
100
AcDbEntity
  8
0
  6
Continuous
 62
    60
370
    25
100
AcDbLine
 10
-197.8003914798
 20
18.8323051569
 30
0.0
 11
-197.8003914798
 21
15.910766425
 31
0.0
  0
LINE
  5
277
330
21E
100
AcDbEntity
  8
0
  6
Continuous
 62
    60
370
    25
100
AcDbLine
 10
-191.3555527936
 20
19.802073417
 30
0.0
 11
-191.3555527936
 21
15.1819262706
 31
0.0
  0
LINE
  5
278
330
21E
100
AcDbEntity
  8
0
  6
Continuous
 62
    60
370
    25
100
AcDbLine
 10
-319.404256554
 20
34.1529520754
 30
0.0
 11
-319.404256554
 21
31.5375395362
 31
0.0
  0
LINE
  5
279
330
21E
100
AcDbEntity
  8
0
  6
Continuous
 62
    60
370
    25
100
AcDbLine
 10
-148.4249324493
 20
50.1208494387
 30
0.0
 11
-148.4249324493
 21
48.350717397
 31
0.0
  0
ARC
  5
27A
330
21E
100
AcDbEntity
  8
0
  6
Continuous
 62
     7
370
    25
100
AcDbCircle
 10
-271.7469938243
 20
68.1349308014
 30
0.0
 40
9.844218613218388
100
AcDbArc
 50
79.2261330329
 51
117.8883001309
  0
ARC
  5
27B
330
21E
100
AcDbEntity
  8
0
  6
Continuous
 62
     7
370
    25
100
AcDbCircle
 10
-195.9601795377
 20
28.5029959343
 30
0.0
 40
9.844218613218581
100
AcDbArc
 50
259.2261330329
 51
297.8883001309
  0
VIEWPORT
  5
28C
330
21E
100
AcDbEntity
  8
0
100
AcDbViewport
 10
0.0
 20
0.0
 30
0.0
 40
205.6
 41
156.0
 68
     1
 69
     1
 12
0.0
 22
0.0
 13
0.0
 23
0.0
 14
10.0
 24
10.0
 15
10.0
 25
10.0
 16
0.0
 26
0.0
 36
1.0
 17
0.0
 27
0.0
 37
0.0
 42
50.0
 43
0.0
 44
0.0
 45
816.0
 50
0.0
 51
0.0
 72
   100
 90
   557152
  1

281
     0
 71
     1
 74
     0
110
0.0
120
0.0
130
0.0
111
1.0
121
0.0
131
0.0
112
0.0
122
1.0
132
0.0
 79
     0
146
0.0
  0
ENDBLK
  5
221
330
21E
100
AcDbEntity
  8
0
100
AcDbBlockEnd
  0
ENDSEC
  0
SECTION
  2
ENTITIES
  0
SPLINE
  5
73
330
1F
100
AcDbEntity
  8
0
  6
Continuous
 62
     7
370
    25
100
AcDbSpline
210
0.0
220
0.0
230
1.0
 70
    24
 71
     3
 72
     8
 73
     4
 74
     0
 42
0.000000001
 43
0.00000001
 40
0.0
 40
0.0
 40
0.0
 40
0.0
 40
1.0
 40
1.0
 40
1.0
 40
1.0
 10
-170.0
 20
-58.20910777402938
 30
0.0
 10
-170.0
 20
-64.63990133756602
 30
0.0
 10
-170.0
 20
-71.070224387898
 30
0.0
 10
-170.0
 20
-77.50000000000007
 30
0.0
  0
SPLINE
  5
77
330
1F
100
AcDbEntity
  8
0
  6
Continuous
 62
     7
370
    25
100
AcDbSpline
210
0.0
220
0.0
230
1.0
 70
     8
 71
     3
 72
     8
 73
     4
 74
     0
 42
0.000000001
 43
0.00000001
 40
0.0
 40
0.0
 40
0.0
 40
0.0
 40
1.0
 40
1.0
 40
1.0
 40
1.0
 10
-327.5
 20
-80.0000000000001
 30
0.0
 10
-327.6880273140706
 20
-80.0000000000001
 30
0.0
 10
-327.8737041317899
 20
-79.97905405231263
 30
0.0
 10
-328.0570293493646
 20
-79.93715373006039
 30
0.0
  0
SPLINE
  5
78
330
1F
100
AcDbEntity
  8
0
  6
Continuous
 62
     7
370
    25
100
AcDbSpline
210
0.0
220
0.0
230
1.0
 70
    24
 71
     3
 72
    20
 73
    16
 74
     0
 42
0.000000001
 43
0.00000001
 40
0.0
 40
0.0
 40
0.0
 40
0.0
 40
0.25
 40
0.25
 40
0.375
 40
0.375
 40
0.5
 40
0.5
 40
0.625
 40
0.625
 40
0.75
 40
0.75
 40
0.875
 40
0.875
 40
1.0
 40
1.0
 40
1.0
 40
1.0
 10
-172.5
 20
-80.00000000000001
 30
0.0
 10
-185.4170973556876
 20
-80.0
 30
0.0
 10
-198.3341412598332
 20
-79.99999999999999
 30
0.0
 10
-217.7100180670744
 20
-80.00000000000001
 30
0.0
 10
-224.1686988898928
 20
-80.00000000000001
 30
0.0
 10
-237.0863967832127
 20
-79.99999999999999
 30
0.0
 10
-243.545414866043
 20
-79.99999999999996
 30
0.0
 10
-256.4642332304509
 20
-79.99999999999994
 30
0.0
 10
-262.9230823950587
 20
-79.99999999999999
 30
0.0
 10
-275.8395061791167
 20
-79.99999999999999
 30
0.0
 10
-282.2971273536367
 20
-80.00000000000003
 30
0.0
 10
-295.2121201561815
 20
-80.0
 30
0.0
 10
-301.6694429351674
 20
-80.00000000000003
 30
0.0
 10
-314.5844573501495
 20
-80.0
 30
0.0
 10
-321.04212408698
 20
-79.99999999999996
 30
0.0
 10
-327.4999999999999
 20
-79.99999999999997
 30
0.0
  0
SPLINE
  5
79
330
1F
100
AcDbEntity
  8
0
  6
Continuous
 62
     7
370
    25
100
AcDbSpline
210
0.0
220
0.0
230
1.0
 70
     8
 71
     3
 72
    20
 73
    16
 74
     0
 42
0.000000001
 43
0.00000001
 40
0.0
 40
0.0
 40
0.0
 40
0.0
 40
0.125
 40
0.125
 40
0.25
 40
0.25
 40
0.375
 40
0.375
 40
0.5
 40
0.5
 40
0.625
 40
0.625
 40
0.75
 40
0.75
 40
1.0
 40
1.0
 40
1.0
 40
1.0
 10
-170.0
 20
-77.50000000000007
 30
0.0
 10
-170.0
 20
-77.66503540768966
 30
0.0
 10
-170.0161816622126
 20
-77.82732068728181
 30
0.0
 10
-170.0795906174381
 20
-78.14661486857209
 30
0.0
 10
-170.1275850985812
 20
-78.30527451149675
 30
0.0
 10
-170.2529096156186
 20
-78.60788280416334
 30
0.0
 10
-170.3296043701108
 20
-78.75141587104065
 30
0.0
 10
-170.5108071518231
 20
-79.02307934307312
 30
0.0
 10
-170.6162907987168
 20
-79.15173015449331
 30
0.0
 10
-170.8467300722952
 20
-79.38235793737759
 30
0.0
 10
-170.9724682591396
 20
-79.48585903397496
 30
0.0
 10
-171.245478302159
 20
-79.66867808394932
 30
0.0
 10
-171.3909018003859
 20
-79.74641614392692
 30
0.0
 10
-171.8417886672649
 20
-79.93365878335266
 30
0.0
 10
-172.1698625813423
 20
-80.0
 30
0.0
 10
-172.5
 20
-80.00000000000001
 30
0.0
  0
SPLINE
  5
7B
330
1F
100
AcDbEntity
  8
0
  6
Continuous
 62
     7
370
    25
100
AcDbSpline
210
0.0
220
0.0
230
1.0
 70
    24
 71
     3
 72
    14
 73
    10
 74
     0
 42
0.000000001
 43
0.00000001
 40
0.0
 40
0.0
 40
0.0
 40
0.0
 40
0.25
 40
0.25
 40
0.5
 40
0.5
 40
0.75
 40
0.75
 40
1.0
 40
1.0
 40
1.0
 40
1.0
 10
-170.0
 20
58.20910777402938
 30
0.0
 10
-170.0
 20
48.50787319813146
 30
0.0
 10
-170.0000000000001
 20
38.80657659026429
 30
0.0
 10
-170.0
 20
19.40348495764825
 30
0.0
 10
-170.0
 20
9.701826606848176
 30
0.0
 10
-169.9999999999999
 20
-9.701826748527742
 30
0.0
 10
-170.0000000000001
 20
-19.40348500138575
 30
0.0
 10
-170.0000000000001
 20
-38.80657663898987
 30
0.0
 10
-170.0000000000002
 20
-48.50787320861889
 30
0.0
 10
-170.0000000000002
 20
-58.20910777402935
 30
0.0
  0
SPLINE
  5
7E
330
1F
100
AcDbEntity
  8
0
  6
Continuous
 62
     7
370
    25
100
AcDbSpline
210
0.0
220
0.0
230
1.0
 70
    24
 71
     3
 72
     8
 73
     4
 74
     0
 42
0.000000001
 43
0.00000001
 40
0.0
 40
0.0
 40
0.0
 40
0.0
 40
1.0
 40
1.0
 40
1.0
 40
1.0
 10
-170.0
 20
77.50000000000001
 30
0.0
 10
-170.0
 20
71.07022438789797
 30
0.0
 10
-170.0
 20
64.63990133756602
 30
0.0
 10
-170.0
 20
58.20910777402941
 30
0.0
  0
SPLINE
  5
7F
330
1F
100
AcDbEntity
  8
0
  6
Continuous
 62
     7
370
    25
100
AcDbSpline
210
0.0
220
0.0
230
1.0
 70
     8
 71
     3
 72
    20
 73
    16
 74
     0
 42
0.000000001
 43
0.00000001
 40
0.0
 40
0.0
 40
0.0
 40
0.0
 40
0.125
 40
0.125
 40
0.25
 40
0.25
 40
0.375
 40
0.375
 40
0.5
 40
0.5
 40
0.625
 40
0.625
 40
0.75
 40
0.75
 40
1.0
 40
1.0
 40
1.0
 40
1.0
 10
-172.5
 20
80.00000000000004
 30
0.0
 10
-172.3349320969537
 20
80.00000000000003
 30
0.0
 10
-172.172616172956
 20
79.98381202913671
 30
0.0
 10
-171.8532641243857
 20
79.92037911771843
 30
0.0
 10
-171.6945749851355
 20
79.87236520843622
 30
0.0
 10
-171.3919382126133
 20
79.74700360749638
 30
0.0
 10
-171.2483949804447
 20
79.67028790918567
 30
0.0
 10
-170.976718687925
 20
79.48903966225323
 30
0.0
 10
-170.8480770264069
 20
79.38353986552103
 30
0.0
 10
-170.6174765921257
 20
79.1530812304593
 30
0.0
 10
-170.5139895976051
 20
79.027334692916
 30
0.0
 10
-170.3311998843521
 20
78.75431042448469
 30
0.0
 10
-170.2534960235685
 20
78.6089168626154
 30
0.0
 10
-170.0663122671376
 20
78.15808123828062
 30
0.0
 10
-170.0000000000001
 20
77.83006990337165
 30
0.0
 10
-170.0000000000001
 20
77.49999999999999
 30
0.0
  0
SPLINE
  5
80
330
1F
100
AcDbEntity
  8
0
  6
Continuous
 62
     7
370
    25
100
AcDbSpline
210
0.0
220
0.0
230
1.0
 70
    24
 71
     3
 72
    20
 73
    16
 74
     0
 42
0.000000001
 43
0.00000001
 40
0.0
 40
0.0
 40
0.0
 40
0.0
 40
0.1250000000000002
 40
0.1250000000000002
 40
0.2500000000000004
 40
0.2500000000000004
 40
0.3750000000000007
 40
0.3750000000000007
 40
0.5000000000000009
 40
0.5000000000000009
 40
0.6250000000000006
 40
0.6250000000000006
 40
0.7500000000000002
 40
0.7500000000000002
 40
1.0
 40
1.0
 40
1.0
 40
1.0
 10
-327.5
 20
80.00000000000001
 30
0.0
 10
-321.0422014735082
 20
80.00000000000003
 30
0.0
 10
-314.5846121154539
 20
80.00000000000001
 30
0.0
 10
-301.6697524492258
 20
80.00000000000001
 30
0.0
 10
-295.2125069539607
 20
80.00000000000001
 30
0.0
 10
-282.2976690965001
 20
79.99999999999999
 30
0.0
 10
-275.8401254634487
 20
80.00000000000006
 30
0.0
 10
-262.9238550731866
 20
80.00000000000007
 30
0.0
 10
-256.465080547957
 20
80.00000000000006
 30
0.0
 10
-243.5464150331348
 20
80.00000000000009
 30
0.0
 10
-237.0873774219125
 20
80.00000000000001
 30
0.0
 10
-224.169552523411
 20
80.00000000000003
 30
0.0
 10
-217.710765783739
 20
80.00000000000001
 30
0.0
 10
-198.3345296251583
 20
80.00000000000003
 30
0.0
 10
-185.417298255315
 20
79.99999999999999
 30
0.0
 10
-172.5
 20
80.0
 30
0.0
  0
SPLINE
  5
81
330
1F
100
AcDbEntity
  8
0
  6
Continuous
 62
     7
370
    25
100
AcDbSpline
210
0.0
220
0.0
230
1.0
 70
     8
 71
     3
 72
     8
 73
     4
 74
     0
 42
0.000000001
 43
0.00000001
 40
0.0
 40
0.0
 40
0.0
 40
0.0
 40
1.0
 40
1.0
 40
1.0
 40
1.0
 10
-328.0570293493646
 20
79.93715373006023
 30
0.0
 10
-327.8737041317899
 20
79.97905405231246
 30
0.0
 10
-327.6880273140706
 20
80.00000000000006
 30
0.0
 10
-327.5
 20
80.00000000000006
 30
0.0
  0
SPLINE
  5
88
330
1F
100
AcDbEntity
  8
0
  6
Continuous
 62
     7
370
    25
100
AcDbSpline
210
0.0
220
0.0
230
1.0
 70
     8
 71
     3
 72
    14
 73
    10
 74
     0
 42
0.000000001
 43
0.00000001
 40
0.0
 40
0.0
 40
0.0
 40
0.0
 40
0.25
 40
0.25
 40
0.5
 40
0.5
 40
0.75
 40
0.75
 40
1.0
 40
1.0
 40
1.0
 40
1.0
 10
-330.0000000000001
 20
77.49999999999999
 30
0.0
 10
-330.0000000000001
 20
77.78315028809486
 30
0.0
 10
-329.9532451631263
 20
78.05837873942156
 30
0.0
 10
-329.7661830286918
 20
78.59298358977122
 30
0.0
 10
-329.6311202107804
 20
78.83734585682676
 30
0.0
 10
-329.27805507081
 20
79.28008074500428
 30
0.0
 10
-329.0699007574692
 20
79.4660891968834
 30
0.0
 10
-328.590665422919
 20
79.76727679246558
 30
0.0
 10
-328.332836476016
 20
79.87411598959538
 30
0.0
 10
-328.0570293493646
 20
79.93715373006033
 30
0.0
  0
SPLINE
  5
89
330
1F
100
AcDbEntity
  8
0
  6
Continuous
 62
     7
370
    25
100
AcDbSpline
210
0.0
220
0.0
230
1.0
 70
    24
 71
     3
 72
    22
 73
    18
 74
     0
 42
0.000000001
 43
0.00000001
 40
0.0
 40
0.0
 40
0.0
 40
0.0
 40
0.125
 40
0.125
 40
0.25
 40
0.25
 40
0.375
 40
0.375
 40
0.5
 40
0.5
 40
0.625
 40
0.625
 40
0.75
 40
0.75
 40
0.875
 40
0.875
 40
1.0
 40
1.0
 40
1.0
 40
1.0
 10
-330.0000000000002
 20
-77.50000000000004
 30
0.0
 10
-330.0000000000002
 20
-71.04200286168914
 30
0.0
 10
-330.0000000000002
 20
-64.58410734233419
 30
0.0
 10
-330.0000000000001
 20
-51.66848924416273
 30
0.0
 10
-330.0000000000001
 20
-45.21077471752793
 30
0.0
 10
-330.0000000000001
 20
-32.29532031556164
 30
0.0
 10
-330.0000000000002
 20
-25.83761394427255
 30
0.0
 10
-330.0000000000002
 20
-12.92121312028273
 30
0.0
 10
-330.0000000000001
 20
-6.462413636092778
 30
0.0
 10
-330.0000000000002
 20
6.458272017606813
 30
0.0
 10
-330.0000000000003
 20
12.91729730195853
 30
0.0
 10
-330.0000000000003
 20
25.83434617956567
 30
0.0
 10
-330.0000000000001
 20
32.29245262316146
 30
0.0
 10
-330.0
 20
45.20870065902951
 30
0.0
 10
-330.0000000000002
 20
51.66681003619532
 30
0.0
 10
-330.0000000000003
 20
64.5832467462753
 30
0.0
 10
-330.0
 20
71.04156479256899
 30
0.0
 10
-330.0000000000001
 20
77.5
 30
0.0
  0
SPLINE
  5
8A
330
1F
100
AcDbEntity
  8
0
  6
Continuous
 62
     7
370
    25
100
AcDbSpline
210
0.0
220
0.0
230
1.0
 70
     8
 71
     3
 72
    14
 73
    10
 74
     0
 42
0.000000001
 43
0.00000001
 40
0.0
 40
0.0
 40
0.0
 40
0.0
 40
0.25
 40
0.25
 40
0.5
 40
0.5
 40
0.75
 40
0.75
 40
1.0
 40
1.0
 40
1.0
 40
1.0
 10
-328.0570293493646
 20
-79.93715373006034
 30
0.0
 10
-328.3328365237018
 20
-79.87411597869644
 30
0.0
 10
-328.5905579331992
 20
-79.76732780683149
 30
0.0
 10
-329.0697988062198
 20
-79.46616980377729
 30
0.0
 10
-329.2779734079216
 20
-79.2801519359882
 30
0.0
 10
-329.6309876162551
 20
-78.83754332036237
 30
0.0
 10
-329.7661333074176
 20
-78.59305861004587
 30
0.0
 10
-329.953165680083
 20
-78.05867292582082
 30
0.0
 10
-330.0000000000001
 20
-77.78315041652387
 30
0.0
 10
-330.0000000000001
 20
-77.50000000000004
 30
0.0
  0
LINE
  5
99
330
1F
100
AcDbEntity
  8
0
  6
Continuous
 62
     7
370
    25
100
AcDbLine
 10
480.0
 20
-380.0
 30
0.0
 11
-170.0
 21
-58.209107774
 31
0.0
  0
LINE
  5
9A
330
1F
100
AcDbEntity
  8
0
  6
Continuous
 62
     7
370
    25
100
AcDbLine
 10
-480.0
 20
-380.0
 30
0.0
 11
480.0
 21
-380.0
 31
0.0
  0
LINE
  5
9B
330
1F
100
AcDbEntity
  8
0
  6
Continuous
 62
     7
370
    25
100
AcDbLine
 10
-480.0
 20
-380.0
 30
0.0
 11
-328.0570293494
 21
-79.9371537301
 31
0.0
  0
LINE
  5
9C
330
1F
100
AcDbEntity
  8
0
  6
Continuous
 62
     7
370
    25
100
AcDbLine
 10
480.0
 20
-380.0
 30
0.0
 11
480.0
 21
380.0
 31
0.0
  0
LINE
  5
9D
330
1F
100
AcDbEntity
  8
0
  6
Continuous
 62
     7
370
    25
100
AcDbLine
 10
480.0
 20
380.0
 30
0.0
 11
-170.0
 21
58.209107774
 31
0.0
  0
LINE
  5
9E
330
1F
100
AcDbEntity
  8
0
  6
Continuous
 62
     7
370
    25
100
AcDbLine
 10
480.0
 20
380.0
 30
0.0
 11
-480.0
 21
380.0
 31
0.0
  0
LINE
  5
9F
330
1F
100
AcDbEntity
  8
0
  6
Continuous
 62
     7
370
    25
100
AcDbLine
 10
-328.0570293494
 20
79.9371537301
 30
0.0
 11
-480.0
 21
380.0
 31
0.0
  0
LINE
  5
A0
330
1F
100
AcDbEntity
  8
0
  6
Continuous
 62
     7
370
    25
100
AcDbLine
 10
500.0
 20
400.0
 30
0.0
 11
-500.0
 21
400.0
 31
0.0
  0
LINE
  5
A1
330
1F
100
AcDbEntity
  8
0
  6
Continuous
 62
     7
370
    25
100
AcDbLine
 10
500.0
 20
-400.0
 30
0.0
 11
500.0
 21
400.0
 31
0.0
  0
LINE
  5
A2
330
1F
100
AcDbEntity
  8
0
  6
Continuous
 62
     7
370
    25
100
AcDbLine
 10
-500.0
 20
-400.0
 30
0.0
 11
500.0
 21
-400.0
 31
0.0
  0
LINE
  5
A3
330
1F
100
AcDbEntity
  8
0
  6
Continuous
 62
     7
370
    25
100
AcDbLine
 10
-500.0
 20
400.0
 30
0.0
 11
-500.0
 21
-400.0
 31
0.0
  0
LINE
  5
A4
330
1F
100
AcDbEntity
  8
0
  6
Continuous
 62
     7
370
    25
100
AcDbLine
 10
-480.0
 20
380.0
 30
0.0
 11
-480.0
 21
-380.0
 31
0.0
  0
LINE
  5
A5
330
1F
100
AcDbEntity
  8
0
  6
Continuous
 62
     7
370
    25
100
AcDbLine
 10
-170.7543946871
 20
79.2456053129
 30
0.0
 11
-181.4644660941
 21
68.5355339059
 31
0.0
  0
LINE
  5
A6
330
1F
100
AcDbEntity
  8
0
  6
Continuous
 62
     7
370
    25
100
AcDbLine
 10
-170.7543803588
 20
-79.2456196412
 30
0.0
 11
-181.4644660941
 21
-68.5355339059
 31
0.0
  0
LINE
  5
A7
330
1F
100
AcDbEntity
  8
0
  6
Continuous
 62
     7
370
    25
100
AcDbLine
 10
-328.1717593438
 20
-80.0
 30
0.0
 11
-327.67501
 21
-80.0
 31
0.0
  0
LINE
  5
A8
330
1F
100
AcDbEntity
  8
0
  6
Continuous
 62
     7
370
    25
100
AcDbLine
 10
-318.5355339059
 20
-68.5355339059
 30
0.0
 11
-329.2452712414
 21
-79.2452712414
 31
0.0
  0
LINE
  5
A9
330
1F
100
AcDbEntity
  8
0
  6
Continuous
 62
     7
370
    25
100
AcDbLine
 10
-329.2455716169
 20
79.2455716169
 30
0.0
 11
-318.5355339059
 21
68.5355339059
 31
0.0
  0
LINE
  5
AA
330
1F
100
AcDbEntity
  8
0
  6
Continuous
 62
     7
370
    25
100
AcDbLine
 10
-327.67501
 20
80.0
 30
0.0
 11
-328.1713565086
 21
80.0
 31
0.0
  0
LINE
  5
AB
330
1F
100
AcDbEntity
  8
0
  6
Continuous
 62
     7
370
    25
100
AcDbLine
 10
-320.0
 20
65.0
 30
0.0
 11
-320.0
 21
-65.0
 31
0.0
  0
LINE
  5
AC
330
1F
100
AcDbEntity
  8
0
  6
Continuous
 62
     7
370
    25
100
AcDbLine
 10
-185.0
 20
70.0
 30
0.0
 11
-315.0
 21
70.0
 31
0.0
  0
LINE
  5
AD
330
1F
100
AcDbEntity
  8
0
  6
Continuous
 62
     7
370
    25
100
AcDbLine
 10
-180.0
 20
-65.0
 30
0.0
 11
-180.0
 21
65.0
 31
0.0
  0
LINE
  5
AE
330
1F
100
AcDbEntity
  8
0
  6
Continuous
 62
     7
370
    25
100
AcDbLine
 10
-315.0
 20
-70.0
 30
0.0
 11
-185.0
 21
-70.0
 31
0.0
  0
ARC
  5
AF
330
1F
100
AcDbEntity
  8
0
  6
Continuous
 62
     7
370
    25
100
AcDbCircle
 10
-315.0
 20
65.0
 30
0.0
 40
5.0
100
AcDbArc
 50
90.0
 51
180.0
  0
ARC
  5
B0
330
1F
100
AcDbEntity
  8
0
  6
Continuous
 62
     7
370
    25
100
AcDbCircle
 10
-185.0
 20
-65.0
 30
0.0
 40
4.999999999999957
100
AcDbArc
 50
270.0
 51
0.0
  0
ARC
  5
B1
330
1F
100
AcDbEntity
  8
0
  6
Continuous
 62
     7
370
    25
100
AcDbCircle
 10
-315.0
 20
-65.0
 30
0.0
 40
5.0
100
AcDbArc
 50
180.0
 51
270.0
  0
ARC
  5
B2
330
1F
100
AcDbEntity
  8
0
  6
Continuous
 62
     7
370
    25
100
AcDbCircle
 10
-185.0
 20
65.0
 30
0.0
 40
5.000000000000057
100
AcDbArc
 50
0.0
 51
90.0
  0
LINE
  5
BA
330
1B
100
AcDbEntity
 67
     1
  8
0
  6
Continuous
 62
     7
370
    25
100
AcDbLine
 10
-500.0
 20
35.0
 30
0.0
 11
500.0
 21
35.0
 31
0.0
  0
LINE
  5
BB
330
1B
100
AcDbEntity
 67
     1
  8
0
  6
Continuous
 62
     7
370
    25
100
AcDbLine
 10
500.0
 20
35.0
 30
0.0
 11
500.0
 21
0.0
 31
0.0
  0
LINE
  5
BC
330
1B
100
AcDbEntity
 67
     1
  8
0
  6
Continuous
 62
     7
370
    25
100
AcDbLine
 10
-500.0
 20
0.0
 30
0.0
 11
500.0
 21
0.0
 31
0.0
  0
LINE
  5
BD
330
1B
100
AcDbEntity
 67
     1
  8
0
  6
Continuous
 62
     7
370
    25
100
AcDbLine
 10
-500.0
 20
35.0
 30
0.0
 11
-500.0
 21
0.0
 31
0.0
  0
LINE
  5
BE
330
1B
100
AcDbEntity
 67
     1
  8
0
  6
Continuous
 62
     7
370
    25
100
AcDbLine
 10
-120.0
 20
-26.0
 30
0.0
 11
-380.0
 21
-26.0
 31
0.0
  0
LINE
  5
BF
330
1B
100
AcDbEntity
 67
     1
  8
0
  6
Continuous
 62
     7
370
    25
100
AcDbLine
 10
-120.0
 20
-26.0
 30
0.0
 11
-120.0
 21
0.0
 31
0.0
  0
LINE
  5
C0
330
1B
100
AcDbEntity
 67
     1
  8
0
  6
Continuous
 62
     7
370
    25
100
AcDbLine
 10
-380.0
 20
-26.0
 30
0.0
 11
-380.0
 21
0.0
 31
0.0
  0
VIEWPORT
  5
27C
330
1B
100
AcDbEntity
 67
     1
  8
0
100
AcDbViewport
 10
0.0
 20
0.0
 30
0.0
 40
205.6
 41
156.0
 68
     1
 69
     1
 12
0.0
 22
0.0
 13
0.0
 23
0.0
 14
10.0
 24
10.0
 15
10.0
 25
10.0
 16
0.0
 26
0.0
 36
1.0
 17
0.0
 27
0.0
 37
0.0
 42
50.0
 43
0.0
 44
0.0
 45
816.0
 50
0.0
 51
0.0
 72
   100
 90
   557152
  1

281
     0
 71
     1
 74
     0
110
0.0
120
0.0
130
0.0
111
1.0
121
0.0
131
0.0
112
0.0
122
1.0
132
0.0
 79
     0
146
0.0
  0
ENDSEC
  0
SECTION
  2
OBJECTS
  0
DICTIONARY
  5
C
330
0
100
AcDbDictionary
281
     1
  3
ACAD_GROUP
350
D
  3
ACAD_LAYOUT
350
1A
  3
ACAD_MLINESTYLE
350
17
  3
ACAD_PLOTSETTINGS
350
19
  3
ACAD_PLOTSTYLENAME
350
E
  3
ACAD_SCALELIST
350
47
  0
DICTIONARY
  5
D
102
{ACAD_REACTORS
330
C
102
}
330
C
100
AcDbDictionary
281
     1
  0
DICTIONARY
  5
1A
102
{ACAD_REACTORS
330
C
102
}
330
C
100
AcDbDictionary
281
     1
  3
_Dimetrisch
350
21F
  3
_Isometrisch
350
133
  3
_Links
350
F4
  3
_Normal auf
350
D0
  3
_Rechts
350
26
  3
_Rückseite
350
E2
  3
_Trimetrisch
350
1B3
  3
_Unten
350
106
  3
_Vorderseite
350
1E
  3
Model
350
22
  0
DICTIONARY
  5
17
102
{ACAD_REACTORS
330
C
102
}
330
C
100
AcDbDictionary
281
     1
  3
Standard
350
18
  0
DICTIONARY
  5
19
102
{ACAD_REACTORS
330
C
102
}
330
C
100
AcDbDictionary
281
     1
  0
ACDBDICTIONARYWDFLT
  5
E
102
{ACAD_REACTORS
330
C
102
}
330
C
100
AcDbDictionary
281
     1
  3
Normal
350
F
100
AcDbDictionaryWithDefault
340
F
  0
DICTIONARY
  5
47
102
{ACAD_REACTORS
330
C
102
}
330
C
100
AcDbDictionary
281
     1
  3
A0
350
48
  3
A1
350
49
  3
A2
350
4A
  3
A3
350
4B
  3
A4
350
4C
  3
A5
350
4D
  3
A6
350
4E
  3
A7
350
4F
  3
A8
350
50
  3
A9
350
51
  3
B0
350
52
  3
B1
350
53
  3
B2
350
54
  3
B3
350
55
  3
B4
350
56
  3
B5
350
57
  3
B6
350
58
  3
B7
350
59
  3
B8
350
5A
  3
B9
350
5B
  3
C0
350
5C
  3
C1
350
5D
  3
C2
350
5E
  3
C3
350
5F
  3
C4
350
60
  3
C5
350
61
  3
C6
350
62
  3
C7
350
63
  3
C8
350
64
  3
C9
350
65
  3
D0
350
66
  3
D1
350
67
  3
D2
350
68
  0
LAYOUT
  5
21F
102
{ACAD_REACTORS
330
1A
102
}
330
1A
100
AcDbPlotSettings
  1

  2
none_device
  4
ISO_A4_(210.00_x_297.00_MM)
  6

 40
7.5
 41
20.0
 42
7.5
 43
20.0
 44
210.0
 45
297.0
 46
0.0
 47
0.0
 48
0.0
 49
0.0
140
0.0
141
0.0
142
1.0
143
3.8910505837
 70
   688
 72
     1
 73
     1
 74
     1
  7

 75
     0
147
0.257
148
500.0
149
26.0
100
AcDbLayout
  1
_Dimetrisch
 70
     1
 71
     9
 10
0.0
 20
0.0
 11
0.0
 21
0.0
 12
0.0
 22
0.0
 32
0.0
 14
0.0
 24
0.0
 34
0.0
 15
0.0
 25
0.0
 35
0.0
146
0.0
 13
0.0
 23
0.0
 33
0.0
 16
1.0
 26
0.0
 36
0.0
 17
0.0
 27
1.0
 37
0.0
 76
     0
330
21E
331
28C
  0
LAYOUT
  5
133
102
{ACAD_REACTORS
330
1A
102
}
330
1A
100
AcDbPlotSettings
  1

  2
none_device
  4
ISO_A4_(210.00_x_297.00_MM)
  6

 40
7.5
 41
20.0
 42
7.5
 43
20.0
 44
210.0
 45
297.0
 46
0.0
 47
0.0
 48
0.0
 49
0.0
140
0.0
141
0.0
142
1.0
143
3.8910505837
 70
   688
 72
     1
 73
     1
 74
     1
  7

 75
     0
147
0.257
148
500.0
149
26.0
100
AcDbLayout
  1
_Isometrisch
 70
     1
 71
     7
 10
0.0
 20
0.0
 11
0.0
 21
0.0
 12
0.0
 22
0.0
 32
0.0
 14
0.0
 24
0.0
 34
0.0
 15
0.0
 25
0.0
 35
0.0
146
0.0
 13
0.0
 23
0.0
 33
0.0
 16
1.0
 26
0.0
 36
0.0
 17
0.0
 27
1.0
 37
0.0
 76
     0
330
132
331
288
  0
LAYOUT
  5
F4
102
{ACAD_REACTORS
330
1A
102
}
330
1A
100
AcDbPlotSettings
  1

  2
none_device
  4
ISO_A4_(210.00_x_297.00_MM)
  6

 40
7.5
 41
20.0
 42
7.5
 43
20.0
 44
210.0
 45
297.0
 46
0.0
 47
0.0
 48
0.0
 49
0.0
140
0.0
141
0.0
142
1.0
143
3.8910505837
 70
   688
 72
     1
 73
     1
 74
     1
  7

 75
     0
147
0.257
148
500.0
149
26.0
100
AcDbLayout
  1
_Links
 70
     1
 71
     5
 10
0.0
 20
0.0
 11
0.0
 21
0.0
 12
0.0
 22
0.0
 32
0.0
 14
0.0
 24
0.0
 34
0.0
 15
0.0
 25
0.0
 35
0.0
146
0.0
 13
0.0
 23
0.0
 33
0.0
 16
1.0
 26
0.0
 36
0.0
 17
0.0
 27
1.0
 37
0.0
 76
     0
330
F3
331
284
  0
LAYOUT
  5
D0
102
{ACAD_REACTORS
330
1A
102
}
330
1A
100
AcDbPlotSettings
  1

  2
none_device
  4
ISO_A4_(210.00_x_297.00_MM)
  6

 40
7.5
 41
20.0
 42
7.5
 43
20.0
 44
210.0
 45
297.0
 46
0.0
 47
0.0
 48
0.0
 49
0.0
140
0.0
141
0.0
142
1.0
143
3.8910505837
 70
   688
 72
     1
 73
     1
 74
     1
  7

 75
     0
147
0.257
148
500.0
149
26.0
100
AcDbLayout
  1
_Normal auf
 70
     1
 71
     3
 10
0.0
 20
0.0
 11
0.0
 21
0.0
 12
0.0
 22
0.0
 32
0.0
 14
0.0
 24
0.0
 34
0.0
 15
0.0
 25
0.0
 35
0.0
146
0.0
 13
0.0
 23
0.0
 33
0.0
 16
1.0
 26
0.0
 36
0.0
 17
0.0
 27
1.0
 37
0.0
 76
     0
330
CF
331
280
  0
LAYOUT
  5
26
102
{ACAD_REACTORS
330
1A
102
}
330
1A
100
AcDbPlotSettings
  1

  2
none_device
  4
ISO_A4_(210.00_x_297.00_MM)
  6

 40
7.5
 41
20.0
 42
7.5
 43
20.0
 44
210.0
 45
297.0
 46
0.0
 47
0.0
 48
0.0
 49
0.0
140
0.0
141
0.0
142
1.0
143
3.8910505837
 70
   688
 72
     1
 73
     1
 74
     1
  7

 75
     0
147
0.257
148
500.0
149
26.0
100
AcDbLayout
  1
_Rechts
 70
     1
 71
     2
 10
0.0
 20
0.0
 11
0.0
 21
0.0
 12
0.0
 22
0.0
 32
0.0
 14
0.0
 24
0.0
 34
0.0
 15
0.0
 25
0.0
 35
0.0
146
0.0
 13
0.0
 23
0.0
 33
0.0
 16
1.0
 26
0.0
 36
0.0
 17
0.0
 27
1.0
 37
0.0
 76
     0
330
23
331
27E
  0
LAYOUT
  5
E2
102
{ACAD_REACTORS
330
1A
102
}
330
1A
100
AcDbPlotSettings
  1

  2
none_device
  4
ISO_A4_(210.00_x_297.00_MM)
  6

 40
7.5
 41
20.0
 42
7.5
 43
20.0
 44
210.0
 45
297.0
 46
0.0
 47
0.0
 48
0.0
 49
0.0
140
0.0
141
0.0
142
1.0
143
3.8910505837
 70
   688
 72
     1
 73
     1
 74
     1
  7

 75
     0
147
0.257
148
500.0
149
26.0
100
AcDbLayout
  1
_Rückseite
 70
     1
 71
     4
 10
0.0
 20
0.0
 11
0.0
 21
0.0
 12
0.0
 22
0.0
 32
0.0
 14
0.0
 24
0.0
 34
0.0
 15
0.0
 25
0.0
 35
0.0
146
0.0
 13
0.0
 23
0.0
 33
0.0
 16
1.0
 26
0.0
 36
0.0
 17
0.0
 27
1.0
 37
0.0
 76
     0
330
E1
331
282
  0
LAYOUT
  5
1B3
102
{ACAD_REACTORS
330
1A
102
}
330
1A
100
AcDbPlotSettings
  1

  2
none_device
  4
ISO_A4_(210.00_x_297.00_MM)
  6

 40
7.5
 41
20.0
 42
7.5
 43
20.0
 44
210.0
 45
297.0
 46
0.0
 47
0.0
 48
0.0
 49
0.0
140
0.0
141
0.0
142
1.0
143
3.8910505837
 70
   688
 72
     1
 73
     1
 74
     1
  7

 75
     0
147
0.257
148
500.0
149
26.0
100
AcDbLayout
  1
_Trimetrisch
 70
     1
 71
     8
 10
0.0
 20
0.0
 11
0.0
 21
0.0
 12
0.0
 22
0.0
 32
0.0
 14
0.0
 24
0.0
 34
0.0
 15
0.0
 25
0.0
 35
0.0
146
0.0
 13
0.0
 23
0.0
 33
0.0
 16
1.0
 26
0.0
 36
0.0
 17
0.0
 27
1.0
 37
0.0
 76
     0
330
1B2
331
28A
  0
LAYOUT
  5
106
102
{ACAD_REACTORS
330
1A
102
}
330
1A
100
AcDbPlotSettings
  1

  2
none_device
  4
ISO_A4_(210.00_x_297.00_MM)
  6

 40
7.5
 41
20.0
 42
7.5
 43
20.0
 44
210.0
 45
297.0
 46
0.0
 47
0.0
 48
0.0
 49
0.0
140
0.0
141
0.0
142
1.0
143
3.8910505837
 70
   688
 72
     1
 73
     1
 74
     1
  7

 75
     0
147
0.257
148
500.0
149
26.0
100
AcDbLayout
  1
_Unten
 70
     1
 71
     6
 10
0.0
 20
0.0
 11
0.0
 21
0.0
 12
0.0
 22
0.0
 32
0.0
 14
0.0
 24
0.0
 34
0.0
 15
0.0
 25
0.0
 35
0.0
146
0.0
 13
0.0
 23
0.0
 33
0.0
 16
1.0
 26
0.0
 36
0.0
 17
0.0
 27
1.0
 37
0.0
 76
     0
330
105
331
286
  0
LAYOUT
  5
1E
102
{ACAD_REACTORS
330
1A
102
}
330
1A
100
AcDbPlotSettings
  1

  2
none_device
  4
ISO_A4_(210.00_x_297.00_MM)
  6

 40
7.5
 41
20.0
 42
7.5
 43
20.0
 44
210.0
 45
297.0
 46
0.0
 47
0.0
 48
0.0
 49
0.0
140
0.0
141
0.0
142
1.0
143
3.8910505837
 70
   688
 72
     1
 73
     1
 74
     1
  7

 75
     0
147
0.257
148
500.0
149
26.0
100
AcDbLayout
  1
_Vorderseite
 70
     1
 71
     1
 10
-577.8210116732
 20
-55.1828793774
 11
577.8210116732
 21
761.9377431907
 12
0.0
 22
0.0
 32
0.0
 14
-500.0
 24
-26.0
 34
0.0
 15
500.0
 25
35.0
 35
0.0
146
0.0
 13
0.0
 23
0.0
 33
0.0
 16
1.0
 26
0.0
 36
0.0
 17
0.0
 27
1.0
 37
0.0
 76
     0
330
1B
331
27C
  0
LAYOUT
  5
22
102
{ACAD_REACTORS
330
1A
102
}
330
1A
100
AcDbPlotSettings
  1

  2
none_device
  4
ANSI_A_(11.00_x_8.50_Inches)
  6

 40
6.35
 41
19.05
 42
6.35000508
 43
19.05000254
 44
279.4
 45
215.9
 46
133.34999746
 47
88.89999873
 48
0.0
 49
0.0
140
0.0
141
0.0
142
0.01051875
143
1.0
 70
  1696
 72
     0
 73
     0
 74
     0
  7

 75
     0
147
0.0179189148
148
-1300.4909072572
149
0.0
100
AcDbLayout
  1
Model
 70
     1
 71
     0
 10
0.0
 20
0.0
 11
420.0
 21
297.0
 12
0.0
 22
0.0
 32
0.0
 14
-500.0
 24
-400.0
 34
0.0
 15
500.0
 25
400.0
 35
0.0
146
0.0
 13
0.0
 23
0.0
 33
0.0
 16
1.0
 26
0.0
 36
0.0
 17
0.0
 27
1.0
 37
0.0
 76
     0
330
1F
331
29
  0
MLINESTYLE
  5
18
102
{ACAD_REACTORS
330
17
102
}
330
17
100
AcDbMlineStyle
  2
Standard
 70
     0
  3

 62
   256
 51
90.0
 52
90.0
 71
     2
 49
0.5
 62
   256
  6
BYLAYER
 49
-0.5
 62
   256
  6
BYLAYER
  0
ACDBPLACEHOLDER
  5
F
102
{ACAD_REACTORS
330
E
102
}
330
E
  0
SCALE
  5
48
102
{ACAD_REACTORS
330
47
102
}
330
47
100
AcDbScale
 70
     0
300
1:1
140
1.0
141
1.0
290
     1
  0
SCALE
  5
49
102
{ACAD_REACTORS
330
47
102
}
330
47
100
AcDbScale
 70
     0
300
1:2
140
1.0
141
2.0
290
     0
  0
SCALE
  5
4A
102
{ACAD_REACTORS
330
47
102
}
330
47
100
AcDbScale
 70
     0
300
1:4
140
1.0
141
4.0
290
     0
  0
SCALE
  5
4B
102
{ACAD_REACTORS
330
47
102
}
330
47
100
AcDbScale
 70
     0
300
1:5
140
1.0
141
5.0
290
     0
  0
SCALE
  5
4C
102
{ACAD_REACTORS
330
47
102
}
330
47
100
AcDbScale
 70
     0
300
1:8
140
1.0
141
8.0
290
     0
  0
SCALE
  5
4D
102
{ACAD_REACTORS
330
47
102
}
330
47
100
AcDbScale
 70
     0
300
1:10
140
1.0
141
10.0
290
     0
  0
SCALE
  5
4E
102
{ACAD_REACTORS
330
47
102
}
330
47
100
AcDbScale
 70
     0
300
1:16
140
1.0
141
16.0
290
     0
  0
SCALE
  5
4F
102
{ACAD_REACTORS
330
47
102
}
330
47
100
AcDbScale
 70
     0
300
1:20
140
1.0
141
20.0
290
     0
  0
SCALE
  5
50
102
{ACAD_REACTORS
330
47
102
}
330
47
100
AcDbScale
 70
     0
300
1:30
140
1.0
141
30.0
290
     0
  0
SCALE
  5
51
102
{ACAD_REACTORS
330
47
102
}
330
47
100
AcDbScale
 70
     0
300
1:40
140
1.0
141
40.0
290
     0
  0
SCALE
  5
52
102
{ACAD_REACTORS
330
47
102
}
330
47
100
AcDbScale
 70
     0
300
1:50
140
1.0
141
50.0
290
     0
  0
SCALE
  5
53
102
{ACAD_REACTORS
330
47
102
}
330
47
100
AcDbScale
 70
     0
300
1:100
140
1.0
141
100.0
290
     0
  0
SCALE
  5
54
102
{ACAD_REACTORS
330
47
102
}
330
47
100
AcDbScale
 70
     0
300
2:1
140
2.0
141
1.0
290
     0
  0
SCALE
  5
55
102
{ACAD_REACTORS
330
47
102
}
330
47
100
AcDbScale
 70
     0
300
4:1
140
4.0
141
1.0
290
     0
  0
SCALE
  5
56
102
{ACAD_REACTORS
330
47
102
}
330
47
100
AcDbScale
 70
     0
300
8:1
140
8.0
141
1.0
290
     0
  0
SCALE
  5
57
102
{ACAD_REACTORS
330
47
102
}
330
47
100
AcDbScale
 70
     0
300
10:1
140
10.0
141
1.0
290
     0
  0
SCALE
  5
58
102
{ACAD_REACTORS
330
47
102
}
330
47
100
AcDbScale
 70
     0
300
100:1
140
100.0
141
1.0
290
     0
  0
SCALE
  5
59
102
{ACAD_REACTORS
330
47
102
}
330
47
100
AcDbScale
 70
     0
300
1/128" = 1'-0"
140
0.0078125
141
12.0
290
     0
  0
SCALE
  5
5A
102
{ACAD_REACTORS
330
47
102
}
330
47
100
AcDbScale
 70
     0
300
1/64" = 1'-0"
140
0.015625
141
12.0
290
     0
  0
SCALE
  5
5B
102
{ACAD_REACTORS
330
47
102
}
330
47
100
AcDbScale
 70
     0
300
1/32" = 1'-0"
140
0.03125
141
12.0
290
     0
  0
SCALE
  5
5C
102
{ACAD_REACTORS
330
47
102
}
330
47
100
AcDbScale
 70
     0
300
1/16" = 1'-0"
140
0.0625
141
12.0
290
     0
  0
SCALE
  5
5D
102
{ACAD_REACTORS
330
47
102
}
330
47
100
AcDbScale
 70
     0
300
3/32" = 1'-0"
140
0.09375
141
12.0
290
     0
  0
SCALE
  5
5E
102
{ACAD_REACTORS
330
47
102
}
330
47
100
AcDbScale
 70
     0
300
1/8" = 1'-0"
140
0.125
141
12.0
290
     0
  0
SCALE
  5
5F
102
{ACAD_REACTORS
330
47
102
}
330
47
100
AcDbScale
 70
     0
300
3/16" = 1'-0"
140
0.1875
141
12.0
290
     0
  0
SCALE
  5
60
102
{ACAD_REACTORS
330
47
102
}
330
47
100
AcDbScale
 70
     0
300
1/4" = 1'-0"
140
0.25
141
12.0
290
     0
  0
SCALE
  5
61
102
{ACAD_REACTORS
330
47
102
}
330
47
100
AcDbScale
 70
     0
300
3/8" = 1'-0"
140
0.375
141
12.0
290
     0
  0
SCALE
  5
62
102
{ACAD_REACTORS
330
47
102
}
330
47
100
AcDbScale
 70
     0
300
1/2" = 1'-0"
140
0.5
141
12.0
290
     0
  0
SCALE
  5
63
102
{ACAD_REACTORS
330
47
102
}
330
47
100
AcDbScale
 70
     0
300
3/4" = 1'-0"
140
0.75
141
12.0
290
     0
  0
SCALE
  5
64
102
{ACAD_REACTORS
330
47
102
}
330
47
100
AcDbScale
 70
     0
300
1" = 1'-0"
140
1.0
141
12.0
290
     0
  0
SCALE
  5
65
102
{ACAD_REACTORS
330
47
102
}
330
47
100
AcDbScale
 70
     0
300
1-1/2" = 1'-0"
140
1.5
141
12.0
290
     0
  0
SCALE
  5
66
102
{ACAD_REACTORS
330
47
102
}
330
47
100
AcDbScale
 70
     0
300
3" = 1'-0"
140
3.0
141
12.0
290
     0
  0
SCALE
  5
67
102
{ACAD_REACTORS
330
47
102
}
330
47
100
AcDbScale
 70
     0
300
6" = 1'-0"
140
6.0
141
12.0
290
     0
  0
SCALE
  5
68
102
{ACAD_REACTORS
330
47
102
}
330
47
100
AcDbScale
 70
     0
300
1'-0" = 1'-0"
140
12.0
141
12.0
290
     0
  0
ENDSEC
  0
EOF
