  0
SECTION
  2
HEADER
  9
$ACADVER
  1
AC1015
  9
$ACADMAINTVER
 70
     6
  9
$DWGCODEPAGE
  3
ANSI_1252
  9
$INSBASE
 10
0.0
 20
0.0
 30
0.0
  9
$EXTMIN
 10
-600.0
 20
-450.0
 30
0.0
  9
$EXTMAX
 10
600.0
 20
450.0
 30
0.0
  9
$LIMMIN
 10
0.0
 20
0.0
  9
$LIMMAX
 10
420.0
 20
297.0
  9
$ORTHOMODE
 70
     0
  9
$REGENMODE
 70
     1
  9
$FILLMODE
 70
     1
  9
$QTEXTMODE
 70
     0
  9
$MIRRTEXT
 70
     1
  9
$LTSCALE
 40
1.0
  9
$ATTMODE
 70
     1
  9
$TEXTSIZE
 40
3.5
  9
$TRACEWID
 40
1.0
  9
$TEXTSTYLE
  7
STANDARD
  9
$CLAYER
  8
0
  9
$CELTYPE
  6
ByLayer
  9
$CECOLOR
 62
   256
  9
$CELTSCALE
 40
1.0
  9
$DISPSILH
 70
     0
  9
$DIMSCALE
 40
1.0
  9
$DIMASZ
 40
7.4083333333
  9
$DIMEXO
 40
1.0
  9
$DIMDLI
 40
3.75
  9
$DIMRND
 40
0.0
  9
$DIMDLE
 40
0.0
  9
$DIMEXE
 40
1.0
  9
$DIMTP
 40
0.0
  9
$DIMTM
 40
0.0
  9
$DIMTXT
 40
7.0555555556
  9
$DIMCEN
 40
2.5
  9
$DIMTSZ
 40
0.0
  9
$DIMTOL
 70
     0
  9
$DIMLIM
 70
     0
  9
$DIMTIH
 70
     1
  9
$DIMTOH
 70
     1
  9
$DIMSE1
 70
     0
  9
$DIMSE2
 70
     0
  9
$DIMTAD
 70
     1
  9
$DIMZIN
 70
     0
  9
$DIMBLK
  1

  9
$DIMASO
 70
     1
  9
$DIMSHO
 70
     1
  9
$DIMPOST
  1

  9
$DIMAPOST
  1

  9
$DIMALT
 70
     0
  9
$DIMALTD
 70
     3
  9
$DIMALTF
 40
0.0393700787
  9
$DIMLFAC
 40
1.0
  9
$DIMTOFL
 70
     1
  9
$DIMTVP
 40
0.0
  9
$DIMTIX
 70
     0
  9
$DIMSOXD
 70
     0
  9
$DIMSAH
 70
     0
  9
$DIMBLK1
  1

  9
$DIMBLK2
  1

  9
$DIMSTYLE
  2
ISO-25
  9
$DIMCLRD
 70
     0
  9
$DIMCLRE
 70
     0
  9
$DIMCLRT
 70
     0
  9
$DIMTFAC
 40
1.0
  9
$DIMGAP
 40
1.524
  9
$DIMJUST
 70
     0
  9
$DIMSD1
 70
     0
  9
$DIMSD2
 70
     0
  9
$DIMTOLJ
 70
     0
  9
$DIMTZIN
 70
     0
  9
$DIMALTZ
 70
     0
  9
$DIMALTTZ
 70
     0
  9
$DIMUPT
 70
     0
  9
$DIMDEC
 70
     2
  9
$DIMTDEC
 70
     2
  9
$DIMALTU
 70
     2
  9
$DIMALTTD
 70
     3
  9
$DIMTXSTY
  7
STANDARD
  9
$DIMAUNIT
 70
     0
  9
$DIMADEC
 70
     2
  9
$DIMALTRND
 40
0.0
  9
$DIMAZIN
 70
     0
  9
$DIMDSEP
 70
    44
  9
$DIMATFIT
 70
     3
  9
$DIMFRAC
 70
     0
  9
$DIMLDRBLK
  1

  9
$DIMLUNIT
 70
     2
  9
$DIMLWD
 70
    -2
  9
$DIMLWE
 70
    -2
  9
$DIMTMOVE
 70
     0
  9
$LUNITS
 70
     2
  9
$LUPREC
 70
     2
  9
$SKETCHINC
 40
1.0
  9
$FILLETRAD
 40
10.0
  9
$AUNITS
 70
     0
  9
$AUPREC
 70
     2
  9
$MENU
  1
.
  9
$ELEVATION
 40
0.0
  9
$PELEVATION
 40
0.0
  9
$THICKNESS
 40
0.0
  9
$LIMCHECK
 70
     0
  9
$CHAMFERA
 40
0.0
  9
$CHAMFERB
 40
0.0
  9
$CHAMFERC
 40
0.0
  9
$CHAMFERD
 40
0.0
  9
$SKPOLY
 70
     0
  9
$TDCREATE
 40
2458232.484655972
  9
$TDUCREATE
 40
2458232.401322639
  9
$TDUPDATE
 40
2458232.484675185
  9
$TDUUPDATE
 40
2458232.401341852
  9
$TDINDWG
 40
0.0000000116
  9
$TDUSRTIMER
 40
0.0000000116
  9
$USRTIMER
 70
     1
  9
$ANGBASE
 50
0.0
  9
$ANGDIR
 70
     0
  9
$PDMODE
 70
     0
  9
$PDSIZE
 40
-1.0
  9
$PLINEWID
 40
0.0
  9
$SPLFRAME
 70
     0
  9
$SPLINETYPE
 70
     6
  9
$SPLINESEGS
 70
     8
  9
$HANDSEED
  5
557
  9
$SURFTAB1
 70
     6
  9
$SURFTAB2
 70
     6
  9
$SURFTYPE
 70
     6
  9
$SURFU
 70
     6
  9
$SURFV
 70
     6
  9
$UCSBASE
  2

  9
$UCSNAME
  2

  9
$UCSORG
 10
0.0
 20
0.0
 30
0.0
  9
$UCSXDIR
 10
1.0
 20
0.0
 30
0.0
  9
$UCSYDIR
 10
0.0
 20
1.0
 30
0.0
  9
$UCSORTHOREF
  2

  9
$UCSORTHOVIEW
 70
     0
  9
$UCSORGTOP
 10
0.0
 20
0.0
 30
0.0
  9
$UCSORGBOTTOM
 10
0.0
 20
0.0
 30
0.0
  9
$UCSORGLEFT
 10
0.0
 20
0.0
 30
0.0
  9
$UCSORGRIGHT
 10
0.0
 20
0.0
 30
0.0
  9
$UCSORGFRONT
 10
0.0
 20
0.0
 30
0.0
  9
$UCSORGBACK
 10
0.0
 20
0.0
 30
0.0
  9
$PUCSBASE
  2

  9
$PUCSNAME
  2

  9
$PUCSORG
 10
0.0
 20
0.0
 30
0.0
  9
$PUCSXDIR
 10
1.0
 20
0.0
 30
0.0
  9
$PUCSYDIR
 10
0.0
 20
1.0
 30
0.0
  9
$PUCSORTHOREF
  2

  9
$PUCSORTHOVIEW
 70
     0
  9
$PUCSORGTOP
 10
0.0
 20
0.0
 30
0.0
  9
$PUCSORGBOTTOM
 10
0.0
 20
0.0
 30
0.0
  9
$PUCSORGLEFT
 10
0.0
 20
0.0
 30
0.0
  9
$PUCSORGRIGHT
 10
0.0
 20
0.0
 30
0.0
  9
$PUCSORGFRONT
 10
0.0
 20
0.0
 30
0.0
  9
$PUCSORGBACK
 10
0.0
 20
0.0
 30
0.0
  9
$USERI1
 70
     0
  9
$USERI2
 70
     0
  9
$USERI3
 70
     0
  9
$USERI4
 70
     0
  9
$USERI5
 70
     0
  9
$USERR1
 40
0.0
  9
$USERR2
 40
0.0
  9
$USERR3
 40
0.0
  9
$USERR4
 40
0.0
  9
$USERR5
 40
0.0
  9
$WORLDVIEW
 70
     1
  9
$SHADEDGE
 70
     3
  9
$SHADEDIF
 70
    70
  9
$TILEMODE
 70
     1
  9
$MAXACTVP
 70
    64
  9
$PINSBASE
 10
0.0
 20
0.0
 30
0.0
  9
$PLIMCHECK
 70
     0
  9
$PEXTMIN
 10
-600.0
 20
-26.0
 30
0.0
  9
$PEXTMAX
 10
600.0
 20
35.0
 30
0.0
  9
$PLIMMIN
 10
-693.3852140078
 20
-61.0194552529
  9
$PLIMMAX
 10
693.3852140078
 20
919.5252918288
  9
$UNITMODE
 70
     0
  9
$VISRETAIN
 70
     1
  9
$PLINEGEN
 70
     0
  9
$PSLTSCALE
 70
     1
  9
$TREEDEPTH
 70
  3020
  9
$CMLSTYLE
  2
Standard
  9
$CMLJUST
 70
     0
  9
$CMLSCALE
 40
20.0
  9
$PROXYGRAPHICS
 70
     1
  9
$MEASUREMENT
 70
     1
  9
$CELWEIGHT
370
    -1
  9
$ENDCAPS
280
     0
  9
$JOINSTYLE
280
     0
  9
$LWDISPLAY
290
     1
  9
$INSUNITS
 70
     4
  9
$HYPERLINKBASE
  1

  9
$STYLESHEET
  1

  9
$XEDIT
290
     1
  9
$CEPSNTYPE
380
     0
  9
$PSTYLEMODE
290
     1
  9
$FINGERPRINTGUID
  2
{7B61EDAB-CCC4-4745-B257-093FFE1D0516}
  9
$VERSIONGUID
  2
{FAEB1C32-E019-11D5-929B-00C0DF256EC4}
  9
$EXTNAMES
290
     1
  9
$PSVPSCALE
 40
0.0
  9
$OLESTARTUP
290
     0
  0
ENDSEC
  0
SECTION
  2
CLASSES
  0
CLASS
  1
ACDBDICTIONARYWDFLT
  2
AcDbDictionaryWithDefault
  3
ObjectDBX Classes
 90
        0
280
     0
281
     0
  0
CLASS
  1
VISUALSTYLE
  2
AcDbVisualStyle
  3
ObjectDBX Classes
 90
     4095
280
     0
281
     0
  0
CLASS
  1
MATERIAL
  2
AcDbMaterial
  3
ObjectDBX Classes
 90
     1153
280
     0
281
     0
  0
CLASS
  1
SCALE
  2
AcDbScale
  3
ObjectDBX Classes
 90
     1153
280
     0
281
     0
  0
CLASS
  1
TABLESTYLE
  2
AcDbTableStyle
  3
ObjectDBX Classes
 90
     4095
280
     0
281
     0
  0
CLASS
  1
MLEADERSTYLE
  2
AcDbMLeaderStyle
  3
ACDB_MLEADERSTYLE_CLASS
 90
     4095
280
     0
281
     0
  0
CLASS
  1
SUN
  2
AcDbSun
  3
SCENEOE
 90
     1153
280
     0
281
     0
  0
CLASS
  1
ACDBPLACEHOLDER
  2
AcDbPlaceHolder
  3
ObjectDBX Classes
 90
        0
280
     0
281
     0
  0
CLASS
  1
LAYOUT
  2
AcDbLayout
  3
ObjectDBX Classes
 90
        0
280
     0
281
     0
  0
ENDSEC
  0
SECTION
  2
TABLES
  0
TABLE
  2
VPORT
  5
8
330
0
100
AcDbSymbolTable
 70
     1
  0
VPORT
  5
29
330
8
100
AcDbSymbolTableRecord
100
AcDbViewportTableRecord
  2
*Active
 70
     0
 10
0.0
 20
0.0
 11
1.0
 21
1.0
 12
0.0
 22
0.0
 13
0.0
 23
0.0
 14
10.0
 24
10.0
 15
10.0
 25
10.0
 16
0.0
 26
0.0
 36
1.0
 17
0.0
 27
0.0
 37
0.0
 40
918.0
 41
1.3333333333
 42
50.0
 43
0.0
 44
0.0
 50
0.0
 51
0.0
 71
     0
 72
   100
 73
     1
 74
     3
 75
     0
 76
     0
 77
     0
 78
     0
281
     0
 65
     1
110
0.0
120
0.0
130
0.0
111
1.0
121
0.0
131
0.0
112
0.0
122
1.0
132
0.0
 79
     0
146
0.0
  0
ENDTAB
  0
TABLE
  2
LTYPE
  5
5
330
0
100
AcDbSymbolTable
 70
     6
  0
LTYPE
  5
14
330
5
100
AcDbSymbolTableRecord
100
AcDbLinetypeTableRecord
  2
ByBlock
 70
     0
  3

 72
    65
 73
     0
 40
0.0
  0
LTYPE
  5
15
330
5
100
AcDbSymbolTableRecord
100
AcDbLinetypeTableRecord
  2
ByLayer
 70
     0
  3

 72
    65
 73
     0
 40
0.0
  0
LTYPE
  5
16
330
5
100
AcDbSymbolTableRecord
100
AcDbLinetypeTableRecord
  2
Continuous
 70
     0
  3
Solid line
 72
    65
 73
     0
 40
0.0
  0
LTYPE
  5
6E
330
5
100
AcDbSymbolTableRecord
100
AcDbLinetypeTableRecord
  2
HIDDEN
 70
     0
  3
Hidden __ __ __ __ __ __ __ __ __ __ __ __ __ __
 72
    65
 73
     2
 40
1.905
 49
1.27
 74
     0
 49
-0.635
 74
     0
  0
LTYPE
  5
6F
330
5
100
AcDbSymbolTableRecord
100
AcDbLinetypeTableRecord
  2
PHANTOM
 70
     0
  3
Phantom ______  __  __  ______  __  __  ______
 72
    65
 73
     6
 40
12.7
 49
6.35
 74
     0
 49
-1.27
 74
     0
 49
1.27
 74
     0
 49
-1.27
 74
     0
 49
1.27
 74
     0
 49
-1.27
 74
     0
  0
LTYPE
  5
70
330
5
100
AcDbSymbolTableRecord
100
AcDbLinetypeTableRecord
  2
CENTER
 70
     0
  3
Center ____ _ ____ _ ____ _ ____ _ ____ _ ____
 72
    65
 73
     4
 40
10.16
 49
6.35
 74
     0
 49
-1.27
 74
     0
 49
1.27
 74
     0
 49
-1.27
 74
     0
  0
LTYPE
  5
71
330
5
100
AcDbSymbolTableRecord
100
AcDbLinetypeTableRecord
  2
CENTERX2
 70
     0
  3
Center (2x) ________  __  ________  __  _____
 72
    65
 73
     4
 40
20.32
 49
12.7
 74
     0
 49
-2.54
 74
     0
 49
2.54
 74
     0
 49
-2.54
 74
     0
  0
LTYPE
  5
72
330
5
100
AcDbSymbolTableRecord
100
AcDbLinetypeTableRecord
  2
DOT2
 70
     0
  3
Dot (.5x) ........................................
 72
    65
 73
     2
 40
0.635
 49
0.0
 74
     0
 49
-0.635
 74
     0
  0
ENDTAB
  0
TABLE
  2
LAYER
  5
2
330
0
100
AcDbSymbolTable
 70
     1
  0
LAYER
  5
10
330
2
100
AcDbSymbolTableRecord
100
AcDbLayerTableRecord
  2
0
 70
     0
 62
     7
  6
Continuous
370
    -3
390
F
  0
ENDTAB
  0
TABLE
  2
STYLE
  5
3
330
0
100
AcDbSymbolTable
 70
     1
  0
STYLE
  5
11
330
3
100
AcDbSymbolTableRecord
100
AcDbTextStyleTableRecord
  2
STANDARD
 70
     0
 40
0.0
 41
1.0
 50
0.0
 71
     0
 42
3.5
  3
GOTHIC.TTF
  4

1001
ACAD
1000
CENTURY GOTHIC
1071
       34
  0
ENDTAB
  0
TABLE
  2
VIEW
  5
6
330
0
100
AcDbSymbolTable
 70
     0
  0
ENDTAB
  0
TABLE
  2
UCS
  5
7
330
0
100
AcDbSymbolTable
 70
     0
  0
ENDTAB
  0
TABLE
  2
APPID
  5
9
330
0
100
AcDbSymbolTable
 70
     1
  0
APPID
  5
12
330
9
100
AcDbSymbolTableRecord
100
AcDbRegAppTableRecord
  2
ACAD
 70
     0
  0
ENDTAB
  0
TABLE
  2
DIMSTYLE
  5
A
330
0
100
AcDbSymbolTable
 70
     1
100
AcDbDimStyleTable
  0
DIMSTYLE
105
27
330
A
100
AcDbSymbolTableRecord
100
AcDbDimStyleTableRecord
  2
ISO-25
 70
     0
 41
2.5
 42
0.625
 43
3.75
 44
1.25
 73
     0
 74
     0
 77
     1
 78
     8
140
2.5
141
2.5
143
0.0393700787
147
0.625
171
     3
172
     1
178
     0
271
     2
272
     2
274
     3
278
    44
283
     0
284
     8
340
11
  0
ENDTAB
  0
TABLE
  2
BLOCK_RECORD
  5
1
330
0
100
AcDbSymbolTable
 70
     8
  0
BLOCK_RECORD
  5
1F
330
1
100
AcDbSymbolTableRecord
100
AcDbBlockTableRecord
  2
*Model_Space
340
22
  0
BLOCK_RECORD
  5
1B
330
1
100
AcDbSymbolTableRecord
100
AcDbBlockTableRecord
  2
*Paper_Space
340
1E
  0
BLOCK_RECORD
  5
23
330
1
100
AcDbSymbolTableRecord
100
AcDbBlockTableRecord
  2
*Paper_Space0
340
26
  0
BLOCK_RECORD
  5
17C
330
1
100
AcDbSymbolTableRecord
100
AcDbBlockTableRecord
  2
*Paper_Space1
340
17D
  0
BLOCK_RECORD
  5
1A6
330
1
100
AcDbSymbolTableRecord
100
AcDbBlockTableRecord
  2
*Paper_Space2
340
1A7
  0
BLOCK_RECORD
  5
1D0
330
1
100
AcDbSymbolTableRecord
100
AcDbBlockTableRecord
  2
*Paper_Space3
340
1D1
  0
BLOCK_RECORD
  5
1FA
330
1
100
AcDbSymbolTableRecord
100
AcDbBlockTableRecord
  2
*Paper_Space4
340
1FB
  0
BLOCK_RECORD
  5
23F
330
1
100
AcDbSymbolTableRecord
100
AcDbBlockTableRecord
  2
*Paper_Space5
340
240
  0
BLOCK_RECORD
  5
35A
330
1
100
AcDbSymbolTableRecord
100
AcDbBlockTableRecord
  2
*Paper_Space6
340
35B
  0
BLOCK_RECORD
  5
460
330
1
100
AcDbSymbolTableRecord
100
AcDbBlockTableRecord
  2
*Paper_Space7
340
461
  0
ENDTAB
  0
ENDSEC
  0
SECTION
  2
BLOCKS
  0
BLOCK
  5
20
330
1F
100
AcDbEntity
  8
0
100
AcDbBlockBegin
  2
*Model_Space
 70
     0
 10
0.0
 20
0.0
 30
0.0
  3
*Model_Space
  1

  0
ENDBLK
  5
21
330
1F
100
AcDbEntity
  8
0
100
AcDbBlockEnd
  0
BLOCK
  5
1C
330
1B
100
AcDbEntity
 67
     1
  8
0
100
AcDbBlockBegin
  2
*Paper_Space
 70
     0
 10
0.0
 20
0.0
 30
0.0
  3
*Paper_Space
  1

  0
ENDBLK
  5
1D
330
1B
100
AcDbEntity
 67
     1
  8
0
100
AcDbBlockEnd
  0
BLOCK
  5
24
330
23
100
AcDbEntity
  8
0
100
AcDbBlockBegin
  2
*Paper_Space0
 70
     0
 10
0.0
 20
0.0
 30
0.0
  3
*Paper_Space0
  1

  0
LWPOLYLINE
  5
15B
330
23
100
AcDbEntity
  8
0
  6
Continuous
 62
     7
370
    25
100
AcDbPolyline
 90
        9
 70
   128
 43
0.0
 10
-447.0
 20
35.0
 10
-447.195090322
 20
34.9423558412
 10
-447.3826834324
 20
34.7716385975
 10
-447.555570233
 20
34.4944088369
 10
-447.7071067812
 20
34.1213203436
 10
-447.8314696123
 20
33.6667106991
 10
-447.9238795325
 20
33.1480502971
 10
-447.9807852804
 20
32.585270966
 10
-448.0
 20
32.0
  0
LWPOLYLINE
  5
15F
330
23
100
AcDbEntity
  8
0
  6
Continuous
 62
     7
370
    25
100
AcDbPolyline
 90
        9
 70
   128
 43
0.0
 10
448.0
 20
32.0
 10
447.9807852804
 20
32.585270966
 10
447.9238795325
 20
33.1480502971
 10
447.8314696123
 20
33.6667106991
 10
447.7071067812
 20
34.1213203436
 10
447.555570233
 20
34.4944088369
 10
447.3826834324
 20
34.7716385975
 10
447.195090322
 20
34.9423558412
 10
447.0
 20
35.0
  0
LINE
  5
16D
330
23
100
AcDbEntity
  8
0
  6
Continuous
 62
     7
370
    25
100
AcDbLine
 10
130.0
 20
-26.0
 30
0.0
 11
130.0
 21
0.0
 31
0.0
  0
LINE
  5
16E
330
23
100
AcDbEntity
  8
0
  6
Continuous
 62
     7
370
    25
100
AcDbLine
 10
130.0
 20
-26.0
 30
0.0
 11
-130.0
 21
-26.0
 31
0.0
  0
LINE
  5
16F
330
23
100
AcDbEntity
  8
0
  6
Continuous
 62
     7
370
    25
100
AcDbLine
 10
-130.0
 20
-26.0
 30
0.0
 11
-130.0
 21
0.0
 31
0.0
  0
LINE
  5
170
330
23
100
AcDbEntity
  8
0
  6
Continuous
 62
     7
370
    25
100
AcDbLine
 10
450.0
 20
32.0
 30
0.0
 11
-450.0
 21
32.0
 31
0.0
  0
LINE
  5
171
330
23
100
AcDbEntity
  8
0
  6
Continuous
 62
     7
370
    25
100
AcDbLine
 10
-450.0
 20
2.0
 30
0.0
 11
-450.0
 21
32.0
 31
0.0
  0
LINE
  5
172
330
23
100
AcDbEntity
  8
0
  6
Continuous
 62
     7
370
    25
100
AcDbLine
 10
-448.0
 20
32.0
 30
0.0
 11
-448.0
 21
0.0
 31
0.0
  0
LINE
  5
173
330
23
100
AcDbEntity
  8
0
  6
Continuous
 62
     7
370
    25
100
AcDbLine
 10
-450.0
 20
2.0
 30
0.0
 11
450.0
 21
2.0
 31
0.0
  0
LINE
  5
174
330
23
100
AcDbEntity
  8
0
  6
Continuous
 62
     7
370
    25
100
AcDbLine
 10
-447.0
 20
35.0
 30
0.0
 11
447.0
 21
35.0
 31
0.0
  0
LINE
  5
175
330
23
100
AcDbEntity
  8
0
  6
Continuous
 62
     7
370
    25
100
AcDbLine
 10
448.0
 20
0.0
 30
0.0
 11
448.0
 21
32.0
 31
0.0
  0
LINE
  5
176
330
23
100
AcDbEntity
  8
0
  6
Continuous
 62
     7
370
    25
100
AcDbLine
 10
450.0
 20
32.0
 30
0.0
 11
450.0
 21
2.0
 31
0.0
  0
LINE
  5
177
330
23
100
AcDbEntity
  8
0
  6
Continuous
 62
     7
370
    25
100
AcDbLine
 10
448.0
 20
0.0
 30
0.0
 11
-448.0
 21
0.0
 31
0.0
  0
ARC
  5
178
330
23
100
AcDbEntity
  8
0
  6
Continuous
 62
     7
370
    25
100
AcDbCircle
 10
-447.0
 20
32.0
 30
0.0
 40
3.0
100
AcDbArc
 50
90.0
 51
180.0
  0
ARC
  5
179
330
23
100
AcDbEntity
  8
0
  6
Continuous
 62
     7
370
    25
100
AcDbCircle
 10
447.0
 20
32.0
 30
0.0
 40
3.0
100
AcDbArc
 50
0.0
 51
90.0
  0
ARC
  5
17A
330
23
100
AcDbEntity
  8
0
  6
Continuous
 62
     7
370
    25
100
AcDbCircle
 10
-448.0
 20
2.0
 30
0.0
 40
2.0
100
AcDbArc
 50
180.0
 51
270.0
  0
ARC
  5
17B
330
23
100
AcDbEntity
  8
0
  6
Continuous
 62
     7
370
    25
100
AcDbCircle
 10
448.0
 20
2.0
 30
0.0
 40
2.000000000000003
100
AcDbArc
 50
270.0
 51
0.0
  0
VIEWPORT
  5
547
330
23
100
AcDbEntity
  8
0
100
AcDbViewport
 10
0.0
 20
0.0
 30
0.0
 40
205.6
 41
156.0
 68
     1
 69
     1
 12
0.0
 22
0.0
 13
0.0
 23
0.0
 14
10.0
 24
10.0
 15
10.0
 25
10.0
 16
0.0
 26
0.0
 36
1.0
 17
0.0
 27
0.0
 37
0.0
 42
50.0
 43
0.0
 44
0.0
 45
928.7159533074
 50
0.0
 51
0.0
 72
   100
 90
   557152
  1

281
     0
 71
     1
 74
     0
110
0.0
120
0.0
130
0.0
111
1.0
121
0.0
131
0.0
112
0.0
122
1.0
132
0.0
 79
     0
146
0.0
  0
ENDBLK
  5
25
330
23
100
AcDbEntity
  8
0
100
AcDbBlockEnd
  0
BLOCK
  5
17E
330
17C
100
AcDbEntity
  8
0
100
AcDbBlockBegin
  2
*Paper_Space1
 70
     0
 10
0.0
 20
0.0
 30
0.0
  3
*Paper_Space1
  1

  0
LWPOLYLINE
  5
184
330
17C
100
AcDbEntity
  8
0
  6
Continuous
 62
     7
370
    25
100
AcDbPolyline
 90
        9
 70
   128
 43
0.0
 10
598.0
 20
32.0
 10
597.9807852804
 20
32.585270966
 10
597.9238795325
 20
33.1480502971
 10
597.8314696123
 20
33.6667106991
 10
597.7071067812
 20
34.1213203436
 10
597.555570233
 20
34.4944088369
 10
597.3826834324
 20
34.7716385975
 10
597.195090322
 20
34.9423558412
 10
597.0
 20
35.0
  0
LWPOLYLINE
  5
18F
330
17C
100
AcDbEntity
  8
0
  6
Continuous
 62
     7
370
    25
100
AcDbPolyline
 90
        9
 70
   128
 43
0.0
 10
-597.0
 20
35.0
 10
-597.195090322
 20
34.9423558412
 10
-597.3826834324
 20
34.7716385975
 10
-597.555570233
 20
34.4944088369
 10
-597.7071067812
 20
34.1213203436
 10
-597.8314696123
 20
33.6667106991
 10
-597.9238795325
 20
33.1480502971
 10
-597.9807852804
 20
32.585270966
 10
-598.0
 20
32.0
  0
LINE
  5
197
330
17C
100
AcDbEntity
  8
0
  6
Continuous
 62
     7
370
    25
100
AcDbLine
 10
-220.0
 20
-26.0
 30
0.0
 11
-220.0
 21
0.0
 31
0.0
  0
LINE
  5
198
330
17C
100
AcDbEntity
  8
0
  6
Continuous
 62
     7
370
    25
100
AcDbLine
 10
-220.0
 20
-26.0
 30
0.0
 11
-480.0
 21
-26.0
 31
0.0
  0
LINE
  5
199
330
17C
100
AcDbEntity
  8
0
  6
Continuous
 62
     7
370
    25
100
AcDbLine
 10
-480.0
 20
-26.0
 30
0.0
 11
-480.0
 21
0.0
 31
0.0
  0
LINE
  5
19A
330
17C
100
AcDbEntity
  8
0
  6
Continuous
 62
     7
370
    25
100
AcDbLine
 10
600.0
 20
32.0
 30
0.0
 11
-600.0
 21
32.0
 31
0.0
  0
LINE
  5
19B
330
17C
100
AcDbEntity
  8
0
  6
Continuous
 62
     7
370
    25
100
AcDbLine
 10
598.0
 20
0.0
 30
0.0
 11
598.0
 21
32.0
 31
0.0
  0
LINE
  5
19C
330
17C
100
AcDbEntity
  8
0
  6
Continuous
 62
     7
370
    25
100
AcDbLine
 10
600.0
 20
32.0
 30
0.0
 11
600.0
 21
2.0
 31
0.0
  0
LINE
  5
19D
330
17C
100
AcDbEntity
  8
0
  6
Continuous
 62
     7
370
    25
100
AcDbLine
 10
-600.0
 20
2.0
 30
0.0
 11
600.0
 21
2.0
 31
0.0
  0
LINE
  5
19E
330
17C
100
AcDbEntity
  8
0
  6
Continuous
 62
     7
370
    25
100
AcDbLine
 10
-598.0
 20
32.0
 30
0.0
 11
-598.0
 21
0.0
 31
0.0
  0
LINE
  5
19F
330
17C
100
AcDbEntity
  8
0
  6
Continuous
 62
     7
370
    25
100
AcDbLine
 10
598.0
 20
0.0
 30
0.0
 11
-598.0
 21
0.0
 31
0.0
  0
LINE
  5
1A0
330
17C
100
AcDbEntity
  8
0
  6
Continuous
 62
     7
370
    25
100
AcDbLine
 10
-597.0
 20
35.0
 30
0.0
 11
597.0
 21
35.0
 31
0.0
  0
LINE
  5
1A1
330
17C
100
AcDbEntity
  8
0
  6
Continuous
 62
     7
370
    25
100
AcDbLine
 10
-600.0
 20
2.0
 30
0.0
 11
-600.0
 21
32.0
 31
0.0
  0
ARC
  5
1A2
330
17C
100
AcDbEntity
  8
0
  6
Continuous
 62
     7
370
    25
100
AcDbCircle
 10
597.0
 20
32.0
 30
0.0
 40
3.000000000000131
100
AcDbArc
 50
0.0
 51
90.0
  0
ARC
  5
1A3
330
17C
100
AcDbEntity
  8
0
  6
Continuous
 62
     7
370
    25
100
AcDbCircle
 10
-597.0
 20
32.0
 30
0.0
 40
3.000000000000131
100
AcDbArc
 50
90.0
 51
180.0
  0
ARC
  5
1A4
330
17C
100
AcDbEntity
  8
0
  6
Continuous
 62
     7
370
    25
100
AcDbCircle
 10
598.0
 20
2.0
 30
0.0
 40
2.000000000000114
100
AcDbArc
 50
270.0
 51
360.0
  0
ARC
  5
1A5
330
17C
100
AcDbEntity
  8
0
  6
Continuous
 62
     7
370
    25
100
AcDbCircle
 10
-598.0
 20
2.0
 30
0.0
 40
2.000000000000114
100
AcDbArc
 50
180.0
 51
270.0
  0
VIEWPORT
  5
549
330
17C
100
AcDbEntity
  8
0
100
AcDbViewport
 10
0.0
 20
0.0
 30
0.0
 40
205.6
 41
156.0
 68
     1
 69
     1
 12
0.0
 22
0.0
 13
0.0
 23
0.0
 14
10.0
 24
10.0
 15
10.0
 25
10.0
 16
0.0
 26
0.0
 36
1.0
 17
0.0
 27
0.0
 37
0.0
 42
50.0
 43
0.0
 44
0.0
 45
928.7159533074
 50
0.0
 51
0.0
 72
   100
 90
   557152
  1

281
     0
 71
     1
 74
     0
110
0.0
120
0.0
130
0.0
111
1.0
121
0.0
131
0.0
112
0.0
122
1.0
132
0.0
 79
     0
146
0.0
  0
ENDBLK
  5
17F
330
17C
100
AcDbEntity
  8
0
100
AcDbBlockEnd
  0
BLOCK
  5
1A8
330
1A6
100
AcDbEntity
  8
0
100
AcDbBlockBegin
  2
*Paper_Space2
 70
     0
 10
0.0
 20
0.0
 30
0.0
  3
*Paper_Space2
  1

  0
LWPOLYLINE
  5
1AD
330
1A6
100
AcDbEntity
  8
0
  6
Continuous
 62
     7
370
    25
100
AcDbPolyline
 90
        9
 70
   128
 43
0.0
 10
598.0
 20
32.0
 10
597.9807852804
 20
32.585270966
 10
597.9238795325
 20
33.1480502971
 10
597.8314696123
 20
33.6667106991
 10
597.7071067812
 20
34.1213203436
 10
597.555570233
 20
34.4944088369
 10
597.3826834324
 20
34.7716385975
 10
597.195090322
 20
34.9423558412
 10
597.0
 20
35.0
  0
LWPOLYLINE
  5
1AF
330
1A6
100
AcDbEntity
  8
0
  6
Continuous
 62
     7
370
    25
100
AcDbPolyline
 90
        9
 70
   128
 43
0.0
 10
-597.0
 20
35.0
 10
-597.195090322
 20
34.9423558412
 10
-597.3826834324
 20
34.7716385975
 10
-597.555570233
 20
34.4944088369
 10
-597.7071067812
 20
34.1213203436
 10
-597.8314696123
 20
33.6667106991
 10
-597.9238795325
 20
33.1480502971
 10
-597.9807852804
 20
32.585270966
 10
-598.0
 20
32.0
  0
LINE
  5
1C1
330
1A6
100
AcDbEntity
  8
0
  6
Continuous
 62
     7
370
    25
100
AcDbLine
 10
220.0
 20
-26.0
 30
0.0
 11
220.0
 21
0.0
 31
0.0
  0
LINE
  5
1C2
330
1A6
100
AcDbEntity
  8
0
  6
Continuous
 62
     7
370
    25
100
AcDbLine
 10
480.0
 20
-26.0
 30
0.0
 11
480.0
 21
0.0
 31
0.0
  0
LINE
  5
1C3
330
1A6
100
AcDbEntity
  8
0
  6
Continuous
 62
     7
370
    25
100
AcDbLine
 10
480.0
 20
-26.0
 30
0.0
 11
220.0
 21
-26.0
 31
0.0
  0
LINE
  5
1C4
330
1A6
100
AcDbEntity
  8
0
  6
Continuous
 62
     7
370
    25
100
AcDbLine
 10
600.0
 20
32.0
 30
0.0
 11
-600.0
 21
32.0
 31
0.0
  0
LINE
  5
1C5
330
1A6
100
AcDbEntity
  8
0
  6
Continuous
 62
     7
370
    25
100
AcDbLine
 10
-597.0
 20
35.0
 30
0.0
 11
597.0
 21
35.0
 31
0.0
  0
LINE
  5
1C6
330
1A6
100
AcDbEntity
  8
0
  6
Continuous
 62
     7
370
    25
100
AcDbLine
 10
600.0
 20
32.0
 30
0.0
 11
600.0
 21
2.0
 31
0.0
  0
LINE
  5
1C7
330
1A6
100
AcDbEntity
  8
0
  6
Continuous
 62
     7
370
    25
100
AcDbLine
 10
-600.0
 20
2.0
 30
0.0
 11
600.0
 21
2.0
 31
0.0
  0
LINE
  5
1C8
330
1A6
100
AcDbEntity
  8
0
  6
Continuous
 62
     7
370
    25
100
AcDbLine
 10
598.0
 20
0.0
 30
0.0
 11
598.0
 21
32.0
 31
0.0
  0
LINE
  5
1C9
330
1A6
100
AcDbEntity
  8
0
  6
Continuous
 62
     7
370
    25
100
AcDbLine
 10
-598.0
 20
32.0
 30
0.0
 11
-598.0
 21
0.0
 31
0.0
  0
LINE
  5
1CA
330
1A6
100
AcDbEntity
  8
0
  6
Continuous
 62
     7
370
    25
100
AcDbLine
 10
-600.0
 20
2.0
 30
0.0
 11
-600.0
 21
32.0
 31
0.0
  0
LINE
  5
1CB
330
1A6
100
AcDbEntity
  8
0
  6
Continuous
 62
     7
370
    25
100
AcDbLine
 10
598.0
 20
0.0
 30
0.0
 11
-598.0
 21
0.0
 31
0.0
  0
ARC
  5
1CC
330
1A6
100
AcDbEntity
  8
0
  6
Continuous
 62
     7
370
    25
100
AcDbCircle
 10
597.0
 20
32.0
 30
0.0
 40
3.000000000000131
100
AcDbArc
 50
0.0
 51
90.0
  0
ARC
  5
1CD
330
1A6
100
AcDbEntity
  8
0
  6
Continuous
 62
     7
370
    25
100
AcDbCircle
 10
-597.0
 20
32.0
 30
0.0
 40
3.000000000000131
100
AcDbArc
 50
90.0
 51
180.0
  0
ARC
  5
1CE
330
1A6
100
AcDbEntity
  8
0
  6
Continuous
 62
     7
370
    25
100
AcDbCircle
 10
598.0
 20
2.0
 30
0.0
 40
2.000000000000114
100
AcDbArc
 50
270.0
 51
360.0
  0
ARC
  5
1CF
330
1A6
100
AcDbEntity
  8
0
  6
Continuous
 62
     7
370
    25
100
AcDbCircle
 10
-598.0
 20
2.0
 30
0.0
 40
2.000000000000114
100
AcDbArc
 50
180.0
 51
270.0
  0
VIEWPORT
  5
54B
330
1A6
100
AcDbEntity
  8
0
100
AcDbViewport
 10
0.0
 20
0.0
 30
0.0
 40
205.6
 41
156.0
 68
     1
 69
     1
 12
0.0
 22
0.0
 13
0.0
 23
0.0
 14
10.0
 24
10.0
 15
10.0
 25
10.0
 16
0.0
 26
0.0
 36
1.0
 17
0.0
 27
0.0
 37
0.0
 42
50.0
 43
0.0
 44
0.0
 45
928.7159533074
 50
0.0
 51
0.0
 72
   100
 90
   557152
  1

281
     0
 71
     1
 74
     0
110
0.0
120
0.0
130
0.0
111
1.0
121
0.0
131
0.0
112
0.0
122
1.0
132
0.0
 79
     0
146
0.0
  0
ENDBLK
  5
1A9
330
1A6
100
AcDbEntity
  8
0
100
AcDbBlockEnd
  0
BLOCK
  5
1D2
330
1D0
100
AcDbEntity
  8
0
100
AcDbBlockBegin
  2
*Paper_Space3
 70
     0
 10
0.0
 20
0.0
 30
0.0
  3
*Paper_Space3
  1

  0
LWPOLYLINE
  5
1D7
330
1D0
100
AcDbEntity
  8
0
  6
Continuous
 62
     7
370
    25
100
AcDbPolyline
 90
        9
 70
   128
 43
0.0
 10
-447.0
 20
35.0
 10
-447.195090322
 20
34.9423558412
 10
-447.3826834324
 20
34.7716385975
 10
-447.555570233
 20
34.4944088369
 10
-447.7071067812
 20
34.1213203436
 10
-447.8314696123
 20
33.6667106991
 10
-447.9238795325
 20
33.1480502971
 10
-447.9807852804
 20
32.585270966
 10
-448.0
 20
32.0
  0
LWPOLYLINE
  5
1D9
330
1D0
100
AcDbEntity
  8
0
  6
Continuous
 62
     7
370
    25
100
AcDbPolyline
 90
       10
 70
   128
 43
0.0
 10
448.0
 20
32.0
 10
447.984807753
 20
32.520944533
 10
447.9396926208
 20
33.02606043
 10
447.8660254038
 20
33.5
 10
447.7660444431
 20
33.9283628291
 10
447.6427876097
 20
34.2981333294
 10
447.5
 20
34.5980762114
 10
447.3420201433
 20
34.8190778624
 10
447.1736481777
 20
34.954423259
 10
447.0
 20
35.0
  0
LINE
  5
1EB
330
1D0
100
AcDbEntity
  8
0
  6
Continuous
 62
     7
370
    25
100
AcDbLine
 10
-130.0
 20
-26.0
 30
0.0
 11
-130.0
 21
0.0
 31
0.0
  0
LINE
  5
1EC
330
1D0
100
AcDbEntity
  8
0
  6
Continuous
 62
     7
370
    25
100
AcDbLine
 10
130.0
 20
-26.0
 30
0.0
 11
-130.0
 21
-26.0
 31
0.0
  0
LINE
  5
1ED
330
1D0
100
AcDbEntity
  8
0
  6
Continuous
 62
     7
370
    25
100
AcDbLine
 10
130.0
 20
-26.0
 30
0.0
 11
130.0
 21
0.0
 31
0.0
  0
LINE
  5
1EE
330
1D0
100
AcDbEntity
  8
0
  6
Continuous
 62
     7
370
    25
100
AcDbLine
 10
-447.0
 20
35.0
 30
0.0
 11
447.0
 21
35.0
 31
0.0
  0
LINE
  5
1EF
330
1D0
100
AcDbEntity
  8
0
  6
Continuous
 62
     7
370
    25
100
AcDbLine
 10
450.0
 20
32.0
 30
0.0
 11
-450.0
 21
32.0
 31
0.0
  0
LINE
  5
1F0
330
1D0
100
AcDbEntity
  8
0
  6
Continuous
 62
     7
370
    25
100
AcDbLine
 10
-448.0
 20
32.0
 30
0.0
 11
-448.0
 21
0.0
 31
0.0
  0
LINE
  5
1F1
330
1D0
100
AcDbEntity
  8
0
  6
Continuous
 62
     7
370
    25
100
AcDbLine
 10
448.0
 20
0.0
 30
0.0
 11
448.0
 21
32.0
 31
0.0
  0
LINE
  5
1F2
330
1D0
100
AcDbEntity
  8
0
  6
Continuous
 62
     7
370
    25
100
AcDbLine
 10
-450.0
 20
2.0
 30
0.0
 11
450.0
 21
2.0
 31
0.0
  0
LINE
  5
1F3
330
1D0
100
AcDbEntity
  8
0
  6
Continuous
 62
     7
370
    25
100
AcDbLine
 10
-450.0
 20
2.0
 30
0.0
 11
-450.0
 21
32.0
 31
0.0
  0
LINE
  5
1F4
330
1D0
100
AcDbEntity
  8
0
  6
Continuous
 62
     7
370
    25
100
AcDbLine
 10
448.0
 20
0.0
 30
0.0
 11
-448.0
 21
0.0
 31
0.0
  0
LINE
  5
1F5
330
1D0
100
AcDbEntity
  8
0
  6
Continuous
 62
     7
370
    25
100
AcDbLine
 10
450.0
 20
32.0
 30
0.0
 11
450.0
 21
2.0
 31
0.0
  0
ARC
  5
1F6
330
1D0
100
AcDbEntity
  8
0
  6
Continuous
 62
     7
370
    25
100
AcDbCircle
 10
-447.0
 20
32.0
 30
0.0
 40
3.0
100
AcDbArc
 50
90.0
 51
180.0
  0
ARC
  5
1F7
330
1D0
100
AcDbEntity
  8
0
  6
Continuous
 62
     7
370
    25
100
AcDbCircle
 10
-448.0
 20
2.0
 30
0.0
 40
2.000000000000003
100
AcDbArc
 50
180.0
 51
270.0
  0
ARC
  5
1F8
330
1D0
100
AcDbEntity
  8
0
  6
Continuous
 62
     7
370
    25
100
AcDbCircle
 10
447.0
 20
32.0
 30
0.0
 40
3.0
100
AcDbArc
 50
0.0
 51
90.0
  0
ARC
  5
1F9
330
1D0
100
AcDbEntity
  8
0
  6
Continuous
 62
     7
370
    25
100
AcDbCircle
 10
448.0
 20
2.0
 30
0.0
 40
2.0
100
AcDbArc
 50
270.0
 51
0.0
  0
VIEWPORT
  5
54D
330
1D0
100
AcDbEntity
  8
0
100
AcDbViewport
 10
0.0
 20
0.0
 30
0.0
 40
205.6
 41
156.0
 68
     1
 69
     1
 12
0.0
 22
0.0
 13
0.0
 23
0.0
 14
10.0
 24
10.0
 15
10.0
 25
10.0
 16
0.0
 26
0.0
 36
1.0
 17
0.0
 27
0.0
 37
0.0
 42
50.0
 43
0.0
 44
0.0
 45
928.7159533074
 50
0.0
 51
0.0
 72
   100
 90
   557152
  1

281
     0
 71
     1
 74
     0
110
0.0
120
0.0
130
0.0
111
1.0
121
0.0
131
0.0
112
0.0
122
1.0
132
0.0
 79
     0
146
0.0
  0
ENDBLK
  5
1D3
330
1D0
100
AcDbEntity
  8
0
100
AcDbBlockEnd
  0
BLOCK
  5
1FC
330
1FA
100
AcDbEntity
  8
0
100
AcDbBlockBegin
  2
*Paper_Space4
 70
     0
 10
0.0
 20
0.0
 30
0.0
  3
*Paper_Space4
  1

  0
CIRCLE
  5
20B
330
1FA
100
AcDbEntity
  8
0
  6
Continuous
 62
     7
370
    25
100
AcDbCircle
 10
-350.0
 20
0.0
 30
0.0
 40
44.99999999999999
  0
LINE
  5
223
330
1FA
100
AcDbEntity
  8
0
  6
Continuous
 62
     7
370
    25
100
AcDbLine
 10
-384.5222751082
 20
-28.8654208587
 30
0.0
 11
-375.0
 21
-19.3431457505
 31
0.0
  0
LINE
  5
224
330
1FA
100
AcDbEntity
  8
0
  6
Continuous
 62
     7
370
    25
100
AcDbLine
 10
-375.0
 20
-19.3431457505
 30
0.0
 11
-375.0
 21
19.3431457505
 31
0.0
  0
LINE
  5
225
330
1FA
100
AcDbEntity
  8
0
  6
Continuous
 62
     7
370
    25
100
AcDbLine
 10
-375.0
 20
19.3431457505
 30
0.0
 11
-384.5222751082
 21
28.8654208587
 31
0.0
  0
LINE
  5
226
330
1FA
100
AcDbEntity
  8
0
  6
Continuous
 62
     7
370
    25
100
AcDbLine
 10
-369.3431457505
 20
25.0
 30
0.0
 11
-330.6568542495
 21
25.0
 31
0.0
  0
LINE
  5
227
330
1FA
100
AcDbEntity
  8
0
  6
Continuous
 62
     7
370
    25
100
AcDbLine
 10
-378.8654208587
 20
34.5222751082
 30
0.0
 11
-369.3431457505
 21
25.0
 31
0.0
  0
LINE
  5
228
330
1FA
100
AcDbEntity
  8
0
  6
Continuous
 62
     7
370
    25
100
AcDbLine
 10
-321.1345791413
 20
-34.5222751082
 30
0.0
 11
-330.6568542495
 21
-25.0
 31
0.0
  0
LINE
  5
229
330
1FA
100
AcDbEntity
  8
0
  6
Continuous
 62
     7
370
    25
100
AcDbLine
 10
-325.0
 20
-19.3431457505
 30
0.0
 11
-315.4777248918
 21
-28.8654208587
 31
0.0
  0
LINE
  5
22A
330
1FA
100
AcDbEntity
  8
0
  6
Continuous
 62
     7
370
    25
100
AcDbLine
 10
-325.0
 20
19.3431457505
 30
0.0
 11
-325.0
 21
-19.3431457505
 31
0.0
  0
LINE
  5
22B
330
1FA
100
AcDbEntity
  8
0
  6
Continuous
 62
     7
370
    25
100
AcDbLine
 10
-330.6568542495
 20
-25.0
 30
0.0
 11
-369.3431457505
 21
-25.0
 31
0.0
  0
LINE
  5
22C
330
1FA
100
AcDbEntity
  8
0
  6
Continuous
 62
     7
370
    25
100
AcDbLine
 10
-330.6568542495
 20
25.0
 30
0.0
 11
-321.1345791413
 21
34.5222751082
 31
0.0
  0
LINE
  5
22D
330
1FA
100
AcDbEntity
  8
0
  6
Continuous
 62
     7
370
    25
100
AcDbLine
 10
-315.4777248918
 20
28.8654208587
 30
0.0
 11
-325.0
 21
19.3431457505
 31
0.0
  0
LINE
  5
22E
330
1FA
100
AcDbEntity
  8
0
  6
Continuous
 62
     7
370
    25
100
AcDbLine
 10
-369.3431457505
 20
-25.0
 30
0.0
 11
-378.8654208587
 21
-34.5222751082
 31
0.0
  0
LINE
  5
22F
330
1FA
100
AcDbEntity
  8
0
  6
Continuous
 62
     7
370
    25
100
AcDbLine
 10
-220.0
 20
-130.0
 30
0.0
 11
-220.0
 21
130.0
 31
0.0
  0
LINE
  5
230
330
1FA
100
AcDbEntity
  8
0
  6
Continuous
 62
     7
370
    25
100
AcDbLine
 10
-480.0
 20
-130.0
 30
0.0
 11
-220.0
 21
-130.0
 31
0.0
  0
LINE
  5
231
330
1FA
100
AcDbEntity
  8
0
  6
Continuous
 62
     7
370
    25
100
AcDbLine
 10
-480.0
 20
130.0
 30
0.0
 11
-480.0
 21
-130.0
 31
0.0
  0
LINE
  5
232
330
1FA
100
AcDbEntity
  8
0
  6
Continuous
 62
     7
370
    25
100
AcDbLine
 10
-220.0
 20
130.0
 30
0.0
 11
-480.0
 21
130.0
 31
0.0
  0
LINE
  5
233
330
1FA
100
AcDbEntity
  8
0
  6
Continuous
 62
     7
370
    25
100
AcDbLine
 10
-600.0
 20
-448.0
 30
0.0
 11
-600.0
 21
448.0
 31
0.0
  0
LINE
  5
234
330
1FA
100
AcDbEntity
  8
0
  6
Continuous
 62
     7
370
    25
100
AcDbLine
 10
-598.0
 20
450.0
 30
0.0
 11
-598.0
 21
-450.0
 31
0.0
  0
LINE
  5
235
330
1FA
100
AcDbEntity
  8
0
  6
Continuous
 62
     7
370
    25
100
AcDbLine
 10
-600.0
 20
-448.0
 30
0.0
 11
600.0
 21
-448.0
 31
0.0
  0
LINE
  5
236
330
1FA
100
AcDbEntity
  8
0
  6
Continuous
 62
     7
370
    25
100
AcDbLine
 10
598.0
 20
-450.0
 30
0.0
 11
598.0
 21
450.0
 31
0.0
  0
LINE
  5
237
330
1FA
100
AcDbEntity
  8
0
  6
Continuous
 62
     7
370
    25
100
AcDbLine
 10
600.0
 20
448.0
 30
0.0
 11
-600.0
 21
448.0
 31
0.0
  0
LINE
  5
238
330
1FA
100
AcDbEntity
  8
0
  6
Continuous
 62
     7
370
    25
100
AcDbLine
 10
600.0
 20
448.0
 30
0.0
 11
600.0
 21
-448.0
 31
0.0
  0
LINE
  5
239
330
1FA
100
AcDbEntity
  8
0
  6
Continuous
 62
     7
370
    25
100
AcDbLine
 10
-598.0
 20
450.0
 30
0.0
 11
598.0
 21
450.0
 31
0.0
  0
LINE
  5
23A
330
1FA
100
AcDbEntity
  8
0
  6
Continuous
 62
     7
370
    25
100
AcDbLine
 10
598.0
 20
-450.0
 30
0.0
 11
-598.0
 21
-450.0
 31
0.0
  0
ARC
  5
23B
330
1FA
100
AcDbEntity
  8
0
  6
Continuous
 62
     7
370
    25
100
AcDbCircle
 10
598.0
 20
-448.0
 30
0.0
 40
2.000000000000114
100
AcDbArc
 50
270.0
 51
0.0
  0
ARC
  5
23C
330
1FA
100
AcDbEntity
  8
0
  6
Continuous
 62
     7
370
    25
100
AcDbCircle
 10
-598.0
 20
-448.0
 30
0.0
 40
2.000000000000171
100
AcDbArc
 50
180.0
 51
270.0
  0
ARC
  5
23D
330
1FA
100
AcDbEntity
  8
0
  6
Continuous
 62
     7
370
    25
100
AcDbCircle
 10
-598.0
 20
448.0
 30
0.0
 40
2.000000000000114
100
AcDbArc
 50
90.0
 51
180.0
  0
ARC
  5
23E
330
1FA
100
AcDbEntity
  8
0
  6
Continuous
 62
     7
370
    25
100
AcDbCircle
 10
598.0
 20
448.0
 30
0.0
 40
2.000000000000114
100
AcDbArc
 50
0.0
 51
90.0
  0
VIEWPORT
  5
54F
330
1FA
100
AcDbEntity
  8
0
100
AcDbViewport
 10
0.0
 20
0.0
 30
0.0
 40
205.6
 41
156.0
 68
     1
 69
     1
 12
0.0
 22
0.0
 13
0.0
 23
0.0
 14
10.0
 24
10.0
 15
10.0
 25
10.0
 16
0.0
 26
0.0
 36
1.0
 17
0.0
 27
0.0
 37
0.0
 42
50.0
 43
0.0
 44
0.0
 45
928.7159533074
 50
0.0
 51
0.0
 72
   100
 90
   557152
  1

281
     0
 71
     1
 74
     0
110
0.0
120
0.0
130
0.0
111
1.0
121
0.0
131
0.0
112
0.0
122
1.0
132
0.0
 79
     0
146
0.0
  0
ENDBLK
  5
1FD
330
1FA
100
AcDbEntity
  8
0
100
AcDbBlockEnd
  0
BLOCK
  5
241
330
23F
100
AcDbEntity
  8
0
100
AcDbBlockBegin
  2
*Paper_Space5
 70
     0
 10
0.0
 20
0.0
 30
0.0
  3
*Paper_Space5
  1

  0
SPLINE
  5
243
330
23F
100
AcDbEntity
  8
0
  6
Continuous
 62
     7
370
    25
100
AcDbSpline
210
0.0
220
0.0
230
1.0
 70
     8
 71
     3
 72
    11
 73
     7
 74
     0
 42
0.000000001
 43
0.00000001
 40
0.0
 40
0.0
 40
0.0
 40
0.0
 40
0.2438012075581958
 40
0.4975881424392199
 40
0.7519726422522931
 40
1.0
 40
1.0
 40
1.0
 40
1.0
 10
-150.576639016958
 20
157.5695481312515
 30
0.0
 10
-150.597393169174
 20
157.8688990387113
 30
0.0
 10
-150.6397515321719
 20
158.4798618123264
 30
0.0
 10
-151.0630632537742
 20
159.3116078534652
 30
0.0
 10
-151.6620573736897
 20
160.0160923915969
 30
0.0
 10
-152.1843907189926
 20
160.3573796449459
 30
0.0
 10
-152.4422527848442
 20
160.5258640754131
 30
0.0
  0
SPLINE
  5
244
330
23F
100
AcDbEntity
  8
0
  6
Continuous
 62
     7
370
    25
100
AcDbSpline
210
0.0
220
0.0
230
1.0
 70
     8
 71
     3
 72
    12
 73
     8
 74
     0
 42
0.000000001
 43
0.00000001
 40
0.0
 40
0.0
 40
0.0
 40
0.0
 40
0.1921690961587017
 40
0.4656357427915594
 40
0.7234130375781679
 40
0.9757721800623907
 40
1.0
 40
1.0
 40
1.0
 40
1.0
 10
-342.532494045738
 20
160.5258640754133
 30
0.0
 10
-342.7334309073001
 20
160.3975400245916
 30
0.0
 10
-343.2203114029568
 20
160.0866041565628
 30
0.0
 10
-343.8377982711178
 20
159.4384068757511
 30
0.0
 10
-344.2647728607461
 20
158.5898954339633
 30
0.0
 10
-344.451884235851
 20
157.9322985165009
 30
0.0
 10
-344.4024390019536
 20
157.5980398463293
 30
0.0
 10
-344.3981078136243
 20
157.5687602345841
 30
0.0
  0
SPLINE
  5
24B
330
23F
100
AcDbEntity
  8
0
  6
Continuous
 62
     7
370
    25
100
AcDbSpline
210
0.0
220
0.0
230
1.0
 70
     8
 71
     3
 72
    13
 73
     9
 74
     0
 42
0.000000001
 43
0.00000001
 40
0.0
 40
0.0
 40
0.0
 40
0.0
 40
0.1116028280214561
 40
0.2977238365446933
 40
0.4848604596708568
 40
0.6734244077502282
 40
0.8662347514974597
 40
1.0
 40
1.0
 40
1.0
 40
1.0
 10
-244.3661343390953
 20
213.5923913438893
 30
0.0
 10
-244.5715686765718
 20
213.6996528872085
 30
0.0
 10
-245.1196076483066
 20
213.985795440734
 30
0.0
 10
-246.1365709974214
 20
214.2740419665529
 30
0.0
 10
-247.3877620537621
 20
214.4048457233413
 30
0.0
 10
-248.6602164959003
 20
214.3073445087526
 30
0.0
 10
-249.7561792877167
 20
214.0290207015982
 30
0.0
 10
-250.3609135492252
 20
213.7192665401938
 30
0.0
 10
-250.6086124914866
 20
213.5923913438893
 30
0.0
  0
SPLINE
  5
24F
330
23F
100
AcDbEntity
  8
0
  6
Continuous
 62
     7
370
    25
100
AcDbSpline
210
0.0
220
0.0
230
1.0
 70
     8
 71
     3
 72
    11
 73
     7
 74
     0
 42
0.000000001
 43
0.00000001
 40
0.0
 40
0.0
 40
0.0
 40
0.0
 40
0.2940649460514622
 40
0.5740071996482562
 40
0.8464692398134122
 40
1.0
 40
1.0
 40
1.0
 40
1.0
 10
741.6336931211284
 20
-35.10130240635995
 30
0.0
 10
741.6055638337668
 20
-34.81775058910216
 30
0.0
 10
741.5506561894409
 20
-34.2642647460433
 30
0.0
 10
741.1352269336134
 20
-33.54905689409745
 30
0.0
 10
740.6632927356977
 20
-33.05040811050794
 30
0.0
 10
740.3000525921135
 20
-32.86083854410226
 30
0.0
 10
740.1691383247158
 20
-32.79251635740221
 30
0.0
  0
SPLINE
  5
253
330
23F
100
AcDbEntity
  8
0
  6
Continuous
 62
     7
370
    25
100
AcDbSpline
210
0.0
220
0.0
230
1.0
 70
     8
 71
     3
 72
    11
 73
     7
 74
     0
 42
0.000000001
 43
0.00000001
 40
0.0
 40
0.0
 40
0.0
 40
0.0
 40
0.2141571216069547
 40
0.5100082118230422
 40
0.8018487978164848
 40
1.0
 40
1.0
 40
1.0
 40
1.0
 10
-740.177008186408
 20
89.66205823136431
 30
0.0
 10
-740.35603968382
 20
89.56118442761459
 30
0.0
 10
-740.7823973653669
 20
89.32095674859022
 30
0.0
 10
-741.2779835545742
 20
88.71795549436345
 30
0.0
 10
-741.5891321351234
 20
88.0187399889828
 30
0.0
 10
-741.6208617574857
 20
87.54962361475421
 30
0.0
 10
-741.6336931211282
 20
87.35991436704782
 30
0.0
  0
SPLINE
  5
257
330
23F
100
AcDbEntity
  8
0
  6
Continuous
 62
     7
370
    25
100
AcDbSpline
210
0.0
220
0.0
230
1.0
 70
     8
 71
     3
 72
    13
 73
     9
 74
     0
 42
0.000000001
 43
0.00000001
 40
0.0
 40
0.0
 40
0.0
 40
0.0
 40
0.1682362177020425
 40
0.3576022224044717
 40
0.5530239788957104
 40
0.7503430207429929
 40
0.9458490067148343
 40
1.0
 40
1.0
 40
1.0
 40
1.0
 10
-245.5079074571036
 20
95.08387095435289
 30
0.0
 10
-245.678468321558
 20
94.99957603564954
 30
0.0
 10
-246.0410118036764
 20
94.82039909814178
 30
0.0
 10
-246.8392561178005
 20
94.65776168319486
 30
0.0
 10
-247.7371795846034
 20
94.62699116983362
 30
0.0
 10
-248.6012532514509
 20
94.7530967078494
 30
0.0
 10
-249.2108160470194
 20
94.94676072190339
 30
0.0
 10
-249.4054980548654
 20
95.07950363167788
 30
0.0
 10
-249.4477248899852
 20
95.10829577855573
 30
0.0
  0
SPLINE
  5
258
330
23F
100
AcDbEntity
  8
0
  6
Continuous
 62
     7
370
    25
100
AcDbSpline
210
0.0
220
0.0
230
1.0
 70
     8
 71
     3
 72
    13
 73
     9
 74
     0
 42
0.000000001
 43
0.00000001
 40
0.0
 40
0.0
 40
0.0
 40
0.0
 40
0.2912001987362757
 40
0.4573908937880418
 40
0.6059715665656452
 40
0.753275668950167
 40
0.9279442522892456
 40
1.0
 40
1.0
 40
1.0
 40
1.0
 10
-249.4700456177525
 20
95.10132285116521
 30
0.0
 10
-260.1076929786233
 20
101.0998425588173
 30
0.0
 10
-276.8163458411757
 20
110.5217739393414
 30
0.0
 10
-298.9519547374691
 20
123.1263632857121
 30
0.0
 10
-315.8289851071916
 20
132.9373541243088
 30
0.0
 10
-333.0150868030508
 20
143.2010814988941
 30
0.0
 10
-347.4058054154627
 20
151.9086913992436
 30
0.0
 10
-356.4187441798094
 20
157.274553281953
 30
0.0
 10
-359.0509695423137
 20
158.8416512184479
 30
0.0
  0
SPLINE
  5
259
330
23F
100
AcDbEntity
  8
0
  6
Continuous
 62
     7
370
    25
100
AcDbSpline
210
0.0
220
0.0
230
1.0
 70
     8
 71
     3
 72
     9
 73
     5
 74
     0
 42
0.000000001
 43
0.00000001
 40
0.0
 40
0.0
 40
0.0
 40
0.0
 40
0.4547368624601676
 40
0.9999999999999999
 40
0.9999999999999999
 40
0.9999999999999999
 40
0.9999999999999999
 10
-229.6222434005225
 20
103.9871123224788
 30
0.0
 10
-232.0288215210497
 20
102.6265103135632
 30
0.0
 10
-237.3210648362439
 20
99.6344458445546
 30
0.0
 10
-242.6121798461039
 20
96.70244925721238
 30
0.0
 10
-245.4972298174643
 20
95.10373959874208
 30
0.0
  0
SPLINE
  5
25A
330
23F
100
AcDbEntity
  8
0
  6
Continuous
 62
     7
370
    25
100
AcDbSpline
210
0.0
220
0.0
230
1.0
 70
     8
 71
     3
 72
    11
 73
     7
 74
     0
 42
0.000000001
 43
0.00000001
 40
0.0
 40
0.0
 40
0.0
 40
0.0
 40
0.1034104031576054
 40
0.4465628028245512
 40
0.7837998338647995
 40
1.0
 40
1.0
 40
1.0
 40
1.0
 10
-151.7992407325964
 20
148.8866709777202
 30
0.0
 10
-154.4819721071332
 20
147.3132220568514
 30
0.0
 10
-166.066957807389
 20
140.5185114789073
 30
0.0
 10
-186.3995373094683
 20
128.6512893001525
 30
0.0
 10
-209.6580324449541
 20
115.3028671863211
 30
0.0
 10
-224.0154326682911
 20
107.1496910209173
 30
0.0
 10
-229.6241491213902
 20
103.9646538559306
 30
0.0
  0
SPLINE
  5
25B
330
23F
100
AcDbEntity
  8
0
  6
Continuous
 62
     7
370
    25
100
AcDbSpline
210
0.0
220
0.0
230
1.0
 70
     8
 71
     3
 72
     9
 73
     5
 74
     0
 42
0.000000001
 43
0.00000001
 40
0.0
 40
0.0
 40
0.0
 40
0.0
 40
0.4214466829013386
 40
0.9999999999999999
 40
0.9999999999999999
 40
0.9999999999999999
 40
0.9999999999999999
 10
-135.9256772202239
 20
158.3559194923859
 30
0.0
 10
-138.1556445758505
 20
157.0169944873552
 30
0.0
 10
-143.4468651408693
 20
153.8400208407407
 30
0.0
 10
-148.7391240573237
 20
150.7196872084039
 30
0.0
 10
-151.8009780083833
 20
148.9144078349609
 30
0.0
  0
SPLINE
  5
25C
330
23F
100
AcDbEntity
  8
0
  6
Continuous
 62
     7
370
    25
100
AcDbSpline
210
0.0
220
0.0
230
1.0
 70
     8
 71
     3
 72
     9
 73
     5
 74
     0
 42
0.000000001
 43
0.00000001
 40
0.0
 40
0.0
 40
0.0
 40
0.0
 40
0.2611461938828655
 40
1.0
 40
1.0
 40
1.0
 40
1.0
 10
-359.0436394416633
 20
158.8674681025066
 30
0.0
 10
-359.0958933472469
 20
158.8979227384291
 30
0.0
 10
-359.2959878031785
 20
159.0145418454117
 30
0.0
 10
-359.3862900846586
 20
159.1221595711424
 30
0.0
 10
-359.4530102690313
 20
159.2016733374043
 30
0.0
  0
SPLINE
  5
25D
330
23F
100
AcDbEntity
  8
0
  6
Continuous
 62
     7
370
    25
100
AcDbSpline
210
0.0
220
0.0
230
1.0
 70
     8
 71
     3
 72
    11
 73
     7
 74
     0
 42
0.000000001
 43
0.00000001
 40
0.0
 40
0.0
 40
0.0
 40
0.0
 40
0.1317968602766903
 40
0.5182791084270061
 40
0.881355455394552
 40
1.0
 40
1.0
 40
1.0
 40
1.0
 10
-135.3935655924233
 20
158.9405049361606
 30
0.0
 10
-135.3911123273614
 20
158.9285741732516
 30
0.0
 10
-135.3814650867043
 20
158.8816575384367
 30
0.0
 10
-135.4451736875166
 20
158.7509186230717
 30
0.0
 10
-135.6387139413205
 20
158.49762184877
 30
0.0
 10
-135.8872144006178
 20
158.3726111517107
 30
0.0
 10
-135.9484183557365
 20
158.341821876255
 30
0.0
  0
SPLINE
  5
25E
330
23F
100
AcDbEntity
  8
0
  6
Continuous
 62
     7
370
    25
100
AcDbSpline
210
0.0
220
0.0
230
1.0
 70
     8
 71
     3
 72
     9
 73
     5
 74
     0
 42
0.000000001
 43
0.00000001
 40
0.0
 40
0.0
 40
0.0
 40
0.0
 40
0.4336451924652152
 40
0.9999999999999999
 40
0.9999999999999999
 40
0.9999999999999999
 40
0.9999999999999999
 10
-359.4356176169306
 20
159.1831111810479
 30
0.0
 10
-359.484473821962
 20
159.2473156078337
 30
0.0
 10
-359.5971378290355
 20
159.3953731163718
 30
0.0
 10
-359.5866335911787
 20
159.4514980489099
 30
0.0
 10
-359.580684465569
 20
159.4832846742755
 30
0.0
  0
SPLINE
  5
27E
330
23F
100
AcDbEntity
  8
0
  6
Continuous
 62
     7
370
    25
100
AcDbSpline
210
0.0
220
0.0
230
1.0
 70
     8
 71
     3
 72
     9
 73
     5
 74
     0
 42
0.000000001
 43
0.00000001
 40
0.0
 40
0.0
 40
0.0
 40
0.0
 40
0.9846425732121996
 40
1.0
 40
1.0
 40
1.0
 40
1.0
 10
-168.9495294866354
 20
138.8638576546727
 30
0.0
 10
-170.1649360719886
 20
138.8178394725846
 30
0.0
 10
-171.3992993002493
 20
138.77110354694
 30
0.0
 10
-172.6336007464994
 20
138.723295961175
 30
0.0
 10
-172.6525564405943
 20
138.7225617596767
 30
0.0
  0
SPLINE
  5
27F
330
23F
100
AcDbEntity
  8
0
  6
Continuous
 62
     7
370
    25
100
AcDbSpline
210
0.0
220
0.0
230
1.0
 70
    24
 71
     3
 72
     9
 73
     5
 74
     0
 42
0.000000001
 43
0.00000001
 40
0.0
 40
0.0
 40
0.0
 40
0.0
 40
0.6622654950137128
 40
1.0
 40
1.0
 40
1.0
 40
1.0
 10
-242.4873734152913
 20
98.40778004444141
 30
0.0
 10
-242.4873734152912
 20
98.04820594987638
 30
0.0
 10
-242.4873734152913
 20
97.50526041327163
 30
0.0
 10
-242.4873734152912
 20
96.96142617171321
 30
0.0
 10
-242.4873734152912
 20
96.77775458334588
 30
0.0
  0
SPLINE
  5
280
330
23F
100
AcDbEntity
  8
0
  6
Continuous
 62
     7
370
    25
100
AcDbSpline
210
0.0
220
0.0
230
1.0
 70
     8
 71
     3
 72
     9
 73
     5
 74
     0
 42
0.000000001
 43
0.00000001
 40
0.0
 40
0.0
 40
0.0
 40
0.0
 40
0.9538218187203314
 40
1.0
 40
1.0
 40
1.0
 40
1.0
 10
-230.5742551648235
 20
105.2850768230584
 30
0.0
 10
-229.0137485219977
 20
105.5168113158692
 30
0.0
 10
-227.3776917531145
 20
105.7597649663966
 30
0.0
 10
-225.8272526258806
 20
106.146644274798
 30
0.0
 10
-225.7556561668
 20
106.1645096576348
 30
0.0
  0
SPLINE
  5
281
330
23F
100
AcDbEntity
  8
0
  6
Continuous
 62
     7
370
    25
100
AcDbSpline
210
0.0
220
0.0
230
1.0
 70
     8
 71
     3
 72
     9
 73
     5
 74
     0
 42
0.000000001
 43
0.00000001
 40
0.0
 40
0.0
 40
0.0
 40
0.0
 40
0.4856451946128314
 40
1.0
 40
1.0
 40
1.0
 40
1.0
 10
-186.5167404517633
 20
128.6265764691551
 30
0.0
 10
-186.1735286346163
 20
129.119643491017
 30
0.0
 10
-185.466815542519
 20
130.1349258974559
 30
0.0
 10
-184.9976113340543
 20
131.1916851851105
 30
0.0
 10
-184.7562738947226
 20
131.7352344028531
 30
0.0
  0
SPLINE
  5
282
330
23F
100
AcDbEntity
  8
0
  6
Continuous
 62
     7
370
    25
100
AcDbSpline
210
0.0
220
0.0
230
1.0
 70
    24
 71
     3
 72
     9
 73
     5
 74
     0
 42
0.000000001
 43
0.00000001
 40
0.0
 40
0.0
 40
0.0
 40
0.0
 40
0.9808551525253258
 40
1.0
 40
1.0
 40
1.0
 40
1.0
 10
-252.4873734152913
 20
96.80632123148499
 30
0.0
 10
-252.4873734152919
 20
97.33021692039321
 30
0.0
 10
-252.4873734152925
 20
97.86433828128874
 30
0.0
 10
-252.4873734152913
 20
98.3975713781338
 30
0.0
 10
-252.4873734152913
 20
98.4077800444414
 30
0.0
  0
SPLINE
  5
283
330
23F
100
AcDbEntity
  8
0
  6
Continuous
 62
     7
370
    25
100
AcDbSpline
210
0.0
220
0.0
230
1.0
 70
     8
 71
     3
 72
     9
 73
     5
 74
     0
 42
0.000000001
 43
0.00000001
 40
0.0
 40
0.0
 40
0.0
 40
0.0
 40
0.5958175734944446
 40
0.9999999999999999
 40
0.9999999999999999
 40
0.9999999999999999
 40
0.9999999999999999
 10
-322.3213095142193
 20
138.7220532409196
 30
0.0
 10
-322.9891443697185
 20
138.7479989659709
 30
0.0
 10
-324.1100157323781
 20
138.7915453905908
 30
0.0
 10
-325.2309421505984
 20
138.8341357812803
 30
0.0
 10
-325.6840009102489
 20
138.8513500687351
 30
0.0
  0
SPLINE
  5
284
330
23F
100
AcDbEntity
  8
0
  6
Continuous
 62
     7
370
    25
100
AcDbSpline
210
0.0
220
0.0
230
1.0
 70
     8
 71
     3
 72
     9
 73
     5
 74
     0
 42
0.000000001
 43
0.00000001
 40
0.0
 40
0.0
 40
0.0
 40
0.0
 40
0.8813220424434515
 40
0.9999999999999999
 40
0.9999999999999999
 40
0.9999999999999999
 40
0.9999999999999999
 10
-310.1054798485887
 20
131.670004882021
 30
0.0
 10
-309.7491041232009
 20
130.7996036145737
 30
0.0
 10
-309.3447391938959
 20
129.8119949703666
 30
0.0
 10
-308.6653844028787
 20
128.8748953249357
 30
0.0
 10
-308.5847599638245
 20
128.763682252989
 30
0.0
  0
SPLINE
  5
285
330
23F
100
AcDbEntity
  8
0
  6
Continuous
 62
     7
370
    25
100
AcDbSpline
210
0.0
220
0.0
230
1.0
 70
     8
 71
     3
 72
     9
 73
     5
 74
     0
 42
0.000000001
 43
0.00000001
 40
0.0
 40
0.0
 40
0.0
 40
0.0
 40
0.3938898514492126
 40
1.0
 40
1.0
 40
1.0
 40
1.0
 10
-269.0165099589171
 20
106.1464237745213
 30
0.0
 10
-268.4085820647675
 20
106.0002989881383
 30
0.0
 10
-266.8651863872375
 20
105.6293201831618
 30
0.0
 10
-265.2577888308196
 20
105.3729463899203
 30
0.0
 10
-264.283528859119
 20
105.2175556320141
 30
0.0
  0
LWPOLYLINE
  5
286
330
23F
100
AcDbEntity
  8
0
  6
Continuous
 62
     7
370
    25
100
AcDbPolyline
 90
        3
 70
   128
 43
0.0
 10
-289.9091455937
 20
117.8737237652
 10
-291.0387441228
 20
120.0022469475
 10
-291.4036105915
 20
120.8736455669
  0
LWPOLYLINE
  5
298
330
23F
100
AcDbEntity
  8
0
  6
Continuous
 62
     7
370
    25
100
AcDbPolyline
 90
        5
 70
   128
 43
0.0
 10
714.2378175761
 20
-32.6382771604
 10
638.19390883
 20
-76.5376514691
 10
410.1406491636
 20
-208.1902285729
 10
258.1049153653
 20
-295.9584820601
 10
106.042800314
 20
-383.7417871775
  0
LWPOLYLINE
  5
299
330
23F
100
AcDbEntity
  8
0
  6
Continuous
 62
     7
370
    25
100
AcDbPolyline
 90
        5
 70
   128
 43
0.0
 10
-106.1202106294
 20
440.9443320124
 10
-30.7125588561
 20
397.4136102325
 10
304.1013519209
 20
204.1329021084
 10
638.909634617
 20
10.8489449564
 10
714.2378175761
 20
-32.6382771604
  0
LWPOLYLINE
  5
29A
330
23F
100
AcDbEntity
  8
0
  6
Continuous
 62
     7
370
    25
100
AcDbPolyline
 90
        4
 70
   128
 43
0.0
 10
-714.3152278552
 20
89.8408220163
 10
-705.6794213939
 20
94.8267009239
 10
-410.2277352579
 20
265.3983591371
 10
-106.1202106294
 20
440.9443320124
  0
LWPOLYLINE
  5
29B
330
23F
100
AcDbEntity
  8
0
  6
Continuous
 62
     7
370
    25
100
AcDbPolyline
 90
        5
 70
   128
 43
0.0
 10
106.042800314
 20
-383.7417871775
 10
30.7125599341
 20
-340.2557527785
 10
-304.1013519206
 20
-146.9750452765
 10
-638.9096356944
 20
46.3089112533
 10
-714.3152278552
 20
89.8408220163
  0
SPLINE
  5
29E
330
23F
100
AcDbEntity
  8
0
  6
Continuous
 62
     7
370
    25
100
AcDbSpline
210
0.0
220
0.0
230
1.0
 70
     8
 71
     3
 72
     8
 73
     4
 74
     0
 42
0.000000001
 43
0.00000001
 40
0.0
 40
0.0
 40
0.0
 40
0.0
 40
1.0
 40
1.0
 40
1.0
 40
1.0
 10
106.0134767116737
 20
-383.6307359978921
 30
0.0
 10
106.0287335277121
 20
-383.6529305064027
 30
0.0
 10
106.0427996317109
 20
-383.6752991997549
 30
0.0
 10
106.0427998839156
 20
-383.6997255427211
 30
0.0
  0
SPLINE
  5
29F
330
23F
100
AcDbEntity
  8
0
  6
Continuous
 62
     7
370
    25
100
AcDbSpline
210
0.0
220
0.0
230
1.0
 70
     8
 71
     3
 72
    11
 73
     7
 74
     0
 42
0.000000001
 43
0.00000001
 40
0.0
 40
0.0
 40
0.0
 40
0.0
 40
0.0000625446612873
 40
0.0000625446612873
 40
0.0000625446612873
 40
0.0000734991170025
 40
0.0000734991170025
 40
0.0000734991170025
 40
0.0000734991170025
 10
106.0427998839156
 20
-383.6997255427211
 30
0.0
 10
106.0428000058969
 20
-383.711551512093
 30
0.0
 10
106.0428001278881
 20
-383.723467152474
 30
0.0
 10
106.0428002498721
 20
-383.7354714729723
 30
0.0
 10
106.042800271237
 20
-383.7375739833159
 30
0.0
 10
106.0428002926047
 20
-383.7396792199055
 30
0.0
 10
106.042800313971
 20
-383.7417871774645
 30
0.0
  0
SPLINE
  5
2A0
330
23F
100
AcDbEntity
  8
0
  6
Continuous
 62
     7
370
    25
100
AcDbSpline
210
0.0
220
0.0
230
1.0
 70
     8
 71
     3
 72
    11
 73
     7
 74
     0
 42
0.000000001
 43
0.00000001
 40
0.0
 40
0.0
 40
0.0
 40
0.0
 40
0.0001553673436681
 40
0.0001553673436681
 40
0.0001553673436681
 40
0.0001663217990603
 40
0.0001663217990603
 40
0.0001663217990603
 40
0.0001663217990603
 10
-714.1489230238346
 20
89.83894114587982
 30
0.0
 10
-714.2006922228638
 20
89.84011319129101
 30
0.0
 10
-714.2524843760458
 20
89.84073736351769
 30
0.0
 10
-714.3042734042642
 20
89.84081397696919
 30
0.0
 10
-714.3079248833076
 20
89.84081937873906
 30
0.0
 10
-714.3115763699592
 20
89.84082205856139
 30
0.0
 10
-714.3152278550892
 20
89.84082201637159
 30
0.0
  0
LWPOLYLINE
  5
2A1
330
23F
100
AcDbEntity
  8
0
  6
Continuous
 62
     7
370
    25
100
AcDbPolyline
 90
        9
 70
   128
 43
0.0
 10
-714.1489230238
 20
89.8389411459
 10
-714.118271898
 20
89.8212470729
 10
-709.8755732486
 20
87.3720509381
 10
-692.9047783691
 20
77.5752664624
 10
-625.0216064669
 20
38.3881236936
 10
-353.4900565689
 20
-118.3610088243
 10
-123.7372830256
 20
-250.9953838671
 10
30.7977648848
 20
-340.2085405284
 10
106.0134767117
 20
-383.6307359979
  0
LWPOLYLINE
  5
2A2
330
23F
100
AcDbEntity
  8
0
  6
Continuous
 62
     7
370
    25
100
AcDbPolyline
 90
        9
 70
   128
 43
0.0
 10
106.0427998839
 20
-383.6997255427
 10
106.0557585935
 20
-383.6922446103
 10
110.2983909127
 20
-381.2430157792
 10
127.2689208595
 20
-371.4461008159
 10
195.151053306
 20
-332.2584477831
 10
466.6798902467
 20
-175.5080006596
 10
638.1568823731
 20
-76.516649796
 10
714.1513612519
 20
-32.6461254224
 10
714.1643200128
 20
-32.6386445176
  0
SPLINE
  5
2A3
330
23F
100
AcDbEntity
  8
0
  6
Continuous
 62
     7
370
    25
100
AcDbSpline
210
0.0
220
0.0
230
1.0
 70
     8
 71
     3
 72
    11
 73
     7
 74
     0
 42
0.000000001
 43
0.00000001
 40
0.0
 40
0.0
 40
0.0
 40
0.0
 40
0.0000625446612862
 40
0.0000625446612862
 40
0.0000625446612862
 40
0.0000734991170023
 40
0.0000734991170023
 40
0.0000734991170023
 40
0.0000734991170023
 10
714.1643200127505
 20
-32.63864451756504
 30
0.0
 10
714.1851666686721
 20
-32.63843603905347
 30
0.0
 10
714.2060149392469
 20
-32.63831629943584
 30
0.0
 10
714.226863124927
 20
-32.63828528894344
 30
0.0
 10
714.2305146040798
 20
-32.63827985757556
 30
0.0
 10
714.2341660908398
 20
-32.63827714806222
 30
0.0
 10
714.2378175760784
 20
-32.63827716039641
 30
0.0
  0
SPLINE
  5
2A4
330
23F
100
AcDbEntity
  8
0
  6
Continuous
 62
     7
370
    25
100
AcDbSpline
210
0.0
220
0.0
230
1.0
 70
     8
 71
     3
 72
     8
 73
     4
 74
     0
 42
0.000000001
 43
0.00000001
 40
0.0
 40
0.0
 40
0.0
 40
0.0
 40
1.0
 40
1.0
 40
1.0
 40
1.0
 10
714.1643200127505
 20
-32.63864451756504
 30
0.0
 10
714.1217504601314
 20
-32.6390702374984
 30
0.0
 10
714.0815200181041
 20
-32.63147953664489
 30
0.0
 10
714.0421890982246
 20
-32.62323174194273
 30
0.0
  0
SPLINE
  5
2A6
330
23F
100
AcDbEntity
  8
0
  6
Continuous
 62
     7
370
    25
100
AcDbSpline
210
0.0
220
0.0
230
1.0
 70
     8
 71
     3
 72
    11
 73
     7
 74
     0
 42
0.000000001
 43
0.00000001
 40
0.0
 40
0.0
 40
0.0
 40
0.0
 40
0.0000012535095533
 40
0.0000012535095533
 40
0.0000012535095533
 40
0.0000015430690166
 40
0.0000015430690166
 40
0.0000015430690166
 40
0.0000015430690166
 10
-229.1335422241493
 20
103.9163438518763
 30
0.0
 10
-229.1332467563297
 20
103.9161779892952
 30
0.0
 10
-229.1330050954795
 20
103.9159776619408
 30
0.0
 10
-229.1328277904365
 20
103.9157646222237
 30
0.0
 10
-229.1327862720531
 20
103.9157147360811
 30
0.0
 10
-229.1327479070434
 20
103.9156639727823
 30
0.0
 10
-229.1327125752952
 20
103.9156125747197
 30
0.0
  0
SPLINE
  5
2A8
330
23F
100
AcDbEntity
  8
0
  6
Continuous
 62
     7
370
    25
100
AcDbSpline
210
0.0
220
0.0
230
1.0
 70
     8
 71
     3
 72
    14
 73
    10
 74
     0
 42
0.000000001
 43
0.00000001
 40
0.0
 40
0.0
 40
0.0
 40
0.0
 40
0.2500000000000001
 40
0.2500000000000001
 40
0.5000000000000001
 40
0.5000000000000001
 40
0.7500000000000001
 40
0.7500000000000001
 40
1.0
 40
1.0
 40
1.0
 40
1.0
 10
-151.3094613340529
 20
148.8432272126784
 30
0.0
 10
-157.7953202770063
 20
145.0376297087789
 30
0.0
 10
-164.2813005888448
 20
141.2377768615966
 30
0.0
 10
-177.2530803975158
 20
133.6700222884751
 30
0.0
 10
-183.7388416227078
 20
129.9029828383944
 30
0.0
 10
-196.7097659860636
 20
122.415028057898
 30
0.0
 10
-203.194755785754
 20
118.6942127343819
 30
0.0
 10
-216.164225581088
 20
111.2864025563498
 30
0.0
 10
-222.6487197083891
 20
107.598559136906
 30
0.0
 10
-229.1333070501243
 20
103.9164773735492
 30
0.0
  0
SPLINE
  5
2AA
330
23F
100
AcDbEntity
  8
0
  6
Continuous
 62
     7
370
    25
100
AcDbSpline
210
0.0
220
0.0
230
1.0
 70
     8
 71
     3
 72
    11
 73
     7
 74
     0
 42
0.000000001
 43
0.00000001
 40
0.0
 40
0.0
 40
0.0
 40
0.0
 40
0.000001253997115
 40
0.000001253997115
 40
0.000001253997115
 40
0.0000015435540001
 40
0.0000015435540001
 40
0.0000015435540001
 40
0.0000015435540001
 10
-151.3079263953352
 20
148.8429053320953
 30
0.0
 10
-151.3083161328745
 20
148.8429870610562
 30
0.0
 10
-151.3086900646666
 20
148.8431034940646
 30
0.0
 10
-151.3090098234016
 20
148.8432539828732
 30
0.0
 10
-151.3090846973464
 20
148.8432892209746
 30
0.0
 10
-151.3091569463748
 20
148.8433263644657
 30
0.0
 10
-151.30922614042
 20
148.8433652284742
 30
0.0
  0
SPLINE
  5
2AC
330
23F
100
AcDbEntity
  8
0
  6
Continuous
 62
     7
370
    25
100
AcDbSpline
210
0.0
220
0.0
230
1.0
 70
     8
 71
     3
 72
    22
 73
    18
 74
     0
 42
0.000000001
 43
0.00000001
 40
0.0
 40
0.0
 40
0.0
 40
0.0
 40
0.125
 40
0.125
 40
0.25
 40
0.25
 40
0.375
 40
0.375
 40
0.5
 40
0.5
 40
0.625
 40
0.625
 40
0.75
 40
0.75
 40
0.875
 40
0.875
 40
1.0
 40
1.0
 40
1.0
 40
1.0
 10
-245.0064089741318
 20
95.03479224380884
 30
0.0
 10
-245.1697403444258
 20
94.94417800830851
 30
0.0
 10
-245.3463721179529
 20
94.8641494356919
 30
0.0
 10
-245.725152381453
 20
94.72440485284206
 30
0.0
 10
-245.9296972633546
 20
94.6642123625518
 30
0.0
 10
-246.3532505991274
 20
94.56836336816987
 30
0.0
 10
-246.5712229674935
 20
94.53257714016807
 30
0.0
 10
-247.0194463881558
 20
94.48505222911713
 30
0.0
 10
-247.2511723539261
 20
94.47357544795379
 30
0.0
 10
-247.707476367929
 20
94.47616133912915
 30
0.0
 10
-247.934341578178
 20
94.48982629291153
 30
0.0
 10
-248.3854382982883
 20
94.54246324129369
 30
0.0
 10
-248.60626554374
 20
94.58126416043663
 30
0.0
 10
-249.027238652633
 20
94.68109501303326
 30
0.0
 10
-249.230304494873
 20
94.74273637058155
 30
0.0
 10
-249.613762504337
 20
94.88807956816639
 30
0.0
 10
-249.7913506225368
 20
94.97054101923072
 30
0.0
 10
-249.9547000532821
 20
95.06285445981841
 30
0.0
  0
SPLINE
  5
2AD
330
23F
100
AcDbEntity
  8
0
  6
Continuous
 62
     7
370
    25
100
AcDbSpline
210
0.0
220
0.0
230
1.0
 70
     8
 71
     3
 72
     8
 73
     4
 74
     0
 42
0.000000001
 43
0.00000001
 40
0.0
 40
0.0
 40
0.0
 40
0.0
 40
1.0
 40
1.0
 40
1.0
 40
1.0
 10
-229.1327125752952
 20
103.9156125747197
 30
0.0
 10
-234.4244090288418
 20
100.9321733781322
 30
0.0
 10
-239.7157237845296
 20
97.96999931925298
 30
0.0
 10
-245.0064089741317
 20
95.03479224380887
 30
0.0
  0
SPLINE
  5
2AE
330
23F
100
AcDbEntity
  8
0
  6
Continuous
 62
     7
370
    25
100
AcDbSpline
210
0.0
220
0.0
230
1.0
 70
     8
 71
     3
 72
    10
 73
     6
 74
     0
 42
0.000000001
 43
0.00000001
 40
0.0
 40
0.0
 40
0.0
 40
0.0
 40
0.5
 40
0.5
 40
1.0
 40
1.0
 40
1.0
 40
1.0
 10
-713.8624024702507
 20
89.87153988869032
 30
0.0
 10
-713.9085538040748
 20
89.86246854104826
 30
0.0
 10
-713.955156024176
 20
89.85442112529532
 30
0.0
 10
-714.0501036800318
 20
89.84228499534183
 30
0.0
 10
-714.0982721557004
 20
89.83779441928009
 30
0.0
 10
-714.1489230238346
 20
89.83894114587982
 30
0.0
  0
SPLINE
  5
2B0
330
23F
100
AcDbEntity
  8
0
  6
Continuous
 62
     7
370
    25
100
AcDbSpline
210
0.0
220
0.0
230
1.0
 70
     8
 71
     3
 72
     8
 73
     4
 74
     0
 42
0.000000001
 43
0.00000001
 40
0.0
 40
0.0
 40
0.0
 40
0.0
 40
0.0000025057782836
 40
0.0000025057782836
 40
0.0000025057782836
 40
0.0000025057782836
 10
-360.2019135408578
 20
159.3858858308266
 30
0.0
 10
-360.2026657540514
 20
159.385701228523
 30
0.0
 10
-360.2034315309762
 20
159.3855323627935
 30
0.0
 10
-360.2042078190046
 20
159.3853797782837
 30
0.0
  0
SPLINE
  5
2B2
330
23F
100
AcDbEntity
  8
0
  6
Continuous
 62
     7
370
    25
100
AcDbSpline
210
0.0
220
0.0
230
1.0
 70
     8
 71
     3
 72
    12
 73
     8
 74
     0
 42
0.000000001
 43
0.00000001
 40
0.0
 40
0.0
 40
0.0
 40
0.0
 40
0.5000000000000029
 40
0.5000000000000029
 40
0.7500000000000014
 40
0.7500000000000014
 40
1.0
 40
1.0
 40
1.0
 40
1.0
 10
-359.5287801445226
 20
158.8292459840305
 30
0.0
 10
-359.6673847954368
 20
158.9120468303633
 30
0.0
 10
-359.7925067777551
 20
158.9999286090263
 30
0.0
 10
-359.9607833892695
 20
159.13907274363
 30
0.0
 10
-360.0136235741429
 20
159.186681017264
 30
0.0
 10
-360.1127308856783
 20
159.2843789067239
 30
0.0
 10
-360.1595904242433
 20
159.335178638028
 30
0.0
 10
-360.2018740375026
 20
159.385838498329
 30
0.0
  0
SPLINE
  5
2B3
330
23F
100
AcDbEntity
  8
0
  6
Continuous
 62
     7
370
    25
100
AcDbSpline
210
0.0
220
0.0
230
1.0
 70
     8
 71
     3
 72
    20
 73
    16
 74
     0
 42
0.000000001
 43
0.00000001
 40
0.0
 40
0.0
 40
0.0
 40
0.0
 40
0.25
 40
0.25
 40
0.375
 40
0.375
 40
0.5
 40
0.5
 40
0.625
 40
0.625
 40
0.75
 40
0.75
 40
0.875
 40
0.875
 40
1.0
 40
1.0
 40
1.0
 40
1.0
 10
-249.9547000532822
 20
95.06285445981847
 30
0.0
 10
-259.0860822529191
 20
100.2232600046921
 30
0.0
 10
-268.2171157172792
 20
105.3815705075207
 30
0.0
 10
-281.912297595429
 20
113.1418184040197
 30
0.0
 10
-286.477118288273
 20
115.7325637047496
 30
0.0
 10
-295.6061309379779
 20
120.9367965513435
 30
0.0
 10
-300.1702331752714
 20
123.5501213894472
 30
0.0
 10
-309.2987290177823
 20
128.8304139875684
 30
0.0
 10
-313.8626798664945
 20
131.5000333845708
 30
0.0
 10
-322.9934566869796
 20
136.9099927870629
 30
0.0
 10
-327.5604045963792
 20
139.6479057333073
 30
0.0
 10
-336.6947756640104
 20
145.1354714171834
 30
0.0
 10
-341.2620083606885
 20
147.8837462814076
 30
0.0
 10
-350.3957336119058
 20
153.3661885855841
 30
0.0
 10
-354.9623252756011
 20
156.1012976403553
 30
0.0
 10
-359.5287801445226
 20
158.8292459840305
 30
0.0
  0
SPLINE
  5
2B5
330
23F
100
AcDbEntity
  8
0
  6
Continuous
 62
     7
370
    25
100
AcDbSpline
210
0.0
220
0.0
230
1.0
 70
     8
 71
     3
 72
    10
 73
     6
 74
     0
 42
0.000000001
 43
0.00000001
 40
0.0
 40
0.0
 40
0.0
 40
0.0
 40
0.5
 40
0.5
 40
1.0
 40
1.0
 40
1.0
 40
1.0
 10
-106.1202139599435
 20
440.8464434836984
 30
0.0
 10
-106.1202149617625
 20
440.816433369565
 30
0.0
 10
-106.1301422156422
 20
440.7872821642602
 30
0.0
 10
-106.1559659173665
 20
440.7294962672177
 30
0.0
 10
-106.172480067075
 20
440.7010071131191
 30
0.0
 10
-106.1906902405504
 20
440.6729523408771
 30
0.0
  0
LWPOLYLINE
  5
2B6
330
23F
100
AcDbEntity
  8
0
  6
Continuous
 62
     7
370
    25
100
AcDbPolyline
 90
        9
 70
   128
 43
0.0
 10
714.0421890982
 20
-32.6232317419
 10
709.7994904591
 20
-30.1740461219
 10
692.8286956172
 20
-20.3773039058
 10
624.9455237971
 20
18.8096688432
 10
353.4139722862
 20
175.5583107777
 10
123.6611963301
 20
308.1928551619
 10
-30.7977681126
 20
397.3624416007
 10
-106.0895636713
 20
440.8287489274
 10
-106.1202139599
 20
440.8464434837
  0
SPLINE
  5
2B7
330
23F
100
AcDbEntity
  8
0
  6
Continuous
 62
     7
370
    25
100
AcDbSpline
210
0.0
220
0.0
230
1.0
 70
     8
 71
     3
 72
     8
 73
     4
 74
     0
 42
0.000000001
 43
0.00000001
 40
0.0
 40
0.0
 40
0.0
 40
0.0
 40
1.0
 40
1.0
 40
1.0
 40
1.0
 10
-135.4325285869532
 20
158.2904469568579
 30
0.0
 10
-140.7241573888399
 20
155.1166142223516
 30
0.0
 10
-146.016008996317
 20
151.9692563591293
 30
0.0
 10
-151.307926395335
 20
148.8429053320953
 30
0.0
  0
SPLINE
  5
2B8
330
23F
100
AcDbEntity
  8
0
  6
Continuous
 62
     7
370
    25
100
AcDbSpline
210
0.0
220
0.0
230
1.0
 70
     8
 71
     3
 72
    22
 73
    18
 74
     0
 42
0.000000001
 43
0.00000001
 40
0.0
 40
0.0
 40
0.0
 40
0.0
 40
0.125
 40
0.125
 40
0.25
 40
0.25
 40
0.375
 40
0.375
 40
0.5
 40
0.5
 40
0.625
 40
0.625
 40
0.75
 40
0.75
 40
0.875
 40
0.875
 40
1.0
 40
1.0
 40
1.0
 40
1.0
 10
-135.4335306764829
 20
161.1745183147117
 30
0.0
 10
-135.2701467432667
 20
161.0822258075351
 30
0.0
 10
-135.1254942788561
 20
160.9818332998018
 30
0.0
 10
-134.872131305569
 20
160.7655166446013
 30
0.0
 10
-134.7625456994723
 20
160.6482123038658
 30
0.0
 10
-134.586971760117
 20
160.4043857878247
 30
0.0
 10
-134.5207633442656
 20
160.2784706954417
 30
0.0
 10
-134.4311220781375
 20
160.0187239895346
 30
0.0
 10
-134.4081411319001
 20
159.8840272942122
 30
0.0
 10
-134.4078585066661
 20
159.6180038054181
 30
0.0
 10
-134.42982266578
 20
159.4853561216621
 30
0.0
 10
-134.5190121049276
 20
159.2208190406055
 30
0.0
 10
-134.5859627027581
 20
159.0909320561684
 30
0.0
 10
-134.7598583907104
 20
158.8425332071532
 30
0.0
 10
-134.8678710425521
 20
158.7222988112789
 30
0.0
 10
-135.1236151417828
 20
158.494415975639
 30
0.0
 10
-135.2691684760692
 20
158.3884276896054
 30
0.0
 10
-135.4325285869532
 20
158.2904469568579
 30
0.0
  0
SPLINE
  5
2B9
330
23F
100
AcDbEntity
  8
0
  6
Continuous
 62
     7
370
    25
100
AcDbSpline
210
0.0
220
0.0
230
1.0
 70
     8
 71
     3
 72
    20
 73
    16
 74
     0
 42
0.000000001
 43
0.00000001
 40
0.0
 40
0.0
 40
0.0
 40
0.0
 40
0.125
 40
0.125
 40
0.25
 40
0.25
 40
0.375
 40
0.375
 40
0.5
 40
0.5
 40
0.625
 40
0.625
 40
0.75
 40
0.75
 40
1.0
 40
1.0
 40
1.0
 40
1.0
 10
-245.0226095361435
 20
224.9322512342182
 30
0.0
 10
-240.4582840069289
 20
222.2032072891731
 30
0.0
 10
-235.894321237433
 20
219.4666905375451
 30
0.0
 10
-226.7673136138043
 20
213.980566166114
 30
0.0
 10
-222.2043798255282
 20
211.2299143026131
 30
0.0
 10
-213.0781694349036
 20
205.7378370141545
 30
0.0
 10
-208.5146614731005
 20
202.9980310593993
 30
0.0
 10
-199.3826648091601
 20
197.5888971937909
 30
0.0
 10
-194.8142324619913
 20
194.9218914134227
 30
0.0
 10
-185.6763523886856
 20
189.6470240401554
 30
0.0
 10
-181.1075896200347
 20
187.0363376465129
 30
0.0
 10
-171.9711379850352
 20
181.8362477026341
 30
0.0
 10
-167.4033609906168
 20
179.2471094266513
 30
0.0
 10
-153.7008906527843
 20
171.4907479121407
 30
0.0
 10
-144.5670545606233
 20
166.333873962667
 30
0.0
 10
-135.433530676483
 20
161.1745183147116
 30
0.0
  0
SPLINE
  5
2BA
330
23F
100
AcDbEntity
  8
0
  6
Continuous
 62
     7
370
    25
100
AcDbSpline
210
0.0
220
0.0
230
1.0
 70
     8
 71
     3
 72
    12
 73
     8
 74
     0
 42
0.000000001
 43
0.00000001
 40
0.0
 40
0.0
 40
0.0
 40
0.0
 40
0.2500000000000369
 40
0.2500000000000369
 40
0.5000000000000737
 40
0.5000000000000737
 40
1.0
 40
1.0
 40
1.0
 40
1.0
 10
-245.9669668940766
 20
225.3322466834616
 30
0.0
 10
-245.8800620219502
 20
225.307346127569
 30
0.0
 10
-245.7931389082962
 20
225.2796746058994
 30
0.0
 10
-245.626418213766
 20
225.2210090916149
 30
0.0
 10
-245.5454024412441
 20
225.1896662385112
 30
0.0
 10
-245.309315031568
 20
225.0896684444328
 30
0.0
 10
-245.1611530072986
 20
225.0150873988742
 30
0.0
 10
-245.0226095361435
 20
224.9322512342182
 30
0.0
  0
SPLINE
  5
2BB
330
23F
100
AcDbEntity
  8
0
  6
Continuous
 62
     7
370
    25
100
AcDbSpline
210
0.0
220
0.0
230
1.0
 70
     8
 71
     3
 72
    11
 73
     7
 74
     0
 42
0.000000001
 43
0.00000001
 40
0.0
 40
0.0
 40
0.0
 40
0.0
 40
0.0000000302983667
 40
0.0000000302983667
 40
0.0000000302983667
 40
0.0000000902983666
 40
0.0000000902983666
 40
0.0000000902983666
 40
0.0000000902983666
 10
-245.96704809115
 20
225.3322699466881
 30
0.0
 10
-245.9670390095751
 20
225.332267344875
 30
0.0
 10
-245.9670299280193
 20
225.332264743038
 30
0.0
 10
-245.9670208464827
 20
225.332262141177
 30
0.0
 10
-245.9670028622723
 20
225.3322569886992
 30
0.0
 10
-245.9669848782119
 20
225.3322518360334
 30
0.0
 10
-245.9669668940766
 20
225.3322466834616
 30
0.0
  0
SPLINE
  5
2BC
330
23F
100
AcDbEntity
  8
0
  6
Continuous
 62
     7
370
    25
100
AcDbSpline
210
0.0
220
0.0
230
1.0
 70
     8
 71
     3
 72
     8
 73
     4
 74
     0
 42
0.000000001
 43
0.00000001
 40
0.0
 40
0.0
 40
0.0
 40
0.0
 40
0.0000025057782835
 40
0.0000025057782835
 40
0.0000025057782835
 40
0.0000025057782835
 10
-245.9660445200493
 20
225.3336677019539
 30
0.0
 10
-245.966351330229
 20
225.3331950271755
 30
0.0
 10
-245.9666862237225
 20
225.3327284894369
 30
0.0
 10
-245.9670480911497
 20
225.3322699466881
 30
0.0
  0
SPLINE
  5
2BD
330
23F
100
AcDbEntity
  8
0
  6
Continuous
 62
     7
370
    25
100
AcDbSpline
210
0.0
220
0.0
230
1.0
 70
     8
 71
     3
 72
    11
 73
     7
 74
     0
 42
0.000000001
 43
0.00000001
 40
0.0
 40
0.0
 40
0.0
 40
0.0
 40
0.0001553673434369
 40
0.0001553673434369
 40
0.0001553673434369
 40
0.0001663217991654
 40
0.0001663217991654
 40
0.0001663217991654
 40
0.0001663217991654
 10
-106.1202139599435
 20
440.8464434836984
 30
0.0
 10
-106.1202129231307
 20
440.8775018500671
 30
0.0
 10
-106.1202118859193
 20
440.9080255946328
 30
0.0
 10
-106.1202108487987
 20
440.9379999763694
 30
0.0
 10
-106.1202107756747
 20
440.9401133744006
 30
0.0
 10
-106.1202107025548
 20
440.9422240548286
 30
0.0
 10
-106.1202106294328
 20
440.9443320123897
 30
0.0
  0
LWPOLYLINE
  5
2BE
330
23F
100
AcDbEntity
  8
0
  6
Continuous
 62
     7
370
    25
100
AcDbPolyline
 90
        8
 70
   128
 43
0.0
 10
-106.1906902406
 20
440.6729523409
 10
-110.4331057786
 20
438.2235506677
 10
-127.4027776066
 20
428.4259504836
 10
-195.2816938328
 20
389.2357145606
 10
-331.0415622021
 20
310.8568170795
 10
-466.8056782194
 20
232.4813262267
 10
-590.3328381485
 20
161.175497125
 10
-713.8624024703
 20
89.8715398887
  0
SPLINE
  5
2BF
330
23F
100
AcDbEntity
  8
0
  6
Continuous
 62
     7
370
    25
100
AcDbSpline
210
0.0
220
0.0
230
1.0
 70
     8
 71
     3
 72
    22
 73
    18
 74
     0
 42
0.000000001
 43
0.00000001
 40
0.0
 40
0.0
 40
0.0
 40
0.0
 40
0.2500000000000153
 40
0.2500000000000153
 40
0.3750000000000184
 40
0.3750000000000184
 40
0.5000000000000214
 40
0.5000000000000214
 40
0.6250000000000245
 40
0.6250000000000245
 40
0.7500000000000276
 40
0.7500000000000276
 40
0.8750000000000308
 40
0.8750000000000308
 40
0.9375000000000153
 40
0.9375000000000153
 40
1.0
 40
1.0
 40
1.0
 40
1.0
 10
-249.9369661845234
 20
224.9849235582417
 30
0.0
 10
-249.681728475997
 20
225.1375094367505
 30
0.0
 10
-249.3944788380069
 20
225.2615722981482
 30
0.0
 10
-248.9162005128768
 20
225.4055206236651
 30
0.0
 10
-248.7499935921953
 20
225.4458179748352
 30
0.0
 10
-248.4124196533161
 20
225.509486529815
 30
0.0
 10
-248.2398878900392
 20
225.5332237001092
 30
0.0
 10
-247.887223225284
 20
225.5642889401245
 30
0.0
 10
-247.7065175653943
 20
225.5714542331137
 30
0.0
 10
-247.3496787182212
 20
225.5686939700745
 30
0.0
 10
-247.172039058869
 20
225.5589662695485
 30
0.0
 10
-246.8183194235425
 20
225.5228293548356
 30
0.0
 10
-246.6410603338753
 20
225.4961242444774
 30
0.0
 10
-246.3828119205785
 20
225.4441233455308
 30
0.0
 10
-246.2978659028657
 20
225.4248074733313
 30
0.0
 10
-246.1302434659005
 20
225.3822199306742
 30
0.0
 10
-246.0464125245986
 20
225.3585897991898
 30
0.0
 10
-245.9660445200493
 20
225.3336677019539
 30
0.0
  0
SPLINE
  5
2C0
330
23F
100
AcDbEntity
  8
0
  6
Continuous
 62
     7
370
    25
100
AcDbSpline
210
0.0
220
0.0
230
1.0
 70
     8
 71
     3
 72
    22
 73
    18
 74
     0
 42
0.000000001
 43
0.00000001
 40
0.0
 40
0.0
 40
0.0
 40
0.0
 40
0.125
 40
0.125
 40
0.25
 40
0.25
 40
0.375
 40
0.375
 40
0.5
 40
0.5
 40
0.625
 40
0.625
 40
0.75
 40
0.75
 40
0.875
 40
0.875
 40
1.0
 40
1.0
 40
1.0
 40
1.0
 10
-359.5137656322133
 20
161.7275837074287
 30
0.0
 10
-354.9471833737135
 20
164.2701027510567
 30
0.0
 10
-350.3804351522895
 20
166.8086542796612
 30
0.0
 10
-341.246159985445
 20
171.8785121758723
 30
0.0
 10
-336.6786481155357
 20
174.4095159549532
 30
0.0
 10
-327.5419574994144
 20
179.4708451870101
 30
0.0
 10
-322.9725949282463
 20
181.9996161142523
 30
0.0
 10
-313.8319872303816
 20
187.0936592459662
 30
0.0
 10
-309.2606709002961
 20
189.6626320294336
 30
0.0
 10
-300.1270121282818
 20
194.9353586375236
 30
0.0
 10
-295.5663415641192
 20
197.6381537462908
 30
0.0
 10
-286.4441437200034
 20
203.0869989358265
 30
0.0
 10
-281.8825867106606
 20
205.8294009908187
 30
0.0
 10
-272.7573696654035
 20
211.3104572099359
 30
0.0
 10
-268.1939310241852
 20
214.0506447980516
 30
0.0
 10
-259.0660816118826
 20
219.5232981093582
 30
0.0
 10
-254.5016650923578
 20
222.256061130346
 30
0.0
 10
-249.9369661845234
 20
224.9849235582417
 30
0.0
  0
SPLINE
  5
2C1
330
23F
100
AcDbEntity
  8
0
  6
Continuous
 62
     7
370
    25
100
AcDbSpline
210
0.0
220
0.0
230
1.0
 70
     8
 71
     3
 72
    18
 73
    14
 74
     0
 42
0.000000001
 43
0.00000001
 40
0.0
 40
0.0
 40
0.0
 40
0.0
 40
0.2499999999999948
 40
0.2499999999999948
 40
0.3749999999999922
 40
0.3749999999999922
 40
0.4999999999999896
 40
0.4999999999999896
 40
0.6249999999999869
 40
0.6249999999999869
 40
0.7499999999999843
 40
0.7499999999999843
 40
1.0
 40
1.0
 40
1.0
 40
1.0
 10
-360.2042078189832
 20
159.3853797782579
 30
0.0
 10
-360.3577162925453
 20
159.5844218773371
 30
0.0
 10
-360.4614598699978
 20
159.7978736581749
 30
0.0
 10
-360.5328243753233
 20
160.1171781013103
 30
0.0
 10
-360.5430025238352
 20
160.2235792511711
 30
0.0
 10
-360.5361547026551
 20
160.4362913159908
 30
0.0
 10
-360.5187592291484
 20
160.5434873524268
 30
0.0
 10
-360.457069554127
 20
160.7516237415439
 30
0.0
 10
-360.4130217383747
 20
160.8529152837265
 30
0.0
 10
-360.2989065578112
 20
161.0500012773162
 30
0.0
 10
-360.2282082595765
 20
161.1464663854535
 30
0.0
 10
-359.979437075911
 20
161.422234775405
 30
0.0
 10
-359.769122402923
 20
161.5854096666042
 30
0.0
 10
-359.5137656322133
 20
161.7275837074287
 30
0.0
  0
LWPOLYLINE
  5
2C2
330
23F
100
AcDbEntity
  8
0
  6
Continuous
 62
     7
370
    25
100
AcDbPolyline
 90
        3
 70
   128
 43
0.0
 10
-249.4688953
 20
95.103335592
 10
-249.4622090172
 20
95.0994133489
 10
-249.45387876
 20
95.0942337446
  0
LWPOLYLINE
  5
2C4
330
23F
100
AcDbEntity
  8
0
  6
Continuous
 62
     7
370
    25
100
AcDbPolyline
 90
        3
 70
   128
 43
0.0
 10
-135.937799515
 20
158.3273157589
 10
-135.9234092146
 20
158.3363318104
 10
-135.9147417949
 20
158.3412672946
  0
SPLINE
  5
2C5
330
23F
100
AcDbEntity
  8
0
  6
Continuous
 62
     7
370
    25
100
AcDbSpline
210
0.0
220
0.0
230
1.0
 70
     8
 71
     3
 72
    10
 73
     6
 74
     0
 42
0.000000001
 43
0.00000001
 40
0.0
 40
0.0
 40
0.0
 40
0.0
 40
0.3345302256435282
 40
0.6690603150842389
 40
1.0
 40
1.0
 40
1.0
 40
1.0
 10
-360.2019135408578
 20
159.3858858308266
 30
0.0
 10
-360.1014699332893
 20
159.4014746702815
 30
0.0
 10
-359.9005827590472
 20
159.4326523428442
 30
0.0
 10
-359.6341803855821
 20
159.363165471856
 30
0.0
 10
-359.5180350014802
 20
159.2496264029485
 30
0.0
 10
-359.4602756286279
 20
159.1931631567759
 30
0.0
  0
SPLINE
  5
2C8
330
23F
100
AcDbEntity
  8
0
  6
Continuous
 62
     7
370
    25
100
AcDbSpline
210
0.0
220
0.0
230
1.0
 70
     8
 71
     3
 72
    22
 73
    18
 74
     0
 42
0.000000001
 43
0.00000001
 40
0.0
 40
0.0
 40
0.0
 40
0.0
 40
0.1250000000000001
 40
0.1250000000000001
 40
0.2500000000000001
 40
0.2500000000000001
 40
0.3750000000000002
 40
0.3750000000000002
 40
0.5000000000000002
 40
0.5000000000000002
 40
0.6250000000000002
 40
0.6250000000000002
 40
0.7500000000000002
 40
0.7500000000000002
 40
0.8750000000000001
 40
0.8750000000000001
 40
1.0
 40
1.0
 40
1.0
 40
1.0
 10
-249.2551403682573
 20
223.7903458499269
 30
0.0
 10
-253.8217823777971
 20
221.0616390478975
 30
0.0
 10
-258.3883706467999
 20
218.3291676045351
 30
0.0
 10
-267.5214535169363
 20
212.8576630800996
 30
0.0
 10
-272.0879437413157
 20
210.1183233978903
 30
0.0
 10
-281.2209307008936
 20
204.6401001305037
 30
0.0
 10
-285.7874075348423
 20
201.8998224195216
 30
0.0
 10
-294.9208890536303
 20
196.4562440990405
 30
0.0
 10
-299.4879464181827
 20
193.7566338178643
 30
0.0
 10
-308.6238480510621
 20
188.482589746285
 30
0.0
 10
-313.1909125303848
 20
185.9091835650992
 30
0.0
 10
-322.3244002888491
 20
180.8074649324066
 30
0.0
 10
-326.890880090016
 20
178.2753990649599
 30
0.0
 10
-336.0238730030487
 20
173.2088967321187
 30
0.0
 10
-340.5903662021539
 20
170.6758773834834
 30
0.0
 10
-349.7234550806123
 20
165.6025455499786
 30
0.0
 10
-354.29004638068
 20
163.0625447224855
 30
0.0
 10
-358.8566914521724
 20
160.5187171836671
 30
0.0
  0
SPLINE
  5
2CA
330
23F
100
AcDbEntity
  8
0
  6
Continuous
 62
     7
370
    25
100
AcDbSpline
210
0.0
220
0.0
230
1.0
 70
     8
 71
     3
 72
    20
 73
    16
 74
     0
 42
0.000000001
 43
0.00000001
 40
0.0
 40
0.0
 40
0.0
 40
0.0
 40
0.2500000000000008
 40
0.2500000000000008
 40
0.3750000000000007
 40
0.3750000000000007
 40
0.5000000000000006
 40
0.5000000000000006
 40
0.6250000000000004
 40
0.6250000000000004
 40
0.7500000000000002
 40
0.7500000000000002
 40
0.8750000000000001
 40
0.8750000000000001
 40
1.0
 40
1.0
 40
1.0
 40
1.0
 10
-136.1180553784099
 20
159.9543617777561
 30
0.0
 10
-145.2521512431512
 20
165.1151949350057
 30
0.0
 10
-154.3862311459424
 20
170.2737477898991
 30
0.0
 10
-168.0875048752103
 20
178.0335594558298
 30
0.0
 10
-172.654623111007
 20
180.6240194857508
 30
0.0
 10
-181.7890160108944
 20
185.8272866776749
 30
0.0
 10
-186.3562892226108
 20
188.4398863554566
 30
0.0
 10
-195.4912110811904
 20
193.7187198625512
 30
0.0
 10
-200.0582592671792
 20
196.387660153517
 30
0.0
 10
-209.1913358455546
 20
201.7982049945159
 30
0.0
 10
-213.7573980301336
 20
204.5374395883292
 30
0.0
 10
-222.8893523691812
 20
210.028037606414
 30
0.0
 10
-227.4552654711854
 20
212.7779067711753
 30
0.0
 10
-236.5872962021702
 20
218.2630554905772
 30
0.0
 10
-241.1534000564691
 20
220.9993176404544
 30
0.0
 10
-245.7196064623246
 20
223.7282644363797
 30
0.0
  0
SPLINE
  5
2CC
330
23F
100
AcDbEntity
  8
0
  6
Continuous
 62
     7
370
    25
100
AcDbSpline
210
0.0
220
0.0
230
1.0
 70
     8
 71
     3
 72
    14
 73
    10
 74
     0
 42
0.000000001
 43
0.00000001
 40
0.0
 40
0.0
 40
0.0
 40
0.0
 40
0.25
 40
0.25
 40
0.5
 40
0.5
 40
0.75
 40
0.75
 40
1.0
 40
1.0
 40
1.0
 40
1.0
 10
-245.96704809115
 20
225.3322699466881
 30
0.0
 10
-246.0229695981021
 20
225.2614086323427
 30
0.0
 10
-246.0779250780877
 20
225.1723558698858
 30
0.0
 10
-246.181468679
 20
224.9658424301245
 30
0.0
 10
-246.2291218277267
 20
224.8498420575121
 30
0.0
 10
-246.3097030451883
 20
224.6087613921108
 30
0.0
 10
-246.3428305172605
 20
224.482767854201
 30
0.0
 10
-246.3891220453557
 20
224.2417918012257
 30
0.0
 10
-246.4027832790152
 20
224.1234723720778
 30
0.0
 10
-246.4054682699193
 20
224.0203329856081
 30
0.0
  0
SPLINE
  5
2CD
330
23F
100
AcDbEntity
  8
0
  6
Continuous
 62
     7
370
    25
100
AcDbSpline
210
0.0
220
0.0
230
1.0
 70
     8
 71
     3
 72
    12
 73
     8
 74
     0
 42
0.000000001
 43
0.00000001
 40
0.0
 40
0.0
 40
0.0
 40
0.0
 40
0.4999999999999899
 40
0.4999999999999899
 40
0.7499999999999949
 40
0.7499999999999949
 40
1.0
 40
1.0
 40
1.0
 40
1.0
 10
-246.4054682699193
 20
224.0203329856083
 30
0.0
 10
-246.8720508167487
 20
224.1737790753827
 30
0.0
 10
-247.4025831265724
 20
224.2344730279432
 30
0.0
 10
-248.1626331287937
 20
224.1732210142447
 30
0.0
 10
-248.4072150523168
 20
224.1282763780433
 30
0.0
 10
-248.8655576530501
 20
223.9909654755491
 30
0.0
 10
-249.0719062511286
 20
223.9013174305621
 30
0.0
 10
-249.2551403682573
 20
223.7903458499269
 30
0.0
  0
SPLINE
  5
2CE
330
23F
100
AcDbEntity
  8
0
  6
Continuous
 62
     7
370
    25
100
AcDbSpline
210
0.0
220
0.0
230
1.0
 70
     8
 71
     3
 72
     8
 73
     4
 74
     0
 42
0.000000001
 43
0.00000001
 40
0.0
 40
0.0
 40
0.0
 40
0.0
 40
1.0
 40
1.0
 40
1.0
 40
1.0
 10
-245.7196064623246
 20
223.7282644363797
 30
0.0
 10
-245.92057037856
 20
223.8500044921506
 30
0.0
 10
-246.1491836177392
 20
223.9473514213825
 30
0.0
 10
-246.4054682699192
 20
224.0203329856083
 30
0.0
  0
LWPOLYLINE
  5
2DD
330
23F
100
AcDbEntity
  8
0
  6
Continuous
 62
    60
370
    25
100
AcDbPolyline
 90
        5
 70
   128
 43
0.0
 10
-105.0660984453
 20
455.1811073377
 10
-105.2803222196
 20
455.2382710585
 10
-105.5248210778
 20
455.1823480994
 10
-105.7901177987
 20
455.0154406221
 10
-106.066017178
 20
454.7439627875
  0
LWPOLYLINE
  5
2E1
330
23F
100
AcDbEntity
  8
0
  6
Continuous
 62
    60
370
    25
100
AcDbPolyline
 90
        5
 70
   128
 43
0.0
 10
-106.066017178
 20
454.7439627875
 10
-106.3419165573
 20
455.0154406221
 10
-106.6072132781
 20
455.1823480994
 10
-106.8517121364
 20
455.2382710585
 10
-107.0659359106
 20
455.1811073377
  0
SPLINE
  5
2E6
330
23F
100
AcDbEntity
  8
0
  6
Continuous
 62
    60
370
    25
100
AcDbSpline
210
0.0
220
0.0
230
1.0
 70
     8
 71
     3
 72
    10
 73
     6
 74
     0
 42
0.000000001
 43
0.00000001
 40
0.0
 40
0.0
 40
0.0
 40
0.0
 40
0.455553793604237
 40
0.9111075764242739
 40
0.9999999999999999
 40
0.9999999999999999
 40
0.9999999999999999
 40
0.9999999999999999
 10
-229.1335422241493
 20
103.9163438518763
 30
0.0
 10
-229.2120492055185
 20
103.9502572204363
 30
0.0
 10
-229.3690631663983
 20
104.0180839567533
 30
0.0
 10
-229.534368239309
 20
104.0182763315866
 30
0.0
 10
-229.5954276308858
 20
103.9683229185849
 30
0.0
 10
-229.6053968752952
 20
103.9601669614023
 30
0.0
  0
SPLINE
  5
2E7
330
23F
100
AcDbEntity
  8
0
  6
Continuous
 62
    60
370
    25
100
AcDbSpline
210
0.0
220
0.0
230
1.0
 70
     8
 71
     3
 72
    10
 73
     6
 74
     0
 42
0.000000001
 43
0.00000001
 40
0.0
 40
0.0
 40
0.0
 40
0.0
 40
0.4348406227922908
 40
0.8696812352907012
 40
0.9999999999999999
 40
0.9999999999999999
 40
0.9999999999999999
 40
0.9999999999999999
 10
-151.3092261404192
 20
148.8433652284748
 30
0.0
 10
-151.3876907874015
 20
148.8776497647529
 30
0.0
 10
-151.5446200795086
 20
148.9462188364976
 30
0.0
 10
-151.7143262566258
 20
148.9444384640048
 30
0.0
 10
-151.7784418878509
 20
148.8898569661526
 30
0.0
 10
-151.7932261596806
 20
148.8772711475978
 30
0.0
  0
SPLINE
  5
2E9
330
23F
100
AcDbEntity
  8
0
  6
Continuous
 62
    60
370
    25
100
AcDbSpline
210
0.0
220
0.0
230
1.0
 70
     8
 71
     3
 72
    10
 73
     6
 74
     0
 42
0.000000001
 43
0.00000001
 40
0.0
 40
0.0
 40
0.0
 40
0.0
 40
0.1365773128477269
 40
0.56828428503423
 40
1.0
 40
1.0
 40
1.0
 40
1.0
 10
-135.4164987927143
 20
158.9438395029121
 30
0.0
 10
-135.4083533902876
 20
158.9957504928484
 30
0.0
 10
-135.3744612005977
 20
159.211746833575
 30
0.0
 10
-135.5919035738205
 20
159.5846945537631
 30
0.0
 10
-135.9426702596246
 20
159.8311385379506
 30
0.0
 10
-136.1180553784099
 20
159.9543617777561
 30
0.0
  0
SPLINE
  5
2EA
330
23F
100
AcDbEntity
  8
0
  6
Continuous
 62
    60
370
    25
100
AcDbSpline
210
0.0
220
0.0
230
1.0
 70
     8
 71
     3
 72
    10
 73
     6
 74
     0
 42
0.000000001
 43
0.00000001
 40
0.0
 40
0.0
 40
0.0
 40
0.0
 40
0.4274275865965322
 40
0.8548615279282246
 40
1.0
 40
1.0
 40
1.0
 40
1.0
 10
-358.8566914521724
 20
160.5187171836671
 30
0.0
 10
-359.0320414530627
 20
160.3967589338235
 30
0.0
 10
-359.3827440618408
 20
160.1528406209348
 30
0.0
 10
-359.6007163579058
 20
159.7702095682767
 30
0.0
 10
-359.5660178037338
 20
159.542591194429
 30
0.0
 10
-359.5572222435257
 20
159.4848933692764
 30
0.0
  0
LINE
  5
2F1
330
23F
100
AcDbEntity
  8
0
  6
Continuous
 62
     7
370
    25
100
AcDbLine
 10
-150.563491861
 20
152.6699093116
 30
0.0
 11
-150.563491861
 21
157.5691541829
 31
0.0
  0
LINE
  5
2F2
330
23F
100
AcDbEntity
  8
0
  6
Continuous
 62
     7
370
    25
100
AcDbLine
 10
-344.4112549695
 20
157.5691541829
 30
0.0
 11
-344.4112549695
 21
152.6699093116
 31
0.0
  0
LINE
  5
2F3
330
23F
100
AcDbEntity
  8
0
  6
Continuous
 62
     7
370
    25
100
AcDbLine
 10
-151.563491861
 20
149.0549259474
 30
0.0
 11
-151.563491861
 21
150.9380461753
 31
0.0
  0
LINE
  5
2F4
330
23F
100
AcDbEntity
  8
0
  6
Continuous
 62
     7
370
    25
100
AcDbLine
 10
-343.4112549695
 20
150.9380461753
 30
0.0
 11
-343.4112549695
 21
149.4764921687
 31
0.0
  0
LINE
  5
2F5
330
23F
100
AcDbEntity
  8
0
  6
Continuous
 62
     7
370
    25
100
AcDbLine
 10
-152.4422527848
 20
160.5258640754
 30
0.0
 11
-244.3661343391
 21
213.5923913439
 31
0.0
  0
LINE
  5
2F6
330
23F
100
AcDbEntity
  8
0
  6
Continuous
 62
     7
370
    25
100
AcDbLine
 10
-250.6086124915
 20
213.5923913439
 30
0.0
 11
-342.5324940457
 21
160.5258640754
 31
0.0
  0
LINE
  5
2F7
330
23F
100
AcDbEntity
  8
0
  6
Continuous
 62
     7
370
    25
100
AcDbLine
 10
107.0659359106
 20
-427.0804585843
 30
0.0
 11
740.6336118538
 21
-61.3296244877
 31
0.0
  0
LINE
  5
2F8
330
23F
100
AcDbEntity
  8
0
  6
Continuous
 62
     7
370
    25
100
AcDbLine
 10
-740.6336118538
 20
61.1315922857
 30
0.0
 11
105.0660984453
 21
-427.0804585843
 31
0.0
  0
LINE
  5
2F9
330
23F
100
AcDbEntity
  8
0
  6
Continuous
 62
     7
370
    25
100
AcDbLine
 10
740.219317024
 20
-32.7917762179
 30
0.0
 11
-105.0660984453
 21
455.1811073377
 31
0.0
  0
LINE
  5
2FA
330
23F
100
AcDbEntity
  8
0
  6
Continuous
 62
     7
370
    25
100
AcDbLine
 10
741.6336931211
 20
-59.5975267629
 30
0.0
 11
741.6336931211
 21
-35.1013024064
 31
0.0
  0
LINE
  5
2FB
330
23F
100
AcDbEntity
  8
0
  6
Continuous
 62
     7
370
    25
100
AcDbLine
 10
-107.0659359106
 20
455.1811073377
 30
0.0
 11
-740.219317024
 21
89.6694405555
 31
0.0
  0
LINE
  5
2FC
330
23F
100
AcDbEntity
  8
0
  6
Continuous
 62
     7
370
    25
100
AcDbLine
 10
-741.6336931211
 20
87.359914367
 30
0.0
 11
-741.6336931211
 21
62.8636900105
 31
0.0
  0
LINE
  5
2FD
330
23F
100
AcDbEntity
  8
0
  6
Continuous
 62
     7
370
    25
100
AcDbLine
 10
-150.563491861
 20
152.7093823485
 30
0.0
 11
-147.9434526793
 21
151.1968659237
 31
0.0
  0
LINE
  5
2FE
330
23F
100
AcDbEntity
  8
0
  6
Continuous
 62
     7
370
    25
100
AcDbLine
 10
-346.6439135911
 20
151.420495961
 30
0.0
 11
-344.4112549695
 21
152.7093823485
 31
0.0
  0
LINE
  5
2FF
330
23F
100
AcDbEntity
  8
0
  6
Continuous
 62
     7
370
    25
100
AcDbLine
 10
-251.0229073212
 20
102.4616066349
 30
0.0
 11
-251.0229073212
 21
97.5623617636
 31
0.0
  0
LINE
  5
300
330
23F
100
AcDbEntity
  8
0
  6
Continuous
 62
     7
370
    25
100
AcDbLine
 10
-243.9518395094
 20
102.4616066349
 30
0.0
 11
-243.9518395094
 21
97.5623617636
 31
0.0
  0
LINE
  5
301
330
23F
100
AcDbEntity
  8
0
  6
Continuous
 62
     7
370
    25
100
AcDbLine
 10
-153.4421715175
 20
160.4268479744
 30
0.0
 11
-245.3660530717
 21
213.4933752429
 31
0.0
  0
LINE
  5
302
330
23F
100
AcDbEntity
  8
0
  6
Continuous
 62
     7
370
    25
100
AcDbLine
 10
-245.3660530717
 20
104.9110963705
 30
0.0
 11
-153.4421715175
 21
157.977623639
 31
0.0
  0
LINE
  5
303
330
23F
100
AcDbEntity
  8
0
  6
Continuous
 62
     7
370
    25
100
AcDbLine
 10
-341.5325753131
 20
157.977623639
 30
0.0
 11
-249.6086937589
 21
104.9110963705
 31
0.0
  0
LINE
  5
304
330
23F
100
AcDbEntity
  8
0
  6
Continuous
 62
     7
370
    25
100
AcDbLine
 10
-249.6086937589
 20
213.4933752429
 30
0.0
 11
-341.5325753131
 21
160.4268479744
 31
0.0
  0
LINE
  5
305
330
23F
100
AcDbEntity
  8
0
  6
Continuous
 62
     7
370
    25
100
AcDbLine
 10
-152.0279579551
 20
155.5281339034
 30
0.0
 11
-243.9518395094
 21
102.4616066349
 31
0.0
  0
LINE
  5
306
330
23F
100
AcDbEntity
  8
0
  6
Continuous
 62
     7
370
    25
100
AcDbLine
 10
-251.0229073212
 20
102.4616066349
 30
0.0
 11
-342.9467888755
 21
155.5281339034
 31
0.0
  0
LINE
  5
307
330
23F
100
AcDbEntity
  8
0
  6
Continuous
 62
     7
370
    25
100
AcDbLine
 10
-243.9518395094
 20
97.5623617636
 30
0.0
 11
-152.0279579551
 21
150.628889032
 31
0.0
  0
LINE
  5
308
330
23F
100
AcDbEntity
  8
0
  6
Continuous
 62
     7
370
    25
100
AcDbLine
 10
-152.0279579551
 20
155.5281339034
 30
0.0
 11
-152.0279579551
 21
150.628889032
 31
0.0
  0
LINE
  5
309
330
23F
100
AcDbEntity
  8
0
  6
Continuous
 62
     7
370
    25
100
AcDbLine
 10
-342.9467888755
 20
150.628889032
 30
0.0
 11
-251.0229073212
 21
97.5623617636
 31
0.0
  0
LINE
  5
30A
330
23F
100
AcDbEntity
  8
0
  6
Continuous
 62
     7
370
    25
100
AcDbLine
 10
-342.9467888755
 20
155.5281339034
 30
0.0
 11
-342.9467888755
 21
150.628889032
 31
0.0
  0
LINE
  5
30B
330
23F
100
AcDbEntity
  8
0
  6
Continuous
 62
     7
370
    25
100
AcDbLine
 10
-251.4873734153
 20
97.8304923324
 30
0.0
 11
-251.4873734153
 21
96.2412522384
 31
0.0
  0
LINE
  5
30C
330
23F
100
AcDbEntity
  8
0
  6
Continuous
 62
     7
370
    25
100
AcDbLine
 10
-243.4873734153
 20
97.8304923324
 30
0.0
 11
-243.4873734153
 21
96.2215768921
 31
0.0
  0
LINE
  5
30D
330
23F
100
AcDbEntity
  8
0
  6
Continuous
 62
     7
370
    25
100
AcDbLine
 10
-148.3525963024
 20
150.9547798472
 30
0.0
 11
-150.6140897202
 21
152.2603122082
 31
0.0
  0
LINE
  5
30E
330
23F
100
AcDbEntity
  8
0
  6
Continuous
 62
     7
370
    25
100
AcDbLine
 10
-344.3606571104
 20
152.2603122082
 30
0.0
 11
-346.2381281084
 21
151.1764712713
 31
0.0
  0
LINE
  5
30F
330
23F
100
AcDbEntity
  8
0
  6
Continuous
 62
     7
370
    25
100
AcDbLine
 10
-738.2194795588
 20
89.8095368027
 30
0.0
 11
106.066017178
 21
-397.5861059555
 31
0.0
  0
LINE
  5
310
330
23F
100
AcDbEntity
  8
0
  6
Continuous
 62
     7
370
    25
100
AcDbLine
 10
104.6518036156
 20
-401.6685446148
 30
0.0
 11
-741.0479066835
 21
86.5435062552
 31
0.0
  0
LINE
  5
311
330
23F
100
AcDbEntity
  8
0
  6
Continuous
 62
     7
370
    25
100
AcDbLine
 10
741.0479066835
 20
-35.9177105182
 30
0.0
 11
107.4802307404
 21
-401.6685446148
 31
0.0
  0
LINE
  5
312
330
23F
100
AcDbEntity
  8
0
  6
Continuous
 62
     7
370
    25
100
AcDbLine
 10
106.066017178
 20
-397.5861059555
 30
0.0
 11
738.2194795588
 21
-32.6516799707
 31
0.0
  0
LINE
  5
313
330
23F
100
AcDbEntity
  8
0
  6
Continuous
 62
     7
370
    25
100
AcDbLine
 10
104.6518036156
 20
-426.1647689713
 30
0.0
 11
104.6518036156
 21
-401.6685446148
 31
0.0
  0
LINE
  5
314
330
23F
100
AcDbEntity
  8
0
  6
Continuous
 62
     7
370
    25
100
AcDbLine
 10
107.4802307404
 20
-401.6685446148
 30
0.0
 11
107.4802307404
 21
-426.1647689713
 31
0.0
  0
LINE
  5
315
330
23F
100
AcDbEntity
  8
0
  6
Continuous
 62
     7
370
    25
100
AcDbLine
 10
741.0479066835
 20
-60.4139348748
 30
0.0
 11
741.0479066835
 21
-35.9177105182
 31
0.0
  0
LINE
  5
316
330
23F
100
AcDbEntity
  8
0
  6
Continuous
 62
     7
370
    25
100
AcDbLine
 10
107.4802307404
 20
-426.1647689713
 30
0.0
 11
741.0479066835
 21
-60.4139348748
 31
0.0
  0
LINE
  5
317
330
23F
100
AcDbEntity
  8
0
  6
Continuous
 62
     7
370
    25
100
AcDbLine
 10
-741.0479066835
 20
86.5435062552
 30
0.0
 11
-741.0479066835
 21
62.0472818987
 31
0.0
  0
LINE
  5
318
330
23F
100
AcDbEntity
  8
0
  6
Continuous
 62
     7
370
    25
100
AcDbLine
 10
-741.0479066835
 20
62.0472818987
 30
0.0
 11
104.6518036156
 21
-426.1647689713
 31
0.0
  0
LINE
  5
319
330
23F
100
AcDbEntity
  8
0
  6
Continuous
 62
     7
370
    25
100
AcDbLine
 10
-106.066017178
 20
454.7439627875
 30
0.0
 11
-738.2194795588
 21
89.8095368027
 31
0.0
  0
LINE
  5
31A
330
23F
100
AcDbEntity
  8
0
  6
Continuous
 62
     7
370
    25
100
AcDbLine
 10
738.2194795588
 20
-32.6516799707
 30
0.0
 11
-106.066017178
 21
454.7439627875
 31
0.0
  0
LINE
  5
31B
330
23F
100
AcDbEntity
  8
0
  6
Continuous
 62
     7
370
    25
100
AcDbLine
 10
106.0134767117
 20
-383.6307359979
 30
0.0
 11
-229.1327125753
 21
103.9156125747
 31
0.0
  0
LINE
  5
31C
330
23F
100
AcDbEntity
  8
0
  6
Continuous
 62
     7
370
    25
100
AcDbLine
 10
-229.1333070501
 20
103.9164773735
 30
0.0
 11
-229.1335422241
 21
103.9163438519
 31
0.0
  0
LINE
  5
31D
330
23F
100
AcDbEntity
  8
0
  6
Continuous
 62
     7
370
    25
100
AcDbLine
 10
-151.3092261404
 20
148.8433652285
 30
0.0
 11
-151.3094613341
 21
148.8432272127
 31
0.0
  0
LINE
  5
31E
330
23F
100
AcDbEntity
  8
0
  6
Continuous
 62
     7
370
    25
100
AcDbLine
 10
714.0421890982
 20
-32.6232317419
 30
0.0
 11
-151.3079263953
 21
148.8429053321
 31
0.0
  0
LINE
  5
31F
330
23F
100
AcDbEntity
  8
0
  6
Continuous
 62
     7
370
    25
100
AcDbLine
 10
-713.8624024703
 20
89.8715398887
 30
0.0
 11
-360.204207819
 21
159.3853797783
 31
0.0
  0
LINE
  5
320
330
23F
100
AcDbEntity
  8
0
  6
Continuous
 62
     7
370
    25
100
AcDbLine
 10
-360.2018740375
 20
159.3858384983
 30
0.0
 11
-360.2019135409
 21
159.3858858308
 31
0.0
  0
LINE
  5
321
330
23F
100
AcDbEntity
  8
0
  6
Continuous
 62
     7
370
    25
100
AcDbLine
 10
-245.96604452
 20
225.333667702
 30
0.0
 11
-106.1906902406
 21
440.6729523409
 31
0.0
  0
LINE
  5
322
330
23F
100
AcDbEntity
  8
0
  6
Continuous
 62
     7
370
    25
100
AcDbLine
 10
-245.4893160623
 20
95.0849077608
 30
0.0
 11
-245.5055174621
 21
95.0759270423
 31
0.0
  0
LINE
  5
323
330
23F
100
AcDbEntity
  8
0
  6
Continuous
 62
    60
370
    25
100
AcDbLine
 10
-155.563491861
 20
148.5878687525
 30
0.0
 11
-155.563491861
 21
146.6797292238
 31
0.0
  0
LINE
  5
324
330
23F
100
AcDbEntity
  8
0
  6
Continuous
 62
    60
370
    25
100
AcDbLine
 10
-339.4112549695
 20
148.5878687525
 30
0.0
 11
-339.4112549695
 21
147.0710370682
 31
0.0
  0
LINE
  5
325
330
23F
100
AcDbEntity
  8
0
  6
Continuous
 62
    60
370
    25
100
AcDbLine
 10
-358.8566914522
 20
158.7258035045
 30
0.0
 11
-358.8566914522
 21
160.5187171837
 31
0.0
  0
LINE
  5
326
330
23F
100
AcDbEntity
  8
0
  6
Continuous
 62
    60
370
    25
100
AcDbLine
 10
-136.1180553784
 20
158.2407035818
 30
0.0
 11
-136.1180553784
 21
159.9543617778
 31
0.0
  0
LINE
  5
327
330
23F
100
AcDbEntity
  8
0
  6
Continuous
 62
    60
370
    25
100
AcDbLine
 10
-249.2551403683
 20
214.1095698658
 30
0.0
 11
-249.2551403683
 21
223.7903458499
 31
0.0
  0
LINE
  5
328
330
23F
100
AcDbEntity
  8
0
  6
Continuous
 62
    60
370
    25
100
AcDbLine
 10
-346.9309035563
 20
151.5930813299
 30
0.0
 11
-344.4112549695
 21
153.0476434978
 31
0.0
  0
LINE
  5
329
330
23F
100
AcDbEntity
  8
0
  6
Continuous
 62
    60
370
    25
100
AcDbLine
 10
-150.563491861
 20
153.0476434978
 30
0.0
 11
-147.6540876844
 21
151.3680802171
 31
0.0
  0
LINE
  5
32A
330
23F
100
AcDbEntity
  8
0
  6
Continuous
 62
    60
370
    25
100
AcDbLine
 10
-245.7196064623
 20
214.113647715
 30
0.0
 11
-245.7196064623
 21
223.7282644364
 31
0.0
  0
ARC
  5
32B
330
23F
100
AcDbEntity
  8
0
  6
Continuous
 62
     7
370
    25
100
AcDbCircle
 10
106.066017178
 20
-425.3483608595
 30
0.0
 40
2.000000000000766
100
AcDbArc
 50
240.0026882664
 51
299.9973117336
  0
ARC
  5
32C
330
23F
100
AcDbEntity
  8
0
  6
Continuous
 62
     7
370
    25
100
AcDbCircle
 10
739.6336931211
 20
-59.5975267629
 30
0.0
 40
2.000000000000227
100
AcDbArc
 50
299.9973117337
 51
360.0
  0
ARC
  5
32D
330
23F
100
AcDbEntity
  8
0
  6
Continuous
 62
     7
370
    25
100
AcDbCircle
 10
-739.6336931211
 20
62.8636900105
 30
0.0
 40
1.999999999999224
100
AcDbArc
 50
180.0
 51
240.0026882664
  0
ARC
  5
32E
330
23F
100
AcDbEntity
  8
0
  6
Continuous
 62
     7
370
    25
100
AcDbCircle
 10
-106.066017178
 20
453.4490096129
 30
0.0
 40
1.999999999999672
100
AcDbArc
 50
58.9749935436
 51
120.8340709812
  0
ARC
  5
32F
330
23F
100
AcDbEntity
  8
0
  6
Continuous
 62
     7
370
    25
100
AcDbCircle
 10
-247.4873734153
 20
109.2851620597
 30
0.0
 40
7.685109539558591
100
AcDbArc
 50
242.6096722366
 51
297.3903277634
  0
ARC
  5
330
330
23F
100
AcDbEntity
  8
0
  6
Continuous
 62
     7
370
    25
100
AcDbCircle
 10
-247.9524751185
 20
102.3218849304
 30
0.0
 40
3.073609615144085
100
AcDbArc
 50
122.60547834
 51
177.3945215143
  0
ARC
  5
331
330
23F
100
AcDbEntity
  8
0
  6
Continuous
 62
     7
370
    25
100
AcDbCircle
 10
-247.4873734153
 20
109.0052296253
 30
0.0
 40
4.611065723735212
100
AcDbArc
 50
242.6096722366
 51
297.3903277634
  0
ARC
  5
332
330
23F
100
AcDbEntity
  8
0
  6
Continuous
 62
     7
370
    25
100
AcDbCircle
 10
-247.0222717121
 20
102.3218849304
 30
0.0
 40
3.07360961514423
100
AcDbArc
 50
2.6054784857
 51
57.39452166
  0
ARC
  5
333
330
23F
100
AcDbEntity
  8
0
  6
Continuous
 62
     7
370
    25
100
AcDbCircle
 10
-247.4873734153
 20
104.3859171883
 30
0.0
 40
7.685109539558606
100
AcDbArc
 50
242.6096722366
 51
297.3903277634
  0
ARC
  5
334
330
23F
100
AcDbEntity
  8
0
  6
Continuous
 62
     7
370
    25
100
AcDbCircle
 10
-153.9069525979
 20
159.2022358067
 30
0.0
 40
1.30984595050281
100
AcDbArc
 50
290.7834207995
 51
69.2165792005
  0
ARC
  5
335
330
23F
100
AcDbEntity
  8
0
  6
Continuous
 62
     7
370
    25
100
AcDbCircle
 10
-341.0677942327
 20
159.2022358067
 30
0.0
 40
1.30984595050279
100
AcDbArc
 50
110.7834207995
 51
249.2165792005
  0
ARC
  5
336
330
23F
100
AcDbEntity
  8
0
  6
Continuous
 62
     7
370
    25
100
AcDbCircle
 10
-247.4873734153
 20
209.399241988
 30
0.0
 40
4.611065723735137
100
AcDbArc
 50
62.6096722366
 51
117.3903277634
  0
ARC
  5
337
330
23F
100
AcDbEntity
  8
0
  6
Continuous
 62
     7
370
    25
100
AcDbCircle
 10
-155.0983901578
 20
155.3884121988
 30
0.0
 40
3.073609615144351
100
AcDbArc
 50
2.6054784857
 51
57.39452166
  0
ARC
  5
338
330
23F
100
AcDbEntity
  8
0
  6
Continuous
 62
     7
370
    25
100
AcDbCircle
 10
-339.8763566727
 20
155.3884121988
 30
0.0
 40
3.073609615144173
100
AcDbArc
 50
122.60547834
 51
177.3945215143
  0
ARC
  5
339
330
23F
100
AcDbEntity
  8
0
  6
Continuous
 62
     7
370
    25
100
AcDbCircle
 10
-153.0657771735
 20
152.9194411961
 30
0.0
 40
2.514696392469161
100
AcDbArc
 50
294.3746582936
 51
354.3052007488
  0
ARC
  5
33A
330
23F
100
AcDbEntity
  8
0
  6
Continuous
 62
     7
370
    25
100
AcDbCircle
 10
-341.9089696571
 20
152.9194411961
 30
0.0
 40
2.514696392468782
100
AcDbArc
 50
185.6947992512
 51
245.6253417064
  0
ARC
  5
33B
330
23F
100
AcDbEntity
  8
0
  6
Continuous
 62
     7
370
    25
100
AcDbCircle
 10
-220.8545945259
 20
127.6122129752
 30
0.0
 40
18.55063937090742
100
AcDbArc
 50
328.4694589056
 51
338.6999176843
  0
ARC
  5
33C
330
23F
100
AcDbEntity
  8
0
  6
Continuous
 62
     7
370
    25
100
AcDbCircle
 10
106.066017178
 20
-398.9391224448
 30
0.0
 40
3.074043815823815
100
AcDbArc
 50
242.6096722366
 51
297.3903277634
  0
ARC
  5
33D
330
23F
100
AcDbEntity
  8
0
  6
Continuous
 62
     7
370
    25
100
AcDbCircle
 10
111.6652237925
 20
-401.8119200034
 30
0.0
 40
7.014885535715757
100
AcDbArc
 50
142.9575399928
 51
178.8288651805
  0
ARC
  5
33E
330
23F
100
AcDbEntity
  8
0
  6
Continuous
 62
     7
370
    25
100
AcDbCircle
 10
100.4668105635
 20
-401.8119200034
 30
0.0
 40
7.014885535714634
100
AcDbArc
 50
1.1711348195
 51
37.0424600072
  0
ARC
  5
33F
330
23F
100
AcDbEntity
  8
0
  6
Continuous
 62
     7
370
    25
100
AcDbCircle
 10
-737.2724451725
 20
86.1316485098
 30
0.0
 40
3.797859452850773
100
AcDbArc
 50
104.4396459105
 51
173.7743326534
  0
ARC
  5
340
330
23F
100
AcDbEntity
  8
0
  6
Continuous
 62
     7
370
    25
100
AcDbCircle
 10
737.2724451725
 20
-36.3295682636
 30
0.0
 40
3.797859452850669
100
AcDbArc
 50
6.2256673466
 51
75.5603540895
  0
ARC
  5
341
330
23F
100
AcDbEntity
  8
0
  6
Continuous
 62
     7
370
    25
100
AcDbCircle
 10
106.066017178
 20
-423.4353468014
 30
0.0
 40
3.074043815823259
100
AcDbArc
 50
242.6096722366
 51
297.3903277634
  0
ARC
  5
342
330
23F
100
AcDbEntity
  8
0
  6
Continuous
 62
     7
370
    25
100
AcDbCircle
 10
-134.5914026148
 20
159.899980635
 30
0.0
 40
1.527621016251526
100
AcDbArc
 50
123.4540232167
 51
177.9599204266
  0
ARC
  5
343
330
23F
100
AcDbEntity
  8
0
  6
Continuous
 62
     7
370
    25
100
AcDbCircle
 10
-360.3813838262
 20
160.472985405
 30
0.0
 40
1.525378061664893
100
AcDbArc
 50
1.7180203782
 51
55.3341809766
  0
ARC
  5
344
330
23F
100
AcDbEntity
  8
0
  6
Continuous
 62
     7
370
    25
100
AcDbCircle
 10
-250.8233743918
 20
223.6871200238
 30
0.0
 40
1.571627667070989
100
AcDbArc
 50
3.765945969
 51
55.6666712458
  0
ARC
  5
345
330
23F
100
AcDbEntity
  8
0
  6
Continuous
 62
     7
370
    25
100
AcDbCircle
 10
-244.1552133764
 20
223.6263673805
 30
0.0
 40
1.56770811610262
100
AcDbArc
 50
123.592968142
 51
176.2732923203
  0
ARC
  5
346
330
23F
100
AcDbEntity
  8
0
  6
Continuous
 62
    60
370
    25
100
AcDbCircle
 10
-152.8617576296
 20
159.6636782654
 30
0.0
 40
0.9588056560095196
100
AcDbArc
 50
64.0365578253
 51
127.2540981892
  0
ARC
  5
347
330
23F
100
AcDbEntity
  8
0
  6
Continuous
 62
    60
370
    25
100
AcDbCircle
 10
-153.0179861449
 20
157.7842460947
 30
0.0
 40
2.463777188922892
100
AcDbArc
 50
293.6928490195
 51
355.0245846523
  0
ARC
  5
348
330
23F
100
AcDbEntity
  8
0
  6
Continuous
 62
    60
370
    25
100
AcDbCircle
 10
-341.9085974854
 20
157.8191258856
 30
0.0
 40
2.515250608803757
100
AcDbArc
 50
185.735951228
 51
245.6217542997
  0
ARC
  5
349
330
23F
100
AcDbEntity
  8
0
  6
Continuous
 62
    60
370
    25
100
AcDbCircle
 10
-342.118441826
 20
159.6090118005
 30
0.0
 40
1.006029611012732
100
AcDbArc
 50
54.3836384457
 51
114.2931613731
  0
ARC
  5
34A
330
23F
100
AcDbEntity
  8
0
  6
Continuous
 62
    60
370
    25
100
AcDbCircle
 10
-244.780212962
 20
212.6756125847
 30
0.0
 40
1.005954471803679
100
AcDbArc
 50
65.6928809539
 51
125.6175774752
  0
ARC
  5
34B
330
23F
100
AcDbEntity
  8
0
  6
Continuous
 62
    60
370
    25
100
AcDbCircle
 10
-250.1945338686
 20
212.6756125847
 30
0.0
 40
1.005954471803656
100
AcDbArc
 50
54.3824225248
 51
114.3071190461
  0
ARC
  5
34C
330
23F
100
AcDbEntity
  8
0
  6
Continuous
 62
    60
370
    25
100
AcDbCircle
 10
106.5002269356
 20
-426.272942446
 30
0.0
 40
0.9859558600352141
100
AcDbArc
 50
305.013332876
 51
6.2988475174
  0
ARC
  5
34D
330
23F
100
AcDbEntity
  8
0
  6
Continuous
 62
    60
370
    25
100
AcDbCircle
 10
105.6031747273
 20
-426.2858970286
 30
0.0
 40
0.9590510927433993
100
AcDbArc
 50
172.744170435
 51
235.9436491716
  0
ARC
  5
34E
330
23F
100
AcDbEntity
  8
0
  6
Continuous
 62
    60
370
    25
100
AcDbCircle
 10
740.0679028788
 20
-60.5221083495
 30
0.0
 40
0.9859558599619682
100
AcDbArc
 50
305.0133328735
 51
6.2988475199
  0
ARC
  5
34F
330
23F
100
AcDbEntity
  8
0
  6
Continuous
 62
    60
370
    25
100
AcDbCircle
 10
-740.0965355716
 20
61.9261538415
 30
0.0
 40
0.9590510929089588
100
AcDbArc
 50
172.7441704411
 51
235.9436491655
  0
ARC
  5
350
330
23F
100
AcDbEntity
  8
0
  6
Continuous
 62
    60
370
    25
100
AcDbCircle
 10
740.6327690826
 20
-35.001477937
 30
0.0
 40
1.005893319630268
100
AcDbArc
 50
294.3748972342
 51
354.3024591146
  0
ARC
  5
351
330
23F
100
AcDbEntity
  8
0
  6
Continuous
 62
    60
370
    25
100
AcDbCircle
 10
739.0536876457
 20
-35.110080818
 30
0.0
 40
2.596081250386657
100
AcDbArc
 50
63.7957662522
 51
108.7435934455
  0
ARC
  5
352
330
23F
100
AcDbEntity
  8
0
  6
Continuous
 62
    60
370
    25
100
AcDbCircle
 10
740.6327789961
 20
-59.4977140091
 30
0.0
 40
1.005878556987465
100
AcDbArc
 50
294.3746582936
 51
354.3052007488
  0
ARC
  5
353
330
23F
100
AcDbEntity
  8
0
  6
Continuous
 62
    60
370
    25
100
AcDbCircle
 10
-740.6774301284
 20
87.4276406864
 30
0.0
 40
0.958617009112073
100
AcDbArc
 50
184.0163568849
 51
247.264980376
  0
ARC
  5
354
330
23F
100
AcDbEntity
  8
0
  6
Continuous
 62
    60
370
    25
100
AcDbCircle
 10
-739.0540730669
 20
87.3637662668
 30
0.0
 40
2.584248408769164
100
AcDbArc
 50
71.158331858
 51
116.4623656434
  0
ARC
  5
355
330
23F
100
AcDbEntity
  8
0
  6
Continuous
 62
    60
370
    25
100
AcDbCircle
 10
-740.6327789961
 20
62.9635027643
 30
0.0
 40
1.005878556987311
100
AcDbArc
 50
185.6947992512
 51
245.6253417064
  0
ARC
  5
356
330
23F
100
AcDbEntity
  8
0
  6
Continuous
 62
    60
370
    25
100
AcDbCircle
 10
-249.6759725597
 20
94.6531660401
 30
0.0
 40
0.4955134882061272
100
AcDbArc
 50
65.2976468985
 51
124.2290280679
  0
ARC
  5
357
330
23F
100
AcDbEntity
  8
0
  6
Continuous
 62
    60
370
    25
100
AcDbCircle
 10
-245.2937188205
 20
94.6179841941
 30
0.0
 40
0.5062369979792078
100
AcDbArc
 50
55.4211261693
 51
112.7291188899
  0
ARC
  5
358
330
23F
100
AcDbEntity
  8
0
  6
Continuous
 62
    60
370
    25
100
AcDbCircle
 10
-359.2606699129
 20
158.457779609
 30
0.0
 40
0.4581161032330436
100
AcDbArc
 50
61.4757138594
 51
125.8203112481
  0
ARC
  5
359
330
23F
100
AcDbEntity
  8
0
  6
Continuous
 62
    60
370
    25
100
AcDbCircle
 10
-135.7192867005
 20
157.8826887945
 30
0.0
 40
0.4984946686383923
100
AcDbArc
 50
54.8829909937
 51
113.0846479097
  0
VIEWPORT
  5
551
330
23F
100
AcDbEntity
  8
0
100
AcDbViewport
 10
0.0
 20
0.0
 30
0.0
 40
205.6
 41
156.0
 68
     1
 69
     1
 12
0.0
 22
0.0
 13
0.0
 23
0.0
 14
10.0
 24
10.0
 15
10.0
 25
10.0
 16
0.0
 26
0.0
 36
1.0
 17
0.0
 27
0.0
 37
0.0
 42
50.0
 43
0.0
 44
0.0
 45
928.7159533074
 50
0.0
 51
0.0
 72
   100
 90
   557152
  1

281
     0
 71
     1
 74
     0
110
0.0
120
0.0
130
0.0
111
1.0
121
0.0
131
0.0
112
0.0
122
1.0
132
0.0
 79
     0
146
0.0
  0
ENDBLK
  5
242
330
23F
100
AcDbEntity
  8
0
100
AcDbBlockEnd
  0
BLOCK
  5
35C
330
35A
100
AcDbEntity
  8
0
100
AcDbBlockBegin
  2
*Paper_Space6
 70
     0
 10
0.0
 20
0.0
 30
0.0
  3
*Paper_Space6
  1

  0
SPLINE
  5
35F
330
35A
100
AcDbEntity
  8
0
  6
Continuous
 62
     7
370
    25
100
AcDbSpline
210
0.0
220
0.0
230
1.0
 70
     8
 71
     3
 72
    10
 73
     6
 74
     0
 42
0.000000001
 43
0.00000001
 40
0.0
 40
0.0
 40
0.0
 40
0.0
 40
0.3257400859110666
 40
0.7022516950566471
 40
1.0
 40
1.0
 40
1.0
 40
1.0
 10
-401.4189314589174
 20
87.72513269405273
 30
0.0
 10
-401.5899914164515
 20
87.53458703574424
 30
0.0
 10
-401.9587736152978
 20
87.12379629392146
 30
0.0
 10
-402.3070704959502
 20
86.3834009592759
 30
0.0
 10
-402.3339968558959
 20
85.84149221646913
 30
0.0
 10
-402.3458873418415
 20
85.60218923221457
 30
0.0
  0
SPLINE
  5
362
330
35A
100
AcDbEntity
  8
0
  6
Continuous
 62
     7
370
    25
100
AcDbSpline
210
0.0
220
0.0
230
1.0
 70
     8
 71
     3
 72
    13
 73
     9
 74
     0
 42
0.000000001
 43
0.00000001
 40
0.0
 40
0.0
 40
0.0
 40
0.0
 40
0.0365097829466528
 40
0.2273067776436304
 40
0.407645173431171
 40
0.5915807855807341
 40
0.7921505732023703
 40
0.9999999999999999
 40
0.9999999999999999
 40
0.9999999999999999
 40
0.9999999999999999
 10
-216.7467978323533
 20
113.5119598718072
 30
0.0
 10
-216.7390922035079
 20
113.5707846801964
 30
0.0
 10
-216.6911176191304
 20
113.9370228925682
 30
0.0
 10
-216.8939856641774
 20
114.5976153586453
 30
0.0
 10
-217.3302715436085
 20
115.3740246053001
 30
0.0
 10
-217.9843537954869
 20
116.0069923274702
 30
0.0
 10
-218.8005804113983
 20
116.5142313737623
 30
0.0
 10
-219.4624927404503
 20
116.7287330617142
 30
0.0
 10
-219.799347847474
 20
116.8378955381939
 30
0.0
  0
SPLINE
  5
366
330
35A
100
AcDbEntity
  8
0
  6
Continuous
 62
     7
370
    25
100
AcDbSpline
210
0.0
220
0.0
230
1.0
 70
     8
 71
     3
 72
    13
 73
     9
 74
     0
 42
0.000000001
 43
0.00000001
 40
0.0
 40
0.0
 40
0.0
 40
0.0
 40
0.1046773155872545
 40
0.2936701271690882
 40
0.4826383407946976
 40
0.6762830185590265
 40
0.8811693376917004
 40
1.0
 40
1.0
 40
1.0
 40
1.0
 10
-334.7737036655388
 20
148.0854618471037
 30
0.0
 10
-334.9902690984414
 20
148.1373120004461
 30
0.0
 10
-335.5978391136275
 20
148.2827765745078
 30
0.0
 10
-336.6670905219678
 20
148.365619521791
 30
0.0
 10
-337.9296791097918
 20
148.2724110476144
 30
0.0
 10
-339.1436039725297
 20
147.962124164963
 30
0.0
 10
-340.0941045554868
 20
147.5101668462808
 30
0.0
 10
-340.572807635639
 20
147.0940518754644
 30
0.0
 10
-340.7485308980093
 20
146.9413035786082
 30
0.0
  0
SPLINE
  5
36A
330
35A
100
AcDbEntity
  8
0
  6
Continuous
 62
     7
370
    25
100
AcDbSpline
210
0.0
220
0.0
230
1.0
 70
     8
 71
     3
 72
    11
 73
     7
 74
     0
 42
0.000000001
 43
0.00000001
 40
0.0
 40
0.0
 40
0.0
 40
0.0
 40
0.1396052916080736
 40
0.5237118664878037
 40
0.8980654567484331
 40
1.0
 40
1.0
 40
1.0
 40
1.0
 10
-739.0352637839314
 20
-30.90014181101772
 30
0.0
 10
-739.1173921096301
 20
-30.96785841404002
 30
0.0
 10
-739.425486296087
 20
-31.22188881756216
 30
0.0
 10
-739.7690949088103
 20
-31.83020967011688
 30
0.0
 10
-739.9496549353329
 20
-32.46320360299234
 30
0.0
 10
-739.9594703269125
 20
-32.82289560767421
 30
0.0
 10
-739.9615710037657
 20
-32.89987640486125
 30
0.0
  0
SPLINE
  5
36E
330
35A
100
AcDbEntity
  8
0
  6
Continuous
 62
     7
370
    25
100
AcDbSpline
210
0.0
220
0.0
230
1.0
 70
     8
 71
     3
 72
    13
 73
     9
 74
     0
 42
0.000000001
 43
0.00000001
 40
0.0
 40
0.0
 40
0.0
 40
0.0
 40
0.1429158839612526
 40
0.3140880479893272
 40
0.5011367674679
 40
0.6959607369260669
 40
0.8931750786367918
 40
1.0
 40
1.0
 40
1.0
 40
1.0
 10
-274.7745478102984
 20
46.91442478279932
 30
0.0
 10
-274.8455926736421
 20
46.85402227003122
 30
0.0
 10
-275.0017288694853
 20
46.72127490281675
 30
0.0
 10
-275.5509639223037
 20
46.48024116208845
 30
0.0
 10
-276.3139333630513
 20
46.30330463046226
 30
0.0
 10
-277.2108312167375
 20
46.24436346073703
 30
0.0
 10
-278.0043807216878
 20
46.29637318563026
 30
0.0
 10
-278.3967315580206
 20
46.40722797147283
 30
0.0
 10
-278.5345849616051
 20
46.44617706528606
 30
0.0
  0
SPLINE
  5
36F
330
35A
100
AcDbEntity
  8
0
  6
Continuous
 62
     7
370
    25
100
AcDbSpline
210
0.0
220
0.0
230
1.0
 70
     8
 71
     3
 72
    13
 73
     9
 74
     0
 42
0.000000001
 43
0.00000001
 40
0.0
 40
0.0
 40
0.0
 40
0.0
 40
0.2912050209470685
 40
0.4575294173900294
 40
0.6058402106236069
 40
0.7531829672919764
 40
0.9282368039462985
 40
1.0
 40
1.0
 40
1.0
 40
1.0
 10
-278.5531222601049
 20
46.42971444562725
 30
0.0
 10
-291.8580836778499
 20
49.8961685772931
 30
0.0
 10
-312.7622948279873
 20
55.34251951627158
 30
0.0
 10
-340.443083690566
 20
62.68294350907792
 30
0.0
 10
-361.5500586607088
 20
68.4908562845403
 30
0.0
 10
-383.0537195148354
 20
74.6945180100707
 30
0.0
 10
-401.0586145066241
 20
80.00814135841364
 30
0.0
 10
-412.335197034453
 20
83.24370265023316
 30
0.0
 10
-415.6139156620999
 20
84.18445708999376
 30
0.0
  0
SPLINE
  5
370
330
35A
100
AcDbEntity
  8
0
  6
Continuous
 62
     7
370
    25
100
AcDbSpline
210
0.0
220
0.0
230
1.0
 70
     8
 71
     3
 72
     9
 73
     5
 74
     0
 42
0.000000001
 43
0.00000001
 40
0.0
 40
0.0
 40
0.0
 40
0.0
 40
0.4522065493424188
 40
1.0
 40
1.0
 40
1.0
 40
1.0
 10
-264.2855808154757
 20
56.87249747733436
 30
0.0
 10
-265.8650161961385
 20
55.3608702403004
 30
0.0
 10
-269.3577461952054
 20
52.01808973605492
 30
0.0
 10
-272.8494073266206
 20
48.73868947927049
 30
0.0
 10
-274.7621164263254
 20
46.94225549651917
 30
0.0
  0
SPLINE
  5
371
330
35A
100
AcDbEntity
  8
0
  6
Continuous
 62
     7
370
    25
100
AcDbSpline
210
0.0
220
0.0
230
1.0
 70
     8
 71
     3
 72
    11
 73
     7
 74
     0
 42
0.000000001
 43
0.00000001
 40
0.0
 40
0.0
 40
0.0
 40
0.0
 40
0.1034108765210739
 40
0.4454450518433273
 40
0.7827122905575252
 40
1.0
 40
1.0
 40
1.0
 40
1.0
 10
-212.9256320213075
 20
106.9734970416305
 30
0.0
 10
-214.6963118861054
 20
105.2192867459087
 30
0.0
 10
-222.3235616562215
 20
97.66298007479529
 30
0.0
 10
-235.72346407771
 20
84.44836361969637
 30
0.0
 10
-251.0726483205872
 20
69.54858952974402
 30
0.0
 10
-260.567885830663
 20
60.42315442584611
 30
0.0
 10
-264.2883438592761
 20
56.84759370281432
 30
0.0
  0
SPLINE
  5
372
330
35A
100
AcDbEntity
  8
0
  6
Continuous
 62
     7
370
    25
100
AcDbSpline
210
0.0
220
0.0
230
1.0
 70
     8
 71
     3
 72
    12
 73
     8
 74
     0
 42
0.000000001
 43
0.00000001
 40
0.0
 40
0.0
 40
0.0
 40
0.0
 40
0.2380558571476572
 40
0.4834122002297715
 40
0.7114886691076885
 40
0.9398571596150868
 40
1.0
 40
1.0
 40
1.0
 40
1.0
 10
739.9615710037658
 20
87.75858364979774
 30
0.0
 10
739.9337951297664
 20
88.0415408943677
 30
0.0
 10
739.8773915758939
 20
88.61613286537597
 30
0.0
 10
739.4414660672385
 20
89.3671537948041
 30
0.0
 10
738.8208590840501
 20
89.91635757304078
 30
0.0
 10
738.2766171178216
 20
90.21711085616745
 30
0.0
 10
737.9433248880542
 20
90.27585973173477
 30
0.0
 10
737.8738470574457
 20
90.28810647516462
 30
0.0
  0
SPLINE
  5
375
330
35A
100
AcDbEntity
  8
0
  6
Continuous
 62
     7
370
    25
100
AcDbSpline
210
0.0
220
0.0
230
1.0
 70
     8
 71
     3
 72
     9
 73
     5
 74
     0
 42
0.000000001
 43
0.00000001
 40
0.0
 40
0.0
 40
0.0
 40
0.0
 40
0.2645358492827984
 40
1.0
 40
1.0
 40
1.0
 40
1.0
 10
-415.6085211999375
 20
84.2131520259472
 30
0.0
 10
-415.683422794527
 20
84.23398553931376
 30
0.0
 10
-415.9665662504806
 20
84.31274051117502
 30
0.0
 10
-416.1642175493458
 20
84.42076434370563
 30
0.0
 10
-416.3095829940039
 20
84.50021199995496
 30
0.0
  0
SPLINE
  5
377
330
35A
100
AcDbEntity
  8
0
  6
Continuous
 62
     7
370
    25
100
AcDbSpline
210
0.0
220
0.0
230
1.0
 70
     8
 71
     3
 72
    10
 73
     6
 74
     0
 42
0.000000001
 43
0.00000001
 40
0.0
 40
0.0
 40
0.0
 40
0.0
 40
0.2857966140176635
 40
0.7070738113631895
 40
1.0
 40
1.0
 40
1.0
 40
1.0
 10
-416.2873384427835
 20
84.4907202140874
 30
0.0
 10
-416.395039373681
 20
84.55660375284812
 30
0.0
 10
-416.6614963712868
 20
84.71960262187872
 30
0.0
 10
-416.7582636095411
 20
84.91111441965948
 30
0.0
 10
-416.7546856426258
 20
84.90573632474299
 30
0.0
 10
-416.7532181611884
 20
84.90353053171972
 30
0.0
  0
SPLINE
  5
379
330
35A
100
AcDbEntity
  8
0
  6
Continuous
 62
     7
370
    25
100
AcDbSpline
210
0.0
220
0.0
230
1.0
 70
     8
 71
     3
 72
     9
 73
     5
 74
     0
 42
0.000000001
 43
0.00000001
 40
0.0
 40
0.0
 40
0.0
 40
0.0
 40
0.4214438174917698
 40
1.0
 40
1.0
 40
1.0
 40
1.0
 10
-202.4510425012988
 20
117.5178094109973
 30
0.0
 10
-203.9226616536203
 20
116.0273089373073
 30
0.0
 10
-207.4145129781451
 20
112.4906560981205
 30
0.0
 10
-210.9072778138305
 20
109.0132241701033
 30
0.0
 10
-212.9280385035636
 20
107.0013344288974
 30
0.0
  0
SPLINE
  5
37A
330
35A
100
AcDbEntity
  8
0
  6
Continuous
 62
     7
370
    25
100
AcDbSpline
210
0.0
220
0.0
230
1.0
 70
     8
 71
     3
 72
    10
 73
     6
 74
     0
 42
0.000000001
 43
0.00000001
 40
0.0
 40
0.0
 40
0.0
 40
0.0
 40
0.0180402106752751
 40
0.7264823878989979
 40
1.0
 40
1.0
 40
1.0
 40
1.0
 10
-202.335243542344
 20
117.6622152866606
 30
0.0
 10
-202.3352107165497
 20
117.6621804894796
 30
0.0
 10
-202.3338888161642
 20
117.6607792010144
 30
0.0
 10
-202.3048852555955
 20
117.6444416817547
 30
0.0
 10
-202.4403383099155
 20
117.5212422269176
 30
0.0
 10
-202.4780677529865
 20
117.4869259330474
 30
0.0
  0
SPLINE
  5
37C
330
35A
100
AcDbEntity
  8
0
  6
Continuous
 62
     7
370
    25
100
AcDbSpline
210
0.0
220
0.0
230
1.0
 70
     8
 71
     3
 72
    11
 73
     7
 74
     0
 42
0.000000001
 43
0.00000001
 40
0.0
 40
0.0
 40
0.0
 40
0.0
 40
0.0491093093784113
 40
0.3910056524231815
 40
0.7357124629510263
 40
1.0
 40
1.0
 40
1.0
 40
1.0
 10
-319.0908998753284
 20
377.5544106210328
 30
0.0
 10
-319.1238171870101
 20
377.568232465141
 30
0.0
 10
-319.3859030337268
 20
377.6782812367819
 30
0.0
 10
-319.9546804704265
 20
377.6534760483049
 30
0.0
 10
-320.642128945182
 20
377.4527018666129
 30
0.0
 10
-320.9772412709503
 20
377.148254704937
 30
0.0
 10
-321.1226712105951
 20
377.0161326403545
 30
0.0
  0
LWPOLYLINE
  5
387
330
35A
100
AcDbEntity
  8
0
  6
Continuous
 62
     7
370
    25
100
AcDbPolyline
 90
        9
 70
   128
 43
0.0
 10
-219.0707100326
 20
114.5346137572
 10
-218.8485483101
 20
114.8150656434
 10
-218.7368872153
 20
115.1124513006
 10
-218.7400178214
 20
115.4153423646
 10
-218.8578198211
 20
115.7120989018
 10
-219.0857661495
 20
115.9913167247
 10
-219.415096957
 20
116.2422656492
 10
-219.8331562455
 20
116.4553018487
 10
-220.3238782308
 20
116.6222384617
  0
LWPOLYLINE
  5
389
330
35A
100
AcDbEntity
  8
0
  6
Continuous
 62
     7
370
    25
100
AcDbPolyline
 90
        9
 70
   128
 43
0.0
 10
-400.0219751416
 20
88.0082045496
 10
-400.2441368641
 20
87.7277526634
 10
-400.3557979589
 20
87.4303670062
 10
-400.3526673527
 20
87.1274759422
 10
-400.2348653531
 20
86.8307194051
 10
-400.0069190247
 20
86.5515015821
 10
-399.6775882172
 20
86.3005526576
 10
-399.2595289287
 20
86.0875164581
 10
-398.7688069434
 20
85.9205798452
  0
SPLINE
  5
394
330
35A
100
AcDbEntity
  8
0
  6
Continuous
 62
     7
370
    25
100
AcDbSpline
210
0.0
220
0.0
230
1.0
 70
     8
 71
     3
 72
    11
 73
     7
 74
     0
 42
0.000000001
 43
0.00000001
 40
0.0
 40
0.0
 40
0.0
 40
0.0
 40
0.2288772298843942
 40
0.6101468085634619
 40
0.9997207125010528
 40
1.0
 40
1.0
 40
1.0
 40
1.0
 10
-269.2151221890462
 20
56.5276216497754
 30
0.0
 10
-268.3602064807718
 20
56.8917572344058
 30
0.0
 10
-266.0811501882001
 20
57.86247924532339
 30
0.0
 10
-262.7134005432953
 20
59.65407702607877
 30
0.0
 10
-260.1872678138311
 20
61.07551192824801
 30
0.0
 10
-259.0850203243584
 20
61.85503828552454
 30
0.0
 10
-259.0842306836645
 20
61.85559673155363
 30
0.0
  0
SPLINE
  5
395
330
35A
100
AcDbEntity
  8
0
  6
Continuous
 62
     7
370
    25
100
AcDbSpline
210
0.0
220
0.0
230
1.0
 70
     8
 71
     3
 72
    11
 73
     7
 74
     0
 42
0.000000001
 43
0.00000001
 40
0.0
 40
0.0
 40
0.0
 40
0.0
 40
0.1867028043423545
 40
0.5426308151756521
 40
0.901023339790888
 40
1.0
 40
1.0
 40
1.0
 40
1.0
 10
-247.5517128462908
 20
73.00371606950699
 30
0.0
 10
-247.2603369376528
 20
73.45526304543924
 30
0.0
 10
-246.4134854541751
 20
74.76763381835451
 30
0.0
 10
-245.5151739099604
 20
76.99443968765864
 30
0.0
 10
-244.870095485059
 20
79.0148232445636
 30
0.0
 10
-244.7730627495407
 20
80.15711837245803
 30
0.0
 10
-244.7520644479252
 20
80.40431595481279
 30
0.0
  0
LWPOLYLINE
  5
3A7
330
35A
100
AcDbEntity
  8
0
  6
Continuous
 62
     7
370
    25
100
AcDbPolyline
 90
        5
 70
   128
 43
0.0
 10
713.6919630127
 20
86.4780565432
 10
663.5025368207
 20
37.4914213861
 10
512.9859198185
 20
-109.4177255234
 10
412.6412241191
 20
-207.3570795122
 10
312.2790255633
 20
-305.3132762899
  0
LWPOLYLINE
  5
3A8
330
35A
100
AcDbEntity
  8
0
  6
Continuous
 62
     7
370
    25
100
AcDbPolyline
 90
        5
 70
   128
 43
0.0
 10
-312.375846977
 20
365.3413013097
 10
-218.0598747032
 20
339.7090891005
 10
200.7090053228
 20
225.8989977384
 10
619.4741707792
 20
112.0852808346
 10
713.6919630127
 20
86.4780565432
  0
LWPOLYLINE
  5
3A9
330
35A
100
AcDbEntity
  8
0
  6
Continuous
 62
     7
370
    25
100
AcDbPolyline
 90
        4
 70
   128
 43
0.0
 10
-713.7887844024
 20
-26.4500314999
 10
-708.0893653341
 20
-20.8865019903
 10
-513.0948432824
 20
169.4490396361
 10
-312.375846977
 20
365.3413013097
  0
LWPOLYLINE
  5
3AA
330
35A
100
AcDbEntity
  8
0
  6
Continuous
 62
     7
370
    25
100
AcDbPolyline
 90
        5
 70
   128
 43
0.0
 10
312.2790255633
 20
-305.3132762899
 10
218.0598754147
 20
-279.7073773572
 10
-200.7090053224
 20
-165.8972866893
 10
-619.4741714902
 20
-52.0835704798
 10
-713.7887844024
 20
-26.4500314999
  0
SPLINE
  5
3AD
330
35A
100
AcDbEntity
  8
0
  6
Continuous
 62
     7
370
    25
100
AcDbSpline
210
0.0
220
0.0
230
1.0
 70
     8
 71
     3
 72
     8
 73
     4
 74
     0
 42
0.000000001
 43
0.00000001
 40
0.0
 40
0.0
 40
0.0
 40
0.0
 40
1.0
 40
1.0
 40
1.0
 40
1.0
 10
312.1932266564951
 20
-305.2234531454425
 30
0.0
 10
312.2194384923294
 20
-305.2399419678251
 30
0.0
 10
312.2445972369147
 20
-305.2567621869874
 30
0.0
 10
312.2573158407386
 20
-305.2774971968918
 30
0.0
  0
SPLINE
  5
3AE
330
35A
100
AcDbEntity
  8
0
  6
Continuous
 62
     7
370
    25
100
AcDbSpline
210
0.0
220
0.0
230
1.0
 70
     8
 71
     3
 72
    11
 73
     7
 74
     0
 42
0.000000001
 43
0.00000001
 40
0.0
 40
0.0
 40
0.0
 40
0.0
 40
0.0000625446612873
 40
0.0000625446612873
 40
0.0000625446612873
 40
0.0000734991170025
 40
0.0000734991170025
 40
0.0000734991170025
 40
0.0000734991170025
 10
312.2573158407386
 20
-305.2774971968918
 30
0.0
 10
312.2634735294519
 20
-305.2875360141171
 30
0.0
 10
312.2696316951018
 20
-305.2976687798823
 30
0.0
 10
312.2757898356692
 20
-305.3078946476651
 30
0.0
 10
312.2768684101908
 20
-305.3096856688885
 30
0.0
 10
312.277946986962
 20
-305.3114795511334
 30
0.0
 10
312.2790255632827
 20
-305.3132762899014
 30
0.0
  0
SPLINE
  5
3AF
330
35A
100
AcDbEntity
  8
0
  6
Continuous
 62
     7
370
    25
100
AcDbSpline
210
0.0
220
0.0
230
1.0
 70
     8
 71
     3
 72
    11
 73
     7
 74
     0
 42
0.000000001
 43
0.00000001
 40
0.0
 40
0.0
 40
0.0
 40
0.0
 40
0.0001553673436681
 40
0.0001553673436681
 40
0.0001553673436681
 40
0.0001663217990603
 40
0.0001663217990603
 40
0.0001663217990603
 40
0.0001663217990603
 10
-713.6299008226579
 20
-26.42670651822371
 30
0.0
 10
-713.6793598527521
 20
-26.43335164468824
 30
0.0
 10
-713.7288408127025
 20
-26.44057539538316
 30
0.0
 10
-713.7783187871471
 20
-26.44837347291765
 30
0.0
 10
-713.781807321167
 20
-26.44892329046925
 30
0.0
 10
-713.78529586248
 20
-26.44947596656405
 30
0.0
 10
-713.788784402327
 20
-26.45003149986694
 30
0.0
  0
LWPOLYLINE
  5
3B0
330
35A
100
AcDbEntity
  8
0
  6
Continuous
 62
     7
370
    25
100
AcDbPolyline
 90
        9
 70
   128
 43
0.0
 10
-713.6299008227
 20
-26.4267065182
 10
-713.5915639873
 20
-26.4371253437
 10
-708.2850170019
 20
-27.8792888953
 10
-687.0588288745
 20
-33.6479430243
 10
-602.1540813913
 20
-56.7225649393
 10
-262.5358423466
 20
-149.0216854065
 10
24.8293567161
 20
-227.1220179852
 10
218.1161105953
 20
-279.6545635081
 10
312.1932266565
 20
-305.2234531454
  0
LWPOLYLINE
  5
3B1
330
35A
100
AcDbEntity
  8
0
  6
Continuous
 62
     7
370
    25
100
AcDbPolyline
 90
        9
 70
   128
 43
0.0
 10
312.2573158407
 20
-305.2774971969
 10
312.2658686639
 20
-305.2691493403
 10
315.0660305314
 20
-302.5360928067
 10
326.2666788388
 20
-291.6038668731
 10
371.0692879022
 20
-247.8749669303
 10
550.2801083313
 20
-72.9594586482
 10
663.4562257898
 20
37.5036159396
 10
713.6131917841
 20
86.458141896
 10
713.6217446715
 20
86.4664897373
  0
SPLINE
  5
3B2
330
35A
100
AcDbEntity
  8
0
  6
Continuous
 62
     7
370
    25
100
AcDbSpline
210
0.0
220
0.0
230
1.0
 70
     8
 71
     3
 72
    11
 73
     7
 74
     0
 42
0.000000001
 43
0.00000001
 40
0.0
 40
0.0
 40
0.0
 40
0.0
 40
0.0000625446612862
 40
0.0000625446612862
 40
0.0000625446612862
 40
0.0000734991170023
 40
0.0000734991170023
 40
0.0000734991170023
 40
0.0000734991170023
 10
713.6217446714573
 20
86.46648973725567
 30
0.0
 10
713.6416612174237
 20
86.46987998650694
 30
0.0
 10
713.6615793060018
 20
86.47317732735156
 30
0.0
 10
713.6814973134728
 20
86.47638151149248
 30
0.0
 10
713.684985875507
 20
86.476942711962
 30
0.0
 10
713.6884744448091
 20
86.47750105631005
 30
0.0
 10
713.6919630126577
 20
86.47805654315522
 30
0.0
  0
SPLINE
  5
3B3
330
35A
100
AcDbEntity
  8
0
  6
Continuous
 62
     7
370
    25
100
AcDbSpline
210
0.0
220
0.0
230
1.0
 70
     8
 71
     3
 72
     8
 73
     4
 74
     0
 42
0.000000001
 43
0.00000001
 40
0.0
 40
0.0
 40
0.0
 40
0.0
 40
1.0
 40
1.0
 40
1.0
 40
1.0
 10
713.6217446714573
 20
86.46648973725567
 30
0.0
 10
713.5810744337613
 20
86.45956673749785
 30
0.0
 10
713.538477115301
 20
86.45980926910568
 30
0.0
 10
713.4964017324298
 20
86.46074824621525
 30
0.0
  0
SPLINE
  5
3B5
330
35A
100
AcDbEntity
  8
0
  6
Continuous
 62
     7
370
    25
100
AcDbSpline
210
0.0
220
0.0
230
1.0
 70
     8
 71
     3
 72
    11
 73
     7
 74
     0
 42
0.000000001
 43
0.00000001
 40
0.0
 40
0.0
 40
0.0
 40
0.0
 40
0.0000012535095533
 40
0.0000012535095533
 40
0.0000012535095533
 40
0.0000015430690166
 40
0.0000015430690166
 40
0.0000015430690166
 40
0.0000015430690166
 10
-263.6028517787009
 20
56.98668953136062
 30
0.0
 10
-263.6024822443631
 20
56.98659402574125
 30
0.0
 10
-263.6021461732846
 20
56.98646107716054
 30
0.0
 10
-263.6018650404745
 20
56.98630751873684
 30
0.0
 10
-263.6017992094096
 20
56.98627156094675
 30
0.0
 10
-263.6017359372511
 20
56.98623437769727
 30
0.0
 10
-263.6016752358583
 20
56.98619619286767
 30
0.0
  0
SPLINE
  5
3B7
330
35A
100
AcDbEntity
  8
0
  6
Continuous
 62
     7
370
    25
100
AcDbSpline
210
0.0
220
0.0
230
1.0
 70
     8
 71
     3
 72
    14
 73
    10
 74
     0
 42
0.000000001
 43
0.00000001
 40
0.0
 40
0.0
 40
0.0
 40
0.0
 40
0.2500000000000001
 40
0.2500000000000001
 40
0.5000000000000001
 40
0.5000000000000001
 40
0.7500000000000001
 40
0.7500000000000001
 40
1.0
 40
1.0
 40
1.0
 40
1.0
 10
-212.2384176347
 20
107.1199495559232
 30
0.0
 10
-216.5195052010795
 20
102.8772532438194
 30
0.0
 10
-220.800710250893
 20
98.64056835637169
 30
0.0
 10
-229.3628302548448
 20
90.20081219023352
 30
0.0
 10
-233.6436977256459
 20
85.9986561242017
 30
0.0
 10
-242.2045979298595
 20
77.64295556797967
 30
0.0
 10
-246.4845162595494
 20
73.48952267762571
 30
0.0
 10
-255.0438012497096
 20
65.21826256531354
 30
0.0
 10
-259.3231994646052
 20
61.09953544398513
 30
0.0
 10
-263.6026965680017
 20
56.98683867225802
 30
0.0
  0
SPLINE
  5
3B9
330
35A
100
AcDbEntity
  8
0
  6
Continuous
 62
     7
370
    25
100
AcDbSpline
210
0.0
220
0.0
230
1.0
 70
     8
 71
     3
 72
    11
 73
     7
 74
     0
 42
0.000000001
 43
0.00000001
 40
0.0
 40
0.0
 40
0.0
 40
0.0
 40
0.000001253997115
 40
0.000001253997115
 40
0.000001253997115
 40
0.0000015435540001
 40
0.0000015435540001
 40
0.0000015435540001
 40
0.0000015435540001
 10
-212.2367755898552
 20
107.1199129111581
 30
0.0
 10
-212.2371925227985
 20
107.1199222156602
 30
0.0
 10
-212.237612104654
 20
107.1199635078571
 30
0.0
 10
-212.2379970963026
 20
107.1200421692201
 30
0.0
 10
-212.2380872450312
 20
107.1200605883777
 30
0.0
 10
-212.2381758490175
 20
107.1200810355164
 30
0.0
 10
-212.2382623994765
 20
107.1201034197631
 30
0.0
  0
SPLINE
  5
3BB
330
35A
100
AcDbEntity
  8
0
  6
Continuous
 62
     7
370
    25
100
AcDbSpline
210
0.0
220
0.0
230
1.0
 70
     8
 71
     3
 72
    22
 73
    18
 74
     0
 42
0.000000001
 43
0.00000001
 40
0.0
 40
0.0
 40
0.0
 40
0.0
 40
0.125
 40
0.125
 40
0.25
 40
0.25
 40
0.375
 40
0.375
 40
0.5
 40
0.5
 40
0.625
 40
0.625
 40
0.75
 40
0.75
 40
0.875
 40
0.875
 40
1.0
 40
1.0
 40
1.0
 40
1.0
 10
-274.0779226046924
 20
47.0577045159903
 30
0.0
 10
-274.1857138302945
 20
46.95634969398385
 30
0.0
 10
-274.3117505216584
 20
46.86194714071384
 30
0.0
 10
-274.5988277273614
 20
46.68648414389506
 30
0.0
 10
-274.7618992758319
 20
46.60465865356755
 30
0.0
 10
-275.1147468485265
 20
46.45959272100338
 30
0.0
 10
-275.3034678356854
 20
46.39639886514567
 30
0.0
 10
-275.7052803616425
 20
46.28851094914978
 30
0.0
 10
-275.919914641537
 20
46.24381588894038
 30
0.0
 10
-276.3558460277544
 20
46.17711832638216
 30
0.0
 10
-276.5791116071836
 20
46.15443395037938
 30
0.0
 10
-277.0364906700527
 20
46.13087630982018
 30
0.0
 10
-277.2672719186239
 20
46.13037215644185
 30
0.0
 10
-277.7208789778254
 20
46.15129155470427
 30
0.0
 10
-277.9468083473995
 20
46.17279165165197
 30
0.0
 10
-278.388733398508
 20
46.23787459581295
 30
0.0
 10
-278.6014037251695
 20
46.28083129831391
 30
0.0
 10
-278.8057244762964
 20
46.33426942667221
 30
0.0
  0
SPLINE
  5
3BC
330
35A
100
AcDbEntity
  8
0
  6
Continuous
 62
     7
370
    25
100
AcDbSpline
210
0.0
220
0.0
230
1.0
 70
     8
 71
     3
 72
     8
 73
     4
 74
     0
 42
0.000000001
 43
0.00000001
 40
0.0
 40
0.0
 40
0.0
 40
0.0
 40
1.0
 40
1.0
 40
1.0
 40
1.0
 10
-263.6016752358583
 20
56.98619619286769
 30
0.0
 10
-267.094166462713
 20
53.6523234178308
 30
0.0
 10
-270.5863126351244
 20
50.34082431544543
 30
0.0
 10
-274.0779226046924
 20
47.05770451599032
 30
0.0
  0
SPLINE
  5
3BD
330
35A
100
AcDbEntity
  8
0
  6
Continuous
 62
     7
370
    25
100
AcDbSpline
210
0.0
220
0.0
230
1.0
 70
     8
 71
     3
 72
    10
 73
     6
 74
     0
 42
0.000000001
 43
0.00000001
 40
0.0
 40
0.0
 40
0.0
 40
0.0
 40
0.5
 40
0.5
 40
1.0
 40
1.0
 40
1.0
 40
1.0
 10
-713.3769812806582
 20
-26.35692866028549
 30
0.0
 10
-713.4156857019416
 20
-26.37139378784015
 30
0.0
 10
-713.4553607499244
 20
-26.3850609030723
 30
0.0
 10
-713.5384634799474
 20
-26.40930988247653
 30
0.0
 10
-713.5815102186244
 20
-26.42020494140582
 30
0.0
 10
-713.6299008226579
 20
-26.42670651822371
 30
0.0
  0
SPLINE
  5
3BF
330
35A
100
AcDbEntity
  8
0
  6
Continuous
 62
     7
370
    25
100
AcDbSpline
210
0.0
220
0.0
230
1.0
 70
     8
 71
     3
 72
     8
 73
     4
 74
     0
 42
0.000000001
 43
0.00000001
 40
0.0
 40
0.0
 40
0.0
 40
0.0
 40
0.0000025057782836
 40
0.0000025057782836
 40
0.0000025057782836
 40
0.0000025057782836
 10
-416.7826664291736
 20
84.49027378680644
 30
0.0
 10
-416.7832781933236
 20
84.49000680185073
 30
0.0
 10
-416.78391088344
 20
84.48975119924265
 30
0.0
 10
-416.784561910753
 20
84.48950788871443
 30
0.0
  0
SPLINE
  5
3C1
330
35A
100
AcDbEntity
  8
0
  6
Continuous
 62
     7
370
    25
100
AcDbSpline
210
0.0
220
0.0
230
1.0
 70
     8
 71
     3
 72
    12
 73
     8
 74
     0
 42
0.000000001
 43
0.00000001
 40
0.0
 40
0.0
 40
0.0
 40
0.0
 40
0.5000000000000029
 40
0.5000000000000029
 40
0.7500000000000014
 40
0.7500000000000014
 40
1.0
 40
1.0
 40
1.0
 40
1.0
 10
-415.8606040794455
 20
84.11596296344483
 30
0.0
 10
-416.0339466214638
 20
84.16601033941699
 30
0.0
 10
-416.1972491470483
 20
84.22234649569225
 30
0.0
 10
-416.4277517316272
 20
84.31591114500814
 30
0.0
 10
-416.5021642675969
 20
84.34861766102449
 30
0.0
 10
-416.646094616701
 20
84.41710110663328
 30
0.0
 10
-416.7165382320505
 20
84.45339454403026
 30
0.0
 10
-416.7826047048465
 20
84.49023936152653
 30
0.0
  0
SPLINE
  5
3C2
330
35A
100
AcDbEntity
  8
0
  6
Continuous
 62
     7
370
    25
100
AcDbSpline
210
0.0
220
0.0
230
1.0
 70
     8
 71
     3
 72
    20
 73
    16
 74
     0
 42
0.000000001
 43
0.00000001
 40
0.0
 40
0.0
 40
0.0
 40
0.0
 40
0.25
 40
0.25
 40
0.375
 40
0.375
 40
0.5
 40
0.5
 40
0.625
 40
0.625
 40
0.75
 40
0.75
 40
0.875
 40
0.875
 40
1.0
 40
1.0
 40
1.0
 40
1.0
 10
-278.8057244762965
 20
46.33426942667225
 30
0.0
 10
-290.2274408627232
 20
49.32150955262095
 30
0.0
 10
-301.6489175538736
 20
52.30656738819056
 30
0.0
 10
-318.78031995312
 20
56.80808713388241
 30
0.0
 10
-324.4906449292525
 20
58.31279157472733
 30
0.0
 10
-335.9109720927048
 20
61.34606266852965
 30
0.0
 10
-341.6209146125143
 20
62.87446211786538
 30
0.0
 10
-353.0412121165454
 20
65.98747685048923
 30
0.0
 10
-358.7509332744041
 20
67.57502439160062
 30
0.0
 10
-370.1717010524523
 20
70.82446970545509
 30
0.0
 10
-375.8828467670472
 20
72.48380782555964
 30
0.0
 10
-387.3053568967218
 20
75.81482645716447
 30
0.0
 10
-393.0166073749439
 20
77.48506327080997
 30
0.0
 10
-404.4387347340265
 20
80.8107114959067
 30
0.0
 10
-410.1496781489701
 20
82.46710715537952
 30
0.0
 10
-415.8606040794455
 20
84.11596296344482
 30
0.0
  0
SPLINE
  5
3C4
330
35A
100
AcDbEntity
  8
0
  6
Continuous
 62
     7
370
    25
100
AcDbSpline
210
0.0
220
0.0
230
1.0
 70
     8
 71
     3
 72
    10
 73
     6
 74
     0
 42
0.000000001
 43
0.00000001
 40
0.0
 40
0.0
 40
0.0
 40
0.0
 40
0.5
 40
0.5
 40
1.0
 40
1.0
 40
1.0
 40
1.0
 10
-312.3267279397019
 20
365.2574927330197
 30
0.0
 10
-312.3119536890692
 20
365.2316894534708
 30
0.0
 10
-312.3071963742684
 20
365.2050718960555
 30
0.0
 10
-312.3037054716418
 20
365.1513471171214
 30
0.0
 10
-312.3056405675703
 20
365.1242684029169
 30
0.0
 10
-312.3094287888686
 20
365.0972978659026
 30
0.0
  0
LWPOLYLINE
  5
3C5
330
35A
100
AcDbEntity
  8
0
  6
Continuous
 62
     7
370
    25
100
AcDbPolyline
 90
        9
 70
   128
 43
0.0
 10
713.4964017324
 20
86.4607482462
 10
708.1898547538
 20
87.9029007603
 10
686.9636666513
 20
93.6715105286
 10
602.0589192223
 20
116.7459539676
 10
262.440679113
 20
209.0445593811
 10
-24.9245215421
 20
287.1450696346
 10
-218.1161127255
 20
339.652121858
 10
-312.2883916568
 20
365.2470733682
 10
-312.3267279397
 20
365.257492733
  0
SPLINE
  5
3C6
330
35A
100
AcDbEntity
  8
0
  6
Continuous
 62
     7
370
    25
100
AcDbSpline
210
0.0
220
0.0
230
1.0
 70
     8
 71
     3
 72
     8
 73
     4
 74
     0
 42
0.000000001
 43
0.00000001
 40
0.0
 40
0.0
 40
0.0
 40
0.0
 40
1.0
 40
1.0
 40
1.0
 40
1.0
 10
-201.7584001726493
 20
117.6437754671134
 30
0.0
 10
-205.2511909688509
 20
114.109906026342
 30
0.0
 10
-208.74400813065
 20
110.6038667519435
 30
0.0
 10
-212.2367755898551
 20
107.1199129111581
 30
0.0
  0
SPLINE
  5
3C7
330
35A
100
AcDbEntity
  8
0
  6
Continuous
 62
     7
370
    25
100
AcDbSpline
210
0.0
220
0.0
230
1.0
 70
     8
 71
     3
 72
    22
 73
    18
 74
     0
 42
0.000000001
 43
0.00000001
 40
0.0
 40
0.0
 40
0.0
 40
0.0
 40
0.125
 40
0.125
 40
0.25
 40
0.25
 40
0.375
 40
0.375
 40
0.5
 40
0.5
 40
0.625
 40
0.625
 40
0.75
 40
0.75
 40
0.875
 40
0.875
 40
1.0
 40
1.0
 40
1.0
 40
1.0
 10
-203.220956934758
 20
120.1073197053791
 30
0.0
 10
-203.0166139369678
 20
120.0539046665322
 30
0.0
 10
-202.8262410461301
 20
119.9906514668407
 30
0.0
 10
-202.4723011480708
 20
119.8452787617159
 30
0.0
 10
-202.307191078618
 20
119.7621162774631
 30
0.0
 10
-202.0143510254257
 20
119.5811305018666
 30
0.0
 10
-201.8867162015169
 20
119.4838601505648
 30
0.0
 10
-201.6686848028096
 20
119.2759015632663
 30
0.0
 10
-201.5782856897542
 20
119.1644039964199
 30
0.0
 10
-201.4432355473571
 20
118.9371844420775
 30
0.0
 10
-201.3972074403899
 20
118.8204481992382
 30
0.0
 10
-201.349166385193
 20
118.5805877760953
 30
0.0
 10
-201.3479030513271
 20
118.459216989864
 30
0.0
 10
-201.3896891559526
 20
118.2199777845089
 30
0.0
 10
-201.4328950272282
 20
118.1004718511201
 30
0.0
 10
-201.5639660647851
 20
117.8660400735055
 30
0.0
 10
-201.6505727506732
 20
117.7528710453006
 30
0.0
 10
-201.7584001726493
 20
117.6437754671134
 30
0.0
  0
SPLINE
  5
3C8
330
35A
100
AcDbEntity
  8
0
  6
Continuous
 62
     7
370
    25
100
AcDbSpline
210
0.0
220
0.0
230
1.0
 70
     8
 71
     3
 72
    20
 73
    16
 74
     0
 42
0.000000001
 43
0.00000001
 40
0.0
 40
0.0
 40
0.0
 40
0.0
 40
0.125
 40
0.125
 40
0.25
 40
0.25
 40
0.375
 40
0.375
 40
0.5
 40
0.5
 40
0.625
 40
0.625
 40
0.75
 40
0.75
 40
1.0
 40
1.0
 40
1.0
 40
1.0
 10
-340.2857358292836
 20
157.8793512302912
 30
0.0
 10
-334.5762824711748
 20
156.2292380962009
 30
0.0
 10
-328.8671292298682
 20
154.5712430869559
 30
0.0
 10
-317.4495335628713
 20
151.2414353270023
 30
0.0
 10
-311.7411726368467
 20
149.5685189750494
 30
0.0
 10
-300.3241490922602
 20
146.2324139542249
 30
0.0
 10
-294.6153213447027
 20
144.5709389592692
 30
0.0
 10
-283.1938134963177
 20
141.3223817362276
 30
0.0
 10
-277.4811505484531
 20
139.7377427552447
 30
0.0
 10
-266.0546668804747
 20
136.6307785442932
 30
0.0
 10
-260.3416228154044
 20
135.1053365989691
 30
0.0
 10
-248.9163091397945
 20
132.0767281331327
 30
0.0
 10
-243.2039818631377
 20
130.5738432573541
 30
0.0
 10
-226.0676036353798
 20
126.076745315066
 30
0.0
 10
-214.6441832834807
 20
123.0933387311004
 30
0.0
 10
-203.220956934758
 20
120.1073197053791
 30
0.0
  0
SPLINE
  5
3C9
330
35A
100
AcDbEntity
  8
0
  6
Continuous
 62
     7
370
    25
100
AcDbSpline
210
0.0
220
0.0
230
1.0
 70
     8
 71
     3
 72
    12
 73
     8
 74
     0
 42
0.000000001
 43
0.00000001
 40
0.0
 40
0.0
 40
0.0
 40
0.0
 40
0.2500000000000369
 40
0.2500000000000369
 40
0.5000000000000737
 40
0.5000000000000737
 40
1.0
 40
1.0
 40
1.0
 40
1.0
 10
-341.3867722264337
 20
158.0788832265506
 30
0.0
 10
-341.2912554127181
 20
158.0707828445895
 30
0.0
 10
-341.1943695594429
 20
158.0602978420767
 30
0.0
 10
-341.0058139077491
 20
158.0353700598472
 30
0.0
 10
-340.9128052881526
 20
158.0208138915399
 30
0.0
 10
-340.6375471056022
 20
157.9709320778904
 30
0.0
 10
-340.4590379922357
 20
157.9294380174698
 30
0.0
 10
-340.2857358292836
 20
157.8793512302912
 30
0.0
  0
SPLINE
  5
3CA
330
35A
100
AcDbEntity
  8
0
  6
Continuous
 62
     7
370
    25
100
AcDbSpline
210
0.0
220
0.0
230
1.0
 70
     8
 71
     3
 72
    11
 73
     7
 74
     0
 42
0.000000001
 43
0.00000001
 40
0.0
 40
0.0
 40
0.0
 40
0.0
 40
0.0000000302983667
 40
0.0000000302983667
 40
0.0000000302983667
 40
0.0000000902983666
 40
0.0000000902983666
 40
0.0000000902983666
 40
0.0000000902983666
 10
-341.3868614689045
 20
158.0788907932786
 30
0.0
 10
-341.3868514875262
 20
158.0788899470453
 30
0.0
 10
-341.3868415061545
 20
158.0788891007884
 30
0.0
 10
-341.3868315247894
 20
158.0788882545079
 30
0.0
 10
-341.3868117586447
 20
158.0788865786147
 30
0.0
 10
-341.3867919925523
 20
158.0788849025364
 30
0.0
 10
-341.3867722264337
 20
158.0788832265506
 30
0.0
  0
SPLINE
  5
3CB
330
35A
100
AcDbEntity
  8
0
  6
Continuous
 62
     7
370
    25
100
AcDbSpline
210
0.0
220
0.0
230
1.0
 70
     8
 71
     3
 72
     8
 73
     4
 74
     0
 42
0.000000001
 43
0.00000001
 40
0.0
 40
0.0
 40
0.0
 40
0.0
 40
0.0000025057782835
 40
0.0000025057782835
 40
0.0000025057782835
 40
0.0000025057782835
 10
-341.3865803470461
 20
158.0802493268173
 30
0.0
 10
-341.3866441720754
 20
158.0797949195423
 30
0.0
 10
-341.3867379321031
 20
158.0793414845925
 30
0.0
 10
-341.3868614689042
 20
158.0788907932786
 30
0.0
  0
LWPOLYLINE
  5
3CC
330
35A
100
AcDbEntity
  8
0
  6
Continuous
 62
     7
370
    25
100
AcDbPolyline
 90
        8
 70
   128
 43
0.0
 10
-312.3094287889
 20
365.0972978659
 10
-315.1093195195
 20
362.3641175707
 10
-326.3088945439
 20
351.4314006477
 10
-371.1074809501
 20
307.7006450623
 10
-460.7072001411
 20
220.2402448898
 10
-550.3122319852
 20
132.7822906651
 10
-631.8431029678
 20
53.2120183894
 10
-713.3769812807
 20
-26.3569286603
  0
SPLINE
  5
3CD
330
35A
100
AcDbEntity
  8
0
  6
Continuous
 62
     7
370
    25
100
AcDbSpline
210
0.0
220
0.0
230
1.0
 70
     8
 71
     3
 72
    22
 73
    18
 74
     0
 42
0.000000001
 43
0.00000001
 40
0.0
 40
0.0
 40
0.0
 40
0.0
 40
0.2500000000000153
 40
0.2500000000000153
 40
0.3750000000000184
 40
0.3750000000000184
 40
0.5000000000000214
 40
0.5000000000000214
 40
0.6250000000000245
 40
0.6250000000000245
 40
0.7500000000000276
 40
0.7500000000000276
 40
0.8750000000000308
 40
0.8750000000000308
 40
0.9375000000000153
 40
0.9375000000000153
 40
1.0
 40
1.0
 40
1.0
 40
1.0
 10
-344.9763864756582
 20
157.1887382570715
 30
0.0
 10
-344.8079629912515
 20
157.3586465167988
 30
0.0
 10
-344.595651607246
 20
157.5086152203171
 30
0.0
 10
-344.212194018376
 20
157.7041375967524
 30
0.0
 10
-344.0742854768819
 20
157.7636685920206
 30
0.0
 10
-343.7854802938917
 20
157.8688560710373
 30
0.0
 10
-343.6336572380356
 20
157.9150020250314
 30
0.0
 10
-343.3149494890952
 20
157.99423378654
 30
0.0
 10
-343.1474448169193
 20
158.0272639280545
 30
0.0
 10
-342.8085502378349
 20
158.0778715991386
 30
0.0
 10
-342.6358302173321
 20
158.095843900864
 30
0.0
 10
-342.2838401591848
 20
158.1171415297907
 30
0.0
 10
-342.1033123423029
 20
158.1203862610969
 30
0.0
 10
-341.8339950001611
 20
158.1138007985701
 30
0.0
 10
-341.744343100224
 20
158.1097243283441
 30
0.0
 10
-341.5652798954346
 20
158.0978172002905
 30
0.0
 10
-341.474603881506
 20
158.0898482650868
 30
0.0
 10
-341.3865803470461
 20
158.0802493268173
 30
0.0
  0
SPLINE
  5
3CE
330
35A
100
AcDbEntity
  8
0
  6
Continuous
 62
     7
370
    25
100
AcDbSpline
210
0.0
220
0.0
230
1.0
 70
     8
 71
     3
 72
    22
 73
    18
 74
     0
 42
0.000000001
 43
0.00000001
 40
0.0
 40
0.0
 40
0.0
 40
0.0
 40
0.125
 40
0.125
 40
0.25
 40
0.25
 40
0.375
 40
0.375
 40
0.5
 40
0.5
 40
0.625
 40
0.625
 40
0.75
 40
0.75
 40
0.875
 40
0.875
 40
1.0
 40
1.0
 40
1.0
 40
1.0
 10
-417.2978355079219
 20
86.60078688507059
 30
0.0
 10
-414.2832304155348
 20
89.44438716632494
 30
0.0
 10
-411.2683856962695
 20
92.28387905463717
 30
0.0
 10
-405.2376658445634
 20
97.95548616184968
 30
0.0
 10
-402.2218070010883
 20
100.787280716054
 30
0.0
 10
-396.1880062257176
 20
106.4506005919717
 30
0.0
 10
-393.1698223423035
 20
109.2805475974758
 30
0.0
 10
-387.1314098765811
 20
114.9791403343274
 30
0.0
 10
-384.1111250472035
 20
117.8516770524826
 30
0.0
 10
-378.0828457928044
 20
123.7354383400568
 30
0.0
 10
-375.075955399808
 20
126.7455924423378
 30
0.0
 10
-369.0607896692563
 20
132.8116566071554
 30
0.0
 10
-366.0525035116146
 20
135.86373487806
 30
0.0
 10
-360.0333187163969
 20
141.9645097285788
 30
0.0
 10
-357.0226868858105
 20
145.0147610156343
 30
0.0
 10
-351.0002777797243
 20
151.1073890141996
 30
0.0
 10
-347.9884903680015
 20
154.150080481593
 30
0.0
 10
-344.9763864756582
 20
157.1887382570715
 30
0.0
  0
SPLINE
  5
3CF
330
35A
100
AcDbEntity
  8
0
  6
Continuous
 62
     7
370
    25
100
AcDbSpline
210
0.0
220
0.0
230
1.0
 70
     8
 71
     3
 72
    18
 73
    14
 74
     0
 42
0.000000001
 43
0.00000001
 40
0.0
 40
0.0
 40
0.0
 40
0.0
 40
0.2499999999999948
 40
0.2499999999999948
 40
0.3749999999999922
 40
0.3749999999999922
 40
0.4999999999999896
 40
0.4999999999999896
 40
0.6249999999999869
 40
0.6249999999999869
 40
0.7499999999999843
 40
0.7499999999999843
 40
1.0
 40
1.0
 40
1.0
 40
1.0
 10
-416.7845619107196
 20
84.48950788869567
 30
0.0
 10
-417.026971403686
 20
84.63816060631268
 30
0.0
 10
-417.2298363342171
 20
84.80642436371409
 30
0.0
 10
-417.4547363283453
 20
85.07029816180372
 30
0.0
 10
-417.5169305768018
 20
85.16020237098991
 30
0.0
 10
-417.6157894067294
 20
85.34387689230388
 30
0.0
 10
-417.6525459442593
 20
85.43846091085375
 30
0.0
 10
-417.6977769303309
 20
85.62615080058953
 30
0.0
 10
-417.7066559506694
 20
85.71952258438425
 30
0.0
 10
-417.6973431615796
 20
85.90530734543547
 30
0.0
 10
-417.6788926062662
 20
85.99838760528866
 30
0.0
 10
-417.5824924514441
 20
86.2712210543602
 30
0.0
 10
-417.4664079276837
 20
86.44177681059782
 30
0.0
 10
-417.2978355079219
 20
86.60078688507062
 30
0.0
  0
SPLINE
  5
3D0
330
35A
100
AcDbEntity
  8
0
  6
Continuous
 62
     7
370
    25
100
AcDbSpline
210
0.0
220
0.0
230
1.0
 70
     8
 71
     3
 72
    11
 73
     7
 74
     0
 42
0.000000001
 43
0.00000001
 40
0.0
 40
0.0
 40
0.0
 40
0.0
 40
0.0001553673434369
 40
0.0001553673434369
 40
0.0001553673434369
 40
0.0001663217991654
 40
0.0001663217991654
 40
0.0001663217991654
 40
0.0001663217991654
 10
-312.3267279397019
 20
365.2574927330197
 30
0.0
 10
-312.3420182543911
 20
365.2841973202192
 30
0.0
 10
-312.3573153487729
 20
365.3103380702136
 30
0.0
 10
-312.3726115202066
 20
365.3359024802507
 30
0.0
 10
-312.3736900044561
 20
365.3377049452461
 30
0.0
 10
-312.3747684909569
 20
365.3395045565581
 30
0.0
 10
-312.3758469770063
 20
365.3413013097023
 30
0.0
  0
LWPOLYLINE
  5
3D1
330
35A
100
AcDbEntity
  8
0
  6
Continuous
 62
     7
370
    25
100
AcDbPolyline
 90
        3
 70
   128
 43
0.0
 10
-278.552477248
 20
46.4323434374
 10
-278.549587859
 20
46.4315437147
 10
-278.5392784788
 20
46.4282187611
  0
SPLINE
  5
3D3
330
35A
100
AcDbEntity
  8
0
  6
Continuous
 62
     7
370
    25
100
AcDbSpline
210
0.0
220
0.0
230
1.0
 70
     8
 71
     3
 72
    10
 73
     6
 74
     0
 42
0.000000001
 43
0.00000001
 40
0.0
 40
0.0
 40
0.0
 40
0.0
 40
0.4751573995244207
 40
0.9503146055901591
 40
1.0
 40
1.0
 40
1.0
 40
1.0
 10
-416.7826664291736
 20
84.49027378680644
 30
0.0
 10
-416.7020190638124
 20
84.51491846838216
 30
0.0
 10
-416.5407243659255
 20
84.5642078214996
 30
0.0
 10
-416.37904391886
 20
84.54612085576547
 30
0.0
 10
-416.3236564892244
 20
84.49157055590493
 30
0.0
 10
-416.3184131147645
 20
84.48640643020077
 30
0.0
  0
SPLINE
  5
3D5
330
35A
100
AcDbEntity
  8
0
  6
Continuous
 62
     7
370
    25
100
AcDbSpline
210
0.0
220
0.0
230
1.0
 70
     8
 71
     3
 72
    22
 73
    18
 74
     0
 42
0.000000001
 43
0.00000001
 40
0.0
 40
0.0
 40
0.0
 40
0.0
 40
0.1250000000000001
 40
0.1250000000000001
 40
0.2500000000000001
 40
0.2500000000000001
 40
0.3750000000000002
 40
0.3750000000000002
 40
0.5000000000000002
 40
0.5000000000000002
 40
0.6250000000000002
 40
0.6250000000000002
 40
0.7500000000000002
 40
0.7500000000000002
 40
0.8750000000000001
 40
0.8750000000000001
 40
1.0
 40
1.0
 40
1.0
 40
1.0
 10
-344.1308996792113
 20
156.1133258605927
 30
0.0
 10
-347.1449151369195
 20
153.0745145707464
 30
0.0
 10
-350.1588951254998
 20
150.0317533837762
 30
0.0
 10
-356.186793281216
 20
143.9393464777837
 30
0.0
 10
-359.2007085596636
 20
140.8893790699631
 30
0.0
 10
-365.2285434137448
 20
134.7899227956214
 30
0.0
 10
-368.2424498544152
 20
131.7389711991825
 30
0.0
 10
-374.2706111210115
 20
125.675864729254
 30
0.0
 10
-377.284900715914
 20
122.6675817829786
 30
0.0
 10
-383.3146592746268
 20
116.7823522428591
 30
0.0
 10
-386.3289535653271
 20
113.9065523327823
 30
0.0
 10
-392.3571189501531
 20
108.2023143321658
 30
0.0
 10
-395.3710273492081
 20
105.3699339189464
 30
0.0
 10
-401.3988661326108
 20
99.70268327521559
 30
0.0
 10
-404.4127833743983
 20
96.86930142944486
 30
0.0
 10
-410.4406854956487
 20
91.19487782377718
 30
0.0
 10
-413.4546674847529
 20
88.3541633947654
 30
0.0
 10
-416.4686849633709
 20
85.50942980593032
 30
0.0
  0
SPLINE
  5
3D9
330
35A
100
AcDbEntity
  8
0
  6
Continuous
 62
     7
370
    25
100
AcDbSpline
210
0.0
220
0.0
230
1.0
 70
     8
 71
     3
 72
    20
 73
    16
 74
     0
 42
0.000000001
 43
0.00000001
 40
0.0
 40
0.0
 40
0.0
 40
0.0
 40
0.2500000000000008
 40
0.2500000000000008
 40
0.3750000000000007
 40
0.3750000000000007
 40
0.5000000000000006
 40
0.5000000000000006
 40
0.6250000000000004
 40
0.6250000000000004
 40
0.7500000000000002
 40
0.7500000000000002
 40
0.8750000000000001
 40
0.8750000000000001
 40
1.0
 40
1.0
 40
1.0
 40
1.0
 10
-203.6683070426923
 20
118.8020354008326
 30
0.0
 10
-215.0928331861982
 20
121.7892278046348
 30
0.0
 10
-226.5173393651976
 20
124.7740306982125
 30
0.0
 10
-243.6542910938934
 20
129.2742701988963
 30
0.0
 10
-249.3666420980855
 20
130.7783908514234
 30
0.0
 10
-260.7915397601132
 20
133.8100495337615
 30
0.0
 10
-266.5040846013825
 20
135.3373701425505
 30
0.0
 10
-277.9296438617222
 20
138.4482141496893
 30
0.0
 10
-283.6419072506896
 20
140.0347384396274
 30
0.0
 10
-295.0651585155532
 20
143.2843379926643
 30
0.0
 10
-300.7761886572402
 20
144.9449163923399
 30
0.0
 10
-312.198036274416
 20
148.2788507265765
 30
0.0
 10
-317.9088799501629
 20
149.9506324819052
 30
0.0
 10
-329.3308231150205
 20
153.2788260644461
 30
0.0
 10
-335.0419053753639
 20
154.9362730405093
 30
0.0
 10
-340.7531159026926
 20
156.5860134045753
 30
0.0
  0
SPLINE
  5
3DB
330
35A
100
AcDbEntity
  8
0
  6
Continuous
 62
     7
370
    25
100
AcDbSpline
210
0.0
220
0.0
230
1.0
 70
     8
 71
     3
 72
    14
 73
    10
 74
     0
 42
0.000000001
 43
0.00000001
 40
0.0
 40
0.0
 40
0.0
 40
0.0
 40
0.25
 40
0.25
 40
0.5
 40
0.5
 40
0.75
 40
0.75
 40
1.0
 40
1.0
 40
1.0
 40
1.0
 10
-341.3868614689045
 20
158.0788907932786
 30
0.0
 10
-341.4059523390901
 20
158.0092428074574
 30
0.0
 10
-341.4251087659567
 20
157.9202638842978
 30
0.0
 10
-341.4619905831752
 20
157.7116585871601
 30
0.0
 10
-341.479391172186
 20
157.5934881073818
 30
0.0
 10
-341.5097298582683
 20
157.3461498435984
 30
0.0
 10
-341.5227494613168
 20
157.2160350926391
 30
0.0
 10
-341.542263534991
 20
156.9655607646066
 30
0.0
 10
-341.5489827793398
 20
156.841719144632
 30
0.0
 10
-341.5519286810559
 20
156.7328927813023
 30
0.0
  0
SPLINE
  5
3DC
330
35A
100
AcDbEntity
  8
0
  6
Continuous
 62
     7
370
    25
100
AcDbSpline
210
0.0
220
0.0
230
1.0
 70
     8
 71
     3
 72
    12
 73
     8
 74
     0
 42
0.000000001
 43
0.00000001
 40
0.0
 40
0.0
 40
0.0
 40
0.0
 40
0.4999999999999899
 40
0.4999999999999899
 40
0.7499999999999949
 40
0.7499999999999949
 40
1.0
 40
1.0
 40
1.0
 40
1.0
 10
-341.5519286810558
 20
156.7328927813025
 30
0.0
 10
-342.063850834401
 20
156.7974696835753
 30
0.0
 10
-342.5923178145437
 20
156.7721385427386
 30
0.0
 10
-343.280016800252
 20
156.6070424780908
 30
0.0
 10
-343.4895071170643
 20
156.5319815129017
 30
0.0
 10
-343.8573383915551
 20
156.3451402401055
 30
0.0
 10
-344.0099638887002
 20
156.2368140393854
 30
0.0
 10
-344.1308996792113
 20
156.1133258605927
 30
0.0
  0
SPLINE
  5
3DD
330
35A
100
AcDbEntity
  8
0
  6
Continuous
 62
     7
370
    25
100
AcDbSpline
210
0.0
220
0.0
230
1.0
 70
     8
 71
     3
 72
     8
 73
     4
 74
     0
 42
0.000000001
 43
0.00000001
 40
0.0
 40
0.0
 40
0.0
 40
0.0
 40
1.0
 40
1.0
 40
1.0
 40
1.0
 10
-340.7531159026926
 20
156.5860134045753
 30
0.0
 10
-341.0044727473033
 20
156.6603377618033
 30
0.0
 10
-341.2707398712624
 20
156.7092877128401
 30
0.0
 10
-341.5519286810558
 20
156.7328927813025
 30
0.0
  0
LWPOLYLINE
  5
3E0
330
35A
100
AcDbEntity
  8
0
  6
Continuous
 62
    60
370
    25
100
AcDbPolyline
 90
        7
 70
   128
 43
0.0
 10
-399.7021977212
 20
83.2952272302
 10
-400.5200676968
 20
83.5734549183
 10
-401.2168331776
 20
83.9285152509
 10
-401.7657178568
 20
84.3467634583
 10
-402.1456284041
 20
84.8121264967
 10
-402.3419650702
 20
85.3067207252
 10
-402.3686385964
 20
85.5875368431
  0
LWPOLYLINE
  5
3E8
330
35A
100
AcDbEntity
  8
0
  6
Continuous
 62
    60
370
    25
100
AcDbPolyline
 90
        6
 70
   128
 43
0.0
 10
318.8691117446
 20
-347.0035234815
 10
318.8870465866
 20
-347.3204686153
 10
318.9401618869
 20
-347.5902238139
 10
319.0264164542
 20
-347.8024225364
 10
319.1424955739
 20
-347.948910105
 10
319.2779721391
 20
-348.0224971458
  0
LWPOLYLINE
  5
3E9
330
35A
100
AcDbEntity
  8
0
  6
Continuous
 62
    60
370
    25
100
AcDbPolyline
 90
        6
 70
   128
 43
0.0
 10
-738.8949617816
 20
-59.5259134395
 10
-738.8770269396
 20
-59.8428585733
 10
-738.8239116393
 20
-60.1126137719
 10
-738.737657072
 20
-60.3248124945
 10
-738.6215779523
 20
-60.471300063
 10
-738.4861013871
 20
-60.5448871039
  0
LWPOLYLINE
  5
3EB
330
35A
100
AcDbEntity
  8
0
  6
Continuous
 62
    60
370
    25
100
AcDbPolyline
 90
        7
 70
   128
 43
0.0
 10
-738.8949617816
 20
-33.8108944185
 10
-739.2221097719
 20
-33.6996033432
 10
-739.5008159642
 20
-33.5575792102
 10
-739.7203698359
 20
-33.3902799272
 10
-739.8723340548
 20
-33.2041347119
 10
-739.9508687212
 20
-33.0062970204
 10
-739.9615698439
 20
-32.8987670488
  0
LWPOLYLINE
  5
3EE
330
35A
100
AcDbEntity
  8
0
  6
Continuous
 62
    60
370
    25
100
AcDbPolyline
 90
        7
 70
   128
 43
0.0
 10
-738.8949617816
 20
-59.5259134395
 10
-739.2221097719
 20
-59.4146223643
 10
-739.5008159642
 20
-59.2725982312
 10
-739.7203698359
 20
-59.1052989483
 10
-739.8723340548
 20
-58.9191537329
 10
-739.9508687212
 20
-58.7213160415
 10
-739.9615710038
 20
-58.6148954259
  0
SPLINE
  5
3F2
330
35A
100
AcDbEntity
  8
0
  6
Continuous
 62
    60
370
    25
100
AcDbSpline
210
0.0
220
0.0
230
1.0
 70
     8
 71
     3
 72
    10
 73
     6
 74
     0
 42
0.000000001
 43
0.00000001
 40
0.0
 40
0.0
 40
0.0
 40
0.0
 40
0.390764407751019
 40
0.7815288062515793
 40
1.0
 40
1.0
 40
1.0
 40
1.0
 10
-263.6028517787009
 20
56.98668953136062
 30
0.0
 10
-263.7015255576965
 20
57.00208636018275
 30
0.0
 10
-263.8988731133521
 20
57.03288001746256
 30
0.0
 10
-264.1324577546312
 20
56.97357041517877
 30
0.0
 10
-264.2285842159567
 20
56.88056659669977
 30
0.0
 10
-264.2630550561764
 20
56.84721553267007
 30
0.0
  0
SPLINE
  5
3F3
330
35A
100
AcDbEntity
  8
0
  6
Continuous
 62
    60
370
    25
100
AcDbSpline
210
0.0
220
0.0
230
1.0
 70
     8
 71
     3
 72
    10
 73
     6
 74
     0
 42
0.000000001
 43
0.00000001
 40
0.0
 40
0.0
 40
0.0
 40
0.0
 40
0.3736059248136648
 40
0.7472118407830439
 40
0.9999999999999999
 40
0.9999999999999999
 40
0.9999999999999999
 40
0.9999999999999999
 10
-212.238262399476
 20
107.1201034197637
 30
0.0
 10
-212.3369338406696
 20
107.1357672642772
 30
0.0
 10
-212.5342767207211
 20
107.1670949529335
 30
0.0
 10
-212.7755785599134
 20
107.1044569100787
 30
0.0
 10
-212.8768549487399
 20
107.0049348095474
 30
0.0
 10
-212.9177261397646
 20
106.9647715806931
 30
0.0
  0
LWPOLYLINE
  5
3F6
330
35A
100
AcDbEntity
  8
0
  6
Continuous
 62
    60
370
    25
100
AcDbPolyline
 90
        5
 70
   128
 43
0.0
 10
-319.0949938139
 20
377.5703828666
 10
-319.0982899737
 20
377.5711863511
 10
-319.1874421722
 20
377.5310080616
 10
-319.2841779447
 20
377.3758992606
 10
-319.3847797897
 20
377.1118206924
  0
SPLINE
  5
3F8
330
35A
100
AcDbEntity
  8
0
  6
Continuous
 62
    60
370
    25
100
AcDbSpline
210
0.0
220
0.0
230
1.0
 70
     8
 71
     3
 72
     9
 73
     5
 74
     0
 42
0.000000001
 43
0.00000001
 40
0.0
 40
0.0
 40
0.0
 40
0.0
 40
0.6906233266550229
 40
1.0
 40
1.0
 40
1.0
 40
1.0
 10
-416.4686849633709
 20
85.50942980593032
 30
0.0
 10
-416.5878028609984
 20
85.38009679978312
 30
0.0
 10
-416.7602816827092
 20
85.19282683487533
 30
0.0
 10
-416.7315340849027
 20
84.97667214840493
 30
0.0
 10
-416.7226402487267
 20
84.90979893057681
 30
0.0
  0
SPLINE
  5
3FD
330
35A
100
AcDbEntity
  8
0
  6
Continuous
 62
    60
370
    25
100
AcDbSpline
210
0.0
220
0.0
230
1.0
 70
     8
 71
     3
 72
    11
 73
     7
 74
     0
 42
0.000000001
 43
0.00000001
 40
0.0
 40
0.0
 40
0.0
 40
0.0
 40
0.0621004355608874
 40
0.3747304083556248
 40
0.6873620385243594
 40
1.0
 40
1.0
 40
1.0
 40
1.0
 10
-202.3576269641293
 20
117.6672416671809
 30
0.0
 10
-202.350949396443
 20
117.6967316721729
 30
0.0
 10
-202.3106551916869
 20
117.8746821408487
 30
0.0
 10
-202.5160545467309
 20
118.192974000022
 30
0.0
 10
-202.957443564749
 20
118.5702459215815
 30
0.0
 10
-203.4313509504929
 20
118.7247717195204
 30
0.0
 10
-203.6683070426923
 20
118.8020354008326
 30
0.0
  0
LINE
  5
401
330
35A
100
AcDbEntity
  8
0
  6
Continuous
 62
     7
370
    25
100
AcDbLine
 10
-278.3943649585
 20
46.4108355469
 30
0.0
 11
-278.3943649585
 21
47.6370879263
 31
0.0
  0
LINE
  5
402
330
35A
100
AcDbEntity
  8
0
  6
Continuous
 62
     7
370
    25
100
AcDbLine
 10
-402.3687207766
 20
85.5727722642
 30
0.0
 11
-402.3687207766
 21
80.42976846
 31
0.0
  0
LINE
  5
403
330
35A
100
AcDbEntity
  8
0
  6
Continuous
 62
     7
370
    25
100
AcDbLine
 10
-340.748530898
 20
146.9413035786
 30
0.0
 11
-401.4189314589
 21
87.7251326941
 31
0.0
  0
LINE
  5
404
330
35A
100
AcDbEntity
  8
0
  6
Continuous
 62
     7
370
    25
100
AcDbLine
 10
-216.7239643976
 20
108.3983730356
 30
0.0
 11
-216.7239643976
 21
113.5413768398
 31
0.0
  0
LINE
  5
405
330
35A
100
AcDbEntity
  8
0
  6
Continuous
 62
     7
370
    25
100
AcDbLine
 10
-217.7239643976
 20
102.2214755979
 30
0.0
 11
-217.7239643976
 21
106.7845701886
 31
0.0
  0
LINE
  5
406
330
35A
100
AcDbEntity
  8
0
  6
Continuous
 62
     7
370
    25
100
AcDbLine
 10
-219.7993478475
 20
116.8378955382
 30
0.0
 11
-334.7737036655
 21
148.0854618471
 31
0.0
  0
LINE
  5
407
330
35A
100
AcDbEntity
  8
0
  6
Continuous
 62
     7
370
    25
100
AcDbLine
 10
-738.4861013871
 20
-60.5448871039
 30
0.0
 11
319.2779721391
 21
-348.0224971458
 31
0.0
  0
LINE
  5
408
330
35A
100
AcDbEntity
  8
0
  6
Continuous
 62
     7
370
    25
100
AcDbLine
 10
321.1994588397
 20
-347.5237682137
 30
0.0
 11
739.3585273211
 21
60.6123018829
 31
0.0
  0
LINE
  5
409
330
35A
100
AcDbEntity
  8
0
  6
Continuous
 62
     7
370
    25
100
AcDbLine
 10
-321.111636861
 20
377.0469557552
 30
0.0
 11
-739.0744693738
 21
-30.8975820202
 31
0.0
  0
LINE
  5
40A
330
35A
100
AcDbEntity
  8
0
  6
Continuous
 62
     7
370
    25
100
AcDbLine
 10
-739.9615710038
 20
-32.8998764049
 30
0.0
 11
-739.9615710038
 21
-58.6148954259
 31
0.0
  0
LINE
  5
40B
330
35A
100
AcDbEntity
  8
0
  6
Continuous
 62
     7
370
    25
100
AcDbLine
 10
737.8942626674
 20
90.3033514952
 30
0.0
 11
-319.0949938139
 21
377.5703828666
 31
0.0
  0
LINE
  5
40C
330
35A
100
AcDbEntity
  8
0
  6
Continuous
 62
     7
370
    25
100
AcDbLine
 10
739.9615710038
 20
62.0435646287
 30
0.0
 11
739.9615710038
 21
87.7585836498
 31
0.0
  0
LINE
  5
40D
330
35A
100
AcDbEntity
  8
0
  6
Continuous
 62
     7
370
    25
100
AcDbLine
 10
-403.9631585964
 20
80.8245487222
 30
0.0
 11
-402.3687207766
 21
82.3807689141
 31
0.0
  0
LINE
  5
40E
330
35A
100
AcDbEntity
  8
0
  6
Continuous
 62
     7
370
    25
100
AcDbLine
 10
-217.7239643976
 20
106.1636935542
 30
0.0
 11
-214.6004929741
 21
105.3148009492
 31
0.0
  0
LINE
  5
40F
330
35A
100
AcDbEntity
  8
0
  6
Continuous
 62
     7
370
    25
100
AcDbLine
 10
-277.9722743501
 20
53.1233764819
 30
0.0
 11
-277.9722743501
 21
47.9803726776
 31
0.0
  0
LINE
  5
410
330
35A
100
AcDbEntity
  8
0
  6
Continuous
 62
     7
370
    25
100
AcDbLine
 10
-284.7278419032
 20
52.0476609213
 30
0.0
 11
-399.7021977212
 21
83.2952272302
 31
0.0
  0
LINE
  5
411
330
35A
100
AcDbEntity
  8
0
  6
Continuous
 62
     7
370
    25
100
AcDbLine
 10
-398.7688069434
 20
85.9205798452
 30
0.0
 11
-283.7944511253
 21
54.6730135363
 31
0.0
  0
LINE
  5
412
330
35A
100
AcDbEntity
  8
0
  6
Continuous
 62
     7
370
    25
100
AcDbLine
 10
-220.3238782308
 20
116.6222384617
 30
0.0
 11
-335.2982340489
 21
147.8698047706
 31
0.0
  0
LINE
  5
413
330
35A
100
AcDbEntity
  8
0
  6
Continuous
 62
     7
370
    25
100
AcDbLine
 10
-279.7411105935
 20
55.3184428726
 30
0.0
 11
-219.0707100326
 21
114.5346137572
 31
0.0
  0
LINE
  5
414
330
35A
100
AcDbEntity
  8
0
  6
Continuous
 62
     7
370
    25
100
AcDbLine
 10
-339.3515745807
 20
147.2243754342
 30
0.0
 11
-400.0219751416
 21
88.0082045496
 31
0.0
  0
LINE
  5
415
330
35A
100
AcDbEntity
  8
0
  6
Continuous
 62
     7
370
    25
100
AcDbLine
 10
-217.3018737892
 20
112.3395473664
 30
0.0
 11
-277.9722743501
 21
53.1233764819
 31
0.0
  0
LINE
  5
416
330
35A
100
AcDbEntity
  8
0
  6
Continuous
 62
     7
370
    25
100
AcDbLine
 10
-217.3018737892
 20
112.3395473664
 30
0.0
 11
-217.3018737892
 21
107.1965435622
 31
0.0
  0
LINE
  5
417
330
35A
100
AcDbEntity
  8
0
  6
Continuous
 62
     7
370
    25
100
AcDbLine
 10
-277.9722743501
 20
47.9803726776
 30
0.0
 11
-217.3018737892
 21
107.1965435622
 31
0.0
  0
LINE
  5
418
330
35A
100
AcDbEntity
  8
0
  6
Continuous
 62
     7
370
    25
100
AcDbLine
 10
-214.9199855299
 20
104.9983919642
 30
0.0
 11
-217.7239643976
 21
105.7604533385
 31
0.0
  0
LINE
  5
419
330
35A
100
AcDbEntity
  8
0
  6
Continuous
 62
     7
370
    25
100
AcDbLine
 10
-402.3687207766
 20
81.8173839874
 30
0.0
 11
-403.5188538844
 21
80.6948188153
 31
0.0
  0
LINE
  5
41A
330
35A
100
AcDbEntity
  8
0
  6
Continuous
 62
     7
370
    25
100
AcDbLine
 10
-226.2741702201
 20
93.7988812146
 30
0.0
 11
-232.2627399842
 21
92.5942795093
 31
0.0
  0
LINE
  5
41B
330
35A
100
AcDbEntity
  8
0
  6
Continuous
 62
     7
370
    25
100
AcDbLine
 10
-244.8815457869
 20
80.2779381985
 30
0.0
 11
-244.7583184452
 21
79.583900686
 31
0.0
  0
LINE
  5
41C
330
35A
100
AcDbEntity
  8
0
  6
Continuous
 62
     7
370
    25
100
AcDbLine
 10
-736.6104574932
 20
-30.1132313906
 30
0.0
 11
319.3847797897
 21
-317.1101096432
 31
0.0
  0
LINE
  5
41D
330
35A
100
AcDbEntity
  8
0
  6
Continuous
 62
     7
370
    25
100
AcDbLine
 10
318.8691117446
 20
-321.2885044604
 30
0.0
 11
-738.8949617816
 21
-33.8108944185
 31
0.0
  0
LINE
  5
41E
330
35A
100
AcDbEntity
  8
0
  6
Continuous
 62
     7
370
    25
100
AcDbLine
 10
739.7304072471
 20
87.2778518604
 30
0.0
 11
321.5713387658
 21
-320.8582182362
 31
0.0
  0
LINE
  5
41F
330
35A
100
AcDbEntity
  8
0
  6
Continuous
 62
     7
370
    25
100
AcDbLine
 10
319.3847797897
 20
-317.1101096432
 30
0.0
 11
736.6104574932
 21
90.1149424398
 31
0.0
  0
LINE
  5
420
330
35A
100
AcDbEntity
  8
0
  6
Continuous
 62
     7
370
    25
100
AcDbLine
 10
318.8691117446
 20
-347.0035234815
 30
0.0
 11
318.8691117446
 21
-321.2885044604
 31
0.0
  0
LINE
  5
421
330
35A
100
AcDbEntity
  8
0
  6
Continuous
 62
     7
370
    25
100
AcDbLine
 10
321.5713387658
 20
-320.8582182362
 30
0.0
 11
321.5713387658
 21
-346.5732372573
 31
0.0
  0
LINE
  5
422
330
35A
100
AcDbEntity
  8
0
  6
Continuous
 62
     7
370
    25
100
AcDbLine
 10
-738.8949617816
 20
-33.8108944185
 30
0.0
 11
-738.8949617816
 21
-59.5259134395
 31
0.0
  0
LINE
  5
423
330
35A
100
AcDbEntity
  8
0
  6
Continuous
 62
     7
370
    25
100
AcDbLine
 10
-738.8949617816
 20
-59.5259134395
 30
0.0
 11
318.8691117446
 21
-347.0035234815
 31
0.0
  0
LINE
  5
424
330
35A
100
AcDbEntity
  8
0
  6
Continuous
 62
     7
370
    25
100
AcDbLine
 10
739.7304072471
 20
61.5628328394
 30
0.0
 11
739.7304072471
 21
87.2778518604
 31
0.0
  0
LINE
  5
425
330
35A
100
AcDbEntity
  8
0
  6
Continuous
 62
     7
370
    25
100
AcDbLine
 10
321.5713387658
 20
-346.5732372573
 30
0.0
 11
739.7304072471
 21
61.5628328394
 31
0.0
  0
LINE
  5
426
330
35A
100
AcDbEntity
  8
0
  6
Continuous
 62
     7
370
    25
100
AcDbLine
 10
-319.3847797897
 20
377.1118206924
 30
0.0
 11
-736.6104574932
 21
-30.1132313906
 31
0.0
  0
LINE
  5
427
330
35A
100
AcDbEntity
  8
0
  6
Continuous
 62
     7
370
    25
100
AcDbLine
 10
736.6104574932
 20
90.1149424398
 30
0.0
 11
-319.3847797897
 21
377.1118206924
 31
0.0
  0
LINE
  5
428
330
35A
100
AcDbEntity
  8
0
  6
Continuous
 62
     7
370
    25
100
AcDbLine
 10
312.1932266565
 20
-305.2234531454
 30
0.0
 11
-263.6016752359
 21
56.9861961929
 31
0.0
  0
LINE
  5
429
330
35A
100
AcDbEntity
  8
0
  6
Continuous
 62
     7
370
    25
100
AcDbLine
 10
-263.602696568
 20
56.9868386723
 30
0.0
 11
-263.6028517787
 21
56.9866895314
 31
0.0
  0
LINE
  5
42A
330
35A
100
AcDbEntity
  8
0
  6
Continuous
 62
     7
370
    25
100
AcDbLine
 10
-212.2382623995
 20
107.1201034198
 30
0.0
 11
-212.2384176347
 21
107.1199495559
 31
0.0
  0
LINE
  5
42B
330
35A
100
AcDbEntity
  8
0
  6
Continuous
 62
     7
370
    25
100
AcDbLine
 10
713.4964017324
 20
86.4607482462
 30
0.0
 11
-212.2367755899
 21
107.1199129112
 31
0.0
  0
LINE
  5
42C
330
35A
100
AcDbEntity
  8
0
  6
Continuous
 62
     7
370
    25
100
AcDbLine
 10
-713.3769812807
 20
-26.3569286603
 30
0.0
 11
-416.7845619107
 21
84.4895078887
 31
0.0
  0
LINE
  5
42D
330
35A
100
AcDbEntity
  8
0
  6
Continuous
 62
     7
370
    25
100
AcDbLine
 10
-416.7826047048
 20
84.4902393615
 30
0.0
 11
-416.7826664292
 21
84.4902737868
 31
0.0
  0
LINE
  5
42E
330
35A
100
AcDbEntity
  8
0
  6
Continuous
 62
     7
370
    25
100
AcDbLine
 10
-341.386580347
 20
158.0802493268
 30
0.0
 11
-312.3094287889
 21
365.0972978659
 31
0.0
  0
LINE
  5
42F
330
35A
100
AcDbEntity
  8
0
  6
Continuous
 62
     7
370
    25
100
AcDbLine
 10
-274.7483434868
 20
46.93051928
 30
0.0
 11
-274.7700755112
 21
46.9103698696
 31
0.0
  0
LINE
  5
430
330
35A
100
AcDbEntity
  8
0
  6
Continuous
 62
     7
370
    25
100
AcDbLine
 10
-202.4681002321
 20
117.4777688553
 30
0.0
 11
-202.4393055874
 21
117.5073719919
 31
0.0
  0
LINE
  5
431
330
35A
100
AcDbEntity
  8
0
  6
Continuous
 62
    60
370
    25
100
AcDbLine
 10
-284.7278419032
 20
52.0476609213
 30
0.0
 11
-284.7278419032
 21
48.0445484588
 31
0.0
  0
LINE
  5
432
330
35A
100
AcDbEntity
  8
0
  6
Continuous
 62
    60
370
    25
100
AcDbLine
 10
-399.7021977212
 20
83.2952272302
 30
0.0
 11
-399.7021977212
 21
79.5804159393
 31
0.0
  0
LINE
  5
433
330
35A
100
AcDbEntity
  8
0
  6
Continuous
 62
    60
370
    25
100
AcDbLine
 10
-220.5424660897
 20
104.033626132
 30
0.0
 11
-220.5424660897
 21
99.4431080937
 31
0.0
  0
LINE
  5
434
330
35A
100
AcDbEntity
  8
0
  6
Continuous
 62
    60
370
    25
100
AcDbLine
 10
-416.4686849634
 20
84.6111882931
 30
0.0
 11
-416.4686849634
 21
85.5094298059
 31
0.0
  0
LINE
  5
435
330
35A
100
AcDbEntity
  8
0
  6
Continuous
 62
    60
370
    25
100
AcDbLine
 10
-344.1308996792
 20
143.6400079568
 30
0.0
 11
-344.1308996792
 21
156.1133258606
 31
0.0
  0
LINE
  5
436
330
35A
100
AcDbEntity
  8
0
  6
Continuous
 62
    60
370
    25
100
AcDbLine
 10
-404.1948454714
 20
80.8921976035
 30
0.0
 11
-402.3687207766
 21
82.6745512881
 31
0.0
  0
LINE
  5
437
330
35A
100
AcDbEntity
  8
0
  6
Continuous
 62
    60
370
    25
100
AcDbLine
 10
-203.6683070427
 20
116.2878723627
 30
0.0
 11
-203.6683070427
 21
118.8020354008
 31
0.0
  0
LINE
  5
438
330
35A
100
AcDbEntity
  8
0
  6
Continuous
 62
    60
370
    25
100
AcDbLine
 10
-217.7239643976
 20
106.6176206392
 30
0.0
 11
-214.2408405414
 21
105.6709822094
 31
0.0
  0
LINE
  5
439
330
35A
100
AcDbEntity
  8
0
  6
Continuous
 62
    60
370
    25
100
AcDbLine
 10
-340.7531159027
 20
146.9368284735
 30
0.0
 11
-340.7531159027
 21
156.5860134046
 31
0.0
  0
ARC
  5
43A
330
35A
100
AcDbEntity
  8
0
  6
Continuous
 62
     7
370
    25
100
AcDbCircle
 10
319.8025025224
 20
-346.0925054679
 30
0.0
 40
1.999999999999776
100
AcDbArc
 50
254.7954868413
 51
314.305033619
  0
ARC
  5
43B
330
35A
100
AcDbEntity
  8
0
  6
Continuous
 62
     7
370
    25
100
AcDbCircle
 10
-737.9615710038
 20
-58.6148954259
 30
0.0
 40
2.000000000000036
100
AcDbArc
 50
180.0
 51
254.7954868413
  0
ARC
  5
43C
330
35A
100
AcDbEntity
  8
0
  6
Continuous
 62
     7
370
    25
100
AcDbCircle
 10
737.9615710038
 20
62.0435646287
 30
0.0
 40
1.999999999999886
100
AcDbArc
 50
314.305033619
 51
360.0
  0
ARC
  5
43D
330
35A
100
AcDbEntity
  8
0
  6
Continuous
 62
     7
370
    25
100
AcDbCircle
 10
-282.4358753047
 20
59.4045251054
 30
0.0
 40
7.705618827394082
100
AcDbArc
 50
252.6960345908
 51
305.398914916
  0
ARC
  5
43E
330
35A
100
AcDbEntity
  8
0
  6
Continuous
 62
     7
370
    25
100
AcDbCircle
 10
-280.6379310064
 20
52.0721765749
 30
0.0
 40
4.089984371671377
100
AcDbArc
 50
140.5129436103
 51
180.3434369839
  0
ARC
  5
43F
330
35A
100
AcDbEntity
  8
0
  6
Continuous
 62
     7
370
    25
100
AcDbCircle
 10
-282.4192711662
 20
59.0871320468
 30
0.0
 40
4.623371296436307
100
AcDbArc
 50
252.6960345908
 51
305.398914916
  0
ARC
  5
440
330
35A
100
AcDbEntity
  8
0
  6
Continuous
 62
     7
370
    25
100
AcDbCircle
 10
-280.3970187398
 20
52.9796784594
 30
0.0
 40
2.428998657232976
100
AcDbArc
 50
3.391562315
 51
74.3338098233
  0
ARC
  5
441
330
35A
100
AcDbEntity
  8
0
  6
Continuous
 62
     7
370
    25
100
AcDbCircle
 10
-281.3373197938
 20
51.924433205
 30
0.0
 40
5.18451003288369
100
AcDbArc
 50
281.8702282323
 51
310.4705837414
  0
ARC
  5
442
330
35A
100
AcDbEntity
  8
0
  6
Continuous
 62
     7
370
    25
100
AcDbCircle
 10
-395.6122868245
 20
83.3197428838
 30
0.0
 40
4.089984371670978
100
AcDbArc
 50
140.5129436103
 51
180.3434369839
  0
ARC
  5
443
330
35A
100
AcDbEntity
  8
0
  6
Continuous
 62
     7
370
    25
100
AcDbCircle
 10
-336.673414008
 20
143.4556862601
 30
0.0
 40
4.623371296435777
100
AcDbArc
 50
72.6960345908
 51
125.398914916
  0
ARC
  5
444
330
35A
100
AcDbEntity
  8
0
  6
Continuous
 62
     7
370
    25
100
AcDbCircle
 10
-219.7266181789
 20
112.195849344
 30
0.0
 40
2.428998657233058
100
AcDbArc
 50
3.391562315
 51
74.3338098233
  0
ARC
  5
445
330
35A
100
AcDbEntity
  8
0
  6
Continuous
 62
     7
370
    25
100
AcDbCircle
 10
-218.3832435413
 20
108.4563898574
 30
0.0
 40
1.660293115197313
100
AcDbArc
 50
310.6406362013
 51
357.9974645044
  0
ARC
  5
446
330
35A
100
AcDbEntity
  8
0
  6
Continuous
 62
     7
370
    25
100
AcDbCircle
 10
319.785898384
 20
-318.3457587868
 30
0.0
 40
3.08224753095741
100
AcDbArc
 50
252.6960345908
 51
305.398914916
  0
ARC
  5
447
330
35A
100
AcDbEntity
  8
0
  6
Continuous
 62
     7
370
    25
100
AcDbCircle
 10
335.319266601
 20
-321.1976491893
 30
0.0
 40
16.45040575425779
100
AcDbArc
 50
165.6126213128
 51
180.316445085
  0
ARC
  5
448
330
35A
100
AcDbEntity
  8
0
  6
Continuous
 62
     7
370
    25
100
AcDbCircle
 10
316.9948168196
 20
-321.0162062016
 30
0.0
 40
4.579248117483783
100
AcDbArc
 50
1.9771456246
 51
58.539430798
  0
ARC
  5
449
330
35A
100
AcDbEntity
  8
0
  6
Continuous
 62
     7
370
    25
100
AcDbCircle
 10
-734.4678526324
 20
-33.9915258
 30
0.0
 40
4.430792605775062
100
AcDbArc
 50
118.9189208531
 51
177.663559183
  0
ARC
  5
44A
330
35A
100
AcDbEntity
  8
0
  6
Continuous
 62
     7
370
    25
100
AcDbCircle
 10
736.5569521527
 20
86.9220522476
 30
0.0
 40
3.193338472665912
100
AcDbArc
 50
6.3971398231
 51
89.0399471661
  0
ARC
  5
44B
330
35A
100
AcDbEntity
  8
0
  6
Continuous
 62
     7
370
    25
100
AcDbCircle
 10
319.785898384
 20
-344.0607778078
 30
0.0
 40
3.082247530957224
100
AcDbArc
 50
252.6960345908
 51
305.398914916
  0
ARC
  5
44C
330
35A
100
AcDbEntity
  8
0
  6
Continuous
 62
     7
370
    25
100
AcDbCircle
 10
-417.6741804675
 20
85.4542124944
 30
0.0
 40
1.20675944656576
100
AcDbArc
 50
2.6225805999
 51
71.8283936812
  0
ARC
  5
44D
330
35A
100
AcDbEntity
  8
0
  6
Continuous
 62
     7
370
    25
100
AcDbCircle
 10
-345.3512602256
 20
156.023947259
 30
0.0
 40
1.223629191226622
100
AcDbArc
 50
4.1888355062
 51
72.1598631669
  0
ARC
  5
44E
330
35A
100
AcDbEntity
  8
0
  6
Continuous
 62
     7
370
    25
100
AcDbCircle
 10
-201.6333754281
 20
118.8339194431
 30
0.0
 40
2.035181384592193
100
AcDbArc
 50
141.2668753752
 51
180.8976574801
  0
ARC
  5
44F
330
35A
100
AcDbEntity
  8
0
  6
Continuous
 62
     7
370
    25
100
AcDbCircle
 10
-338.6293814994
 20
156.549667364
 30
0.0
 40
2.124045397490911
100
AcDbArc
 50
141.2432897018
 51
179.0195236071
  0
ARC
  5
450
330
35A
100
AcDbEntity
  8
0
  6
Continuous
 62
    60
370
    25
100
AcDbCircle
 10
-400.4740230285
 20
86.6506396916
 30
0.0
 40
1.430849270875401
100
AcDbArc
 50
71.5830474738
 51
131.3438435936
  0
ARC
  5
451
330
35A
100
AcDbEntity
  8
0
  6
Continuous
 62
    60
370
    25
100
AcDbCircle
 10
-339.8081556098
 20
145.8890799833
 30
0.0
 40
1.411198135365259
100
AcDbArc
 50
71.12277008
 51
131.7872519911
  0
ARC
  5
452
330
35A
100
AcDbEntity
  8
0
  6
Continuous
 62
    60
370
    25
100
AcDbCircle
 10
-219.8864763682
 20
116.3040800616
 30
0.0
 40
0.540874437310979
100
AcDbArc
 50
80.7251313496
 51
143.9685183172
  0
ARC
  5
453
330
35A
100
AcDbEntity
  8
0
  6
Continuous
 62
    60
370
    25
100
AcDbCircle
 10
-218.3865514501
 20
113.6017024095
 30
0.0
 40
1.664199801934068
100
AcDbArc
 50
310.6752834668
 51
357.4138863708
  0
ARC
  5
454
330
35A
100
AcDbEntity
  8
0
  6
Continuous
 62
    60
370
    25
100
AcDbCircle
 10
-334.8608183518
 20
147.5516247436
 30
0.0
 40
0.5408983468815901
100
AcDbArc
 50
80.7318299956
 51
143.9675277132
  0
ARC
  5
455
330
35A
100
AcDbEntity
  8
0
  6
Continuous
 62
    60
370
    25
100
AcDbCircle
 10
320.2806989066
 20
-346.6163066951
 30
0.0
 40
1.29135828586713
100
AcDbArc
 50
315.3544713609
 51
1.9112857849
  0
ARC
  5
456
330
35A
100
AcDbEntity
  8
0
  6
Continuous
 62
    60
370
    25
100
AcDbCircle
 10
738.439767388
 20
61.5197634016
 30
0.0
 40
1.291358285866019
100
AcDbArc
 50
315.3544713609
 51
1.9112857849
  0
ARC
  5
457
330
35A
100
AcDbEntity
  8
0
  6
Continuous
 62
    60
370
    25
100
AcDbCircle
 10
-736.9877257756
 20
-33.1924662098
 30
0.0
 40
3.102260212936426
100
AcDbArc
 50
83.0149256415
 51
132.020461629
  0
ARC
  5
458
330
35A
100
AcDbEntity
  8
0
  6
Continuous
 62
    60
370
    25
100
AcDbCircle
 10
-320.206488486
 20
375.968708051
 30
0.0
 40
1.407803854370248
100
AcDbArc
 50
54.2901199567
 51
130.0121940809
  0
ARC
  5
459
330
35A
100
AcDbEntity
  8
0
  6
Continuous
 62
    60
370
    25
100
AcDbCircle
 10
-278.5904503101
 20
46.1543925086
 30
0.0
 40
0.2805328363955223
100
AcDbArc
 50
82.2205342234
 51
140.1188372617
  0
ARC
  5
45A
330
35A
100
AcDbEntity
  8
0
  6
Continuous
 62
    60
370
    25
100
AcDbCircle
 10
-274.2967024573
 20
46.3803810885
 30
0.0
 40
0.7117806188123781
100
AcDbArc
 50
72.0992074672
 51
129.3846002339
  0
ARC
  5
45B
330
35A
100
AcDbEntity
  8
0
  6
Continuous
 62
    60
370
    25
100
AcDbCircle
 10
-415.662084061
 20
83.9636294342
 30
0.0
 40
0.2502312967010876
100
AcDbArc
 50
77.2692237329
 51
142.499316722
  0
ARC
  5
45C
330
35A
100
AcDbEntity
  8
0
  6
Continuous
 62
    60
370
    25
100
AcDbCircle
 10
739.2979949038
 20
87.781695746
 30
0.0
 40
0.663957149008882
100
AcDbArc
 50
310.6370785444
 51
358.0578672849
  0
ARC
  5
45D
330
35A
100
AcDbEntity
  8
0
  6
Continuous
 62
    60
370
    25
100
AcDbCircle
 10
737.4924077252
 20
88.5752089523
 30
0.0
 40
1.774433832086679
100
AcDbArc
 50
77.0723514451
 51
119.8038260859
  0
ARC
  5
45E
330
35A
100
AcDbEntity
  8
0
  6
Continuous
 62
    60
370
    25
100
AcDbCircle
 10
739.2978593463
 20
62.0667713575
 30
0.0
 40
0.6641172460796592
100
AcDbArc
 50
310.6406362013
 51
357.9974645044
  0
ARC
  5
45F
330
35A
100
AcDbEntity
  8
0
  6
Continuous
 62
    60
370
    25
100
AcDbCircle
 10
-201.9772055949
 20
116.9683289729
 30
0.0
 40
0.7100026615425407
100
AcDbArc
 50
72.0506882518
 51
130.6051619824
  0
VIEWPORT
  5
553
330
35A
100
AcDbEntity
  8
0
100
AcDbViewport
 10
0.0
 20
0.0
 30
0.0
 40
205.6
 41
156.0
 68
     1
 69
     1
 12
0.0
 22
0.0
 13
0.0
 23
0.0
 14
10.0
 24
10.0
 15
10.0
 25
10.0
 16
0.0
 26
0.0
 36
1.0
 17
0.0
 27
0.0
 37
0.0
 42
50.0
 43
0.0
 44
0.0
 45
928.7159533074
 50
0.0
 51
0.0
 72
   100
 90
   557152
  1

281
     0
 71
     1
 74
     0
110
0.0
120
0.0
130
0.0
111
1.0
121
0.0
131
0.0
112
0.0
122
1.0
132
0.0
 79
     0
146
0.0
  0
ENDBLK
  5
35D
330
35A
100
AcDbEntity
  8
0
100
AcDbBlockEnd
  0
BLOCK
  5
462
330
460
100
AcDbEntity
  8
0
100
AcDbBlockBegin
  2
*Paper_Space7
 70
     0
 10
0.0
 20
0.0
 30
0.0
  3
*Paper_Space7
  1

  0
SPLINE
  5
464
330
460
100
AcDbEntity
  8
0
  6
Continuous
 62
     7
370
    25
100
AcDbSpline
210
0.0
220
0.0
230
1.0
 70
     8
 71
     3
 72
    10
 73
     6
 74
     0
 42
0.000000001
 43
0.00000001
 40
0.0
 40
0.0
 40
0.0
 40
0.0
 40
0.4133141139032691
 40
0.7882093214476954
 40
1.0
 40
1.0
 40
1.0
 40
1.0
 10
-415.3070429695321
 20
47.4650243077393
 30
0.0
 10
-415.4996256136565
 20
47.26244468224204
 30
0.0
 10
-415.8668897116917
 20
46.87611587376178
 30
0.0
 10
-416.1597516408755
 20
46.19224449297577
 30
0.0
 10
-416.1469881901914
 20
45.76893129432523
 30
0.0
 10
-416.1423806481571
 20
45.61611734105493
 30
0.0
  0
SPLINE
  5
467
330
460
100
AcDbEntity
  8
0
  6
Continuous
 62
     7
370
    25
100
AcDbSpline
210
0.0
220
0.0
230
1.0
 70
     8
 71
     3
 72
    14
 73
    10
 74
     0
 42
0.000000001
 43
0.00000001
 40
0.0
 40
0.0
 40
0.0
 40
0.0
 40
0.0671335018669782
 40
0.2170819077509661
 40
0.3541933345014585
 40
0.4952216109329975
 40
0.6577876600825796
 40
0.8627823390717522
 40
1.0
 40
1.0
 40
1.0
 40
1.0
 10
-238.6476620587416
 20
70.82079925678578
 30
0.0
 10
-238.6392653509196
 20
70.9418405050424
 30
0.0
 10
-238.6121138795655
 20
71.33323771146506
 30
0.0
 10
-238.8590598846674
 20
71.94375733683697
 30
0.0
 10
-239.2951354330868
 20
72.54372459199605
 30
0.0
 10
-239.8701107783155
 20
73.00089819098643
 30
0.0
 10
-240.6049999626318
 20
73.36644249927215
 30
0.0
 10
-241.4262333731572
 20
73.61319313073886
 30
0.0
 10
-242.0509601456279
 20
73.70739940578022
 30
0.0
 10
-242.3014582616759
 20
73.74517351032905
 30
0.0
  0
SPLINE
  5
46B
330
460
100
AcDbEntity
  8
0
  6
Continuous
 62
     7
370
    25
100
AcDbSpline
210
0.0
220
0.0
230
1.0
 70
     8
 71
     3
 72
    13
 73
     9
 74
     0
 42
0.000000001
 43
0.00000001
 40
0.0
 40
0.0
 40
0.0
 40
0.0
 40
0.1012969425436963
 40
0.2935477257229222
 40
0.4868408013980178
 40
0.6879877268369023
 40
0.916656474994056
 40
0.9999999999999999
 40
0.9999999999999999
 40
0.9999999999999999
 40
0.9999999999999999
 10
-363.9053233358143
 20
89.06582042887764
 30
0.0
 10
-364.105814609416
 20
89.0872872431763
 30
0.0
 10
-364.686816917237
 20
89.14949577936362
 30
0.0
 10
-365.6980438896428
 20
89.15590569645771
 30
0.0
 10
-366.8753687561856
 20
89.04116486703998
 30
0.0
 10
-368.0005912734879
 20
88.77538438003398
 30
0.0
 10
-368.8079915774184
 20
88.43033738062269
 30
0.0
 10
-369.2318758558038
 20
88.09043848295546
 30
0.0
 10
-369.3451022029505
 20
87.99964598947425
 30
0.0
  0
SPLINE
  5
46F
330
460
100
AcDbEntity
  8
0
  6
Continuous
 62
     7
370
    25
100
AcDbSpline
210
0.0
220
0.0
230
1.0
 70
     8
 71
     3
 72
    10
 73
     6
 74
     0
 42
0.000000001
 43
0.00000001
 40
0.0
 40
0.0
 40
0.0
 40
0.0
 40
0.2733704376969679
 40
0.6250614626952805
 40
1.0
 40
1.0
 40
1.0
 40
1.0
 10
-718.6827098245758
 20
-36.82530414237037
 30
0.0
 10
-718.8556219349784
 20
-36.98122771191112
 30
0.0
 10
-719.2509854481535
 20
-37.33774692908356
 30
0.0
 10
-719.6690550497634
 20
-38.10991165487012
 30
0.0
 10
-719.7354425513452
 20
-38.72585331918581
 30
0.0
 10
-719.7696982904864
 20
-39.04367725405519
 30
0.0
  0
SPLINE
  5
473
330
460
100
AcDbEntity
  8
0
  6
Continuous
 62
     7
370
    25
100
AcDbSpline
210
0.0
220
0.0
230
1.0
 70
     8
 71
     3
 72
    10
 73
     6
 74
     0
 42
0.000000001
 43
0.00000001
 40
0.0
 40
0.0
 40
0.0
 40
0.0
 40
0.220195079650315
 40
0.7885151636035237
 40
1.0
 40
1.0
 40
1.0
 40
1.0
 10
-281.7718738153166
 20
26.36270345195462
 30
0.0
 10
-281.8917373747856
 20
26.35361250966765
 30
0.0
 10
-282.3209669213989
 20
26.32105798639627
 30
0.0
 10
-282.9146802596857
 20
26.3375696411942
 30
0.0
 10
-283.3045136394332
 20
26.39254034817351
 30
0.0
 10
-283.4102373228653
 20
26.40744852670475
 30
0.0
  0
SPLINE
  5
474
330
460
100
AcDbEntity
  8
0
  6
Continuous
 62
     7
370
    25
100
AcDbSpline
210
0.0
220
0.0
230
1.0
 70
     8
 71
     3
 72
    12
 73
     8
 74
     0
 42
0.000000001
 43
0.00000001
 40
0.0
 40
0.0
 40
0.0
 40
0.0
 40
0.1394217982684213
 40
0.3177562193460553
 40
0.5601022132165142
 40
0.8270574591961433
 40
1.0
 40
1.0
 40
1.0
 40
1.0
 10
-279.6778740906173
 20
26.81300518226001
 30
0.0
 10
-279.687983708208
 20
26.80475388441242
 30
0.0
 10
-279.7110245375802
 20
26.78594835155232
 30
0.0
 10
-279.9786366061011
 20
26.65444910627989
 30
0.0
 10
-280.4758958216187
 20
26.51269052866979
 30
0.0
 10
-281.1158720581673
 20
26.39539200123066
 30
0.0
 10
-281.5867511894936
 20
26.37192810724002
 30
0.0
 10
-281.7718738153166
 20
26.36270345195462
 30
0.0
  0
SPLINE
  5
475
330
460
100
AcDbEntity
  8
0
  6
Continuous
 62
     7
370
    25
100
AcDbSpline
210
0.0
220
0.0
230
1.0
 70
     8
 71
     3
 72
     9
 73
     5
 74
     0
 42
0.000000001
 43
0.00000001
 40
0.0
 40
0.0
 40
0.0
 40
0.0
 40
0.4479516458947224
 40
1.0
 40
1.0
 40
1.0
 40
1.0
 10
-271.7328536992473
 20
33.51901389001014
 30
0.0
 10
-272.9176961893635
 20
32.50671328098005
 30
0.0
 10
-275.5627193765195
 20
30.24686979495345
 30
0.0
 10
-278.2060712365335
 20
28.05695778235306
 30
0.0
 10
-279.6653292801755
 20
26.84802046016164
 30
0.0
  0
SPLINE
  5
476
330
460
100
AcDbEntity
  8
0
  6
Continuous
 62
     7
370
    25
100
AcDbSpline
210
0.0
220
0.0
230
1.0
 70
     8
 71
     3
 72
    11
 73
     7
 74
     0
 42
0.000000001
 43
0.00000001
 40
0.0
 40
0.0
 40
0.0
 40
0.0
 40
0.1034105050792738
 40
0.4440081997875733
 40
0.7813975851895687
 40
1.0
 40
1.0
 40
1.0
 40
1.0
 10
-232.8370822408662
 20
67.79152069242397
 30
0.0
 10
-234.1785173862812
 20
66.57991880379494
 30
0.0
 10
-239.9381663077413
 20
61.37772804941262
 30
0.0
 10
-250.068764194891
 20
52.29395605472535
 30
0.0
 10
-261.6917797231671
 20
42.13189857728651
 30
0.0
 10
-268.9034505427819
 20
35.92864203210353
 30
0.0
 10
-271.7389036113045
 20
33.48967286035042
 30
0.0
  0
SPLINE
  5
477
330
460
100
AcDbEntity
  8
0
  6
Continuous
 62
     7
370
    25
100
AcDbSpline
210
0.0
220
0.0
230
1.0
 70
     8
 71
     3
 72
     9
 73
     5
 74
     0
 42
0.000000001
 43
0.00000001
 40
0.0
 40
0.0
 40
0.0
 40
0.0
 40
0.2383369111192255
 40
1.0
 40
1.0
 40
1.0
 40
1.0
 10
-428.4151554519951
 20
45.24878802604992
 30
0.0
 10
-428.4900036624878
 20
45.25914372348851
 30
0.0
 10
-428.8040473837948
 20
45.30259354999654
 30
0.0
 10
-429.0516430918565
 20
45.37175415858118
 30
0.0
 10
-429.2402276036524
 20
45.4244312413446
 30
0.0
  0
SPLINE
  5
478
330
460
100
AcDbEntity
  8
0
  6
Continuous
 62
     7
370
    25
100
AcDbSpline
210
0.0
220
0.0
230
1.0
 70
     8
 71
     3
 72
    10
 73
     6
 74
     0
 42
0.000000001
 43
0.00000001
 40
0.0
 40
0.0
 40
0.0
 40
0.0
 40
0.3564184257322354
 40
0.7740602059103717
 40
1.0
 40
1.0
 40
1.0
 40
1.0
 10
-429.2154621180844
 20
45.41959229004382
 30
0.0
 10
-429.3542104547908
 20
45.46480702255649
 30
0.0
 10
-429.6555404599941
 20
45.5630031948981
 30
0.0
 10
-429.8631730841479
 20
45.71094884454316
 30
0.0
 10
-429.8653232720117
 20
45.7127063839926
 30
0.0
 10
-429.8660781304829
 20
45.71332339684255
 30
0.0
  0
SPLINE
  5
479
330
460
100
AcDbEntity
  8
0
  6
Continuous
 62
     7
370
    25
100
AcDbSpline
210
0.0
220
0.0
230
1.0
 70
     8
 71
     3
 72
     9
 73
     5
 74
     0
 42
0.000000001
 43
0.00000001
 40
0.0
 40
0.0
 40
0.0
 40
0.0
 40
0.421446500148666
 40
1.0
 40
1.0
 40
1.0
 40
1.0
 10
-224.9087079818722
 20
75.1362840246532
 30
0.0
 10
-226.0229368379496
 20
74.09408877581232
 30
0.0
 10
-228.6667572414513
 20
71.621188304523
 30
0.0
 10
-231.3118596145985
 20
69.21329820383004
 30
0.0
 10
-232.8421928500478
 20
67.82020495881672
 30
0.0
  0
SPLINE
  5
47A
330
460
100
AcDbEntity
  8
0
  6
Continuous
 62
     7
370
    25
100
AcDbSpline
210
0.0
220
0.0
230
1.0
 70
     8
 71
     3
 72
     9
 73
     5
 74
     0
 42
0.000000001
 43
0.00000001
 40
0.0
 40
0.0
 40
0.0
 40
0.0
 40
0.4792810898210163
 40
1.0
 40
1.0
 40
1.0
 40
1.0
 10
-224.910818610367
 20
75.10721639201249
 30
0.0
 10
-224.9084957838232
 20
75.11045935278482
 30
0.0
 10
-224.9036493031398
 20
75.11722565515144
 30
0.0
 10
-224.9117639173838
 20
75.110792592337
 30
0.0
 10
-224.9159893504694
 20
75.1074427748792
 30
0.0
  0
SPLINE
  5
47B
330
460
100
AcDbEntity
  8
0
  6
Continuous
 62
     7
370
    25
100
AcDbSpline
210
0.0
220
0.0
230
1.0
 70
     8
 71
     3
 72
    12
 73
     8
 74
     0
 42
0.000000001
 43
0.00000001
 40
0.0
 40
0.0
 40
0.0
 40
0.0
 40
0.2100142839734022
 40
0.4299064842577478
 40
0.6378963981620943
 40
0.8456690573070396
 40
1.0
 40
1.0
 40
1.0
 40
1.0
 10
719.7696982904866
 20
99.38345591710181
 30
0.0
 10
719.7419262105764
 20
99.67457461466661
 30
0.0
 10
719.6850758049329
 20
100.2705046314441
 30
0.0
 10
719.2375656095076
 20
101.0564396297922
 30
0.0
 10
718.5895653625489
 20
101.6469327479871
 30
0.0
 10
717.8833182692041
 20
102.0070341312443
 30
0.0
 10
717.3950055498829
 20
102.0720754019378
 30
0.0
 10
717.1868834491379
 20
102.0997964203678
 30
0.0
  0
SPLINE
  5
47F
330
460
100
AcDbEntity
  8
0
  6
Continuous
 62
     7
370
    25
100
AcDbSpline
210
0.0
220
0.0
230
1.0
 70
     8
 71
     3
 72
    11
 73
     7
 74
     0
 42
0.000000001
 43
0.00000001
 40
0.0
 40
0.0
 40
0.0
 40
0.0
 40
0.1677758491817987
 40
0.559246204308071
 40
0.9563345942280026
 40
1.0
 40
1.0
 40
1.0
 40
1.0
 10
-400.3526901705913
 20
242.8884654239478
 30
0.0
 10
-400.4639036926674
 20
242.9108083539492
 30
0.0
 10
-400.834611040549
 20
242.9852839048548
 30
0.0
 10
-401.4814403208891
 20
242.8080519071089
 30
0.0
 10
-402.0108711153072
 20
242.5450470282595
 30
0.0
 10
-402.1965919610394
 20
242.3103134557468
 30
0.0
 10
-402.2149912945641
 20
242.2870584394718
 30
0.0
  0
LWPOLYLINE
  5
488
330
460
100
AcDbEntity
  8
0
  6
Continuous
 62
     7
370
    25
100
AcDbPolyline
 90
        9
 70
   128
 43
0.0
 10
-240.8058753929
 20
72.3575103733
 10
-240.6528720316
 20
72.5467940886
 10
-240.61359085
 20
72.7423905955
 10
-240.6895414018
 20
72.9367832297
 10
-240.8778049499
 20
73.1225015915
 10
-241.1711466317
 20
73.2924086283
 10
-241.558293491
 20
73.4399749079
 10
-242.024367691
 20
73.5595295411
 10
-242.5514582616
 20
73.6464781102
  0
LWPOLYLINE
  5
48A
330
460
100
AcDbEntity
  8
0
  6
Continuous
 62
     7
370
    25
100
AcDbPolyline
 90
        9
 70
   128
 43
0.0
 10
-413.984167314
 20
47.850642391
 10
-414.1371706753
 20
47.6613586756
 10
-414.1764518569
 20
47.4657621688
 10
-414.1005013051
 20
47.2713695346
 10
-413.912237757
 20
47.0856511728
 10
-413.6188960752
 20
46.915744136
 10
-413.2317492159
 20
46.7681778564
 10
-412.7656750159
 20
46.6486232232
 10
-412.2385844453
 20
46.561674654
  0
LWPOLYLINE
  5
491
330
460
100
AcDbEntity
  8
0
  6
Continuous
 62
     7
370
    25
100
AcDbPolyline
 90
        3
 70
   128
 43
0.0
 10
-238.9350466995
 20
64.5793357801
 10
-238.6800410973
 20
64.894808639
 10
-238.6121184331
 20
65.1685914309
  0
SPLINE
  5
492
330
460
100
AcDbEntity
  8
0
  6
Continuous
 62
     7
370
    25
100
AcDbSpline
210
0.0
220
0.0
230
1.0
 70
     8
 71
     3
 72
     9
 73
     5
 74
     0
 42
0.000000001
 43
0.00000001
 40
0.0
 40
0.0
 40
0.0
 40
0.0
 40
0.9860758146828286
 40
0.9999999999999999
 40
0.9999999999999999
 40
0.9999999999999999
 40
0.9999999999999999
 10
-253.6235076074285
 20
49.23172159693057
 30
0.0
 10
-254.7752634761669
 20
49.00317085387768
 30
0.0
 10
-255.9432830661301
 20
48.77139279011246
 30
0.0
 10
-257.1112441947001
 20
48.53833887853185
 30
0.0
 10
-257.1275071018976
 20
48.53509379267812
 30
0.0
  0
SPLINE
  5
493
330
460
100
AcDbEntity
  8
0
  6
Continuous
 62
     7
370
    25
100
AcDbSpline
210
0.0
220
0.0
230
1.0
 70
     8
 71
     3
 72
     9
 73
     5
 74
     0
 42
0.000000001
 43
0.00000001
 40
0.0
 40
0.0
 40
0.0
 40
0.0
 40
0.4662613082560384
 40
1.0
 40
1.0
 40
1.0
 40
1.0
 10
-262.6404046924725
 20
41.34055284486701
 30
0.0
 10
-262.6874274828481
 20
41.61431758334413
 30
0.0
 10
-262.7882782065582
 20
42.20146632082159
 30
0.0
 10
-263.1272713233822
 20
42.77702996092875
 30
0.0
 10
-263.3082050660661
 20
43.08423054521494
 30
0.0
  0
LWPOLYLINE
  5
494
330
460
100
AcDbEntity
  8
0
  6
Continuous
 62
     7
370
    25
100
AcDbPolyline
 90
        3
 70
   128
 43
0.0
 10
-266.1731708548
 20
40.5575682146
 10
-265.74378957
 20
40.1431059185
 10
-264.9164372108
 20
39.2544598046
  0
LWPOLYLINE
  5
4A5
330
460
100
AcDbEntity
  8
0
  6
Continuous
 62
     7
370
    25
100
AcDbPolyline
 90
        5
 70
   128
 43
0.0
 10
694.6133843543
 20
98.7359953286
 10
656.5915441734
 20
65.2036991433
 10
542.5650801405
 20
-35.3584583723
 10
466.5471366907
 20
-102.3998588237
 10
390.515875793
 20
-169.452798667
  0
LWPOLYLINE
  5
4A6
330
460
100
AcDbEntity
  8
0
  6
Continuous
 62
     7
370
    25
100
AcDbPolyline
 90
        5
 70
   128
 43
0.0
 10
-390.6182799999
 20
235.4623332879
 10
-290.8641806252
 20
222.8950170663
 10
152.0506759257
 20
167.0944081856
 10
594.9627184403
 20
111.2913175514
 10
694.6133843543
 20
98.7359953286
  0
LWPOLYLINE
  5
4A7
330
460
100
AcDbEntity
  8
0
  6
Continuous
 62
     7
370
    25
100
AcDbPolyline
 90
        4
 70
   128
 43
0.0
 10
-694.715788543
 20
-32.7264606917
 10
-690.3982658665
 20
-28.9181469744
 10
-542.6802842146
 20
101.3696056341
 10
-390.6182799999
 20
235.4623332879
  0
LWPOLYLINE
  5
4A8
330
460
100
AcDbEntity
  8
0
  6
Continuous
 62
     7
370
    25
100
AcDbPolyline
 90
        5
 70
   128
 43
0.0
 10
390.515875793
 20
-169.452798667
 10
290.8641811644
 20
-156.8983836784
 10
-152.0506759253
 20
-101.097775273
 10
-594.9627189788
 20
-45.294685114
 10
-694.715788543
 20
-32.7264606917
  0
SPLINE
  5
4AB
330
460
100
AcDbEntity
  8
0
  6
Continuous
 62
     7
370
    25
100
AcDbSpline
210
0.0
220
0.0
230
1.0
 70
     8
 71
     3
 72
     8
 73
     4
 74
     0
 42
0.000000001
 43
0.00000001
 40
0.0
 40
0.0
 40
0.0
 40
0.0
 40
1.0
 40
1.0
 40
1.0
 40
1.0
 10
390.4086601966325
 20
-169.3995597612981
 30
0.0
 10
390.4387736967132
 20
-169.4088042518971
 30
0.0
 10
390.4679196301749
 20
-169.4183093994472
 30
0.0
 10
390.4856357232279
 20
-169.4308936907389
 30
0.0
  0
SPLINE
  5
4AC
330
460
100
AcDbEntity
  8
0
  6
Continuous
 62
     7
370
    25
100
AcDbSpline
210
0.0
220
0.0
230
1.0
 70
     8
 71
     3
 72
    11
 73
     7
 74
     0
 42
0.000000001
 43
0.00000001
 40
0.0
 40
0.0
 40
0.0
 40
0.0
 40
0.0000625446612873
 40
0.0000625446612873
 40
0.0000625446612873
 40
0.0000734991170025
 40
0.0000734991170025
 40
0.0000734991170025
 40
0.0000734991170025
 10
390.485635723228
 20
-169.4308936907389
 30
0.0
 10
390.4942129372369
 20
-169.4369863524205
 30
0.0
 10
390.502790815584
 20
-169.4431819659459
 30
0.0
 10
390.5113686589956
 20
-169.4494800037
 30
0.0
 10
390.5128710351192
 20
-169.4505830806733
 30
0.0
 10
390.5143734143753
 20
-169.451689302714
 30
0.0
 10
390.5158757930044
 20
-169.4527986670414
 30
0.0
  0
SPLINE
  5
4AD
330
460
100
AcDbEntity
  8
0
  6
Continuous
 62
     7
370
    25
100
AcDbSpline
210
0.0
220
0.0
230
1.0
 70
     8
 71
     3
 72
    11
 73
     7
 74
     0
 42
0.000000001
 43
0.00000001
 40
0.0
 40
0.0
 40
0.0
 40
0.0
 40
0.0001553673436681
 40
0.0001553673436681
 40
0.0001553673436681
 40
0.0001663217990603
 40
0.0001663217990603
 40
0.0001663217990603
 40
0.0001663217990603
 10
-694.5642133990455
 20
-32.70582559142332
 30
0.0
 10
-694.6113973787677
 20
-32.71157186276369
 30
0.0
 10
-694.6586022796097
 20
-32.71795387722128
 30
0.0
 10
-694.705804332279
 20
-32.7249676952992
 30
0.0
 10
-694.7091323983201
 20
-32.72546221722031
 30
0.0
 10
-694.7124604713297
 20
-32.72595988307871
 30
0.0
 10
-694.7157885429356
 20
-32.72646069165219
 30
0.0
  0
LWPOLYLINE
  5
4AE
330
460
100
AcDbEntity
  8
0
  6
Continuous
 62
     7
370
    25
100
AcDbPolyline
 90
        9
 70
   128
 43
0.0
 10
-694.564213399
 20
-32.7058255914
 10
-694.5236661153
 20
-32.7109339019
 10
-688.9111510542
 20
-33.4180211977
 10
-666.4610906686
 20
-36.2463703714
 10
-576.6608529341
 20
-47.5597709666
 10
-217.460470839
 20
-92.8137649319
 10
86.4745981278
 20
-131.1063254144
 10
290.9067826939
 20
-156.8630936722
 10
390.4086601966
 20
-169.3995597613
  0
LWPOLYLINE
  5
4AF
330
460
100
AcDbEntity
  8
0
  6
Continuous
 62
     7
370
    25
100
AcDbPolyline
 90
        9
 70
   128
 43
0.0
 10
390.4856357232
 20
-169.4308936907
 10
390.4921150569
 20
-169.4251794225
 10
392.6134243304
 20
-167.5543497217
 10
401.0986623101
 20
-160.0710310006
 10
435.0396309758
 20
-130.137757663
 10
570.803911966
 20
-10.4047012928
 10
656.5425628252
 20
65.2094393003
 10
694.5399163164
 20
98.7197768535
 10
694.5463957179
 20
98.7254911155
  0
SPLINE
  5
4B0
330
460
100
AcDbEntity
  8
0
  6
Continuous
 62
     7
370
    25
100
AcDbSpline
210
0.0
220
0.0
230
1.0
 70
     8
 71
     3
 72
    11
 73
     7
 74
     0
 42
0.000000001
 43
0.00000001
 40
0.0
 40
0.0
 40
0.0
 40
0.0
 40
0.0000625446612862
 40
0.0000625446612862
 40
0.0000625446612862
 40
0.0000734991170023
 40
0.0000734991170023
 40
0.0000734991170023
 40
0.0000734991170023
 10
694.5463957178911
 20
98.7254911154884
 30
0.0
 10
694.5653961988676
 20
98.72859091122221
 30
0.0
 10
694.584398151503
 20
98.73158846710376
 30
0.0
 10
694.6034000267617
 20
98.73448356132303
 30
0.0
 10
694.6067281317792
 20
98.73499062588722
 30
0.0
 10
694.6100562437306
 20
98.73549454873823
 30
0.0
 10
694.6133843542952
 20
98.73599532863189
 30
0.0
  0
SPLINE
  5
4B1
330
460
100
AcDbEntity
  8
0
  6
Continuous
 62
     7
370
    25
100
AcDbSpline
210
0.0
220
0.0
230
1.0
 70
     8
 71
     3
 72
     8
 73
     4
 74
     0
 42
0.000000001
 43
0.00000001
 40
0.0
 40
0.0
 40
0.0
 40
0.0
 40
1.0
 40
1.0
 40
1.0
 40
1.0
 10
694.5463957178911
 20
98.7254911154884
 30
0.0
 10
694.5075961148394
 20
98.7191612313048
 30
0.0
 10
694.4651313122139
 20
98.71729712840472
 30
0.0
 10
694.4230163201642
 20
98.71590067730021
 30
0.0
  0
SPLINE
  5
4B3
330
460
100
AcDbEntity
  8
0
  6
Continuous
 62
     7
370
    25
100
AcDbSpline
210
0.0
220
0.0
230
1.0
 70
     8
 71
     3
 72
    11
 73
     7
 74
     0
 42
0.000000001
 43
0.00000001
 40
0.0
 40
0.0
 40
0.0
 40
0.0
 40
0.0000012535095533
 40
0.0000012535095533
 40
0.0000012535095533
 40
0.0000015430690166
 40
0.0000015430690166
 40
0.0000015430690166
 40
0.0000015430690166
 10
-271.0953173211167
 20
33.67424943806196
 30
0.0
 10
-271.0949264871397
 20
33.67420559944426
 30
0.0
 10
-271.0945597015267
 20
33.6741366225579
 30
0.0
 10
-271.0942424539606
 20
33.67405218051409
 30
0.0
 10
-271.0941681661351
 20
33.67403240726289
 30
0.0
 10
-271.0940961203431
 20
33.67401174600883
 30
0.0
 10
-271.0940263834728
 20
33.67399033760925
 30
0.0
  0
SPLINE
  5
4B5
330
460
100
AcDbEntity
  8
0
  6
Continuous
 62
     7
370
    25
100
AcDbSpline
210
0.0
220
0.0
230
1.0
 70
     8
 71
     3
 72
    14
 73
    10
 74
     0
 42
0.000000001
 43
0.00000001
 40
0.0
 40
0.0
 40
0.0
 40
0.0
 40
0.2500000000000001
 40
0.2500000000000001
 40
0.5000000000000001
 40
0.5000000000000001
 40
0.7500000000000001
 40
0.7500000000000001
 40
1.0
 40
1.0
 40
1.0
 40
1.0
 10
-232.1832768930625
 20
67.9914408437961
 30
0.0
 10
-235.4267295461667
 20
65.060100422776
 30
0.0
 10
-238.6702949504376
 20
62.13537447660858
 30
0.0
 10
-245.1570974986107
 20
56.32298347473026
 30
0.0
 10
-248.4002845503817
 20
53.43633269415814
 30
0.0
 10
-254.8857467245083
 20
47.71669321869609
 30
0.0
 10
-258.1279351788452
 20
44.88378088937787
 30
0.0
 10
-264.6117574326636
 20
39.25715589562072
 30
0.0
 10
-267.8534292593615
 20
36.4624393367538
 30
0.0
 10
-271.0951997421714
 20
33.67435054493917
 30
0.0
  0
SPLINE
  5
4B7
330
460
100
AcDbEntity
  8
0
  6
Continuous
 62
     7
370
    25
100
AcDbSpline
210
0.0
220
0.0
230
1.0
 70
     8
 71
     3
 72
    11
 73
     7
 74
     0
 42
0.000000001
 43
0.00000001
 40
0.0
 40
0.0
 40
0.0
 40
0.0
 40
0.000001253997115
 40
0.000001253997115
 40
0.000001253997115
 40
0.0000015435540001
 40
0.0000015435540001
 40
0.0000015435540001
 40
0.0000015435540001
 10
-232.1816333024196
 20
67.99149534206045
 30
0.0
 10
-232.1820506278578
 20
67.9914815043618
 30
0.0
 10
-232.1824782711584
 20
67.99148810712109
 30
0.0
 10
-232.1828804498471
 20
67.9915203806028
 30
0.0
 10
-232.1829746230522
 20
67.99152793768451
 30
0.0
 10
-232.1830677452818
 20
67.99153687208359
 30
0.0
 10
-232.1831592881788
 20
67.99154714955992
 30
0.0
  0
SPLINE
  5
4B9
330
460
100
AcDbEntity
  8
0
  6
Continuous
 62
     7
370
    25
100
AcDbSpline
210
0.0
220
0.0
230
1.0
 70
     8
 71
     3
 72
    22
 73
    18
 74
     0
 42
0.000000001
 43
0.00000001
 40
0.0
 40
0.0
 40
0.0
 40
0.0
 40
0.125
 40
0.125
 40
0.25
 40
0.25
 40
0.375
 40
0.375
 40
0.5
 40
0.5
 40
0.625
 40
0.625
 40
0.75
 40
0.75
 40
0.875
 40
0.875
 40
1.0
 40
1.0
 40
1.0
 40
1.0
 10
-279.0301745568227
 20
27.00157726502482
 30
0.0
 10
-279.1118282436147
 20
26.93380872452189
 30
0.0
 10
-279.2133192047422
 20
26.86963692801418
 30
0.0
 10
-279.4543588391491
 20
26.74819828569239
 30
0.0
 10
-279.5957316920874
 20
26.69037000248691
 30
0.0
 10
-279.9096097586068
 20
26.58523456451001
 30
0.0
 10
-280.0810798529492
 20
26.53799976736666
 30
0.0
 10
-280.4528176227228
 20
26.45408972826659
 30
0.0
 10
-280.6546157364741
 20
26.4173504931133
 30
0.0
 10
-281.0704903136063
 20
26.35777202994775
 30
0.0
 10
-281.2863496184243
 20
26.33442595783881
 30
0.0
 10
-281.7342830972964
 20
26.30090321552814
 30
0.0
 10
-281.9631432512014
 20
26.29109397554596
 30
0.0
 10
-282.4184548266482
 20
26.28548300364029
 30
0.0
 10
-282.6480048213255
 20
26.28960132821724
 30
0.0
 10
-283.1027759656282
 20
26.31201604961478
 30
0.0
 10
-283.3245409797845
 20
26.33005866806673
 30
0.0
 10
-283.5406465265209
 20
26.35497741780244
 30
0.0
  0
SPLINE
  5
4BA
330
460
100
AcDbEntity
  8
0
  6
Continuous
 62
     7
370
    25
100
AcDbSpline
210
0.0
220
0.0
230
1.0
 70
     8
 71
     3
 72
     8
 73
     4
 74
     0
 42
0.000000001
 43
0.00000001
 40
0.0
 40
0.0
 40
0.0
 40
0.0
 40
1.0
 40
1.0
 40
1.0
 40
1.0
 10
-271.0940263834728
 20
33.67399033760926
 30
0.0
 10
-273.7397837875011
 20
31.42308368629142
 30
0.0
 10
-276.38522061681
 20
29.19675883311217
 30
0.0
 10
-279.0301745568227
 20
27.00157726502483
 30
0.0
  0
SPLINE
  5
4BB
330
460
100
AcDbEntity
  8
0
  6
Continuous
 62
     7
370
    25
100
AcDbSpline
210
0.0
220
0.0
230
1.0
 70
     8
 71
     3
 72
    10
 73
     6
 74
     0
 42
0.000000001
 43
0.00000001
 40
0.0
 40
0.0
 40
0.0
 40
0.0
 40
0.5
 40
0.5
 40
1.0
 40
1.0
 40
1.0
 40
1.0
 10
-694.3320643358944
 20
-32.65445568191019
 30
0.0
 10
-694.3666236725103
 20
-32.66464269489777
 30
0.0
 10
-694.4023459518703
 20
-32.6743722674527
 30
0.0
 10
-694.4782866761688
 20
-32.69206288133253
 30
0.0
 10
-694.5180486991899
 20
-32.70020345244143
 30
0.0
 10
-694.5642133990455
 20
-32.70582559142335
 30
0.0
  0
SPLINE
  5
4BD
330
460
100
AcDbEntity
  8
0
  6
Continuous
 62
     7
370
    25
100
AcDbSpline
210
0.0
220
0.0
230
1.0
 70
     8
 71
     3
 72
     8
 73
     4
 74
     0
 42
0.000000001
 43
0.00000001
 40
0.0
 40
0.0
 40
0.0
 40
0.0
 40
0.0000025057782836
 40
0.0000025057782836
 40
0.0000025057782836
 40
0.0000025057782836
 10
-429.5017976101525
 20
45.4092753241456
 30
0.0
 10
-429.5023343197632
 20
45.40909027818385
 30
0.0
 10
-429.5028944899879
 20
45.4089117573617
 30
0.0
 10
-429.5034757949472
 20
45.40874040681536
 30
0.0
  0
SPLINE
  5
4BF
330
460
100
AcDbEntity
  8
0
  6
Continuous
 62
     7
370
    25
100
AcDbSpline
210
0.0
220
0.0
230
1.0
 70
     8
 71
     3
 72
    12
 73
     8
 74
     0
 42
0.000000001
 43
0.00000001
 40
0.0
 40
0.0
 40
0.0
 40
0.0
 40
0.5000000000000029
 40
0.5000000000000029
 40
0.7500000000000014
 40
0.7500000000000014
 40
1.0
 40
1.0
 40
1.0
 40
1.0
 10
-428.4997006220187
 20
45.20146636272135
 30
0.0
 10
-428.6830321687955
 20
45.22780624959027
 30
0.0
 10
-428.8580325379956
 20
45.25837277832494
 30
0.0
 10
-429.1085414982708
 20
45.31031573164765
 30
0.0
 10
-429.1900349950564
 20
45.32865111178484
 30
0.0
 10
-429.3489603482087
 20
45.36738742340395
 30
0.0
 10
-429.4274333612977
 20
45.38808514052485
 30
0.0
 10
-429.5017281977527
 20
45.40925554386091
 30
0.0
  0
SPLINE
  5
4C0
330
460
100
AcDbEntity
  8
0
  6
Continuous
 62
     7
370
    25
100
AcDbSpline
210
0.0
220
0.0
230
1.0
 70
     8
 71
     3
 72
    20
 73
    16
 74
     0
 42
0.000000001
 43
0.00000001
 40
0.0
 40
0.0
 40
0.0
 40
0.0
 40
0.25
 40
0.25
 40
0.375
 40
0.375
 40
0.5
 40
0.5
 40
0.625
 40
0.625
 40
0.75
 40
0.75
 40
0.875
 40
0.875
 40
1.0
 40
1.0
 40
1.0
 40
1.0
 10
-283.540646526521
 20
26.35497741780246
 30
0.0
 10
-295.6211437385922
 20
27.7479582609911
 30
0.0
 10
-307.7014533117311
 20
29.13845311513184
 30
0.0
 10
-325.8213595202358
 20
31.25008073554276
 30
0.0
 10
-331.8612303919319
 20
31.95849692930705
 30
0.0
 10
-343.9407861699736
 20
33.40133332767284
 30
0.0
 10
-349.9804255869673
 20
34.13554597806033
 30
0.0
 10
-362.0601567730499
 20
35.66570479177947
 30
0.0
 10
-368.0995513314493
 20
36.46503226960704
 30
0.0
 10
-380.1789810570574
 20
38.1466951899631
 30
0.0
 10
-386.219103122196
 20
39.0262329062806
 30
0.0
 10
-398.2994525938885
 20
40.79908739187846
 30
0.0
 10
-404.3396011632543
 20
41.69075579462529
 30
0.0
 10
-416.4196882814606
 20
43.45749554705232
 30
0.0
 10
-422.4596779468499
 20
44.33367510285985
 30
0.0
 10
-428.4997006220187
 20
45.20146636272135
 30
0.0
  0
LWPOLYLINE
  5
4C1
330
460
100
AcDbEntity
  8
0
  6
Continuous
 62
     7
370
    25
100
AcDbPolyline
 90
        8
 70
   128
 43
0.0
 10
-390.4962082907
 20
235.3035824845
 10
-392.6172307947
 20
233.4326615764
 10
-401.1013336098
 20
225.9489806222
 10
-435.0380476856
 20
196.0143326819
 10
-502.9141690228
 20
136.1458369545
 10
-570.795909305
 20
76.2791514314
 10
-632.5623964492
 20
21.8118681925
 10
-694.3320643359
 20
-32.6544556819
  0
SPLINE
  5
4C3
330
460
100
AcDbEntity
  8
0
  6
Continuous
 62
     7
370
    25
100
AcDbSpline
210
0.0
220
0.0
230
1.0
 70
     8
 71
     3
 72
    22
 73
    18
 74
     0
 42
0.000000001
 43
0.00000001
 40
0.0
 40
0.0
 40
0.0
 40
0.0
 40
0.2500000000000153
 40
0.2500000000000153
 40
0.3750000000000184
 40
0.3750000000000184
 40
0.5000000000000214
 40
0.5000000000000214
 40
0.6250000000000245
 40
0.6250000000000245
 40
0.7500000000000276
 40
0.7500000000000276
 40
0.8750000000000308
 40
0.8750000000000308
 40
0.9375000000000153
 40
0.9375000000000153
 40
1.0
 40
1.0
 40
1.0
 40
1.0
 10
-375.7195683409252
 20
95.08622136263716
 30
0.0
 10
-375.5919984856399
 20
95.20477804579829
 30
0.0
 10
-375.4167197198306
 20
95.31113010769286
 30
0.0
 10
-375.0831526429486
 20
95.45269155916681
 30
0.0
 10
-374.9607533224689
 20
95.49636951182578
 30
0.0
 10
-374.7000269648723
 20
95.57478574933725
 30
0.0
 10
-374.5608979247375
 20
95.60987746481264
 30
0.0
 10
-374.2648474674251
 20
95.67173544011756
 30
0.0
 10
-374.1073026438688
 20
95.69848167886133
 30
0.0
 10
-373.7848836600116
 20
95.74174956785045
 30
0.0
 10
-373.6187884718664
 20
95.7585722402364
 30
0.0
 10
-373.276820293052
 20
95.78261652670075
 30
0.0
 10
-373.0996897547979
 20
95.7898194165956
 30
0.0
 10
-372.8328437622837
 20
95.7929393525802
 30
0.0
 10
-372.7435863045017
 20
95.7927203965649
 30
0.0
 10
-372.5644547724202
 20
95.78977113278594
 30
0.0
 10
-372.4733031852753
 20
95.78698385205367
 30
0.0
 10
-372.3843941585462
 20
95.78303545009722
 30
0.0
  0
SPLINE
  5
4C4
330
460
100
AcDbEntity
  8
0
  6
Continuous
 62
     7
370
    25
100
AcDbSpline
210
0.0
220
0.0
230
1.0
 70
     8
 71
     3
 72
    22
 73
    18
 74
     0
 42
0.000000001
 43
0.00000001
 40
0.0
 40
0.0
 40
0.0
 40
0.0
 40
0.125
 40
0.125
 40
0.25
 40
0.25
 40
0.375
 40
0.375
 40
0.5
 40
0.5
 40
0.625
 40
0.625
 40
0.75
 40
0.75
 40
0.875
 40
0.875
 40
1.0
 40
1.0
 40
1.0
 40
1.0
 10
-430.507968052201
 20
46.76739457238584
 30
0.0
 10
-428.223800668253
 20
48.67363628886767
 30
0.0
 10
-425.9393690955508
 20
50.57541928267373
 30
0.0
 10
-421.3693972065473
 20
54.37107829770466
 30
0.0
 10
-419.0838732578545
 20
56.26460055488068
 30
0.0
 10
-414.5106227521048
 20
60.05169293531691
 30
0.0
 10
-412.222636258614
 20
61.94357481219546
 30
0.0
 10
-407.6446045819197
 20
65.77004479368328
 30
0.0
 10
-405.354510909109
 20
67.70890102659375
 30
0.0
 10
-400.7876801319912
 20
71.73644137209236
 30
0.0
 10
-398.5117797759776
 20
73.824394976555
 30
0.0
 10
-393.9584091865382
 20
78.05105916950464
 30
0.0
 10
-391.6809363483667
 20
80.18554009286905
 30
0.0
 10
-387.1232335537042
 20
84.45120379322408
 30
0.0
 10
-384.8432824009531
 20
86.58405885476665
 30
0.0
 10
-380.282192224257
 20
90.84125245712124
 30
0.0
 10
-378.0010414917967
 20
92.9659407612067
 30
0.0
 10
-375.7195683409252
 20
95.08622136263716
 30
0.0
  0
SPLINE
  5
4C5
330
460
100
AcDbEntity
  8
0
  6
Continuous
 62
     7
370
    25
100
AcDbSpline
210
0.0
220
0.0
230
1.0
 70
     8
 71
     3
 72
    18
 73
    14
 74
     0
 42
0.000000001
 43
0.00000001
 40
0.0
 40
0.0
 40
0.0
 40
0.0
 40
0.2499999999999948
 40
0.2499999999999948
 40
0.3749999999999922
 40
0.3749999999999922
 40
0.4999999999999896
 40
0.4999999999999896
 40
0.6249999999999869
 40
0.6249999999999869
 40
0.7499999999999843
 40
0.7499999999999843
 40
1.0
 40
1.0
 40
1.0
 40
1.0
 10
-429.5034757949096
 20
45.40874040680457
 30
0.0
 10
-429.7767632934024
 20
45.49991916036651
 30
0.0
 10
-430.0158365302314
 20
45.60473635941315
 30
0.0
 10
-430.2991812734564
 20
45.77116464604779
 30
0.0
 10
-430.381545690486
 20
45.82818554611566
 30
0.0
 10
-430.5221213110139
 20
45.94528837989036
 30
0.0
 10
-430.580615553834
 20
46.00589651860074
 30
0.0
 10
-430.6694888141907
 20
46.12675161097808
 30
0.0
 10
-430.700328053065
 20
46.18716250354568
 30
0.0
 10
-430.7352098305491
 20
46.30792242963926
 30
0.0
 10
-430.7391565329871
 20
46.36870985237321
 30
0.0
 10
-430.7091988333128
 20
46.54774708196938
 30
0.0
 10
-430.6356954364696
 20
46.66080025274847
 30
0.0
 10
-430.5079680522011
 20
46.76739457238585
 30
0.0
  0
SPLINE
  5
4C7
330
460
100
AcDbEntity
  8
0
  6
Continuous
 62
     7
370
    25
100
AcDbSpline
210
0.0
220
0.0
230
1.0
 70
     8
 71
     3
 72
    10
 73
     6
 74
     0
 42
0.000000001
 43
0.00000001
 40
0.0
 40
0.0
 40
0.0
 40
0.0
 40
0.5
 40
0.5
 40
1.0
 40
1.0
 40
1.0
 40
1.0
 10
-390.5498589368437
 20
235.4096333820196
 30
0.0
 10
-390.5292789338513
 20
235.3931276691372
 30
0.0
 10
-390.5184893323759
 20
235.3755970595579
 30
0.0
 10
-390.5027976290007
 20
235.3399195203502
 30
0.0
 10
-390.4985679290326
 20
235.3217594612969
 30
0.0
 10
-390.4962082907472
 20
235.3035824845473
 30
0.0
  0
SPLINE
  5
4C8
330
460
100
AcDbEntity
  8
0
  6
Continuous
 62
     7
370
    25
100
AcDbSpline
210
0.0
220
0.0
230
1.0
 70
     8
 71
     3
 72
    11
 73
     7
 74
     0
 42
0.000000001
 43
0.00000001
 40
0.0
 40
0.0
 40
0.0
 40
0.0
 40
0.0001553673434369
 40
0.0001553673434369
 40
0.0001553673434369
 40
0.0001663217991654
 40
0.0001663217991654
 40
0.0001663217991654
 40
0.0001663217991654
 10
-390.5498589368437
 20
235.4096333820196
 30
0.0
 10
-390.5711577986195
 20
235.4267156388749
 30
0.0
 10
-390.5924661042388
 20
235.4431722746203
 30
0.0
 10
-390.6137731242126
 20
235.4589957287277
 30
0.0
 10
-390.6152754142166
 20
235.4601113899963
 30
0.0
 10
-390.6167777073549
 20
235.4612239106568
 30
0.0
 10
-390.6182799998651
 20
235.4623332879439
 30
0.0
  0
LWPOLYLINE
  5
4C9
330
460
100
AcDbEntity
  8
0
  6
Continuous
 62
     7
370
    25
100
AcDbPolyline
 90
        9
 70
   128
 43
0.0
 10
694.4230163202
 20
98.7159006773
 10
688.8105012641
 20
99.4229758301
 10
666.3604408974
 20
102.2512762008
 10
576.5602032039
 20
113.5644804661
 10
217.3598203024
 20
158.817908349
 10
-86.5752498708
 20
197.1106649039
 10
-290.9067843076
 20
222.8551598429
 10
-390.5093120717
 20
235.4045247024
 10
-390.5498589368
 20
235.409633382
  0
SPLINE
  5
4CA
330
460
100
AcDbEntity
  8
0
  6
Continuous
 62
     7
370
    25
100
AcDbSpline
210
0.0
220
0.0
230
1.0
 70
     8
 71
     3
 72
     8
 73
     4
 74
     0
 42
0.000000001
 43
0.00000001
 40
0.0
 40
0.0
 40
0.0
 40
0.0
 40
1.0
 40
1.0
 40
1.0
 40
1.0
 10
-224.243234375802
 20
75.31911687058066
 30
0.0
 10
-226.8894374302456
 20
72.84793661313198
 30
0.0
 10
-229.5355837773474
 20
70.40752372766981
 30
0.0
 10
-232.1816333024196
 20
67.99149534206045
 30
0.0
  0
SPLINE
  5
4CB
330
460
100
AcDbEntity
  8
0
  6
Continuous
 62
     7
370
    25
100
AcDbSpline
210
0.0
220
0.0
230
1.0
 70
     8
 71
     3
 72
    22
 73
    18
 74
     0
 42
0.000000001
 43
0.00000001
 40
0.0
 40
0.0
 40
0.0
 40
0.0
 40
0.125
 40
0.125
 40
0.25
 40
0.25
 40
0.375
 40
0.375
 40
0.5
 40
0.5
 40
0.625
 40
0.625
 40
0.75
 40
0.75
 40
0.875
 40
0.875
 40
1.0
 40
1.0
 40
1.0
 40
1.0
 10
-226.2800618512575
 20
76.85406641132812
 30
0.0
 10
-226.0639397848657
 20
76.8291634033543
 30
0.0
 10
-225.8594221896068
 20
76.79715985141368
 30
0.0
 10
-225.4726537118224
 20
76.7195404722589
 30
0.0
 10
-225.2886204123191
 20
76.67331930800466
 30
0.0
 10
-224.9543394741044
 20
76.56950084701703
 30
0.0
 10
-224.8043166779748
 20
76.51225960907114
 30
0.0
 10
-224.5382037579604
 20
76.38722632579297
 30
0.0
 10
-224.4219205936997
 20
76.31890677982771
 30
0.0
 10
-224.2339229313353
 20
76.17730645327968
 30
0.0
 10
-224.1605981213036
 20
76.10343099512986
 30
0.0
 10
-224.0562786626674
 20
75.94939829615294
 30
0.0
 10
-224.026443366005
 20
75.87034791472958
 30
0.0
 10
-224.0117260373712
 20
75.71240147776685
 30
0.0
 10
-224.0266142270834
 20
75.63243055866484
 30
0.0
 10
-224.1019421676978
 20
75.47332990185102
 30
0.0
 10
-224.1615423220734
 20
75.39540572151581
 30
0.0
 10
-224.243234375802
 20
75.31911687058066
 30
0.0
  0
SPLINE
  5
4CC
330
460
100
AcDbEntity
  8
0
  6
Continuous
 62
     7
370
    25
100
AcDbSpline
210
0.0
220
0.0
230
1.0
 70
     8
 71
     3
 72
    20
 73
    16
 74
     0
 42
0.000000001
 43
0.00000001
 40
0.0
 40
0.0
 40
0.0
 40
0.0
 40
0.125
 40
0.125
 40
0.25
 40
0.25
 40
0.375
 40
0.375
 40
0.5
 40
0.5
 40
0.625
 40
0.625
 40
0.75
 40
0.75
 40
1.0
 40
1.0
 40
1.0
 40
1.0
 10
-371.2466153309636
 20
95.69394152104628
 30
0.0
 10
-365.2077509216919
 20
94.8252830974676
 30
0.0
 10
-359.1691524335479
 20
93.94800358989927
 30
0.0
 10
-347.0925606524456
 20
92.17840751169706
 30
0.0
 10
-341.0546343081214
 20
91.2849002093509
 30
0.0
 10
-328.9785051392939
 20
89.50855410046778
 30
0.0
 10
-322.9401693206651
 20
88.6275482664141
 30
0.0
 10
-310.8602202626593
 20
86.94648347747652
 30
0.0
 10
-304.818607283954
 20
86.14914306929879
 30
0.0
 10
-292.7341944205561
 20
84.62312214320099
 30
0.0
 10
-286.6921891314067
 20
83.89093591879745
 30
0.0
 10
-274.6088069805119
 20
82.45129907124846
 30
0.0
 10
-268.5673867498361
 20
81.74413424931979
 30
0.0
 10
-250.4436059276
 20
79.63555283718249
 30
0.0
 10
-238.3617642342405
 20
78.24619973581403
 30
0.0
 10
-226.2800618512575
 20
76.85406641132809
 30
0.0
  0
SPLINE
  5
4CD
330
460
100
AcDbEntity
  8
0
  6
Continuous
 62
     7
370
    25
100
AcDbSpline
210
0.0
220
0.0
230
1.0
 70
     8
 71
     3
 72
    12
 73
     8
 74
     0
 42
0.000000001
 43
0.00000001
 40
0.0
 40
0.0
 40
0.0
 40
0.0
 40
0.2500000000000369
 40
0.2500000000000369
 40
0.5000000000000737
 40
0.5000000000000737
 40
1.0
 40
1.0
 40
1.0
 40
1.0
 10
-372.384274639143
 20
95.78211475753653
 30
0.0
 10
-372.2876691732382
 20
95.78062047986829
 30
0.0
 10
-372.1891643726307
 20
95.77758913881637
 30
0.0
 10
-371.9964323279886
 20
95.76866752664175
 30
0.0
 10
-371.9008510373822
 20
95.76275641282892
 30
0.0
 10
-371.6164366780337
 20
95.74071521085673
 30
0.0
 10
-371.4299162878607
 20
95.72030838565321
 30
0.0
 10
-371.2466153309636
 20
95.69394152104628
 30
0.0
  0
SPLINE
  5
4CF
330
460
100
AcDbEntity
  8
0
  6
Continuous
 62
     7
370
    25
100
AcDbSpline
210
0.0
220
0.0
230
1.0
 70
     8
 71
     3
 72
     8
 73
     4
 74
     0
 42
0.000000001
 43
0.00000001
 40
0.0
 40
0.0
 40
0.0
 40
0.0
 40
0.0000025057782835
 40
0.0000025057782835
 40
0.0000025057782835
 40
0.0000025057782835
 10
-372.3843941585462
 20
95.78303545009722
 30
0.0
 10
-372.3843544026896
 20
95.78272919922543
 30
0.0
 10
-372.3843445677019
 20
95.78242237003488
 30
0.0
 10
-372.3843648984016
 20
95.78211615261966
 30
0.0
  0
LWPOLYLINE
  5
4D0
330
460
100
AcDbEntity
  8
0
  6
Continuous
 62
     7
370
    25
100
AcDbPolyline
 90
        3
 70
   128
 43
0.0
 10
-283.5406465265
 20
26.3549774178
 10
-283.4725249881
 20
26.3933362956
 10
-283.4109685947
 20
26.3957506
  0
SPLINE
  5
4D2
330
460
100
AcDbEntity
  8
0
  6
Continuous
 62
     7
370
    25
100
AcDbSpline
210
0.0
220
0.0
230
1.0
 70
     8
 71
     3
 72
     9
 73
     5
 74
     0
 42
0.000000001
 43
0.00000001
 40
0.0
 40
0.0
 40
0.0
 40
0.0
 40
0.7996598140998858
 40
1.0
 40
1.0
 40
1.0
 40
1.0
 10
-429.5017976101525
 20
45.4092753241456
 30
0.0
 10
-429.4279034806909
 20
45.43045542757657
 30
0.0
 10
-429.3354965244345
 20
45.45694181973673
 30
0.0
 10
-429.2607977511474
 20
45.41533957899456
 30
0.0
 10
-429.2458325850205
 20
45.40700497835041
 30
0.0
  0
SPLINE
  5
4D4
330
460
100
AcDbEntity
  8
0
  6
Continuous
 62
     7
370
    25
100
AcDbSpline
210
0.0
220
0.0
230
1.0
 70
     8
 71
     3
 72
    22
 73
    18
 74
     0
 42
0.000000001
 43
0.00000001
 40
0.0
 40
0.0
 40
0.0
 40
0.0
 40
0.1250000000000001
 40
0.1250000000000001
 40
0.2500000000000001
 40
0.2500000000000001
 40
0.3750000000000002
 40
0.3750000000000002
 40
0.5000000000000002
 40
0.5000000000000002
 40
0.6250000000000002
 40
0.6250000000000002
 40
0.7500000000000002
 40
0.7500000000000002
 40
0.8750000000000001
 40
0.8750000000000001
 40
1.0
 40
1.0
 40
1.0
 40
1.0
 10
-374.8277813266878
 20
94.03877704586527
 30
0.0
 10
-377.1111023309338
 20
91.9183419038464
 30
0.0
 10
-379.3943964649114
 20
89.79354784007383
 30
0.0
 10
-383.9609378989321
 20
85.5363622649026
 30
0.0
 10
-386.2441830105979
 20
83.40361575278972
 30
0.0
 10
-390.8106764893392
 20
79.13865082436352
 30
0.0
 10
-393.0939149057899
 20
77.00481820771579
 30
0.0
 10
-397.6606556641364
 20
72.77996722358536
 30
0.0
 10
-399.9441843458886
 20
70.69322173391022
 30
0.0
 10
-404.5121351612804
 20
66.66466741131727
 30
0.0
 10
-406.7956674004177
 20
64.72364357504782
 30
0.0
 10
-411.3624112786022
 20
60.89351818128233
 30
0.0
 10
-413.645651178662
 20
59.00009553850681
 30
0.0
 10
-418.2121476341307
 20
55.2105205853929
 30
0.0
 10
-420.4953942331596
 20
53.31600003958628
 30
0.0
 10
-425.0619386713413
 20
49.51856113533317
 30
0.0
 10
-427.3452343208513
 20
47.61600164036732
 30
0.0
 10
-429.6285568560735
 20
45.70903580995052
 30
0.0
  0
LWPOLYLINE
  5
4D6
330
460
100
AcDbEntity
  8
0
  6
Continuous
 62
     7
370
    25
100
AcDbPolyline
 90
        3
 70
   128
 43
0.0
 10
-224.9143815516
 20
75.1067586574
 10
-224.8959866569
 20
75.1237316894
 10
-224.8945080221
 20
75.125048539
  0
SPLINE
  5
4D8
330
460
100
AcDbEntity
  8
0
  6
Continuous
 62
     7
370
    25
100
AcDbSpline
210
0.0
220
0.0
230
1.0
 70
     8
 71
     3
 72
    20
 73
    16
 74
     0
 42
0.000000001
 43
0.00000001
 40
0.0
 40
0.0
 40
0.0
 40
0.0
 40
0.2500000000000008
 40
0.2500000000000008
 40
0.3750000000000007
 40
0.3750000000000007
 40
0.5000000000000006
 40
0.5000000000000006
 40
0.6250000000000004
 40
0.6250000000000004
 40
0.7500000000000002
 40
0.7500000000000002
 40
0.8750000000000001
 40
0.8750000000000001
 40
1.0
 40
1.0
 40
1.0
 40
1.0
 10
-226.6161382413551
 20
75.605109812408
 30
0.0
 10
-238.6994112965157
 20
76.99794551932119
 30
0.0
 10
-250.7826632360009
 20
78.38815628175126
 30
0.0
 10
-268.9077447028276
 20
80.49877719972704
 30
0.0
 10
-274.9494742330987
 20
81.20675645950243
 30
0.0
 10
-287.0331402288229
 20
82.64843962951912
 30
0.0
 10
-293.0750747729653
 20
83.38190469662585
 30
0.0
 10
-305.1594405152661
 20
84.91057518284924
 30
0.0
 10
-311.2010773783516
 20
85.70920575078955
 30
0.0
 10
-323.2830020443926
 20
87.39087758700217
 30
0.0
 10
-329.3233345502167
 20
88.27116552135381
 30
0.0
 10
-341.4037746331712
 20
90.04583079510927
 30
0.0
 10
-347.4439099212865
 20
90.93847233421779
 30
0.0
 10
-359.524451061275
 20
92.7068074530043
 30
0.0
 10
-365.5648386909572
 20
93.58364246031954
 30
0.0
 10
-371.605361983597
 20
94.45197961738558
 30
0.0
  0
SPLINE
  5
4DA
330
460
100
AcDbEntity
  8
0
  6
Continuous
 62
     7
370
    25
100
AcDbSpline
210
0.0
220
0.0
230
1.0
 70
     8
 71
     3
 72
    14
 73
    10
 74
     0
 42
0.000000001
 43
0.00000001
 40
0.0
 40
0.0
 40
0.0
 40
0.0
 40
0.25
 40
0.25
 40
0.5
 40
0.5
 40
0.75
 40
0.75
 40
1.0
 40
1.0
 40
1.0
 40
1.0
 10
-372.3843648984019
 20
95.78211615261965
 30
0.0
 10
-372.3875067212841
 20
95.73479457012179
 30
0.0
 10
-372.3911449612331
 20
95.6653869964402
 30
0.0
 10
-372.3990982340609
 20
95.48893091651622
 30
0.0
 10
-372.4033529176031
 20
95.38299865036879
 30
0.0
 10
-372.4118212426392
 20
95.15087309630476
 30
0.0
 10
-372.4160647974729
 20
95.02373185536872
 30
0.0
 10
-372.4238344214631
 20
94.76949154007077
 30
0.0
 10
-372.4274650958806
 20
94.6387786447487
 30
0.0
 10
-372.4304426041597
 20
94.51885420899102
 30
0.0
  0
SPLINE
  5
4DB
330
460
100
AcDbEntity
  8
0
  6
Continuous
 62
     7
370
    25
100
AcDbSpline
210
0.0
220
0.0
230
1.0
 70
     8
 71
     3
 72
    12
 73
     8
 74
     0
 42
0.000000001
 43
0.00000001
 40
0.0
 40
0.0
 40
0.0
 40
0.0
 40
0.4999999999999899
 40
0.4999999999999899
 40
0.7499999999999949
 40
0.7499999999999949
 40
1.0
 40
1.0
 40
1.0
 40
1.0
 10
-372.4304426041597
 20
94.51885420899131
 30
0.0
 10
-372.9478571674419
 20
94.55079143843034
 30
0.0
 10
-373.4615004509346
 20
94.52157631658336
 30
0.0
 10
-374.1006960694142
 20
94.39382076822656
 30
0.0
 10
-374.2899378613344
 20
94.33807615773303
 30
0.0
 10
-374.6100984777905
 20
94.20271268527476
 30
0.0
 10
-374.7361642681445
 20
94.12557147366921
 30
0.0
 10
-374.8277813266878
 20
94.03877704586527
 30
0.0
  0
SPLINE
  5
4DC
330
460
100
AcDbEntity
  8
0
  6
Continuous
 62
     7
370
    25
100
AcDbSpline
210
0.0
220
0.0
230
1.0
 70
     8
 71
     3
 72
     8
 73
     4
 74
     0
 42
0.000000001
 43
0.00000001
 40
0.0
 40
0.0
 40
0.0
 40
0.0
 40
1.0
 40
1.0
 40
1.0
 40
1.0
 10
-371.605361983597
 20
94.45197961738559
 30
0.0
 10
-371.871212256034
 20
94.49208512560904
 30
0.0
 10
-372.1462369211893
 20
94.51436301118346
 30
0.0
 10
-372.4304426041596
 20
94.51885420899131
 30
0.0
  0
LWPOLYLINE
  5
4E0
330
460
100
AcDbEntity
  8
0
  6
Continuous
 62
    60
370
    25
100
AcDbPolyline
 90
        8
 70
   128
 43
0.0
 10
-412.9456912264
 20
44.0524470065
 10
-413.8241755107
 20
44.1973612884
 10
-414.600965844
 20
44.3966190104
 10
-415.2462106094
 20
44.6425628098
 10
-415.7351134125
 20
44.9257412044
 10
-416.0488859926
 20
45.2352718073
 10
-416.1754702456
 20
45.5592595311
 10
-416.1779149313
 20
45.6146928031
  0
LWPOLYLINE
  5
4E4
330
460
100
AcDbEntity
  8
0
  6
Continuous
 62
    60
370
    25
100
AcDbPolyline
 90
        3
 70
   128
 43
0.0
 10
-242.5514582616
 20
73.6464781102
 10
-242.4135085719
 20
73.7319066782
 10
-242.3012076055
 20
73.7451417859
  0
LWPOLYLINE
  5
4E5
330
460
100
AcDbEntity
  8
0
  6
Continuous
 62
    60
370
    25
100
AcDbPolyline
 90
        3
 70
   128
 43
0.0
 10
-238.6121277756
 20
70.8222237948
 10
-238.6800410973
 20
70.5516628887
 10
-238.9350466995
 20
70.2361900298
  0
LWPOLYLINE
  5
4E6
330
460
100
AcDbEntity
  8
0
  6
Continuous
 62
    60
370
    25
100
AcDbPolyline
 90
        3
 70
   128
 43
0.0
 10
-364.1553233357
 20
88.9671250288
 10
-364.0173736461
 20
89.0525535968
 10
-363.9053233358
 20
89.0658204289
  0
LWPOLYLINE
  5
4E8
330
460
100
AcDbEntity
  8
0
  6
Continuous
 62
    60
370
    25
100
AcDbPolyline
 90
        8
 70
   128
 43
0.0
 10
400.2787536106
 20
-208.9015097173
 10
400.2923404691
 20
-209.2573930735
 10
400.3325789093
 20
-209.575635066
 10
400.3979225905
 20
-209.8440058336
 10
400.4858603917
 20
-210.0521920381
 10
400.5930129125
 20
-210.1921932006
 10
400.7152623416
 20
-210.2586291548
 10
400.7358603917
 20
-210.2622136363
  0
LWPOLYLINE
  5
4E9
330
460
100
AcDbEntity
  8
0
  6
Continuous
 62
    60
370
    25
100
AcDbPolyline
 90
        8
 70
   128
 43
0.0
 10
-718.4768050715
 20
-67.9515580667
 10
-718.463218213
 20
-68.3074414228
 10
-718.4229797728
 20
-68.6256834153
 10
-718.3576360916
 20
-68.8940541829
 10
-718.2696982904
 20
-69.1022403875
 10
-718.1625457696
 20
-69.2422415499
 10
-718.0402963405
 20
-69.3086775041
 10
-718.0196982904
 20
-69.3122619857
  0
LWPOLYLINE
  5
4EB
330
460
100
AcDbEntity
  8
0
  6
Continuous
 62
    60
370
    25
100
AcDbPolyline
 90
        8
 70
   128
 43
0.0
 10
-718.4768050715
 20
-39.6672868184
 10
-718.8281987852
 20
-39.6093211056
 10
-719.1389149186
 20
-39.5296180168
 10
-719.3970128247
 20
-39.4312404971
 10
-719.5925739459
 20
-39.3179691392
 10
-719.718082978
 20
-39.194156898
 10
-719.7687166792
 20
-39.0645618085
 10
-719.7696982898
 20
-39.0436952857
  0
LWPOLYLINE
  5
4ED
330
460
100
AcDbEntity
  8
0
  6
Continuous
 62
    60
370
    25
100
AcDbPolyline
 90
        8
 70
   128
 43
0.0
 10
-718.4768050715
 20
-67.9515580667
 10
-718.8281987852
 20
-67.8935923539
 10
-719.1389149186
 20
-67.8138892651
 10
-719.3970128247
 20
-67.7155117454
 10
-719.5925739459
 20
-67.6022403875
 10
-719.718082978
 20
-67.4784281464
 10
-719.7687166792
 20
-67.3488330568
 10
-719.7696982905
 20
-67.3279485024
  0
SPLINE
  5
4EF
330
460
100
AcDbEntity
  8
0
  6
Continuous
 62
    60
370
    25
100
AcDbSpline
210
0.0
220
0.0
230
1.0
 70
     8
 71
     3
 72
    10
 73
     6
 74
     0
 42
0.000000001
 43
0.00000001
 40
0.0
 40
0.0
 40
0.0
 40
0.0
 40
0.462335113990994
 40
0.9246702170372556
 40
1.0
 40
1.0
 40
1.0
 40
1.0
 10
-271.0953173211167
 20
33.67424943806196
 30
0.0
 10
-271.1990221048431
 20
33.67415502150924
 30
0.0
 10
-271.4064316698408
 20
33.67396618840606
 30
0.0
 10
-271.6219941918324
 20
33.59419018896804
 30
0.0
 10
-271.7002909842161
 20
33.50919849466754
 30
0.0
 10
-271.711260791861
 20
33.49729069474999
 30
0.0
  0
SPLINE
  5
4F0
330
460
100
AcDbEntity
  8
0
  6
Continuous
 62
    60
370
    25
100
AcDbSpline
210
0.0
220
0.0
230
1.0
 70
     8
 71
     3
 72
    10
 73
     6
 74
     0
 42
0.000000001
 43
0.00000001
 40
0.0
 40
0.0
 40
0.0
 40
0.0
 40
0.4314662850768158
 40
0.862932559939631
 40
1.0
 40
1.0
 40
1.0
 40
1.0
 10
-232.1831592881785
 20
67.99154714956032
 30
0.0
 10
-232.2870686160984
 20
67.99187404088995
 30
0.0
 10
-232.4948872694785
 20
67.99252782354151
 30
0.0
 10
-232.721506273052
 20
67.90392181544277
 30
0.0
 10
-232.8080218641853
 20
67.80678576232484
 30
0.0
 10
-232.8288798542933
 20
67.78336729163617
 30
0.0
  0
SPLINE
  5
4F3
330
460
100
AcDbEntity
  8
0
  6
Continuous
 62
    60
370
    25
100
AcDbSpline
210
0.0
220
0.0
230
1.0
 70
     8
 71
     3
 72
    11
 73
     7
 74
     0
 42
0.000000001
 43
0.00000001
 40
0.0
 40
0.0
 40
0.0
 40
0.0
 40
0.0244313615903973
 40
0.3496175632363976
 40
0.6748054888218846
 40
1.0
 40
1.0
 40
1.0
 40
1.0
 10
-225.0468361264854
 20
74.96466824341367
 30
0.0
 10
-225.047220692697
 20
74.97208694636534
 30
0.0
 10
-225.0527239104069
 20
75.07825003673338
 30
0.0
 10
-225.3282622285717
 20
75.26449433823787
 30
0.0
 10
-225.8519908600991
 20
75.48965438715742
 30
0.0
 10
-226.3614207281545
 20
75.5666244108654
 30
0.0
 10
-226.6161382413551
 20
75.605109812408
 30
0.0
  0
LWPOLYLINE
  5
4F6
330
460
100
AcDbEntity
  8
0
  6
Continuous
 62
    60
370
    25
100
AcDbPolyline
 90
        3
 70
   128
 43
0.0
 10
719.7696982726
 20
99.3835451769
 10
719.7425292248
 20
99.2739428004
 10
719.6405269839
 20
99.1477536568
  0
LWPOLYLINE
  5
4F7
330
460
100
AcDbEntity
  8
0
  6
Continuous
 62
    60
370
    25
100
AcDbPolyline
 90
        3
 70
   128
 43
0.0
 10
716.4807305533
 20
102.0179293899
 10
716.8701453738
 20
102.123080627
 10
717.1902326714
 20
102.1238229729
  0
LWPOLYLINE
  5
4F8
330
460
100
AcDbEntity
  8
0
  6
Continuous
 62
    60
370
    25
100
AcDbPolyline
 90
        3
 70
   128
 43
0.0
 10
-400.3597183494
 20
242.921888547
 10
-400.3795651871
 20
242.8833132472
 10
-400.4039994354
 20
242.7321787803
  0
LWPOLYLINE
  5
4F9
330
460
100
AcDbEntity
  8
0
  6
Continuous
 62
    60
370
    25
100
AcDbPolyline
 90
        3
 70
   128
 43
0.0
 10
719.7696982905
 20
71.0991846688
 10
719.7425292248
 20
70.9896715521
 10
719.6405269839
 20
70.8634824085
  0
LINE
  5
4FA
330
460
100
AcDbEntity
  8
0
  6
Continuous
 62
     7
370
    25
100
AcDbLine
 10
-416.1779242738
 20
45.6114709173
 30
0.0
 11
-416.1779242738
 21
43.4159830064
 31
0.0
  0
LINE
  5
4FB
330
460
100
AcDbEntity
  8
0
  6
Continuous
 62
     7
370
    25
100
AcDbLine
 10
-369.345102203
 20
87.9996459895
 30
0.0
 11
-415.3070429695
 21
47.4650243077
 31
0.0
  0
LINE
  5
4FC
330
460
100
AcDbEntity
  8
0
  6
Continuous
 62
     7
370
    25
100
AcDbLine
 10
-239.6121184331
 20
61.6979633274
 30
0.0
 11
-239.6121184331
 21
63.9822146378
 31
0.0
  0
LINE
  5
4FD
330
460
100
AcDbEntity
  8
0
  6
Continuous
 62
     7
370
    25
100
AcDbLine
 10
-238.6121184331
 20
65.1685914309
 30
0.0
 11
-238.6121184331
 21
70.8254456805
 31
0.0
  0
LINE
  5
4FE
330
460
100
AcDbEntity
  8
0
  6
Continuous
 62
     7
370
    25
100
AcDbLine
 10
-242.3014582617
 20
73.7451735103
 30
0.0
 11
-363.9053233358
 21
89.0658204289
 31
0.0
  0
LINE
  5
4FF
330
460
100
AcDbEntity
  8
0
  6
Continuous
 62
     7
370
    25
100
AcDbLine
 10
-718.0196982904
 20
-69.3122619857
 30
0.0
 11
400.7358603917
 21
-210.2622136363
 31
0.0
  0
LINE
  5
500
330
460
100
AcDbEntity
  8
0
  6
Continuous
 62
     7
370
    25
100
AcDbLine
 10
402.3087360471
 20
-209.777900153
 30
0.0
 11
719.092573946
 21
69.5991846688
 31
0.0
  0
LINE
  5
501
330
460
100
AcDbEntity
  8
0
  6
Continuous
 62
     7
370
    25
100
AcDbLine
 10
-719.7696982905
 20
-39.0436772541
 30
0.0
 11
-719.7696982905
 21
-67.3279485024
 31
0.0
  0
LINE
  5
502
330
460
100
AcDbEntity
  8
0
  6
Continuous
 62
     7
370
    25
100
AcDbLine
 10
-402.1383129188
 20
242.3742309313
 30
0.0
 11
-718.7150440365
 21
-36.8202028779
 31
0.0
  0
LINE
  5
503
330
460
100
AcDbEntity
  8
0
  6
Continuous
 62
     7
370
    25
100
AcDbLine
 10
717.1864494669
 20
102.1243058234
 30
0.0
 11
-400.3597183494
 21
242.921888547
 31
0.0
  0
LINE
  5
504
330
460
100
AcDbEntity
  8
0
  6
Continuous
 62
     7
370
    25
100
AcDbLine
 10
719.7696982905
 20
71.0991846688
 30
0.0
 11
719.7696982905
 21
99.3834559171
 31
0.0
  0
LINE
  5
505
330
460
100
AcDbEntity
  8
0
  6
Continuous
 62
     7
370
    25
100
AcDbLine
 10
-291.3418261522
 20
28.7318000879
 30
0.0
 11
-412.9456912264
 21
44.0524470065
 31
0.0
  0
LINE
  5
506
330
460
100
AcDbEntity
  8
0
  6
Continuous
 62
     7
370
    25
100
AcDbLine
 10
-412.2385844453
 20
46.561674654
 30
0.0
 11
-290.6347193712
 21
31.2410277355
 31
0.0
  0
LINE
  5
507
330
460
100
AcDbEntity
  8
0
  6
Continuous
 62
     7
370
    25
100
AcDbLine
 10
-242.5514582616
 20
73.6464781102
 30
0.0
 11
-364.1553233357
 21
88.9671250288
 31
0.0
  0
LINE
  5
508
330
460
100
AcDbEntity
  8
0
  6
Continuous
 62
     7
370
    25
100
AcDbLine
 10
-286.7678161595
 20
31.8228886916
 30
0.0
 11
-240.8058753929
 21
72.3575103733
 31
0.0
  0
LINE
  5
509
330
460
100
AcDbEntity
  8
0
  6
Continuous
 62
     7
370
    25
100
AcDbLine
 10
-368.0222265474
 20
88.3852640727
 30
0.0
 11
-413.984167314
 21
47.850642391
 31
0.0
  0
LINE
  5
50A
330
460
100
AcDbEntity
  8
0
  6
Continuous
 62
     7
370
    25
100
AcDbLine
 10
-238.9350466995
 20
70.2361900298
 30
0.0
 11
-284.8969874661
 21
29.7015683481
 31
0.0
  0
LINE
  5
50B
330
460
100
AcDbEntity
  8
0
  6
Continuous
 62
     7
370
    25
100
AcDbLine
 10
-238.9350466995
 20
70.2361900298
 30
0.0
 11
-238.9350466995
 21
64.5793357801
 31
0.0
  0
LINE
  5
50C
330
460
100
AcDbEntity
  8
0
  6
Continuous
 62
     7
370
    25
100
AcDbLine
 10
-282.290547721
 20
26.3433778893
 30
0.0
 11
-238.9350466995
 21
64.5793357801
 31
0.0
  0
LINE
  5
50D
330
460
100
AcDbEntity
  8
0
  6
Continuous
 62
     7
370
    25
100
AcDbLine
 10
-716.4807305533
 20
-36.0212964772
 30
0.0
 11
400.4039994354
 21
-176.7355458676
 31
0.0
  0
LINE
  5
50E
330
460
100
AcDbEntity
  8
0
  6
Continuous
 62
     7
370
    25
100
AcDbLine
 10
400.2787536106
 20
-180.617238469
 30
0.0
 11
-718.4768050715
 21
-39.6672868184
 31
0.0
  0
LINE
  5
50F
330
460
100
AcDbEntity
  8
0
  6
Continuous
 62
     7
370
    25
100
AcDbLine
 10
400.2787536106
 20
-208.9015097173
 30
0.0
 11
400.2787536106
 21
-180.617238469
 31
0.0
  0
LINE
  5
510
330
460
100
AcDbEntity
  8
0
  6
Continuous
 62
     7
370
    25
100
AcDbLine
 10
402.856689085
 20
-180.229331165
 30
0.0
 11
402.856689085
 21
-208.5136024133
 31
0.0
  0
LINE
  5
511
330
460
100
AcDbEntity
  8
0
  6
Continuous
 62
     7
370
    25
100
AcDbLine
 10
-718.4768050715
 20
-39.6672868184
 30
0.0
 11
-718.4768050715
 21
-67.9515580667
 31
0.0
  0
LINE
  5
512
330
460
100
AcDbEntity
  8
0
  6
Continuous
 62
     7
370
    25
100
AcDbLine
 10
-718.4768050715
 20
-67.9515580667
 30
0.0
 11
400.2787536106
 21
-208.9015097173
 31
0.0
  0
LINE
  5
513
330
460
100
AcDbEntity
  8
0
  6
Continuous
 62
     7
370
    25
100
AcDbLine
 10
719.6405269839
 20
99.1477536568
 30
0.0
 11
402.856689085
 21
-180.229331165
 31
0.0
  0
LINE
  5
514
330
460
100
AcDbEntity
  8
0
  6
Continuous
 62
     7
370
    25
100
AcDbLine
 10
400.4039994354
 20
-176.7355458676
 30
0.0
 11
716.4807305533
 21
102.0179293899
 31
0.0
  0
LINE
  5
515
330
460
100
AcDbEntity
  8
0
  6
Continuous
 62
     7
370
    25
100
AcDbLine
 10
719.6405269839
 20
70.8634824085
 30
0.0
 11
719.6405269839
 21
99.1477536568
 31
0.0
  0
LINE
  5
516
330
460
100
AcDbEntity
  8
0
  6
Continuous
 62
     7
370
    25
100
AcDbLine
 10
402.856689085
 20
-208.5136024133
 30
0.0
 11
719.6405269839
 21
70.8634824085
 31
0.0
  0
LINE
  5
517
330
460
100
AcDbEntity
  8
0
  6
Continuous
 62
     7
370
    25
100
AcDbLine
 10
-400.4039994354
 20
242.7321787803
 30
0.0
 11
-716.4807305533
 21
-36.0212964772
 31
0.0
  0
LINE
  5
518
330
460
100
AcDbEntity
  8
0
  6
Continuous
 62
     7
370
    25
100
AcDbLine
 10
716.4807305533
 20
102.0179293899
 30
0.0
 11
-400.4039994354
 21
242.7321787803
 31
0.0
  0
LINE
  5
519
330
460
100
AcDbEntity
  8
0
  6
Continuous
 62
     7
370
    25
100
AcDbLine
 10
390.4086601966
 20
-169.3995597613
 30
0.0
 11
-271.0940263835
 21
33.6739903376
 31
0.0
  0
LINE
  5
51A
330
460
100
AcDbEntity
  8
0
  6
Continuous
 62
     7
370
    25
100
AcDbLine
 10
-271.0951997422
 20
33.6743505449
 30
0.0
 11
-271.0953173211
 21
33.6742494381
 31
0.0
  0
LINE
  5
51B
330
460
100
AcDbEntity
  8
0
  6
Continuous
 62
     7
370
    25
100
AcDbLine
 10
-232.1831592882
 20
67.9915471496
 30
0.0
 11
-232.1832768931
 21
67.9914408438
 31
0.0
  0
LINE
  5
51C
330
460
100
AcDbEntity
  8
0
  6
Continuous
 62
     7
370
    25
100
AcDbLine
 10
694.4230163202
 20
98.7159006773
 30
0.0
 11
-232.1816333024
 21
67.9914953421
 31
0.0
  0
LINE
  5
51D
330
460
100
AcDbEntity
  8
0
  6
Continuous
 62
     7
370
    25
100
AcDbLine
 10
-694.3320643359
 20
-32.6544556819
 30
0.0
 11
-429.5034757949
 21
45.4087404068
 31
0.0
  0
LINE
  5
51E
330
460
100
AcDbEntity
  8
0
  6
Continuous
 62
     7
370
    25
100
AcDbLine
 10
-429.5017281978
 20
45.4092555439
 30
0.0
 11
-429.5017976102
 21
45.4092753241
 31
0.0
  0
LINE
  5
51F
330
460
100
AcDbEntity
  8
0
  6
Continuous
 62
     7
370
    25
100
AcDbLine
 10
-372.3843941585
 20
95.7830354501
 30
0.0
 11
-390.4962082907
 21
235.3035824845
 31
0.0
  0
LINE
  5
520
330
460
100
AcDbEntity
  8
0
  6
Continuous
 62
     7
370
    25
100
AcDbLine
 10
-372.3843648984
 20
95.7821161526
 30
0.0
 11
-372.3842746391
 21
95.7821147575
 31
0.0
  0
LINE
  5
521
330
460
100
AcDbEntity
  8
0
  6
Continuous
 62
     7
370
    25
100
AcDbLine
 10
-279.6545231659
 20
26.830054506
 30
0.0
 11
-279.6773472459
 21
26.811076568
 31
0.0
  0
LINE
  5
522
330
460
100
AcDbEntity
  8
0
  6
Continuous
 62
    60
370
    25
100
AcDbLine
 10
-291.3418261522
 20
28.7318000879
 30
0.0
 11
-291.3418261522
 21
27.2571794576
 31
0.0
  0
LINE
  5
523
330
460
100
AcDbEntity
  8
0
  6
Continuous
 62
    60
370
    25
100
AcDbLine
 10
-284.8969874661
 20
29.7015683481
 30
0.0
 11
-284.8969874661
 21
26.5118374853
 31
0.0
  0
LINE
  5
524
330
460
100
AcDbEntity
  8
0
  6
Continuous
 62
    60
370
    25
100
AcDbLine
 10
-412.9456912264
 20
44.0524470065
 30
0.0
 11
-412.9456912264
 21
42.9476172329
 31
0.0
  0
LINE
  5
525
330
460
100
AcDbEntity
  8
0
  6
Continuous
 62
    60
370
    25
100
AcDbLine
 10
-241.9663671217
 20
61.9059624529
 30
0.0
 11
-241.9663671217
 21
59.5918579916
 31
0.0
  0
LINE
  5
526
330
460
100
AcDbEntity
  8
0
  6
Continuous
 62
    60
370
    25
100
AcDbLine
 10
-374.8277813267
 20
83.1643774961
 30
0.0
 11
-374.8277813267
 21
94.0387770459
 31
0.0
  0
LINE
  5
527
330
460
100
AcDbEntity
  8
0
  6
Continuous
 62
    60
370
    25
100
AcDbLine
 10
-226.6161382414
 20
73.5452436741
 30
0.0
 11
-226.6161382414
 21
75.6051098124
 31
0.0
  0
LINE
  5
528
330
460
100
AcDbEntity
  8
0
  6
Continuous
 62
    60
370
    25
100
AcDbLine
 10
-371.6053619836
 20
86.0062842301
 30
0.0
 11
-371.6053619836
 21
94.4519796174
 31
0.0
  0
ARC
  5
529
330
460
100
AcDbEntity
  8
0
  6
Continuous
 62
     7
370
    25
100
AcDbCircle
 10
400.9858603916
 20
-208.277900153
 30
0.0
 40
1.999999999999809
100
AcDbArc
 50
262.8192442221
 51
311.40962211
  0
ARC
  5
52A
330
460
100
AcDbEntity
  8
0
  6
Continuous
 62
     7
370
    25
100
AcDbCircle
 10
-717.7696982905
 20
-67.3279485024
 30
0.0
 40
2.0
100
AcDbArc
 50
180.0
 51
262.8192442221
  0
ARC
  5
52B
330
460
100
AcDbEntity
  8
0
  6
Continuous
 62
     7
370
    25
100
AcDbCircle
 10
717.7696982905
 20
71.0991846688
 30
0.0
 40
1.999999999998749
100
AcDbArc
 50
311.4096221099
 51
0.0
  0
ARC
  5
52C
330
460
100
AcDbEntity
  8
0
  6
Continuous
 62
     7
370
    25
100
AcDbCircle
 10
-289.5016142101
 20
38.4024908654
 30
0.0
 40
9.844218613218755
100
AcDbArc
 50
259.2261330329
 51
297.8883001309
  0
ARC
  5
52D
330
460
100
AcDbEntity
  8
0
  6
Continuous
 62
     7
370
    25
100
AcDbCircle
 10
-287.4118791348
 20
28.9785770231
 30
0.0
 40
3.937687445097275
100
AcDbArc
 50
144.9309440897
 51
183.5931111895
  0
ARC
  5
52E
330
460
100
AcDbEntity
  8
0
  6
Continuous
 62
     7
370
    25
100
AcDbCircle
 10
-289.5305922059
 20
37.043442202
 30
0.0
 40
5.906531167931352
100
AcDbArc
 50
259.2261330329
 51
297.8883001309
  0
ARC
  5
52F
330
460
100
AcDbEntity
  8
0
  6
Continuous
 62
     7
370
    25
100
AcDbCircle
 10
-287.0808387393
 20
29.6612106413
 30
0.0
 40
2.18422414791544
100
AcDbArc
 50
1.0587090425
 51
81.7605351794
  0
ARC
  5
530
330
460
100
AcDbEntity
  8
0
  6
Continuous
 62
     7
370
    25
100
AcDbCircle
 10
-409.015744209
 20
44.2992239416
 30
0.0
 40
3.937687445097275
100
AcDbArc
 50
144.9309440897
 51
183.5931111895
  0
ARC
  5
531
330
460
100
AcDbEntity
  8
0
  6
Continuous
 62
     7
370
    25
100
AcDbCircle
 10
-365.2594505009
 20
83.1647105623
 30
0.0
 40
5.906531167930916
100
AcDbArc
 50
79.2261330329
 51
117.8883001309
  0
ARC
  5
532
330
460
100
AcDbEntity
  8
0
  6
Continuous
 62
     7
370
    25
100
AcDbCircle
 10
-241.1188979728
 20
70.1958323231
 30
0.0
 40
2.184224147915329
100
AcDbArc
 50
1.0587090425
 51
81.7605351794
  0
ARC
  5
533
330
460
100
AcDbEntity
  8
0
  6
Continuous
 62
     7
370
    25
100
AcDbCircle
 10
401.0148383874
 20
-176.7489621581
 30
0.0
 40
3.937687445288044
100
AcDbArc
 50
259.2261330329
 51
297.8883001309
  0
ARC
  5
534
330
460
100
AcDbEntity
  8
0
  6
Continuous
 62
     7
370
    25
100
AcDbCircle
 10
447.2494307527
 20
-180.1899169487
 30
0.0
 40
46.97262090702473
100
AcDbArc
 50
175.7826556607
 51
180.5212410306
  0
ARC
  5
535
330
460
100
AcDbEntity
  8
0
  6
Continuous
 62
     7
370
    25
100
AcDbCircle
 10
399.1737629539
 20
-180.2069954168
 30
0.0
 40
3.682993860030628
100
AcDbArc
 50
359.6525240067
 51
70.4863367261
  0
ARC
  5
536
330
460
100
AcDbEntity
  8
0
  6
Continuous
 62
     7
370
    25
100
AcDbCircle
 10
-714.4336379798
 20
-39.5114123735
 30
0.0
 40
4.046170655588014
100
AcDbArc
 50
120.3933281766
 51
182.2078056322
  0
ARC
  5
537
330
460
100
AcDbEntity
  8
0
  6
Continuous
 62
     7
370
    25
100
AcDbCircle
 10
401.0148383874
 20
-205.0332334064
 30
0.0
 40
3.937687445287882
100
AcDbArc
 50
259.2261330329
 51
297.8883001309
  0
ARC
  5
538
330
460
100
AcDbEntity
  8
0
  6
Continuous
 62
     7
370
    25
100
AcDbCircle
 10
716.5911308827
 20
98.9650610784
 30
0.0
 40
3.054863852990009
100
AcDbArc
 50
3.4285532086
 51
92.0710745023
  0
ARC
  5
539
330
460
100
AcDbEntity
  8
0
  6
Continuous
 62
     7
370
    25
100
AcDbCircle
 10
-400.945727768
 20
240.9764531603
 30
0.0
 40
1.837400892265133
100
AcDbArc
 50
72.8524139017
 51
130.4708381585
  0
ARC
  5
53A
330
460
100
AcDbEntity
  8
0
  6
Continuous
 62
     7
370
    25
100
AcDbCircle
 10
-430.7179311154
 20
45.6983926709
 30
0.0
 40
1.089426249545709
100
AcDbArc
 50
0.5597594582
 51
78.8879633746
  0
ARC
  5
53B
330
460
100
AcDbEntity
  8
0
  6
Continuous
 62
     7
370
    25
100
AcDbCircle
 10
-375.9267872312
 20
94.0064437218
 30
0.0
 40
1.099481433242316
100
AcDbArc
 50
1.6851854643
 51
79.1365113216
  0
ARC
  5
53C
330
460
100
AcDbEntity
  8
0
  6
Continuous
 62
     7
370
    25
100
AcDbCircle
 10
-224.643338387
 20
75.7439525149
 30
0.0
 40
1.977679590210954
100
AcDbArc
 50
145.852768597
 51
184.0257533083
  0
ARC
  5
53D
330
460
100
AcDbEntity
  8
0
  6
Continuous
 62
     7
370
    25
100
AcDbCircle
 10
-369.5392479391
 20
94.5279664635
 30
0.0
 40
2.067510881608653
100
AcDbArc
 50
145.6705137904
 51
182.1062555762
  0
ARC
  5
53E
330
460
100
AcDbEntity
  8
0
  6
Continuous
 62
    60
370
    25
100
AcDbCircle
 10
-414.2207524675
 20
46.2003516025
 30
0.0
 40
1.667162925819228
100
AcDbArc
 50
81.8416824403
 51
130.6545244225
  0
ARC
  5
53F
330
460
100
AcDbEntity
  8
0
  6
Continuous
 62
    60
370
    25
100
AcDbCircle
 10
-368.2588125708
 20
86.7349867908
 30
0.0
 40
1.667149679447938
100
AcDbArc
 50
81.8415869733
 51
130.6612067915
  0
ARC
  5
540
330
460
100
AcDbEntity
  8
0
  6
Continuous
 62
    60
370
    25
100
AcDbCircle
 10
401.1897821012
 20
-208.5420481713
 30
0.0
 40
1.667149679464977
100
AcDbArc
 50
312.158037431
 51
0.9776572489
  0
ARC
  5
541
330
460
100
AcDbEntity
  8
0
  6
Continuous
 62
    60
370
    25
100
AcDbCircle
 10
717.9736200001
 20
70.8350366505
 30
0.0
 40
1.667149679464612
100
AcDbArc
 50
312.158037431
 51
0.9776572489
  0
ARC
  5
542
330
460
100
AcDbEntity
  8
0
  6
Continuous
 62
    60
370
    25
100
AcDbCircle
 10
-716.5579690425
 20
-39.3297564336
 30
0.0
 40
3.3093614289599
100
AcDbArc
 50
88.6626298086
 51
130.4626049811
  0
ARC
  5
543
330
460
100
AcDbEntity
  8
0
  6
Continuous
 62
    60
370
    25
100
AcDbCircle
 10
-279.1377689451
 20
26.171138113
 30
0.0
 40
0.8373802826016756
100
AcDbArc
 50
82.6176977858
 51
128.1052644975
  0
ARC
  5
544
330
460
100
AcDbEntity
  8
0
  6
Continuous
 62
    60
370
    25
100
AcDbCircle
 10
-224.3529523971
 20
74.4974810955
 30
0.0
 40
0.8289290627647662
100
AcDbArc
 50
82.3939432639
 51
130.7923575482
  0
VIEWPORT
  5
555
330
460
100
AcDbEntity
  8
0
100
AcDbViewport
 10
0.0
 20
0.0
 30
0.0
 40
205.6
 41
156.0
 68
     1
 69
     1
 12
0.0
 22
0.0
 13
0.0
 23
0.0
 14
10.0
 24
10.0
 15
10.0
 25
10.0
 16
0.0
 26
0.0
 36
1.0
 17
0.0
 27
0.0
 37
0.0
 42
50.0
 43
0.0
 44
0.0
 45
928.7159533074
 50
0.0
 51
0.0
 72
   100
 90
   557152
  1

281
     0
 71
     1
 74
     0
110
0.0
120
0.0
130
0.0
111
1.0
121
0.0
131
0.0
112
0.0
122
1.0
132
0.0
 79
     0
146
0.0
  0
ENDBLK
  5
463
330
460
100
AcDbEntity
  8
0
100
AcDbBlockEnd
  0
ENDSEC
  0
SECTION
  2
ENTITIES
  0
SPLINE
  5
8E
330
1F
100
AcDbEntity
  8
0
  6
Continuous
 62
     7
370
    25
100
AcDbSpline
210
0.0
220
0.0
230
1.0
 70
     8
 71
     3
 72
     9
 73
     5
 74
     0
 42
0.000000001
 43
0.00000001
 40
0.0
 40
0.0
 40
0.0
 40
0.0
 40
0.2968085996352129
 40
0.9999999999999999
 40
0.9999999999999999
 40
0.9999999999999999
 40
0.9999999999999999
 10
-282.7661682300102
 20
69.4095216276856
 30
0.0
 10
-282.6184348411305
 20
69.35499253907956
 30
0.0
 10
-282.1206952572328
 20
69.17127451785964
 30
0.0
 10
-281.7354014123807
 20
68.79801017904795
 30
0.0
 10
-281.4644660940673
 20
68.53553390593274
 30
0.0
  0
SPLINE
  5
92
330
1F
100
AcDbEntity
  8
0
  6
Continuous
 62
     7
370
    25
100
AcDbSpline
210
0.0
220
0.0
230
1.0
 70
     8
 71
     3
 72
     9
 73
     5
 74
     0
 42
0.000000001
 43
0.00000001
 40
0.0
 40
0.0
 40
0.0
 40
0.0
 40
0.2968085996349641
 40
1.0
 40
1.0
 40
1.0
 40
1.0
 10
-417.2338317699904
 20
-69.40952162768525
 30
0.0
 10
-417.38156515887
 20
-69.35499253907929
 30
0.0
 10
-417.8793047427674
 20
-69.1712745178594
 30
0.0
 10
-418.2645985876193
 20
-68.7980101790479
 30
0.0
 10
-418.5355339059328
 20
-68.53553390593272
 30
0.0
  0
SPLINE
  5
95
330
1F
100
AcDbEntity
  8
0
  6
Continuous
 62
     7
370
    25
100
AcDbSpline
210
0.0
220
0.0
230
1.0
 70
     8
 71
     3
 72
     9
 73
     5
 74
     0
 42
0.000000001
 43
0.00000001
 40
0.0
 40
0.0
 40
0.0
 40
0.0
 40
0.2968085996351428
 40
1.0
 40
1.0
 40
1.0
 40
1.0
 10
-419.4095216276855
 20
67.23383176998995
 30
0.0
 10
-419.3549925390795
 20
67.3815651588696
 30
0.0
 10
-419.1712745178597
 20
67.87930474276726
 30
0.0
 10
-418.798010179048
 20
68.26459858761929
 30
0.0
 10
-418.5355339059328
 20
68.53553390593275
 30
0.0
  0
SPLINE
  5
97
330
1F
100
AcDbEntity
  8
0
  6
Continuous
 62
     7
370
    25
100
AcDbSpline
210
0.0
220
0.0
230
1.0
 70
     8
 71
     3
 72
     9
 73
     5
 74
     0
 42
0.000000001
 43
0.00000001
 40
0.0
 40
0.0
 40
0.0
 40
0.0
 40
0.2968085996351372
 40
1.0
 40
1.0
 40
1.0
 40
1.0
 10
-280.5904783723145
 20
-67.23383176998996
 30
0.0
 10
-280.6450074609205
 20
-67.3815651588696
 30
0.0
 10
-280.8287254821405
 20
-67.87930474276725
 30
0.0
 10
-281.2019898209521
 20
-68.26459858761928
 30
0.0
 10
-281.4644660940673
 20
-68.53553390593275
 30
0.0
  0
SPLINE
  5
98
330
1F
100
AcDbEntity
  8
0
  6
Continuous
 62
     7
370
    25
100
AcDbSpline
210
0.0
220
0.0
230
1.0
 70
     8
 71
     3
 72
    22
 73
    18
 74
     0
 42
0.000000001
 43
0.00000001
 40
0.0
 40
0.0
 40
0.0
 40
0.0
 40
0.125
 40
0.125
 40
0.25
 40
0.25
 40
0.375
 40
0.375
 40
0.5
 40
0.5
 40
0.625
 40
0.625
 40
0.75
 40
0.75
 40
0.875
 40
0.875
 40
1.0
 40
1.0
 40
1.0
 40
1.0
 10
-269.0109525768493
 20
-77.48043386269751
 30
0.0
 10
-269.0109319562249
 20
-77.71143992235277
 30
0.0
 10
-269.033574950644
 20
-77.93859197760166
 30
0.0
 10
-269.1223410074636
 20
-78.38550210658313
 30
0.0
 10
-269.1895399002465
 20
-78.60757335989948
 30
0.0
 10
-269.3650137786561
 20
-79.0310943533281
 30
0.0
 10
-269.4724001044048
 20
-79.2319675071454
 30
0.0
 10
-269.7261137415167
 20
-79.61213751050732
 30
0.0
 10
-269.8738038897821
 20
-79.79215736578824
 30
0.0
 10
-270.196428338422
 20
-80.1148442423166
 30
0.0
 10
-270.3724612868885
 20
-80.25964715101483
 30
0.0
 10
-270.7546576114478
 20
-80.51539792597745
 30
0.0
 10
-270.9582226211633
 20
-80.62412980172135
 30
0.0
 10
-271.3789846922988
 20
-80.79871361057667
 30
0.0
 10
-271.5989978624797
 20
-80.86587890854632
 30
0.0
 10
-272.0510683044063
 20
-80.95609998420429
 30
0.0
 10
-272.2795953324826
 20
-80.97872048140246
 30
0.0
 10
-272.5106313385032
 20
-80.97869545574783
 30
0.0
  0
SPLINE
  5
99
330
1F
100
AcDbEntity
  8
0
  6
Continuous
 62
     7
370
    25
100
AcDbSpline
210
0.0
220
0.0
230
1.0
 70
     8
 71
     3
 72
     8
 73
     4
 74
     0
 42
0.000000001
 43
0.00000001
 40
0.0
 40
0.0
 40
0.0
 40
0.0
 40
1.0
 40
1.0
 40
1.0
 40
1.0
 10
-269.0121556550764
 20
-55.03043405224282
 30
0.0
 10
-269.0119995660021
 20
-62.5141790338843
 30
0.0
 10
-269.0116205271171
 20
-69.99760716304789
 30
0.0
 10
-269.0109525768493
 20
-77.48043386269748
 30
0.0
  0
LWPOLYLINE
  5
9B
330
1F
100
AcDbEntity
  8
0
  6
Continuous
 62
     7
370
    25
100
AcDbPolyline
 90
        9
 70
   128
 43
0.0
 10
-580.0178691593
 20
-429.9412233352
 10
-579.9745225134
 20
-429.9412227432
 10
-573.974522514
 20
-429.9411407716
 10
-549.9745225162
 20
-429.9408124865
 10
-453.9745225251
 20
-429.9395101165
 10
-69.9745225391
 20
-429.9359096247
 10
254.9461998484
 20
-429.9371436744
 10
473.494392971
 20
-429.9397761801
 10
579.8669222446
 20
-429.9412256847
  0
SPLINE
  5
9C
330
1F
100
AcDbEntity
  8
0
  6
Continuous
 62
     7
370
    25
100
AcDbSpline
210
0.0
220
0.0
230
1.0
 70
     8
 71
     3
 72
    10
 73
     6
 74
     0
 42
0.000000001
 43
0.00000001
 40
0.0
 40
0.0
 40
0.0
 40
0.0
 40
0.5
 40
0.5
 40
1.0
 40
1.0
 40
1.0
 40
1.0
 10
-579.865102788809
 20
-429.6887884528606
 30
0.0
 10
-579.8848388951529
 20
-429.7343201887324
 30
0.0
 10
-579.9061862104903
 20
-429.7788783650988
 30
0.0
 10
-579.9551100918359
 20
-429.8642307463803
 30
0.0
 10
-579.9820543042375
 20
-429.9054070455479
 30
0.0
 10
-580.0178691592677
 20
-429.9412233351791
 30
0.0
  0
SPLINE
  5
9E
330
1F
100
AcDbEntity
  8
0
  6
Continuous
 62
     7
370
    25
100
AcDbSpline
210
0.0
220
0.0
230
1.0
 70
     8
 71
     3
 72
     8
 73
     4
 74
     0
 42
0.000000001
 43
0.00000001
 40
0.0
 40
0.0
 40
0.0
 40
0.0
 40
0.0000025057782836
 40
0.0000025057782836
 40
0.0000025057782836
 40
0.0000025057782836
 10
-428.6261833148017
 20
-80.7762480074212
 30
0.0
 10
-428.6264593309398
 20
-80.77703578138315
 30
0.0
 10
-428.6267640115693
 20
-80.77781407286659
 30
0.0
 10
-428.6270959825379
 20
-80.77857993895601
 30
0.0
  0
SPLINE
  5
A0
330
1F
100
AcDbEntity
  8
0
  6
Continuous
 62
     7
370
    25
100
AcDbSpline
210
0.0
220
0.0
230
1.0
 70
     8
 71
     3
 72
    12
 73
     8
 74
     0
 42
0.000000001
 43
0.00000001
 40
0.0
 40
0.0
 40
0.0
 40
0.0
 40
0.5000000000000029
 40
0.5000000000000029
 40
0.7500000000000014
 40
0.7500000000000014
 40
1.0
 40
1.0
 40
1.0
 40
1.0
 10
-427.4823872189509
 20
-80.96808972488842
 30
0.0
 10
-427.6783605354592
 20
-80.96813298551096
 30
0.0
 10
-427.8716015097072
 20
-80.95184121560847
 30
0.0
 10
-428.1575300511588
 20
-80.90389174039076
 30
0.0
 10
-428.2521805063353
 20
-80.88396859130053
 30
0.0
 10
-428.4401492920535
 20
-80.83615870968606
 30
0.0
 10
-428.5347479126075
 20
-80.80782948409728
 30
0.0
 10
-428.6260979667101
 20
-80.77627748933206
 30
0.0
  0
SPLINE
  5
A1
330
1F
100
AcDbEntity
  8
0
  6
Continuous
 62
     7
370
    25
100
AcDbSpline
210
0.0
220
0.0
230
1.0
 70
     8
 71
     3
 72
    20
 73
    16
 74
     0
 42
0.000000001
 43
0.00000001
 40
0.0
 40
0.0
 40
0.0
 40
0.0
 40
0.25
 40
0.25
 40
0.375
 40
0.375
 40
0.5
 40
0.5
 40
0.625
 40
0.625
 40
0.75
 40
0.75
 40
0.875
 40
0.875
 40
1.0
 40
1.0
 40
1.0
 40
1.0
 10
-272.5106313385033
 20
-80.97869545574781
 30
0.0
 10
-285.4257548453681
 20
-80.97729649882184
 30
0.0
 10
-298.3408555438734
 20
-80.97542716409717
 30
0.0
 10
-317.7137231519453
 20
-80.97047150727096
 30
0.0
 10
-324.1713836732139
 20
-80.96844231962376
 30
0.0
 10
-337.0869253915665
 20
-80.96327410155946
 30
0.0
 10
-343.5448055066598
 20
-80.96000927050392
 30
0.0
 10
-356.4610927839528
 20
-80.95336461775634
 30
0.0
 10
-362.9186821692732
 20
-80.95017642068892
 30
0.0
 10
-375.8324912781205
 20
-80.94923572637364
 30
0.0
 10
-382.2887555640406
 20
-80.95161111257775
 30
0.0
 10
-395.2010567911873
 20
-80.95726133302357
 30
0.0
 10
-401.6571219068229
 20
-80.96023863954404
 30
0.0
 10
-414.5695272047446
 20
-80.96487146688342
 30
0.0
 10
-421.0258700714707
 20
-80.96666446477512
 30
0.0
 10
-427.4823872189509
 20
-80.96808972488842
 30
0.0
  0
SPLINE
  5
A2
330
1F
100
AcDbEntity
  8
0
  6
Continuous
 62
     7
370
    25
100
AcDbSpline
210
0.0
220
0.0
230
1.0
 70
     8
 71
     3
 72
    10
 73
     6
 74
     0
 42
0.000000001
 43
0.00000001
 40
0.0
 40
0.0
 40
0.0
 40
0.0
 40
0.5
 40
0.5
 40
1.0
 40
1.0
 40
1.0
 40
1.0
 10
-580.0178691592678
 20
429.9412233351791
 30
0.0
 10
-579.9824990185457
 20
429.905851777671
 30
0.0
 10
-579.955425147639
 20
429.8647386496905
 30
0.0
 10
-579.9062664028751
 20
429.7790596757175
 30
0.0
 10
-579.884806336364
 20
429.7342450747176
 30
0.0
 10
-579.8651027888093
 20
429.6887884528606
 30
0.0
  0
LWPOLYLINE
  5
A3
330
1F
100
AcDbEntity
  8
0
  6
Continuous
 62
     7
370
    25
100
AcDbPolyline
 90
        8
 70
   128
 43
0.0
 10
-579.8651027888
 20
429.6887884529
 10
-579.8647843887
 20
423.6887884616
 10
-579.863524471
 20
399.6887884958
 10
-579.8588085168
 20
303.6887886153
 10
-579.8522556938
 20
111.6887887184
 10
-579.8517096685
 20
-80.3112114621
 10
-579.8567060405
 20
-254.9999999833
 10
-579.8651027888
 20
-429.6887884529
  0
SPLINE
  5
A4
330
1F
100
AcDbEntity
  8
0
  6
Continuous
 62
     7
370
    25
100
AcDbSpline
210
0.0
220
0.0
230
1.0
 70
     8
 71
     3
 72
    11
 73
     7
 74
     0
 42
0.000000001
 43
0.00000001
 40
0.0
 40
0.0
 40
0.0
 40
0.0
 40
0.0001553673436681
 40
0.0001553673436681
 40
0.0001553673436681
 40
0.0001663217990603
 40
0.0001663217990603
 40
0.0001663217990603
 40
0.0001663217990603
 10
-580.0178691592677
 20
-429.9412233351791
 30
0.0
 10
-580.0544747778199
 20
-429.9778304200071
 30
0.0
 10
-580.0910966271282
 20
-430.0144537361533
 30
0.0
 10
-580.1277162668179
 20
-430.0510748425523
 30
0.0
 10
-580.1302982007041
 20
-430.0536568798518
 30
0.0
 10
-580.1328801400288
 20
-430.0562389224729
 30
0.0
 10
-580.1354620782482
 20
-430.0588209640471
 30
0.0
  0
LWPOLYLINE
  5
A5
330
1F
100
AcDbEntity
  8
0
  6
Continuous
 62
     7
370
    25
100
AcDbPolyline
 90
        4
 70
   128
 43
0.0
 10
-580.1354620782
 20
-430.0588209642
 10
-580.1361161059
 20
-417.8452923169
 10
-580.1496268634
 20
0.0
 10
-580.1354620782
 20
430.0588209642
  0
SPLINE
  5
A6
330
1F
100
AcDbEntity
  8
0
  6
Continuous
 62
     7
370
    25
100
AcDbSpline
210
0.0
220
0.0
230
1.0
 70
    24
 71
     3
 72
    11
 73
     7
 74
     0
 42
0.000000001
 43
0.00000001
 40
0.0
 40
0.0
 40
0.0
 40
0.0
 40
0.0001553673434369
 40
0.0001553673434369
 40
0.0001553673434369
 40
0.0001663217991654
 40
0.0001663217991654
 40
0.0001663217991654
 40
0.0001663217991654
 10
-580.0178691592678
 20
429.9412233351791
 30
0.0
 10
-580.054474777766
 20
429.9778304199521
 30
0.0
 10
-580.0910966270196
 20
430.0144537360441
 30
0.0
 10
-580.1277162666545
 20
430.0510748423889
 30
0.0
 10
-580.1302982006201
 20
430.0536568797675
 30
0.0
 10
-580.1328801399686
 20
430.0562389225232
 30
0.0
 10
-580.1354620782396
 20
430.0588209642044
 30
0.0
  0
LWPOLYLINE
  5
A8
330
1F
100
AcDbEntity
  8
0
  6
Continuous
 62
     7
370
    25
100
AcDbPolyline
 90
        9
 70
   128
 43
0.0
 10
579.8669222446
 20
429.9412256847
 10
573.8669222452
 20
429.9411437275
 10
549.8669222475
 20
429.9408154957
 10
453.8669222563
 20
429.9395132418
 10
69.8669222704
 20
429.9359104689
 10
-255.0538001171
 20
429.9371411064
 10
-473.4943929705
 20
429.9397716149
 10
-579.9745225134
 20
429.9412227432
 10
-580.0178691593
 20
429.9412233352
  0
SPLINE
  5
AA
330
1F
100
AcDbEntity
  8
0
  6
Continuous
 62
     7
370
    25
100
AcDbSpline
210
0.0
220
0.0
230
1.0
 70
     8
 71
     3
 72
     8
 73
     4
 74
     0
 42
0.000000001
 43
0.00000001
 40
0.0
 40
0.0
 40
0.0
 40
0.0
 40
1.0
 40
1.0
 40
1.0
 40
1.0
 10
-269.0109525768494
 20
77.48043386269752
 30
0.0
 10
-269.0116205269895
 20
69.99760859416537
 30
0.0
 10
-269.0119995590725
 20
62.51417931288836
 30
0.0
 10
-269.0121556550764
 20
55.03043405224285
 30
0.0
  0
SPLINE
  5
AB
330
1F
100
AcDbEntity
  8
0
  6
Continuous
 62
     7
370
    25
100
AcDbSpline
210
0.0
220
0.0
230
1.0
 70
     8
 71
     3
 72
    22
 73
    18
 74
     0
 42
0.000000001
 43
0.00000001
 40
0.0
 40
0.0
 40
0.0
 40
0.0
 40
0.125
 40
0.125
 40
0.25
 40
0.25
 40
0.375
 40
0.375
 40
0.5
 40
0.5
 40
0.625
 40
0.625
 40
0.75
 40
0.75
 40
0.875
 40
0.875
 40
1.0
 40
1.0
 40
1.0
 40
1.0
 10
-272.5106313385034
 20
80.97869545574788
 30
0.0
 10
-272.2795965897936
 20
80.97872048126635
 30
0.0
 10
-272.0524093869766
 20
80.95610275544954
 30
0.0
 10
-271.6054177330547
 20
80.86742045455333
 30
0.0
 10
-271.3833019593671
 20
80.8002821312486
 30
0.0
 10
-270.9596715955739
 20
80.62495081369104
 30
0.0
 10
-270.7587325448208
 20
80.51764460257806
 30
0.0
 10
-270.3784143870237
 20
80.26409833908764
 30
0.0
 10
-270.1983151897397
 20
80.11649910764889
 30
0.0
 10
-269.8754608243767
 20
79.79404443472473
 30
0.0
 10
-269.7305690101277
 20
79.61809060877081
 30
0.0
 10
-269.4746415817448
 20
79.23603026592487
 30
0.0
 10
-269.3658344949415
 20
79.03254073566077
 30
0.0
 10
-269.1911103250094
 20
78.61189092538827
 30
0.0
 10
-269.1238809710227
 20
78.39190861425921
 30
0.0
 10
-269.033577422708
 20
77.93992829231546
 30
0.0
 10
-269.0109319562781
 20
77.71143932648923
 30
0.0
 10
-269.0109525768494
 20
77.48043386269754
 30
0.0
  0
SPLINE
  5
AC
330
1F
100
AcDbEntity
  8
0
  6
Continuous
 62
     7
370
    25
100
AcDbSpline
210
0.0
220
0.0
230
1.0
 70
     8
 71
     3
 72
    20
 73
    16
 74
     0
 42
0.000000001
 43
0.00000001
 40
0.0
 40
0.0
 40
0.0
 40
0.0
 40
0.125
 40
0.125
 40
0.25
 40
0.25
 40
0.375
 40
0.375
 40
0.5
 40
0.5
 40
0.625
 40
0.625
 40
0.75
 40
0.75
 40
1.0
 40
1.0
 40
1.0
 40
1.0
 10
-427.4823872189508
 20
80.96808972488842
 30
0.0
 10
-421.0260309278451
 20
80.9666645002838
 30
0.0
 10
-414.5698199313628
 20
80.96487155058846
 30
0.0
 10
-401.6576492656311
 20
80.96023885007509
 30
0.0
 10
-395.2017092156838
 20
80.95726164771841
 30
0.0
 10
-382.2896485346008
 20
80.9516114741268
 30
0.0
 10
-375.8334981465309
 20
80.94923593763652
 30
0.0
 10
-362.919844726648
 20
80.95017605144412
 30
0.0
 10
-356.4622937163408
 20
80.95336402528683
 30
0.0
 10
-343.5460243781808
 20
80.96000861813465
 30
0.0
 10
-337.0880830689534
 20
80.9632735795987
 30
0.0
 10
-324.1723576637498
 20
80.96844198857735
 30
0.0
 10
-317.7145747623969
 20
80.97047126262657
 30
0.0
 10
-298.3413112111216
 20
80.97542710112924
 30
0.0
 10
-285.4259857057806
 20
80.9772964738152
 30
0.0
 10
-272.5106313385034
 20
80.97869545574781
 30
0.0
  0
SPLINE
  5
AD
330
1F
100
AcDbEntity
  8
0
  6
Continuous
 62
     7
370
    25
100
AcDbSpline
210
0.0
220
0.0
230
1.0
 70
     8
 71
     3
 72
    12
 73
     8
 74
     0
 42
0.000000001
 43
0.00000001
 40
0.0
 40
0.0
 40
0.0
 40
0.0
 40
0.2500000000000369
 40
0.2500000000000369
 40
0.5000000000000737
 40
0.5000000000000737
 40
1.0
 40
1.0
 40
1.0
 40
1.0
 10
-428.6260979667102
 20
80.776277489332
 30
0.0
 10
-428.5347479125707
 20
80.8078294839899
 30
0.0
 10
-428.4401492920537
 20
80.83615870968605
 30
0.0
 10
-428.2521805063353
 20
80.88396859130054
 30
0.0
 10
-428.1575300511589
 20
80.90389174039079
 30
0.0
 10
-427.8716015097071
 20
80.95184121560848
 30
0.0
 10
-427.6783605354591
 20
80.96813298551098
 30
0.0
 10
-427.4823872189508
 20
80.9680897248884
 30
0.0
  0
SPLINE
  5
AE
330
1F
100
AcDbEntity
  8
0
  6
Continuous
 62
     7
370
    25
100
AcDbSpline
210
0.0
220
0.0
230
1.0
 70
     8
 71
     3
 72
    11
 73
     7
 74
     0
 42
0.000000001
 43
0.00000001
 40
0.0
 40
0.0
 40
0.0
 40
0.0
 40
0.0000000302983667
 40
0.0000000302983667
 40
0.0000000302983667
 40
0.0000000902983666
 40
0.0000000902983666
 40
0.0000000902983666
 40
0.0000000902983666
 10
-428.6261833148018
 20
80.77624800742112
 30
0.0
 10
-428.6261737690542
 20
80.7762513049599
 30
0.0
 10
-428.6261642232923
 20
80.7762546024574
 30
0.0
 10
-428.6261546775161
 20
80.77625789991355
 30
0.0
 10
-428.6261357739701
 20
80.77626442988172
 30
0.0
 10
-428.6261168703122
 20
80.77627095952585
 30
0.0
 10
-428.6260979667102
 20
80.776277489332
 30
0.0
  0
SPLINE
  5
AF
330
1F
100
AcDbEntity
  8
0
  6
Continuous
 62
     7
370
    25
100
AcDbSpline
210
0.0
220
0.0
230
1.0
 70
     8
 71
     3
 72
     8
 73
     4
 74
     0
 42
0.000000001
 43
0.00000001
 40
0.0
 40
0.0
 40
0.0
 40
0.0
 40
0.0000025057782835
 40
0.0000025057782835
 40
0.0000025057782835
 40
0.0000025057782835
 10
-428.6270959824915
 20
80.7785799389722
 30
0.0
 10
-428.6267640115208
 20
80.77781407288435
 30
0.0
 10
-428.6264593309394
 20
80.77703578138262
 30
0.0
 10
-428.6261833148016
 20
80.77624800742126
 30
0.0
  0
SPLINE
  5
B0
330
1F
100
AcDbEntity
  8
0
  6
Continuous
 62
     7
370
    25
100
AcDbSpline
210
0.0
220
0.0
230
1.0
 70
     8
 71
     3
 72
     8
 73
     4
 74
     0
 42
0.000000001
 43
0.00000001
 40
0.0
 40
0.0
 40
0.0
 40
0.0
 40
1.0
 40
1.0
 40
1.0
 40
1.0
 10
579.8669222446294
 20
-429.9412256846545
 30
0.0
 10
579.9055656556078
 20
-429.9582926994727
 30
0.0
 10
579.9435693766478
 20
-429.976403945468
 30
0.0
 10
579.974016456421
 20
-430.0068506685699
 30
0.0
  0
SPLINE
  5
B1
330
1F
100
AcDbEntity
  8
0
  6
Continuous
 62
     7
370
    25
100
AcDbSpline
210
0.0
220
0.0
230
1.0
 70
    24
 71
     3
 72
    11
 73
     7
 74
     0
 42
0.000000001
 43
0.00000001
 40
0.0
 40
0.0
 40
0.0
 40
0.0
 40
0.0000625446612873
 40
0.0000625446612873
 40
0.0000625446612873
 40
0.0000734991170025
 40
0.0000734991170025
 40
0.0000734991170025
 40
0.0000734991170025
 10
579.974016456421
 20
-430.0068506685699
 30
0.0
 10
579.9887573544424
 20
-430.0215913940835
 30
0.0
 10
580.0034993942029
 20
-430.0363332613224
 30
0.0
 10
580.0182413739286
 20
-430.0510750685369
 30
0.0
 10
580.020823374706
 20
-430.0536570390995
 30
0.0
 10
580.0234053808643
 20
-430.0562390150396
 30
0.0
 10
580.0259873859461
 20
-430.0588209899047
 30
0.0
  0
LWPOLYLINE
  5
B2
330
1F
100
AcDbEntity
  8
0
  6
Continuous
 62
     7
370
    25
100
AcDbPolyline
 90
        5
 70
   128
 43
0.0
 10
580.0259873859
 20
-430.0588209899
 10
473.4943945964
 20
-430.0602758025
 10
0.0000000002
 20
-430.0642562223
 10
-473.4943946033
 20
-430.0602773266
 10
-580.1354620782
 20
-430.0588209642
  0
SPLINE
  5
B3
330
1F
100
AcDbEntity
  8
0
  6
Continuous
 62
     7
370
    25
100
AcDbSpline
210
0.0
220
0.0
230
1.0
 70
     8
 71
     3
 72
     8
 73
     4
 74
     0
 42
0.000000001
 43
0.00000001
 40
0.0
 40
0.0
 40
0.0
 40
0.0
 40
1.0
 40
1.0
 40
1.0
 40
1.0
 10
579.974016456421
 20
430.00685066857
 30
0.0
 10
579.9439150609588
 20
429.9767496253741
 30
0.0
 10
579.9055045414387
 20
429.9582657081589
 30
0.0
 10
579.8669222446291
 20
429.9412256846545
 30
0.0
  0
LWPOLYLINE
  5
B4
330
1F
100
AcDbEntity
  8
0
  6
Continuous
 62
     7
370
    25
100
AcDbPolyline
 90
        9
 70
   128
 43
0.0
 10
579.9740164564
 20
-430.0068506686
 10
579.9740164201
 20
-429.9885242495
 10
579.9740045863
 20
-423.9885242495
 10
579.9739581976
 20
-399.9885242496
 10
579.9737905464
 20
-303.9885242497
 10
579.9735543232
 20
80.0114757504
 10
579.9738203931
 20
322.5162975807
 10
579.9740164201
 20
429.9885242495
 10
579.9740164564
 20
430.0068506686
  0
SPLINE
  5
B5
330
1F
100
AcDbEntity
  8
0
  6
Continuous
 62
     7
370
    25
100
AcDbSpline
210
0.0
220
0.0
230
1.0
 70
     8
 71
     3
 72
    11
 73
     7
 74
     0
 42
0.000000001
 43
0.00000001
 40
0.0
 40
0.0
 40
0.0
 40
0.0
 40
0.0000012535095533
 40
0.0000012535095533
 40
0.0000012535095533
 40
0.0000015430690166
 40
0.0000015430690166
 40
0.0000015430690166
 40
0.0000015430690166
 10
-269.0136613639708
 20
-55.0301016440099
 30
0.0
 10
-269.013243566446
 20
-55.03010158693702
 30
0.0
 10
-269.0128208620432
 20
-55.03018253128805
 30
0.0
 10
-269.0124279931933
 20
-55.03032465294129
 30
0.0
 10
-269.0123359976174
 20
-55.03035793265627
 30
0.0
 10
-269.012245145522
 20
-55.03039452843472
 30
0.0
 10
-269.0121556550764
 20
-55.03043405224287
 30
0.0
  0
SPLINE
  5
B7
330
1F
100
AcDbEntity
  8
0
  6
Continuous
 62
     7
370
    25
100
AcDbSpline
210
0.0
220
0.0
230
1.0
 70
     8
 71
     3
 72
    14
 73
    10
 74
     0
 42
0.000000001
 43
0.00000001
 40
0.0
 40
0.0
 40
0.0
 40
0.0
 40
0.2500000000000001
 40
0.2500000000000001
 40
0.5000000000000001
 40
0.5000000000000001
 40
0.7500000000000001
 40
0.7500000000000001
 40
1.0
 40
1.0
 40
1.0
 40
1.0
 10
-269.0136613778353
 20
55.02976904384968
 30
0.0
 10
-269.0145605314318
 20
45.85827851668252
 30
0.0
 10
-269.0155491681318
 20
36.68670583109571
 30
0.0
 10
-269.0171176619716
 20
18.3434073913956
 30
0.0
 10
-269.0176443168634
 20
9.171682559307207
 30
0.0
 10
-269.0176443064427
 20
-9.171974602286763
 30
0.0
 10
-269.0171176432233
 20
-18.34366179207945
 30
0.0
 10
-269.0155491544784
 20
-36.68683036217388
 30
0.0
 10
-269.0145605399258
 20
-45.85827851668447
 30
0.0
 10
-269.0136613778351
 20
-55.02976904384984
 30
0.0
  0
SPLINE
  5
B9
330
1F
100
AcDbEntity
  8
0
  6
Continuous
 62
     7
370
    25
100
AcDbSpline
210
0.0
220
0.0
230
1.0
 70
     8
 71
     3
 72
    11
 73
     7
 74
     0
 42
0.000000001
 43
0.00000001
 40
0.0
 40
0.0
 40
0.0
 40
0.0
 40
0.000001253997115
 40
0.000001253997115
 40
0.000001253997115
 40
0.0000015435540001
 40
0.0000015435540001
 40
0.0000015435540001
 40
0.0000015435540001
 10
-269.0121556550765
 20
55.03043405224281
 30
0.0
 10
-269.0125379743679
 20
55.03026519942039
 30
0.0
 10
-269.0129516082474
 20
55.030150013888
 30
0.0
 10
-269.013368029591
 20
55.03011422809188
 30
0.0
 10
-269.0134655378223
 20
55.03010584857499
 30
0.0
 10
-269.0135634954441
 20
55.03010163064103
 30
0.0
 10
-269.0136613639706
 20
55.03010164401028
 30
0.0
  0
LWPOLYLINE
  5
BA
330
1F
100
AcDbEntity
  8
0
  6
Continuous
 62
     7
370
    25
100
AcDbPolyline
 90
        5
 70
   128
 43
0.0
 10
-580.1354620782
 20
430.0588209642
 10
-473.4943945961
 20
430.0602773266
 10
0.0000000002
 20
430.0642562223
 10
473.4943946037
 20
430.0602758025
 10
580.0259873859
 20
430.0588209899
  0
SPLINE
  5
BB
330
1F
100
AcDbEntity
  8
0
  6
Continuous
 62
     7
370
    25
100
AcDbSpline
210
0.0
220
0.0
230
1.0
 70
    24
 71
     3
 72
    11
 73
     7
 74
     0
 42
0.000000001
 43
0.00000001
 40
0.0
 40
0.0
 40
0.0
 40
0.0
 40
0.0000625446612862
 40
0.0000625446612862
 40
0.0000625446612862
 40
0.0000734991170023
 40
0.0000734991170023
 40
0.0000734991170023
 40
0.0000734991170023
 10
579.974016456421
 20
430.00685066857
 30
0.0
 10
579.9887573544422
 20
430.0215913940834
 30
0.0
 10
580.0034993942008
 20
430.0363332613236
 30
0.0
 10
580.0182413739288
 20
430.0510750685352
 30
0.0
 10
580.0208233747069
 20
430.0536570390976
 30
0.0
 10
580.0234053808643
 20
430.0562390150391
 30
0.0
 10
580.0259873859459
 20
430.0588209899049
 30
0.0
  0
SPLINE
  5
BC
330
1F
100
AcDbEntity
  8
0
  6
Continuous
 62
     7
370
    25
100
AcDbSpline
210
0.0
220
0.0
230
1.0
 70
     8
 71
     3
 72
    22
 73
    18
 74
     0
 42
0.000000001
 43
0.00000001
 40
0.0
 40
0.0
 40
0.0
 40
0.0
 40
0.2500000000000153
 40
0.2500000000000153
 40
0.3750000000000184
 40
0.3750000000000184
 40
0.5000000000000214
 40
0.5000000000000214
 40
0.6250000000000245
 40
0.6250000000000245
 40
0.7500000000000276
 40
0.7500000000000276
 40
0.8750000000000308
 40
0.8750000000000308
 40
0.9375000000000153
 40
0.9375000000000153
 40
1.0
 40
1.0
 40
1.0
 40
1.0
 10
-430.9467452667194
 20
77.48249795017966
 30
0.0
 10
-430.9468294774715
 20
77.84354278995882
 30
0.0
 10
-430.8924282558235
 20
78.19537390214319
 30
0.0
 10
-430.7301422090219
 20
78.70947554932985
 30
0.0
 10
-430.6626074144314
 20
78.8769928361273
 30
0.0
 10
-430.5045982075683
 20
79.19638527193091
 30
0.0
 10
-430.4137463331612
 20
79.34953015709004
 30
0.0
 10
-430.2079959323186
 20
79.64252290811406
 30
0.0
 10
-430.0925181830131
 20
79.78260155382209
 30
0.0
 10
-429.8450371331606
 20
80.03976684122347
 30
0.0
 10
-429.7122298745455
 20
80.1581799980796
 30
0.0
 10
-429.4284707402902
 20
80.37465596938068
 30
0.0
 10
-429.2763708399686
 20
80.47323827772037
 30
0.0
 10
-429.0396789216932
 20
80.60176476799055
 30
0.0
 10
-428.9592740613294
 20
80.64149171794594
 30
0.0
 10
-428.7954543160785
 20
80.71472589640912
 30
0.0
 10
-428.7108359618516
 20
80.74866239631785
 30
0.0
 10
-428.6270959824915
 20
80.7785799389722
 30
0.0
  0
SPLINE
  5
BD
330
1F
100
AcDbEntity
  8
0
  6
Continuous
 62
     7
370
    25
100
AcDbSpline
210
0.0
220
0.0
230
1.0
 70
     8
 71
     3
 72
    22
 73
    18
 74
     0
 42
0.000000001
 43
0.00000001
 40
0.0
 40
0.0
 40
0.0
 40
0.0
 40
0.125
 40
0.125
 40
0.25
 40
0.25
 40
0.375
 40
0.375
 40
0.5
 40
0.5
 40
0.625
 40
0.625
 40
0.75
 40
0.75
 40
0.875
 40
0.875
 40
1.0
 40
1.0
 40
1.0
 40
1.0
 10
-430.9467452667194
 20
-77.48249795017966
 30
0.0
 10
-430.9452393137721
 20
-71.02588133946422
 30
0.0
 10
-430.9434219336873
 20
-64.56934144886793
 30
0.0
 10
-430.9385508272848
 20
-51.65639673187133
 30
0.0
 10
-430.9355122761617
 20
-45.19999805026859
 30
0.0
 10
-430.9270820856071
 20
-32.28719645629735
 30
0.0
 10
-430.9214016762318
 20
-25.83082234612674
 30
0.0
 10
-430.9081204468798
 20
-12.9173322008268
 30
0.0
 10
-430.9004974774315
 20
-6.460137618370602
 30
0.0
 10
-430.9004950848353
 20
6.456804098503977
 30
0.0
 10
-430.9081170527593
 20
12.91418823178239
 30
0.0
 10
-430.9213991461698
 20
25.82820623499215
 30
0.0
 10
-430.9270803418942
 20
32.28490321886701
 30
0.0
 10
-430.935511440195
 20
45.19834002216849
 30
0.0
 10
-430.9385502543924
 20
51.65505565383426
 30
0.0
 10
-430.9434217419496
 20
64.56865557556911
 30
0.0
 10
-430.9452392324811
 20
71.02553281233241
 30
0.0
 10
-430.9467452667194
 20
77.48249795017968
 30
0.0
  0
SPLINE
  5
BE
330
1F
100
AcDbEntity
  8
0
  6
Continuous
 62
     7
370
    25
100
AcDbSpline
210
0.0
220
0.0
230
1.0
 70
     8
 71
     3
 72
    18
 73
    14
 74
     0
 42
0.000000001
 43
0.00000001
 40
0.0
 40
0.0
 40
0.0
 40
0.0
 40
0.2499999999999948
 40
0.2499999999999948
 40
0.3749999999999922
 40
0.3749999999999922
 40
0.4999999999999896
 40
0.4999999999999896
 40
0.6249999999999869
 40
0.6249999999999869
 40
0.7499999999999843
 40
0.7499999999999843
 40
1.0
 40
1.0
 40
1.0
 40
1.0
 10
-428.6270959824915
 20
-80.77857993897223
 30
0.0
 10
-428.9648626939905
 20
-80.6579069927239
 30
0.0
 10
-429.2865915299195
 20
-80.48289373103732
 30
0.0
 10
-429.7122301432796
 20
-80.15817976898056
 30
0.0
 10
-429.8450373748868
 20
-80.03976661303871
 30
0.0
 10
-430.0925183745653
 20
-79.7826013317747
 30
0.0
 10
-430.2079960997057
 20
-79.6425226920771
 30
0.0
 10
-430.413746453948
 20
-79.34952996276112
 30
0.0
 10
-430.5045983081257
 20
-79.19638509015367
 30
0.0
 10
-430.6626074798551
 20
-78.87699268239862
 30
0.0
 10
-430.7301422596468
 20
-78.70947541040691
 30
0.0
 10
-430.8924282682229
 20
-78.19537381996338
 30
0.0
 10
-430.9468294774617
 20
-77.84354274781886
 30
0.0
 10
-430.9467452667195
 20
-77.48249795017968
 30
0.0
  0
LWPOLYLINE
  5
BF
330
1F
100
AcDbEntity
  8
0
  6
Continuous
 62
     7
370
    25
100
AcDbPolyline
 90
        5
 70
   128
 43
0.0
 10
580.0259873859
 20
430.0588209899
 10
580.0261836244
 20
322.5162976669
 10
580.0264685277
 20
0.0
 10
580.026336936
 20
-215.0108651113
 10
580.0259873859
 20
-430.0588209899
  0
SPLINE
  5
D4
330
1F
100
AcDbEntity
  8
0
  6
Continuous
 62
     7
370
    25
100
AcDbSpline
210
0.0
220
0.0
230
1.0
 70
    24
 71
     3
 72
    22
 73
    18
 74
     0
 42
0.000000001
 43
0.00000001
 40
0.0
 40
0.0
 40
0.0
 40
0.0
 40
0.1250000000000001
 40
0.1250000000000001
 40
0.2500000000000001
 40
0.2500000000000001
 40
0.3750000000000002
 40
0.3750000000000002
 40
0.5000000000000002
 40
0.5000000000000002
 40
0.6250000000000002
 40
0.6250000000000002
 40
0.7500000000000002
 40
0.7500000000000002
 40
0.8750000000000001
 40
0.8750000000000001
 40
1.0
 40
1.0
 40
1.0
 40
1.0
 10
-430.0000000000001
 20
77.50000000000001
 30
0.0
 10
-430.0000000000001
 20
71.04179293560621
 30
0.0
 10
-430.0
 20
64.58366187180843
 30
0.0
 10
-430.0
 20
51.6675322105841
 30
0.0
 10
-429.9999999999999
 20
45.20953980282263
 30
0.0
 10
-429.9999999999999
 20
32.29354577961085
 30
0.0
 10
-430.0000000000002
 20
25.8355723087785
 30
0.0
 10
-430.0000000000003
 20
12.91887887322458
 30
0.0
 10
-430.0000000000002
 20
6.46008440813846
 30
0.0
 10
-430.0000000000002
 20
-6.460031585585946
 30
0.0
 10
-429.9999999999999
 20
-12.91883611247678
 30
0.0
 10
-430.0
 20
-25.83553837226553
 30
0.0
 10
-430.0000000000001
 20
-32.29351603937849
 30
0.0
 10
-430.0000000000001
 20
-45.20951848204671
 30
0.0
 10
-430.0000000000003
 20
-51.66751509670565
 30
0.0
 10
-430.0000000000004
 20
-64.58365325498025
 30
0.0
 10
-430.0000000000002
 20
-71.04178860535109
 30
0.0
 10
-430.0000000000001
 20
-77.50000000000006
 30
0.0
  0
SPLINE
  5
D7
330
1F
100
AcDbEntity
  8
0
  6
Continuous
 62
     7
370
    25
100
AcDbSpline
210
0.0
220
0.0
230
1.0
 70
    24
 71
     3
 72
    20
 73
    16
 74
     0
 42
0.000000001
 43
0.00000001
 40
0.0
 40
0.0
 40
0.0
 40
0.0
 40
0.2500000000000008
 40
0.2500000000000008
 40
0.3750000000000007
 40
0.3750000000000007
 40
0.5000000000000006
 40
0.5000000000000006
 40
0.6250000000000004
 40
0.6250000000000004
 40
0.7500000000000002
 40
0.7500000000000002
 40
0.8750000000000001
 40
0.8750000000000001
 40
1.0
 40
1.0
 40
1.0
 40
1.0
 10
-272.5000000000001
 20
80.00000000000003
 30
0.0
 10
-285.4175622519332
 20
79.99999999999999
 30
0.0
 10
-298.3351019302601
 20
80.00000000000001
 30
0.0
 10
-317.711629059977
 20
80.00000000000004
 30
0.0
 10
-324.1705096100022
 20
80.00000000000004
 30
0.0
 10
-337.0884919330676
 20
80.00000000000007
 30
0.0
 10
-343.5475916521402
 20
80.0
 30
0.0
 10
-356.4663220357618
 20
80.0
 30
0.0
 10
-362.9251035203986
 20
79.99999999999999
 30
0.0
 10
-375.8412242837292
 20
79.99999999999996
 30
0.0
 10
-382.2986113517998
 20
79.99999999999999
 30
0.0
 10
-395.2131450290527
 20
80.0
 30
0.0
 10
-401.6703212625241
 20
80.0
 30
0.0
 10
-414.5849629742908
 20
79.99999999999999
 30
0.0
 10
-421.0424089722443
 20
80.00000000000004
 30
0.0
 10
-427.5000000000001
 20
80.0
 30
0.0
  0
SPLINE
  5
DB
330
1F
100
AcDbEntity
  8
0
  6
Continuous
 62
     7
370
    25
100
AcDbSpline
210
0.0
220
0.0
230
1.0
 70
    24
 71
     3
 72
    20
 73
    16
 74
     0
 42
0.000000001
 43
0.00000001
 40
0.0
 40
0.0
 40
0.0
 40
0.0
 40
0.125
 40
0.125
 40
0.25
 40
0.25
 40
0.375
 40
0.375
 40
0.5
 40
0.5
 40
0.625
 40
0.625
 40
0.75
 40
0.75
 40
1.0
 40
1.0
 40
1.0
 40
1.0
 10
-427.5000000000001
 20
-80.00000000000004
 30
0.0
 10
-421.042409675127
 20
-80.00000000000006
 30
0.0
 10
-414.5849643320678
 20
-80.00000000000007
 30
0.0
 10
-401.6703238473004
 20
-80.00000000000007
 30
0.0
 10
-395.2131481794834
 20
-80.00000000000001
 30
0.0
 10
-382.2986156936431
 20
-80.00000000000001
 30
0.0
 10
-375.8412292611544
 20
-80.00000000000004
 30
0.0
 10
-362.9251102148859
 20
-80.00000000000003
 30
0.0
 10
-356.4663306248481
 20
-80.00000000000004
 30
0.0
 10
-343.5476012261478
 20
-80.00000000000001
 30
0.0
 10
-337.0884992704254
 20
-80.00000000000004
 30
0.0
 10
-324.1705153767188
 20
-80.00000000000003
 30
0.0
 10
-317.7116340815695
 20
-80.00000000000003
 30
0.0
 10
-298.3351047580825
 20
-80.00000000000001
 30
0.0
 10
-285.4175636699456
 20
-80.0
 30
0.0
 10
-272.5
 20
-80.00000000000001
 30
0.0
  0
SPLINE
  5
DD
330
1F
100
AcDbEntity
  8
0
  6
Continuous
 62
     7
370
    25
100
AcDbSpline
210
0.0
220
0.0
230
1.0
 70
     8
 71
     3
 72
    14
 73
    10
 74
     0
 42
0.000000001
 43
0.00000001
 40
0.0
 40
0.0
 40
0.0
 40
0.0
 40
0.25
 40
0.25
 40
0.5
 40
0.5
 40
0.75
 40
0.75
 40
1.0
 40
1.0
 40
1.0
 40
1.0
 10
-428.6261833148017
 20
-80.7762480074212
 30
0.0
 10
-428.5835289137417
 20
-80.65450865280138
 30
0.0
 10
-428.542557785188
 20
-80.53581873912555
 30
0.0
 10
-428.4672502273457
 20
-80.31407841657585
 30
0.0
 10
-428.4336135129267
 20
-80.21304997293757
 30
0.0
 10
-428.3789229836075
 20
-80.04440039301174
 30
0.0
 10
-428.3577492288338
 20
-79.9763773179479
 30
0.0
 10
-428.3313234309029
 20
-79.88448541316272
 30
0.0
 10
-428.3258239341505
 20
-79.85966601455458
 30
0.0
 10
-428.3286339059126
 20
-79.85867883569856
 30
0.0
  0
SPLINE
  5
DE
330
1F
100
AcDbEntity
  8
0
  6
Continuous
 62
     7
370
    25
100
AcDbSpline
210
0.0
220
0.0
230
1.0
 70
     8
 71
     3
 72
     8
 73
     4
 74
     0
 42
0.000000001
 43
0.00000001
 40
0.0
 40
0.0
 40
0.0
 40
0.0
 40
1.0
 40
1.0
 40
1.0
 40
1.0
 10
-428.3286339059127
 20
-79.85867883569851
 30
0.0
 10
-428.0604351036562
 20
-79.95290048966488
 30
0.0
 10
-427.7841896167923
 20
-80.00000000000004
 30
0.0
 10
-427.5000000000001
 20
-80.00000000000004
 30
0.0
  0
SPLINE
  5
DF
330
1F
100
AcDbEntity
  8
0
  6
Continuous
 62
     7
370
    25
100
AcDbSpline
210
0.0
220
0.0
230
1.0
 70
     8
 71
     3
 72
     8
 73
     4
 74
     0
 42
0.000000001
 43
0.00000001
 40
0.0
 40
0.0
 40
0.0
 40
0.0
 40
1.0
 40
1.0
 40
1.0
 40
1.0
 10
-427.5000000000001
 20
80.00000000000001
 30
0.0
 10
-427.7842058958879
 20
80.00000000000001
 30
0.0
 10
-428.0604197299252
 20
79.95290589065222
 30
0.0
 10
-428.3286339059126
 20
79.8586788356985
 30
0.0
  0
SPLINE
  5
E0
330
1F
100
AcDbEntity
  8
0
  6
Continuous
 62
     7
370
    25
100
AcDbSpline
210
0.0
220
0.0
230
1.0
 70
     8
 71
     3
 72
    14
 73
    10
 74
     0
 42
0.000000001
 43
0.00000001
 40
0.0
 40
0.0
 40
0.0
 40
0.0
 40
0.25
 40
0.25
 40
0.5
 40
0.5
 40
0.75
 40
0.75
 40
1.0
 40
1.0
 40
1.0
 40
1.0
 10
-428.6261833148018
 20
80.77624800742112
 30
0.0
 10
-428.5835289137418
 20
80.65450865280107
 30
0.0
 10
-428.5425577851879
 20
80.5358187391249
 30
0.0
 10
-428.4672502273451
 20
80.314078416575
 30
0.0
 10
-428.4336135129259
 20
80.21304997293666
 30
0.0
 10
-428.3789229836066
 20
80.04440039301075
 30
0.0
 10
-428.3577492288341
 20
79.97637731794661
 30
0.0
 10
-428.3313234309043
 20
79.88448541316141
 30
0.0
 10
-428.3258239342006
 20
79.85966601453782
 30
0.0
 10
-428.3286339059128
 20
79.85867883569848
 30
0.0
  0
SPLINE
  5
E1
330
1F
100
AcDbEntity
  8
0
  6
Continuous
 62
     7
370
    25
100
AcDbSpline
210
0.0
220
0.0
230
1.0
 70
     8
 71
     3
 72
    12
 73
     8
 74
     0
 42
0.000000001
 43
0.00000001
 40
0.0
 40
0.0
 40
0.0
 40
0.0
 40
0.2499999999999972
 40
0.2499999999999972
 40
0.4999999999999944
 40
0.4999999999999944
 40
1.0
 40
1.0
 40
1.0
 40
1.0
 10
-430.0000000000001
 20
-77.50000000000004
 30
0.0
 10
-430.0000000000001
 20
-77.75913217353295
 30
0.0
 10
-429.9606581416162
 20
-78.01161130112847
 30
0.0
 10
-429.804281751053
 20
-78.5034292327356
 30
0.0
 10
-429.6892184709482
 20
-78.73425702598848
 30
0.0
 10
-429.2438017185624
 20
-79.3637132948257
 30
0.0
 10
-428.8169349113121
 20
-79.68713247540511
 30
0.0
 10
-428.3286339059127
 20
-79.85867883569851
 30
0.0
  0
SPLINE
  5
E2
330
1F
100
AcDbEntity
  8
0
  6
Continuous
 62
     7
370
    25
100
AcDbSpline
210
0.0
220
0.0
230
1.0
 70
     8
 71
     3
 72
    12
 73
     8
 74
     0
 42
0.000000001
 43
0.00000001
 40
0.0
 40
0.0
 40
0.0
 40
0.0
 40
0.4999999999999899
 40
0.4999999999999899
 40
0.7499999999999949
 40
0.7499999999999949
 40
1.0
 40
1.0
 40
1.0
 40
1.0
 10
-428.3286339059127
 20
79.85867883569848
 30
0.0
 10
-428.8169349113121
 20
79.68713247540508
 30
0.0
 10
-429.2438017185624
 20
79.3637132948257
 30
0.0
 10
-429.6892184709483
 20
78.73425702598848
 30
0.0
 10
-429.8042817510531
 20
78.50342923273561
 30
0.0
 10
-429.9606581416162
 20
78.01161130112845
 30
0.0
 10
-430.0000000000002
 20
77.75913217353295
 30
0.0
 10
-430.0000000000001
 20
77.50000000000001
 30
0.0
  0
SPLINE
  5
E3
330
1F
100
AcDbEntity
  8
0
  6
Continuous
 62
     7
370
    25
100
AcDbSpline
210
0.0
220
0.0
230
1.0
 70
     8
 71
     3
 72
    20
 73
    16
 74
     0
 42
0.000000001
 43
0.00000001
 40
0.0
 40
0.0
 40
0.0
 40
0.0
 40
0.2499999999999735
 40
0.2499999999999735
 40
0.3749999999999779
 40
0.3749999999999779
 40
0.4999999999999823
 40
0.4999999999999823
 40
0.6249999999999868
 40
0.6249999999999868
 40
0.7499999999999911
 40
0.7499999999999911
 40
0.8749999999999956
 40
0.8749999999999956
 40
1.0
 40
1.0
 40
1.0
 40
1.0
 10
-272.5000000000001
 20
-80.00000000000009
 30
0.0
 10
-272.1698599958335
 20
-80.00000000000011
 30
0.0
 10
-271.8417760255246
 20
-79.93365654091392
 30
0.0
 10
-271.3908785683269
 20
-79.74640499236676
 30
0.0
 10
-271.245450750962
 20
-79.66866248683434
 30
0.0
 10
-270.9724358708958
 20
-79.48583449248386
 30
0.0
 10
-270.8466968855533
 20
-79.38232900560926
 30
0.0
 10
-270.6162583594851
 20
-79.15169340538355
 30
0.0
 10
-270.5107763808253
 20
-79.02303910095519
 30
0.0
 10
-270.3295795904065
 20
-78.75137282843335
 30
0.0
 10
-270.2528887435184
 20
-78.60783994403238
 30
0.0
 10
-270.1275722732086
 20
-78.30523600376019
 30
0.0
 10
-270.0795822697777
 20
-78.14658176340933
 30
0.0
 10
-270.0161796013383
 20
-77.82730137906834
 30
0.0
 10
-269.9999999999999
 20
-77.6650247481225
 30
0.0
 10
-269.9999999999999
 20
-77.50000000000004
 30
0.0
  0
SPLINE
  5
E5
330
1F
100
AcDbEntity
  8
0
  6
Continuous
 62
     7
370
    25
100
AcDbSpline
210
0.0
220
0.0
230
1.0
 70
     8
 71
     3
 72
    20
 73
    16
 74
     0
 42
0.000000001
 43
0.00000001
 40
0.0
 40
0.0
 40
0.0
 40
0.0
 40
0.25
 40
0.25
 40
0.375
 40
0.375
 40
0.5
 40
0.5
 40
0.625
 40
0.625
 40
0.75
 40
0.75
 40
0.875
 40
0.875
 40
1.0
 40
1.0
 40
1.0
 40
1.0
 10
-270.0000000000001
 20
77.50000000000004
 30
0.0
 10
-270.0000000000001
 20
77.83004917460539
 30
0.0
 10
-270.0663039089158
 20
78.1580461712581
 30
0.0
 10
-270.2534748975714
 20
78.60887344678031
 30
0.0
 10
-270.331176907644
 20
78.75427040229316
 30
0.0
 10
-270.5139588611073
 20
79.02729448458052
 30
0.0
 10
-270.6174432689701
 20
79.1530435576639
 30
0.0
 10
-270.848043297034
 20
79.38351052574869
 30
0.0
 10
-270.9766872019167
 20
79.48901586723598
 30
0.0
 10
-271.2483673746905
 20
79.67027228065568
 30
0.0
 10
-271.3919138376122
 20
79.74699200865297
 30
0.0
 10
-271.6945602283671
 20
79.87236059748463
 30
0.0
 10
-271.8532538546996
 20
79.92037659830302
 30
0.0
 10
-272.1726122737717
 20
79.98381173416765
 30
0.0
 10
-272.3349306120015
 20
80.00000000000009
 30
0.0
 10
-272.5000000000001
 20
80.00000000000007
 30
0.0
  0
SPLINE
  5
E7
330
1F
100
AcDbEntity
  8
0
  6
Continuous
 62
     7
370
    25
100
AcDbSpline
210
0.0
220
0.0
230
1.0
 70
     8
 71
     3
 72
    14
 73
    10
 74
     0
 42
0.000000001
 43
0.00000001
 40
0.0
 40
0.0
 40
0.0
 40
0.0
 40
0.25
 40
0.25
 40
0.5
 40
0.5
 40
0.75
 40
0.75
 40
1.0
 40
1.0
 40
1.0
 40
1.0
 10
-269.0136613639707
 20
55.03010164401154
 30
0.0
 10
-269.1446218519939
 20
55.03011953375369
 30
0.0
 10
-269.2727295024503
 20
55.03039232896022
 30
0.0
 10
-269.5118795108541
 20
55.03141212204338
 30
0.0
 10
-269.6211091100979
 20
55.03215704795574
 30
0.0
 10
-269.8028213826788
 20
55.03399909110946
 30
0.0
 10
-269.8760570348293
 20
55.03510790496289
 30
0.0
 10
-269.9741258680197
 20
55.03749653169017
 30
0.0
 10
-270.0000000000663
 20
55.03880617936907
 30
0.0
 10
-270.0
 20
55.04009898404324
 30
0.0
  0
SPLINE
  5
E8
330
1F
100
AcDbEntity
  8
0
  6
Continuous
 62
     7
370
    25
100
AcDbSpline
210
0.0
220
0.0
230
1.0
 70
    24
 71
     3
 72
     8
 73
     4
 74
     0
 42
0.000000001
 43
0.00000001
 40
0.0
 40
0.0
 40
0.0
 40
0.0
 40
1.0
 40
1.0
 40
1.0
 40
1.0
 10
-270.0
 20
55.04009898403501
 30
0.0
 10
-270.0
 20
62.52717079323973
 30
0.0
 10
-270.0
 20
70.0138400030475
 30
0.0
 10
-270.0
 20
77.50000000000004
 30
0.0
  0
SPLINE
  5
E9
330
1F
100
AcDbEntity
  8
0
  6
Continuous
 62
     7
370
    25
100
AcDbSpline
210
0.0
220
0.0
230
1.0
 70
    24
 71
     3
 72
     8
 73
     4
 74
     0
 42
0.000000001
 43
0.00000001
 40
0.0
 40
0.0
 40
0.0
 40
0.0
 40
1.0
 40
1.0
 40
1.0
 40
1.0
 10
-269.9999999999999
 20
-77.50000000000004
 30
0.0
 10
-269.9999999999999
 20
-70.01384000304706
 30
0.0
 10
-269.9999999999999
 20
-62.52717079323887
 30
0.0
 10
-269.9999999999999
 20
-55.04009898403371
 30
0.0
  0
SPLINE
  5
EA
330
1F
100
AcDbEntity
  8
0
  6
Continuous
 62
     7
370
    25
100
AcDbSpline
210
0.0
220
0.0
230
1.0
 70
     8
 71
     3
 72
    14
 73
    10
 74
     0
 42
0.000000001
 43
0.00000001
 40
0.0
 40
0.0
 40
0.0
 40
0.0
 40
0.25
 40
0.25
 40
0.5
 40
0.5
 40
0.75
 40
0.75
 40
1.0
 40
1.0
 40
1.0
 40
1.0
 10
-269.0136613639708
 20
-55.0301016440099
 30
0.0
 10
-269.1446218519504
 20
-55.03011953375201
 30
0.0
 10
-269.2727295023626
 20
-55.03039232896511
 30
0.0
 10
-269.5118795107039
 20
-55.03141212203893
 30
0.0
 10
-269.6211091099222
 20
-55.03215704795316
 30
0.0
 10
-269.8028213824932
 20
-55.03399909111006
 30
0.0
 10
-269.8760570346529
 20
-55.03510790509725
 30
0.0
 10
-269.9741258679034
 20
-55.03749653194303
 30
0.0
 10
-269.9999999999998
 20
-55.03880617918592
 30
0.0
 10
-269.9999999999998
 20
-55.04009898403982
 30
0.0
  0
SPLINE
  5
EB
330
1F
100
AcDbEntity
  8
0
  6
Continuous
 62
     7
370
    25
100
AcDbSpline
210
0.0
220
0.0
230
1.0
 70
    24
 71
     3
 72
    14
 73
    10
 74
     0
 42
0.000000001
 43
0.00000001
 40
0.0
 40
0.0
 40
0.0
 40
0.0
 40
0.25
 40
0.25
 40
0.5
 40
0.5
 40
0.75
 40
0.75
 40
1.0
 40
1.0
 40
1.0
 40
1.0
 10
-269.9999999999999
 20
-55.04009898403371
 30
0.0
 10
-269.9999999999999
 20
-45.86692503443724
 30
0.0
 10
-270.0
 20
-36.69371566030629
 30
0.0
 10
-269.9999999999999
 20
-18.34710304939567
 30
0.0
 10
-270.0
 20
-9.173694133354577
 30
0.0
 10
-270.0000000000001
 20
9.173405580254627
 30
0.0
 10
-269.9999999999999
 20
18.34685176693635
 30
0.0
 10
-269.9999999999999
 20
36.69359298007208
 30
0.0
 10
-270.0000000000001
 20
45.86688469492309
 30
0.0
 10
-270.0
 20
55.04009898403501
 30
0.0
  0
LINE
  5
EC
330
1F
100
AcDbEntity
  8
0
  6
Continuous
 62
     7
370
    25
100
AcDbLine
 10
-418.0
 20
65.0
 30
0.0
 11
-420.0
 21
65.0
 31
0.0
  0
LINE
  5
ED
330
1F
100
AcDbEntity
  8
0
  6
Continuous
 62
     7
370
    25
100
AcDbLine
 10
-415.0
 20
68.0
 30
0.0
 11
-415.0
 21
70.0
 31
0.0
  0
LINE
  5
EE
330
1F
100
AcDbEntity
  8
0
  6
Continuous
 62
     7
370
    25
100
AcDbLine
 10
-420.0
 20
-65.0
 30
0.0
 11
-418.0
 21
-65.0
 31
0.0
  0
LINE
  5
EF
330
1F
100
AcDbEntity
  8
0
  6
Continuous
 62
     7
370
    25
100
AcDbLine
 10
-415.0
 20
-70.0
 30
0.0
 11
-415.0
 21
-68.0
 31
0.0
  0
LINE
  5
F0
330
1F
100
AcDbEntity
  8
0
  6
Continuous
 62
     7
370
    25
100
AcDbLine
 10
-285.0
 20
-70.0
 30
0.0
 11
-415.0
 21
-70.0
 31
0.0
  0
LINE
  5
F1
330
1F
100
AcDbEntity
  8
0
  6
Continuous
 62
     7
370
    25
100
AcDbLine
 10
-415.0
 20
-68.0
 30
0.0
 11
-285.0
 21
-68.0
 31
0.0
  0
LINE
  5
F2
330
1F
100
AcDbEntity
  8
0
  6
Continuous
 62
     7
370
    25
100
AcDbLine
 10
-285.0
 20
-70.0
 30
0.0
 11
-285.0
 21
-68.0
 31
0.0
  0
LINE
  5
F3
330
1F
100
AcDbEntity
  8
0
  6
Continuous
 62
     7
370
    25
100
AcDbLine
 10
-285.0
 20
68.0
 30
0.0
 11
-285.0
 21
70.0
 31
0.0
  0
LINE
  5
F4
330
1F
100
AcDbEntity
  8
0
  6
Continuous
 62
     7
370
    25
100
AcDbLine
 10
-282.0
 20
65.0
 30
0.0
 11
-280.0
 21
65.0
 31
0.0
  0
LINE
  5
F5
330
1F
100
AcDbEntity
  8
0
  6
Continuous
 62
     7
370
    25
100
AcDbLine
 10
-280.0
 20
-65.0
 30
0.0
 11
-282.0
 21
-65.0
 31
0.0
  0
LINE
  5
F6
330
1F
100
AcDbEntity
  8
0
  6
Continuous
 62
     7
370
    25
100
AcDbLine
 10
-285.0
 20
68.0
 30
0.0
 11
-415.0
 21
68.0
 31
0.0
  0
LINE
  5
F7
330
1F
100
AcDbEntity
  8
0
  6
Continuous
 62
     7
370
    25
100
AcDbLine
 10
-415.0
 20
70.0
 30
0.0
 11
-285.0
 21
70.0
 31
0.0
  0
LINE
  5
F8
330
1F
100
AcDbEntity
  8
0
  6
Continuous
 62
     7
370
    25
100
AcDbLine
 10
-418.0
 20
65.0
 30
0.0
 11
-418.0
 21
-65.0
 31
0.0
  0
LINE
  5
F9
330
1F
100
AcDbEntity
  8
0
  6
Continuous
 62
     7
370
    25
100
AcDbLine
 10
-420.0
 20
-65.0
 30
0.0
 11
-420.0
 21
65.0
 31
0.0
  0
LINE
  5
FA
330
1F
100
AcDbEntity
  8
0
  6
Continuous
 62
     7
370
    25
100
AcDbLine
 10
-282.0
 20
-65.0
 30
0.0
 11
-282.0
 21
65.0
 31
0.0
  0
LINE
  5
FB
330
1F
100
AcDbEntity
  8
0
  6
Continuous
 62
     7
370
    25
100
AcDbLine
 10
-280.0
 20
65.0
 30
0.0
 11
-280.0
 21
-65.0
 31
0.0
  0
LINE
  5
FC
330
1F
100
AcDbEntity
  8
0
  6
Continuous
 62
     7
370
    25
100
AcDbLine
 10
-429.2455696152
 20
79.2455696152
 30
0.0
 11
-418.5355339059
 21
68.5355339059
 31
0.0
  0
LINE
  5
FD
330
1F
100
AcDbEntity
  8
0
  6
Continuous
 62
     7
370
    25
100
AcDbLine
 10
-270.7543924732
 20
79.2456075268
 30
0.0
 11
-281.4644660941
 21
68.5355339059
 31
0.0
  0
LINE
  5
FE
330
1F
100
AcDbEntity
  8
0
  6
Continuous
 62
     7
370
    25
100
AcDbLine
 10
-285.2778949619
 20
69.9533334593
 30
0.0
 11
-284.5695254407
 21
69.9125884125
 31
0.0
  0
LINE
  5
FF
330
1F
100
AcDbEntity
  8
0
  6
Continuous
 62
     7
370
    25
100
AcDbLine
 10
-270.7543819763
 20
-79.2456180237
 30
0.0
 11
-281.4644660941
 21
-68.5355339059
 31
0.0
  0
LINE
  5
100
330
1F
100
AcDbEntity
  8
0
  6
Continuous
 62
     7
370
    25
100
AcDbLine
 10
-418.5355339059
 20
-68.5355339059
 30
0.0
 11
-429.2455696152
 21
-79.2455696152
 31
0.0
  0
LINE
  5
101
330
1F
100
AcDbEntity
  8
0
  6
Continuous
 62
     7
370
    25
100
AcDbLine
 10
-414.853153431
 20
-69.9457956238
 30
0.0
 11
-415.4304745593
 21
-69.9125884125
 31
0.0
  0
LINE
  5
102
330
1F
100
AcDbEntity
  8
0
  6
Continuous
 62
     7
370
    25
100
AcDbLine
 10
-418.5355339059
 20
-68.5355339059
 30
0.0
 11
-418.7352559655
 21
-68.2539240052
 31
0.0
  0
LINE
  5
103
330
1F
100
AcDbEntity
  8
0
  6
Continuous
 62
     7
370
    25
100
AcDbLine
 10
-419.9533334593
 20
64.7221050381
 30
0.0
 11
-419.9125884125
 21
65.4304745593
 31
0.0
  0
LINE
  5
104
330
1F
100
AcDbEntity
  8
0
  6
Continuous
 62
     7
370
    25
100
AcDbLine
 10
-280.0466665407
 20
-64.7221050381
 30
0.0
 11
-280.0874115875
 21
-65.4304745593
 31
0.0
  0
LINE
  5
105
330
1F
100
AcDbEntity
  8
0
  6
Continuous
 62
     7
370
    25
100
AcDbLine
 10
579.8669222446
 20
-429.9412256847
 30
0.0
 11
-269.0121556551
 21
-55.0304340522
 31
0.0
  0
LINE
  5
106
330
1F
100
AcDbEntity
  8
0
  6
Continuous
 62
     7
370
    25
100
AcDbLine
 10
-579.8651027888
 20
-429.6887884529
 30
0.0
 11
-428.6270959825
 21
-80.778579939
 31
0.0
  0
LINE
  5
107
330
1F
100
AcDbEntity
  8
0
  6
Continuous
 62
     7
370
    25
100
AcDbLine
 10
-428.6260979667
 20
-80.7762774893
 30
0.0
 11
-428.6261833148
 21
-80.7762480074
 31
0.0
  0
LINE
  5
108
330
1F
100
AcDbEntity
  8
0
  6
Continuous
 62
     7
370
    25
100
AcDbLine
 10
-428.6270959825
 20
80.778579939
 30
0.0
 11
-579.8651027888
 21
429.6887884529
 31
0.0
  0
LINE
  5
109
330
1F
100
AcDbEntity
  8
0
  6
Continuous
 62
     7
370
    25
100
AcDbLine
 10
579.8669222446
 20
429.9412256847
 30
0.0
 11
-269.0121556551
 21
55.0304340522
 31
0.0
  0
LINE
  5
10A
330
1F
100
AcDbEntity
  8
0
  6
Continuous
 62
     7
370
    25
100
AcDbLine
 10
-269.0136613778
 20
-55.0297690438
 30
0.0
 11
-269.013661364
 21
-55.030101644
 31
0.0
  0
LINE
  5
10B
330
1F
100
AcDbEntity
  8
0
  6
Continuous
 62
     7
370
    25
100
AcDbLine
 10
-269.013661364
 20
55.030101644
 30
0.0
 11
-269.0136613778
 21
55.0297690438
 31
0.0
  0
LINE
  5
10C
330
1F
100
AcDbEntity
  8
0
  6
Continuous
 62
     7
370
    25
100
AcDbLine
 10
-597.0
 20
-447.0
 30
0.0
 11
597.0
 21
-447.0
 31
0.0
  0
LINE
  5
10D
330
1F
100
AcDbEntity
  8
0
  6
Continuous
 62
     7
370
    25
100
AcDbLine
 10
-597.0
 20
447.0
 30
0.0
 11
-597.0
 21
-447.0
 31
0.0
  0
LINE
  5
10E
330
1F
100
AcDbEntity
  8
0
  6
Continuous
 62
     7
370
    25
100
AcDbLine
 10
597.0
 20
447.0
 30
0.0
 11
-597.0
 21
447.0
 31
0.0
  0
LINE
  5
10F
330
1F
100
AcDbEntity
  8
0
  6
Continuous
 62
     7
370
    25
100
AcDbLine
 10
597.0
 20
-447.0
 30
0.0
 11
597.0
 21
447.0
 31
0.0
  0
LINE
  5
110
330
1F
100
AcDbEntity
  8
0
  6
Continuous
 62
     7
370
    25
100
AcDbLine
 10
-597.0
 20
447.0
 30
0.0
 11
-600.0
 21
448.0
 31
0.0
  0
LINE
  5
111
330
1F
100
AcDbEntity
  8
0
  6
Continuous
 62
     7
370
    25
100
AcDbLine
 10
-600.0
 20
-448.0
 30
0.0
 11
-597.0
 21
-447.0
 31
0.0
  0
LINE
  5
112
330
1F
100
AcDbEntity
  8
0
  6
Continuous
 62
     7
370
    25
100
AcDbLine
 10
-600.0
 20
-448.0
 30
0.0
 11
-600.0
 21
448.0
 31
0.0
  0
LINE
  5
113
330
1F
100
AcDbEntity
  8
0
  6
Continuous
 62
     7
370
    25
100
AcDbLine
 10
598.0
 20
-450.0
 30
0.0
 11
597.0
 21
-447.0
 31
0.0
  0
LINE
  5
114
330
1F
100
AcDbEntity
  8
0
  6
Continuous
 62
     7
370
    25
100
AcDbLine
 10
597.0
 20
-447.0
 30
0.0
 11
600.0
 21
-448.0
 31
0.0
  0
LINE
  5
115
330
1F
100
AcDbEntity
  8
0
  6
Continuous
 62
     7
370
    25
100
AcDbLine
 10
-598.0
 20
450.0
 30
0.0
 11
-597.0
 21
447.0
 31
0.0
  0
LINE
  5
116
330
1F
100
AcDbEntity
  8
0
  6
Continuous
 62
     7
370
    25
100
AcDbLine
 10
-598.0
 20
450.0
 30
0.0
 11
598.0
 21
450.0
 31
0.0
  0
LINE
  5
117
330
1F
100
AcDbEntity
  8
0
  6
Continuous
 62
     7
370
    25
100
AcDbLine
 10
597.0
 20
447.0
 30
0.0
 11
598.0
 21
450.0
 31
0.0
  0
LINE
  5
118
330
1F
100
AcDbEntity
  8
0
  6
Continuous
 62
     7
370
    25
100
AcDbLine
 10
600.0
 20
448.0
 30
0.0
 11
597.0
 21
447.0
 31
0.0
  0
LINE
  5
119
330
1F
100
AcDbEntity
  8
0
  6
Continuous
 62
     7
370
    25
100
AcDbLine
 10
600.0
 20
448.0
 30
0.0
 11
600.0
 21
-448.0
 31
0.0
  0
LINE
  5
11A
330
1F
100
AcDbEntity
  8
0
  6
Continuous
 62
     7
370
    25
100
AcDbLine
 10
-597.0
 20
-447.0
 30
0.0
 11
-598.0
 21
-450.0
 31
0.0
  0
LINE
  5
11B
330
1F
100
AcDbEntity
  8
0
  6
Continuous
 62
     7
370
    25
100
AcDbLine
 10
598.0
 20
-450.0
 30
0.0
 11
-598.0
 21
-450.0
 31
0.0
  0
ARC
  5
11C
330
1F
100
AcDbEntity
  8
0
  6
Continuous
 62
     7
370
    25
100
AcDbCircle
 10
-415.0
 20
65.0
 30
0.0
 40
3.0
100
AcDbArc
 50
90.0
 51
180.0
  0
ARC
  5
11D
330
1F
100
AcDbEntity
  8
0
  6
Continuous
 62
     7
370
    25
100
AcDbCircle
 10
-415.0
 20
65.0
 30
0.0
 40
5.000000000000057
100
AcDbArc
 50
90.0
 51
180.0
  0
ARC
  5
11E
330
1F
100
AcDbEntity
  8
0
  6
Continuous
 62
     7
370
    25
100
AcDbCircle
 10
-415.0
 20
-65.0
 30
0.0
 40
5.0
100
AcDbArc
 50
180.0
 51
270.0
  0
ARC
  5
11F
330
1F
100
AcDbEntity
  8
0
  6
Continuous
 62
     7
370
    25
100
AcDbCircle
 10
-415.0
 20
-65.0
 30
0.0
 40
3.0
100
AcDbArc
 50
180.0
 51
270.0
  0
ARC
  5
120
330
1F
100
AcDbEntity
  8
0
  6
Continuous
 62
     7
370
    25
100
AcDbCircle
 10
-285.0
 20
65.0
 30
0.0
 40
3.000000000000114
100
AcDbArc
 50
0.0
 51
90.0
  0
ARC
  5
121
330
1F
100
AcDbEntity
  8
0
  6
Continuous
 62
     7
370
    25
100
AcDbCircle
 10
-285.0
 20
65.0
 30
0.0
 40
5.000000000000114
100
AcDbArc
 50
0.0
 51
90.0
  0
ARC
  5
122
330
1F
100
AcDbEntity
  8
0
  6
Continuous
 62
     7
370
    25
100
AcDbCircle
 10
-285.0
 20
-65.0
 30
0.0
 40
5.000000000000057
100
AcDbArc
 50
270.0
 51
0.0
  0
ARC
  5
123
330
1F
100
AcDbEntity
  8
0
  6
Continuous
 62
     7
370
    25
100
AcDbCircle
 10
-285.0
 20
-65.0
 30
0.0
 40
3.000000000000114
100
AcDbArc
 50
270.0
 51
0.0
  0
ARC
  5
124
330
1F
100
AcDbEntity
  8
0
  6
Continuous
 62
     7
370
    25
100
AcDbCircle
 10
598.0
 20
-448.0
 30
0.0
 40
2.000000000000114
100
AcDbArc
 50
270.0
 51
0.0
  0
ARC
  5
125
330
1F
100
AcDbEntity
  8
0
  6
Continuous
 62
     7
370
    25
100
AcDbCircle
 10
-598.0
 20
448.0
 30
0.0
 40
2.000000000000171
100
AcDbArc
 50
90.0
 51
180.0
  0
ARC
  5
126
330
1F
100
AcDbEntity
  8
0
  6
Continuous
 62
     7
370
    25
100
AcDbCircle
 10
-598.0
 20
-448.0
 30
0.0
 40
2.000000000000114
100
AcDbArc
 50
180.0
 51
270.0
  0
ARC
  5
127
330
1F
100
AcDbEntity
  8
0
  6
Continuous
 62
     7
370
    25
100
AcDbCircle
 10
598.0
 20
448.0
 30
0.0
 40
2.000000000000341
100
AcDbArc
 50
0.0
 51
90.0
  0
ARC
  5
128
330
1F
100
AcDbEntity
  8
0
  6
Continuous
 62
     7
370
    25
100
AcDbCircle
 10
-430.7183656092
 20
-90.7437504028
 30
0.0
 40
13.26321883559524
100
AcDbArc
 50
86.8952131092
 51
90.9866260496
  0
ARC
  5
129
330
1F
100
AcDbEntity
  8
0
  6
Continuous
 62
     7
370
    25
100
AcDbCircle
 10
-430.7183656092
 20
90.7437504029
 30
0.0
 40
13.26321883562713
100
AcDbArc
 50
269.0133739504
 51
273.1047868908
  0
ARC
  5
12A
330
1F
100
AcDbEntity
  8
0
  6
Continuous
 62
     7
370
    25
100
AcDbCircle
 10
-441.0763315264
 20
80.7312038328
 30
0.0
 40
13.59600811855569
100
AcDbArc
 50
356.9171012929
 51
0.9983260171
  0
ARC
  5
12B
330
1F
100
AcDbEntity
  8
0
  6
Continuous
 62
     7
370
    25
100
AcDbCircle
 10
-249.6640097939
 20
80.7374674603
 30
0.0
 40
22.84789502222255
100
AcDbArc
 50
179.3950601218
 51
181.8496720691
  0
ARC
  5
12C
330
1F
100
AcDbEntity
  8
0
  6
Continuous
 62
     7
370
    25
100
AcDbCircle
 10
-441.0763315263
 20
-80.7312038328
 30
0.0
 40
13.59600811849593
100
AcDbArc
 50
359.0016739829
 51
3.0828987071
  0
ARC
  5
12D
330
1F
100
AcDbEntity
  8
0
  6
Continuous
 62
     7
370
    25
100
AcDbCircle
 10
-249.6640097937
 20
-80.7374674603
 30
0.0
 40
22.84789502242702
100
AcDbArc
 50
178.1503279309
 51
180.6049398782
  0
ARC
  5
12E
330
1F
100
AcDbEntity
  8
0
  6
Continuous
 62
     7
370
    25
100
AcDbCircle
 10
-269.2563385578
 20
-90.0838641438
 30
0.0
 40
12.60581885998086
100
AcDbArc
 50
88.8846048562
 51
93.3820425288
  0
ARC
  5
12F
330
1F
100
AcDbEntity
  8
0
  6
Continuous
 62
     7
370
    25
100
AcDbCircle
 10
-269.2563385578
 20
90.0838641438
 30
0.0
 40
12.60581886000442
100
AcDbArc
 50
266.6179574712
 51
271.1153951438
  0
LWPOLYLINE
  5
134
330
1B
100
AcDbEntity
 67
     1
  8
0
  6
Continuous
 62
     7
370
    25
100
AcDbPolyline
 90
        9
 70
   128
 43
0.0
 10
598.0
 20
32.0
 10
597.9807852804
 20
32.585270966
 10
597.9238795325
 20
33.1480502971
 10
597.8314696123
 20
33.6667106991
 10
597.7071067812
 20
34.1213203436
 10
597.555570233
 20
34.4944088369
 10
597.3826834324
 20
34.7716385975
 10
597.195090322
 20
34.9423558412
 10
597.0
 20
35.0
  0
LWPOLYLINE
  5
13F
330
1B
100
AcDbEntity
 67
     1
  8
0
  6
Continuous
 62
     7
370
    25
100
AcDbPolyline
 90
        9
 70
   128
 43
0.0
 10
-597.0
 20
35.0
 10
-597.195090322
 20
34.9423558412
 10
-597.3826834324
 20
34.7716385975
 10
-597.555570233
 20
34.4944088369
 10
-597.7071067812
 20
34.1213203436
 10
-597.8314696123
 20
33.6667106991
 10
-597.9238795325
 20
33.1480502971
 10
-597.9807852804
 20
32.585270966
 10
-598.0
 20
32.0
  0
LINE
  5
147
330
1B
100
AcDbEntity
 67
     1
  8
0
  6
Continuous
 62
     7
370
    25
100
AcDbLine
 10
-220.0
 20
-26.0
 30
0.0
 11
-220.0
 21
0.0
 31
0.0
  0
LINE
  5
148
330
1B
100
AcDbEntity
 67
     1
  8
0
  6
Continuous
 62
     7
370
    25
100
AcDbLine
 10
-220.0
 20
-26.0
 30
0.0
 11
-480.0
 21
-26.0
 31
0.0
  0
LINE
  5
149
330
1B
100
AcDbEntity
 67
     1
  8
0
  6
Continuous
 62
     7
370
    25
100
AcDbLine
 10
-480.0
 20
-26.0
 30
0.0
 11
-480.0
 21
0.0
 31
0.0
  0
LINE
  5
14A
330
1B
100
AcDbEntity
 67
     1
  8
0
  6
Continuous
 62
     7
370
    25
100
AcDbLine
 10
600.0
 20
32.0
 30
0.0
 11
-600.0
 21
32.0
 31
0.0
  0
LINE
  5
14B
330
1B
100
AcDbEntity
 67
     1
  8
0
  6
Continuous
 62
     7
370
    25
100
AcDbLine
 10
598.0
 20
0.0
 30
0.0
 11
598.0
 21
32.0
 31
0.0
  0
LINE
  5
14C
330
1B
100
AcDbEntity
 67
     1
  8
0
  6
Continuous
 62
     7
370
    25
100
AcDbLine
 10
600.0
 20
32.0
 30
0.0
 11
600.0
 21
2.0
 31
0.0
  0
LINE
  5
14D
330
1B
100
AcDbEntity
 67
     1
  8
0
  6
Continuous
 62
     7
370
    25
100
AcDbLine
 10
-600.0
 20
2.0
 30
0.0
 11
600.0
 21
2.0
 31
0.0
  0
LINE
  5
14E
330
1B
100
AcDbEntity
 67
     1
  8
0
  6
Continuous
 62
     7
370
    25
100
AcDbLine
 10
-598.0
 20
32.0
 30
0.0
 11
-598.0
 21
0.0
 31
0.0
  0
LINE
  5
14F
330
1B
100
AcDbEntity
 67
     1
  8
0
  6
Continuous
 62
     7
370
    25
100
AcDbLine
 10
598.0
 20
0.0
 30
0.0
 11
-598.0
 21
0.0
 31
0.0
  0
LINE
  5
150
330
1B
100
AcDbEntity
 67
     1
  8
0
  6
Continuous
 62
     7
370
    25
100
AcDbLine
 10
-597.0
 20
35.0
 30
0.0
 11
597.0
 21
35.0
 31
0.0
  0
LINE
  5
151
330
1B
100
AcDbEntity
 67
     1
  8
0
  6
Continuous
 62
     7
370
    25
100
AcDbLine
 10
-600.0
 20
2.0
 30
0.0
 11
-600.0
 21
32.0
 31
0.0
  0
ARC
  5
152
330
1B
100
AcDbEntity
 67
     1
  8
0
  6
Continuous
 62
     7
370
    25
100
AcDbCircle
 10
597.0
 20
32.0
 30
0.0
 40
3.000000000000131
100
AcDbArc
 50
0.0
 51
90.0
  0
ARC
  5
153
330
1B
100
AcDbEntity
 67
     1
  8
0
  6
Continuous
 62
     7
370
    25
100
AcDbCircle
 10
-597.0
 20
32.0
 30
0.0
 40
3.000000000000131
100
AcDbArc
 50
90.0
 51
180.0
  0
ARC
  5
154
330
1B
100
AcDbEntity
 67
     1
  8
0
  6
Continuous
 62
     7
370
    25
100
AcDbCircle
 10
598.0
 20
2.0
 30
0.0
 40
2.000000000000114
100
AcDbArc
 50
270.0
 51
360.0
  0
ARC
  5
155
330
1B
100
AcDbEntity
 67
     1
  8
0
  6
Continuous
 62
     7
370
    25
100
AcDbCircle
 10
-598.0
 20
2.0
 30
0.0
 40
2.000000000000114
100
AcDbArc
 50
180.0
 51
270.0
  0
VIEWPORT
  5
545
330
1B
100
AcDbEntity
 67
     1
  8
0
100
AcDbViewport
 10
0.0
 20
0.0
 30
0.0
 40
205.6
 41
156.0
 68
     1
 69
     1
 12
0.0
 22
0.0
 13
0.0
 23
0.0
 14
10.0
 24
10.0
 15
10.0
 25
10.0
 16
0.0
 26
0.0
 36
1.0
 17
0.0
 27
0.0
 37
0.0
 42
50.0
 43
0.0
 44
0.0
 45
928.7159533074
 50
0.0
 51
0.0
 72
   100
 90
   557152
  1

281
     0
 71
     1
 74
     0
110
0.0
120
0.0
130
0.0
111
1.0
121
0.0
131
0.0
112
0.0
122
1.0
132
0.0
 79
     0
146
0.0
  0
ENDSEC
  0
SECTION
  2
OBJECTS
  0
DICTIONARY
  5
C
330
0
100
AcDbDictionary
281
     1
  3
ACAD_GROUP
350
D
  3
ACAD_LAYOUT
350
1A
  3
ACAD_MLINESTYLE
350
17
  3
ACAD_PLOTSETTINGS
350
19
  3
ACAD_PLOTSTYLENAME
350
E
  3
ACAD_SCALELIST
350
47
  0
DICTIONARY
  5
D
102
{ACAD_REACTORS
330
C
102
}
330
C
100
AcDbDictionary
281
     1
  0
DICTIONARY
  5
1A
102
{ACAD_REACTORS
330
C
102
}
330
C
100
AcDbDictionary
281
     1
  3
_Dimetrisch
350
461
  3
_Isometrisch
350
240
  3
_Links
350
1D1
  3
_Normal auf
350
17D
  3
_Rechts
350
26
  3
_Rückseite
350
1A7
  3
_Trimetrisch
350
35B
  3
_Unten
350
1FB
  3
_Vorderseite
350
1E
  3
Model
350
22
  0
DICTIONARY
  5
17
102
{ACAD_REACTORS
330
C
102
}
330
C
100
AcDbDictionary
281
     1
  3
Standard
350
18
  0
DICTIONARY
  5
19
102
{ACAD_REACTORS
330
C
102
}
330
C
100
AcDbDictionary
281
     1
  0
ACDBDICTIONARYWDFLT
  5
E
102
{ACAD_REACTORS
330
C
102
}
330
C
100
AcDbDictionary
281
     1
  3
Normal
350
F
100
AcDbDictionaryWithDefault
340
F
  0
DICTIONARY
  5
47
102
{ACAD_REACTORS
330
C
102
}
330
C
100
AcDbDictionary
281
     1
  3
A0
350
48
  3
A1
350
49
  3
A2
350
4A
  3
A3
350
4B
  3
A4
350
4C
  3
A5
350
4D
  3
A6
350
4E
  3
A7
350
4F
  3
A8
350
50
  3
A9
350
51
  3
B0
350
52
  3
B1
350
53
  3
B2
350
54
  3
B3
350
55
  3
B4
350
56
  3
B5
350
57
  3
B6
350
58
  3
B7
350
59
  3
B8
350
5A
  3
B9
350
5B
  3
C0
350
5C
  3
C1
350
5D
  3
C2
350
5E
  3
C3
350
5F
  3
C4
350
60
  3
C5
350
61
  3
C6
350
62
  3
C7
350
63
  3
C8
350
64
  3
C9
350
65
  3
D0
350
66
  3
D1
350
67
  3
D2
350
68
  0
LAYOUT
  5
461
102
{ACAD_REACTORS
330
1A
102
}
330
1A
100
AcDbPlotSettings
  1

  2
none_device
  4
ISO_A4_(210.00_x_297.00_MM)
  6

 40
7.5
 41
20.0
 42
7.5
 43
20.0
 44
210.0
 45
297.0
 46
0.0
 47
0.0
 48
0.0
 49
0.0
140
0.0
141
0.0
142
1.0
143
4.6692607004
 70
   688
 72
     1
 73
     1
 74
     1
  7

 75
     0
147
0.2141666667
148
600.0
149
26.0
100
AcDbLayout
  1
_Dimetrisch
 70
     1
 71
     9
 10
0.0
 20
0.0
 11
0.0
 21
0.0
 12
0.0
 22
0.0
 32
0.0
 14
0.0
 24
0.0
 34
0.0
 15
0.0
 25
0.0
 35
0.0
146
0.0
 13
0.0
 23
0.0
 33
0.0
 16
1.0
 26
0.0
 36
0.0
 17
0.0
 27
1.0
 37
0.0
 76
     0
330
460
331
555
  0
LAYOUT
  5
240
102
{ACAD_REACTORS
330
1A
102
}
330
1A
100
AcDbPlotSettings
  1

  2
none_device
  4
ISO_A4_(210.00_x_297.00_MM)
  6

 40
7.5
 41
20.0
 42
7.5
 43
20.0
 44
210.0
 45
297.0
 46
0.0
 47
0.0
 48
0.0
 49
0.0
140
0.0
141
0.0
142
1.0
143
4.6692607004
 70
   688
 72
     1
 73
     1
 74
     1
  7

 75
     0
147
0.2141666667
148
600.0
149
26.0
100
AcDbLayout
  1
_Isometrisch
 70
     1
 71
     7
 10
0.0
 20
0.0
 11
0.0
 21
0.0
 12
0.0
 22
0.0
 32
0.0
 14
0.0
 24
0.0
 34
0.0
 15
0.0
 25
0.0
 35
0.0
146
0.0
 13
0.0
 23
0.0
 33
0.0
 16
1.0
 26
0.0
 36
0.0
 17
0.0
 27
1.0
 37
0.0
 76
     0
330
23F
331
551
  0
LAYOUT
  5
1D1
102
{ACAD_REACTORS
330
1A
102
}
330
1A
100
AcDbPlotSettings
  1

  2
none_device
  4
ISO_A4_(210.00_x_297.00_MM)
  6

 40
7.5
 41
20.0
 42
7.5
 43
20.0
 44
210.0
 45
297.0
 46
0.0
 47
0.0
 48
0.0
 49
0.0
140
0.0
141
0.0
142
1.0
143
4.6692607004
 70
   688
 72
     1
 73
     1
 74
     1
  7

 75
     0
147
0.2141666667
148
600.0
149
26.0
100
AcDbLayout
  1
_Links
 70
     1
 71
     5
 10
0.0
 20
0.0
 11
0.0
 21
0.0
 12
0.0
 22
0.0
 32
0.0
 14
0.0
 24
0.0
 34
0.0
 15
0.0
 25
0.0
 35
0.0
146
0.0
 13
0.0
 23
0.0
 33
0.0
 16
1.0
 26
0.0
 36
0.0
 17
0.0
 27
1.0
 37
0.0
 76
     0
330
1D0
331
54D
  0
LAYOUT
  5
17D
102
{ACAD_REACTORS
330
1A
102
}
330
1A
100
AcDbPlotSettings
  1

  2
none_device
  4
ISO_A4_(210.00_x_297.00_MM)
  6

 40
7.5
 41
20.0
 42
7.5
 43
20.0
 44
210.0
 45
297.0
 46
0.0
 47
0.0
 48
0.0
 49
0.0
140
0.0
141
0.0
142
1.0
143
4.6692607004
 70
   688
 72
     1
 73
     1
 74
     1
  7

 75
     0
147
0.2141666667
148
600.0
149
26.0
100
AcDbLayout
  1
_Normal auf
 70
     1
 71
     3
 10
0.0
 20
0.0
 11
0.0
 21
0.0
 12
0.0
 22
0.0
 32
0.0
 14
0.0
 24
0.0
 34
0.0
 15
0.0
 25
0.0
 35
0.0
146
0.0
 13
0.0
 23
0.0
 33
0.0
 16
1.0
 26
0.0
 36
0.0
 17
0.0
 27
1.0
 37
0.0
 76
     0
330
17C
331
549
  0
LAYOUT
  5
26
102
{ACAD_REACTORS
330
1A
102
}
330
1A
100
AcDbPlotSettings
  1

  2
none_device
  4
ISO_A4_(210.00_x_297.00_MM)
  6

 40
7.5
 41
20.0
 42
7.5
 43
20.0
 44
210.0
 45
297.0
 46
0.0
 47
0.0
 48
0.0
 49
0.0
140
0.0
141
0.0
142
1.0
143
4.6692607004
 70
   688
 72
     1
 73
     1
 74
     1
  7

 75
     0
147
0.2141666667
148
600.0
149
26.0
100
AcDbLayout
  1
_Rechts
 70
     1
 71
     2
 10
0.0
 20
0.0
 11
0.0
 21
0.0
 12
0.0
 22
0.0
 32
0.0
 14
0.0
 24
0.0
 34
0.0
 15
0.0
 25
0.0
 35
0.0
146
0.0
 13
0.0
 23
0.0
 33
0.0
 16
1.0
 26
0.0
 36
0.0
 17
0.0
 27
1.0
 37
0.0
 76
     0
330
23
331
547
  0
LAYOUT
  5
1A7
102
{ACAD_REACTORS
330
1A
102
}
330
1A
100
AcDbPlotSettings
  1

  2
none_device
  4
ISO_A4_(210.00_x_297.00_MM)
  6

 40
7.5
 41
20.0
 42
7.5
 43
20.0
 44
210.0
 45
297.0
 46
0.0
 47
0.0
 48
0.0
 49
0.0
140
0.0
141
0.0
142
1.0
143
4.6692607004
 70
   688
 72
     1
 73
     1
 74
     1
  7

 75
     0
147
0.2141666667
148
600.0
149
26.0
100
AcDbLayout
  1
_Rückseite
 70
     1
 71
     4
 10
0.0
 20
0.0
 11
0.0
 21
0.0
 12
0.0
 22
0.0
 32
0.0
 14
0.0
 24
0.0
 34
0.0
 15
0.0
 25
0.0
 35
0.0
146
0.0
 13
0.0
 23
0.0
 33
0.0
 16
1.0
 26
0.0
 36
0.0
 17
0.0
 27
1.0
 37
0.0
 76
     0
330
1A6
331
54B
  0
LAYOUT
  5
35B
102
{ACAD_REACTORS
330
1A
102
}
330
1A
100
AcDbPlotSettings
  1

  2
none_device
  4
ISO_A4_(210.00_x_297.00_MM)
  6

 40
7.5
 41
20.0
 42
7.5
 43
20.0
 44
210.0
 45
297.0
 46
0.0
 47
0.0
 48
0.0
 49
0.0
140
0.0
141
0.0
142
1.0
143
4.6692607004
 70
   688
 72
     1
 73
     1
 74
     1
  7

 75
     0
147
0.2141666667
148
600.0
149
26.0
100
AcDbLayout
  1
_Trimetrisch
 70
     1
 71
     8
 10
0.0
 20
0.0
 11
0.0
 21
0.0
 12
0.0
 22
0.0
 32
0.0
 14
0.0
 24
0.0
 34
0.0
 15
0.0
 25
0.0
 35
0.0
146
0.0
 13
0.0
 23
0.0
 33
0.0
 16
1.0
 26
0.0
 36
0.0
 17
0.0
 27
1.0
 37
0.0
 76
     0
330
35A
331
553
  0
LAYOUT
  5
1FB
102
{ACAD_REACTORS
330
1A
102
}
330
1A
100
AcDbPlotSettings
  1

  2
none_device
  4
ISO_A4_(210.00_x_297.00_MM)
  6

 40
7.5
 41
20.0
 42
7.5
 43
20.0
 44
210.0
 45
297.0
 46
0.0
 47
0.0
 48
0.0
 49
0.0
140
0.0
141
0.0
142
1.0
143
4.6692607004
 70
   688
 72
     1
 73
     1
 74
     1
  7

 75
     0
147
0.2141666667
148
600.0
149
26.0
100
AcDbLayout
  1
_Unten
 70
     1
 71
     6
 10
0.0
 20
0.0
 11
0.0
 21
0.0
 12
0.0
 22
0.0
 32
0.0
 14
0.0
 24
0.0
 34
0.0
 15
0.0
 25
0.0
 35
0.0
146
0.0
 13
0.0
 23
0.0
 33
0.0
 16
1.0
 26
0.0
 36
0.0
 17
0.0
 27
1.0
 37
0.0
 76
     0
330
1FA
331
54F
  0
LAYOUT
  5
1E
102
{ACAD_REACTORS
330
1A
102
}
330
1A
100
AcDbPlotSettings
  1

  2
none_device
  4
ISO_A4_(210.00_x_297.00_MM)
  6

 40
7.5
 41
20.0
 42
7.5
 43
20.0
 44
210.0
 45
297.0
 46
0.0
 47
0.0
 48
0.0
 49
0.0
140
0.0
141
0.0
142
1.0
143
4.6692607004
 70
   688
 72
     1
 73
     1
 74
     1
  7

 75
     0
147
0.2141666667
148
600.0
149
26.0
100
AcDbLayout
  1
_Vorderseite
 70
     1
 71
     1
 10
-693.3852140078
 20
-61.0194552529
 11
693.3852140078
 21
919.5252918288
 12
0.0
 22
0.0
 32
0.0
 14
-600.0
 24
-26.0
 34
0.0
 15
600.0
 25
35.0
 35
0.0
146
0.0
 13
0.0
 23
0.0
 33
0.0
 16
1.0
 26
0.0
 36
0.0
 17
0.0
 27
1.0
 37
0.0
 76
     0
330
1B
331
545
  0
LAYOUT
  5
22
102
{ACAD_REACTORS
330
1A
102
}
330
1A
100
AcDbPlotSettings
  1

  2
none_device
  4
ANSI_A_(11.00_x_8.50_Inches)
  6

 40
6.35
 41
19.05
 42
6.35000508
 43
19.05000254
 44
279.4
 45
215.9
 46
133.34999746
 47
88.89999873
 48
0.0
 49
0.0
140
0.0
141
0.0
142
0.009075
143
1.0
 70
  1696
 72
     0
 73
     0
 74
     0
  7

 75
     0
147
0.0179189148
148
-1300.4909072572
149
0.0
100
AcDbLayout
  1
Model
 70
     1
 71
     0
 10
0.0
 20
0.0
 11
420.0
 21
297.0
 12
0.0
 22
0.0
 32
0.0
 14
-600.0
 24
-450.0
 34
0.0
 15
600.0
 25
450.0
 35
0.0
146
0.0
 13
0.0
 23
0.0
 33
0.0
 16
1.0
 26
0.0
 36
0.0
 17
0.0
 27
1.0
 37
0.0
 76
     0
330
1F
331
29
  0
MLINESTYLE
  5
18
102
{ACAD_REACTORS
330
17
102
}
330
17
100
AcDbMlineStyle
  2
Standard
 70
     0
  3

 62
   256
 51
90.0
 52
90.0
 71
     2
 49
0.5
 62
   256
  6
BYLAYER
 49
-0.5
 62
   256
  6
BYLAYER
  0
ACDBPLACEHOLDER
  5
F
102
{ACAD_REACTORS
330
E
102
}
330
E
  0
SCALE
  5
48
102
{ACAD_REACTORS
330
47
102
}
330
47
100
AcDbScale
 70
     0
300
1:1
140
1.0
141
1.0
290
     1
  0
SCALE
  5
49
102
{ACAD_REACTORS
330
47
102
}
330
47
100
AcDbScale
 70
     0
300
1:2
140
1.0
141
2.0
290
     0
  0
SCALE
  5
4A
102
{ACAD_REACTORS
330
47
102
}
330
47
100
AcDbScale
 70
     0
300
1:4
140
1.0
141
4.0
290
     0
  0
SCALE
  5
4B
102
{ACAD_REACTORS
330
47
102
}
330
47
100
AcDbScale
 70
     0
300
1:5
140
1.0
141
5.0
290
     0
  0
SCALE
  5
4C
102
{ACAD_REACTORS
330
47
102
}
330
47
100
AcDbScale
 70
     0
300
1:8
140
1.0
141
8.0
290
     0
  0
SCALE
  5
4D
102
{ACAD_REACTORS
330
47
102
}
330
47
100
AcDbScale
 70
     0
300
1:10
140
1.0
141
10.0
290
     0
  0
SCALE
  5
4E
102
{ACAD_REACTORS
330
47
102
}
330
47
100
AcDbScale
 70
     0
300
1:16
140
1.0
141
16.0
290
     0
  0
SCALE
  5
4F
102
{ACAD_REACTORS
330
47
102
}
330
47
100
AcDbScale
 70
     0
300
1:20
140
1.0
141
20.0
290
     0
  0
SCALE
  5
50
102
{ACAD_REACTORS
330
47
102
}
330
47
100
AcDbScale
 70
     0
300
1:30
140
1.0
141
30.0
290
     0
  0
SCALE
  5
51
102
{ACAD_REACTORS
330
47
102
}
330
47
100
AcDbScale
 70
     0
300
1:40
140
1.0
141
40.0
290
     0
  0
SCALE
  5
52
102
{ACAD_REACTORS
330
47
102
}
330
47
100
AcDbScale
 70
     0
300
1:50
140
1.0
141
50.0
290
     0
  0
SCALE
  5
53
102
{ACAD_REACTORS
330
47
102
}
330
47
100
AcDbScale
 70
     0
300
1:100
140
1.0
141
100.0
290
     0
  0
SCALE
  5
54
102
{ACAD_REACTORS
330
47
102
}
330
47
100
AcDbScale
 70
     0
300
2:1
140
2.0
141
1.0
290
     0
  0
SCALE
  5
55
102
{ACAD_REACTORS
330
47
102
}
330
47
100
AcDbScale
 70
     0
300
4:1
140
4.0
141
1.0
290
     0
  0
SCALE
  5
56
102
{ACAD_REACTORS
330
47
102
}
330
47
100
AcDbScale
 70
     0
300
8:1
140
8.0
141
1.0
290
     0
  0
SCALE
  5
57
102
{ACAD_REACTORS
330
47
102
}
330
47
100
AcDbScale
 70
     0
300
10:1
140
10.0
141
1.0
290
     0
  0
SCALE
  5
58
102
{ACAD_REACTORS
330
47
102
}
330
47
100
AcDbScale
 70
     0
300
100:1
140
100.0
141
1.0
290
     0
  0
SCALE
  5
59
102
{ACAD_REACTORS
330
47
102
}
330
47
100
AcDbScale
 70
     0
300
1/128" = 1'-0"
140
0.0078125
141
12.0
290
     0
  0
SCALE
  5
5A
102
{ACAD_REACTORS
330
47
102
}
330
47
100
AcDbScale
 70
     0
300
1/64" = 1'-0"
140
0.015625
141
12.0
290
     0
  0
SCALE
  5
5B
102
{ACAD_REACTORS
330
47
102
}
330
47
100
AcDbScale
 70
     0
300
1/32" = 1'-0"
140
0.03125
141
12.0
290
     0
  0
SCALE
  5
5C
102
{ACAD_REACTORS
330
47
102
}
330
47
100
AcDbScale
 70
     0
300
1/16" = 1'-0"
140
0.0625
141
12.0
290
     0
  0
SCALE
  5
5D
102
{ACAD_REACTORS
330
47
102
}
330
47
100
AcDbScale
 70
     0
300
3/32" = 1'-0"
140
0.09375
141
12.0
290
     0
  0
SCALE
  5
5E
102
{ACAD_REACTORS
330
47
102
}
330
47
100
AcDbScale
 70
     0
300
1/8" = 1'-0"
140
0.125
141
12.0
290
     0
  0
SCALE
  5
5F
102
{ACAD_REACTORS
330
47
102
}
330
47
100
AcDbScale
 70
     0
300
3/16" = 1'-0"
140
0.1875
141
12.0
290
     0
  0
SCALE
  5
60
102
{ACAD_REACTORS
330
47
102
}
330
47
100
AcDbScale
 70
     0
300
1/4" = 1'-0"
140
0.25
141
12.0
290
     0
  0
SCALE
  5
61
102
{ACAD_REACTORS
330
47
102
}
330
47
100
AcDbScale
 70
     0
300
3/8" = 1'-0"
140
0.375
141
12.0
290
     0
  0
SCALE
  5
62
102
{ACAD_REACTORS
330
47
102
}
330
47
100
AcDbScale
 70
     0
300
1/2" = 1'-0"
140
0.5
141
12.0
290
     0
  0
SCALE
  5
63
102
{ACAD_REACTORS
330
47
102
}
330
47
100
AcDbScale
 70
     0
300
3/4" = 1'-0"
140
0.75
141
12.0
290
     0
  0
SCALE
  5
64
102
{ACAD_REACTORS
330
47
102
}
330
47
100
AcDbScale
 70
     0
300
1" = 1'-0"
140
1.0
141
12.0
290
     0
  0
SCALE
  5
65
102
{ACAD_REACTORS
330
47
102
}
330
47
100
AcDbScale
 70
     0
300
1-1/2" = 1'-0"
140
1.5
141
12.0
290
     0
  0
SCALE
  5
66
102
{ACAD_REACTORS
330
47
102
}
330
47
100
AcDbScale
 70
     0
300
3" = 1'-0"
140
3.0
141
12.0
290
     0
  0
SCALE
  5
67
102
{ACAD_REACTORS
330
47
102
}
330
47
100
AcDbScale
 70
     0
300
6" = 1'-0"
140
6.0
141
12.0
290
     0
  0
SCALE
  5
68
102
{ACAD_REACTORS
330
47
102
}
330
47
100
AcDbScale
 70
     0
300
1'-0" = 1'-0"
140
12.0
141
12.0
290
     0
  0
ENDSEC
  0
EOF
