  0
SECTION
  2
HEADER
  9
$ACADVER
  1
AC1015
  9
$ACADMAINTVER
 70
     6
  9
$DWGCODEPAGE
  3
ANSI_1252
  9
$INSBASE
 10
0.0
 20
0.0
 30
0.0
  9
$EXTMIN
 10
-600.0
 20
-500.0
 30
0.0
  9
$EXTMAX
 10
600.0
 20
500.0
 30
0.0
  9
$LIMMIN
 10
0.0
 20
0.0
  9
$LIMMAX
 10
420.0
 20
297.0
  9
$ORTHOMODE
 70
     0
  9
$REGENMODE
 70
     1
  9
$FILLMODE
 70
     1
  9
$QTEXTMODE
 70
     0
  9
$MIRRTEXT
 70
     1
  9
$LTSCALE
 40
1.0
  9
$ATTMODE
 70
     1
  9
$TEXTSIZE
 40
3.5
  9
$TRACEWID
 40
1.0
  9
$TEXTSTYLE
  7
STANDARD
  9
$CLAYER
  8
0
  9
$CELTYPE
  6
ByLayer
  9
$CECOLOR
 62
   256
  9
$CELTSCALE
 40
1.0
  9
$DISPSILH
 70
     0
  9
$DIMSCALE
 40
1.0
  9
$DIMASZ
 40
7.4083333333
  9
$DIMEXO
 40
1.0
  9
$DIMDLI
 40
3.75
  9
$DIMRND
 40
0.0
  9
$DIMDLE
 40
0.0
  9
$DIMEXE
 40
1.0
  9
$DIMTP
 40
0.0
  9
$DIMTM
 40
0.0
  9
$DIMTXT
 40
7.0555555556
  9
$DIMCEN
 40
2.5
  9
$DIMTSZ
 40
0.0
  9
$DIMTOL
 70
     0
  9
$DIMLIM
 70
     0
  9
$DIMTIH
 70
     1
  9
$DIMTOH
 70
     1
  9
$DIMSE1
 70
     0
  9
$DIMSE2
 70
     0
  9
$DIMTAD
 70
     1
  9
$DIMZIN
 70
     0
  9
$DIMBLK
  1

  9
$DIMASO
 70
     1
  9
$DIMSHO
 70
     1
  9
$DIMPOST
  1

  9
$DIMAPOST
  1

  9
$DIMALT
 70
     0
  9
$DIMALTD
 70
     3
  9
$DIMALTF
 40
0.0393700787
  9
$DIMLFAC
 40
1.0
  9
$DIMTOFL
 70
     1
  9
$DIMTVP
 40
0.0
  9
$DIMTIX
 70
     0
  9
$DIMSOXD
 70
     0
  9
$DIMSAH
 70
     0
  9
$DIMBLK1
  1

  9
$DIMBLK2
  1

  9
$DIMSTYLE
  2
ISO-25
  9
$DIMCLRD
 70
     0
  9
$DIMCLRE
 70
     0
  9
$DIMCLRT
 70
     0
  9
$DIMTFAC
 40
1.0
  9
$DIMGAP
 40
1.524
  9
$DIMJUST
 70
     0
  9
$DIMSD1
 70
     0
  9
$DIMSD2
 70
     0
  9
$DIMTOLJ
 70
     0
  9
$DIMTZIN
 70
     0
  9
$DIMALTZ
 70
     0
  9
$DIMALTTZ
 70
     0
  9
$DIMUPT
 70
     0
  9
$DIMDEC
 70
     2
  9
$DIMTDEC
 70
     2
  9
$DIMALTU
 70
     2
  9
$DIMALTTD
 70
     3
  9
$DIMTXSTY
  7
STANDARD
  9
$DIMAUNIT
 70
     0
  9
$DIMADEC
 70
     2
  9
$DIMALTRND
 40
0.0
  9
$DIMAZIN
 70
     0
  9
$DIMDSEP
 70
    44
  9
$DIMATFIT
 70
     3
  9
$DIMFRAC
 70
     0
  9
$DIMLDRBLK
  1

  9
$DIMLUNIT
 70
     2
  9
$DIMLWD
 70
    -2
  9
$DIMLWE
 70
    -2
  9
$DIMTMOVE
 70
     0
  9
$LUNITS
 70
     2
  9
$LUPREC
 70
     2
  9
$SKETCHINC
 40
1.0
  9
$FILLETRAD
 40
10.0
  9
$AUNITS
 70
     0
  9
$AUPREC
 70
     2
  9
$MENU
  1
.
  9
$ELEVATION
 40
0.0
  9
$PELEVATION
 40
0.0
  9
$THICKNESS
 40
0.0
  9
$LIMCHECK
 70
     0
  9
$CHAMFERA
 40
0.0
  9
$CHAMFERB
 40
0.0
  9
$CHAMFERC
 40
0.0
  9
$CHAMFERD
 40
0.0
  9
$SKPOLY
 70
     0
  9
$TDCREATE
 40
2458232.486068275
  9
$TDUCREATE
 40
2458232.402734942
  9
$TDUPDATE
 40
2458232.486096597
  9
$TDUUPDATE
 40
2458232.402763264
  9
$TDINDWG
 40
0.0000000116
  9
$TDUSRTIMER
 40
0.0000000116
  9
$USRTIMER
 70
     1
  9
$ANGBASE
 50
0.0
  9
$ANGDIR
 70
     0
  9
$PDMODE
 70
     0
  9
$PDSIZE
 40
-1.0
  9
$PLINEWID
 40
0.0
  9
$SPLFRAME
 70
     0
  9
$SPLINETYPE
 70
     6
  9
$SPLINESEGS
 70
     8
  9
$HANDSEED
  5
28A
  9
$SURFTAB1
 70
     6
  9
$SURFTAB2
 70
     6
  9
$SURFTYPE
 70
     6
  9
$SURFU
 70
     6
  9
$SURFV
 70
     6
  9
$UCSBASE
  2

  9
$UCSNAME
  2

  9
$UCSORG
 10
0.0
 20
0.0
 30
0.0
  9
$UCSXDIR
 10
1.0
 20
0.0
 30
0.0
  9
$UCSYDIR
 10
0.0
 20
1.0
 30
0.0
  9
$UCSORTHOREF
  2

  9
$UCSORTHOVIEW
 70
     0
  9
$UCSORGTOP
 10
0.0
 20
0.0
 30
0.0
  9
$UCSORGBOTTOM
 10
0.0
 20
0.0
 30
0.0
  9
$UCSORGLEFT
 10
0.0
 20
0.0
 30
0.0
  9
$UCSORGRIGHT
 10
0.0
 20
0.0
 30
0.0
  9
$UCSORGFRONT
 10
0.0
 20
0.0
 30
0.0
  9
$UCSORGBACK
 10
0.0
 20
0.0
 30
0.0
  9
$PUCSBASE
  2

  9
$PUCSNAME
  2

  9
$PUCSORG
 10
0.0
 20
0.0
 30
0.0
  9
$PUCSXDIR
 10
1.0
 20
0.0
 30
0.0
  9
$PUCSYDIR
 10
0.0
 20
1.0
 30
0.0
  9
$PUCSORTHOREF
  2

  9
$PUCSORTHOVIEW
 70
     0
  9
$PUCSORGTOP
 10
0.0
 20
0.0
 30
0.0
  9
$PUCSORGBOTTOM
 10
0.0
 20
0.0
 30
0.0
  9
$PUCSORGLEFT
 10
0.0
 20
0.0
 30
0.0
  9
$PUCSORGRIGHT
 10
0.0
 20
0.0
 30
0.0
  9
$PUCSORGFRONT
 10
0.0
 20
0.0
 30
0.0
  9
$PUCSORGBACK
 10
0.0
 20
0.0
 30
0.0
  9
$USERI1
 70
     0
  9
$USERI2
 70
     0
  9
$USERI3
 70
     0
  9
$USERI4
 70
     0
  9
$USERI5
 70
     0
  9
$USERR1
 40
0.0
  9
$USERR2
 40
0.0
  9
$USERR3
 40
0.0
  9
$USERR4
 40
0.0
  9
$USERR5
 40
0.0
  9
$WORLDVIEW
 70
     1
  9
$SHADEDGE
 70
     3
  9
$SHADEDIF
 70
    70
  9
$TILEMODE
 70
     1
  9
$MAXACTVP
 70
    64
  9
$PINSBASE
 10
0.0
 20
0.0
 30
0.0
  9
$PLIMCHECK
 70
     0
  9
$PEXTMIN
 10
-600.0
 20
-26.0
 30
0.0
  9
$PEXTMAX
 10
600.0
 20
35.0
 30
0.0
  9
$PLIMMIN
 10
-693.3852140078
 20
-61.0194552529
  9
$PLIMMAX
 10
693.3852140078
 20
919.5252918288
  9
$UNITMODE
 70
     0
  9
$VISRETAIN
 70
     1
  9
$PLINEGEN
 70
     0
  9
$PSLTSCALE
 70
     1
  9
$TREEDEPTH
 70
  3020
  9
$CMLSTYLE
  2
Standard
  9
$CMLJUST
 70
     0
  9
$CMLSCALE
 40
20.0
  9
$PROXYGRAPHICS
 70
     1
  9
$MEASUREMENT
 70
     1
  9
$CELWEIGHT
370
    -1
  9
$ENDCAPS
280
     0
  9
$JOINSTYLE
280
     0
  9
$LWDISPLAY
290
     1
  9
$INSUNITS
 70
     4
  9
$HYPERLINKBASE
  1

  9
$STYLESHEET
  1

  9
$XEDIT
290
     1
  9
$CEPSNTYPE
380
     0
  9
$PSTYLEMODE
290
     1
  9
$FINGERPRINTGUID
  2
{D745BE7E-F7FE-42C6-A399-AB62BD1CABAA}
  9
$VERSIONGUID
  2
{FAEB1C32-E019-11D5-929B-00C0DF256EC4}
  9
$EXTNAMES
290
     1
  9
$PSVPSCALE
 40
0.0
  9
$OLESTARTUP
290
     0
  0
ENDSEC
  0
SECTION
  2
CLASSES
  0
CLASS
  1
ACDBDICTIONARYWDFLT
  2
AcDbDictionaryWithDefault
  3
ObjectDBX Classes
 90
        0
280
     0
281
     0
  0
CLASS
  1
VISUALSTYLE
  2
AcDbVisualStyle
  3
ObjectDBX Classes
 90
     4095
280
     0
281
     0
  0
CLASS
  1
MATERIAL
  2
AcDbMaterial
  3
ObjectDBX Classes
 90
     1153
280
     0
281
     0
  0
CLASS
  1
SCALE
  2
AcDbScale
  3
ObjectDBX Classes
 90
     1153
280
     0
281
     0
  0
CLASS
  1
TABLESTYLE
  2
AcDbTableStyle
  3
ObjectDBX Classes
 90
     4095
280
     0
281
     0
  0
CLASS
  1
MLEADERSTYLE
  2
AcDbMLeaderStyle
  3
ACDB_MLEADERSTYLE_CLASS
 90
     4095
280
     0
281
     0
  0
CLASS
  1
SUN
  2
AcDbSun
  3
SCENEOE
 90
     1153
280
     0
281
     0
  0
CLASS
  1
ACDBPLACEHOLDER
  2
AcDbPlaceHolder
  3
ObjectDBX Classes
 90
        0
280
     0
281
     0
  0
CLASS
  1
LAYOUT
  2
AcDbLayout
  3
ObjectDBX Classes
 90
        0
280
     0
281
     0
  0
ENDSEC
  0
SECTION
  2
TABLES
  0
TABLE
  2
VPORT
  5
8
330
0
100
AcDbSymbolTable
 70
     1
  0
VPORT
  5
29
330
8
100
AcDbSymbolTableRecord
100
AcDbViewportTableRecord
  2
*Active
 70
     0
 10
0.0
 20
0.0
 11
1.0
 21
1.0
 12
0.0
 22
0.0
 13
0.0
 23
0.0
 14
10.0
 24
10.0
 15
10.0
 25
10.0
 16
0.0
 26
0.0
 36
1.0
 17
0.0
 27
0.0
 37
0.0
 40
1020.0
 41
1.2
 42
50.0
 43
0.0
 44
0.0
 50
0.0
 51
0.0
 71
     0
 72
   100
 73
     1
 74
     3
 75
     0
 76
     0
 77
     0
 78
     0
281
     0
 65
     1
110
0.0
120
0.0
130
0.0
111
1.0
121
0.0
131
0.0
112
0.0
122
1.0
132
0.0
 79
     0
146
0.0
  0
ENDTAB
  0
TABLE
  2
LTYPE
  5
5
330
0
100
AcDbSymbolTable
 70
     6
  0
LTYPE
  5
14
330
5
100
AcDbSymbolTableRecord
100
AcDbLinetypeTableRecord
  2
ByBlock
 70
     0
  3

 72
    65
 73
     0
 40
0.0
  0
LTYPE
  5
15
330
5
100
AcDbSymbolTableRecord
100
AcDbLinetypeTableRecord
  2
ByLayer
 70
     0
  3

 72
    65
 73
     0
 40
0.0
  0
LTYPE
  5
16
330
5
100
AcDbSymbolTableRecord
100
AcDbLinetypeTableRecord
  2
Continuous
 70
     0
  3
Solid line
 72
    65
 73
     0
 40
0.0
  0
LTYPE
  5
6E
330
5
100
AcDbSymbolTableRecord
100
AcDbLinetypeTableRecord
  2
HIDDEN
 70
     0
  3
Hidden __ __ __ __ __ __ __ __ __ __ __ __ __ __
 72
    65
 73
     2
 40
1.905
 49
1.27
 74
     0
 49
-0.635
 74
     0
  0
LTYPE
  5
6F
330
5
100
AcDbSymbolTableRecord
100
AcDbLinetypeTableRecord
  2
PHANTOM
 70
     0
  3
Phantom ______  __  __  ______  __  __  ______
 72
    65
 73
     6
 40
12.7
 49
6.35
 74
     0
 49
-1.27
 74
     0
 49
1.27
 74
     0
 49
-1.27
 74
     0
 49
1.27
 74
     0
 49
-1.27
 74
     0
  0
LTYPE
  5
70
330
5
100
AcDbSymbolTableRecord
100
AcDbLinetypeTableRecord
  2
CENTER
 70
     0
  3
Center ____ _ ____ _ ____ _ ____ _ ____ _ ____
 72
    65
 73
     4
 40
10.16
 49
6.35
 74
     0
 49
-1.27
 74
     0
 49
1.27
 74
     0
 49
-1.27
 74
     0
  0
LTYPE
  5
71
330
5
100
AcDbSymbolTableRecord
100
AcDbLinetypeTableRecord
  2
CENTERX2
 70
     0
  3
Center (2x) ________  __  ________  __  _____
 72
    65
 73
     4
 40
20.32
 49
12.7
 74
     0
 49
-2.54
 74
     0
 49
2.54
 74
     0
 49
-2.54
 74
     0
  0
LTYPE
  5
72
330
5
100
AcDbSymbolTableRecord
100
AcDbLinetypeTableRecord
  2
DOT2
 70
     0
  3
Dot (.5x) ........................................
 72
    65
 73
     2
 40
0.635
 49
0.0
 74
     0
 49
-0.635
 74
     0
  0
ENDTAB
  0
TABLE
  2
LAYER
  5
2
330
0
100
AcDbSymbolTable
 70
     1
  0
LAYER
  5
10
330
2
100
AcDbSymbolTableRecord
100
AcDbLayerTableRecord
  2
0
 70
     0
 62
     7
  6
Continuous
370
    -3
390
F
  0
ENDTAB
  0
TABLE
  2
STYLE
  5
3
330
0
100
AcDbSymbolTable
 70
     1
  0
STYLE
  5
11
330
3
100
AcDbSymbolTableRecord
100
AcDbTextStyleTableRecord
  2
STANDARD
 70
     0
 40
0.0
 41
1.0
 50
0.0
 71
     0
 42
3.5
  3
GOTHIC.TTF
  4

1001
ACAD
1000
CENTURY GOTHIC
1071
       34
  0
ENDTAB
  0
TABLE
  2
VIEW
  5
6
330
0
100
AcDbSymbolTable
 70
     0
  0
ENDTAB
  0
TABLE
  2
UCS
  5
7
330
0
100
AcDbSymbolTable
 70
     0
  0
ENDTAB
  0
TABLE
  2
APPID
  5
9
330
0
100
AcDbSymbolTable
 70
     1
  0
APPID
  5
12
330
9
100
AcDbSymbolTableRecord
100
AcDbRegAppTableRecord
  2
ACAD
 70
     0
  0
ENDTAB
  0
TABLE
  2
DIMSTYLE
  5
A
330
0
100
AcDbSymbolTable
 70
     1
100
AcDbDimStyleTable
  0
DIMSTYLE
105
27
330
A
100
AcDbSymbolTableRecord
100
AcDbDimStyleTableRecord
  2
ISO-25
 70
     0
 41
2.5
 42
0.625
 43
3.75
 44
1.25
 73
     0
 74
     0
 77
     1
 78
     8
140
2.5
141
2.5
143
0.0393700787
147
0.625
171
     3
172
     1
178
     0
271
     2
272
     2
274
     3
278
    44
283
     0
284
     8
340
11
  0
ENDTAB
  0
TABLE
  2
BLOCK_RECORD
  5
1
330
0
100
AcDbSymbolTable
 70
     8
  0
BLOCK_RECORD
  5
1F
330
1
100
AcDbSymbolTableRecord
100
AcDbBlockTableRecord
  2
*Model_Space
340
22
  0
BLOCK_RECORD
  5
1B
330
1
100
AcDbSymbolTableRecord
100
AcDbBlockTableRecord
  2
*Paper_Space
340
1E
  0
BLOCK_RECORD
  5
23
330
1
100
AcDbSymbolTableRecord
100
AcDbBlockTableRecord
  2
*Paper_Space0
340
26
  0
BLOCK_RECORD
  5
CB
330
1
100
AcDbSymbolTableRecord
100
AcDbBlockTableRecord
  2
*Paper_Space1
340
CC
  0
BLOCK_RECORD
  5
DD
330
1
100
AcDbSymbolTableRecord
100
AcDbBlockTableRecord
  2
*Paper_Space2
340
DE
  0
BLOCK_RECORD
  5
EF
330
1
100
AcDbSymbolTableRecord
100
AcDbBlockTableRecord
  2
*Paper_Space3
340
F0
  0
BLOCK_RECORD
  5
101
330
1
100
AcDbSymbolTableRecord
100
AcDbBlockTableRecord
  2
*Paper_Space4
340
102
  0
BLOCK_RECORD
  5
12E
330
1
100
AcDbSymbolTableRecord
100
AcDbBlockTableRecord
  2
*Paper_Space5
340
12F
  0
BLOCK_RECORD
  5
1AE
330
1
100
AcDbSymbolTableRecord
100
AcDbBlockTableRecord
  2
*Paper_Space6
340
1AF
  0
BLOCK_RECORD
  5
21A
330
1
100
AcDbSymbolTableRecord
100
AcDbBlockTableRecord
  2
*Paper_Space7
340
21B
  0
ENDTAB
  0
ENDSEC
  0
SECTION
  2
BLOCKS
  0
BLOCK
  5
20
330
1F
100
AcDbEntity
  8
0
100
AcDbBlockBegin
  2
*Model_Space
 70
     0
 10
0.0
 20
0.0
 30
0.0
  3
*Model_Space
  1

  0
ENDBLK
  5
21
330
1F
100
AcDbEntity
  8
0
100
AcDbBlockEnd
  0
BLOCK
  5
1C
330
1B
100
AcDbEntity
 67
     1
  8
0
100
AcDbBlockBegin
  2
*Paper_Space
 70
     0
 10
0.0
 20
0.0
 30
0.0
  3
*Paper_Space
  1

  0
ENDBLK
  5
1D
330
1B
100
AcDbEntity
 67
     1
  8
0
100
AcDbBlockEnd
  0
BLOCK
  5
24
330
23
100
AcDbEntity
  8
0
100
AcDbBlockBegin
  2
*Paper_Space0
 70
     0
 10
0.0
 20
0.0
 30
0.0
  3
*Paper_Space0
  1

  0
LINE
  5
C4
330
23
100
AcDbEntity
  8
0
  6
Continuous
 62
     7
370
    25
100
AcDbLine
 10
500.0
 20
35.0
 30
0.0
 11
500.0
 21
0.0
 31
0.0
  0
LINE
  5
C5
330
23
100
AcDbEntity
  8
0
  6
Continuous
 62
     7
370
    25
100
AcDbLine
 10
-500.0
 20
0.0
 30
0.0
 11
500.0
 21
0.0
 31
0.0
  0
LINE
  5
C6
330
23
100
AcDbEntity
  8
0
  6
Continuous
 62
     7
370
    25
100
AcDbLine
 10
-500.0
 20
35.0
 30
0.0
 11
-500.0
 21
0.0
 31
0.0
  0
LINE
  5
C7
330
23
100
AcDbEntity
  8
0
  6
Continuous
 62
     7
370
    25
100
AcDbLine
 10
-500.0
 20
35.0
 30
0.0
 11
500.0
 21
35.0
 31
0.0
  0
LINE
  5
C8
330
23
100
AcDbEntity
  8
0
  6
Continuous
 62
     7
370
    25
100
AcDbLine
 10
130.0
 20
-26.0
 30
0.0
 11
130.0
 21
0.0
 31
0.0
  0
LINE
  5
C9
330
23
100
AcDbEntity
  8
0
  6
Continuous
 62
     7
370
    25
100
AcDbLine
 10
130.0
 20
-26.0
 30
0.0
 11
-130.0
 21
-26.0
 31
0.0
  0
LINE
  5
CA
330
23
100
AcDbEntity
  8
0
  6
Continuous
 62
     7
370
    25
100
AcDbLine
 10
-130.0
 20
-26.0
 30
0.0
 11
-130.0
 21
0.0
 31
0.0
  0
VIEWPORT
  5
27A
330
23
100
AcDbEntity
  8
0
100
AcDbViewport
 10
0.0
 20
0.0
 30
0.0
 40
205.6
 41
156.0
 68
     1
 69
     1
 12
0.0
 22
0.0
 13
0.0
 23
0.0
 14
10.0
 24
10.0
 15
10.0
 25
10.0
 16
0.0
 26
0.0
 36
1.0
 17
0.0
 27
0.0
 37
0.0
 42
50.0
 43
0.0
 44
0.0
 45
1020.0
 50
0.0
 51
0.0
 72
   100
 90
   557152
  1

281
     0
 71
     1
 74
     0
110
0.0
120
0.0
130
0.0
111
1.0
121
0.0
131
0.0
112
0.0
122
1.0
132
0.0
 79
     0
146
0.0
  0
ENDBLK
  5
25
330
23
100
AcDbEntity
  8
0
100
AcDbBlockEnd
  0
BLOCK
  5
CD
330
CB
100
AcDbEntity
  8
0
100
AcDbBlockBegin
  2
*Paper_Space1
 70
     0
 10
0.0
 20
0.0
 30
0.0
  3
*Paper_Space1
  1

  0
LINE
  5
D6
330
CB
100
AcDbEntity
  8
0
  6
Continuous
 62
     7
370
    25
100
AcDbLine
 10
-600.0
 20
35.0
 30
0.0
 11
600.0
 21
35.0
 31
0.0
  0
LINE
  5
D7
330
CB
100
AcDbEntity
  8
0
  6
Continuous
 62
     7
370
    25
100
AcDbLine
 10
600.0
 20
35.0
 30
0.0
 11
600.0
 21
0.0
 31
0.0
  0
LINE
  5
D8
330
CB
100
AcDbEntity
  8
0
  6
Continuous
 62
     7
370
    25
100
AcDbLine
 10
-600.0
 20
0.0
 30
0.0
 11
600.0
 21
0.0
 31
0.0
  0
LINE
  5
D9
330
CB
100
AcDbEntity
  8
0
  6
Continuous
 62
     7
370
    25
100
AcDbLine
 10
-600.0
 20
35.0
 30
0.0
 11
-600.0
 21
0.0
 31
0.0
  0
LINE
  5
DA
330
CB
100
AcDbEntity
  8
0
  6
Continuous
 62
     7
370
    25
100
AcDbLine
 10
-220.0
 20
-26.0
 30
0.0
 11
-220.0
 21
0.0
 31
0.0
  0
LINE
  5
DB
330
CB
100
AcDbEntity
  8
0
  6
Continuous
 62
     7
370
    25
100
AcDbLine
 10
-220.0
 20
-26.0
 30
0.0
 11
-480.0
 21
-26.0
 31
0.0
  0
LINE
  5
DC
330
CB
100
AcDbEntity
  8
0
  6
Continuous
 62
     7
370
    25
100
AcDbLine
 10
-480.0
 20
-26.0
 30
0.0
 11
-480.0
 21
0.0
 31
0.0
  0
VIEWPORT
  5
27C
330
CB
100
AcDbEntity
  8
0
100
AcDbViewport
 10
0.0
 20
0.0
 30
0.0
 40
205.6
 41
156.0
 68
     1
 69
     1
 12
0.0
 22
0.0
 13
0.0
 23
0.0
 14
10.0
 24
10.0
 15
10.0
 25
10.0
 16
0.0
 26
0.0
 36
1.0
 17
0.0
 27
0.0
 37
0.0
 42
50.0
 43
0.0
 44
0.0
 45
1020.0
 50
0.0
 51
0.0
 72
   100
 90
   557152
  1

281
     0
 71
     1
 74
     0
110
0.0
120
0.0
130
0.0
111
1.0
121
0.0
131
0.0
112
0.0
122
1.0
132
0.0
 79
     0
146
0.0
  0
ENDBLK
  5
CE
330
CB
100
AcDbEntity
  8
0
100
AcDbBlockEnd
  0
BLOCK
  5
DF
330
DD
100
AcDbEntity
  8
0
100
AcDbBlockBegin
  2
*Paper_Space2
 70
     0
 10
0.0
 20
0.0
 30
0.0
  3
*Paper_Space2
  1

  0
LINE
  5
E8
330
DD
100
AcDbEntity
  8
0
  6
Continuous
 62
     7
370
    25
100
AcDbLine
 10
-600.0
 20
35.0
 30
0.0
 11
600.0
 21
35.0
 31
0.0
  0
LINE
  5
E9
330
DD
100
AcDbEntity
  8
0
  6
Continuous
 62
     7
370
    25
100
AcDbLine
 10
-600.0
 20
35.0
 30
0.0
 11
-600.0
 21
0.0
 31
0.0
  0
LINE
  5
EA
330
DD
100
AcDbEntity
  8
0
  6
Continuous
 62
     7
370
    25
100
AcDbLine
 10
-600.0
 20
0.0
 30
0.0
 11
600.0
 21
0.0
 31
0.0
  0
LINE
  5
EB
330
DD
100
AcDbEntity
  8
0
  6
Continuous
 62
     7
370
    25
100
AcDbLine
 10
600.0
 20
35.0
 30
0.0
 11
600.0
 21
0.0
 31
0.0
  0
LINE
  5
EC
330
DD
100
AcDbEntity
  8
0
  6
Continuous
 62
     7
370
    25
100
AcDbLine
 10
480.0
 20
-26.0
 30
0.0
 11
480.0
 21
0.0
 31
0.0
  0
LINE
  5
ED
330
DD
100
AcDbEntity
  8
0
  6
Continuous
 62
     7
370
    25
100
AcDbLine
 10
480.0
 20
-26.0
 30
0.0
 11
220.0
 21
-26.0
 31
0.0
  0
LINE
  5
EE
330
DD
100
AcDbEntity
  8
0
  6
Continuous
 62
     7
370
    25
100
AcDbLine
 10
220.0
 20
-26.0
 30
0.0
 11
220.0
 21
0.0
 31
0.0
  0
VIEWPORT
  5
27E
330
DD
100
AcDbEntity
  8
0
100
AcDbViewport
 10
0.0
 20
0.0
 30
0.0
 40
205.6
 41
156.0
 68
     1
 69
     1
 12
0.0
 22
0.0
 13
0.0
 23
0.0
 14
10.0
 24
10.0
 15
10.0
 25
10.0
 16
0.0
 26
0.0
 36
1.0
 17
0.0
 27
0.0
 37
0.0
 42
50.0
 43
0.0
 44
0.0
 45
1020.0
 50
0.0
 51
0.0
 72
   100
 90
   557152
  1

281
     0
 71
     1
 74
     0
110
0.0
120
0.0
130
0.0
111
1.0
121
0.0
131
0.0
112
0.0
122
1.0
132
0.0
 79
     0
146
0.0
  0
ENDBLK
  5
E0
330
DD
100
AcDbEntity
  8
0
100
AcDbBlockEnd
  0
BLOCK
  5
F1
330
EF
100
AcDbEntity
  8
0
100
AcDbBlockBegin
  2
*Paper_Space3
 70
     0
 10
0.0
 20
0.0
 30
0.0
  3
*Paper_Space3
  1

  0
LINE
  5
FA
330
EF
100
AcDbEntity
  8
0
  6
Continuous
 62
     7
370
    25
100
AcDbLine
 10
-500.0
 20
35.0
 30
0.0
 11
-500.0
 21
0.0
 31
0.0
  0
LINE
  5
FB
330
EF
100
AcDbEntity
  8
0
  6
Continuous
 62
     7
370
    25
100
AcDbLine
 10
-500.0
 20
35.0
 30
0.0
 11
500.0
 21
35.0
 31
0.0
  0
LINE
  5
FC
330
EF
100
AcDbEntity
  8
0
  6
Continuous
 62
     7
370
    25
100
AcDbLine
 10
500.0
 20
35.0
 30
0.0
 11
500.0
 21
0.0
 31
0.0
  0
LINE
  5
FD
330
EF
100
AcDbEntity
  8
0
  6
Continuous
 62
     7
370
    25
100
AcDbLine
 10
-500.0
 20
0.0
 30
0.0
 11
500.0
 21
0.0
 31
0.0
  0
LINE
  5
FE
330
EF
100
AcDbEntity
  8
0
  6
Continuous
 62
     7
370
    25
100
AcDbLine
 10
130.0
 20
-26.0
 30
0.0
 11
130.0
 21
0.0
 31
0.0
  0
LINE
  5
FF
330
EF
100
AcDbEntity
  8
0
  6
Continuous
 62
     7
370
    25
100
AcDbLine
 10
-130.0
 20
-26.0
 30
0.0
 11
-130.0
 21
0.0
 31
0.0
  0
LINE
  5
100
330
EF
100
AcDbEntity
  8
0
  6
Continuous
 62
     7
370
    25
100
AcDbLine
 10
130.0
 20
-26.0
 30
0.0
 11
-130.0
 21
-26.0
 31
0.0
  0
VIEWPORT
  5
280
330
EF
100
AcDbEntity
  8
0
100
AcDbViewport
 10
0.0
 20
0.0
 30
0.0
 40
205.6
 41
156.0
 68
     1
 69
     1
 12
0.0
 22
0.0
 13
0.0
 23
0.0
 14
10.0
 24
10.0
 15
10.0
 25
10.0
 16
0.0
 26
0.0
 36
1.0
 17
0.0
 27
0.0
 37
0.0
 42
50.0
 43
0.0
 44
0.0
 45
1020.0
 50
0.0
 51
0.0
 72
   100
 90
   557152
  1

281
     0
 71
     1
 74
     0
110
0.0
120
0.0
130
0.0
111
1.0
121
0.0
131
0.0
112
0.0
122
1.0
132
0.0
 79
     0
146
0.0
  0
ENDBLK
  5
F2
330
EF
100
AcDbEntity
  8
0
100
AcDbBlockEnd
  0
BLOCK
  5
103
330
101
100
AcDbEntity
  8
0
100
AcDbBlockBegin
  2
*Paper_Space4
 70
     0
 10
0.0
 20
0.0
 30
0.0
  3
*Paper_Space4
  1

  0
CIRCLE
  5
10B
330
101
100
AcDbEntity
  8
0
  6
Continuous
 62
     7
370
    25
100
AcDbCircle
 10
-350.0
 20
0.0
 30
0.0
 40
45.0
  0
LINE
  5
11A
330
101
100
AcDbEntity
  8
0
  6
Continuous
 62
     7
370
    25
100
AcDbLine
 10
600.0
 20
-500.0
 30
0.0
 11
-600.0
 21
-500.0
 31
0.0
  0
LINE
  5
11B
330
101
100
AcDbEntity
  8
0
  6
Continuous
 62
     7
370
    25
100
AcDbLine
 10
-600.0
 20
500.0
 30
0.0
 11
600.0
 21
500.0
 31
0.0
  0
LINE
  5
11C
330
101
100
AcDbEntity
  8
0
  6
Continuous
 62
     7
370
    25
100
AcDbLine
 10
600.0
 20
500.0
 30
0.0
 11
600.0
 21
-500.0
 31
0.0
  0
LINE
  5
11D
330
101
100
AcDbEntity
  8
0
  6
Continuous
 62
     7
370
    25
100
AcDbLine
 10
-600.0
 20
-500.0
 30
0.0
 11
-600.0
 21
500.0
 31
0.0
  0
LINE
  5
11E
330
101
100
AcDbEntity
  8
0
  6
Continuous
 62
     7
370
    25
100
AcDbLine
 10
-220.0
 20
130.0
 30
0.0
 11
-480.0
 21
130.0
 31
0.0
  0
LINE
  5
11F
330
101
100
AcDbEntity
  8
0
  6
Continuous
 62
     7
370
    25
100
AcDbLine
 10
-220.0
 20
-130.0
 30
0.0
 11
-220.0
 21
130.0
 31
0.0
  0
LINE
  5
120
330
101
100
AcDbEntity
  8
0
  6
Continuous
 62
     7
370
    25
100
AcDbLine
 10
-480.0
 20
-130.0
 30
0.0
 11
-220.0
 21
-130.0
 31
0.0
  0
LINE
  5
121
330
101
100
AcDbEntity
  8
0
  6
Continuous
 62
     7
370
    25
100
AcDbLine
 10
-480.0
 20
130.0
 30
0.0
 11
-480.0
 21
-130.0
 31
0.0
  0
LINE
  5
122
330
101
100
AcDbEntity
  8
0
  6
Continuous
 62
     7
370
    25
100
AcDbLine
 10
-325.0
 20
-19.3431457505
 30
0.0
 11
-315.4777248918
 21
-28.8654208587
 31
0.0
  0
LINE
  5
123
330
101
100
AcDbEntity
  8
0
  6
Continuous
 62
     7
370
    25
100
AcDbLine
 10
-315.4777248918
 20
28.8654208587
 30
0.0
 11
-325.0
 21
19.3431457505
 31
0.0
  0
LINE
  5
124
330
101
100
AcDbEntity
  8
0
  6
Continuous
 62
     7
370
    25
100
AcDbLine
 10
-330.6568542495
 20
25.0
 30
0.0
 11
-321.1345791413
 21
34.5222751082
 31
0.0
  0
LINE
  5
125
330
101
100
AcDbEntity
  8
0
  6
Continuous
 62
     7
370
    25
100
AcDbLine
 10
-325.0
 20
19.3431457505
 30
0.0
 11
-325.0
 21
-19.3431457505
 31
0.0
  0
LINE
  5
126
330
101
100
AcDbEntity
  8
0
  6
Continuous
 62
     7
370
    25
100
AcDbLine
 10
-378.8654208587
 20
34.5222751082
 30
0.0
 11
-369.3431457505
 21
25.0
 31
0.0
  0
LINE
  5
127
330
101
100
AcDbEntity
  8
0
  6
Continuous
 62
     7
370
    25
100
AcDbLine
 10
-375.0
 20
19.3431457505
 30
0.0
 11
-384.5222751082
 21
28.8654208587
 31
0.0
  0
LINE
  5
128
330
101
100
AcDbEntity
  8
0
  6
Continuous
 62
     7
370
    25
100
AcDbLine
 10
-369.3431457505
 20
25.0
 30
0.0
 11
-330.6568542495
 21
25.0
 31
0.0
  0
LINE
  5
129
330
101
100
AcDbEntity
  8
0
  6
Continuous
 62
     7
370
    25
100
AcDbLine
 10
-321.1345791413
 20
-34.5222751082
 30
0.0
 11
-330.6568542495
 21
-25.0
 31
0.0
  0
LINE
  5
12A
330
101
100
AcDbEntity
  8
0
  6
Continuous
 62
     7
370
    25
100
AcDbLine
 10
-384.5222751082
 20
-28.8654208587
 30
0.0
 11
-375.0
 21
-19.3431457505
 31
0.0
  0
LINE
  5
12B
330
101
100
AcDbEntity
  8
0
  6
Continuous
 62
     7
370
    25
100
AcDbLine
 10
-369.3431457505
 20
-25.0
 30
0.0
 11
-378.8654208587
 21
-34.5222751082
 31
0.0
  0
LINE
  5
12C
330
101
100
AcDbEntity
  8
0
  6
Continuous
 62
     7
370
    25
100
AcDbLine
 10
-375.0
 20
-19.3431457505
 30
0.0
 11
-375.0
 21
19.3431457505
 31
0.0
  0
LINE
  5
12D
330
101
100
AcDbEntity
  8
0
  6
Continuous
 62
     7
370
    25
100
AcDbLine
 10
-330.6568542495
 20
-25.0
 30
0.0
 11
-369.3431457505
 21
-25.0
 31
0.0
  0
VIEWPORT
  5
282
330
101
100
AcDbEntity
  8
0
100
AcDbViewport
 10
0.0
 20
0.0
 30
0.0
 40
205.6
 41
156.0
 68
     1
 69
     1
 12
0.0
 22
0.0
 13
0.0
 23
0.0
 14
10.0
 24
10.0
 15
10.0
 25
10.0
 16
0.0
 26
0.0
 36
1.0
 17
0.0
 27
0.0
 37
0.0
 42
50.0
 43
0.0
 44
0.0
 45
1020.0
 50
0.0
 51
0.0
 72
   100
 90
   557152
  1

281
     0
 71
     1
 74
     0
110
0.0
120
0.0
130
0.0
111
1.0
121
0.0
131
0.0
112
0.0
122
1.0
132
0.0
 79
     0
146
0.0
  0
ENDBLK
  5
104
330
101
100
AcDbEntity
  8
0
100
AcDbBlockEnd
  0
BLOCK
  5
130
330
12E
100
AcDbEntity
  8
0
100
AcDbBlockBegin
  2
*Paper_Space5
 70
     0
 10
0.0
 20
0.0
 30
0.0
  3
*Paper_Space5
  1

  0
SPLINE
  5
143
330
12E
100
AcDbEntity
  8
0
  6
Continuous
 62
     7
370
    25
100
AcDbSpline
210
0.0
220
0.0
230
1.0
 70
     8
 71
     3
 72
     8
 73
     4
 74
     0
 42
0.000000001
 43
0.00000001
 40
0.0
 40
0.0
 40
0.0
 40
0.0
 40
1.0
 40
1.0
 40
1.0
 40
1.0
 10
-233.4017134135532
 20
102.2801475879006
 30
0.0
 10
-237.5078414007912
 20
99.96781347963402
 30
0.0
 10
-241.6138128278952
 20
97.66768612586323
 30
0.0
 10
-245.7196064623247
 20
95.38142099532345
 30
0.0
  0
SPLINE
  5
146
330
12E
100
AcDbEntity
  8
0
  6
Continuous
 62
     7
370
    25
100
AcDbSpline
210
0.0
220
0.0
230
1.0
 70
     8
 71
     3
 72
    20
 73
    16
 74
     0
 42
0.000000001
 43
0.00000001
 40
0.0
 40
0.0
 40
0.0
 40
0.0
 40
0.2499999999999992
 40
0.2499999999999992
 40
0.3749999999999993
 40
0.3749999999999993
 40
0.4999999999999994
 40
0.4999999999999994
 40
0.6249999999999996
 40
0.6249999999999996
 40
0.7499999999999997
 40
0.7499999999999997
 40
0.8749999999999999
 40
0.8749999999999999
 40
1.0
 40
1.0
 40
1.0
 40
1.0
 10
-249.2551403682577
 20
95.39809164212143
 30
0.0
 10
-258.1243535323753
 20
100.4161532987653
 30
0.0
 10
-266.9935488255545
 20
105.4320790638684
 30
0.0
 10
-280.2974906596161
 20
112.9737546686944
 30
0.0
 10
-284.7321545582886
 20
115.490783201072
 30
0.0
 10
-293.6015758050463
 20
120.5424761214647
 30
0.0
 10
-298.0363327758645
 20
123.0770069650193
 30
0.0
 10
-306.9060623768448
 20
128.1870175728565
 30
0.0
 10
-311.3407552077494
 20
130.7641687228367
 30
0.0
 10
-320.2096679255561
 20
135.9793756592405
 30
0.0
 10
-324.6438898073409
 20
138.6171830428266
 30
0.0
 10
-333.5121587108468
 20
143.915281900659
 30
0.0
 10
-337.9461504630603
 20
146.5734126926168
 30
0.0
 10
-346.814261011898
 20
151.8815892019761
 30
0.0
 10
-351.2483690723902
 20
154.532318164124
 30
0.0
 10
-355.6825696258764
 20
157.1771608952386
 30
0.0
  0
SPLINE
  5
147
330
12E
100
AcDbEntity
  8
0
  6
Continuous
 62
     7
370
    25
100
AcDbSpline
210
0.0
220
0.0
230
1.0
 70
     8
 71
     3
 72
    20
 73
    16
 74
     0
 42
0.000000001
 43
0.00000001
 40
0.0
 40
0.0
 40
0.0
 40
0.0
 40
0.1249999999999951
 40
0.1249999999999951
 40
0.2499999999999901
 40
0.2499999999999901
 40
0.3749999999999852
 40
0.3749999999999852
 40
0.4999999999999802
 40
0.4999999999999802
 40
0.6249999999999754
 40
0.6249999999999754
 40
0.7499999999999704
 40
0.7499999999999704
 40
1.0
 40
1.0
 40
1.0
 40
1.0
 10
-245.7196064623247
 20
95.38142099532345
 30
0.0
 10
-245.8363141730027
 20
95.31643361574582
 30
0.0
 10
-245.9625193094292
 20
95.25901340625278
 30
0.0
 10
-246.2331494703539
 20
95.15869186653319
 30
0.0
 10
-246.3792845026776
 20
95.11544795636814
 30
0.0
 10
-246.6818894332999
 20
95.04650752963151
 30
0.0
 10
-246.8376176437983
 20
95.02071971612058
 30
0.0
 10
-247.1578456351813
 20
94.98634865193603
 30
0.0
 10
-247.3234011224333
 20
94.97795138859968
 30
0.0
 10
-247.6494168494173
 20
94.97945054672044
 30
0.0
 10
-247.8115086721454
 20
94.98906054409566
 30
0.0
 10
-248.1338170799155
 20
95.02641219406732
 30
0.0
 10
-248.2916074559834
 20
95.05403504651525
 30
0.0
 10
-248.7428139939852
 20
95.16082761416288
 30
0.0
 10
-249.0216990247617
 20
95.26601419249921
 30
0.0
 10
-249.2551403682578
 20
95.39809164212147
 30
0.0
  0
SPLINE
  5
148
330
12E
100
AcDbEntity
  8
0
  6
Continuous
 62
     7
370
    25
100
AcDbSpline
210
0.0
220
0.0
230
1.0
 70
     8
 71
     3
 72
    14
 73
    10
 74
     0
 42
0.000000001
 43
0.00000001
 40
0.0
 40
0.0
 40
0.0
 40
0.0
 40
0.25
 40
0.25
 40
0.5
 40
0.5
 40
0.75
 40
0.75
 40
1.0
 40
1.0
 40
1.0
 40
1.0
 10
-148.4359484271811
 20
151.3298396624811
 30
0.0
 10
-155.5162984346493
 20
147.172569459012
 30
0.0
 10
-162.5966773135213
 20
143.0197519750418
 30
0.0
 10
-176.7576643187357
 20
134.7494864369891
 30
0.0
 10
-183.8382093293764
 20
130.6334671721351
 30
0.0
 10
-197.9994525519423
 20
122.4583554719975
 30
0.0
 10
-205.0799975346388
 20
118.3993514939184
 30
0.0
 10
-219.2409845412771
 20
110.3196894529777
 30
0.0
 10
-226.3213634090995
 20
106.2976754958733
 30
0.0
 10
-233.4017134135532
 20
102.2801475879006
 30
0.0
  0
SPLINE
  5
14A
330
12E
100
AcDbEntity
  8
0
  6
Continuous
 62
     7
370
    25
100
AcDbSpline
210
0.0
220
0.0
230
1.0
 70
     8
 71
     3
 72
     8
 73
     4
 74
     0
 42
0.000000001
 43
0.00000001
 40
0.0
 40
0.0
 40
0.0
 40
0.0
 40
1.0
 40
1.0
 40
1.0
 40
1.0
 10
-136.1180553784097
 20
158.6530496615833
 30
0.0
 10
-140.2238490128392
 20
156.1988663650926
 30
0.0
 10
-144.3298204399431
 20
153.7583400167806
 30
0.0
 10
-148.4359484271811
 20
151.3298396624811
 30
0.0
  0
SPLINE
  5
14B
330
12E
100
AcDbEntity
  8
0
  6
Continuous
 62
     7
370
    25
100
AcDbSpline
210
0.0
220
0.0
230
1.0
 70
     8
 71
     3
 72
    20
 73
    16
 74
     0
 42
0.000000001
 43
0.00000001
 40
0.0
 40
0.0
 40
0.0
 40
0.0
 40
0.1249999999999992
 40
0.1249999999999992
 40
0.2499999999999983
 40
0.2499999999999983
 40
0.3749999999999975
 40
0.3749999999999975
 40
0.4999999999999967
 40
0.4999999999999967
 40
0.6249999999999958
 40
0.6249999999999958
 40
0.749999999999995
 40
0.749999999999995
 40
1.0
 40
1.0
 40
1.0
 40
1.0
 10
-136.1180553784099
 20
160.7107405879381
 30
0.0
 10
-136.0013350233012
 20
160.6447020422766
 30
0.0
 10
-135.8980086331894
 20
160.5729090107266
 30
0.0
 10
-135.7170505901867
 20
160.4182884138037
 30
0.0
 10
-135.6387940418123
 20
160.3344745260397
 30
0.0
 10
-135.5134423722175
 20
160.1603291644396
 30
0.0
 10
-135.4661880878263
 20
160.0704288716977
 30
0.0
 10
-135.4022432928815
 20
159.8850315088462
 30
0.0
 10
-135.3858762653404
 20
159.7889192979752
 30
0.0
 10
-135.3857686697204
 20
159.5991481762645
 30
0.0
 10
-135.4015043900172
 20
159.5045457644906
 30
0.0
 10
-135.46529963553
 20
159.3159261901772
 30
0.0
 10
-135.5131619574547
 20
159.2233368988398
 30
0.0
 10
-135.6995867552904
 20
158.9577858262443
 30
0.0
 10
-135.8846403070093
 20
158.7925704023676
 30
0.0
 10
-136.1180553784103
 20
158.6530496615837
 30
0.0
  0
SPLINE
  5
14C
330
12E
100
AcDbEntity
  8
0
  6
Continuous
 62
     7
370
    25
100
AcDbSpline
210
0.0
220
0.0
230
1.0
 70
     8
 71
     3
 72
    20
 73
    16
 74
     0
 42
0.000000001
 43
0.00000001
 40
0.0
 40
0.0
 40
0.0
 40
0.0
 40
0.125
 40
0.125
 40
0.25
 40
0.25
 40
0.375
 40
0.375
 40
0.5
 40
0.5
 40
0.625
 40
0.625
 40
0.75
 40
0.75
 40
1.0
 40
1.0
 40
1.0
 40
1.0
 10
-242.5454846360286
 20
222.4898098410551
 30
0.0
 10
-238.1112841740999
 20
219.8449671645514
 30
0.0
 10
-233.6771762061878
 20
217.1942382578931
 30
0.0
 10
-224.8090658436811
 20
211.8860618603032
 30
0.0
 10
-220.3750741309122
 20
209.2279310922449
 30
0.0
 10
-211.5068055209169
 20
203.929832408006
 30
0.0
 10
-207.0725838319828
 20
201.2920251355114
 30
0.0
 10
-198.2036709103612
 20
196.0768180724259
 30
0.0
 10
-193.7689774627081
 20
193.499666561848
 30
0.0
 10
-184.8992474278969
 20
188.3896557049602
 30
0.0
 10
-180.4644908369828
 20
185.8551250797475
 30
0.0
 10
-171.5950696311107
 20
180.8034321825244
 30
0.0
 10
-167.1604057182915
 20
178.2864036420367
 30
0.0
 10
-153.8564638477762
 20
170.7447280164889
 30
0.0
 10
-144.9872685551022
 20
165.7288022516965
 30
0.0
 10
-136.11805537841
 20
160.7107405879381
 30
0.0
  0
SPLINE
  5
14E
330
12E
100
AcDbEntity
  8
0
  6
Continuous
 62
     7
370
    25
100
AcDbSpline
210
0.0
220
0.0
230
1.0
 70
     8
 71
     3
 72
     8
 73
     4
 74
     0
 42
0.000000001
 43
0.00000001
 40
0.0
 40
0.0
 40
0.0
 40
0.0
 40
1.0
 40
1.0
 40
1.0
 40
1.0
 10
-245.7196064623248
 20
224.4871496076991
 30
0.0
 10
-244.661707783234
 20
223.8178098827877
 30
0.0
 10
-243.6036653858123
 20
223.1520748226718
 30
0.0
 10
-242.5454846360286
 20
222.4898098410551
 30
0.0
  0
SPLINE
  5
14F
330
12E
100
AcDbEntity
  8
0
  6
Continuous
 62
     7
370
    25
100
AcDbSpline
210
0.0
220
0.0
230
1.0
 70
     8
 71
     3
 72
    20
 73
    16
 74
     0
 42
0.000000001
 43
0.00000001
 40
0.0
 40
0.0
 40
0.0
 40
0.0
 40
0.1249999999999956
 40
0.1249999999999956
 40
0.2499999999999912
 40
0.2499999999999912
 40
0.3749999999999868
 40
0.3749999999999868
 40
0.4999999999999823
 40
0.4999999999999823
 40
0.6249999999999779
 40
0.6249999999999779
 40
0.7499999999999736
 40
0.7499999999999736
 40
1.0
 40
1.0
 40
1.0
 40
1.0
 10
-249.2551403682571
 20
224.5530502042262
 30
0.0
 10
-249.1383899723048
 20
224.6228068305908
 30
0.0
 10
-249.0121292792151
 20
224.6841023569552
 30
0.0
 10
-248.7413578049706
 20
224.7904699895116
 30
0.0
 10
-248.5951270199928
 20
224.8358947672915
 30
0.0
 10
-248.292391749122
 20
224.9073035336722
 30
0.0
 10
-248.1365948011294
 20
224.9334092150116
 30
0.0
 10
-247.8162207506692
 20
224.9666209103097
 30
0.0
 10
-247.650635115686
 20
224.9735042645632
 30
0.0
 10
-247.324605843356
 20
224.9673088629343
 30
0.0
 10
-247.1625075318373
 20
224.954519825815
 30
0.0
 10
-246.8401862977955
 20
224.9091237923099
 30
0.0
 10
-246.6825347795816
 20
224.8767101716263
 30
0.0
 10
-246.2315416457648
 20
224.7536114267298
 30
0.0
 10
-245.9528679432829
 20
224.6347357410244
 30
0.0
 10
-245.7196064623248
 20
224.4871496076991
 30
0.0
  0
SPLINE
  5
150
330
12E
100
AcDbEntity
  8
0
  6
Continuous
 62
     7
370
    25
100
AcDbSpline
210
0.0
220
0.0
230
1.0
 70
     8
 71
     3
 72
    18
 73
    14
 74
     0
 42
0.000000001
 43
0.00000001
 40
0.0
 40
0.0
 40
0.0
 40
0.0
 40
0.2500000000000001
 40
0.2500000000000001
 40
0.3750000000000001
 40
0.3750000000000001
 40
0.5000000000000001
 40
0.5000000000000001
 40
0.6250000000000001
 40
0.6250000000000001
 40
0.7500000000000002
 40
0.7500000000000002
 40
1.0
 40
1.0
 40
1.0
 40
1.0
 10
-358.8566914521722
 20
161.2814215379663
 30
0.0
 10
-349.723516104935
 20
166.3694248114849
 30
0.0
 10
-340.5906103210513
 20
171.4386711626042
 30
0.0
 10
-326.8913960100706
 20
179.0324954062452
 30
0.0
 10
-322.3250262651101
 20
181.5613329976338
 30
0.0
 10
-313.1917874309459
 20
186.653753857383
 30
0.0
 10
-308.6248622983323
 20
189.2209733171138
 30
0.0
 10
-299.4890216558851
 20
194.4949625726284
 30
0.0
 10
-294.9219746648331
 20
197.2006594656255
 30
0.0
 10
-285.7884067534375
 20
202.6534376564016
 30
0.0
 10
-281.2218402938113
 20
205.3969364594705
 30
0.0
 10
-267.5220494071766
 20
213.6202345637253
 30
0.0
 10
-258.3887469390473
 20
219.0958560275158
 30
0.0
 10
-249.2551403682571
 20
224.5530502042262
 30
0.0
  0
SPLINE
  5
151
330
12E
100
AcDbEntity
  8
0
  6
Continuous
 62
     7
370
    25
100
AcDbSpline
210
0.0
220
0.0
230
1.0
 70
     8
 71
     3
 72
    20
 73
    16
 74
     0
 42
0.000000001
 43
0.00000001
 40
0.0
 40
0.0
 40
0.0
 40
0.0
 40
0.125
 40
0.125
 40
0.25
 40
0.25
 40
0.375
 40
0.375
 40
0.5
 40
0.5
 40
0.625
 40
0.625
 40
0.75
 40
0.75
 40
1.0
 40
1.0
 40
1.0
 40
1.0
 10
-358.8566914521726
 20
159.1745006618825
 30
0.0
 10
-358.9733241702781
 20
159.2482949798029
 30
0.0
 10
-359.0765916753564
 20
159.3272728604103
 30
0.0
 10
-359.2574758696682
 20
159.4951787248918
 30
0.0
 10
-359.3357171171664
 20
159.5851467138663
 30
0.0
 10
-359.4610957361488
 20
159.7701555925624
 30
0.0
 10
-359.5083790868969
 20
159.8647480654643
 30
0.0
 10
-359.5724017344026
 20
160.058055270059
 30
0.0
 10
-359.5888230078366
 20
160.157403773109
 30
0.0
 10
-359.5890250308415
 20
160.3518565500203
 30
0.0
 10
-359.5733319152835
 20
160.447947250684
 30
0.0
 10
-359.5096089137805
 20
160.637775452867
 30
0.0
 10
-359.4617517227384
 20
160.7301053180261
 30
0.0
 10
-359.2753238297871
 20
160.9921283360686
 30
0.0
 10
-359.090197481917
 20
161.1513375968881
 30
0.0
 10
-358.8566914521722
 20
161.2814215379663
 30
0.0
  0
SPLINE
  5
152
330
12E
100
AcDbEntity
  8
0
  6
Continuous
 62
     7
370
    25
100
AcDbSpline
210
0.0
220
0.0
230
1.0
 70
     8
 71
     3
 72
     8
 73
     4
 74
     0
 42
0.000000001
 43
0.00000001
 40
0.0
 40
0.0
 40
0.0
 40
0.0
 40
1.0
 40
1.0
 40
1.0
 40
1.0
 10
-355.6825696258764
 20
157.1771608952386
 30
0.0
 10
-356.7407503756601
 20
157.8394258768553
 30
0.0
 10
-357.7987927730818
 20
158.5051609369711
 30
0.0
 10
-358.8566914521726
 20
159.1745006618825
 30
0.0
  0
SPLINE
  5
157
330
12E
100
AcDbEntity
  8
0
  6
Continuous
 62
     7
370
    25
100
AcDbSpline
210
0.0
220
0.0
230
1.0
 70
     8
 71
     3
 72
     9
 73
     5
 74
     0
 42
0.000000001
 43
0.00000001
 40
0.0
 40
0.0
 40
0.0
 40
0.0
 40
0.980294744761903
 40
1.0
 40
1.0
 40
1.0
 40
1.0
 10
-169.7665772233322
 20
138.8326889541337
 30
0.0
 10
-170.7096300205702
 20
138.7969815446098
 30
0.0
 10
-171.6716394593406
 20
138.7605563676774
 30
0.0
 10
-172.6336007478748
 20
138.7232959850272
 30
0.0
 10
-172.6525564405945
 20
138.7225617596768
 30
0.0
  0
SPLINE
  5
15A
330
12E
100
AcDbEntity
  8
0
  6
Continuous
 62
     7
370
    25
100
AcDbSpline
210
0.0
220
0.0
230
1.0
 70
     8
 71
     3
 72
     9
 73
     5
 74
     0
 42
0.000000001
 43
0.00000001
 40
0.0
 40
0.0
 40
0.0
 40
0.0
 40
0.3137024213784316
 40
1.0
 40
1.0
 40
1.0
 40
1.0
 10
-186.0144657969891
 20
129.3947197435921
 30
0.0
 10
-185.8515120374359
 20
129.6339801023373
 30
0.0
 10
-185.332058732494
 20
130.3966785784722
 30
0.0
 10
-184.9906096044924
 20
131.190462452298
 30
0.0
 10
-184.7562738947225
 20
131.7352344028535
 30
0.0
  0
SPLINE
  5
15B
330
12E
100
AcDbEntity
  8
0
  6
Continuous
 62
     7
370
    25
100
AcDbSpline
210
0.0
220
0.0
230
1.0
 70
    24
 71
     3
 72
     9
 73
     5
 74
     0
 42
0.000000001
 43
0.00000001
 40
0.0
 40
0.0
 40
0.0
 40
0.0
 40
0.9740179612132331
 40
1.0
 40
1.0
 40
1.0
 40
1.0
 10
-252.4873734152915
 20
97.227755165697
 30
0.0
 10
-252.4873734152908
 20
97.61109499952651
 30
0.0
 10
-252.4873734152902
 20
98.0046604665863
 30
0.0
 10
-252.4873734152916
 20
98.39757141689107
 30
0.0
 10
-252.4873734152916
 20
98.4077800444416
 30
0.0
  0
SPLINE
  5
15E
330
12E
100
AcDbEntity
  8
0
  6
Continuous
 62
     7
370
    25
100
AcDbSpline
210
0.0
220
0.0
230
1.0
 70
     8
 71
     3
 72
     9
 73
     5
 74
     0
 42
0.000000001
 43
0.00000001
 40
0.0
 40
0.0
 40
0.0
 40
0.0
 40
0.1588865522960159
 40
1.0
 40
1.0
 40
1.0
 40
1.0
 10
-267.715813136395
 20
105.8480867671705
 30
0.0
 10
-267.5385290018468
 20
105.8066396590165
 30
0.0
 10
-266.4227383198393
 20
105.5457798974128
 30
0.0
 10
-265.2608275948981
 20
105.3675050247762
 30
0.0
 10
-264.2835288591186
 20
105.2175556320139
 30
0.0
  0
LWPOLYLINE
  5
15F
330
12E
100
AcDbEntity
  8
0
  6
Continuous
 62
     7
370
    25
100
AcDbPolyline
 90
        3
 70
   128
 43
0.0
 10
-290.3356200637
 20
118.6036266131
 10
-291.0387441228
 20
120.0022469475
 10
-291.4036105915
 20
120.8736455669
  0
LWPOLYLINE
  5
160
330
12E
100
AcDbEntity
  8
0
  6
Continuous
 62
     7
370
    25
100
AcDbPolyline
 90
        3
 70
   128
 43
0.0
 10
-203.5711362391
 20
120.8736455669
 10
-203.6961061471
 20
120.5600332762
 10
-204.5842946526
 20
118.7029614522
  0
LINE
  5
17A
330
12E
100
AcDbEntity
  8
0
  6
Continuous
 62
     7
370
    25
100
AcDbLine
 10
-150.563491861
 20
152.6699093116
 30
0.0
 11
-150.563491861
 21
159.2022358067
 31
0.0
  0
LINE
  5
17B
330
12E
100
AcDbEntity
  8
0
  6
Continuous
 62
     7
370
    25
100
AcDbLine
 10
-344.4112549695
 20
159.2022358067
 30
0.0
 11
-344.4112549695
 21
152.6699093116
 31
0.0
  0
LINE
  5
17C
330
12E
100
AcDbEntity
  8
0
  6
Continuous
 62
     7
370
    25
100
AcDbLine
 10
-151.563491861
 20
149.4974133789
 30
0.0
 11
-151.563491861
 21
150.9380461753
 31
0.0
  0
LINE
  5
17D
330
12E
100
AcDbEntity
  8
0
  6
Continuous
 62
     7
370
    25
100
AcDbLine
 10
-343.4112549695
 20
150.9380461753
 30
0.0
 11
-343.4112549695
 21
149.8382657819
 31
0.0
  0
LINE
  5
17E
330
12E
100
AcDbEntity
  8
0
  6
Continuous
 62
     7
370
    25
100
AcDbLine
 10
777.8174593052
 20
-12.2414771751
 30
0.0
 11
-70.7106781187
 21
477.6033899185
 31
0.0
  0
LINE
  5
17F
330
12E
100
AcDbEntity
  8
0
  6
Continuous
 62
     7
370
    25
100
AcDbLine
 10
70.7106781187
 20
-420.4455330865
 30
0.0
 11
777.8174593052
 21
-12.2414771751
 31
0.0
  0
LINE
  5
180
330
12E
100
AcDbEntity
  8
0
  6
Continuous
 62
     7
370
    25
100
AcDbLine
 10
-777.8174593052
 20
69.3993340071
 30
0.0
 11
70.7106781187
 21
-420.4455330865
 31
0.0
  0
LINE
  5
181
330
12E
100
AcDbEntity
  8
0
  6
Continuous
 62
     7
370
    25
100
AcDbLine
 10
-70.7106781187
 20
477.6033899185
 30
0.0
 11
-777.8174593052
 21
69.3993340071
 31
0.0
  0
LINE
  5
182
330
12E
100
AcDbEntity
  8
0
  6
Continuous
 62
     7
370
    25
100
AcDbLine
 10
-70.7106781187
 20
461.275227682
 30
0.0
 11
-749.5331880577
 21
69.3993340071
 31
0.0
  0
LINE
  5
183
330
12E
100
AcDbEntity
  8
0
  6
Continuous
 62
     7
370
    25
100
AcDbLine
 10
-749.5331880577
 20
69.3993340071
 30
0.0
 11
70.7106781187
 21
-404.11737085
 31
0.0
  0
LINE
  5
184
330
12E
100
AcDbEntity
  8
0
  6
Continuous
 62
     7
370
    25
100
AcDbLine
 10
70.7106781187
 20
-404.11737085
 30
0.0
 11
749.5331880577
 21
-12.2414771751
 31
0.0
  0
LINE
  5
185
330
12E
100
AcDbEntity
  8
0
  6
Continuous
 62
     7
370
    25
100
AcDbLine
 10
749.5331880577
 20
-12.2414771751
 30
0.0
 11
-70.7106781187
 21
461.275227682
 31
0.0
  0
LINE
  5
186
330
12E
100
AcDbEntity
  8
0
  6
Continuous
 62
     7
370
    25
100
AcDbLine
 10
-777.8174593052
 20
69.3993340071
 30
0.0
 11
-777.8174593052
 21
40.8204055911
 31
0.0
  0
LINE
  5
187
330
12E
100
AcDbEntity
  8
0
  6
Continuous
 62
     7
370
    25
100
AcDbLine
 10
70.7106781187
 20
-420.4455330865
 30
0.0
 11
70.7106781187
 21
-449.0244615025
 31
0.0
  0
LINE
  5
188
330
12E
100
AcDbEntity
  8
0
  6
Continuous
 62
     7
370
    25
100
AcDbLine
 10
-777.8174593052
 20
40.8204055911
 30
0.0
 11
70.7106781187
 21
-449.0244615025
 31
0.0
  0
LINE
  5
189
330
12E
100
AcDbEntity
  8
0
  6
Continuous
 62
     7
370
    25
100
AcDbLine
 10
777.8174593052
 20
-12.2414771751
 30
0.0
 11
777.8174593052
 21
-40.8204055911
 31
0.0
  0
LINE
  5
18A
330
12E
100
AcDbEntity
  8
0
  6
Continuous
 62
     7
370
    25
100
AcDbLine
 10
70.7106781187
 20
-449.0244615025
 30
0.0
 11
777.8174593052
 21
-40.8204055911
 31
0.0
  0
LINE
  5
18B
330
12E
100
AcDbEntity
  8
0
  6
Continuous
 62
     7
370
    25
100
AcDbLine
 10
70.7106781187
 20
-404.11737085
 30
0.0
 11
-233.4017134136
 21
102.2801475879
 31
0.0
  0
LINE
  5
18C
330
12E
100
AcDbEntity
  8
0
  6
Continuous
 62
     7
370
    25
100
AcDbLine
 10
-749.5331880577
 20
69.3993340071
 30
0.0
 11
-355.6825696259
 21
157.1771608952
 31
0.0
  0
LINE
  5
18D
330
12E
100
AcDbEntity
  8
0
  6
Continuous
 62
     7
370
    25
100
AcDbLine
 10
749.5331880577
 20
-12.2414771751
 30
0.0
 11
-148.4359484272
 21
151.3298396625
 31
0.0
  0
LINE
  5
18E
330
12E
100
AcDbEntity
  8
0
  6
Continuous
 62
     7
370
    25
100
AcDbLine
 10
-242.545484636
 20
222.4898098411
 30
0.0
 11
-70.7106781187
 21
461.275227682
 31
0.0
  0
LINE
  5
18F
330
12E
100
AcDbEntity
  8
0
  6
Continuous
 62
     7
370
    25
100
AcDbLine
 10
-344.3606571104
 20
152.2603122082
 30
0.0
 11
-345.938288093
 21
151.3495652278
 31
0.0
  0
LINE
  5
190
330
12E
100
AcDbEntity
  8
0
  6
Continuous
 62
     7
370
    25
100
AcDbLine
 10
-148.7170223945
 20
151.1651585521
 30
0.0
 11
-150.6140897202
 21
152.2603122082
 31
0.0
  0
LINE
  5
191
330
12E
100
AcDbEntity
  8
0
  6
Continuous
 62
     7
370
    25
100
AcDbLine
 10
-242.4873734153
 20
98.4077800444
 30
0.0
 11
-242.4873734153
 21
97.1916568844
 31
0.0
  0
LINE
  5
192
330
12E
100
AcDbEntity
  8
0
  6
Continuous
 62
     7
370
    25
100
AcDbLine
 10
-230.5742551648
 20
105.2850768231
 30
0.0
 11
-226.9849812829
 21
105.9291897374
 31
0.0
  0
LINE
  5
193
330
12E
100
AcDbEntity
  8
0
  6
Continuous
 62
     7
370
    25
100
AcDbLine
 10
-322.3154108969
 20
138.7186480416
 30
0.0
 11
-324.9120423346
 21
138.8182643923
 31
0.0
  0
LINE
  5
194
330
12E
100
AcDbEntity
  8
0
  6
Continuous
 62
     7
370
    25
100
AcDbLine
 10
-310.1054798486
 20
131.670004882
 30
0.0
 11
-309.0105755184
 21
129.4746200199
 31
0.0
  0
LINE
  5
195
330
12E
100
AcDbEntity
  8
0
  6
Continuous
 62
     7
370
    25
100
AcDbLine
 10
-251.0229073212
 20
214.3097833547
 30
0.0
 11
-342.9467888755
 21
161.2432560862
 31
0.0
  0
LINE
  5
196
330
12E
100
AcDbEntity
  8
0
  6
Continuous
 62
     7
370
    25
100
AcDbLine
 10
-152.0279579551
 20
161.2432560862
 30
0.0
 11
-243.9518395094
 21
214.3097833547
 31
0.0
  0
LINE
  5
197
330
12E
100
AcDbEntity
  8
0
  6
Continuous
 62
     7
370
    25
100
AcDbLine
 10
-243.9518395094
 20
104.0946882587
 30
0.0
 11
-152.0279579551
 21
157.1612155271
 31
0.0
  0
LINE
  5
198
330
12E
100
AcDbEntity
  8
0
  6
Continuous
 62
     7
370
    25
100
AcDbLine
 10
-342.9467888755
 20
157.1612155271
 30
0.0
 11
-251.0229073212
 21
104.0946882587
 31
0.0
  0
LINE
  5
199
330
12E
100
AcDbEntity
  8
0
  6
Continuous
 62
     7
370
    25
100
AcDbLine
 10
-251.0229073212
 20
104.0946882587
 30
0.0
 11
-251.0229073212
 21
97.5623617636
 31
0.0
  0
LINE
  5
19A
330
12E
100
AcDbEntity
  8
0
  6
Continuous
 62
     7
370
    25
100
AcDbLine
 10
-243.9518395094
 20
104.0946882587
 30
0.0
 11
-243.9518395094
 21
97.5623617636
 31
0.0
  0
LINE
  5
19B
330
12E
100
AcDbEntity
  8
0
  6
Continuous
 62
     7
370
    25
100
AcDbLine
 10
-342.9467888755
 20
157.1612155271
 30
0.0
 11
-342.9467888755
 21
150.628889032
 31
0.0
  0
LINE
  5
19C
330
12E
100
AcDbEntity
  8
0
  6
Continuous
 62
     7
370
    25
100
AcDbLine
 10
-342.9467888755
 20
150.628889032
 30
0.0
 11
-251.0229073212
 21
97.5623617636
 31
0.0
  0
LINE
  5
19D
330
12E
100
AcDbEntity
  8
0
  6
Continuous
 62
     7
370
    25
100
AcDbLine
 10
-152.0279579551
 20
157.1612155271
 30
0.0
 11
-152.0279579551
 21
150.628889032
 31
0.0
  0
LINE
  5
19E
330
12E
100
AcDbEntity
  8
0
  6
Continuous
 62
     7
370
    25
100
AcDbLine
 10
-243.9518395094
 20
97.5623617636
 30
0.0
 11
-152.0279579551
 21
150.628889032
 31
0.0
  0
LINE
  5
19F
330
12E
100
AcDbEntity
  8
0
  6
Continuous
 62
     7
370
    25
100
AcDbLine
 10
-251.4873734153
 20
97.8304923324
 30
0.0
 11
-251.4873734153
 21
96.6616872192
 31
0.0
  0
LINE
  5
1A0
330
12E
100
AcDbEntity
  8
0
  6
Continuous
 62
     7
370
    25
100
AcDbLine
 10
-243.4873734153
 20
97.8304923324
 30
0.0
 11
-243.4873734153
 21
96.63159953
 31
0.0
  0
LINE
  5
1A1
330
12E
100
AcDbEntity
  8
0
  6
Continuous
 62
    60
370
    25
100
AcDbLine
 10
-358.8566914522
 20
159.1745006619
 30
0.0
 11
-358.8566914522
 21
161.281421538
 31
0.0
  0
LINE
  5
1A2
330
12E
100
AcDbEntity
  8
0
  6
Continuous
 62
    60
370
    25
100
AcDbLine
 10
-136.1180553784
 20
158.6530496616
 30
0.0
 11
-136.1180553784
 21
160.7107405879
 31
0.0
  0
LINE
  5
1A3
330
12E
100
AcDbEntity
  8
0
  6
Continuous
 62
    60
370
    25
100
AcDbLine
 10
-249.2551403683
 20
214.9687791154
 30
0.0
 11
-249.2551403683
 21
224.5530502042
 31
0.0
  0
LINE
  5
1A4
330
12E
100
AcDbEntity
  8
0
  6
Continuous
 62
    60
370
    25
100
AcDbLine
 10
-245.7196064623
 20
214.9687791154
 30
0.0
 11
-245.7196064623
 21
224.4871496077
 31
0.0
  0
LINE
  5
1A5
330
12E
100
AcDbEntity
  8
0
  6
Continuous
 62
    60
370
    25
100
AcDbLine
 10
-155.563491861
 20
148.5878687525
 30
0.0
 11
-155.563491861
 21
147.1538151878
 31
0.0
  0
LINE
  5
1A6
330
12E
100
AcDbEntity
  8
0
  6
Continuous
 62
    60
370
    25
100
AcDbLine
 10
-339.4112549695
 20
148.5878687525
 30
0.0
 11
-339.4112549695
 21
147.4460542483
 31
0.0
  0
ARC
  5
1A7
330
12E
100
AcDbEntity
  8
0
  6
Continuous
 62
     7
370
    25
100
AcDbCircle
 10
-247.4873734153
 20
207.4862279299
 30
0.0
 40
7.685109539558312
100
AcDbArc
 50
62.6096722366
 51
117.3903277634
  0
ARC
  5
1A8
330
12E
100
AcDbEntity
  8
0
  6
Continuous
 62
     7
370
    25
100
AcDbCircle
 10
-152.8025930891
 20
159.2022358067
 30
0.0
 40
2.183076584171405
100
AcDbArc
 50
290.7834207995
 51
69.2165792005
  0
ARC
  5
1A9
330
12E
100
AcDbEntity
  8
0
  6
Continuous
 62
     7
370
    25
100
AcDbCircle
 10
-247.4873734153
 20
110.9182436834
 30
0.0
 40
7.685109539558551
100
AcDbArc
 50
242.6096722366
 51
297.3903277634
  0
ARC
  5
1AA
330
12E
100
AcDbEntity
  8
0
  6
Continuous
 62
     7
370
    25
100
AcDbCircle
 10
-342.1721537415
 20
159.2022358067
 30
0.0
 40
2.183076584171401
100
AcDbArc
 50
110.7834207995
 51
249.2165792005
  0
ARC
  5
1AB
330
12E
100
AcDbEntity
  8
0
  6
Continuous
 62
     7
370
    25
100
AcDbCircle
 10
-247.4873734153
 20
104.3859171883
 30
0.0
 40
7.685109539558577
100
AcDbArc
 50
242.6096722366
 51
297.3903277634
  0
ARC
  5
1AC
330
12E
100
AcDbEntity
  8
0
  6
Continuous
 62
     7
370
    25
100
AcDbCircle
 10
-153.0657771735
 20
152.9194411961
 30
0.0
 40
2.514696392468748
100
AcDbArc
 50
294.3746582936
 51
354.3052007488
  0
ARC
  5
1AD
330
12E
100
AcDbEntity
  8
0
  6
Continuous
 62
     7
370
    25
100
AcDbCircle
 10
-341.9089696571
 20
152.9194411961
 30
0.0
 40
2.514696392469273
100
AcDbArc
 50
185.6947992512
 51
245.6253417064
  0
VIEWPORT
  5
284
330
12E
100
AcDbEntity
  8
0
100
AcDbViewport
 10
0.0
 20
0.0
 30
0.0
 40
205.6
 41
156.0
 68
     1
 69
     1
 12
0.0
 22
0.0
 13
0.0
 23
0.0
 14
10.0
 24
10.0
 15
10.0
 25
10.0
 16
0.0
 26
0.0
 36
1.0
 17
0.0
 27
0.0
 37
0.0
 42
50.0
 43
0.0
 44
0.0
 45
1020.0
 50
0.0
 51
0.0
 72
   100
 90
   557152
  1

281
     0
 71
     1
 74
     0
110
0.0
120
0.0
130
0.0
111
1.0
121
0.0
131
0.0
112
0.0
122
1.0
132
0.0
 79
     0
146
0.0
  0
ENDBLK
  5
131
330
12E
100
AcDbEntity
  8
0
100
AcDbBlockEnd
  0
BLOCK
  5
1B0
330
1AE
100
AcDbEntity
  8
0
100
AcDbBlockBegin
  2
*Paper_Space6
 70
     0
 10
0.0
 20
0.0
 30
0.0
  3
*Paper_Space6
  1

  0
SPLINE
  5
1C3
330
1AE
100
AcDbEntity
  8
0
  6
Continuous
 62
     7
370
    25
100
AcDbSpline
210
0.0
220
0.0
230
1.0
 70
     8
 71
     3
 72
     8
 73
     4
 74
     0
 42
0.000000001
 43
0.00000001
 40
0.0
 40
0.0
 40
0.0
 40
0.0
 40
1.0
 40
1.0
 40
1.0
 40
1.0
 10
-266.8318904916447
 20
54.9471890804831
 30
0.0
 10
-269.5419634947419
 20
52.36304776161847
 30
0.0
 10
-272.2519331670628
 20
49.79172651380591
 30
0.0
 10
-274.9617854949832
 20
47.23496398320377
 30
0.0
  0
SPLINE
  5
1C6
330
1AE
100
AcDbEntity
  8
0
  6
Continuous
 62
     7
370
    25
100
AcDbSpline
210
0.0
220
0.0
230
1.0
 70
     8
 71
     3
 72
    20
 73
    16
 74
     0
 42
0.000000001
 43
0.00000001
 40
0.0
 40
0.0
 40
0.0
 40
0.0
 40
0.2499999999999992
 40
0.2499999999999992
 40
0.3749999999999993
 40
0.3749999999999993
 40
0.4999999999999994
 40
0.4999999999999994
 40
0.6249999999999996
 40
0.6249999999999996
 40
0.7499999999999997
 40
0.7499999999999997
 40
0.8749999999999999
 40
0.8749999999999999
 40
1.0
 40
1.0
 40
1.0
 40
1.0
 10
-278.3395692715023
 20
46.71460628753884
 30
0.0
 10
-289.4327917607604
 20
49.62240409508565
 30
0.0
 10
-300.5259918978332
 20
52.52796449624211
 30
0.0
 10
-317.1659783338879
 20
56.90493741629431
 30
0.0
 10
-322.7126612676215
 20
58.36721669410209
 30
0.0
 10
-333.8061440175116
 20
61.31026370139956
 30
0.0
 10
-339.3529433617991
 20
62.79089134238948
 30
0.0
 10
-350.4468117876148
 20
65.79507555062635
 30
0.0
 10
-355.9935309085142
 20
67.32046111177856
 30
0.0
 10
-367.0863776127156
 20
70.43529298516948
 30
0.0
 10
-372.6325076911293
 20
72.02447800463788
 30
0.0
 10
-383.724549140665
 20
75.22649734346317
 30
0.0
 10
-389.2703913831131
 20
76.83707818330471
 30
0.0
 10
-400.3622347695812
 20
80.04971871631028
 30
0.0
 10
-405.9082224853187
 20
81.65249850533255
 30
0.0
 10
-411.4543258872329
 20
83.24907458681166
 30
0.0
  0
SPLINE
  5
1C7
330
1AE
100
AcDbEntity
  8
0
  6
Continuous
 62
     7
370
    25
100
AcDbSpline
210
0.0
220
0.0
230
1.0
 70
     8
 71
     3
 72
    20
 73
    16
 74
     0
 42
0.000000001
 43
0.00000001
 40
0.0
 40
0.0
 40
0.0
 40
0.0
 40
0.1249999999999951
 40
0.1249999999999951
 40
0.2499999999999901
 40
0.2499999999999901
 40
0.3749999999999852
 40
0.3749999999999852
 40
0.4999999999999802
 40
0.4999999999999802
 40
0.6249999999999754
 40
0.6249999999999754
 40
0.7499999999999704
 40
0.7499999999999704
 40
1.0
 40
1.0
 40
1.0
 40
1.0
 10
-274.9617854949832
 20
47.23496398320377
 30
0.0
 10
-275.0388133949768
 20
47.16228768033466
 30
0.0
 10
-275.1288702587169
 20
47.09458429894648
 30
0.0
 10
-275.3339788061209
 20
46.96871969361217
 30
0.0
 10
-275.4504796782576
 20
46.9100098892757
 30
0.0
 10
-275.7025561529271
 20
46.80588885298931
 30
0.0
 10
-275.8373770550986
 20
46.7605124010524
 30
0.0
 10
-276.1244255436435
 20
46.68300332555152
 30
0.0
 10
-276.277756886665
 20
46.65086862975758
 30
0.0
 10
-276.5891891406781
 20
46.60286021253161
 30
0.0
 10
-276.7486940252878
 20
46.58649732915891
 30
0.0
 10
-277.0754600120695
 20
46.56940718897199
 30
0.0
 10
-277.2403468442964
 20
46.56894604393046
 30
0.0
 10
-277.7264855040015
 20
46.59116711802614
 30
0.0
 10
-278.0475910865524
 20
46.638071851592
 30
0.0
 10
-278.3395692715023
 20
46.71460628753888
 30
0.0
  0
SPLINE
  5
1C8
330
1AE
100
AcDbEntity
  8
0
  6
Continuous
 62
     7
370
    25
100
AcDbSpline
210
0.0
220
0.0
230
1.0
 70
     8
 71
     3
 72
    14
 73
    10
 74
     0
 42
0.000000001
 43
0.00000001
 40
0.0
 40
0.0
 40
0.0
 40
0.0
 40
0.25
 40
0.25
 40
0.5
 40
0.5
 40
0.75
 40
0.75
 40
1.0
 40
1.0
 40
1.0
 40
1.0
 10
-210.7538952141621
 20
109.6810316217232
 30
0.0
 10
-215.4269754170581
 20
105.046614540717
 30
0.0
 10
-220.1000746752811
 20
100.4168706193309
 30
0.0
 10
-229.4464244966506
 20
91.1945032388901
 30
0.0
 10
-234.1196334029954
 20
86.60338206714796
 30
0.0
 10
-243.4661523295973
 20
77.48089306411084
 30
0.0
 10
-248.1393612174987
 20
72.94962394094163
 30
0.0
 10
-257.485711039808
 20
63.92734341801148
 30
0.0
 10
-262.1588102907384
 20
59.43491107341148
 30
0.0
 10
-266.8318904916447
 20
54.9471890804831
 30
0.0
  0
SPLINE
  5
1CB
330
1AE
100
AcDbEntity
  8
0
  6
Continuous
 62
     7
370
    25
100
AcDbSpline
210
0.0
220
0.0
230
1.0
 70
     8
 71
     3
 72
     8
 73
     4
 74
     0
 42
0.000000001
 43
0.00000001
 40
0.0
 40
0.0
 40
0.0
 40
0.0
 40
1.0
 40
1.0
 40
1.0
 40
1.0
 10
-340.7531159026929
 20
157.3826564435687
 30
0.0
 10
-339.4299426740095
 20
156.9615015041659
 30
0.0
 10
-338.1065896887467
 20
156.5441688182551
 30
0.0
 10
-336.7830636584229
 20
156.1305156754954
 30
0.0
  0
SPLINE
  5
1CC
330
1AE
100
AcDbEntity
  8
0
  6
Continuous
 62
     7
370
    25
100
AcDbSpline
210
0.0
220
0.0
230
1.0
 70
     8
 71
     3
 72
    20
 73
    16
 74
     0
 42
0.000000001
 43
0.00000001
 40
0.0
 40
0.0
 40
0.0
 40
0.0
 40
0.1249999999999956
 40
0.1249999999999956
 40
0.2499999999999912
 40
0.2499999999999912
 40
0.3749999999999868
 40
0.3749999999999868
 40
0.4999999999999823
 40
0.4999999999999823
 40
0.6249999999999779
 40
0.6249999999999779
 40
0.7499999999999736
 40
0.7499999999999736
 40
1.0
 40
1.0
 40
1.0
 40
1.0
 10
-344.1308996792111
 20
156.9139781036799
 30
0.0
 10
-344.0538436066399
 20
156.9916625738767
 30
0.0
 10
-343.9637451580703
 20
157.0634381040733
 30
0.0
 10
-343.7585201056813
 20
157.1956639814491
 30
0.0
 10
-343.641935246919
 20
157.2566748369169
 30
0.0
 10
-343.3897320324661
 20
157.3634077066984
 30
0.0
 10
-343.2548412689188
 20
157.409129915544
 30
0.0
 10
-342.9676374752775
 20
157.4854502394955
 30
0.0
 10
-342.8142632677507
 20
157.5160057138776
 30
0.0
 10
-342.5027904411824
 20
157.5590969494908
 30
0.0
 10
-342.3432652512984
 20
157.5721290510249
 30
0.0
 10
-342.0164565255058
 20
157.5807882763519
 30
0.0
 10
-341.8516989099617
 20
157.5762004963414
 30
0.0
 10
-341.3657541648452
 20
157.5368333216047
 30
0.0
 10
-341.0448691234758
 20
157.4755190464054
 30
0.0
 10
-340.7531159026929
 20
157.3826564435687
 30
0.0
  0
SPLINE
  5
1CD
330
1AE
100
AcDbEntity
  8
0
  6
Continuous
 62
     7
370
    25
100
AcDbSpline
210
0.0
220
0.0
230
1.0
 70
     8
 71
     3
 72
    18
 73
    14
 74
     0
 42
0.000000001
 43
0.00000001
 40
0.0
 40
0.0
 40
0.0
 40
0.0
 40
0.2500000000000001
 40
0.2500000000000001
 40
0.3750000000000001
 40
0.3750000000000001
 40
0.5000000000000001
 40
0.5000000000000001
 40
0.6250000000000001
 40
0.6250000000000001
 40
0.7500000000000002
 40
0.7500000000000002
 40
1.0
 40
1.0
 40
1.0
 40
1.0
 10
-416.4686849633708
 20
86.3100820490175
 30
0.0
 10
-410.4407257721254
 20
91.99991036431912
 30
0.0
 10
-404.4129444945665
 20
97.67003822697556
 30
0.0
 10
-395.3713678600288
 20
106.1646794296329
 30
0.0
 10
-392.357532098835
 20
108.9936667443093
 30
0.0
 10
-386.3295310057767
 20
114.6881348638649
 30
0.0
 10
-383.3153286848726
 20
117.5574349161454
 30
0.0
 10
-377.2856103802688
 20
123.4426045844466
 30
0.0
 10
-374.2713276319486
 20
126.4572765821664
 30
0.0
 10
-368.243109345631
 20
132.5300439544961
 30
0.0
 10
-365.2291437513908
 20
135.5843803281022
 30
0.0
 10
-356.1871865729152
 20
144.7398364901715
 30
0.0
 10
-350.1591434809978
 20
150.8365735548474
 30
0.0
 10
-344.1308996792111
 20
156.9139781036799
 30
0.0
  0
SPLINE
  5
1CE
330
1AE
100
AcDbEntity
  8
0
  6
Continuous
 62
     7
370
    25
100
AcDbSpline
210
0.0
220
0.0
230
1.0
 70
     8
 71
     3
 72
    20
 73
    16
 74
     0
 42
0.000000001
 43
0.00000001
 40
0.0
 40
0.0
 40
0.0
 40
0.0
 40
0.125
 40
0.125
 40
0.25
 40
0.25
 40
0.375
 40
0.375
 40
0.5
 40
0.5
 40
0.625
 40
0.625
 40
0.75
 40
0.75
 40
1.0
 40
1.0
 40
1.0
 40
1.0
 10
-415.4243781315029
 20
84.50121535488495
 30
0.0
 10
-415.5702572154228
 20
84.54764744360665
 30
0.0
 10
-415.7061716959303
 20
84.600472378658
 30
0.0
 10
-415.9588763320669
 20
84.71839333405705
 30
0.0
 10
-416.0767668667121
 20
84.78429177335666
 30
0.0
 10
-416.2859011528822
 20
84.9249616596425
 30
0.0
 10
-416.3770597900667
 20
84.99932681212628
 30
0.0
 10
-416.5327934223789
 20
85.15602899691694
 30
0.0
 10
-416.5973843210203
 20
85.2389563628419
 30
0.0
 10
-416.693886649865
 20
85.40589814873769
 30
0.0
 10
-416.7267795963336
 20
85.49068329616227
 30
0.0
 10
-416.7611214076438
 20
85.66291490929731
 30
0.0
 10
-416.7620350022618
 20
85.7491275835759
 30
0.0
 10
-416.7172553514106
 20
86.00111113946035
 30
0.0
 10
-416.622800565524
 20
86.16461136994671
 30
0.0
 10
-416.4686849633708
 20
86.3100820490175
 30
0.0
  0
SPLINE
  5
1CF
330
1AE
100
AcDbEntity
  8
0
  6
Continuous
 62
     7
370
    25
100
AcDbSpline
210
0.0
220
0.0
230
1.0
 70
     8
 71
     3
 72
     8
 73
     4
 74
     0
 42
0.000000001
 43
0.00000001
 40
0.0
 40
0.0
 40
0.0
 40
0.0
 40
1.0
 40
1.0
 40
1.0
 40
1.0
 10
-411.4543258872329
 20
83.24907458681166
 30
0.0
 10
-412.7778519175567
 20
83.66272772957144
 30
0.0
 10
-414.1012049028194
 20
84.0800604154822
 30
0.0
 10
-415.4243781315029
 20
84.50121535488495
 30
0.0
  0
SPLINE
  5
1D0
330
1AE
100
AcDbEntity
  8
0
  6
Continuous
 62
     7
370
    25
100
AcDbSpline
210
0.0
220
0.0
230
1.0
 70
     8
 71
     3
 72
     8
 73
     4
 74
     0
 42
0.000000001
 43
0.00000001
 40
0.0
 40
0.0
 40
0.0
 40
0.0
 40
1.0
 40
1.0
 40
1.0
 40
1.0
 10
-202.6240002108236
 20
117.8388600378661
 30
0.0
 10
-205.333852538744
 20
115.1058246756408
 30
0.0
 10
-208.0438222110648
 20
112.3871189671614
 30
0.0
 10
-210.7538952141621
 20
109.6810316217232
 30
0.0
  0
SPLINE
  5
1D1
330
1AE
100
AcDbEntity
  8
0
  6
Continuous
 62
     7
370
    25
100
AcDbSpline
210
0.0
220
0.0
230
1.0
 70
     8
 71
     3
 72
    20
 73
    16
 74
     0
 42
0.000000001
 43
0.00000001
 40
0.0
 40
0.0
 40
0.0
 40
0.0
 40
0.1249999999999992
 40
0.1249999999999992
 40
0.2499999999999983
 40
0.2499999999999983
 40
0.3749999999999975
 40
0.3749999999999975
 40
0.4999999999999967
 40
0.4999999999999967
 40
0.6249999999999958
 40
0.6249999999999958
 40
0.749999999999995
 40
0.749999999999995
 40
1.0
 40
1.0
 40
1.0
 40
1.0
 10
-203.6683070426923
 20
119.5960473762227
 30
0.0
 10
-203.522318346256
 20
119.5577802620604
 30
0.0
 10
-203.3863201862912
 20
119.5125171910082
 30
0.0
 10
-203.1334895426614
 20
119.4085751315783
 30
0.0
 10
-203.0155544863423
 20
119.3491508512012
 30
0.0
 10
-202.8064064798427
 20
119.2198961159402
 30
0.0
 10
-202.7152588808434
 20
119.1504586330832
 30
0.0
 10
-202.5595733013115
 20
119.0020581520743
 30
0.0
 10
-202.4950348579983
 20
118.9225196027131
 30
0.0
 10
-202.3986362246037
 20
118.7604728388172
 30
0.0
 10
-202.3657926990875
 20
118.6772401847687
 30
0.0
 10
-202.3315415265826
 20
118.5062580035416
 30
0.0
 10
-202.330668405335
 20
118.4197584918522
 30
0.0
 10
-202.3755129310513
 20
118.164045647239
 30
0.0
 10
-202.46994464181
 20
117.994233566352
 30
0.0
 10
-202.6240002108244
 20
117.8388600378663
 30
0.0
  0
SPLINE
  5
1D2
330
1AE
100
AcDbEntity
  8
0
  6
Continuous
 62
     7
370
    25
100
AcDbSpline
210
0.0
220
0.0
230
1.0
 70
     8
 71
     3
 72
    20
 73
    16
 74
     0
 42
0.000000001
 43
0.00000001
 40
0.0
 40
0.0
 40
0.0
 40
0.0
 40
0.125
 40
0.125
 40
0.25
 40
0.25
 40
0.375
 40
0.375
 40
0.5
 40
0.5
 40
0.625
 40
0.625
 40
0.75
 40
0.75
 40
1.0
 40
1.0
 40
1.0
 40
1.0
 10
-336.7830636584229
 20
156.1305156754954
 30
0.0
 10
-331.2369603710249
 20
154.5339396269825
 30
0.0
 10
-325.6909727710826
 20
152.9311598715767
 30
0.0
 10
-314.5991296176691
 20
149.7185194063224
 30
0.0
 10
-309.0532874245565
 20
148.107938581074
 30
0.0
 10
-297.9612463421311
 20
144.9059193463813
 30
0.0
 10
-292.4151165049264
 20
143.3167343922178
 30
0.0
 10
-281.3222695458024
 20
140.2019024400736
 30
0.0
 10
-275.7755496535011
 20
138.6765166644878
 30
0.0
 10
-264.6816806850687
 20
135.6723323102435
 30
0.0
 10
-259.1348818159485
 20
134.1917047973733
 30
0.0
 10
-248.0413991171963
 20
131.2486578035194
 30
0.0
 10
-242.4947161657687
 20
129.7863785209621
 30
0.0
 10
-225.8547296841193
 20
125.4094055888568
 30
0.0
 10
-214.7615295476783
 20
122.5038451878921
 30
0.0
 10
-203.6683070426923
 20
119.5960473762226
 30
0.0
  0
SPLINE
  5
1D8
330
1AE
100
AcDbEntity
  8
0
  6
Continuous
 62
     7
370
    25
100
AcDbSpline
210
0.0
220
0.0
230
1.0
 70
     8
 71
     3
 72
    10
 73
     6
 74
     0
 42
0.000000001
 43
0.00000001
 40
0.0
 40
0.0
 40
0.0
 40
0.0
 40
0.2726627000962127
 40
0.7268712416783071
 40
0.9999999999999999
 40
0.9999999999999999
 40
0.9999999999999999
 40
0.9999999999999999
 10
-269.215122189047
 20
56.5276216497749
 30
0.0
 10
-268.3626168102571
 20
56.89263555310273
 30
0.0
 10
-266.0899860360447
 20
57.86569900860336
 30
0.0
 10
-263.2003983870229
 20
59.34747292716141
 30
0.0
 10
-261.3082403924814
 20
60.51000751387242
 30
0.0
 10
-260.5976996795744
 20
60.94656099217803
 30
0.0
  0
SPLINE
  5
1D9
330
1AE
100
AcDbEntity
  8
0
  6
Continuous
 62
     7
370
    25
100
AcDbSpline
210
0.0
220
0.0
230
1.0
 70
     8
 71
     3
 72
    11
 73
     7
 74
     0
 42
0.000000001
 43
0.00000001
 40
0.0
 40
0.0
 40
0.0
 40
0.0
 40
0.0023063487721626
 40
0.4389328594726513
 40
0.8785826558388631
 40
1.0
 40
1.0
 40
1.0
 40
1.0
 10
-246.7222310854659
 20
74.34807893493608
 30
0.0
 10
-246.7194165332049
 20
74.3526371986776
 30
0.0
 10
-246.1837649063107
 20
75.2201433462496
 30
0.0
 10
-245.5371784521974
 20
76.9965042925718
 30
0.0
 10
-244.8688595358622
 20
79.0147072800164
 30
0.0
 10
-244.7728428681036
 20
80.15709774179552
 30
0.0
 10
-244.7520644479249
 20
80.4043159548135
 30
0.0
  0
LWPOLYLINE
  5
1E1
330
1AE
100
AcDbEntity
  8
0
  6
Continuous
 62
     7
370
    25
100
AcDbPolyline
 90
        9
 70
   128
 43
0.0
 10
-217.3018737892
 20
114.0538819678
 10
-216.9316042517
 20
114.5213017782
 10
-216.7455024271
 20
115.0169445402
 10
-216.750720104
 20
115.5217629802
 10
-216.9470567701
 20
116.0163572088
 10
-217.3269673174
 20
116.4817202471
 10
-217.8758519966
 20
116.8999684545
 10
-218.5726174774
 20
117.2550287871
 10
-219.390487453
 20
117.5332564753
  0
LWPOLYLINE
  5
1E4
330
1AE
100
AcDbEntity
  8
0
  6
Continuous
 62
     7
370
    25
100
AcDbPolyline
 90
        9
 70
   128
 43
0.0
 10
-401.790811385
 20
88.488936339
 10
-402.1610809224
 20
88.0215165286
 10
-402.3471827471
 20
87.5258737667
 10
-402.3419650702
 20
87.0210553266
 10
-402.1456284041
 20
86.5264610981
 10
-401.7657178568
 20
86.0610980598
 10
-401.2168331776
 20
85.6428498523
 10
-400.5200676968
 20
85.2877895197
 10
-399.7021977212
 20
85.0095618316
  0
LINE
  5
1EF
330
1AE
100
AcDbEntity
  8
0
  6
Continuous
 62
     7
370
    25
100
AcDbLine
 10
-278.3943649585
 20
46.6960656947
 30
0.0
 11
-278.3943649585
 21
47.6370879263
 31
0.0
  0
LINE
  5
1F0
330
1AE
100
AcDbEntity
  8
0
  6
Continuous
 62
     7
370
    25
100
AcDbLine
 10
-402.3687207766
 20
87.2871068656
 30
0.0
 11
-402.3687207766
 21
80.42976846
 31
0.0
  0
LINE
  5
1F1
330
1AE
100
AcDbEntity
  8
0
  6
Continuous
 62
     7
370
    25
100
AcDbLine
 10
-216.7239643976
 20
108.3983730356
 30
0.0
 11
-216.7239643976
 21
115.2557114412
 31
0.0
  0
LINE
  5
1F2
330
1AE
100
AcDbEntity
  8
0
  6
Continuous
 62
     7
370
    25
100
AcDbLine
 10
-217.7239643976
 20
102.7825593018
 30
0.0
 11
-217.7239643976
 21
106.7845701886
 31
0.0
  0
LINE
  5
1F3
330
1AE
100
AcDbEntity
  8
0
  6
Continuous
 62
     7
370
    25
100
AcDbLine
 10
763.9985674715
 20
113.5358221164
 30
0.0
 11
-297.3031785414
 21
401.9748957371
 31
0.0
  0
LINE
  5
1F4
330
1AE
100
AcDbEntity
  8
0
  6
Continuous
 62
     7
370
    25
100
AcDbLine
 10
297.3031785414
 20
-341.9731846879
 30
0.0
 11
763.9985674715
 21
113.5358221164
 31
0.0
  0
LINE
  5
1F5
330
1AE
100
AcDbEntity
  8
0
  6
Continuous
 62
     7
370
    25
100
AcDbLine
 10
-763.9985674715
 20
-53.5341110672
 30
0.0
 11
297.3031785414
 21
-341.9731846879
 31
0.0
  0
LINE
  5
1F6
330
1AE
100
AcDbEntity
  8
0
  6
Continuous
 62
     7
370
    25
100
AcDbLine
 10
-297.3031785414
 20
401.9748957371
 30
0.0
 11
-763.9985674715
 21
-53.5341110672
 31
0.0
  0
LINE
  5
1F7
330
1AE
100
AcDbEntity
  8
0
  6
Continuous
 62
     7
370
    25
100
AcDbLine
 10
-288.9487238865
 20
388.0573977073
 30
0.0
 11
-736.9762972593
 21
-49.2312488248
 31
0.0
  0
LINE
  5
1F8
330
1AE
100
AcDbEntity
  8
0
  6
Continuous
 62
     7
370
    25
100
AcDbLine
 10
-736.9762972593
 20
-49.2312488248
 30
0.0
 11
288.9487238865
 21
-328.0556866582
 31
0.0
  0
LINE
  5
1F9
330
1AE
100
AcDbEntity
  8
0
  6
Continuous
 62
     7
370
    25
100
AcDbLine
 10
288.9487238865
 20
-328.0556866582
 30
0.0
 11
736.9762972593
 21
109.232959874
 31
0.0
  0
LINE
  5
1FA
330
1AE
100
AcDbEntity
  8
0
  6
Continuous
 62
     7
370
    25
100
AcDbLine
 10
736.9762972593
 20
109.232959874
 30
0.0
 11
-288.9487238865
 21
388.0573977073
 31
0.0
  0
LINE
  5
1FB
330
1AE
100
AcDbEntity
  8
0
  6
Continuous
 62
     7
370
    25
100
AcDbLine
 10
-763.9985674715
 20
-53.5341110672
 30
0.0
 11
-763.9985674715
 21
-83.5349665918
 31
0.0
  0
LINE
  5
1FC
330
1AE
100
AcDbEntity
  8
0
  6
Continuous
 62
     7
370
    25
100
AcDbLine
 10
297.3031785414
 20
-341.9731846879
 30
0.0
 11
297.3031785414
 21
-371.9740402125
 31
0.0
  0
LINE
  5
1FD
330
1AE
100
AcDbEntity
  8
0
  6
Continuous
 62
     7
370
    25
100
AcDbLine
 10
-763.9985674715
 20
-83.5349665918
 30
0.0
 11
297.3031785414
 21
-371.9740402125
 31
0.0
  0
LINE
  5
1FE
330
1AE
100
AcDbEntity
  8
0
  6
Continuous
 62
     7
370
    25
100
AcDbLine
 10
763.9985674715
 20
113.5358221164
 30
0.0
 11
763.9985674715
 21
83.5349665918
 31
0.0
  0
LINE
  5
1FF
330
1AE
100
AcDbEntity
  8
0
  6
Continuous
 62
     7
370
    25
100
AcDbLine
 10
297.3031785414
 20
-371.9740402125
 30
0.0
 11
763.9985674715
 21
83.5349665918
 31
0.0
  0
LINE
  5
200
330
1AE
100
AcDbEntity
  8
0
  6
Continuous
 62
     7
370
    25
100
AcDbLine
 10
288.9487238865
 20
-328.0556866582
 30
0.0
 11
-266.8318904916
 21
54.9471890805
 31
0.0
  0
LINE
  5
201
330
1AE
100
AcDbEntity
  8
0
  6
Continuous
 62
     7
370
    25
100
AcDbLine
 10
-736.9762972593
 20
-49.2312488248
 30
0.0
 11
-411.4543258872
 21
83.2490745868
 31
0.0
  0
LINE
  5
202
330
1AE
100
AcDbEntity
  8
0
  6
Continuous
 62
     7
370
    25
100
AcDbLine
 10
736.9762972593
 20
109.232959874
 30
0.0
 11
-210.7538952142
 21
109.6810316217
 31
0.0
  0
LINE
  5
203
330
1AE
100
AcDbEntity
  8
0
  6
Continuous
 62
     7
370
    25
100
AcDbLine
 10
-336.7830636584
 20
156.1305156755
 30
0.0
 11
-288.9487238865
 21
388.0573977073
 31
0.0
  0
LINE
  5
204
330
1AE
100
AcDbEntity
  8
0
  6
Continuous
 62
     7
370
    25
100
AcDbLine
 10
-402.3687207766
 20
81.8173839874
 30
0.0
 11
-403.3139404388
 21
80.8948206201
 31
0.0
  0
LINE
  5
205
330
1AE
100
AcDbEntity
  8
0
  6
Continuous
 62
     7
370
    25
100
AcDbLine
 10
-215.3633788824
 20
105.1188967767
 30
0.0
 11
-217.7239643976
 21
105.7604533385
 31
0.0
  0
LINE
  5
206
330
1AE
100
AcDbEntity
  8
0
  6
Continuous
 62
     7
370
    25
100
AcDbLine
 10
-226.9573825711
 20
93.6614529479
 30
0.0
 11
-232.2627399842
 21
92.5942795093
 31
0.0
  0
LINE
  5
207
330
1AE
100
AcDbEntity
  8
0
  6
Continuous
 62
     7
370
    25
100
AcDbLine
 10
-244.8815457869
 20
80.2779381985
 30
0.0
 11
-244.7583184452
 21
79.583900686
 31
0.0
  0
LINE
  5
208
330
1AE
100
AcDbEntity
  8
0
  6
Continuous
 62
     7
370
    25
100
AcDbLine
 10
-277.9722743501
 20
54.8377110833
 30
0.0
 11
-277.9722743501
 21
47.9803726776
 31
0.0
  0
LINE
  5
209
330
1AE
100
AcDbEntity
  8
0
  6
Continuous
 62
     7
370
    25
100
AcDbLine
 10
-341.1204108241
 20
147.7051072236
 30
0.0
 11
-401.790811385
 21
88.488936339
 31
0.0
  0
LINE
  5
20A
330
1AE
100
AcDbEntity
  8
0
  6
Continuous
 62
     7
370
    25
100
AcDbLine
 10
-219.390487453
 20
117.5332564753
 30
0.0
 11
-334.364843271
 21
148.7808227842
 31
0.0
  0
LINE
  5
20B
330
1AE
100
AcDbEntity
  8
0
  6
Continuous
 62
     7
370
    25
100
AcDbLine
 10
-277.9722743501
 20
54.8377110833
 30
0.0
 11
-217.3018737892
 21
114.0538819678
 31
0.0
  0
LINE
  5
20C
330
1AE
100
AcDbEntity
  8
0
  6
Continuous
 62
     7
370
    25
100
AcDbLine
 10
-399.7021977212
 20
85.0095618316
 30
0.0
 11
-284.7278419032
 21
53.7619955227
 31
0.0
  0
LINE
  5
20D
330
1AE
100
AcDbEntity
  8
0
  6
Continuous
 62
     7
370
    25
100
AcDbLine
 10
-217.3018737892
 20
114.0538819678
 30
0.0
 11
-217.3018737892
 21
107.1965435622
 31
0.0
  0
LINE
  5
20E
330
1AE
100
AcDbEntity
  8
0
  6
Continuous
 62
     7
370
    25
100
AcDbLine
 10
-277.9722743501
 20
47.9803726776
 30
0.0
 11
-217.3018737892
 21
107.1965435622
 31
0.0
  0
LINE
  5
20F
330
1AE
100
AcDbEntity
  8
0
  6
Continuous
 62
    60
370
    25
100
AcDbLine
 10
-416.4686849634
 20
85.1152774426
 30
0.0
 11
-416.4686849634
 21
86.310082049
 31
0.0
  0
LINE
  5
210
330
1AE
100
AcDbEntity
  8
0
  6
Continuous
 62
    60
370
    25
100
AcDbLine
 10
-344.1308996792
 20
144.7667778101
 30
0.0
 11
-344.1308996792
 21
156.9139781037
 31
0.0
  0
LINE
  5
211
330
1AE
100
AcDbEntity
  8
0
  6
Continuous
 62
    60
370
    25
100
AcDbLine
 10
-203.6683070427
 20
116.7909650842
 30
0.0
 11
-203.6683070427
 21
119.5960473762
 31
0.0
  0
LINE
  5
212
330
1AE
100
AcDbEntity
  8
0
  6
Continuous
 62
    60
370
    25
100
AcDbLine
 10
-340.7531159027
 20
148.0100288288
 30
0.0
 11
-340.7531159027
 21
157.3826564436
 31
0.0
  0
LINE
  5
213
330
1AE
100
AcDbEntity
  8
0
  6
Continuous
 62
    60
370
    25
100
AcDbLine
 10
-284.7278419032
 20
53.7619955227
 30
0.0
 11
-284.7278419032
 21
48.3906454417
 31
0.0
  0
LINE
  5
214
330
1AE
100
AcDbEntity
  8
0
  6
Continuous
 62
    60
370
    25
100
AcDbLine
 10
-399.7021977212
 20
85.0095618316
 30
0.0
 11
-399.7021977212
 21
79.8502804476
 31
0.0
  0
LINE
  5
215
330
1AE
100
AcDbEntity
  8
0
  6
Continuous
 62
    60
370
    25
100
AcDbLine
 10
-220.5424660897
 20
104.033626132
 30
0.0
 11
-220.5424660897
 21
99.9930093857
 31
0.0
  0
ARC
  5
216
330
1AE
100
AcDbEntity
  8
0
  6
Continuous
 62
     7
370
    25
100
AcDbCircle
 10
-282.4358753047
 20
61.1188597068
 30
0.0
 40
7.705618827393669
100
AcDbArc
 50
252.6960345908
 51
305.398914916
  0
ARC
  5
217
330
1AE
100
AcDbEntity
  8
0
  6
Continuous
 62
     7
370
    25
100
AcDbCircle
 10
-281.0054820895
 20
51.3773099683
 30
0.0
 40
4.554067648526044
100
AcDbArc
 50
287.3451643833
 51
311.7624395877
  0
ARC
  5
218
330
1AE
100
AcDbEntity
  8
0
  6
Continuous
 62
     7
370
    25
100
AcDbCircle
 10
-336.6568098695
 20
141.4239586
 30
0.0
 40
7.705618827393331
100
AcDbArc
 50
72.6960345908
 51
125.398914916
  0
ARC
  5
219
330
1AE
100
AcDbEntity
  8
0
  6
Continuous
 62
     7
370
    25
100
AcDbCircle
 10
-218.3832435413
 20
108.4563898574
 30
0.0
 40
1.660293115198431
100
AcDbArc
 50
310.6406362013
 51
357.9974645044
  0
VIEWPORT
  5
286
330
1AE
100
AcDbEntity
  8
0
100
AcDbViewport
 10
0.0
 20
0.0
 30
0.0
 40
205.6
 41
156.0
 68
     1
 69
     1
 12
0.0
 22
0.0
 13
0.0
 23
0.0
 14
10.0
 24
10.0
 15
10.0
 25
10.0
 16
0.0
 26
0.0
 36
1.0
 17
0.0
 27
0.0
 37
0.0
 42
50.0
 43
0.0
 44
0.0
 45
1020.0
 50
0.0
 51
0.0
 72
   100
 90
   557152
  1

281
     0
 71
     1
 74
     0
110
0.0
120
0.0
130
0.0
111
1.0
121
0.0
131
0.0
112
0.0
122
1.0
132
0.0
 79
     0
146
0.0
  0
ENDBLK
  5
1B1
330
1AE
100
AcDbEntity
  8
0
100
AcDbBlockEnd
  0
BLOCK
  5
21C
330
21A
100
AcDbEntity
  8
0
100
AcDbBlockBegin
  2
*Paper_Space7
 70
     0
 10
0.0
 20
0.0
 30
0.0
  3
*Paper_Space7
  1

  0
SPLINE
  5
22E
330
21A
100
AcDbEntity
  8
0
  6
Continuous
 62
     7
370
    25
100
AcDbSpline
210
0.0
220
0.0
230
1.0
 70
     8
 71
     3
 72
     8
 73
     4
 74
     0
 42
0.000000001
 43
0.00000001
 40
0.0
 40
0.0
 40
0.0
 40
0.0
 40
1.0
 40
1.0
 40
1.0
 40
1.0
 10
-273.8033148572378
 20
32.24194188835277
 30
0.0
 10
-275.8563788503857
 20
30.49837461818514
 30
0.0
 10
-277.9093645634667
 20
28.76886641055981
 30
0.0
 10
-279.9622613802106
 20
27.05532394251314
 30
0.0
  0
SPLINE
  5
231
330
21A
100
AcDbEntity
  8
0
  6
Continuous
 62
     7
370
    25
100
AcDbSpline
210
0.0
220
0.0
230
1.0
 70
     8
 71
     3
 72
    20
 73
    16
 74
     0
 42
0.000000001
 43
0.00000001
 40
0.0
 40
0.0
 40
0.0
 40
0.0
 40
0.2499999999999992
 40
0.2499999999999992
 40
0.3749999999999993
 40
0.3749999999999993
 40
0.4999999999999994
 40
0.4999999999999994
 40
0.6249999999999996
 40
0.6249999999999996
 40
0.7499999999999997
 40
0.7499999999999997
 40
0.8749999999999999
 40
0.8749999999999999
 40
1.0
 40
1.0
 40
1.0
 40
1.0
 10
-283.1846807233017
 20
26.58968837455888
 30
0.0
 10
-294.9175469022239
 20
27.95008733509202
 30
0.0
 10
-306.6503894401167
 20
29.30802904764333
 30
0.0
 10
-324.2498502155914
 20
31.36540468192797
 30
0.0
 10
-330.1163591278055
 20
32.05480996303121
 30
0.0
 10
-341.8495005741867
 20
33.45393683955747
 30
0.0
 10
-347.7161326092765
 20
34.16350442806557
 30
0.0
 10
-359.449681969952
 20
35.62981297828826
 30
0.0
 10
-365.3162291559116
 20
36.38862365473913
 30
0.0
 10
-377.0486978817235
 20
37.97680423539332
 30
0.0
 10
-382.9146220605573
 20
38.80588632701848
 30
0.0
 10
-394.6462391001039
 20
40.49009890659751
 30
0.0
 10
-400.5118588461305
 20
41.34276221746318
 30
0.0
 10
-412.2432664021413
 20
43.03868999652047
 30
0.0
 10
-418.1090400095583
 20
43.88274873195547
 30
0.0
 10
-423.9749359737053
 20
44.71996476494677
 30
0.0
  0
SPLINE
  5
232
330
21A
100
AcDbEntity
  8
0
  6
Continuous
 62
     7
370
    25
100
AcDbSpline
210
0.0
220
0.0
230
1.0
 70
     8
 71
     3
 72
    20
 73
    16
 74
     0
 42
0.000000001
 43
0.00000001
 40
0.0
 40
0.0
 40
0.0
 40
0.0
 40
0.1249999999999951
 40
0.1249999999999951
 40
0.2499999999999901
 40
0.2499999999999901
 40
0.3749999999999852
 40
0.3749999999999852
 40
0.4999999999999802
 40
0.4999999999999802
 40
0.6249999999999754
 40
0.6249999999999754
 40
0.7499999999999704
 40
0.7499999999999704
 40
1.0
 40
1.0
 40
1.0
 40
1.0
 10
-279.9622613802106
 20
27.05532394251314
 30
0.0
 10
-280.0206152355362
 20
27.00661627807569
 30
0.0
 10
-280.0931348811087
 20
26.96048597095404
 30
0.0
 10
-280.2653498909705
 20
26.8731720504157
 30
0.0
 10
-280.3663467945937
 20
26.83158496892235
 30
0.0
 10
-280.5905765786835
 20
26.75595469047327
 30
0.0
 10
-280.713069234776
 20
26.7219644196941
 30
0.0
 10
-280.9786226063283
 20
26.6615606211414
 30
0.0
 10
-281.122778076323
 20
26.63510019781177
 30
0.0
 10
-281.4198693967562
 20
26.59216507023849
 30
0.0
 10
-281.5740766923799
 20
26.57532600582614
 30
0.0
 10
-281.894081572773
 20
26.55111504436869
 30
0.0
 10
-282.057589376123
 20
26.5440078802507
 30
0.0
 10
-282.5455370756854
 20
26.53780977013584
 30
0.0
 10
-282.875866852986
 20
26.55388211360198
 30
0.0
 10
-283.1846807233018
 20
26.58968837455895
 30
0.0
  0
SPLINE
  5
233
330
21A
100
AcDbEntity
  8
0
  6
Continuous
 62
     7
370
    25
100
AcDbSpline
210
0.0
220
0.0
230
1.0
 70
     8
 71
     3
 72
    14
 73
    10
 74
     0
 42
0.000000001
 43
0.00000001
 40
0.0
 40
0.0
 40
0.0
 40
0.0
 40
0.25
 40
0.25
 40
0.5
 40
0.5
 40
0.75
 40
0.75
 40
1.0
 40
1.0
 40
1.0
 40
1.0
 10
-231.3204323737976
 20
69.70832256538273
 30
0.0
 10
-234.8606073767196
 20
66.50550579958849
 30
0.0
 10
-238.4007968153434
 20
63.30783682626775
 30
0.0
 10
-245.4812903163263
 20
56.95338948522851
 30
0.0
 10
-249.0215628208345
 20
53.79824661294456
 30
0.0
 10
-256.102184430493
 20
47.55372531061147
 30
0.0
 10
-259.6424569210292
 20
44.46441444813204
 30
0.0
 10
-266.722950422724
 20
38.33004514616449
 30
0.0
 10
-270.2631398558231
 20
35.28340689166755
 30
0.0
 10
-273.8033148572378
 20
32.24194188835277
 30
0.0
  0
SPLINE
  5
236
330
21A
100
AcDbEntity
  8
0
  6
Continuous
 62
     7
370
    25
100
AcDbSpline
210
0.0
220
0.0
230
1.0
 70
     8
 71
     3
 72
     8
 73
     4
 74
     0
 42
0.000000001
 43
0.00000001
 40
0.0
 40
0.0
 40
0.0
 40
0.0
 40
1.0
 40
1.0
 40
1.0
 40
1.0
 10
-371.6053619835973
 20
95.32821726607258
 30
0.0
 10
-370.2058935749624
 20
95.08420691505759
 30
0.0
 10
-368.8062350448464
 20
94.84443049055047
 30
0.0
 10
-367.4063934917588
 20
94.60872991169744
 30
0.0
  0
SPLINE
  5
237
330
21A
100
AcDbEntity
  8
0
  6
Continuous
 62
     7
370
    25
100
AcDbSpline
210
0.0
220
0.0
230
1.0
 70
     8
 71
     3
 72
    20
 73
    16
 74
     0
 42
0.000000001
 43
0.00000001
 40
0.0
 40
0.0
 40
0.0
 40
0.0
 40
0.1249999999999956
 40
0.1249999999999956
 40
0.2499999999999912
 40
0.2499999999999912
 40
0.3749999999999868
 40
0.3749999999999868
 40
0.4999999999999823
 40
0.4999999999999823
 40
0.6249999999999779
 40
0.6249999999999779
 40
0.7499999999999736
 40
0.7499999999999736
 40
1.0
 40
1.0
 40
1.0
 40
1.0
 10
-374.8277813266876
 20
94.91942446831091
 30
0.0
 10
-374.7694061287247
 20
94.97362925648304
 30
0.0
 10
-374.6968518556915
 20
95.02422765667686
 30
0.0
 10
-374.524533821225
 20
95.11851928276252
 30
0.0
 10
-374.4234600832416
 20
95.16262840603694
 30
0.0
 10
-374.1991084166013
 20
95.24112931920517
 30
0.0
 10
-374.0765472729803
 20
95.27550118604422
 30
0.0
 10
-373.810838820879
 20
95.33460572292509
 30
0.0
 10
-373.6666362857498
 20
95.35933953321639
 30
0.0
 10
-373.3694941305558
 20
95.396887991305
 30
0.0
 10
-373.2152612720453
 20
95.41007462897035
 30
0.0
 10
-372.8952022376156
 20
95.4250364369372
 30
0.0
 10
-372.7318161951426
 20
95.42659718568878
 30
0.0
 10
-372.2440491156835
 20
95.41395053792608
 30
0.0
 10
-371.9139379181403
 20
95.38202035418665
 30
0.0
 10
-371.6053619835973
 20
95.32821726607258
 30
0.0
  0
SPLINE
  5
238
330
21A
100
AcDbEntity
  8
0
  6
Continuous
 62
     7
370
    25
100
AcDbSpline
210
0.0
220
0.0
230
1.0
 70
     8
 71
     3
 72
    18
 73
    14
 74
     0
 42
0.000000001
 43
0.00000001
 40
0.0
 40
0.0
 40
0.0
 40
0.0
 40
0.2500000000000001
 40
0.2500000000000001
 40
0.3750000000000001
 40
0.3750000000000001
 40
0.5000000000000001
 40
0.5000000000000001
 40
0.6250000000000001
 40
0.6250000000000001
 40
0.7500000000000002
 40
0.7500000000000002
 40
1.0
 40
1.0
 40
1.0
 40
1.0
 10
-429.6285568560733
 20
46.58968323239616
 30
0.0
 10
-425.0619691835022
 20
50.40404283131729
 30
0.0
 10
-420.4955162926079
 20
54.19680578849584
 30
0.0
 10
-413.6459091386889
 20
59.87438412752597
 30
0.0
 10
-411.3627242667326
 20
61.76410410877813
 30
0.0
 10
-406.796104850698
 20
65.58355009794796
 30
0.0
 10
-404.5126422849152
 20
67.51746194717923
 30
0.0
 10
-399.9447219647396
 20
71.54596673648895
 30
0.0
 10
-397.6611984697374
 20
73.63974239966105
 30
0.0
 10
-393.0944145150872
 20
77.87519641338244
 30
0.0
 10
-390.811131285798
 20
80.01272800578967
 30
0.0
 10
-383.9612358440521
 20
86.41699070252271
 30
0.0
 10
-379.394584611035
 20
90.67888031101789
 30
0.0
 10
-374.8277813266876
 20
94.91942446831091
 30
0.0
  0
SPLINE
  5
239
330
21A
100
AcDbEntity
  8
0
  6
Continuous
 62
     7
370
    25
100
AcDbSpline
210
0.0
220
0.0
230
1.0
 70
     8
 71
     3
 72
    20
 73
    16
 74
     0
 42
0.000000001
 43
0.00000001
 40
0.0
 40
0.0
 40
0.0
 40
0.0
 40
0.125
 40
0.125
 40
0.25
 40
0.25
 40
0.375
 40
0.375
 40
0.5
 40
0.5
 40
0.625
 40
0.625
 40
0.75
 40
0.75
 40
1.0
 40
1.0
 40
1.0
 40
1.0
 10
-428.1739044655439
 20
45.43945211932188
 30
0.0
 10
-428.3281950489693
 20
45.46635411952971
 30
0.0
 10
-428.4742102456389
 20
45.49763034984648
 30
0.0
 10
-428.7503582827114
 20
45.56857992956786
 30
0.0
 10
-428.8817619736252
 20
45.60874988049819
 30
0.0
 10
-429.1204954238252
 20
45.69544356680547
 30
0.0
 10
-429.2276454082854
 20
45.74170532671445
 30
0.0
 10
-429.4177246371628
 20
45.83998749817647
 30
0.0
 10
-429.5008093963819
 20
45.89239063678217
 30
0.0
 10
-429.6351462288926
 20
45.99860925818859
 30
0.0
 10
-429.6875448580988
 20
46.05290347180338
 30
0.0
 10
-429.7621028669151
 20
46.16388526861384
 30
0.0
 10
-429.7834442303151
 20
46.21978383695953
 30
0.0
 10
-429.7992470877508
 20
46.38415240098391
 30
0.0
 10
-429.7453098709188
 20
46.49216227915704
 30
0.0
 10
-429.6285568560733
 20
46.58968323239616
 30
0.0
  0
SPLINE
  5
23A
330
21A
100
AcDbEntity
  8
0
  6
Continuous
 62
     7
370
    25
100
AcDbSpline
210
0.0
220
0.0
230
1.0
 70
     8
 71
     3
 72
     8
 73
     4
 74
     0
 42
0.000000001
 43
0.00000001
 40
0.0
 40
0.0
 40
0.0
 40
0.0
 40
1.0
 40
1.0
 40
1.0
 40
1.0
 10
-423.9749359737053
 20
44.71996476494677
 30
0.0
 10
-425.374777526793
 20
44.95566534379982
 30
0.0
 10
-426.7744360569089
 20
45.19544176830687
 30
0.0
 10
-428.1739044655439
 20
45.43945211932188
 30
0.0
  0
SPLINE
  5
23B
330
21A
100
AcDbEntity
  8
0
  6
Continuous
 62
     7
370
    25
100
AcDbSpline
210
0.0
220
0.0
230
1.0
 70
     8
 71
     3
 72
     8
 73
     4
 74
     0
 42
0.000000001
 43
0.00000001
 40
0.0
 40
0.0
 40
0.0
 40
0.0
 40
1.0
 40
1.0
 40
1.0
 40
1.0
 10
-225.1614858508248
 20
75.38506517842788
 30
0.0
 10
-227.2143826675686
 20
73.47763801679987
 30
0.0
 10
-229.2673683806496
 20
71.58601979635016
 30
0.0
 10
-231.3204323737976
 20
69.70832256538273
 30
0.0
  0
SPLINE
  5
23C
330
21A
100
AcDbEntity
  8
0
  6
Continuous
 62
     7
370
    25
100
AcDbSpline
210
0.0
220
0.0
230
1.0
 70
     8
 71
     3
 72
    20
 73
    16
 74
     0
 42
0.000000001
 43
0.00000001
 40
0.0
 40
0.0
 40
0.0
 40
0.0
 40
0.1249999999999992
 40
0.1249999999999992
 40
0.2499999999999983
 40
0.2499999999999983
 40
0.3749999999999975
 40
0.3749999999999975
 40
0.4999999999999967
 40
0.4999999999999967
 40
0.6249999999999958
 40
0.6249999999999958
 40
0.749999999999995
 40
0.749999999999995
 40
1.0
 40
1.0
 40
1.0
 40
1.0
 10
-226.6161382413551
 20
76.47845352130969
 30
0.0
 10
-226.4617317250718
 20
76.46055043939874
 30
0.0
 10
-226.31562466157
 20
76.43761186093776
 30
0.0
 10
-226.0393320723974
 20
76.38208018601229
 30
0.0
 10
-225.9078727820308
 20
76.34905481668824
 30
0.0
 10
-225.669108919139
 20
76.27494933317753
 30
0.0
 10
-225.5619621212635
 20
76.23412190386678
 30
0.0
 10
-225.3719171795622
 20
76.14499438977832
 30
0.0
 10
-225.2888827393791
 20
76.09631978400974
 30
0.0
 10
-225.1546507501041
 20
75.99547727304515
 30
0.0
 10
-225.1023030949299
 20
75.94288494580833
 30
0.0
 10
-225.0278410448199
 20
75.83326221962996
 30
0.0
 10
-225.0065539066055
 20
75.7770197194807
 30
0.0
 10
-224.9908427136213
 20
75.60849465066217
 30
0.0
 10
-225.044778315152
 20
75.49350273929082
 30
0.0
 10
-225.1614858508256
 20
75.385065178428
 30
0.0
  0
SPLINE
  5
23D
330
21A
100
AcDbEntity
  8
0
  6
Continuous
 62
     7
370
    25
100
AcDbSpline
210
0.0
220
0.0
230
1.0
 70
     8
 71
     3
 72
    20
 73
    16
 74
     0
 42
0.000000001
 43
0.00000001
 40
0.0
 40
0.0
 40
0.0
 40
0.0
 40
0.125
 40
0.125
 40
0.25
 40
0.25
 40
0.375
 40
0.375
 40
0.5
 40
0.5
 40
0.625
 40
0.625
 40
0.75
 40
0.75
 40
1.0
 40
1.0
 40
1.0
 40
1.0
 10
-367.4063934917588
 20
94.60872991169747
 30
0.0
 10
-361.540497648731
 20
93.77151389599305
 30
0.0
 10
-355.674724163786
 20
92.92745517834832
 30
0.0
 10
-343.9433168542678
 20
91.23152743519903
 30
0.0
 10
-338.0776971604215
 20
90.37886413221067
 30
0.0
 10
-326.3460805091531
 20
88.69465160634554
 30
0.0
 10
-320.4801565854365
 20
87.86556954658657
 30
0.0
 10
-308.7476875900031
 20
86.27738892154625
 30
0.0
 10
-302.8811395881618
 20
85.51857813704297
 30
0.0
 10
-291.147589653582
 20
84.05226951612555
 30
0.0
 10
-285.2809581210581
 20
83.34270198981235
 30
0.0
 10
-273.5478167287635
 20
81.94357511960017
 30
0.0
 10
-267.6813077978351
 20
81.25416983620448
 30
0.0
 10
-250.0818469741368
 20
79.19679419621659
 30
0.0
 10
-238.3490044369121
 20
77.83885248377155
 30
0.0
 10
-226.6161382413552
 20
76.47845352130966
 30
0.0
  0
SPLINE
  5
23E
330
21A
100
AcDbEntity
  8
0
  6
Continuous
 62
     7
370
    25
100
AcDbSpline
210
0.0
220
0.0
230
1.0
 70
     8
 71
     3
 72
     9
 73
     5
 74
     0
 42
0.000000001
 43
0.00000001
 40
0.0
 40
0.0
 40
0.0
 40
0.0
 40
0.9821816363637121
 40
1.0
 40
1.0
 40
1.0
 40
1.0
 10
-254.3893021259455
 20
49.07948233490009
 30
0.0
 10
-255.2857888973501
 20
48.90158509066896
 30
0.0
 10
-256.1985393889225
 20
48.72046050266528
 30
0.0
 10
-257.1112441957572
 20
48.53833890159209
 30
0.0
 10
-257.1275071018979
 20
48.53509379267815
 30
0.0
  0
SPLINE
  5
23F
330
21A
100
AcDbEntity
  8
0
  6
Continuous
 62
     7
370
    25
100
AcDbSpline
210
0.0
220
0.0
230
1.0
 70
     8
 71
     3
 72
     9
 73
     5
 74
     0
 42
0.000000001
 43
0.00000001
 40
0.0
 40
0.0
 40
0.0
 40
0.0
 40
0.287853876169491
 40
1.0
 40
1.0
 40
1.0
 40
1.0
 10
-262.7440172871793
 20
41.78047856334434
 30
0.0
 10
-262.768830214968
 20
41.90700168200516
 30
0.0
 10
-262.8550299497745
 20
42.34654107728616
 30
0.0
 10
-263.1197124496992
 20
42.77739768330913
 30
0.0
 10
-263.3082050660663
 20
43.08423054521512
 30
0.0
  0
LWPOLYLINE
  5
240
330
21A
100
AcDbEntity
  8
0
  6
Continuous
 62
     7
370
    25
100
AcDbPolyline
 90
        3
 70
   128
 43
0.0
 10
-266.1731708548
 20
40.5575682146
 10
-265.74378957
 20
40.1431059185
 10
-265.1954430377
 20
39.5695329732
  0
LWPOLYLINE
  5
245
330
21A
100
AcDbEntity
  8
0
  6
Continuous
 62
     7
370
    25
100
AcDbPolyline
 90
        9
 70
   128
 43
0.0
 10
-238.9350466995
 20
72.121808113
 10
-238.6800410973
 20
72.4372809719
 10
-238.6145724613
 20
72.76327515
 10
-238.7411567143
 20
73.0872628737
 10
-239.0549292944
 20
73.3967934766
 10
-239.5438320975
 20
73.6799718713
 10
-240.1890768629
 20
73.9259156707
 10
-240.9658671962
 20
74.1251733926
 10
-241.8443514805
 20
74.2700876746
  0
LWPOLYLINE
  5
248
330
21A
100
AcDbEntity
  8
0
  6
Continuous
 62
     7
370
    25
100
AcDbPolyline
 90
        9
 70
   128
 43
0.0
 10
-415.8549960074
 20
48.0863446513
 10
-416.1100016096
 20
47.7708717924
 10
-416.1754702456
 20
47.4448776143
 10
-416.0488859926
 20
47.1208898906
 10
-415.7351134125
 20
46.8113592876
 10
-415.2462106094
 20
46.528180893
 10
-414.600965844
 20
46.2822370936
 10
-413.8241755107
 20
46.0829793717
 10
-412.9456912264
 20
45.9380650897
  0
LWPOLYLINE
  5
24B
330
21A
100
AcDbEntity
  8
0
  6
Continuous
 62
     7
370
    25
100
AcDbPolyline
 90
        3
 70
   128
 43
0.0
 10
-238.9350466995
 20
64.5793357801
 10
-238.6800410973
 20
64.894808639
 10
-238.6121184331
 20
65.1685914309
  0
LINE
  5
254
330
21A
100
AcDbEntity
  8
0
  6
Continuous
 62
     7
370
    25
100
AcDbLine
 10
-416.1779242738
 20
47.4970890005
 30
0.0
 11
-416.1779242738
 21
43.5963178908
 31
0.0
  0
LINE
  5
255
330
21A
100
AcDbEntity
  8
0
  6
Continuous
 62
     7
370
    25
100
AcDbLine
 10
-238.6121184331
 20
65.1685914309
 30
0.0
 11
-238.6121184331
 21
72.7110637637
 31
0.0
  0
LINE
  5
256
330
21A
100
AcDbEntity
  8
0
  6
Continuous
 62
     7
370
    25
100
AcDbLine
 10
-239.6121184331
 20
62.2308451772
 30
0.0
 11
-239.6121184331
 21
63.9822146378
 31
0.0
  0
LINE
  5
257
330
21A
100
AcDbEntity
  8
0
  6
Continuous
 62
     7
370
    25
100
AcDbLine
 10
738.0253032906
 20
118.1900294543
 30
0.0
 11
-384.4719127784
 21
259.6113856256
 31
0.0
  0
LINE
  5
258
330
21A
100
AcDbEntity
  8
0
  6
Continuous
 62
     7
370
    25
100
AcDbLine
 10
384.4719127784
 20
-193.6147527129
 30
0.0
 11
738.0253032906
 21
118.1900294543
 31
0.0
  0
LINE
  5
259
330
21A
100
AcDbEntity
  8
0
  6
Continuous
 62
     7
370
    25
100
AcDbLine
 10
-738.0253032906
 20
-52.1933965416
 30
0.0
 11
384.4719127784
 21
-193.6147527129
 31
0.0
  0
LINE
  5
25A
330
21A
100
AcDbEntity
  8
0
  6
Continuous
 62
     7
370
    25
100
AcDbLine
 10
-384.4719127784
 20
259.6113856256
 30
0.0
 11
-738.0253032906
 21
-52.1933965416
 31
0.0
  0
LINE
  5
25B
330
21A
100
AcDbEntity
  8
0
  6
Continuous
 62
     7
370
    25
100
AcDbLine
 10
-372.8346936542
 20
251.0182673794
 30
0.0
 11
-712.2459485458
 21
-48.3143235011
 31
0.0
  0
LINE
  5
25C
330
21A
100
AcDbEntity
  8
0
  6
Continuous
 62
     7
370
    25
100
AcDbLine
 10
-712.2459485458
 20
-48.3143235011
 30
0.0
 11
372.8346936542
 21
-185.0216344667
 31
0.0
  0
LINE
  5
25D
330
21A
100
AcDbEntity
  8
0
  6
Continuous
 62
     7
370
    25
100
AcDbLine
 10
372.8346936542
 20
-185.0216344667
 30
0.0
 11
712.2459485458
 21
114.3109564139
 31
0.0
  0
LINE
  5
25E
330
21A
100
AcDbEntity
  8
0
  6
Continuous
 62
     7
370
    25
100
AcDbLine
 10
712.2459485458
 20
114.3109564139
 30
0.0
 11
-372.8346936542
 21
251.0182673794
 31
0.0
  0
LINE
  5
25F
330
21A
100
AcDbEntity
  8
0
  6
Continuous
 62
     7
370
    25
100
AcDbLine
 10
-738.0253032906
 20
-52.1933965416
 30
0.0
 11
-738.0253032906
 21
-85.191712998
 31
0.0
  0
LINE
  5
260
330
21A
100
AcDbEntity
  8
0
  6
Continuous
 62
     7
370
    25
100
AcDbLine
 10
384.4719127784
 20
-193.6147527129
 30
0.0
 11
384.4719127784
 21
-226.6130691692
 31
0.0
  0
LINE
  5
261
330
21A
100
AcDbEntity
  8
0
  6
Continuous
 62
     7
370
    25
100
AcDbLine
 10
-738.0253032906
 20
-85.191712998
 30
0.0
 11
384.4719127784
 21
-226.6130691692
 31
0.0
  0
LINE
  5
262
330
21A
100
AcDbEntity
  8
0
  6
Continuous
 62
     7
370
    25
100
AcDbLine
 10
738.0253032906
 20
118.1900294543
 30
0.0
 11
738.0253032906
 21
85.191712998
 31
0.0
  0
LINE
  5
263
330
21A
100
AcDbEntity
  8
0
  6
Continuous
 62
     7
370
    25
100
AcDbLine
 10
384.4719127784
 20
-226.6130691692
 30
0.0
 11
738.0253032906
 21
85.191712998
 31
0.0
  0
LINE
  5
264
330
21A
100
AcDbEntity
  8
0
  6
Continuous
 62
     7
370
    25
100
AcDbLine
 10
372.8346936542
 20
-185.0216344667
 30
0.0
 11
-273.8033148572
 21
32.2419418884
 31
0.0
  0
LINE
  5
265
330
21A
100
AcDbEntity
  8
0
  6
Continuous
 62
     7
370
    25
100
AcDbLine
 10
-712.2459485458
 20
-48.3143235011
 30
0.0
 11
-423.9749359737
 21
44.7199647649
 31
0.0
  0
LINE
  5
266
330
21A
100
AcDbEntity
  8
0
  6
Continuous
 62
     7
370
    25
100
AcDbLine
 10
712.2459485458
 20
114.3109564139
 30
0.0
 11
-231.3204323738
 21
69.7083225654
 31
0.0
  0
LINE
  5
267
330
21A
100
AcDbEntity
  8
0
  6
Continuous
 62
     7
370
    25
100
AcDbLine
 10
-367.4063934918
 20
94.6087299117
 30
0.0
 11
-372.8346936542
 21
251.0182673794
 31
0.0
  0
LINE
  5
268
330
21A
100
AcDbEntity
  8
0
  6
Continuous
 62
     7
370
    25
100
AcDbLine
 10
-369.8930552408
 20
88.620966333
 30
0.0
 11
-415.8549960074
 21
48.0863446513
 31
0.0
  0
LINE
  5
269
330
21A
100
AcDbEntity
  8
0
  6
Continuous
 62
     7
370
    25
100
AcDbLine
 10
-241.8443514805
 20
74.2700876746
 30
0.0
 11
-363.4482165547
 21
89.5907345931
 31
0.0
  0
LINE
  5
26A
330
21A
100
AcDbEntity
  8
0
  6
Continuous
 62
     7
370
    25
100
AcDbLine
 10
-284.8969874661
 20
31.5871864313
 30
0.0
 11
-238.9350466995
 21
72.121808113
 31
0.0
  0
LINE
  5
26B
330
21A
100
AcDbEntity
  8
0
  6
Continuous
 62
     7
370
    25
100
AcDbLine
 10
-412.9456912264
 20
45.9380650897
 30
0.0
 11
-291.3418261522
 21
30.6174181712
 31
0.0
  0
LINE
  5
26C
330
21A
100
AcDbEntity
  8
0
  6
Continuous
 62
     7
370
    25
100
AcDbLine
 10
-238.9350466995
 20
72.121808113
 30
0.0
 11
-238.9350466995
 21
64.5793357801
 31
0.0
  0
LINE
  5
26D
330
21A
100
AcDbEntity
  8
0
  6
Continuous
 62
     7
370
    25
100
AcDbLine
 10
-282.0505453149
 20
26.5550401162
 30
0.0
 11
-238.9350466995
 21
64.5793357801
 31
0.0
  0
LINE
  5
26E
330
21A
100
AcDbEntity
  8
0
  6
Continuous
 62
    60
370
    25
100
AcDbLine
 10
-429.6285568561
 20
46.0307786197
 30
0.0
 11
-429.6285568561
 21
46.5896832324
 31
0.0
  0
LINE
  5
26F
330
21A
100
AcDbEntity
  8
0
  6
Continuous
 62
    60
370
    25
100
AcDbLine
 10
-374.8277813267
 20
84.2689469958
 30
0.0
 11
-374.8277813267
 21
94.9194244683
 31
0.0
  0
LINE
  5
270
330
21A
100
AcDbEntity
  8
0
  6
Continuous
 62
    60
370
    25
100
AcDbLine
 10
-226.6161382414
 20
74.0443022441
 30
0.0
 11
-226.6161382414
 21
76.4784535213
 31
0.0
  0
LINE
  5
271
330
21A
100
AcDbEntity
  8
0
  6
Continuous
 62
    60
370
    25
100
AcDbLine
 10
-371.6053619836
 20
87.1108537298
 30
0.0
 11
-371.6053619836
 21
95.3282172661
 31
0.0
  0
LINE
  5
272
330
21A
100
AcDbEntity
  8
0
  6
Continuous
 62
    60
370
    25
100
AcDbLine
 10
-291.3418261522
 20
30.6174181712
 30
0.0
 11
-291.3418261522
 21
27.5375101212
 31
0.0
  0
LINE
  5
273
330
21A
100
AcDbEntity
  8
0
  6
Continuous
 62
    60
370
    25
100
AcDbLine
 10
-284.8969874661
 20
31.5871864313
 30
0.0
 11
-284.8969874661
 21
26.7886503254
 31
0.0
  0
LINE
  5
274
330
21A
100
AcDbEntity
  8
0
  6
Continuous
 62
    60
370
    25
100
AcDbLine
 10
-412.9456912264
 20
45.9380650897
 30
0.0
 11
-412.9456912264
 21
43.1305126951
 31
0.0
  0
LINE
  5
275
330
21A
100
AcDbEntity
  8
0
  6
Continuous
 62
    60
370
    25
100
AcDbLine
 10
-241.9663671217
 20
61.9059624529
 30
0.0
 11
-241.9663671217
 21
60.1080743001
 31
0.0
  0
ARC
  5
276
330
21A
100
AcDbEntity
  8
0
  6
Continuous
 62
     7
370
    25
100
AcDbCircle
 10
-289.5016142101
 20
40.2881089486
 30
0.0
 40
9.844218613218773
100
AcDbArc
 50
259.2261330329
 51
297.8883001309
  0
ARC
  5
277
330
21A
100
AcDbEntity
  8
0
  6
Continuous
 62
     7
370
    25
100
AcDbCircle
 10
-365.2884284968
 20
79.9200438157
 30
0.0
 40
9.844218613217759
100
AcDbArc
 50
79.2261330329
 51
117.8883001309
  0
VIEWPORT
  5
288
330
21A
100
AcDbEntity
  8
0
100
AcDbViewport
 10
0.0
 20
0.0
 30
0.0
 40
205.6
 41
156.0
 68
     1
 69
     1
 12
0.0
 22
0.0
 13
0.0
 23
0.0
 14
10.0
 24
10.0
 15
10.0
 25
10.0
 16
0.0
 26
0.0
 36
1.0
 17
0.0
 27
0.0
 37
0.0
 42
50.0
 43
0.0
 44
0.0
 45
1020.0
 50
0.0
 51
0.0
 72
   100
 90
   557152
  1

281
     0
 71
     1
 74
     0
110
0.0
120
0.0
130
0.0
111
1.0
121
0.0
131
0.0
112
0.0
122
1.0
132
0.0
 79
     0
146
0.0
  0
ENDBLK
  5
21D
330
21A
100
AcDbEntity
  8
0
100
AcDbBlockEnd
  0
ENDSEC
  0
SECTION
  2
ENTITIES
  0
SPLINE
  5
73
330
1F
100
AcDbEntity
  8
0
  6
Continuous
 62
     7
370
    25
100
AcDbSpline
210
0.0
220
0.0
230
1.0
 70
    24
 71
     3
 72
     8
 73
     4
 74
     0
 42
0.000000001
 43
0.00000001
 40
0.0
 40
0.0
 40
0.0
 40
0.0
 40
1.0
 40
1.0
 40
1.0
 40
1.0
 10
-269.9999999999997
 20
-60.07986859056614
 30
0.0
 10
-269.9999999999997
 20
-65.88681047895787
 30
0.0
 10
-269.9999999999997
 20
-71.69353095788462
 30
0.0
 10
-269.9999999999997
 20
-77.50000000000001
 30
0.0
  0
SPLINE
  5
77
330
1F
100
AcDbEntity
  8
0
  6
Continuous
 62
     7
370
    25
100
AcDbSpline
210
0.0
220
0.0
230
1.0
 70
    24
 71
     3
 72
    20
 73
    16
 74
     0
 42
0.000000001
 43
0.00000001
 40
0.0
 40
0.0
 40
0.0
 40
0.0
 40
0.2499999999999992
 40
0.2499999999999992
 40
0.3749999999999993
 40
0.3749999999999993
 40
0.4999999999999994
 40
0.4999999999999994
 40
0.6249999999999996
 40
0.6249999999999996
 40
0.7499999999999997
 40
0.7499999999999997
 40
0.8749999999999999
 40
0.8749999999999999
 40
1.0
 40
1.0
 40
1.0
 40
1.0
 10
-272.5000000000001
 20
-79.99999999999996
 30
0.0
 10
-285.0429615442732
 20
-79.99999999999999
 30
0.0
 10
-297.5858978152227
 20
-80.00000000000007
 30
0.0
 10
-316.4005127899754
 20
-80.00000000000006
 30
0.0
 10
-322.6720746200446
 20
-80.00000000000001
 30
0.0
 10
-335.2153304376095
 20
-80.0
 30
0.0
 10
-341.4870238915691
 20
-80.00000000000006
 30
0.0
 10
-354.0307157878575
 20
-80.00000000000003
 30
0.0
 10
-360.3023185342817
 20
-80.00000000000003
 30
0.0
 10
-372.8448551833071
 20
-80.00000000000006
 30
0.0
 10
-379.1157919070987
 20
-80.00000000000003
 30
0.0
 10
-391.6574180652083
 20
-80.00000000000006
 30
0.0
 10
-397.9280293366392
 20
-80.00000000000004
 30
0.0
 10
-410.4694315474293
 20
-80.00000000000003
 30
0.0
 10
-416.7402073036054
 20
-79.99999999999994
 30
0.0
 10
-423.0111138646279
 20
-79.99999999999996
 30
0.0
  0
SPLINE
  5
78
330
1F
100
AcDbEntity
  8
0
  6
Continuous
 62
     7
370
    25
100
AcDbSpline
210
0.0
220
0.0
230
1.0
 70
     8
 71
     3
 72
    20
 73
    16
 74
     0
 42
0.000000001
 43
0.00000001
 40
0.0
 40
0.0
 40
0.0
 40
0.0
 40
0.1249999999999951
 40
0.1249999999999951
 40
0.2499999999999901
 40
0.2499999999999901
 40
0.3749999999999852
 40
0.3749999999999852
 40
0.4999999999999802
 40
0.4999999999999802
 40
0.6249999999999754
 40
0.6249999999999754
 40
0.7499999999999704
 40
0.7499999999999704
 40
1.0
 40
1.0
 40
1.0
 40
1.0
 10
-269.9999999999997
 20
-77.50000000000001
 30
0.0
 10
-269.9999999999997
 20
-77.66504962727436
 30
0.0
 10
-270.0161844118823
 20
-77.82734623096721
 30
0.0
 10
-270.0796015032622
 20
-78.1466579835542
 30
0.0
 10
-270.127601609095
 20
-78.30532402237142
 30
0.0
 10
-270.252936223894
 20
-78.6079374044995
 30
0.0
 10
-270.3296359068416
 20
-78.75147066888269
 30
0.0
 10
-270.5108465118356
 20
-79.02313083235424
 30
0.0
 10
-270.6163317239511
 20
-79.15177643563571
 30
0.0
 10
-270.8467707241056
 20
-79.38239329812892
 30
0.0
 10
-270.9725076093482
 20
-79.48588886693818
 30
0.0
 10
-271.2455121387793
 20
-79.66869725904246
 30
0.0
 10
-271.390929380529
 20
-79.74642930713985
 30
0.0
 10
-271.8418007232656
 20
-79.93366036987675
 30
0.0
 10
-272.1698640860093
 20
-80.00000000000006
 30
0.0
 10
-272.5000000000001
 20
-80.00000000000007
 30
0.0
  0
SPLINE
  5
7A
330
1F
100
AcDbEntity
  8
0
  6
Continuous
 62
     7
370
    25
100
AcDbSpline
210
0.0
220
0.0
230
1.0
 70
    24
 71
     3
 72
    14
 73
    10
 74
     0
 42
0.000000001
 43
0.00000001
 40
0.0
 40
0.0
 40
0.0
 40
0.0
 40
0.25
 40
0.25
 40
0.5
 40
0.5
 40
0.75
 40
0.75
 40
1.0
 40
1.0
 40
1.0
 40
1.0
 10
-269.9999999999997
 20
60.07986859056614
 30
0.0
 10
-269.9999999999997
 20
50.06674158365618
 30
0.0
 10
-269.9999999999996
 20
40.05357374641545
 30
0.0
 10
-269.9999999999995
 20
20.02691386705195
 30
0.0
 10
-269.9999999999997
 20
10.01351108401088
 30
0.0
 10
-269.9999999999997
 20
-10.0135111414058
 30
0.0
 10
-269.9999999999996
 20
-20.02691388492802
 30
0.0
 10
-269.9999999999996
 20
-40.05357376630501
 30
0.0
 10
-269.9999999999997
 20
-50.06674158791935
 30
0.0
 10
-269.9999999999997
 20
-60.07986859056614
 30
0.0
  0
SPLINE
  5
7D
330
1F
100
AcDbEntity
  8
0
  6
Continuous
 62
     7
370
    25
100
AcDbSpline
210
0.0
220
0.0
230
1.0
 70
    24
 71
     3
 72
     8
 73
     4
 74
     0
 42
0.000000001
 43
0.00000001
 40
0.0
 40
0.0
 40
0.0
 40
0.0
 40
1.0
 40
1.0
 40
1.0
 40
1.0
 10
-269.9999999999997
 20
77.50000000000001
 30
0.0
 10
-269.9999999999997
 20
71.6935309578846
 30
0.0
 10
-269.9999999999997
 20
65.88681047895788
 30
0.0
 10
-269.9999999999997
 20
60.07986859056614
 30
0.0
  0
SPLINE
  5
7E
330
1F
100
AcDbEntity
  8
0
  6
Continuous
 62
     7
370
    25
100
AcDbSpline
210
0.0
220
0.0
230
1.0
 70
     8
 71
     3
 72
    20
 73
    16
 74
     0
 42
0.000000001
 43
0.00000001
 40
0.0
 40
0.0
 40
0.0
 40
0.0
 40
0.1249999999999992
 40
0.1249999999999992
 40
0.2499999999999983
 40
0.2499999999999983
 40
0.3749999999999975
 40
0.3749999999999975
 40
0.4999999999999967
 40
0.4999999999999967
 40
0.6249999999999958
 40
0.6249999999999958
 40
0.749999999999995
 40
0.749999999999995
 40
1.0
 40
1.0
 40
1.0
 40
1.0
 10
-272.5000000000001
 20
80.00000000000007
 30
0.0
 10
-272.3349324908005
 20
80.00000000000009
 30
0.0
 10
-272.1726190249296
 20
79.98381211637654
 30
0.0
 10
-271.8532754331173
 20
79.92038184319895
 30
0.0
 10
-271.6945931651242
 20
79.87237104726142
 30
0.0
 10
-271.3919641156428
 20
79.74701602898728
 30
0.0
 10
-271.2484252601934
 20
79.67030482340407
 30
0.0
 10
-270.9767580473506
 20
79.48906920681553
 30
0.0
 10
-270.8481174750363
 20
79.38357510682549
 30
0.0
 10
-270.6175156619526
 20
79.15312545692683
 30
0.0
 10
-270.5140278532624
 20
79.02738397917915
 30
0.0
 10
-270.3312356041459
 20
78.75437162864363
 30
0.0
 10
-270.2535223658052
 20
78.60897084551021
 30
0.0
 10
-270.0663237048231
 20
78.1581277070662
 30
0.0
 10
-270.0000000000006
 20
77.83009875963761
 30
0.0
 10
-270.0000000000006
 20
77.50000000000001
 30
0.0
  0
SPLINE
  5
7F
330
1F
100
AcDbEntity
  8
0
  6
Continuous
 62
     7
370
    25
100
AcDbSpline
210
0.0
220
0.0
230
1.0
 70
    24
 71
     3
 72
    20
 73
    16
 74
     0
 42
0.000000001
 43
0.00000001
 40
0.0
 40
0.0
 40
0.0
 40
0.0
 40
0.125
 40
0.125
 40
0.25
 40
0.25
 40
0.375
 40
0.375
 40
0.5
 40
0.5
 40
0.625
 40
0.625
 40
0.75
 40
0.75
 40
1.0
 40
1.0
 40
1.0
 40
1.0
 10
-423.0111138646279
 20
80.00000000000007
 30
0.0
 10
-416.7402074330873
 20
80.00000000000007
 30
0.0
 10
-410.4694318078393
 20
80.00000000000001
 30
0.0
 10
-397.9280298605609
 20
80.0
 30
0.0
 10
-391.6574186449132
 20
79.99999999999999
 30
0.0
 10
-379.1157929018903
 20
79.99999999999999
 30
0.0
 10
-372.8448564508307
 20
79.99999999999996
 30
0.0
 10
-360.3023195135675
 20
79.99999999999997
 30
0.0
 10
-354.0307158949292
 20
79.99999999999996
 30
0.0
 10
-341.4870233851112
 20
79.99999999999996
 30
0.0
 10
-335.2153304684171
 20
80.00000000000004
 30
0.0
 10
-322.6720747086733
 20
80.00000000000006
 30
0.0
 10
-316.4005128585977
 20
79.99999999999999
 30
0.0
 10
-297.5858978322917
 20
80.0
 30
0.0
 10
-285.0429615620565
 20
79.99999999999996
 30
0.0
 10
-272.5000000000001
 20
79.99999999999996
 30
0.0
  0
SPLINE
  5
86
330
1F
100
AcDbEntity
  8
0
  6
Continuous
 62
     7
370
    25
100
AcDbSpline
210
0.0
220
0.0
230
1.0
 70
    24
 71
     3
 72
     8
 73
     4
 74
     0
 42
0.000000001
 43
0.00000001
 40
0.0
 40
0.0
 40
0.0
 40
0.0
 40
1.0
 40
1.0
 40
1.0
 40
1.0
 10
-427.5000000000003
 20
79.99999999999996
 30
0.0
 10
-426.0039053404136
 20
79.99999999999996
 30
0.0
 10
-424.507607432414
 20
79.99999999999996
 30
0.0
 10
-423.0111138646279
 20
79.99999999999996
 30
0.0
  0
SPLINE
  5
87
330
1F
100
AcDbEntity
  8
0
  6
Continuous
 62
     7
370
    25
100
AcDbSpline
210
0.0
220
0.0
230
1.0
 70
     8
 71
     3
 72
    20
 73
    16
 74
     0
 42
0.000000001
 43
0.00000001
 40
0.0
 40
0.0
 40
0.0
 40
0.0
 40
0.1249999999999956
 40
0.1249999999999956
 40
0.2499999999999912
 40
0.2499999999999912
 40
0.3749999999999868
 40
0.3749999999999868
 40
0.4999999999999823
 40
0.4999999999999823
 40
0.6249999999999779
 40
0.6249999999999779
 40
0.7499999999999736
 40
0.7499999999999736
 40
1.0
 40
1.0
 40
1.0
 40
1.0
 10
-429.9999999999998
 20
77.50000000000001
 30
0.0
 10
-429.9999999999998
 20
77.66510999336822
 30
0.0
 10
-429.983803817042
 20
77.82747339497254
 30
0.0
 10
-429.9203310973464
 20
78.14692936645723
 30
0.0
 10
-429.8722812235532
 20
78.30568105201596
 30
0.0
 10
-429.7468491414373
 20
78.60838129577434
 30
0.0
 10
-429.6700908211449
 20
78.75195313230945
 30
0.0
 10
-429.4887392013439
 20
79.02367883970177
 30
0.0
 10
-429.3831990082772
 20
79.15231209736233
 30
0.0
 10
-429.1526842819763
 20
79.38287238972116
 30
0.0
 10
-429.0269090396466
 20
79.48633877797906
 30
0.0
 10
-428.7538224615743
 20
79.66908326052946
 30
0.0
 10
-428.6084951587518
 20
79.7467088728938
 30
0.0
 10
-428.1577508532566
 20
79.93376517377939
 30
0.0
 10
-427.8298815499505
 20
79.99999999999997
 30
0.0
 10
-427.5000000000003
 20
79.99999999999996
 30
0.0
  0
SPLINE
  5
88
330
1F
100
AcDbEntity
  8
0
  6
Continuous
 62
     7
370
    25
100
AcDbSpline
210
0.0
220
0.0
230
1.0
 70
    24
 71
     3
 72
    18
 73
    14
 74
     0
 42
0.000000001
 43
0.00000001
 40
0.0
 40
0.0
 40
0.0
 40
0.0
 40
0.2500000000000001
 40
0.2500000000000001
 40
0.3750000000000001
 40
0.3750000000000001
 40
0.5000000000000001
 40
0.5000000000000001
 40
0.6250000000000001
 40
0.6250000000000001
 40
0.7500000000000002
 40
0.7500000000000002
 40
1.0
 40
1.0
 40
1.0
 40
1.0
 10
-429.9999999999998
 20
-77.50000000000001
 30
0.0
 10
-429.9999999999998
 20
-64.58373955640546
 30
0.0
 10
-429.9999999999997
 20
-51.66786033296176
 30
0.0
 10
-429.9999999999997
 20
-32.29424566051724
 30
0.0
 10
-429.9999999999998
 20
-25.83642363638377
 30
0.0
 10
-429.9999999999998
 20
-12.92007340871625
 30
0.0
 10
-429.9999999999999
 20
-6.4614659478314
 30
0.0
 10
-430.0
 20
6.45856379239686
 30
0.0
 10
-429.9999999999999
 20
12.91734358713772
 30
0.0
 10
-429.9999999999999
 20
25.83415920028901
 30
0.0
 10
-429.9999999999999
 20
32.29225942097047
 30
0.0
 10
-430.0000000000001
 20
51.66668949452469
 30
0.0
 10
-429.9999999999999
 20
64.58312971420864
 30
0.0
 10
-429.9999999999998
 20
77.50000000000001
 30
0.0
  0
SPLINE
  5
89
330
1F
100
AcDbEntity
  8
0
  6
Continuous
 62
     7
370
    25
100
AcDbSpline
210
0.0
220
0.0
230
1.0
 70
     8
 71
     3
 72
    20
 73
    16
 74
     0
 42
0.000000001
 43
0.00000001
 40
0.0
 40
0.0
 40
0.0
 40
0.0
 40
0.125
 40
0.125
 40
0.25
 40
0.25
 40
0.375
 40
0.375
 40
0.5
 40
0.5
 40
0.625
 40
0.625
 40
0.75
 40
0.75
 40
1.0
 40
1.0
 40
1.0
 40
1.0
 10
-427.5000000000003
 20
-80.00000000000007
 30
0.0
 10
-427.6649435717617
 20
-80.00000000000007
 30
0.0
 10
-427.8271497537277
 20
-79.98383612426818
 30
0.0
 10
-428.1463083739356
 20
-79.92048638487479
 30
0.0
 10
-428.304908235618
 20
-79.87253635654136
 30
0.0
 10
-428.6074618592007
 20
-79.74729487635513
 30
0.0
 10
-428.7509812141256
 20
-79.67064427733271
 30
0.0
 10
-429.0226404540942
 20
-79.48952673376567
 30
0.0
 10
-429.1513208917565
 20
-79.38406948370515
 30
0.0
 10
-429.382021748336
 20
-79.15365433079914
 30
0.0
 10
-429.4855605514472
 20
-79.02792211082993
 30
0.0
 10
-429.6684556373341
 20
-78.75490909198241
 30
0.0
 10
-429.7462576593329
 20
-78.6094267813547
 30
0.0
 10
-429.9336165166786
 20
-78.15841906939265
 30
0.0
 10
-429.9999999999998
 20
-77.8302273941609
 30
0.0
 10
-429.9999999999998
 20
-77.50000000000001
 30
0.0
  0
SPLINE
  5
8A
330
1F
100
AcDbEntity
  8
0
  6
Continuous
 62
     7
370
    25
100
AcDbSpline
210
0.0
220
0.0
230
1.0
 70
    24
 71
     3
 72
     8
 73
     4
 74
     0
 42
0.000000001
 43
0.00000001
 40
0.0
 40
0.0
 40
0.0
 40
0.0
 40
1.0
 40
1.0
 40
1.0
 40
1.0
 10
-423.0111138646279
 20
-79.99999999999996
 30
0.0
 10
-424.5076074324141
 20
-79.99999999999996
 30
0.0
 10
-426.0039053404135
 20
-80.00000000000007
 30
0.0
 10
-427.5000000000003
 20
-80.00000000000007
 30
0.0
  0
LINE
  5
97
330
1F
100
AcDbEntity
  8
0
  6
Continuous
 62
     7
370
    25
100
AcDbLine
 10
580.0
 20
-480.0
 30
0.0
 11
-270.0
 21
-60.0798685906
 31
0.0
  0
LINE
  5
98
330
1F
100
AcDbEntity
  8
0
  6
Continuous
 62
     7
370
    25
100
AcDbLine
 10
-580.0
 20
-480.0
 30
0.0
 11
580.0
 21
-480.0
 31
0.0
  0
LINE
  5
99
330
1F
100
AcDbEntity
  8
0
  6
Continuous
 62
     7
370
    25
100
AcDbLine
 10
-580.0
 20
-480.0
 30
0.0
 11
-423.0111138646
 21
-80.0
 31
0.0
  0
LINE
  5
9A
330
1F
100
AcDbEntity
  8
0
  6
Continuous
 62
     7
370
    25
100
AcDbLine
 10
580.0
 20
-480.0
 30
0.0
 11
580.0
 21
480.0
 31
0.0
  0
LINE
  5
9B
330
1F
100
AcDbEntity
  8
0
  6
Continuous
 62
     7
370
    25
100
AcDbLine
 10
580.0
 20
480.0
 30
0.0
 11
-270.0
 21
60.0798685906
 31
0.0
  0
LINE
  5
9C
330
1F
100
AcDbEntity
  8
0
  6
Continuous
 62
     7
370
    25
100
AcDbLine
 10
580.0
 20
480.0
 30
0.0
 11
-580.0
 21
480.0
 31
0.0
  0
LINE
  5
9D
330
1F
100
AcDbEntity
  8
0
  6
Continuous
 62
     7
370
    25
100
AcDbLine
 10
-423.0111138646
 20
80.0
 30
0.0
 11
-580.0
 21
480.0
 31
0.0
  0
LINE
  5
9E
330
1F
100
AcDbEntity
  8
0
  6
Continuous
 62
     7
370
    25
100
AcDbLine
 10
600.0
 20
500.0
 30
0.0
 11
-600.0
 21
500.0
 31
0.0
  0
LINE
  5
9F
330
1F
100
AcDbEntity
  8
0
  6
Continuous
 62
     7
370
    25
100
AcDbLine
 10
600.0
 20
-500.0
 30
0.0
 11
600.0
 21
500.0
 31
0.0
  0
LINE
  5
A0
330
1F
100
AcDbEntity
  8
0
  6
Continuous
 62
     7
370
    25
100
AcDbLine
 10
-600.0
 20
-500.0
 30
0.0
 11
600.0
 21
-500.0
 31
0.0
  0
LINE
  5
A1
330
1F
100
AcDbEntity
  8
0
  6
Continuous
 62
     7
370
    25
100
AcDbLine
 10
-600.0
 20
500.0
 30
0.0
 11
-600.0
 21
-500.0
 31
0.0
  0
LINE
  5
A2
330
1F
100
AcDbEntity
  8
0
  6
Continuous
 62
     7
370
    25
100
AcDbLine
 10
-580.0
 20
480.0
 30
0.0
 11
-580.0
 21
-480.0
 31
0.0
  0
LINE
  5
A3
330
1F
100
AcDbEntity
  8
0
  6
Continuous
 62
     7
370
    25
100
AcDbLine
 10
-270.7543908743
 20
79.2456091257
 30
0.0
 11
-281.4644660941
 21
68.5355339059
 31
0.0
  0
LINE
  5
A4
330
1F
100
AcDbEntity
  8
0
  6
Continuous
 62
     7
370
    25
100
AcDbLine
 10
-270.7543829756
 20
-79.2456170244
 30
0.0
 11
-281.4644660941
 21
-68.5355339059
 31
0.0
  0
LINE
  5
A5
330
1F
100
AcDbEntity
  8
0
  6
Continuous
 62
     7
370
    25
100
AcDbLine
 10
-429.2455724935
 20
79.2455724935
 30
0.0
 11
-418.5355339059
 21
68.5355339059
 31
0.0
  0
LINE
  5
A6
330
1F
100
AcDbEntity
  8
0
  6
Continuous
 62
     7
370
    25
100
AcDbLine
 10
-418.5355339059
 20
-68.5355339059
 30
0.0
 11
-429.2456459572
 21
-79.2456459572
 31
0.0
  0
LINE
  5
A7
330
1F
100
AcDbEntity
  8
0
  6
Continuous
 62
     7
370
    25
100
AcDbLine
 10
-420.0
 20
65.0
 30
0.0
 11
-420.0
 21
-65.0
 31
0.0
  0
LINE
  5
A8
330
1F
100
AcDbEntity
  8
0
  6
Continuous
 62
     7
370
    25
100
AcDbLine
 10
-285.0
 20
70.0
 30
0.0
 11
-415.0
 21
70.0
 31
0.0
  0
LINE
  5
A9
330
1F
100
AcDbEntity
  8
0
  6
Continuous
 62
     7
370
    25
100
AcDbLine
 10
-280.0
 20
-65.0
 30
0.0
 11
-280.0
 21
65.0
 31
0.0
  0
LINE
  5
AA
330
1F
100
AcDbEntity
  8
0
  6
Continuous
 62
     7
370
    25
100
AcDbLine
 10
-415.0
 20
-70.0
 30
0.0
 11
-285.0
 21
-70.0
 31
0.0
  0
ARC
  5
AB
330
1F
100
AcDbEntity
  8
0
  6
Continuous
 62
     7
370
    25
100
AcDbCircle
 10
-415.0
 20
65.0
 30
0.0
 40
4.999999999999815
100
AcDbArc
 50
90.0
 51
180.0
  0
ARC
  5
AC
330
1F
100
AcDbEntity
  8
0
  6
Continuous
 62
     7
370
    25
100
AcDbCircle
 10
-285.0
 20
-65.0
 30
0.0
 40
4.999999999999957
100
AcDbArc
 50
270.0
 51
0.0
  0
ARC
  5
AD
330
1F
100
AcDbEntity
  8
0
  6
Continuous
 62
     7
370
    25
100
AcDbCircle
 10
-415.0
 20
-65.0
 30
0.0
 40
5.000000000000227
100
AcDbArc
 50
180.0
 51
270.0
  0
ARC
  5
AE
330
1F
100
AcDbEntity
  8
0
  6
Continuous
 62
     7
370
    25
100
AcDbCircle
 10
-285.0
 20
65.0
 30
0.0
 40
5.000000000000171
100
AcDbArc
 50
0.0
 51
90.0
  0
LINE
  5
B6
330
1B
100
AcDbEntity
 67
     1
  8
0
  6
Continuous
 62
     7
370
    25
100
AcDbLine
 10
-600.0
 20
35.0
 30
0.0
 11
600.0
 21
35.0
 31
0.0
  0
LINE
  5
B7
330
1B
100
AcDbEntity
 67
     1
  8
0
  6
Continuous
 62
     7
370
    25
100
AcDbLine
 10
600.0
 20
35.0
 30
0.0
 11
600.0
 21
0.0
 31
0.0
  0
LINE
  5
B8
330
1B
100
AcDbEntity
 67
     1
  8
0
  6
Continuous
 62
     7
370
    25
100
AcDbLine
 10
-600.0
 20
0.0
 30
0.0
 11
600.0
 21
0.0
 31
0.0
  0
LINE
  5
B9
330
1B
100
AcDbEntity
 67
     1
  8
0
  6
Continuous
 62
     7
370
    25
100
AcDbLine
 10
-600.0
 20
35.0
 30
0.0
 11
-600.0
 21
0.0
 31
0.0
  0
LINE
  5
BA
330
1B
100
AcDbEntity
 67
     1
  8
0
  6
Continuous
 62
     7
370
    25
100
AcDbLine
 10
-220.0
 20
-26.0
 30
0.0
 11
-220.0
 21
0.0
 31
0.0
  0
LINE
  5
BB
330
1B
100
AcDbEntity
 67
     1
  8
0
  6
Continuous
 62
     7
370
    25
100
AcDbLine
 10
-220.0
 20
-26.0
 30
0.0
 11
-480.0
 21
-26.0
 31
0.0
  0
LINE
  5
BC
330
1B
100
AcDbEntity
 67
     1
  8
0
  6
Continuous
 62
     7
370
    25
100
AcDbLine
 10
-480.0
 20
-26.0
 30
0.0
 11
-480.0
 21
0.0
 31
0.0
  0
VIEWPORT
  5
278
330
1B
100
AcDbEntity
 67
     1
  8
0
100
AcDbViewport
 10
0.0
 20
0.0
 30
0.0
 40
205.6
 41
156.0
 68
     1
 69
     1
 12
0.0
 22
0.0
 13
0.0
 23
0.0
 14
10.0
 24
10.0
 15
10.0
 25
10.0
 16
0.0
 26
0.0
 36
1.0
 17
0.0
 27
0.0
 37
0.0
 42
50.0
 43
0.0
 44
0.0
 45
1020.0
 50
0.0
 51
0.0
 72
   100
 90
   557152
  1

281
     0
 71
     1
 74
     0
110
0.0
120
0.0
130
0.0
111
1.0
121
0.0
131
0.0
112
0.0
122
1.0
132
0.0
 79
     0
146
0.0
  0
ENDSEC
  0
SECTION
  2
OBJECTS
  0
DICTIONARY
  5
C
330
0
100
AcDbDictionary
281
     1
  3
ACAD_GROUP
350
D
  3
ACAD_LAYOUT
350
1A
  3
ACAD_MLINESTYLE
350
17
  3
ACAD_PLOTSETTINGS
350
19
  3
ACAD_PLOTSTYLENAME
350
E
  3
ACAD_SCALELIST
350
47
  0
DICTIONARY
  5
D
102
{ACAD_REACTORS
330
C
102
}
330
C
100
AcDbDictionary
281
     1
  0
DICTIONARY
  5
1A
102
{ACAD_REACTORS
330
C
102
}
330
C
100
AcDbDictionary
281
     1
  3
_Dimetrisch
350
21B
  3
_Isometrisch
350
12F
  3
_Links
350
F0
  3
_Normal auf
350
CC
  3
_Rechts
350
26
  3
_Rückseite
350
DE
  3
_Trimetrisch
350
1AF
  3
_Unten
350
102
  3
_Vorderseite
350
1E
  3
Model
350
22
  0
DICTIONARY
  5
17
102
{ACAD_REACTORS
330
C
102
}
330
C
100
AcDbDictionary
281
     1
  3
Standard
350
18
  0
DICTIONARY
  5
19
102
{ACAD_REACTORS
330
C
102
}
330
C
100
AcDbDictionary
281
     1
  0
ACDBDICTIONARYWDFLT
  5
E
102
{ACAD_REACTORS
330
C
102
}
330
C
100
AcDbDictionary
281
     1
  3
Normal
350
F
100
AcDbDictionaryWithDefault
340
F
  0
DICTIONARY
  5
47
102
{ACAD_REACTORS
330
C
102
}
330
C
100
AcDbDictionary
281
     1
  3
A0
350
48
  3
A1
350
49
  3
A2
350
4A
  3
A3
350
4B
  3
A4
350
4C
  3
A5
350
4D
  3
A6
350
4E
  3
A7
350
4F
  3
A8
350
50
  3
A9
350
51
  3
B0
350
52
  3
B1
350
53
  3
B2
350
54
  3
B3
350
55
  3
B4
350
56
  3
B5
350
57
  3
B6
350
58
  3
B7
350
59
  3
B8
350
5A
  3
B9
350
5B
  3
C0
350
5C
  3
C1
350
5D
  3
C2
350
5E
  3
C3
350
5F
  3
C4
350
60
  3
C5
350
61
  3
C6
350
62
  3
C7
350
63
  3
C8
350
64
  3
C9
350
65
  3
D0
350
66
  3
D1
350
67
  3
D2
350
68
  0
LAYOUT
  5
21B
102
{ACAD_REACTORS
330
1A
102
}
330
1A
100
AcDbPlotSettings
  1

  2
none_device
  4
ISO_A4_(210.00_x_297.00_MM)
  6

 40
7.5
 41
20.0
 42
7.5
 43
20.0
 44
210.0
 45
297.0
 46
0.0
 47
0.0
 48
0.0
 49
0.0
140
0.0
141
0.0
142
1.0
143
4.6692607004
 70
   688
 72
     1
 73
     1
 74
     1
  7

 75
     0
147
0.2141666667
148
600.0
149
26.0
100
AcDbLayout
  1
_Dimetrisch
 70
     1
 71
     9
 10
0.0
 20
0.0
 11
0.0
 21
0.0
 12
0.0
 22
0.0
 32
0.0
 14
0.0
 24
0.0
 34
0.0
 15
0.0
 25
0.0
 35
0.0
146
0.0
 13
0.0
 23
0.0
 33
0.0
 16
1.0
 26
0.0
 36
0.0
 17
0.0
 27
1.0
 37
0.0
 76
     0
330
21A
331
288
  0
LAYOUT
  5
12F
102
{ACAD_REACTORS
330
1A
102
}
330
1A
100
AcDbPlotSettings
  1

  2
none_device
  4
ISO_A4_(210.00_x_297.00_MM)
  6

 40
7.5
 41
20.0
 42
7.5
 43
20.0
 44
210.0
 45
297.0
 46
0.0
 47
0.0
 48
0.0
 49
0.0
140
0.0
141
0.0
142
1.0
143
4.6692607004
 70
   688
 72
     1
 73
     1
 74
     1
  7

 75
     0
147
0.2141666667
148
600.0
149
26.0
100
AcDbLayout
  1
_Isometrisch
 70
     1
 71
     7
 10
0.0
 20
0.0
 11
0.0
 21
0.0
 12
0.0
 22
0.0
 32
0.0
 14
0.0
 24
0.0
 34
0.0
 15
0.0
 25
0.0
 35
0.0
146
0.0
 13
0.0
 23
0.0
 33
0.0
 16
1.0
 26
0.0
 36
0.0
 17
0.0
 27
1.0
 37
0.0
 76
     0
330
12E
331
284
  0
LAYOUT
  5
F0
102
{ACAD_REACTORS
330
1A
102
}
330
1A
100
AcDbPlotSettings
  1

  2
none_device
  4
ISO_A4_(210.00_x_297.00_MM)
  6

 40
7.5
 41
20.0
 42
7.5
 43
20.0
 44
210.0
 45
297.0
 46
0.0
 47
0.0
 48
0.0
 49
0.0
140
0.0
141
0.0
142
1.0
143
4.6692607004
 70
   688
 72
     1
 73
     1
 74
     1
  7

 75
     0
147
0.2141666667
148
600.0
149
26.0
100
AcDbLayout
  1
_Links
 70
     1
 71
     5
 10
0.0
 20
0.0
 11
0.0
 21
0.0
 12
0.0
 22
0.0
 32
0.0
 14
0.0
 24
0.0
 34
0.0
 15
0.0
 25
0.0
 35
0.0
146
0.0
 13
0.0
 23
0.0
 33
0.0
 16
1.0
 26
0.0
 36
0.0
 17
0.0
 27
1.0
 37
0.0
 76
     0
330
EF
331
280
  0
LAYOUT
  5
CC
102
{ACAD_REACTORS
330
1A
102
}
330
1A
100
AcDbPlotSettings
  1

  2
none_device
  4
ISO_A4_(210.00_x_297.00_MM)
  6

 40
7.5
 41
20.0
 42
7.5
 43
20.0
 44
210.0
 45
297.0
 46
0.0
 47
0.0
 48
0.0
 49
0.0
140
0.0
141
0.0
142
1.0
143
4.6692607004
 70
   688
 72
     1
 73
     1
 74
     1
  7

 75
     0
147
0.2141666667
148
600.0
149
26.0
100
AcDbLayout
  1
_Normal auf
 70
     1
 71
     3
 10
0.0
 20
0.0
 11
0.0
 21
0.0
 12
0.0
 22
0.0
 32
0.0
 14
0.0
 24
0.0
 34
0.0
 15
0.0
 25
0.0
 35
0.0
146
0.0
 13
0.0
 23
0.0
 33
0.0
 16
1.0
 26
0.0
 36
0.0
 17
0.0
 27
1.0
 37
0.0
 76
     0
330
CB
331
27C
  0
LAYOUT
  5
26
102
{ACAD_REACTORS
330
1A
102
}
330
1A
100
AcDbPlotSettings
  1

  2
none_device
  4
ISO_A4_(210.00_x_297.00_MM)
  6

 40
7.5
 41
20.0
 42
7.5
 43
20.0
 44
210.0
 45
297.0
 46
0.0
 47
0.0
 48
0.0
 49
0.0
140
0.0
141
0.0
142
1.0
143
4.6692607004
 70
   688
 72
     1
 73
     1
 74
     1
  7

 75
     0
147
0.2141666667
148
600.0
149
26.0
100
AcDbLayout
  1
_Rechts
 70
     1
 71
     2
 10
0.0
 20
0.0
 11
0.0
 21
0.0
 12
0.0
 22
0.0
 32
0.0
 14
0.0
 24
0.0
 34
0.0
 15
0.0
 25
0.0
 35
0.0
146
0.0
 13
0.0
 23
0.0
 33
0.0
 16
1.0
 26
0.0
 36
0.0
 17
0.0
 27
1.0
 37
0.0
 76
     0
330
23
331
27A
  0
LAYOUT
  5
DE
102
{ACAD_REACTORS
330
1A
102
}
330
1A
100
AcDbPlotSettings
  1

  2
none_device
  4
ISO_A4_(210.00_x_297.00_MM)
  6

 40
7.5
 41
20.0
 42
7.5
 43
20.0
 44
210.0
 45
297.0
 46
0.0
 47
0.0
 48
0.0
 49
0.0
140
0.0
141
0.0
142
1.0
143
4.6692607004
 70
   688
 72
     1
 73
     1
 74
     1
  7

 75
     0
147
0.2141666667
148
600.0
149
26.0
100
AcDbLayout
  1
_Rückseite
 70
     1
 71
     4
 10
0.0
 20
0.0
 11
0.0
 21
0.0
 12
0.0
 22
0.0
 32
0.0
 14
0.0
 24
0.0
 34
0.0
 15
0.0
 25
0.0
 35
0.0
146
0.0
 13
0.0
 23
0.0
 33
0.0
 16
1.0
 26
0.0
 36
0.0
 17
0.0
 27
1.0
 37
0.0
 76
     0
330
DD
331
27E
  0
LAYOUT
  5
1AF
102
{ACAD_REACTORS
330
1A
102
}
330
1A
100
AcDbPlotSettings
  1

  2
none_device
  4
ISO_A4_(210.00_x_297.00_MM)
  6

 40
7.5
 41
20.0
 42
7.5
 43
20.0
 44
210.0
 45
297.0
 46
0.0
 47
0.0
 48
0.0
 49
0.0
140
0.0
141
0.0
142
1.0
143
4.6692607004
 70
   688
 72
     1
 73
     1
 74
     1
  7

 75
     0
147
0.2141666667
148
600.0
149
26.0
100
AcDbLayout
  1
_Trimetrisch
 70
     1
 71
     8
 10
0.0
 20
0.0
 11
0.0
 21
0.0
 12
0.0
 22
0.0
 32
0.0
 14
0.0
 24
0.0
 34
0.0
 15
0.0
 25
0.0
 35
0.0
146
0.0
 13
0.0
 23
0.0
 33
0.0
 16
1.0
 26
0.0
 36
0.0
 17
0.0
 27
1.0
 37
0.0
 76
     0
330
1AE
331
286
  0
LAYOUT
  5
102
102
{ACAD_REACTORS
330
1A
102
}
330
1A
100
AcDbPlotSettings
  1

  2
none_device
  4
ISO_A4_(210.00_x_297.00_MM)
  6

 40
7.5
 41
20.0
 42
7.5
 43
20.0
 44
210.0
 45
297.0
 46
0.0
 47
0.0
 48
0.0
 49
0.0
140
0.0
141
0.0
142
1.0
143
4.6692607004
 70
   688
 72
     1
 73
     1
 74
     1
  7

 75
     0
147
0.2141666667
148
600.0
149
26.0
100
AcDbLayout
  1
_Unten
 70
     1
 71
     6
 10
0.0
 20
0.0
 11
0.0
 21
0.0
 12
0.0
 22
0.0
 32
0.0
 14
0.0
 24
0.0
 34
0.0
 15
0.0
 25
0.0
 35
0.0
146
0.0
 13
0.0
 23
0.0
 33
0.0
 16
1.0
 26
0.0
 36
0.0
 17
0.0
 27
1.0
 37
0.0
 76
     0
330
101
331
282
  0
LAYOUT
  5
1E
102
{ACAD_REACTORS
330
1A
102
}
330
1A
100
AcDbPlotSettings
  1

  2
none_device
  4
ISO_A4_(210.00_x_297.00_MM)
  6

 40
7.5
 41
20.0
 42
7.5
 43
20.0
 44
210.0
 45
297.0
 46
0.0
 47
0.0
 48
0.0
 49
0.0
140
0.0
141
0.0
142
1.0
143
4.6692607004
 70
   688
 72
     1
 73
     1
 74
     1
  7

 75
     0
147
0.2141666667
148
600.0
149
26.0
100
AcDbLayout
  1
_Vorderseite
 70
     1
 71
     1
 10
-693.3852140078
 20
-61.0194552529
 11
693.3852140078
 21
919.5252918288
 12
0.0
 22
0.0
 32
0.0
 14
-600.0
 24
-26.0
 34
0.0
 15
600.0
 25
35.0
 35
0.0
146
0.0
 13
0.0
 23
0.0
 33
0.0
 16
1.0
 26
0.0
 36
0.0
 17
0.0
 27
1.0
 37
0.0
 76
     0
330
1B
331
278
  0
LAYOUT
  5
22
102
{ACAD_REACTORS
330
1A
102
}
330
1A
100
AcDbPlotSettings
  1

  2
none_device
  4
ANSI_A_(11.00_x_8.50_Inches)
  6

 40
6.35
 41
19.05
 42
6.35000508
 43
19.05000254
 44
279.4
 45
215.9
 46
133.34999746
 47
88.89999873
 48
0.0
 49
0.0
140
0.0
141
0.0
142
0.008415
143
1.0
 70
  1696
 72
     0
 73
     0
 74
     0
  7

 75
     0
147
0.0179189148
148
-1300.4909072572
149
0.0
100
AcDbLayout
  1
Model
 70
     1
 71
     0
 10
0.0
 20
0.0
 11
420.0
 21
297.0
 12
0.0
 22
0.0
 32
0.0
 14
-600.0
 24
-500.0
 34
0.0
 15
600.0
 25
500.0
 35
0.0
146
0.0
 13
0.0
 23
0.0
 33
0.0
 16
1.0
 26
0.0
 36
0.0
 17
0.0
 27
1.0
 37
0.0
 76
     0
330
1F
331
29
  0
MLINESTYLE
  5
18
102
{ACAD_REACTORS
330
17
102
}
330
17
100
AcDbMlineStyle
  2
Standard
 70
     0
  3

 62
   256
 51
90.0
 52
90.0
 71
     2
 49
0.5
 62
   256
  6
BYLAYER
 49
-0.5
 62
   256
  6
BYLAYER
  0
ACDBPLACEHOLDER
  5
F
102
{ACAD_REACTORS
330
E
102
}
330
E
  0
SCALE
  5
48
102
{ACAD_REACTORS
330
47
102
}
330
47
100
AcDbScale
 70
     0
300
1:1
140
1.0
141
1.0
290
     1
  0
SCALE
  5
49
102
{ACAD_REACTORS
330
47
102
}
330
47
100
AcDbScale
 70
     0
300
1:2
140
1.0
141
2.0
290
     0
  0
SCALE
  5
4A
102
{ACAD_REACTORS
330
47
102
}
330
47
100
AcDbScale
 70
     0
300
1:4
140
1.0
141
4.0
290
     0
  0
SCALE
  5
4B
102
{ACAD_REACTORS
330
47
102
}
330
47
100
AcDbScale
 70
     0
300
1:5
140
1.0
141
5.0
290
     0
  0
SCALE
  5
4C
102
{ACAD_REACTORS
330
47
102
}
330
47
100
AcDbScale
 70
     0
300
1:8
140
1.0
141
8.0
290
     0
  0
SCALE
  5
4D
102
{ACAD_REACTORS
330
47
102
}
330
47
100
AcDbScale
 70
     0
300
1:10
140
1.0
141
10.0
290
     0
  0
SCALE
  5
4E
102
{ACAD_REACTORS
330
47
102
}
330
47
100
AcDbScale
 70
     0
300
1:16
140
1.0
141
16.0
290
     0
  0
SCALE
  5
4F
102
{ACAD_REACTORS
330
47
102
}
330
47
100
AcDbScale
 70
     0
300
1:20
140
1.0
141
20.0
290
     0
  0
SCALE
  5
50
102
{ACAD_REACTORS
330
47
102
}
330
47
100
AcDbScale
 70
     0
300
1:30
140
1.0
141
30.0
290
     0
  0
SCALE
  5
51
102
{ACAD_REACTORS
330
47
102
}
330
47
100
AcDbScale
 70
     0
300
1:40
140
1.0
141
40.0
290
     0
  0
SCALE
  5
52
102
{ACAD_REACTORS
330
47
102
}
330
47
100
AcDbScale
 70
     0
300
1:50
140
1.0
141
50.0
290
     0
  0
SCALE
  5
53
102
{ACAD_REACTORS
330
47
102
}
330
47
100
AcDbScale
 70
     0
300
1:100
140
1.0
141
100.0
290
     0
  0
SCALE
  5
54
102
{ACAD_REACTORS
330
47
102
}
330
47
100
AcDbScale
 70
     0
300
2:1
140
2.0
141
1.0
290
     0
  0
SCALE
  5
55
102
{ACAD_REACTORS
330
47
102
}
330
47
100
AcDbScale
 70
     0
300
4:1
140
4.0
141
1.0
290
     0
  0
SCALE
  5
56
102
{ACAD_REACTORS
330
47
102
}
330
47
100
AcDbScale
 70
     0
300
8:1
140
8.0
141
1.0
290
     0
  0
SCALE
  5
57
102
{ACAD_REACTORS
330
47
102
}
330
47
100
AcDbScale
 70
     0
300
10:1
140
10.0
141
1.0
290
     0
  0
SCALE
  5
58
102
{ACAD_REACTORS
330
47
102
}
330
47
100
AcDbScale
 70
     0
300
100:1
140
100.0
141
1.0
290
     0
  0
SCALE
  5
59
102
{ACAD_REACTORS
330
47
102
}
330
47
100
AcDbScale
 70
     0
300
1/128" = 1'-0"
140
0.0078125
141
12.0
290
     0
  0
SCALE
  5
5A
102
{ACAD_REACTORS
330
47
102
}
330
47
100
AcDbScale
 70
     0
300
1/64" = 1'-0"
140
0.015625
141
12.0
290
     0
  0
SCALE
  5
5B
102
{ACAD_REACTORS
330
47
102
}
330
47
100
AcDbScale
 70
     0
300
1/32" = 1'-0"
140
0.03125
141
12.0
290
     0
  0
SCALE
  5
5C
102
{ACAD_REACTORS
330
47
102
}
330
47
100
AcDbScale
 70
     0
300
1/16" = 1'-0"
140
0.0625
141
12.0
290
     0
  0
SCALE
  5
5D
102
{ACAD_REACTORS
330
47
102
}
330
47
100
AcDbScale
 70
     0
300
3/32" = 1'-0"
140
0.09375
141
12.0
290
     0
  0
SCALE
  5
5E
102
{ACAD_REACTORS
330
47
102
}
330
47
100
AcDbScale
 70
     0
300
1/8" = 1'-0"
140
0.125
141
12.0
290
     0
  0
SCALE
  5
5F
102
{ACAD_REACTORS
330
47
102
}
330
47
100
AcDbScale
 70
     0
300
3/16" = 1'-0"
140
0.1875
141
12.0
290
     0
  0
SCALE
  5
60
102
{ACAD_REACTORS
330
47
102
}
330
47
100
AcDbScale
 70
     0
300
1/4" = 1'-0"
140
0.25
141
12.0
290
     0
  0
SCALE
  5
61
102
{ACAD_REACTORS
330
47
102
}
330
47
100
AcDbScale
 70
     0
300
3/8" = 1'-0"
140
0.375
141
12.0
290
     0
  0
SCALE
  5
62
102
{ACAD_REACTORS
330
47
102
}
330
47
100
AcDbScale
 70
     0
300
1/2" = 1'-0"
140
0.5
141
12.0
290
     0
  0
SCALE
  5
63
102
{ACAD_REACTORS
330
47
102
}
330
47
100
AcDbScale
 70
     0
300
3/4" = 1'-0"
140
0.75
141
12.0
290
     0
  0
SCALE
  5
64
102
{ACAD_REACTORS
330
47
102
}
330
47
100
AcDbScale
 70
     0
300
1" = 1'-0"
140
1.0
141
12.0
290
     0
  0
SCALE
  5
65
102
{ACAD_REACTORS
330
47
102
}
330
47
100
AcDbScale
 70
     0
300
1-1/2" = 1'-0"
140
1.5
141
12.0
290
     0
  0
SCALE
  5
66
102
{ACAD_REACTORS
330
47
102
}
330
47
100
AcDbScale
 70
     0
300
3" = 1'-0"
140
3.0
141
12.0
290
     0
  0
SCALE
  5
67
102
{ACAD_REACTORS
330
47
102
}
330
47
100
AcDbScale
 70
     0
300
6" = 1'-0"
140
6.0
141
12.0
290
     0
  0
SCALE
  5
68
102
{ACAD_REACTORS
330
47
102
}
330
47
100
AcDbScale
 70
     0
300
1'-0" = 1'-0"
140
12.0
141
12.0
290
     0
  0
ENDSEC
  0
EOF
