  0
SECTION
  2
HEADER
  9
$ACADVER
  1
AC1015
  9
$ACADMAINTVER
 70
     6
  9
$DWGCODEPAGE
  3
ANSI_1252
  9
$INSBASE
 10
0.0
 20
0.0
 30
0.0
  9
$EXTMIN
 10
-550.0
 20
-400.0
 30
0.0
  9
$EXTMAX
 10
550.0
 20
400.0
 30
0.0
  9
$LIMMIN
 10
0.0
 20
0.0
  9
$LIMMAX
 10
420.0
 20
297.0
  9
$ORTHOMODE
 70
     0
  9
$REGENMODE
 70
     1
  9
$FILLMODE
 70
     1
  9
$QTEXTMODE
 70
     0
  9
$MIRRTEXT
 70
     1
  9
$LTSCALE
 40
1.0
  9
$ATTMODE
 70
     1
  9
$TEXTSIZE
 40
3.5
  9
$TRACEWID
 40
1.0
  9
$TEXTSTYLE
  7
STANDARD
  9
$CLAYER
  8
0
  9
$CELTYPE
  6
ByLayer
  9
$CECOLOR
 62
   256
  9
$CELTSCALE
 40
1.0
  9
$DISPSILH
 70
     0
  9
$DIMSCALE
 40
1.0
  9
$DIMASZ
 40
7.4083333333
  9
$DIMEXO
 40
1.0
  9
$DIMDLI
 40
3.75
  9
$DIMRND
 40
0.0
  9
$DIMDLE
 40
0.0
  9
$DIMEXE
 40
1.0
  9
$DIMTP
 40
0.0
  9
$DIMTM
 40
0.0
  9
$DIMTXT
 40
7.0555555556
  9
$DIMCEN
 40
2.5
  9
$DIMTSZ
 40
0.0
  9
$DIMTOL
 70
     0
  9
$DIMLIM
 70
     0
  9
$DIMTIH
 70
     1
  9
$DIMTOH
 70
     1
  9
$DIMSE1
 70
     0
  9
$DIMSE2
 70
     0
  9
$DIMTAD
 70
     1
  9
$DIMZIN
 70
     0
  9
$DIMBLK
  1

  9
$DIMASO
 70
     1
  9
$DIMSHO
 70
     1
  9
$DIMPOST
  1

  9
$DIMAPOST
  1

  9
$DIMALT
 70
     0
  9
$DIMALTD
 70
     3
  9
$DIMALTF
 40
0.0393700787
  9
$DIMLFAC
 40
1.0
  9
$DIMTOFL
 70
     1
  9
$DIMTVP
 40
0.0
  9
$DIMTIX
 70
     0
  9
$DIMSOXD
 70
     0
  9
$DIMSAH
 70
     0
  9
$DIMBLK1
  1

  9
$DIMBLK2
  1

  9
$DIMSTYLE
  2
ISO-25
  9
$DIMCLRD
 70
     0
  9
$DIMCLRE
 70
     0
  9
$DIMCLRT
 70
     0
  9
$DIMTFAC
 40
1.0
  9
$DIMGAP
 40
1.524
  9
$DIMJUST
 70
     0
  9
$DIMSD1
 70
     0
  9
$DIMSD2
 70
     0
  9
$DIMTOLJ
 70
     0
  9
$DIMTZIN
 70
     0
  9
$DIMALTZ
 70
     0
  9
$DIMALTTZ
 70
     0
  9
$DIMUPT
 70
     0
  9
$DIMDEC
 70
     2
  9
$DIMTDEC
 70
     2
  9
$DIMALTU
 70
     2
  9
$DIMALTTD
 70
     3
  9
$DIMTXSTY
  7
STANDARD
  9
$DIMAUNIT
 70
     0
  9
$DIMADEC
 70
     2
  9
$DIMALTRND
 40
0.0
  9
$DIMAZIN
 70
     0
  9
$DIMDSEP
 70
    44
  9
$DIMATFIT
 70
     3
  9
$DIMFRAC
 70
     0
  9
$DIMLDRBLK
  1

  9
$DIMLUNIT
 70
     2
  9
$DIMLWD
 70
    -2
  9
$DIMLWE
 70
    -2
  9
$DIMTMOVE
 70
     0
  9
$LUNITS
 70
     2
  9
$LUPREC
 70
     2
  9
$SKETCHINC
 40
1.0
  9
$FILLETRAD
 40
10.0
  9
$AUNITS
 70
     0
  9
$AUPREC
 70
     2
  9
$MENU
  1
.
  9
$ELEVATION
 40
0.0
  9
$PELEVATION
 40
0.0
  9
$THICKNESS
 40
0.0
  9
$LIMCHECK
 70
     0
  9
$CHAMFERA
 40
0.0
  9
$CHAMFERB
 40
0.0
  9
$CHAMFERC
 40
0.0
  9
$CHAMFERD
 40
0.0
  9
$SKPOLY
 70
     0
  9
$TDCREATE
 40
2458232.487480232
  9
$TDUCREATE
 40
2458232.404146898
  9
$TDUPDATE
 40
2458232.487508541
  9
$TDUUPDATE
 40
2458232.404175208
  9
$TDINDWG
 40
0.0000000116
  9
$TDUSRTIMER
 40
0.0000000116
  9
$USRTIMER
 70
     1
  9
$ANGBASE
 50
0.0
  9
$ANGDIR
 70
     0
  9
$PDMODE
 70
     0
  9
$PDSIZE
 40
-1.0
  9
$PLINEWID
 40
0.0
  9
$SPLFRAME
 70
     0
  9
$SPLINETYPE
 70
     6
  9
$SPLINESEGS
 70
     8
  9
$HANDSEED
  5
292
  9
$SURFTAB1
 70
     6
  9
$SURFTAB2
 70
     6
  9
$SURFTYPE
 70
     6
  9
$SURFU
 70
     6
  9
$SURFV
 70
     6
  9
$UCSBASE
  2

  9
$UCSNAME
  2

  9
$UCSORG
 10
0.0
 20
0.0
 30
0.0
  9
$UCSXDIR
 10
1.0
 20
0.0
 30
0.0
  9
$UCSYDIR
 10
0.0
 20
1.0
 30
0.0
  9
$UCSORTHOREF
  2

  9
$UCSORTHOVIEW
 70
     0
  9
$UCSORGTOP
 10
0.0
 20
0.0
 30
0.0
  9
$UCSORGBOTTOM
 10
0.0
 20
0.0
 30
0.0
  9
$UCSORGLEFT
 10
0.0
 20
0.0
 30
0.0
  9
$UCSORGRIGHT
 10
0.0
 20
0.0
 30
0.0
  9
$UCSORGFRONT
 10
0.0
 20
0.0
 30
0.0
  9
$UCSORGBACK
 10
0.0
 20
0.0
 30
0.0
  9
$PUCSBASE
  2

  9
$PUCSNAME
  2

  9
$PUCSORG
 10
0.0
 20
0.0
 30
0.0
  9
$PUCSXDIR
 10
1.0
 20
0.0
 30
0.0
  9
$PUCSYDIR
 10
0.0
 20
1.0
 30
0.0
  9
$PUCSORTHOREF
  2

  9
$PUCSORTHOVIEW
 70
     0
  9
$PUCSORGTOP
 10
0.0
 20
0.0
 30
0.0
  9
$PUCSORGBOTTOM
 10
0.0
 20
0.0
 30
0.0
  9
$PUCSORGLEFT
 10
0.0
 20
0.0
 30
0.0
  9
$PUCSORGRIGHT
 10
0.0
 20
0.0
 30
0.0
  9
$PUCSORGFRONT
 10
0.0
 20
0.0
 30
0.0
  9
$PUCSORGBACK
 10
0.0
 20
0.0
 30
0.0
  9
$USERI1
 70
     0
  9
$USERI2
 70
     0
  9
$USERI3
 70
     0
  9
$USERI4
 70
     0
  9
$USERI5
 70
     0
  9
$USERR1
 40
0.0
  9
$USERR2
 40
0.0
  9
$USERR3
 40
0.0
  9
$USERR4
 40
0.0
  9
$USERR5
 40
0.0
  9
$WORLDVIEW
 70
     1
  9
$SHADEDGE
 70
     3
  9
$SHADEDIF
 70
    70
  9
$TILEMODE
 70
     1
  9
$MAXACTVP
 70
    64
  9
$PINSBASE
 10
0.0
 20
0.0
 30
0.0
  9
$PLIMCHECK
 70
     0
  9
$PEXTMIN
 10
-550.0
 20
-26.0
 30
0.0
  9
$PEXTMAX
 10
550.0
 20
35.0
 30
0.0
  9
$PLIMMIN
 10
-635.6031128405
 20
-58.1011673152
  9
$PLIMMAX
 10
635.6031128405
 20
840.7315175097
  9
$UNITMODE
 70
     0
  9
$VISRETAIN
 70
     1
  9
$PLINEGEN
 70
     0
  9
$PSLTSCALE
 70
     1
  9
$TREEDEPTH
 70
  3020
  9
$CMLSTYLE
  2
Standard
  9
$CMLJUST
 70
     0
  9
$CMLSCALE
 40
20.0
  9
$PROXYGRAPHICS
 70
     1
  9
$MEASUREMENT
 70
     1
  9
$CELWEIGHT
370
    -1
  9
$ENDCAPS
280
     0
  9
$JOINSTYLE
280
     0
  9
$LWDISPLAY
290
     1
  9
$INSUNITS
 70
     4
  9
$HYPERLINKBASE
  1

  9
$STYLESHEET
  1

  9
$XEDIT
290
     1
  9
$CEPSNTYPE
380
     0
  9
$PSTYLEMODE
290
     1
  9
$FINGERPRINTGUID
  2
{E3431A62-0713-4692-A91D-935091335FB7}
  9
$VERSIONGUID
  2
{FAEB1C32-E019-11D5-929B-00C0DF256EC4}
  9
$EXTNAMES
290
     1
  9
$PSVPSCALE
 40
0.0
  9
$OLESTARTUP
290
     0
  0
ENDSEC
  0
SECTION
  2
CLASSES
  0
CLASS
  1
ACDBDICTIONARYWDFLT
  2
AcDbDictionaryWithDefault
  3
ObjectDBX Classes
 90
        0
280
     0
281
     0
  0
CLASS
  1
VISUALSTYLE
  2
AcDbVisualStyle
  3
ObjectDBX Classes
 90
     4095
280
     0
281
     0
  0
CLASS
  1
MATERIAL
  2
AcDbMaterial
  3
ObjectDBX Classes
 90
     1153
280
     0
281
     0
  0
CLASS
  1
SCALE
  2
AcDbScale
  3
ObjectDBX Classes
 90
     1153
280
     0
281
     0
  0
CLASS
  1
TABLESTYLE
  2
AcDbTableStyle
  3
ObjectDBX Classes
 90
     4095
280
     0
281
     0
  0
CLASS
  1
MLEADERSTYLE
  2
AcDbMLeaderStyle
  3
ACDB_MLEADERSTYLE_CLASS
 90
     4095
280
     0
281
     0
  0
CLASS
  1
SUN
  2
AcDbSun
  3
SCENEOE
 90
     1153
280
     0
281
     0
  0
CLASS
  1
ACDBPLACEHOLDER
  2
AcDbPlaceHolder
  3
ObjectDBX Classes
 90
        0
280
     0
281
     0
  0
CLASS
  1
LAYOUT
  2
AcDbLayout
  3
ObjectDBX Classes
 90
        0
280
     0
281
     0
  0
ENDSEC
  0
SECTION
  2
TABLES
  0
TABLE
  2
VPORT
  5
8
330
0
100
AcDbSymbolTable
 70
     1
  0
VPORT
  5
29
330
8
100
AcDbSymbolTableRecord
100
AcDbViewportTableRecord
  2
*Active
 70
     0
 10
0.0
 20
0.0
 11
1.0
 21
1.0
 12
0.0
 22
0.0
 13
0.0
 23
0.0
 14
10.0
 24
10.0
 15
10.0
 25
10.0
 16
0.0
 26
0.0
 36
1.0
 17
0.0
 27
0.0
 37
0.0
 40
816.0
 41
1.375
 42
50.0
 43
0.0
 44
0.0
 50
0.0
 51
0.0
 71
     0
 72
   100
 73
     1
 74
     3
 75
     0
 76
     0
 77
     0
 78
     0
281
     0
 65
     1
110
0.0
120
0.0
130
0.0
111
1.0
121
0.0
131
0.0
112
0.0
122
1.0
132
0.0
 79
     0
146
0.0
  0
ENDTAB
  0
TABLE
  2
LTYPE
  5
5
330
0
100
AcDbSymbolTable
 70
     6
  0
LTYPE
  5
14
330
5
100
AcDbSymbolTableRecord
100
AcDbLinetypeTableRecord
  2
ByBlock
 70
     0
  3

 72
    65
 73
     0
 40
0.0
  0
LTYPE
  5
15
330
5
100
AcDbSymbolTableRecord
100
AcDbLinetypeTableRecord
  2
ByLayer
 70
     0
  3

 72
    65
 73
     0
 40
0.0
  0
LTYPE
  5
16
330
5
100
AcDbSymbolTableRecord
100
AcDbLinetypeTableRecord
  2
Continuous
 70
     0
  3
Solid line
 72
    65
 73
     0
 40
0.0
  0
LTYPE
  5
6E
330
5
100
AcDbSymbolTableRecord
100
AcDbLinetypeTableRecord
  2
HIDDEN
 70
     0
  3
Hidden __ __ __ __ __ __ __ __ __ __ __ __ __ __
 72
    65
 73
     2
 40
1.905
 49
1.27
 74
     0
 49
-0.635
 74
     0
  0
LTYPE
  5
6F
330
5
100
AcDbSymbolTableRecord
100
AcDbLinetypeTableRecord
  2
PHANTOM
 70
     0
  3
Phantom ______  __  __  ______  __  __  ______
 72
    65
 73
     6
 40
12.7
 49
6.35
 74
     0
 49
-1.27
 74
     0
 49
1.27
 74
     0
 49
-1.27
 74
     0
 49
1.27
 74
     0
 49
-1.27
 74
     0
  0
LTYPE
  5
70
330
5
100
AcDbSymbolTableRecord
100
AcDbLinetypeTableRecord
  2
CENTER
 70
     0
  3
Center ____ _ ____ _ ____ _ ____ _ ____ _ ____
 72
    65
 73
     4
 40
10.16
 49
6.35
 74
     0
 49
-1.27
 74
     0
 49
1.27
 74
     0
 49
-1.27
 74
     0
  0
LTYPE
  5
71
330
5
100
AcDbSymbolTableRecord
100
AcDbLinetypeTableRecord
  2
CENTERX2
 70
     0
  3
Center (2x) ________  __  ________  __  _____
 72
    65
 73
     4
 40
20.32
 49
12.7
 74
     0
 49
-2.54
 74
     0
 49
2.54
 74
     0
 49
-2.54
 74
     0
  0
LTYPE
  5
72
330
5
100
AcDbSymbolTableRecord
100
AcDbLinetypeTableRecord
  2
DOT2
 70
     0
  3
Dot (.5x) ........................................
 72
    65
 73
     2
 40
0.635
 49
0.0
 74
     0
 49
-0.635
 74
     0
  0
ENDTAB
  0
TABLE
  2
LAYER
  5
2
330
0
100
AcDbSymbolTable
 70
     1
  0
LAYER
  5
10
330
2
100
AcDbSymbolTableRecord
100
AcDbLayerTableRecord
  2
0
 70
     0
 62
     7
  6
Continuous
370
    -3
390
F
  0
ENDTAB
  0
TABLE
  2
STYLE
  5
3
330
0
100
AcDbSymbolTable
 70
     1
  0
STYLE
  5
11
330
3
100
AcDbSymbolTableRecord
100
AcDbTextStyleTableRecord
  2
STANDARD
 70
     0
 40
0.0
 41
1.0
 50
0.0
 71
     0
 42
3.5
  3
GOTHIC.TTF
  4

1001
ACAD
1000
CENTURY GOTHIC
1071
       34
  0
ENDTAB
  0
TABLE
  2
VIEW
  5
6
330
0
100
AcDbSymbolTable
 70
     0
  0
ENDTAB
  0
TABLE
  2
UCS
  5
7
330
0
100
AcDbSymbolTable
 70
     0
  0
ENDTAB
  0
TABLE
  2
APPID
  5
9
330
0
100
AcDbSymbolTable
 70
     1
  0
APPID
  5
12
330
9
100
AcDbSymbolTableRecord
100
AcDbRegAppTableRecord
  2
ACAD
 70
     0
  0
ENDTAB
  0
TABLE
  2
DIMSTYLE
  5
A
330
0
100
AcDbSymbolTable
 70
     1
100
AcDbDimStyleTable
  0
DIMSTYLE
105
27
330
A
100
AcDbSymbolTableRecord
100
AcDbDimStyleTableRecord
  2
ISO-25
 70
     0
 41
2.5
 42
0.625
 43
3.75
 44
1.25
 73
     0
 74
     0
 77
     1
 78
     8
140
2.5
141
2.5
143
0.0393700787
147
0.625
171
     3
172
     1
178
     0
271
     2
272
     2
274
     3
278
    44
283
     0
284
     8
340
11
  0
ENDTAB
  0
TABLE
  2
BLOCK_RECORD
  5
1
330
0
100
AcDbSymbolTable
 70
     8
  0
BLOCK_RECORD
  5
1F
330
1
100
AcDbSymbolTableRecord
100
AcDbBlockTableRecord
  2
*Model_Space
340
22
  0
BLOCK_RECORD
  5
1B
330
1
100
AcDbSymbolTableRecord
100
AcDbBlockTableRecord
  2
*Paper_Space
340
1E
  0
BLOCK_RECORD
  5
23
330
1
100
AcDbSymbolTableRecord
100
AcDbBlockTableRecord
  2
*Paper_Space0
340
26
  0
BLOCK_RECORD
  5
CD
330
1
100
AcDbSymbolTableRecord
100
AcDbBlockTableRecord
  2
*Paper_Space1
340
CE
  0
BLOCK_RECORD
  5
DF
330
1
100
AcDbSymbolTableRecord
100
AcDbBlockTableRecord
  2
*Paper_Space2
340
E0
  0
BLOCK_RECORD
  5
F1
330
1
100
AcDbSymbolTableRecord
100
AcDbBlockTableRecord
  2
*Paper_Space3
340
F2
  0
BLOCK_RECORD
  5
103
330
1
100
AcDbSymbolTableRecord
100
AcDbBlockTableRecord
  2
*Paper_Space4
340
104
  0
BLOCK_RECORD
  5
130
330
1
100
AcDbSymbolTableRecord
100
AcDbBlockTableRecord
  2
*Paper_Space5
340
131
  0
BLOCK_RECORD
  5
1B2
330
1
100
AcDbSymbolTableRecord
100
AcDbBlockTableRecord
  2
*Paper_Space6
340
1B3
  0
BLOCK_RECORD
  5
220
330
1
100
AcDbSymbolTableRecord
100
AcDbBlockTableRecord
  2
*Paper_Space7
340
221
  0
ENDTAB
  0
ENDSEC
  0
SECTION
  2
BLOCKS
  0
BLOCK
  5
20
330
1F
100
AcDbEntity
  8
0
100
AcDbBlockBegin
  2
*Model_Space
 70
     0
 10
0.0
 20
0.0
 30
0.0
  3
*Model_Space
  1

  0
ENDBLK
  5
21
330
1F
100
AcDbEntity
  8
0
100
AcDbBlockEnd
  0
BLOCK
  5
1C
330
1B
100
AcDbEntity
 67
     1
  8
0
100
AcDbBlockBegin
  2
*Paper_Space
 70
     0
 10
0.0
 20
0.0
 30
0.0
  3
*Paper_Space
  1

  0
ENDBLK
  5
1D
330
1B
100
AcDbEntity
 67
     1
  8
0
100
AcDbBlockEnd
  0
BLOCK
  5
24
330
23
100
AcDbEntity
  8
0
100
AcDbBlockBegin
  2
*Paper_Space0
 70
     0
 10
0.0
 20
0.0
 30
0.0
  3
*Paper_Space0
  1

  0
LINE
  5
C6
330
23
100
AcDbEntity
  8
0
  6
Continuous
 62
     7
370
    25
100
AcDbLine
 10
400.0
 20
35.0
 30
0.0
 11
400.0
 21
0.0
 31
0.0
  0
LINE
  5
C7
330
23
100
AcDbEntity
  8
0
  6
Continuous
 62
     7
370
    25
100
AcDbLine
 10
-400.0
 20
0.0
 30
0.0
 11
400.0
 21
0.0
 31
0.0
  0
LINE
  5
C8
330
23
100
AcDbEntity
  8
0
  6
Continuous
 62
     7
370
    25
100
AcDbLine
 10
-400.0
 20
35.0
 30
0.0
 11
-400.0
 21
0.0
 31
0.0
  0
LINE
  5
C9
330
23
100
AcDbEntity
  8
0
  6
Continuous
 62
     7
370
    25
100
AcDbLine
 10
-400.0
 20
35.0
 30
0.0
 11
400.0
 21
35.0
 31
0.0
  0
LINE
  5
CA
330
23
100
AcDbEntity
  8
0
  6
Continuous
 62
     7
370
    25
100
AcDbLine
 10
-130.0
 20
-26.0
 30
0.0
 11
-130.0
 21
0.0
 31
0.0
  0
LINE
  5
CB
330
23
100
AcDbEntity
  8
0
  6
Continuous
 62
     7
370
    25
100
AcDbLine
 10
130.0
 20
-26.0
 30
0.0
 11
130.0
 21
0.0
 31
0.0
  0
LINE
  5
CC
330
23
100
AcDbEntity
  8
0
  6
Continuous
 62
     7
370
    25
100
AcDbLine
 10
130.0
 20
-26.0
 30
0.0
 11
-130.0
 21
-26.0
 31
0.0
  0
VIEWPORT
  5
282
330
23
100
AcDbEntity
  8
0
100
AcDbViewport
 10
0.0
 20
0.0
 30
0.0
 40
205.6
 41
156.0
 68
     1
 69
     1
 12
0.0
 22
0.0
 13
0.0
 23
0.0
 14
10.0
 24
10.0
 15
10.0
 25
10.0
 16
0.0
 26
0.0
 36
1.0
 17
0.0
 27
0.0
 37
0.0
 42
50.0
 43
0.0
 44
0.0
 45
851.3229571984
 50
0.0
 51
0.0
 72
   100
 90
   557152
  1

281
     0
 71
     1
 74
     0
110
0.0
120
0.0
130
0.0
111
1.0
121
0.0
131
0.0
112
0.0
122
1.0
132
0.0
 79
     0
146
0.0
  0
ENDBLK
  5
25
330
23
100
AcDbEntity
  8
0
100
AcDbBlockEnd
  0
BLOCK
  5
CF
330
CD
100
AcDbEntity
  8
0
100
AcDbBlockBegin
  2
*Paper_Space1
 70
     0
 10
0.0
 20
0.0
 30
0.0
  3
*Paper_Space1
  1

  0
LINE
  5
D8
330
CD
100
AcDbEntity
  8
0
  6
Continuous
 62
     7
370
    25
100
AcDbLine
 10
-550.0
 20
35.0
 30
0.0
 11
550.0
 21
35.0
 31
0.0
  0
LINE
  5
D9
330
CD
100
AcDbEntity
  8
0
  6
Continuous
 62
     7
370
    25
100
AcDbLine
 10
550.0
 20
35.0
 30
0.0
 11
550.0
 21
0.0
 31
0.0
  0
LINE
  5
DA
330
CD
100
AcDbEntity
  8
0
  6
Continuous
 62
     7
370
    25
100
AcDbLine
 10
-550.0
 20
0.0
 30
0.0
 11
550.0
 21
0.0
 31
0.0
  0
LINE
  5
DB
330
CD
100
AcDbEntity
  8
0
  6
Continuous
 62
     7
370
    25
100
AcDbLine
 10
-550.0
 20
35.0
 30
0.0
 11
-550.0
 21
0.0
 31
0.0
  0
LINE
  5
DC
330
CD
100
AcDbEntity
  8
0
  6
Continuous
 62
     7
370
    25
100
AcDbLine
 10
-170.0
 20
-26.0
 30
0.0
 11
-430.0
 21
-26.0
 31
0.0
  0
LINE
  5
DD
330
CD
100
AcDbEntity
  8
0
  6
Continuous
 62
     7
370
    25
100
AcDbLine
 10
-170.0
 20
-26.0
 30
0.0
 11
-170.0
 21
0.0
 31
0.0
  0
LINE
  5
DE
330
CD
100
AcDbEntity
  8
0
  6
Continuous
 62
     7
370
    25
100
AcDbLine
 10
-430.0
 20
-26.0
 30
0.0
 11
-430.0
 21
0.0
 31
0.0
  0
VIEWPORT
  5
284
330
CD
100
AcDbEntity
  8
0
100
AcDbViewport
 10
0.0
 20
0.0
 30
0.0
 40
205.6
 41
156.0
 68
     1
 69
     1
 12
0.0
 22
0.0
 13
0.0
 23
0.0
 14
10.0
 24
10.0
 15
10.0
 25
10.0
 16
0.0
 26
0.0
 36
1.0
 17
0.0
 27
0.0
 37
0.0
 42
50.0
 43
0.0
 44
0.0
 45
851.3229571984
 50
0.0
 51
0.0
 72
   100
 90
   557152
  1

281
     0
 71
     1
 74
     0
110
0.0
120
0.0
130
0.0
111
1.0
121
0.0
131
0.0
112
0.0
122
1.0
132
0.0
 79
     0
146
0.0
  0
ENDBLK
  5
D0
330
CD
100
AcDbEntity
  8
0
100
AcDbBlockEnd
  0
BLOCK
  5
E1
330
DF
100
AcDbEntity
  8
0
100
AcDbBlockBegin
  2
*Paper_Space2
 70
     0
 10
0.0
 20
0.0
 30
0.0
  3
*Paper_Space2
  1

  0
LINE
  5
EA
330
DF
100
AcDbEntity
  8
0
  6
Continuous
 62
     7
370
    25
100
AcDbLine
 10
-550.0
 20
35.0
 30
0.0
 11
550.0
 21
35.0
 31
0.0
  0
LINE
  5
EB
330
DF
100
AcDbEntity
  8
0
  6
Continuous
 62
     7
370
    25
100
AcDbLine
 10
-550.0
 20
35.0
 30
0.0
 11
-550.0
 21
0.0
 31
0.0
  0
LINE
  5
EC
330
DF
100
AcDbEntity
  8
0
  6
Continuous
 62
     7
370
    25
100
AcDbLine
 10
-550.0
 20
0.0
 30
0.0
 11
550.0
 21
0.0
 31
0.0
  0
LINE
  5
ED
330
DF
100
AcDbEntity
  8
0
  6
Continuous
 62
     7
370
    25
100
AcDbLine
 10
550.0
 20
35.0
 30
0.0
 11
550.0
 21
0.0
 31
0.0
  0
LINE
  5
EE
330
DF
100
AcDbEntity
  8
0
  6
Continuous
 62
     7
370
    25
100
AcDbLine
 10
430.0
 20
-26.0
 30
0.0
 11
430.0
 21
0.0
 31
0.0
  0
LINE
  5
EF
330
DF
100
AcDbEntity
  8
0
  6
Continuous
 62
     7
370
    25
100
AcDbLine
 10
430.0
 20
-26.0
 30
0.0
 11
170.0
 21
-26.0
 31
0.0
  0
LINE
  5
F0
330
DF
100
AcDbEntity
  8
0
  6
Continuous
 62
     7
370
    25
100
AcDbLine
 10
170.0
 20
-26.0
 30
0.0
 11
170.0
 21
0.0
 31
0.0
  0
VIEWPORT
  5
286
330
DF
100
AcDbEntity
  8
0
100
AcDbViewport
 10
0.0
 20
0.0
 30
0.0
 40
205.6
 41
156.0
 68
     1
 69
     1
 12
0.0
 22
0.0
 13
0.0
 23
0.0
 14
10.0
 24
10.0
 15
10.0
 25
10.0
 16
0.0
 26
0.0
 36
1.0
 17
0.0
 27
0.0
 37
0.0
 42
50.0
 43
0.0
 44
0.0
 45
851.3229571984
 50
0.0
 51
0.0
 72
   100
 90
   557152
  1

281
     0
 71
     1
 74
     0
110
0.0
120
0.0
130
0.0
111
1.0
121
0.0
131
0.0
112
0.0
122
1.0
132
0.0
 79
     0
146
0.0
  0
ENDBLK
  5
E2
330
DF
100
AcDbEntity
  8
0
100
AcDbBlockEnd
  0
BLOCK
  5
F3
330
F1
100
AcDbEntity
  8
0
100
AcDbBlockBegin
  2
*Paper_Space3
 70
     0
 10
0.0
 20
0.0
 30
0.0
  3
*Paper_Space3
  1

  0
LINE
  5
FC
330
F1
100
AcDbEntity
  8
0
  6
Continuous
 62
     7
370
    25
100
AcDbLine
 10
-400.0
 20
35.0
 30
0.0
 11
-400.0
 21
0.0
 31
0.0
  0
LINE
  5
FD
330
F1
100
AcDbEntity
  8
0
  6
Continuous
 62
     7
370
    25
100
AcDbLine
 10
-400.0
 20
35.0
 30
0.0
 11
400.0
 21
35.0
 31
0.0
  0
LINE
  5
FE
330
F1
100
AcDbEntity
  8
0
  6
Continuous
 62
     7
370
    25
100
AcDbLine
 10
400.0
 20
35.0
 30
0.0
 11
400.0
 21
0.0
 31
0.0
  0
LINE
  5
FF
330
F1
100
AcDbEntity
  8
0
  6
Continuous
 62
     7
370
    25
100
AcDbLine
 10
-400.0
 20
0.0
 30
0.0
 11
400.0
 21
0.0
 31
0.0
  0
LINE
  5
100
330
F1
100
AcDbEntity
  8
0
  6
Continuous
 62
     7
370
    25
100
AcDbLine
 10
130.0
 20
-26.0
 30
0.0
 11
-130.0
 21
-26.0
 31
0.0
  0
LINE
  5
101
330
F1
100
AcDbEntity
  8
0
  6
Continuous
 62
     7
370
    25
100
AcDbLine
 10
-130.0
 20
-26.0
 30
0.0
 11
-130.0
 21
0.0
 31
0.0
  0
LINE
  5
102
330
F1
100
AcDbEntity
  8
0
  6
Continuous
 62
     7
370
    25
100
AcDbLine
 10
130.0
 20
-26.0
 30
0.0
 11
130.0
 21
0.0
 31
0.0
  0
VIEWPORT
  5
288
330
F1
100
AcDbEntity
  8
0
100
AcDbViewport
 10
0.0
 20
0.0
 30
0.0
 40
205.6
 41
156.0
 68
     1
 69
     1
 12
0.0
 22
0.0
 13
0.0
 23
0.0
 14
10.0
 24
10.0
 15
10.0
 25
10.0
 16
0.0
 26
0.0
 36
1.0
 17
0.0
 27
0.0
 37
0.0
 42
50.0
 43
0.0
 44
0.0
 45
851.3229571984
 50
0.0
 51
0.0
 72
   100
 90
   557152
  1

281
     0
 71
     1
 74
     0
110
0.0
120
0.0
130
0.0
111
1.0
121
0.0
131
0.0
112
0.0
122
1.0
132
0.0
 79
     0
146
0.0
  0
ENDBLK
  5
F4
330
F1
100
AcDbEntity
  8
0
100
AcDbBlockEnd
  0
BLOCK
  5
105
330
103
100
AcDbEntity
  8
0
100
AcDbBlockBegin
  2
*Paper_Space4
 70
     0
 10
0.0
 20
0.0
 30
0.0
  3
*Paper_Space4
  1

  0
CIRCLE
  5
10F
330
103
100
AcDbEntity
  8
0
  6
Continuous
 62
     7
370
    25
100
AcDbCircle
 10
-300.0
 20
0.0
 30
0.0
 40
44.99999999999998
  0
LINE
  5
11C
330
103
100
AcDbEntity
  8
0
  6
Continuous
 62
     7
370
    25
100
AcDbLine
 10
550.0
 20
-400.0
 30
0.0
 11
-550.0
 21
-400.0
 31
0.0
  0
LINE
  5
11D
330
103
100
AcDbEntity
  8
0
  6
Continuous
 62
     7
370
    25
100
AcDbLine
 10
-550.0
 20
400.0
 30
0.0
 11
550.0
 21
400.0
 31
0.0
  0
LINE
  5
11E
330
103
100
AcDbEntity
  8
0
  6
Continuous
 62
     7
370
    25
100
AcDbLine
 10
550.0
 20
400.0
 30
0.0
 11
550.0
 21
-400.0
 31
0.0
  0
LINE
  5
11F
330
103
100
AcDbEntity
  8
0
  6
Continuous
 62
     7
370
    25
100
AcDbLine
 10
-550.0
 20
-400.0
 30
0.0
 11
-550.0
 21
400.0
 31
0.0
  0
LINE
  5
120
330
103
100
AcDbEntity
  8
0
  6
Continuous
 62
     7
370
    25
100
AcDbLine
 10
-170.0
 20
-130.0
 30
0.0
 11
-170.0
 21
130.0
 31
0.0
  0
LINE
  5
121
330
103
100
AcDbEntity
  8
0
  6
Continuous
 62
     7
370
    25
100
AcDbLine
 10
-430.0
 20
-130.0
 30
0.0
 11
-170.0
 21
-130.0
 31
0.0
  0
LINE
  5
122
330
103
100
AcDbEntity
  8
0
  6
Continuous
 62
     7
370
    25
100
AcDbLine
 10
-430.0
 20
130.0
 30
0.0
 11
-430.0
 21
-130.0
 31
0.0
  0
LINE
  5
123
330
103
100
AcDbEntity
  8
0
  6
Continuous
 62
     7
370
    25
100
AcDbLine
 10
-170.0
 20
130.0
 30
0.0
 11
-430.0
 21
130.0
 31
0.0
  0
LINE
  5
124
330
103
100
AcDbEntity
  8
0
  6
Continuous
 62
     7
370
    25
100
AcDbLine
 10
-328.8654208587
 20
34.5222751082
 30
0.0
 11
-319.3431457505
 21
25.0
 31
0.0
  0
LINE
  5
125
330
103
100
AcDbEntity
  8
0
  6
Continuous
 62
     7
370
    25
100
AcDbLine
 10
-319.3431457505
 20
25.0
 30
0.0
 11
-280.6568542495
 21
25.0
 31
0.0
  0
LINE
  5
126
330
103
100
AcDbEntity
  8
0
  6
Continuous
 62
     7
370
    25
100
AcDbLine
 10
-280.6568542495
 20
25.0
 30
0.0
 11
-271.1345791413
 21
34.5222751082
 31
0.0
  0
LINE
  5
127
330
103
100
AcDbEntity
  8
0
  6
Continuous
 62
     7
370
    25
100
AcDbLine
 10
-265.4777248918
 20
28.8654208587
 30
0.0
 11
-275.0
 21
19.3431457505
 31
0.0
  0
LINE
  5
128
330
103
100
AcDbEntity
  8
0
  6
Continuous
 62
     7
370
    25
100
AcDbLine
 10
-275.0
 20
19.3431457505
 30
0.0
 11
-275.0
 21
-19.3431457505
 31
0.0
  0
LINE
  5
129
330
103
100
AcDbEntity
  8
0
  6
Continuous
 62
     7
370
    25
100
AcDbLine
 10
-275.0
 20
-19.3431457505
 30
0.0
 11
-265.4777248918
 21
-28.8654208587
 31
0.0
  0
LINE
  5
12A
330
103
100
AcDbEntity
  8
0
  6
Continuous
 62
     7
370
    25
100
AcDbLine
 10
-325.0
 20
19.3431457505
 30
0.0
 11
-334.5222751082
 21
28.8654208587
 31
0.0
  0
LINE
  5
12B
330
103
100
AcDbEntity
  8
0
  6
Continuous
 62
     7
370
    25
100
AcDbLine
 10
-325.0
 20
-19.3431457505
 30
0.0
 11
-325.0
 21
19.3431457505
 31
0.0
  0
LINE
  5
12C
330
103
100
AcDbEntity
  8
0
  6
Continuous
 62
     7
370
    25
100
AcDbLine
 10
-334.5222751082
 20
-28.8654208587
 30
0.0
 11
-325.0
 21
-19.3431457505
 31
0.0
  0
LINE
  5
12D
330
103
100
AcDbEntity
  8
0
  6
Continuous
 62
     7
370
    25
100
AcDbLine
 10
-319.3431457505
 20
-25.0
 30
0.0
 11
-328.8654208587
 21
-34.5222751082
 31
0.0
  0
LINE
  5
12E
330
103
100
AcDbEntity
  8
0
  6
Continuous
 62
     7
370
    25
100
AcDbLine
 10
-271.1345791413
 20
-34.5222751082
 30
0.0
 11
-280.6568542495
 21
-25.0
 31
0.0
  0
LINE
  5
12F
330
103
100
AcDbEntity
  8
0
  6
Continuous
 62
     7
370
    25
100
AcDbLine
 10
-280.6568542495
 20
-25.0
 30
0.0
 11
-319.3431457505
 21
-25.0
 31
0.0
  0
VIEWPORT
  5
28A
330
103
100
AcDbEntity
  8
0
100
AcDbViewport
 10
0.0
 20
0.0
 30
0.0
 40
205.6
 41
156.0
 68
     1
 69
     1
 12
0.0
 22
0.0
 13
0.0
 23
0.0
 14
10.0
 24
10.0
 15
10.0
 25
10.0
 16
0.0
 26
0.0
 36
1.0
 17
0.0
 27
0.0
 37
0.0
 42
50.0
 43
0.0
 44
0.0
 45
851.3229571984
 50
0.0
 51
0.0
 72
   100
 90
   557152
  1

281
     0
 71
     1
 74
     0
110
0.0
120
0.0
130
0.0
111
1.0
121
0.0
131
0.0
112
0.0
122
1.0
132
0.0
 79
     0
146
0.0
  0
ENDBLK
  5
106
330
103
100
AcDbEntity
  8
0
100
AcDbBlockEnd
  0
BLOCK
  5
132
330
130
100
AcDbEntity
  8
0
100
AcDbBlockBegin
  2
*Paper_Space5
 70
     0
 10
0.0
 20
0.0
 30
0.0
  3
*Paper_Space5
  1

  0
SPLINE
  5
145
330
130
100
AcDbEntity
  8
0
  6
Continuous
 62
     7
370
    25
100
AcDbSpline
210
0.0
220
0.0
230
1.0
 70
     8
 71
     3
 72
     8
 73
     4
 74
     0
 42
0.000000001
 43
0.00000001
 40
0.0
 40
0.0
 40
0.0
 40
0.0
 40
1.0
 40
1.0
 40
1.0
 40
1.0
 10
-193.1428791582768
 20
84.6815028256124
 30
0.0
 10
-198.8838258323941
 20
81.45251707797347
 30
0.0
 10
-204.624334544804
 20
78.25246630730645
 30
0.0
 10
-210.364267402998
 20
75.09046070861677
 30
0.0
  0
SPLINE
  5
149
330
130
100
AcDbEntity
  8
0
  6
Continuous
 62
     7
370
    25
100
AcDbSpline
210
0.0
220
0.0
230
1.0
 70
     8
 71
     3
 72
    20
 73
    16
 74
     0
 42
0.000000001
 43
0.00000001
 40
0.0
 40
0.0
 40
0.0
 40
0.0
 40
0.1249999999999979
 40
0.1249999999999979
 40
0.2499999999999959
 40
0.2499999999999959
 40
0.3749999999999938
 40
0.3749999999999938
 40
0.4999999999999918
 40
0.4999999999999918
 40
0.6249999999999898
 40
0.6249999999999898
 40
0.7499999999999877
 40
0.7499999999999877
 40
1.0
 40
1.0
 40
1.0
 40
1.0
 10
-323.5013523928455
 20
138.9332661725801
 30
0.0
 10
-323.6180712680992
 20
139.0033390536383
 30
0.0
 10
-323.7214023264027
 20
139.0783674518605
 30
0.0
 10
-323.9023738605817
 20
139.2379444414969
 30
0.0
 10
-323.980640045461
 20
139.3234872668754
 30
0.0
 10
-324.1059956693322
 20
139.499424884916
 30
0.0
 10
-324.1532505176385
 20
139.589413491819
 30
0.0
 10
-324.2171880210468
 20
139.773406324784
 30
0.0
 10
-324.2335442274629
 20
139.8679869377123
 30
0.0
 10
-324.2336264931304
 20
140.0532118978093
 30
0.0
 10
-324.217876026738
 20
140.1448066693465
 30
0.0
 10
-324.1540436050506
 20
140.325919071633
 30
0.0
 10
-324.1061752723606
 20
140.414021373673
 30
0.0
 10
-323.9197297755389
 20
140.6644553461956
 30
0.0
 10
-323.7346906162579
 20
140.8170373077866
 30
0.0
 10
-323.5013523928455
 20
140.9422808159875
 30
0.0
  0
SPLINE
  5
14A
330
130
100
AcDbEntity
  8
0
  6
Continuous
 62
     7
370
    25
100
AcDbSpline
210
0.0
220
0.0
230
1.0
 70
     8
 71
     3
 72
    20
 73
    16
 74
     0
 42
0.000000001
 43
0.00000001
 40
0.0
 40
0.0
 40
0.0
 40
0.0
 40
0.25
 40
0.25
 40
0.375
 40
0.375
 40
0.5
 40
0.5
 40
0.625
 40
0.625
 40
0.75
 40
0.75
 40
0.875
 40
0.875
 40
1.0
 40
1.0
 40
1.0
 40
1.0
 10
-213.8998013089307
 20
75.11321919069816
 30
0.0
 10
-223.03368297078
 20
80.25622570111798
 30
0.0
 10
-232.1675277807687
 20
85.39567990395138
 30
0.0
 10
-245.8685291262937
 20
93.12741806282126
 30
0.0
 10
-250.4355544929704
 20
95.70860760645323
 30
0.0
 10
-259.569761089035
 20
100.8956531595413
 30
0.0
 10
-264.1369408943816
 20
103.5011600801572
 30
0.0
 10
-273.2716916728484
 20
108.7745744677276
 30
0.0
 10
-277.8388493411286
 20
111.4461864246371
 30
0.0
 10
-286.972605825555
 20
116.8777413977758
 30
0.0
 10
-291.5387059204901
 20
119.6342107831771
 30
0.0
 10
-300.6706756983224
 20
125.159198562683
 30
0.0
 10
-305.2365760740256
 20
127.9260722647563
 30
0.0
 10
-314.368728143546
 20
133.4417631979447
 30
0.0
 10
-318.934956557202
 20
136.1918028783166
 30
0.0
 10
-323.5013523928455
 20
138.9332661725801
 30
0.0
  0
SPLINE
  5
14B
330
130
100
AcDbEntity
  8
0
  6
Continuous
 62
     7
370
    25
100
AcDbSpline
210
0.0
220
0.0
230
1.0
 70
     8
 71
     3
 72
    20
 73
    16
 74
     0
 42
0.000000001
 43
0.00000001
 40
0.0
 40
0.0
 40
0.0
 40
0.0
 40
0.125
 40
0.125
 40
0.25
 40
0.25
 40
0.375
 40
0.375
 40
0.5
 40
0.5
 40
0.625
 40
0.625
 40
0.75
 40
0.75
 40
1.0
 40
1.0
 40
1.0
 40
1.0
 10
-210.364267402998
 20
75.09046070861677
 30
0.0
 10
-210.4809666381572
 20
75.02617360908923
 30
0.0
 10
-210.6071632975625
 20
74.9694129745435
 30
0.0
 10
-210.8777777121948
 20
74.8703338243684
 30
0.0
 10
-211.0239051882524
 20
74.82767837288173
 30
0.0
 10
-211.3265004903439
 20
74.75980076338656
 30
0.0
 10
-211.4822252857795
 20
74.73448702223688
 30
0.0
 10
-211.8024497115178
 20
74.7009497037981
 30
0.0
 10
-211.9680070869095
 20
74.6929124661303
 30
0.0
 10
-212.2940291641763
 20
74.69498315938722
 30
0.0
 10
-212.4561248850266
 20
74.70480966630086
 30
0.0
 10
-212.7784425731089
 20
74.74245010175609
 30
0.0
 10
-212.9362409141612
 20
74.7701422846341
 30
0.0
 10
-213.387464513523
 20
74.87691234243489
 30
0.0
 10
-213.6663579457201
 20
74.98177444669393
 30
0.0
 10
-213.8998013089307
 20
75.11321919069813
 30
0.0
  0
SPLINE
  5
14C
330
130
100
AcDbEntity
  8
0
  6
Continuous
 62
     7
370
    25
100
AcDbSpline
210
0.0
220
0.0
230
1.0
 70
     8
 71
     3
 72
    14
 73
    10
 74
     0
 42
0.000000001
 43
0.00000001
 40
0.0
 40
0.0
 40
0.0
 40
0.0
 40
0.2499999999999999
 40
0.2499999999999999
 40
0.4999999999999999
 40
0.4999999999999999
 40
0.7499999999999999
 40
0.7499999999999999
 40
1.0
 40
1.0
 40
1.0
 40
1.0
 10
-117.9841045638041
 20
128.0697398544085
 30
0.0
 10
-124.2471784808072
 20
124.3869354993558
 30
0.0
 10
-130.5102829747747
 20
120.7104998632126
 30
0.0
 10
-143.0366587116206
 20
113.3923598652335
 30
0.0
 10
-149.2999344454767
 20
109.7515836848037
 30
0.0
 10
-161.8267257773698
 20
102.5200201445617
 30
0.0
 10
-168.0900529686876
 20
98.9293416713517
 30
0.0
 10
-180.6166070653181
 20
91.78473367647798
 30
0.0
 10
-186.8797649603077
 20
88.22991251635209
 30
0.0
 10
-193.1428791582768
 20
84.6815028256124
 30
0.0
  0
SPLINE
  5
14E
330
130
100
AcDbEntity
  8
0
  6
Continuous
 62
     7
370
    25
100
AcDbSpline
210
0.0
220
0.0
230
1.0
 70
     8
 71
     3
 72
     8
 73
     4
 74
     0
 42
0.000000001
 43
0.00000001
 40
0.0
 40
0.0
 40
0.0
 40
0.0
 40
1.0
 40
1.0
 40
1.0
 40
1.0
 10
-100.7627163190829
 20
138.3620893748767
 30
0.0
 10
-106.5026491772769
 20
134.8969095591036
 30
0.0
 10
-112.2431578896867
 20
131.4691100481821
 30
0.0
 10
-117.984104563804
 20
128.0697398544085
 30
0.0
  0
SPLINE
  5
14F
330
130
100
AcDbEntity
  8
0
  6
Continuous
 62
     7
370
    25
100
AcDbSpline
210
0.0
220
0.0
230
1.0
 70
     8
 71
     3
 72
    20
 73
    16
 74
     0
 42
0.000000001
 43
0.00000001
 40
0.0
 40
0.0
 40
0.0
 40
0.0
 40
0.124999999999999
 40
0.124999999999999
 40
0.2499999999999979
 40
0.2499999999999979
 40
0.3749999999999969
 40
0.3749999999999969
 40
0.4999999999999959
 40
0.4999999999999959
 40
0.6249999999999949
 40
0.6249999999999949
 40
0.7499999999999938
 40
0.7499999999999938
 40
1.0
 40
1.0
 40
1.0
 40
1.0
 10
-100.7627163190829
 20
140.4258681365149
 30
0.0
 10
-100.6459951773394
 20
140.3601460684922
 30
0.0
 10
-100.5426670352872
 20
140.2885898386961
 30
0.0
 10
-100.361705142288
 20
140.1342908202524
 30
0.0
 10
-100.2834463130921
 20
140.0505609098935
 30
0.0
 10
-100.158094164319
 20
139.8764275867771
 30
0.0
 10
-100.1108401352576
 20
139.7864558004844
 30
0.0
 10
-100.0468978964937
 20
139.6007643357435
 30
0.0
 10
-100.0305338892261
 20
139.5044284416813
 30
0.0
 10
-100.0304328947863
 20
139.314080569264
 30
0.0
 10
-100.046172281215
 20
139.2191232547901
 30
0.0
 10
-100.1099763540288
 20
139.0296600672162
 30
0.0
 10
-100.1578399324047
 20
138.9365950233907
 30
0.0
 10
-100.3442689627395
 20
138.6694671580094
 30
0.0
 10
-100.5293184783209
 20
138.5029909336291
 30
0.0
 10
-100.762716319083
 20
138.3620893748767
 30
0.0
  0
SPLINE
  5
150
330
130
100
AcDbEntity
  8
0
  6
Continuous
 62
     7
370
    25
100
AcDbSpline
210
0.0
220
0.0
230
1.0
 70
     8
 71
     3
 72
    20
 73
    16
 74
     0
 42
0.000000001
 43
0.00000001
 40
0.0
 40
0.0
 40
0.0
 40
0.0
 40
0.1250000000000001
 40
0.1250000000000001
 40
0.2500000000000002
 40
0.2500000000000002
 40
0.3750000000000002
 40
0.3750000000000002
 40
0.5000000000000003
 40
0.5000000000000003
 40
0.6250000000000004
 40
0.6250000000000004
 40
0.7500000000000004
 40
0.7500000000000004
 40
1.0
 40
1.0
 40
1.0
 40
1.0
 10
-210.3642674029977
 20
204.2459151183967
 30
0.0
 10
-205.79790606218
 20
201.50447253331
 30
0.0
 10
-201.2317158367435
 20
198.7544559199275
 30
0.0
 10
-192.0996468665041
 20
193.238815424263
 30
0.0
 10
-187.5337924587971
 20
190.4719698065906
 30
0.0
 10
-178.4019090933531
 20
184.9470338361367
 30
0.0
 10
-173.8358938382029
 20
182.1906164618695
 30
0.0
 10
-164.7028698145193
 20
176.7594884495026
 30
0.0
 10
-160.1358218817858
 20
174.0879301878418
 30
0.0
 10
-151.0008832524401
 20
168.8143968562087
 30
0.0
 10
-146.4336108907968
 20
166.2088345384064
 30
0.0
 10
-137.2992174581088
 20
161.0216797014973
 30
0.0
 10
-132.7320985786197
 20
158.4404366945608
 30
0.0
 10
-119.0308167036757
 20
150.7085391127105
 30
0.0
 10
-109.8967849568251
 20
145.568979927282
 30
0.0
 10
-100.7627163190829
 20
140.4258681365148
 30
0.0
  0
SPLINE
  5
151
330
130
100
AcDbEntity
  8
0
  6
Continuous
 62
     7
370
    25
100
AcDbSpline
210
0.0
220
0.0
230
1.0
 70
     8
 71
     3
 72
    20
 73
    16
 74
     0
 42
0.000000001
 43
0.00000001
 40
0.0
 40
0.0
 40
0.0
 40
0.0
 40
0.125
 40
0.125
 40
0.25
 40
0.25
 40
0.375
 40
0.375
 40
0.5
 40
0.5
 40
0.625
 40
0.625
 40
0.75
 40
0.75
 40
1.0
 40
1.0
 40
1.0
 40
1.0
 10
-213.8998013089304
 20
204.2139094822474
 30
0.0
 10
-213.7831315693151
 20
204.2859914052231
 30
0.0
 10
-213.656963460271
 20
204.3500164565458
 30
0.0
 10
-213.386399382562
 20
204.4626118015634
 30
0.0
 10
-213.2402941123119
 20
204.5115781707854
 30
0.0
 10
-212.9377263983057
 20
204.5906598851072
 30
0.0
 10
-212.7820098314788
 20
204.6208619954585
 30
0.0
 10
-212.4617890895287
 20
204.6627508344557
 30
0.0
 10
-212.296222527337
 20
204.6742516879694
 30
0.0
 10
-211.9701755927502
 20
204.6773380512766
 30
0.0
 10
-211.8080648092911
 20
204.669258134316
 30
0.0
 10
-211.4857117152264
 20
204.6333865182492
 30
0.0
 10
-211.3278925334991
 20
204.6056874942602
 30
0.0
 10
-210.8766190009553
 20
204.4962688102065
 30
0.0
 10
-210.5977075436528
 20
204.3860623154527
 30
0.0
 10
-210.3642674029977
 20
204.2459151183967
 30
0.0
  0
SPLINE
  5
154
330
130
100
AcDbEntity
  8
0
  6
Continuous
 62
     7
370
    25
100
AcDbSpline
210
0.0
220
0.0
230
1.0
 70
     8
 71
     3
 72
    22
 73
    18
 74
     0
 42
0.000000001
 43
0.00000001
 40
0.0
 40
0.0
 40
0.0
 40
0.0
 40
0.125
 40
0.125
 40
0.25
 40
0.25
 40
0.375
 40
0.375
 40
0.5
 40
0.5
 40
0.625
 40
0.625
 40
0.75
 40
0.75
 40
0.875
 40
0.875
 40
1.0
 40
1.0
 40
1.0
 40
1.0
 10
-323.0727944017332
 20
141.1723503608823
 30
0.0
 10
-318.5419772406094
 20
143.6891022633714
 30
0.0
 10
-314.0112246710984
 20
146.2016083479873
 30
0.0
 10
-304.9498343495773
 20
151.2190731874817
 30
0.0
 10
-300.419201730808
 20
153.7236945176827
 30
0.0
 10
-291.3579331004423
 20
158.7331601997032
 30
0.0
 10
-286.8273214577038
 20
161.2364027068436
 30
0.0
 10
-277.7654818679167
 20
166.2833994182538
 30
0.0
 10
-273.2341883688559
 20
168.8311712026895
 30
0.0
 10
-264.1695296329571
 20
174.0640634298462
 30
0.0
 10
-259.6380922056835
 20
176.7480769967333
 30
0.0
 10
-250.5758480854537
 20
182.1638843391185
 30
0.0
 10
-246.0449891753339
 20
184.8917228758272
 30
0.0
 10
-236.9832326776691
 20
190.3444684701038
 30
0.0
 10
-232.4523563862488
 20
193.0709515176093
 30
0.0
 10
-223.390460565694
 20
198.5158498120567
 30
0.0
 10
-218.8594469162447
 20
201.2345962296384
 30
0.0
 10
-214.3283593000426
 20
203.9491765027719
 30
0.0
  0
SPLINE
  5
159
330
130
100
AcDbEntity
  8
0
  6
Continuous
 62
     7
370
    25
100
AcDbSpline
210
0.0
220
0.0
230
1.0
 70
     8
 71
     3
 72
     9
 73
     5
 74
     0
 42
0.000000001
 43
0.00000001
 40
0.0
 40
0.0
 40
0.0
 40
0.0
 40
0.9795249331943873
 40
1.0
 40
1.0
 40
1.0
 40
1.0
 10
-134.5197438732444
 20
118.4183468876198
 30
0.0
 10
-135.4266274975361
 20
118.3840087720819
 30
0.0
 10
-136.3524677631169
 20
118.3489528849123
 30
0.0
 10
-137.2782616887911
 20
118.3130931936825
 30
0.0
 10
-137.2972173812675
 20
118.3123589641089
 30
0.0
  0
SPLINE
  5
15C
330
130
100
AcDbEntity
  8
0
  6
Continuous
 62
     7
370
    25
100
AcDbSpline
210
0.0
220
0.0
230
1.0
 70
     8
 71
     3
 72
     9
 73
     5
 74
     0
 42
0.000000001
 43
0.00000001
 40
0.0
 40
0.0
 40
0.0
 40
0.0
 40
0.3070104551930117
 40
1.0
 40
1.0
 40
1.0
 40
1.0
 10
-150.644617413165
 20
109.0067064810285
 30
0.0
 10
-150.4868005651149
 20
109.2386228007409
 30
0.0
 10
-149.9727566770953
 20
109.9940248262729
 30
0.0
 10
-149.6349980397465
 20
110.7802120683
 30
0.0
 10
-149.4009348353955
 20
111.3250316072855
 30
0.0
  0
SPLINE
  5
15D
330
130
100
AcDbEntity
  8
0
  6
Continuous
 62
     7
370
    25
100
AcDbSpline
210
0.0
220
0.0
230
1.0
 70
    24
 71
     3
 72
     9
 73
     5
 74
     0
 42
0.000000001
 43
0.00000001
 40
0.0
 40
0.0
 40
0.0
 40
0.0
 40
0.9711701298305557
 40
1.0
 40
1.0
 40
1.0
 40
1.0
 10
-217.1320343559643
 20
76.93411927524981
 30
0.0
 10
-217.1320343559647
 20
77.27858193900052
 30
0.0
 10
-217.132034355965
 20
77.63327021983838
 30
0.0
 10
-217.1320343559643
 20
77.98736863746625
 30
0.0
 10
-217.1320343559643
 20
77.9975772488737
 30
0.0
  0
SPLINE
  5
160
330
130
100
AcDbEntity
  8
0
  6
Continuous
 62
     7
370
    25
100
AcDbSpline
210
0.0
220
0.0
230
1.0
 70
     8
 71
     3
 72
     9
 73
     5
 74
     0
 42
0.000000001
 43
0.00000001
 40
0.0
 40
0.0
 40
0.0
 40
0.0
 40
0.098304400215343
 40
1.0
 40
1.0
 40
1.0
 40
1.0
 10
-232.1350821159519
 20
85.38618647992315
 30
0.0
 10
-232.032679118615
 20
85.36241866589057
 30
0.0
 10
-230.9909862024013
 20
85.12064094301587
 30
0.0
 10
-229.906271906989
 20
84.95589948460116
 30
0.0
 10
-228.9281897997922
 20
84.80735283644657
 30
0.0
  0
LWPOLYLINE
  5
161
330
130
100
AcDbEntity
  8
0
  6
Continuous
 62
     7
370
    25
100
AcDbPolyline
 90
        3
 70
   128
 43
0.0
 10
-255.0056624076
 20
98.2392339917
 10
-255.6834050635
 20
99.5920441519
 10
-256.0482715322
 20
100.4634427713
  0
LWPOLYLINE
  5
162
330
130
100
AcDbEntity
  8
0
  6
Continuous
 62
     7
370
    25
100
AcDbPolyline
 90
        3
 70
   128
 43
0.0
 10
-168.2157971798
 20
100.4634427713
 10
-168.3407670878
 20
100.1498304806
 10
-169.2284031016
 20
98.2937666186
  0
LINE
  5
17C
330
130
100
AcDbEntity
  8
0
  6
Continuous
 62
     7
370
    25
100
AcDbLine
 10
-115.2081528017
 20
132.259706516
 30
0.0
 11
-115.2081528017
 21
138.7920330111
 31
0.0
  0
LINE
  5
17D
330
130
100
AcDbEntity
  8
0
  6
Continuous
 62
     7
370
    25
100
AcDbLine
 10
-309.0559159102
 20
138.7920330111
 30
0.0
 11
-309.0559159102
 21
132.259706516
 31
0.0
  0
LINE
  5
17E
330
130
100
AcDbEntity
  8
0
  6
Continuous
 62
     7
370
    25
100
AcDbLine
 10
-116.2081528017
 20
129.1311360675
 30
0.0
 11
-116.2081528017
 21
130.5278433798
 31
0.0
  0
LINE
  5
17F
330
130
100
AcDbEntity
  8
0
  6
Continuous
 62
     7
370
    25
100
AcDbLine
 10
-308.0559159102
 20
130.5278433798
 30
0.0
 11
-308.0559159102
 21
129.6192229649
 31
0.0
  0
LINE
  5
180
330
130
100
AcDbEntity
  8
0
  6
Continuous
 62
     7
370
    25
100
AcDbLine
 10
671.7514421272
 20
-32.6516799707
 30
0.0
 11
-106.066017178
 21
416.3727815318
 31
0.0
  0
LINE
  5
181
330
130
100
AcDbEntity
  8
0
  6
Continuous
 62
     7
370
    25
100
AcDbLine
 10
106.066017178
 20
-359.2149246998
 30
0.0
 11
671.7514421272
 21
-32.6516799707
 31
0.0
  0
LINE
  5
182
330
130
100
AcDbEntity
  8
0
  6
Continuous
 62
     7
370
    25
100
AcDbLine
 10
-671.7514421272
 20
89.8095368027
 30
0.0
 11
106.066017178
 21
-359.2149246998
 31
0.0
  0
LINE
  5
183
330
130
100
AcDbEntity
  8
0
  6
Continuous
 62
     7
370
    25
100
AcDbLine
 10
-106.066017178
 20
416.3727815318
 30
0.0
 11
-671.7514421272
 21
89.8095368027
 31
0.0
  0
LINE
  5
184
330
130
100
AcDbEntity
  8
0
  6
Continuous
 62
     7
370
    25
100
AcDbLine
 10
-106.066017178
 20
400.0446192953
 30
0.0
 11
-643.4671708798
 21
89.8095368027
 31
0.0
  0
LINE
  5
185
330
130
100
AcDbEntity
  8
0
  6
Continuous
 62
     7
370
    25
100
AcDbLine
 10
-643.4671708798
 20
89.8095368027
 30
0.0
 11
106.066017178
 21
-342.8867624633
 31
0.0
  0
LINE
  5
186
330
130
100
AcDbEntity
  8
0
  6
Continuous
 62
     7
370
    25
100
AcDbLine
 10
106.066017178
 20
-342.8867624633
 30
0.0
 11
643.4671708798
 21
-32.6516799707
 31
0.0
  0
LINE
  5
187
330
130
100
AcDbEntity
  8
0
  6
Continuous
 62
     7
370
    25
100
AcDbLine
 10
643.4671708798
 20
-32.6516799707
 30
0.0
 11
-106.066017178
 21
400.0446192953
 31
0.0
  0
LINE
  5
188
330
130
100
AcDbEntity
  8
0
  6
Continuous
 62
     7
370
    25
100
AcDbLine
 10
-671.7514421272
 20
89.8095368027
 30
0.0
 11
-671.7514421272
 21
61.2306083867
 31
0.0
  0
LINE
  5
189
330
130
100
AcDbEntity
  8
0
  6
Continuous
 62
     7
370
    25
100
AcDbLine
 10
106.066017178
 20
-359.2149246998
 30
0.0
 11
106.066017178
 21
-387.7938531158
 31
0.0
  0
LINE
  5
18A
330
130
100
AcDbEntity
  8
0
  6
Continuous
 62
     7
370
    25
100
AcDbLine
 10
-671.7514421272
 20
61.2306083867
 30
0.0
 11
106.066017178
 21
-387.7938531158
 31
0.0
  0
LINE
  5
18B
330
130
100
AcDbEntity
  8
0
  6
Continuous
 62
     7
370
    25
100
AcDbLine
 10
671.7514421272
 20
-32.6516799707
 30
0.0
 11
671.7514421272
 21
-61.2306083867
 31
0.0
  0
LINE
  5
18C
330
130
100
AcDbEntity
  8
0
  6
Continuous
 62
     7
370
    25
100
AcDbLine
 10
106.066017178
 20
-387.7938531158
 30
0.0
 11
671.7514421272
 21
-61.2306083867
 31
0.0
  0
LINE
  5
18D
330
130
100
AcDbEntity
  8
0
  6
Continuous
 62
     7
370
    25
100
AcDbLine
 10
106.066017178
 20
-342.8867624633
 30
0.0
 11
-193.1428791583
 21
84.6815028256
 31
0.0
  0
LINE
  5
18E
330
130
100
AcDbEntity
  8
0
  6
Continuous
 62
     7
370
    25
100
AcDbLine
 10
-643.4671708798
 20
89.8095368027
 30
0.0
 11
-323.0727944017
 21
141.1723503609
 31
0.0
  0
LINE
  5
18F
330
130
100
AcDbEntity
  8
0
  6
Continuous
 62
     7
370
    25
100
AcDbLine
 10
-323.5013523928
 20
140.942280816
 30
0.0
 11
-323.0727944017
 21
141.1723503609
 31
0.0
  0
LINE
  5
190
330
130
100
AcDbEntity
  8
0
  6
Continuous
 62
     7
370
    25
100
AcDbLine
 10
643.4671708798
 20
-32.6516799707
 30
0.0
 11
-117.9841045638
 21
128.0697398544
 31
0.0
  0
LINE
  5
191
330
130
100
AcDbEntity
  8
0
  6
Continuous
 62
     7
370
    25
100
AcDbLine
 10
-214.3283593
 20
203.9491765028
 30
0.0
 11
-213.8998013089
 21
204.2139094822
 31
0.0
  0
LINE
  5
192
330
130
100
AcDbEntity
  8
0
  6
Continuous
 62
     7
370
    25
100
AcDbLine
 10
-214.3283593
 20
203.9491765028
 30
0.0
 11
-106.066017178
 21
400.0446192953
 31
0.0
  0
LINE
  5
193
330
130
100
AcDbEntity
  8
0
  6
Continuous
 62
     7
370
    25
100
AcDbLine
 10
-309.0053180511
 20
131.8501094127
 30
0.0
 11
-310.4103391362
 21
131.039008005
 31
0.0
  0
LINE
  5
194
330
130
100
AcDbEntity
  8
0
  6
Continuous
 62
     7
370
    25
100
AcDbLine
 10
-113.427534198
 20
130.7929706505
 30
0.0
 11
-115.2587506609
 21
131.8501094127
 31
0.0
  0
LINE
  5
195
330
130
100
AcDbEntity
  8
0
  6
Continuous
 62
     7
370
    25
100
AcDbLine
 10
-207.132034356
 20
77.9975772489
 30
0.0
 11
-207.132034356
 21
76.8905759401
 31
0.0
  0
LINE
  5
196
330
130
100
AcDbEntity
  8
0
  6
Continuous
 62
     7
370
    25
100
AcDbLine
 10
-195.2189161055
 20
84.8748740275
 30
0.0
 11
-191.6869653137
 21
85.5087000304
 31
0.0
  0
LINE
  5
197
330
130
100
AcDbEntity
  8
0
  6
Continuous
 62
     7
370
    25
100
AcDbLine
 10
-286.9600718376
 20
118.3084452461
 30
0.0
 11
-289.4458108869
 21
118.4038073561
 31
0.0
  0
LINE
  5
198
330
130
100
AcDbEntity
  8
0
  6
Continuous
 62
     7
370
    25
100
AcDbLine
 10
-274.7501407893
 20
111.2598020865
 30
0.0
 11
-273.6361627512
 21
109.0261726689
 31
0.0
  0
LINE
  5
199
330
130
100
AcDbEntity
  8
0
  6
Continuous
 62
     7
370
    25
100
AcDbLine
 10
-215.6675682619
 20
193.8995805592
 30
0.0
 11
-307.5914498161
 21
140.8330532907
 31
0.0
  0
LINE
  5
19A
330
130
100
AcDbEntity
  8
0
  6
Continuous
 62
     7
370
    25
100
AcDbLine
 10
-116.6726188958
 20
140.8330532907
 30
0.0
 11
-208.59650045
 21
193.8995805592
 31
0.0
  0
LINE
  5
19B
330
130
100
AcDbEntity
  8
0
  6
Continuous
 62
     7
370
    25
100
AcDbLine
 10
-208.59650045
 20
83.6844854631
 30
0.0
 11
-116.6726188958
 21
136.7510127316
 31
0.0
  0
LINE
  5
19C
330
130
100
AcDbEntity
  8
0
  6
Continuous
 62
     7
370
    25
100
AcDbLine
 10
-307.5914498161
 20
136.7510127316
 30
0.0
 11
-215.6675682619
 21
83.6844854631
 31
0.0
  0
LINE
  5
19D
330
130
100
AcDbEntity
  8
0
  6
Continuous
 62
     7
370
    25
100
AcDbLine
 10
-215.6675682619
 20
83.6844854631
 30
0.0
 11
-215.6675682619
 21
77.152158968
 31
0.0
  0
LINE
  5
19E
330
130
100
AcDbEntity
  8
0
  6
Continuous
 62
     7
370
    25
100
AcDbLine
 10
-208.59650045
 20
83.6844854631
 30
0.0
 11
-208.59650045
 21
77.152158968
 31
0.0
  0
LINE
  5
19F
330
130
100
AcDbEntity
  8
0
  6
Continuous
 62
     7
370
    25
100
AcDbLine
 10
-116.6726188958
 20
136.7510127316
 30
0.0
 11
-116.6726188958
 21
130.2186862365
 31
0.0
  0
LINE
  5
1A0
330
130
100
AcDbEntity
  8
0
  6
Continuous
 62
     7
370
    25
100
AcDbLine
 10
-208.59650045
 20
77.152158968
 30
0.0
 11
-116.6726188958
 21
130.2186862365
 31
0.0
  0
LINE
  5
1A1
330
130
100
AcDbEntity
  8
0
  6
Continuous
 62
     7
370
    25
100
AcDbLine
 10
-307.5914498161
 20
136.7510127316
 30
0.0
 11
-307.5914498161
 21
130.2186862365
 31
0.0
  0
LINE
  5
1A2
330
130
100
AcDbEntity
  8
0
  6
Continuous
 62
     7
370
    25
100
AcDbLine
 10
-307.5914498161
 20
130.2186862365
 30
0.0
 11
-215.6675682619
 21
77.152158968
 31
0.0
  0
LINE
  5
1A3
330
130
100
AcDbEntity
  8
0
  6
Continuous
 62
     7
370
    25
100
AcDbLine
 10
-216.132034356
 20
77.4202895368
 30
0.0
 11
-216.132034356
 21
76.3707625933
 31
0.0
  0
LINE
  5
1A4
330
130
100
AcDbEntity
  8
0
  6
Continuous
 62
     7
370
    25
100
AcDbLine
 10
-208.132034356
 20
77.4202895368
 30
0.0
 11
-208.132034356
 21
76.3336497515
 31
0.0
  0
LINE
  5
1A5
330
130
100
AcDbEntity
  8
0
  6
Continuous
 62
    60
370
    25
100
AcDbLine
 10
-323.5013523928
 20
138.9332661726
 30
0.0
 11
-323.5013523928
 21
140.942280816
 31
0.0
  0
LINE
  5
1A6
330
130
100
AcDbEntity
  8
0
  6
Continuous
 62
    60
370
    25
100
AcDbLine
 10
-100.7627163191
 20
138.3620893749
 30
0.0
 11
-100.7627163191
 21
140.4258681365
 31
0.0
  0
LINE
  5
1A7
330
130
100
AcDbEntity
  8
0
  6
Continuous
 62
    60
370
    25
100
AcDbLine
 10
-213.8998013089
 20
194.5585763199
 30
0.0
 11
-213.8998013089
 21
204.2139094822
 31
0.0
  0
LINE
  5
1A8
330
130
100
AcDbEntity
  8
0
  6
Continuous
 62
    60
370
    25
100
AcDbLine
 10
-210.364267403
 20
194.5585763199
 30
0.0
 11
-210.364267403
 21
204.2459151184
 31
0.0
  0
LINE
  5
1A9
330
130
100
AcDbEntity
  8
0
  6
Continuous
 62
    60
370
    25
100
AcDbLine
 10
-120.2081528017
 20
128.1776659569
 30
0.0
 11
-120.2081528017
 21
126.7716247275
 31
0.0
  0
LINE
  5
1AA
330
130
100
AcDbEntity
  8
0
  6
Continuous
 62
    60
370
    25
100
AcDbLine
 10
-304.0559159102
 20
128.1776659569
 30
0.0
 11
-304.0559159102
 21
127.2071077183
 31
0.0
  0
ARC
  5
1AB
330
130
100
AcDbEntity
  8
0
  6
Continuous
 62
     7
370
    25
100
AcDbCircle
 10
-212.132034356
 20
187.0760251344
 30
0.0
 40
7.685109539558641
100
AcDbArc
 50
62.6096722366
 51
117.3903277634
  0
ARC
  5
1AC
330
130
100
AcDbEntity
  8
0
  6
Continuous
 62
     7
370
    25
100
AcDbCircle
 10
-117.4472540298
 20
138.7920330111
 30
0.0
 40
2.183076584171386
100
AcDbArc
 50
290.7834207995
 51
69.2165792005
  0
ARC
  5
1AD
330
130
100
AcDbEntity
  8
0
  6
Continuous
 62
     7
370
    25
100
AcDbCircle
 10
-212.132034356
 20
90.5080408879
 30
0.0
 40
7.685109539558606
100
AcDbArc
 50
242.6096722366
 51
297.3903277634
  0
ARC
  5
1AE
330
130
100
AcDbEntity
  8
0
  6
Continuous
 62
     7
370
    25
100
AcDbCircle
 10
-306.8168146822
 20
138.7920330111
 30
0.0
 40
2.183076584171407
100
AcDbArc
 50
110.7834207995
 51
249.2165792005
  0
ARC
  5
1AF
330
130
100
AcDbEntity
  8
0
  6
Continuous
 62
     7
370
    25
100
AcDbCircle
 10
-212.132034356
 20
83.9757143928
 30
0.0
 40
7.685109539558555
100
AcDbArc
 50
242.6096722366
 51
297.3903277634
  0
ARC
  5
1B0
330
130
100
AcDbEntity
  8
0
  6
Continuous
 62
     7
370
    25
100
AcDbCircle
 10
-117.7104381142
 20
132.5092384005
 30
0.0
 40
2.51469639246901
100
AcDbArc
 50
294.3746582936
 51
354.3052007488
  0
ARC
  5
1B1
330
130
100
AcDbEntity
  8
0
  6
Continuous
 62
     7
370
    25
100
AcDbCircle
 10
-306.5536305978
 20
132.5092384005
 30
0.0
 40
2.514696392469028
100
AcDbArc
 50
185.6947992512
 51
245.6253417064
  0
VIEWPORT
  5
28C
330
130
100
AcDbEntity
  8
0
100
AcDbViewport
 10
0.0
 20
0.0
 30
0.0
 40
205.6
 41
156.0
 68
     1
 69
     1
 12
0.0
 22
0.0
 13
0.0
 23
0.0
 14
10.0
 24
10.0
 15
10.0
 25
10.0
 16
0.0
 26
0.0
 36
1.0
 17
0.0
 27
0.0
 37
0.0
 42
50.0
 43
0.0
 44
0.0
 45
851.3229571984
 50
0.0
 51
0.0
 72
   100
 90
   557152
  1

281
     0
 71
     1
 74
     0
110
0.0
120
0.0
130
0.0
111
1.0
121
0.0
131
0.0
112
0.0
122
1.0
132
0.0
 79
     0
146
0.0
  0
ENDBLK
  5
133
330
130
100
AcDbEntity
  8
0
100
AcDbBlockEnd
  0
BLOCK
  5
1B4
330
1B2
100
AcDbEntity
  8
0
100
AcDbBlockBegin
  2
*Paper_Space6
 70
     0
 10
0.0
 20
0.0
 30
0.0
  3
*Paper_Space6
  1

  0
SPLINE
  5
1C7
330
1B2
100
AcDbEntity
  8
0
  6
Continuous
 62
     7
370
    25
100
AcDbSpline
210
0.0
220
0.0
230
1.0
 70
     8
 71
     3
 72
     8
 73
     4
 74
     0
 42
0.000000001
 43
0.00000001
 40
0.0
 40
0.0
 40
0.0
 40
0.0
 40
1.0
 40
1.0
 40
1.0
 40
1.0
 10
-219.3746435064038
 20
46.06753902479413
 30
0.0
 10
-223.1637082024148
 20
42.45872663237413
 30
0.0
 10
-226.9524838406557
 20
38.88030557894817
 30
0.0
 10
-230.7408794111128
 20
35.34184459598544
 30
0.0
  0
SPLINE
  5
1CB
330
1B2
100
AcDbEntity
  8
0
  6
Continuous
 62
     7
370
    25
100
AcDbSpline
210
0.0
220
0.0
230
1.0
 70
     8
 71
     3
 72
    20
 73
    16
 74
     0
 42
0.000000001
 43
0.00000001
 40
0.0
 40
0.0
 40
0.0
 40
0.0
 40
0.1249999999999979
 40
0.1249999999999979
 40
0.2499999999999959
 40
0.2499999999999959
 40
0.3749999999999938
 40
0.3749999999999938
 40
0.4999999999999918
 40
0.4999999999999918
 40
0.6249999999999898
 40
0.6249999999999898
 40
0.7499999999999877
 40
0.7499999999999877
 40
1.0
 40
1.0
 40
1.0
 40
1.0
 10
-371.203472047632
 20
72.6602958417157
 30
0.0
 10
-371.3494588931306
 20
72.70279841092766
 30
0.0
 10
-371.4854627401712
 20
72.75145663874444
 30
0.0
 10
-371.7383134705204
 20
72.86059686405505
 30
0.0
 10
-371.8562647736853
 20
72.92183192220975
 30
0.0
 10
-372.0654268561618
 20
73.05296351206044
 30
0.0
 10
-372.1565816019032
 20
73.12249106801438
 30
0.0
 10
-372.3122767989315
 20
73.26941184904877
 30
0.0
 10
-372.3768104297073
 20
73.34734211117363
 30
0.0
 10
-372.4731915497557
 20
73.50461779583638
 30
0.0
 10
-372.5060247094798
 20
73.58469397361229
 30
0.0
 10
-372.5402485438862
 20
73.74779796813715
 30
0.0
 10
-372.5411039166867
 20
73.82959278927423
 30
0.0
 10
-372.4962237913765
 20
74.06944564546188
 30
0.0
 10
-372.4017837283083
 20
74.22600203130794
 30
0.0
 10
-372.2477788795003
 20
74.36638503843032
 30
0.0
  0
SPLINE
  5
1CC
330
1B2
100
AcDbEntity
  8
0
  6
Continuous
 62
     7
370
    25
100
AcDbSpline
210
0.0
220
0.0
230
1.0
 70
     8
 71
     3
 72
    20
 73
    16
 74
     0
 42
0.000000001
 43
0.00000001
 40
0.0
 40
0.0
 40
0.0
 40
0.0
 40
0.25
 40
0.25
 40
0.375
 40
0.375
 40
0.5
 40
0.5
 40
0.625
 40
0.625
 40
0.75
 40
0.75
 40
0.875
 40
0.875
 40
1.0
 40
1.0
 40
1.0
 40
1.0
 10
-234.1186631876315
 20
34.82787763212608
 30
0.0
 10
-245.542921415563
 20
37.79641343063414
 30
0.0
 10
-256.9671335508051
 20
40.76122998426595
 30
0.0
 10
-274.1037445938721
 20
45.23207167401311
 30
0.0
 10
-279.8159794414457
 20
46.7264853036386
 30
0.0
 10
-291.24064408283
 20
49.7411648214387
 30
0.0
 10
-296.9530720955124
 20
51.26106463098243
 30
0.0
 10
-308.378417376357
 20
54.36626541488896
 30
0.0
 10
-314.0908177009685
 20
55.9555651666528
 30
0.0
 10
-325.5149193624745
 20
59.22703928761662
 30
0.0
 10
-331.2259969207707
 20
60.90569989814917
 30
0.0
 10
-342.6478638481008
 20
64.27573092738204
 30
0.0
 10
-348.3586916063491
 20
65.96536665661377
 30
0.0
 10
-359.7807865361204
 20
69.32558977616102
 30
0.0
 10
-365.4920245898398
 20
70.99746663237114
 30
0.0
 10
-371.203472047632
 20
72.66029584171571
 30
0.0
  0
SPLINE
  5
1CD
330
1B2
100
AcDbEntity
  8
0
  6
Continuous
 62
     7
370
    25
100
AcDbSpline
210
0.0
220
0.0
230
1.0
 70
     8
 71
     3
 72
    20
 73
    16
 74
     0
 42
0.000000001
 43
0.00000001
 40
0.0
 40
0.0
 40
0.0
 40
0.0
 40
0.125
 40
0.125
 40
0.25
 40
0.25
 40
0.375
 40
0.375
 40
0.5
 40
0.5
 40
0.625
 40
0.625
 40
0.75
 40
0.75
 40
1.0
 40
1.0
 40
1.0
 40
1.0
 10
-230.7408794111128
 20
35.34184459598544
 30
0.0
 10
-230.8179017172051
 20
35.26990373873952
 30
0.0
 10
-230.9079520175497
 20
35.20289344630989
 30
0.0
 10
-231.1130472492752
 20
35.07833477366305
 30
0.0
 10
-231.2295410828704
 20
35.02024378627092
 30
0.0
 10
-231.4816074933611
 20
34.91724024563579
 30
0.0
 10
-231.6164243000793
 20
34.87236229404356
 30
0.0
 10
-231.9034673824987
 20
34.79572976065177
 30
0.0
 10
-232.0567992836488
 20
34.76397319674557
 30
0.0
 10
-232.3682356085323
 20
34.71656455503787
 30
0.0
 10
-232.5277434037017
 20
34.70042867437692
 30
0.0
 10
-232.8545171820063
 20
34.6836406908269
 30
0.0
 10
-233.0194116408983
 20
34.68325110741835
 30
0.0
 10
-233.5055672110147
 20
34.7054457207247
 30
0.0
 10
-233.8266824765113
 20
34.75200791908728
 30
0.0
 10
-234.1186631876315
 20
34.82787763212607
 30
0.0
  0
SPLINE
  5
1CE
330
1B2
100
AcDbEntity
  8
0
  6
Continuous
 62
     7
370
    25
100
AcDbSpline
210
0.0
220
0.0
230
1.0
 70
     8
 71
     3
 72
    14
 73
    10
 74
     0
 42
0.000000001
 43
0.00000001
 40
0.0
 40
0.0
 40
0.0
 40
0.0
 40
0.2499999999999999
 40
0.2499999999999999
 40
0.4999999999999999
 40
0.4999999999999999
 40
0.7499999999999999
 40
0.7499999999999999
 40
1.0
 40
1.0
 40
1.0
 40
1.0
 10
-169.7693300316622
 20
94.48384569732559
 30
0.0
 10
-173.9030023359904
 20
90.37870213192845
 30
0.0
 10
-178.0366948213275
 20
86.28024298982807
 30
0.0
 10
-186.3041898474416
 20
78.11977764732703
 30
0.0
 10
-190.4379953525014
 20
74.05874563790047
 30
0.0
 10
-198.7057646742345
 20
65.9891484458036
 30
0.0
 10
-202.839604141164
 20
61.98070476006976
 30
0.0
 10
-211.1072168859754
 20
54.00239859019235
 30
0.0
 10
-215.2409446163582
 20
50.03160273932649
 30
0.0
 10
-219.3746435064039
 20
46.06753902479414
 30
0.0
  0
SPLINE
  5
1D0
330
1B2
100
AcDbEntity
  8
0
  6
Continuous
 62
     7
370
    25
100
AcDbSpline
210
0.0
220
0.0
230
1.0
 70
     8
 71
     3
 72
     8
 73
     4
 74
     0
 42
0.000000001
 43
0.00000001
 40
0.0
 40
0.0
 40
0.0
 40
0.0
 40
1.0
 40
1.0
 40
1.0
 40
1.0
 10
-158.4030941269532
 20
105.9457406506478
 30
0.0
 10
-162.1914896974102
 20
102.0890212028084
 30
0.0
 10
-165.9802653356511
 20
98.27151990981507
 30
0.0
 10
-169.7693300316621
 20
94.48384569732559
 30
0.0
  0
SPLINE
  5
1D1
330
1B2
100
AcDbEntity
  8
0
  6
Continuous
 62
     7
370
    25
100
AcDbSpline
210
0.0
220
0.0
230
1.0
 70
     8
 71
     3
 72
    20
 73
    16
 74
     0
 42
0.000000001
 43
0.00000001
 40
0.0
 40
0.0
 40
0.0
 40
0.0
 40
0.124999999999999
 40
0.124999999999999
 40
0.2499999999999979
 40
0.2499999999999979
 40
0.3749999999999969
 40
0.3749999999999969
 40
0.4999999999999959
 40
0.4999999999999959
 40
0.6249999999999949
 40
0.6249999999999949
 40
0.7499999999999938
 40
0.7499999999999938
 40
1.0
 40
1.0
 40
1.0
 40
1.0
 10
-159.4474009588216
 20
107.7093187208099
 30
0.0
 10
-159.3014112784969
 20
107.671384039747
 30
0.0
 10
-159.1654108334944
 20
107.6263700547165
 30
0.0
 10
-158.9125742548874
 20
107.5227670300384
 30
0.0
 10
-158.794635114862
 20
107.4634319870851
 30
0.0
 10
-158.5854839543185
 20
107.3341910023558
 30
0.0
 10
-158.494334976403
 20
107.2646790560673
 30
0.0
 10
-158.338647956074
 20
107.1159709494317
 30
0.0
 10
-158.2741112499437
 20
107.0361975712013
 30
0.0
 10
-158.1777177242068
 20
106.8735448190452
 30
0.0
 10
-158.1448770343335
 20
106.7899393038919
 30
0.0
 10
-158.1106328230043
 20
106.618070761037
 30
0.0
 10
-158.1097639880096
 20
106.5310704444486
 30
0.0
 10
-158.1546168260988
 20
106.2737000639737
 30
0.0
 10
-158.2490499302803
 20
106.1025630410467
 30
0.0
 10
-158.4030941269532
 20
105.9457406506479
 30
0.0
  0
SPLINE
  5
1D2
330
1B2
100
AcDbEntity
  8
0
  6
Continuous
 62
     7
370
    25
100
AcDbSpline
210
0.0
220
0.0
230
1.0
 70
     8
 71
     3
 72
    20
 73
    16
 74
     0
 42
0.000000001
 43
0.00000001
 40
0.0
 40
0.0
 40
0.0
 40
0.0
 40
0.1250000000000001
 40
0.1250000000000001
 40
0.2500000000000002
 40
0.2500000000000002
 40
0.3750000000000002
 40
0.3750000000000002
 40
0.5000000000000003
 40
0.5000000000000003
 40
0.6250000000000004
 40
0.6250000000000004
 40
0.7500000000000004
 40
0.7500000000000004
 40
1.0
 40
1.0
 40
1.0
 40
1.0
 10
-296.532209818822
 20
145.5417369303994
 30
0.0
 10
-290.8208055056438
 20
143.8789202821656
 30
0.0
 10
-285.1096152160731
 20
142.2070574794462
 30
0.0
 10
-273.6876242232344
 20
138.8468651957213
 30
0.0
 10
-267.976853959738
 20
137.1572467169746
 30
0.0
 10
-256.5550951132298
 20
133.7872470817749
 30
0.0
 10
-250.8441236688124
 20
132.1086184958528
 30
0.0
 10
-239.4209381370502
 20
128.8373976845058
 30
0.0
 10
-233.7086750648434
 20
127.2481251009549
 30
0.0
 10
-222.2830948283656
 20
124.1428494386592
 30
0.0
 10
-216.5705510503305
 20
122.6229161032035
 30
0.0
 10
-205.1456527218992
 20
119.6081715780206
 30
0.0
 10
-199.433300912605
 20
118.1137267070954
 30
0.0
 10
-182.296338995655
 20
113.6427923060918
 30
0.0
 10
-170.8718930479922
 20
110.6779152869796
 30
0.0
 10
-159.4474009588215
 20
107.7093187208098
 30
0.0
  0
SPLINE
  5
1D3
330
1B2
100
AcDbEntity
  8
0
  6
Continuous
 62
     7
370
    25
100
AcDbSpline
210
0.0
220
0.0
230
1.0
 70
     8
 71
     3
 72
    20
 73
    16
 74
     0
 42
0.000000001
 43
0.00000001
 40
0.0
 40
0.0
 40
0.0
 40
0.0
 40
0.125
 40
0.125
 40
0.25
 40
0.25
 40
0.375
 40
0.375
 40
0.5
 40
0.5
 40
0.625
 40
0.625
 40
0.75
 40
0.75
 40
1.0
 40
1.0
 40
1.0
 40
1.0
 10
-299.9099935953407
 20
144.9702810930927
 30
0.0
 10
-299.8329907565124
 20
145.0504034744185
 30
0.0
 10
-299.7429626650935
 20
145.1250372319105
 30
0.0
 10
-299.5379102137902
 20
145.2637789804491
 30
0.0
 10
-299.4214374313499
 20
145.3284915664956
 30
0.0
 10
-299.1694005480614
 20
145.4432512454158
 30
0.0
 10
-299.0345944919969
 20
145.4932584175983
 30
0.0
 10
-298.7475614620064
 20
145.57865491557
 30
0.0
 10
-298.5942245655045
 20
145.6140473641089
 30
0.0
 10
-298.2827702149431
 20
145.6668712224009
 30
0.0
 10
-298.1232501737322
 20
145.6848420576675
 30
0.0
 10
-297.7964446666342
 20
145.703491444249
 30
0.0
 10
-297.6315300300761
 20
145.7038771196014
 30
0.0
 10
-297.1453239090229
 20
145.6789107933956
 30
0.0
 10
-296.8241864993112
 20
145.6267429391832
 30
0.0
 10
-296.532209818822
 20
145.5417369303994
 30
0.0
  0
SPLINE
  5
1D6
330
1B2
100
AcDbEntity
  8
0
  6
Continuous
 62
     7
370
    25
100
AcDbSpline
210
0.0
220
0.0
230
1.0
 70
     8
 71
     3
 72
    22
 73
    18
 74
     0
 42
0.000000001
 43
0.00000001
 40
0.0
 40
0.0
 40
0.0
 40
0.0
 40
0.125
 40
0.125
 40
0.25
 40
0.25
 40
0.375
 40
0.375
 40
0.5
 40
0.5
 40
0.625
 40
0.625
 40
0.75
 40
0.75
 40
0.875
 40
0.875
 40
1.0
 40
1.0
 40
1.0
 40
1.0
 10
-371.9649276275217
 20
74.62426248528081
 30
0.0
 10
-368.9745568186977
 20
77.4392055144562
 30
0.0
 10
-365.9842286407873
 20
80.24968901179108
 30
0.0
 10
-360.0036480653144
 20
85.86272878059346
 30
0.0
 10
-357.0133990557267
 20
88.66493064305466
 30
0.0
 10
-351.032898797262
 20
94.2695686154267
 30
0.0
 10
-348.0426636320005
 20
97.0703222515332
 30
0.0
 10
-342.0617865363504
 20
102.7143803840636
 30
0.0
 10
-339.0711013411782
 20
105.5619048554578
 30
0.0
 10
-333.0883635895054
 20
111.401215247166
 30
0.0
 10
-330.0975834007128
 20
114.3917656222966
 30
0.0
 10
-324.1164393121597
 20
120.4229997768744
 30
0.0
 10
-321.1260409487082
 20
123.4595335205238
 30
0.0
 10
-315.1452186944362
 20
129.5295251513065
 30
0.0
 10
-312.1548088592057
 20
132.564636627777
 30
0.0
 10
-306.1738946508581
 20
138.6263958400147
 30
0.0
 10
-303.1833941583742
 20
141.6533909991473
 30
0.0
 10
-300.1928448473193
 20
144.676015553669
 30
0.0
  0
SPLINE
  5
1DC
330
1B2
100
AcDbEntity
  8
0
  6
Continuous
 62
     7
370
    25
100
AcDbSpline
210
0.0
220
0.0
230
1.0
 70
     8
 71
     3
 72
    10
 73
     6
 74
     0
 42
0.000000001
 43
0.00000001
 40
0.0
 40
0.0
 40
0.0
 40
0.0
 40
0.2747555098102527
 40
0.7324503076633664
 40
1.0
 40
1.0
 40
1.0
 40
1.0
 10
-224.9942161051753
 20
44.50932691557948
 30
0.0
 10
-224.1417467348275
 20
44.87435538834821
 30
0.0
 10
-221.869211952846
 20
45.84745768343956
 30
0.0
 10
-219.0007171978532
 20
47.31757389153078
 30
0.0
 10
-217.1279471002484
 20
48.46776090580161
 30
0.0
 10
-216.4370641356631
 20
48.89207599672665
 30
0.0
  0
SPLINE
  5
1DD
330
1B2
100
AcDbEntity
  8
0
  6
Continuous
 62
     7
370
    25
100
AcDbSpline
210
0.0
220
0.0
230
1.0
 70
     8
 71
     3
 72
    11
 73
     7
 74
     0
 42
0.000000001
 43
0.00000001
 40
0.0
 40
0.0
 40
0.0
 40
0.0
 40
0.0019959959042676
 40
0.4387583281464453
 40
0.8785448865087375
 40
1.0
 40
1.0
 40
1.0
 40
1.0
 10
-202.5001873035127
 20
62.3316280978891
 30
0.0
 10
-202.4977524748464
 20
62.33557177530695
 30
0.0
 10
-201.9625302568577
 20
63.20246799834445
 30
0.0
 10
-201.3163206622726
 20
64.97821408961839
 30
0.0
 10
-200.6479507394215
 20
66.99641229130965
 30
0.0
 10
-200.5519363016537
 20
68.13880296232043
 30
0.0
 10
-200.5311583640544
 20
68.3860212206168
 30
0.0
  0
LWPOLYLINE
  5
1E2
330
1B2
100
AcDbEntity
  8
0
  6
Continuous
 62
     7
370
    25
100
AcDbPolyline
 90
        9
 70
   128
 43
0.0
 10
-173.0809677054
 20
102.0355872336
 10
-172.7106981679
 20
102.5030070441
 10
-172.5245963432
 20
102.998649806
 10
-172.5298140201
 20
103.503468246
 10
-172.7261506862
 20
103.9980624746
 10
-173.1060612335
 20
104.4634255129
 10
-173.6549459127
 20
104.8816737203
 10
-174.3517113935
 20
105.2367340529
 10
-175.1695813691
 20
105.5149617411
  0
LWPOLYLINE
  5
1E6
330
1B2
100
AcDbEntity
  8
0
  6
Continuous
 62
     7
370
    25
100
AcDbPolyline
 90
        9
 70
   128
 43
0.0
 10
-357.5699053011
 20
76.4706416048
 10
-357.9401748386
 20
76.0032217944
 10
-358.1262766632
 20
75.5075790325
 10
-358.1210589863
 20
75.0027605925
 10
-357.9247223202
 20
74.5081663639
 10
-357.5448117729
 20
74.0428033256
 10
-356.9959270937
 20
73.6245551181
 10
-356.299161613
 20
73.2694947856
 10
-355.4812916374
 20
72.9912670974
  0
LINE
  5
1F3
330
1B2
100
AcDbEntity
  8
0
  6
Continuous
 62
     7
370
    25
100
AcDbLine
 10
-234.1734588746
 20
34.809279354
 30
0.0
 11
-234.1734588746
 21
35.6187931921
 31
0.0
  0
LINE
  5
1F4
330
1B2
100
AcDbEntity
  8
0
  6
Continuous
 62
     7
370
    25
100
AcDbLine
 10
-358.1478146927
 20
75.2688121314
 30
0.0
 11
-358.1478146927
 21
68.829988308
 31
0.0
  0
LINE
  5
1F5
330
1B2
100
AcDbEntity
  8
0
  6
Continuous
 62
     7
370
    25
100
AcDbLine
 10
-172.5030583137
 20
96.3800783014
 30
0.0
 11
-172.5030583137
 21
103.237416707
 31
0.0
  0
LINE
  5
1F6
330
1B2
100
AcDbEntity
  8
0
  6
Continuous
 62
     7
370
    25
100
AcDbLine
 10
-173.5030583137
 20
90.8016977037
 30
0.0
 11
-173.5030583137
 21
94.7662754544
 31
0.0
  0
LINE
  5
1F7
330
1B2
100
AcDbEntity
  8
0
  6
Continuous
 62
     7
370
    25
100
AcDbLine
 10
673.1081224946
 20
80.0032161701
 30
0.0
 11
-299.7518113506
 21
344.4057003224
 31
0.0
  0
LINE
  5
1F8
330
1B2
100
AcDbEntity
  8
0
  6
Continuous
 62
     7
370
    25
100
AcDbLine
 10
299.7518113506
 20
-284.4039892733
 30
0.0
 11
673.1081224946
 21
80.0032161701
 31
0.0
  0
LINE
  5
1F9
330
1B2
100
AcDbEntity
  8
0
  6
Continuous
 62
     7
370
    25
100
AcDbLine
 10
-673.1081224946
 20
-20.001505121
 30
0.0
 11
299.7518113506
 21
-284.4039892733
 31
0.0
  0
LINE
  5
1FA
330
1B2
100
AcDbEntity
  8
0
  6
Continuous
 62
     7
370
    25
100
AcDbLine
 10
-299.7518113506
 20
344.4057003224
 30
0.0
 11
-673.1081224946
 21
-20.001505121
 31
0.0
  0
LINE
  5
1FB
330
1B2
100
AcDbEntity
  8
0
  6
Continuous
 62
     7
370
    25
100
AcDbLine
 10
-291.3973566956
 20
330.4882022927
 30
0.0
 11
-646.0858522825
 21
-15.6986428786
 31
0.0
  0
LINE
  5
1FC
330
1B2
100
AcDbEntity
  8
0
  6
Continuous
 62
     7
370
    25
100
AcDbLine
 10
-646.0858522825
 20
-15.6986428786
 30
0.0
 11
291.3973566956
 21
-270.4864912435
 31
0.0
  0
LINE
  5
1FD
330
1B2
100
AcDbEntity
  8
0
  6
Continuous
 62
     7
370
    25
100
AcDbLine
 10
291.3973566956
 20
-270.4864912435
 30
0.0
 11
646.0858522825
 21
75.7003539277
 31
0.0
  0
LINE
  5
1FE
330
1B2
100
AcDbEntity
  8
0
  6
Continuous
 62
     7
370
    25
100
AcDbLine
 10
646.0858522825
 20
75.7003539277
 30
0.0
 11
-291.3973566956
 21
330.4882022927
 31
0.0
  0
LINE
  5
1FF
330
1B2
100
AcDbEntity
  8
0
  6
Continuous
 62
     7
370
    25
100
AcDbLine
 10
-673.1081224946
 20
-20.001505121
 30
0.0
 11
-673.1081224946
 21
-50.0023606456
 31
0.0
  0
LINE
  5
200
330
1B2
100
AcDbEntity
  8
0
  6
Continuous
 62
     7
370
    25
100
AcDbLine
 10
299.7518113506
 20
-284.4039892733
 30
0.0
 11
299.7518113506
 21
-314.4048447979
 31
0.0
  0
LINE
  5
201
330
1B2
100
AcDbEntity
  8
0
  6
Continuous
 62
     7
370
    25
100
AcDbLine
 10
-673.1081224946
 20
-50.0023606456
 30
0.0
 11
299.7518113506
 21
-314.4048447979
 31
0.0
  0
LINE
  5
202
330
1B2
100
AcDbEntity
  8
0
  6
Continuous
 62
     7
370
    25
100
AcDbLine
 10
673.1081224946
 20
80.0032161701
 30
0.0
 11
673.1081224946
 21
50.0023606456
 31
0.0
  0
LINE
  5
203
330
1B2
100
AcDbEntity
  8
0
  6
Continuous
 62
     7
370
    25
100
AcDbLine
 10
299.7518113506
 20
-314.4048447979
 30
0.0
 11
673.1081224946
 21
50.0023606456
 31
0.0
  0
LINE
  5
204
330
1B2
100
AcDbEntity
  8
0
  6
Continuous
 62
     7
370
    25
100
AcDbLine
 10
291.3973566956
 20
-270.4864912435
 30
0.0
 11
-219.3746435064
 21
46.0675390248
 31
0.0
  0
LINE
  5
205
330
1B2
100
AcDbEntity
  8
0
  6
Continuous
 62
     7
370
    25
100
AcDbLine
 10
-646.0858522825
 20
-15.6986428786
 30
0.0
 11
-371.9649276275
 21
74.6242624853
 31
0.0
  0
LINE
  5
206
330
1B2
100
AcDbEntity
  8
0
  6
Continuous
 62
     7
370
    25
100
AcDbLine
 10
-372.2477788795
 20
74.3663850384
 30
0.0
 11
-371.9649276275
 21
74.6242624853
 31
0.0
  0
LINE
  5
207
330
1B2
100
AcDbEntity
  8
0
  6
Continuous
 62
     7
370
    25
100
AcDbLine
 10
646.0858522825
 20
75.7003539277
 30
0.0
 11
-169.7693300317
 21
94.4838456973
 31
0.0
  0
LINE
  5
208
330
1B2
100
AcDbEntity
  8
0
  6
Continuous
 62
     7
370
    25
100
AcDbLine
 10
-300.1928448473
 20
144.6760155537
 30
0.0
 11
-299.9099935953
 21
144.9702810931
 31
0.0
  0
LINE
  5
209
330
1B2
100
AcDbEntity
  8
0
  6
Continuous
 62
     7
370
    25
100
AcDbLine
 10
-300.1928448473
 20
144.6760155537
 30
0.0
 11
-291.3973566956
 21
330.4882022927
 31
0.0
  0
LINE
  5
20A
330
1B2
100
AcDbEntity
  8
0
  6
Continuous
 62
     7
370
    25
100
AcDbLine
 10
-358.1478146927
 20
69.7990892532
 30
0.0
 11
-358.9112387846
 21
69.0539639357
 31
0.0
  0
LINE
  5
20B
330
1B2
100
AcDbEntity
  8
0
  6
Continuous
 62
     7
370
    25
100
AcDbLine
 10
-171.1655819086
 20
93.1068826034
 30
0.0
 11
-173.5030583137
 21
93.7421586043
 31
0.0
  0
LINE
  5
20C
330
1B2
100
AcDbEntity
  8
0
  6
Continuous
 62
     7
370
    25
100
AcDbLine
 10
-182.8035793425
 20
81.6296604643
 30
0.0
 11
-188.0418339004
 21
80.5759847751
 31
0.0
  0
LINE
  5
20D
330
1B2
100
AcDbEntity
  8
0
  6
Continuous
 62
     7
370
    25
100
AcDbLine
 10
-200.6606397031
 20
68.2596434643
 30
0.0
 11
-200.5374123614
 21
67.5656059518
 31
0.0
  0
LINE
  5
20E
330
1B2
100
AcDbEntity
  8
0
  6
Continuous
 62
     7
370
    25
100
AcDbLine
 10
-296.8995047402
 20
135.6868124894
 30
0.0
 11
-357.5699053011
 21
76.4706416048
 31
0.0
  0
LINE
  5
20F
330
1B2
100
AcDbEntity
  8
0
  6
Continuous
 62
     7
370
    25
100
AcDbLine
 10
-175.1695813691
 20
105.5149617411
 30
0.0
 11
-290.1439371872
 21
136.76252805
 31
0.0
  0
LINE
  5
210
330
1B2
100
AcDbEntity
  8
0
  6
Continuous
 62
     7
370
    25
100
AcDbLine
 10
-233.7513682663
 20
42.8194163491
 30
0.0
 11
-173.0809677054
 21
102.0355872336
 31
0.0
  0
LINE
  5
211
330
1B2
100
AcDbEntity
  8
0
  6
Continuous
 62
     7
370
    25
100
AcDbLine
 10
-355.4812916374
 20
72.9912670974
 30
0.0
 11
-240.5069358193
 21
41.7437007885
 31
0.0
  0
LINE
  5
212
330
1B2
100
AcDbEntity
  8
0
  6
Continuous
 62
     7
370
    25
100
AcDbLine
 10
-233.7513682663
 20
42.8194163491
 30
0.0
 11
-233.7513682663
 21
35.9620779434
 31
0.0
  0
LINE
  5
213
330
1B2
100
AcDbEntity
  8
0
  6
Continuous
 62
     7
370
    25
100
AcDbLine
 10
-173.0809677054
 20
102.0355872336
 30
0.0
 11
-173.0809677054
 21
95.178248828
 31
0.0
  0
LINE
  5
214
330
1B2
100
AcDbEntity
  8
0
  6
Continuous
 62
     7
370
    25
100
AcDbLine
 10
-233.7513682663
 20
35.9620779434
 30
0.0
 11
-173.0809677054
 21
95.178248828
 31
0.0
  0
LINE
  5
215
330
1B2
100
AcDbEntity
  8
0
  6
Continuous
 62
    60
370
    25
100
AcDbLine
 10
-372.2477788795
 20
73.2308086211
 30
0.0
 11
-372.2477788795
 21
74.3663850384
 31
0.0
  0
LINE
  5
216
330
1B2
100
AcDbEntity
  8
0
  6
Continuous
 62
    60
370
    25
100
AcDbLine
 10
-299.9099935953
 20
132.7484830759
 30
0.0
 11
-299.9099935953
 21
144.9702810931
 31
0.0
  0
LINE
  5
217
330
1B2
100
AcDbEntity
  8
0
  6
Continuous
 62
    60
370
    25
100
AcDbLine
 10
-159.4474009588
 20
104.8926448583
 30
0.0
 11
-159.4474009588
 21
107.7093187208
 31
0.0
  0
LINE
  5
218
330
1B2
100
AcDbEntity
  8
0
  6
Continuous
 62
    60
370
    25
100
AcDbLine
 10
-296.5322098188
 20
135.9917340946
 30
0.0
 11
-296.5322098188
 21
145.5417369304
 31
0.0
  0
LINE
  5
219
330
1B2
100
AcDbEntity
  8
0
  6
Continuous
 62
    60
370
    25
100
AcDbLine
 10
-240.5069358193
 20
41.7437007885
 30
0.0
 11
-240.5069358193
 21
36.4893799328
 31
0.0
  0
LINE
  5
21A
330
1B2
100
AcDbEntity
  8
0
  6
Continuous
 62
    60
370
    25
100
AcDbLine
 10
-355.4812916374
 20
72.9912670974
 30
0.0
 11
-355.4812916374
 21
68.0476758538
 31
0.0
  0
LINE
  5
21B
330
1B2
100
AcDbEntity
  8
0
  6
Continuous
 62
    60
370
    25
100
AcDbLine
 10
-176.3215600058
 20
92.0153313978
 30
0.0
 11
-176.3215600058
 21
88.0221327311
 31
0.0
  0
ARC
  5
21C
330
1B2
100
AcDbEntity
  8
0
  6
Continuous
 62
     7
370
    25
100
AcDbCircle
 10
-292.4359037856
 20
129.4056638658
 30
0.0
 40
7.705618827394104
100
AcDbArc
 50
72.6960345908
 51
125.398914916
  0
ARC
  5
21D
330
1B2
100
AcDbEntity
  8
0
  6
Continuous
 62
     7
370
    25
100
AcDbCircle
 10
-238.2149692208
 20
49.1005649727
 30
0.0
 40
7.705618827394032
100
AcDbArc
 50
252.6960345908
 51
305.398914916
  0
ARC
  5
21E
330
1B2
100
AcDbEntity
  8
0
  6
Continuous
 62
     7
370
    25
100
AcDbCircle
 10
-236.7050339581
 20
39.2457586253
 30
0.0
 40
4.416638975462879
100
AcDbArc
 50
289.8410196665
 51
311.9713319858
  0
ARC
  5
21F
330
1B2
100
AcDbEntity
  8
0
  6
Continuous
 62
     7
370
    25
100
AcDbCircle
 10
-174.1623374575
 20
96.4380951232
 30
0.0
 40
1.660293115197057
100
AcDbArc
 50
310.6406362013
 51
357.9974645044
  0
VIEWPORT
  5
28E
330
1B2
100
AcDbEntity
  8
0
100
AcDbViewport
 10
0.0
 20
0.0
 30
0.0
 40
205.6
 41
156.0
 68
     1
 69
     1
 12
0.0
 22
0.0
 13
0.0
 23
0.0
 14
10.0
 24
10.0
 15
10.0
 25
10.0
 16
0.0
 26
0.0
 36
1.0
 17
0.0
 27
0.0
 37
0.0
 42
50.0
 43
0.0
 44
0.0
 45
851.3229571984
 50
0.0
 51
0.0
 72
   100
 90
   557152
  1

281
     0
 71
     1
 74
     0
110
0.0
120
0.0
130
0.0
111
1.0
121
0.0
131
0.0
112
0.0
122
1.0
132
0.0
 79
     0
146
0.0
  0
ENDBLK
  5
1B5
330
1B2
100
AcDbEntity
  8
0
100
AcDbBlockEnd
  0
BLOCK
  5
222
330
220
100
AcDbEntity
  8
0
100
AcDbBlockBegin
  2
*Paper_Space7
 70
     0
 10
0.0
 20
0.0
 30
0.0
  3
*Paper_Space7
  1

  0
SPLINE
  5
234
330
220
100
AcDbEntity
  8
0
  6
Continuous
 62
     7
370
    25
100
AcDbSpline
210
0.0
220
0.0
230
1.0
 70
     8
 71
     3
 72
     8
 73
     4
 74
     0
 42
0.000000001
 43
0.00000001
 40
0.0
 40
0.0
 40
0.0
 40
0.0
 40
1.0
 40
1.0
 40
1.0
 40
1.0
 10
-224.580849923619
 20
28.48948970040379
 30
0.0
 10
-227.4513232600191
 20
26.05633634647766
 30
0.0
 10
-230.3215776155656
 20
23.65649361213559
 30
0.0
 10
-233.1915440440042
 20
21.3004493661067
 30
0.0
  0
SPLINE
  5
238
330
220
100
AcDbEntity
  8
0
  6
Continuous
 62
     7
370
    25
100
AcDbSpline
210
0.0
220
0.0
230
1.0
 70
     8
 71
     3
 72
    20
 73
    16
 74
     0
 42
0.000000001
 43
0.00000001
 40
0.0
 40
0.0
 40
0.0
 40
0.0
 40
0.1249999999999979
 40
0.1249999999999979
 40
0.2499999999999959
 40
0.2499999999999959
 40
0.3749999999999938
 40
0.3749999999999938
 40
0.4999999999999918
 40
0.4999999999999918
 40
0.6249999999999898
 40
0.6249999999999898
 40
0.7499999999999877
 40
0.7499999999999877
 40
1.0
 40
1.0
 40
1.0
 40
1.0
 10
-381.403187129337
 20
39.74199283767075
 30
0.0
 10
-381.5575916879562
 20
39.76455485626133
 30
0.0
 10
-381.7037047155958
 20
39.79122696469572
 30
0.0
 10
-381.9800196267909
 20
39.85247078952478
 30
0.0
 10
-382.1114975069283
 20
39.88748248818254
 30
0.0
 10
-382.3502793185375
 20
39.96364418974774
 30
0.0
 10
-382.4574358348897
 20
40.0045653974202
 30
0.0
 10
-382.6474972308323
 20
40.09205182172557
 30
0.0
 10
-382.7305295052696
 20
40.13895268427623
 30
0.0
 10
-382.8647477216252
 20
40.23454128672485
 30
0.0
 10
-382.9170871216519
 20
40.28365832927554
 30
0.0
 10
-382.9915266812743
 20
40.38460804306522
 30
0.0
 10
-383.0127916176393
 20
40.43568526352212
 30
0.0
 10
-383.0284619027381
 20
40.58677782653675
 30
0.0
 10
-382.9745086315464
 20
40.68720783243806
 30
0.0
 10
-382.8578395198669
 20
40.77917769506034
 30
0.0
  0
SPLINE
  5
239
330
220
100
AcDbEntity
  8
0
  6
Continuous
 62
     7
370
    25
100
AcDbSpline
210
0.0
220
0.0
230
1.0
 70
     8
 71
     3
 72
    20
 73
    16
 74
     0
 42
0.000000001
 43
0.00000001
 40
0.0
 40
0.0
 40
0.0
 40
0.0
 40
0.25
 40
0.25
 40
0.375
 40
0.375
 40
0.5
 40
0.5
 40
0.625
 40
0.625
 40
0.75
 40
0.75
 40
0.875
 40
0.875
 40
1.0
 40
1.0
 40
1.0
 40
1.0
 10
-236.413963387095
 20
20.84184304404632
 30
0.0
 10
-248.4969530784642
 20
22.21420250553798
 30
0.0
 10
-260.5798940194043
 20
23.58247875967661
 30
0.0
 10
-278.7046151564085
 20
25.66082110225406
 30
0.0
 10
-284.7462218323817
 20
26.35814273087475
 30
0.0
 10
-296.8296413713141
 20
27.78118891216153
 30
0.0
 10
-302.8714523504437
 20
28.50651110545719
 30
0.0
 10
-314.9555917750283
 20
30.02900999192775
 30
0.0
 10
-320.9973734695718
 20
30.83067063757867
 30
0.0
 10
-333.0801975667757
 20
32.5362616911678
 30
0.0
 10
-339.120580223287
 20
33.43643061956222
 30
0.0
 10
-351.2010407298339
 20
35.2507959005944
 30
0.0
 10
-357.2411591826354
 20
36.1630778862537
 30
0.0
 10
-369.3218608384188
 20
37.96661754924858
 30
0.0
 10
-375.3624132446421
 20
38.85929835049489
 30
0.0
 10
-381.403187129337
 20
39.74199283767076
 30
0.0
  0
SPLINE
  5
23A
330
220
100
AcDbEntity
  8
0
  6
Continuous
 62
     7
370
    25
100
AcDbSpline
210
0.0
220
0.0
230
1.0
 70
     8
 71
     3
 72
    20
 73
    16
 74
     0
 42
0.000000001
 43
0.00000001
 40
0.0
 40
0.0
 40
0.0
 40
0.0
 40
0.125
 40
0.125
 40
0.25
 40
0.25
 40
0.375
 40
0.375
 40
0.5
 40
0.5
 40
0.625
 40
0.625
 40
0.75
 40
0.75
 40
1.0
 40
1.0
 40
1.0
 40
1.0
 10
-233.1915440440042
 20
21.3004493661067
 30
0.0
 10
-233.2498936615704
 20
21.25254835954347
 30
0.0
 10
-233.3224077195702
 20
21.20717889970468
 30
0.0
 10
-233.4946107847121
 20
21.121299526691
 30
0.0
 10
-233.5956010527986
 20
21.08039271649194
 30
0.0
 10
-233.8198208558321
 20
21.00599199033238
 30
0.0
 10
-233.9423092393182
 20
20.97255059258211
 30
0.0
 10
-234.2078565757283
 20
20.91311241320644
 30
0.0
 10
-234.352012031374
 20
20.88706896014852
 30
0.0
 10
-234.6491063592943
 20
20.84479532919125
 30
0.0
 10
-234.8033160744737
 20
20.82820671951923
 30
0.0
 10
-235.1233279162842
 20
20.80432924783953
 30
0.0
 10
-235.2868430029943
 20
20.79730102194609
 30
0.0
 10
-235.7748071030387
 20
20.79107383170529
 30
0.0
 10
-236.1051468449479
 20
20.80676833867077
 30
0.0
 10
-236.413963387095
 20
20.84184304404632
 30
0.0
  0
SPLINE
  5
23B
330
220
100
AcDbEntity
  8
0
  6
Continuous
 62
     7
370
    25
100
AcDbSpline
210
0.0
220
0.0
230
1.0
 70
     8
 71
     3
 72
    14
 73
    10
 74
     0
 42
0.000000001
 43
0.00000001
 40
0.0
 40
0.0
 40
0.0
 40
0.0
 40
0.2499999999999999
 40
0.2499999999999999
 40
0.4999999999999999
 40
0.4999999999999999
 40
0.7499999999999999
 40
0.7499999999999999
 40
1.0
 40
1.0
 40
1.0
 40
1.0
 10
-187.0014626350037
 20
61.63139409716007
 30
0.0
 10
-190.1329995927869
 20
58.79203632541396
 30
0.0
 10
-193.2645518390522
 20
55.96003901662311
 30
0.0
 10
-199.5277397060383
 20
50.33618406630633
 30
0.0
 10
-202.6593775725351
 20
47.54539915120359
 30
0.0
 10
-208.9227732370449
 20
42.02160242615849
 30
0.0
 10
-212.0544368316981
 20
39.28867383631084
 30
0.0
 10
-218.3177138785765
 20
33.86522576714908
 30
0.0
 10
-221.4492928253529
 20
31.17366119973354
 30
0.0
 10
-224.580849923619
 20
28.4894897004038
 30
0.0
  0
SPLINE
  5
23E
330
220
100
AcDbEntity
  8
0
  6
Continuous
 62
     7
370
    25
100
AcDbSpline
210
0.0
220
0.0
230
1.0
 70
     8
 71
     3
 72
    22
 73
    18
 74
     0
 42
0.000000001
 43
0.00000001
 40
0.0
 40
0.0
 40
0.0
 40
0.0
 40
0.125
 40
0.125
 40
0.25
 40
0.25
 40
0.375
 40
0.375
 40
0.5
 40
0.5
 40
0.625
 40
0.625
 40
0.75
 40
0.75
 40
0.875
 40
0.875
 40
1.0
 40
1.0
 40
1.0
 40
1.0
 10
-382.6435605243599
 20
40.94814214695194
 30
0.0
 10
-380.3781519443177
 20
42.83192818746353
 30
0.0
 10
-378.112775660082
 20
44.71082641721387
 30
0.0
 10
-373.5820805003608
 20
48.45993434588086
 30
0.0
 10
-371.3167641914957
 20
50.32975559950388
 30
0.0
 10
-366.7861298773522
 20
54.06965485056205
 30
0.0
 10
-364.5208240565028
 20
55.93788879488567
 30
0.0
 10
-359.9899042626487
 20
59.72099398995767
 30
0.0
 10
-357.724257513638
 20
61.6404893028734
 30
0.0
 10
-353.1919281467283
 20
65.63760052383726
 30
0.0
 10
-350.9262094336114
 20
67.71437330439493
 30
0.0
 10
-346.395087374536
 20
71.92323000305032
 30
0.0
 10
-344.1296579199957
 20
74.05073527200298
 30
0.0
 10
-339.5987796722027
 20
78.3023522871077
 30
0.0
 10
-337.3333415270122
 20
80.42828853551407
 30
0.0
 10
-332.8023936177743
 20
84.67081332890652
 30
0.0
 10
-330.5368867935695
 20
86.78778558254996
 30
0.0
 10
-328.2713429859882
 20
88.89993076066017
 30
0.0
  0
SPLINE
  5
23F
330
220
100
AcDbEntity
  8
0
  6
Continuous
 62
     7
370
    25
100
AcDbSpline
210
0.0
220
0.0
230
1.0
 70
     8
 71
     3
 72
     8
 73
     4
 74
     0
 42
0.000000001
 43
0.00000001
 40
0.0
 40
0.0
 40
0.0
 40
0.0
 40
1.0
 40
1.0
 40
1.0
 40
1.0
 10
-178.3907685146185
 20
69.63019060202146
 30
0.0
 10
-181.2607349430571
 20
66.92408988742584
 30
0.0
 10
-184.1309892986035
 20
64.26127980546113
 30
0.0
 10
-187.0014626350037
 20
61.63139409716007
 30
0.0
  0
SPLINE
  5
240
330
220
100
AcDbEntity
  8
0
  6
Continuous
 62
     7
370
    25
100
AcDbSpline
210
0.0
220
0.0
230
1.0
 70
     8
 71
     3
 72
    20
 73
    16
 74
     0
 42
0.000000001
 43
0.00000001
 40
0.0
 40
0.0
 40
0.0
 40
0.0
 40
0.124999999999999
 40
0.124999999999999
 40
0.2499999999999979
 40
0.2499999999999979
 40
0.3749999999999969
 40
0.3749999999999969
 40
0.4999999999999959
 40
0.4999999999999959
 40
0.6249999999999949
 40
0.6249999999999949
 40
0.7499999999999938
 40
0.7499999999999938
 40
1.0
 40
1.0
 40
1.0
 40
1.0
 10
-179.8454209051485
 20
70.73060819079704
 30
0.0
 10
-179.691013348245
 20
70.71307091922314
 30
0.0
 10
-179.5449038365037
 20
70.69040675202304
 30
0.0
 10
-179.2686045947746
 20
70.63524968333756
 30
0.0
 10
-179.1371405725236
 20
70.60232392939928
 30
0.0
 10
-178.8983725171931
 20
70.5282357229213
 30
0.0
 10
-178.791223691504
 20
70.48732770242903
 30
0.0
 10
-178.6011756709373
 20
70.39786502512658
 30
0.0
 10
-178.5181423839947
 20
70.34893314227972
 30
0.0
 10
-178.3839147411718
 20
70.24742526017506
 30
0.0
 10
-178.3315694984837
 20
70.19442346502875
 30
0.0
 10
-178.2571134431396
 20
70.08382726837186
 30
0.0
 10
-178.235831748511
 20
70.02703148430066
 30
0.0
 10
-178.2201303592417
 20
69.85667996779758
 30
0.0
 10
-178.2740695942643
 20
69.74022639499587
 30
0.0
 10
-178.3907685146185
 20
69.63019060202147
 30
0.0
  0
SPLINE
  5
241
330
220
100
AcDbEntity
  8
0
  6
Continuous
 62
     7
370
    25
100
AcDbSpline
210
0.0
220
0.0
230
1.0
 70
     8
 71
     3
 72
    20
 73
    16
 74
     0
 42
0.000000001
 43
0.00000001
 40
0.0
 40
0.0
 40
0.0
 40
0.0
 40
0.1250000000000001
 40
0.1250000000000001
 40
0.2500000000000002
 40
0.2500000000000002
 40
0.3750000000000002
 40
0.3750000000000002
 40
0.5000000000000003
 40
0.5000000000000003
 40
0.6250000000000004
 40
0.6250000000000004
 40
0.7500000000000004
 40
0.7500000000000004
 40
1.0
 40
1.0
 40
1.0
 40
1.0
 10
-324.8346446473903
 20
89.63075798442146
 30
0.0
 10
-318.7939163950609
 20
88.74807016517228
 30
0.0
 10
-312.7534145071035
 20
87.85539690797577
 30
0.0
 10
-300.6728227813359
 20
86.05187394142493
 30
0.0
 10
-294.6327651384776
 20
85.13960140406395
 30
0.0
 10
-282.5524189447755
 20
83.32525274689958
 30
0.0
 10
-276.5121485207503
 20
82.42510146183578
 30
0.0
 10
-264.4302933780316
 20
80.71963724235968
 30
0.0
 10
-258.3886568499714
 20
79.91798373939848
 30
0.0
 10
-246.3042689220323
 20
78.39544142068159
 30
0.0
 10
-240.2623355024309
 20
77.67010153181043
 30
0.0
 10
-228.1786688018778
 20
76.2470225653415
 30
0.0
 10
-222.1369384200818
 20
75.54968595223299
 30
0.0
 10
-204.0118461775383
 20
73.47129976814202
 30
0.0
 10
-191.9286579423746
 20
72.10299574528847
 30
0.0
 10
-179.8454209051484
 20
70.73060819079701
 30
0.0
  0
SPLINE
  5
242
330
220
100
AcDbEntity
  8
0
  6
Continuous
 62
     7
370
    25
100
AcDbSpline
210
0.0
220
0.0
230
1.0
 70
     8
 71
     3
 72
    20
 73
    16
 74
     0
 42
0.000000001
 43
0.00000001
 40
0.0
 40
0.0
 40
0.0
 40
0.0
 40
0.125
 40
0.125
 40
0.25
 40
0.25
 40
0.375
 40
0.375
 40
0.5
 40
0.5
 40
0.625
 40
0.625
 40
0.75
 40
0.75
 40
1.0
 40
1.0
 40
1.0
 40
1.0
 10
-328.0570639904811
 20
89.10891893097508
 30
0.0
 10
-327.9987291206869
 20
89.16582679100314
 30
0.0
 10
-327.9262340257778
 20
89.2195863302675
 30
0.0
 10
-327.7540694423645
 20
89.32107163362998
 30
0.0
 10
-327.6530991852399
 20
89.36926242499862
 30
0.0
 10
-327.4289089427144
 20
89.45659215953454
 30
0.0
 10
-327.3064320835539
 20
89.49567317737225
 30
0.0
 10
-327.0408972047452
 20
89.56474581134047
 30
0.0
 10
-326.8967386433551
 20
89.59478510269875
 30
0.0
 10
-326.5996296306728
 20
89.64300964837555
 30
0.0
 10
-326.445409174008
 20
89.661614369307
 30
0.0
 10
-326.1253679834288
 20
89.68753646701182
 30
0.0
 10
-325.9618335300061
 20
89.69455997985258
 30
0.0
 10
-325.4738199550969
 20
89.69773930849863
 30
0.0
 10
-325.1434569264972
 20
89.67588248362351
 30
0.0
 10
-324.8346446473903
 20
89.63075798442146
 30
0.0
  0
SPLINE
  5
244
330
220
100
AcDbEntity
  8
0
  6
Continuous
 62
     7
370
    25
100
AcDbSpline
210
0.0
220
0.0
230
1.0
 70
     8
 71
     3
 72
     9
 73
     5
 74
     0
 42
0.000000001
 43
0.00000001
 40
0.0
 40
0.0
 40
0.0
 40
0.0
 40
0.982179252998543
 40
1.0
 40
1.0
 40
1.0
 40
1.0
 10
-207.6189510003072
 20
43.18685302543404
 30
0.0
 10
-208.5153156994863
 20
43.00898000421385
 30
0.0
 10
-209.4279441188328
 20
42.827879639207
 30
0.0
 10
-210.3405268595508
 20
42.64578239447206
 30
0.0
 10
-210.356789765691
 20
42.64253728554398
 30
0.0
  0
SPLINE
  5
245
330
220
100
AcDbEntity
  8
0
  6
Continuous
 62
     7
370
    25
100
AcDbSpline
210
0.0
220
0.0
230
1.0
 70
     8
 71
     3
 72
     9
 73
     5
 74
     0
 42
0.000000001
 43
0.00000001
 40
0.0
 40
0.0
 40
0.0
 40
0.0
 40
0.2827105276491306
 40
1.0
 40
1.0
 40
1.0
 40
1.0
 10
-215.9755226455561
 20
35.89735933084159
 30
0.0
 10
-215.9998033642345
 20
36.02072653903253
 30
0.0
 10
-216.0856888064225
 20
36.45709942269129
 30
0.0
 10
-216.3487771970002
 20
36.88485177732725
 30
0.0
 10
-216.5374877298594
 20
37.19167403808093
 30
0.0
  0
LWPOLYLINE
  5
246
330
220
100
AcDbEntity
  8
0
  6
Continuous
 62
     7
370
    25
100
AcDbPolyline
 90
        3
 70
   128
 43
0.0
 10
-219.4024535186
 20
34.6650117075
 10
-218.9730722338
 20
34.2505494114
 10
-218.4352207641
 20
33.6884940839
  0
LWPOLYLINE
  5
24A
330
220
100
AcDbEntity
  8
0
  6
Continuous
 62
     7
370
    25
100
AcDbPolyline
 90
        9
 70
   128
 43
0.0
 10
-192.1643293633
 20
66.2292516059
 10
-191.9093237611
 20
66.5447244648
 10
-191.8438551251
 20
66.8707186428
 10
-191.9704393781
 20
67.1947063666
 10
-192.2842119582
 20
67.5042369695
 10
-192.7731147613
 20
67.7874153641
 10
-193.4183595267
 20
68.0333591636
 10
-194.19514986
 20
68.2326168855
 10
-195.0736341443
 20
68.3775311674
  0
LWPOLYLINE
  5
24E
330
220
100
AcDbEntity
  8
0
  6
Continuous
 62
     7
370
    25
100
AcDbPolyline
 90
        9
 70
   128
 43
0.0
 10
-369.0842786712
 20
42.1937881441
 10
-369.3392842734
 20
41.8783152852
 10
-369.4047529094
 20
41.5523211072
 10
-369.2781686564
 20
41.2283333834
 10
-368.9643960763
 20
40.9188027805
 10
-368.4754932732
 20
40.6356243859
 10
-367.8302485078
 20
40.3896805865
 10
-367.0534581745
 20
40.1904228645
 10
-366.1749738902
 20
40.0455085826
  0
LWPOLYLINE
  5
251
330
220
100
AcDbEntity
  8
0
  6
Continuous
 62
     7
370
    25
100
AcDbPolyline
 90
        3
 70
   128
 43
0.0
 10
-192.1643293633
 20
58.686779273
 10
-191.9093237611
 20
59.0022521319
 10
-191.8414010969
 20
59.2760349237
  0
LINE
  5
25A
330
220
100
AcDbEntity
  8
0
  6
Continuous
 62
     7
370
    25
100
AcDbLine
 10
-369.4072069376
 20
41.6045324934
 30
0.0
 11
-369.4072069376
 21
37.9611222295
 31
0.0
  0
LINE
  5
25B
330
220
100
AcDbEntity
  8
0
  6
Continuous
 62
     7
370
    25
100
AcDbLine
 10
-191.8414010969
 20
59.2760349237
 30
0.0
 11
-191.8414010969
 21
66.8185072566
 31
0.0
  0
LINE
  5
25C
330
220
100
AcDbEntity
  8
0
  6
Continuous
 62
     7
370
    25
100
AcDbLine
 10
-192.8414010969
 20
56.3949510959
 30
0.0
 11
-192.8414010969
 21
58.0896581307
 31
0.0
  0
LINE
  5
25D
330
220
100
AcDbEntity
  8
0
  6
Continuous
 62
     7
370
    25
100
AcDbLine
 10
655.8992469031
 20
92.9021077448
 30
0.0
 11
-373.0565344934
 21
222.5383509017
 31
0.0
  0
LINE
  5
25E
330
220
100
AcDbEntity
  8
0
  6
Continuous
 62
     7
370
    25
100
AcDbLine
 10
373.0565344934
 20
-156.541717989
 30
0.0
 11
655.8992469031
 21
92.9021077448
 31
0.0
  0
LINE
  5
25F
330
220
100
AcDbEntity
  8
0
  6
Continuous
 62
     7
370
    25
100
AcDbLine
 10
-655.8992469031
 20
-26.905474832
 30
0.0
 11
373.0565344934
 21
-156.541717989
 31
0.0
  0
LINE
  5
260
330
220
100
AcDbEntity
  8
0
  6
Continuous
 62
     7
370
    25
100
AcDbLine
 10
-373.0565344934
 20
222.5383509017
 30
0.0
 11
-655.8992469031
 21
-26.905474832
 31
0.0
  0
LINE
  5
261
330
220
100
AcDbEntity
  8
0
  6
Continuous
 62
     7
370
    25
100
AcDbLine
 10
-361.4193153692
 20
213.9452326555
 30
0.0
 11
-630.1198921584
 21
-23.0264017916
 31
0.0
  0
LINE
  5
262
330
220
100
AcDbEntity
  8
0
  6
Continuous
 62
     7
370
    25
100
AcDbLine
 10
-630.1198921584
 20
-23.0264017916
 30
0.0
 11
361.4193153692
 21
-147.9485997428
 31
0.0
  0
LINE
  5
263
330
220
100
AcDbEntity
  8
0
  6
Continuous
 62
     7
370
    25
100
AcDbLine
 10
361.4193153692
 20
-147.9485997428
 30
0.0
 11
630.1198921584
 21
89.0230347043
 31
0.0
  0
LINE
  5
264
330
220
100
AcDbEntity
  8
0
  6
Continuous
 62
     7
370
    25
100
AcDbLine
 10
630.1198921584
 20
89.0230347043
 30
0.0
 11
-361.4193153692
 21
213.9452326555
 31
0.0
  0
LINE
  5
265
330
220
100
AcDbEntity
  8
0
  6
Continuous
 62
     7
370
    25
100
AcDbLine
 10
-655.8992469031
 20
-26.905474832
 30
0.0
 11
-655.8992469031
 21
-59.9037912884
 31
0.0
  0
LINE
  5
266
330
220
100
AcDbEntity
  8
0
  6
Continuous
 62
     7
370
    25
100
AcDbLine
 10
373.0565344934
 20
-156.541717989
 30
0.0
 11
373.0565344934
 21
-189.5400344454
 31
0.0
  0
LINE
  5
267
330
220
100
AcDbEntity
  8
0
  6
Continuous
 62
     7
370
    25
100
AcDbLine
 10
-655.8992469031
 20
-59.9037912884
 30
0.0
 11
373.0565344934
 21
-189.5400344454
 31
0.0
  0
LINE
  5
268
330
220
100
AcDbEntity
  8
0
  6
Continuous
 62
     7
370
    25
100
AcDbLine
 10
655.8992469031
 20
92.9021077448
 30
0.0
 11
655.8992469031
 21
59.9037912884
 31
0.0
  0
LINE
  5
269
330
220
100
AcDbEntity
  8
0
  6
Continuous
 62
     7
370
    25
100
AcDbLine
 10
373.0565344934
 20
-189.5400344454
 30
0.0
 11
655.8992469031
 21
59.9037912884
 31
0.0
  0
LINE
  5
26A
330
220
100
AcDbEntity
  8
0
  6
Continuous
 62
     7
370
    25
100
AcDbLine
 10
361.4193153692
 20
-147.9485997428
 30
0.0
 11
-224.5808499236
 21
28.4894897004
 31
0.0
  0
LINE
  5
26B
330
220
100
AcDbEntity
  8
0
  6
Continuous
 62
     7
370
    25
100
AcDbLine
 10
-630.1198921584
 20
-23.0264017916
 30
0.0
 11
-382.6435605244
 21
40.948142147
 31
0.0
  0
LINE
  5
26C
330
220
100
AcDbEntity
  8
0
  6
Continuous
 62
     7
370
    25
100
AcDbLine
 10
-382.8578395199
 20
40.7791776951
 30
0.0
 11
-382.6435605244
 21
40.948142147
 31
0.0
  0
LINE
  5
26D
330
220
100
AcDbEntity
  8
0
  6
Continuous
 62
     7
370
    25
100
AcDbLine
 10
630.1198921584
 20
89.0230347043
 30
0.0
 11
-187.001462635
 21
61.6313940972
 31
0.0
  0
LINE
  5
26E
330
220
100
AcDbEntity
  8
0
  6
Continuous
 62
     7
370
    25
100
AcDbLine
 10
-328.271342986
 20
88.8999307607
 30
0.0
 11
-361.4193153692
 21
213.9452326555
 31
0.0
  0
LINE
  5
26F
330
220
100
AcDbEntity
  8
0
  6
Continuous
 62
     7
370
    25
100
AcDbLine
 10
-328.271342986
 20
88.8999307607
 30
0.0
 11
-328.0570639905
 21
89.108918931
 31
0.0
  0
LINE
  5
270
330
220
100
AcDbEntity
  8
0
  6
Continuous
 62
     7
370
    25
100
AcDbLine
 10
-323.1223379046
 20
82.7284098259
 30
0.0
 11
-369.0842786712
 21
42.1937881441
 31
0.0
  0
LINE
  5
271
330
220
100
AcDbEntity
  8
0
  6
Continuous
 62
     7
370
    25
100
AcDbLine
 10
-195.0736341443
 20
68.3775311674
 30
0.0
 11
-316.6774992185
 21
83.698178086
 31
0.0
  0
LINE
  5
272
330
220
100
AcDbEntity
  8
0
  6
Continuous
 62
     7
370
    25
100
AcDbLine
 10
-238.1262701298
 20
25.6946299242
 30
0.0
 11
-192.1643293633
 21
66.2292516059
 31
0.0
  0
LINE
  5
273
330
220
100
AcDbEntity
  8
0
  6
Continuous
 62
     7
370
    25
100
AcDbLine
 10
-366.1749738902
 20
40.0455085826
 30
0.0
 11
-244.571108816
 21
24.724861664
 31
0.0
  0
LINE
  5
274
330
220
100
AcDbEntity
  8
0
  6
Continuous
 62
     7
370
    25
100
AcDbLine
 10
-192.1643293633
 20
66.2292516059
 30
0.0
 11
-192.1643293633
 21
58.686779273
 31
0.0
  0
LINE
  5
275
330
220
100
AcDbEntity
  8
0
  6
Continuous
 62
     7
370
    25
100
AcDbLine
 10
-235.1124598899
 20
20.8100883892
 30
0.0
 11
-192.1643293633
 21
58.686779273
 31
0.0
  0
LINE
  5
276
330
220
100
AcDbEntity
  8
0
  6
Continuous
 62
    60
370
    25
100
AcDbLine
 10
-382.8578395199
 20
40.2638049916
 30
0.0
 11
-382.8578395199
 21
40.7791776951
 31
0.0
  0
LINE
  5
277
330
220
100
AcDbEntity
  8
0
  6
Continuous
 62
    60
370
    25
100
AcDbLine
 10
-328.0570639905
 20
78.3763904886
 30
0.0
 11
-328.0570639905
 21
89.108918931
 31
0.0
  0
LINE
  5
278
330
220
100
AcDbEntity
  8
0
  6
Continuous
 62
    60
370
    25
100
AcDbLine
 10
-179.8454209051
 20
68.2789094748
 30
0.0
 11
-179.8454209051
 21
70.7306081908
 31
0.0
  0
LINE
  5
279
330
220
100
AcDbEntity
  8
0
  6
Continuous
 62
    60
370
    25
100
AcDbLine
 10
-324.8346446474
 20
81.2182972226
 30
0.0
 11
-324.8346446474
 21
89.6307579844
 31
0.0
  0
LINE
  5
27A
330
220
100
AcDbEntity
  8
0
  6
Continuous
 62
    60
370
    25
100
AcDbLine
 10
-244.571108816
 20
24.724861664
 30
0.0
 11
-244.571108816
 21
21.7703612522
 31
0.0
  0
LINE
  5
27B
330
220
100
AcDbEntity
  8
0
  6
Continuous
 62
    60
370
    25
100
AcDbLine
 10
-238.1262701298
 20
25.6946299242
 30
0.0
 11
-238.1262701298
 21
21.0367528936
 31
0.0
  0
LINE
  5
27C
330
220
100
AcDbEntity
  8
0
  6
Continuous
 62
    60
370
    25
100
AcDbLine
 10
-366.1749738902
 20
40.0455085826
 30
0.0
 11
-366.1749738902
 21
37.481279087
 31
0.0
  0
LINE
  5
27D
330
220
100
AcDbEntity
  8
0
  6
Continuous
 62
    60
370
    25
100
AcDbLine
 10
-195.1956497855
 20
56.0134059458
 30
0.0
 11
-195.1956497855
 21
54.283988943
 31
0.0
  0
ARC
  5
27E
330
220
100
AcDbEntity
  8
0
  6
Continuous
 62
     7
370
    25
100
AcDbCircle
 10
-318.5177111606
 20
74.0274873085
 30
0.0
 40
9.844218613218299
100
AcDbArc
 50
79.2261330329
 51
117.8883001309
  0
ARC
  5
27F
330
220
100
AcDbEntity
  8
0
  6
Continuous
 62
     7
370
    25
100
AcDbCircle
 10
-242.7308968739
 20
34.3955524415
 30
0.0
 40
9.844218613218603
100
AcDbArc
 50
259.2261330329
 51
297.8883001309
  0
VIEWPORT
  5
290
330
220
100
AcDbEntity
  8
0
100
AcDbViewport
 10
0.0
 20
0.0
 30
0.0
 40
205.6
 41
156.0
 68
     1
 69
     1
 12
0.0
 22
0.0
 13
0.0
 23
0.0
 14
10.0
 24
10.0
 15
10.0
 25
10.0
 16
0.0
 26
0.0
 36
1.0
 17
0.0
 27
0.0
 37
0.0
 42
50.0
 43
0.0
 44
0.0
 45
851.3229571984
 50
0.0
 51
0.0
 72
   100
 90
   557152
  1

281
     0
 71
     1
 74
     0
110
0.0
120
0.0
130
0.0
111
1.0
121
0.0
131
0.0
112
0.0
122
1.0
132
0.0
 79
     0
146
0.0
  0
ENDBLK
  5
223
330
220
100
AcDbEntity
  8
0
100
AcDbBlockEnd
  0
ENDSEC
  0
SECTION
  2
ENTITIES
  0
SPLINE
  5
73
330
1F
100
AcDbEntity
  8
0
  6
Continuous
 62
     7
370
    25
100
AcDbSpline
210
0.0
220
0.0
230
1.0
 70
    24
 71
     3
 72
     8
 73
     4
 74
     0
 42
0.000000001
 43
0.00000001
 40
0.0
 40
0.0
 40
0.0
 40
0.0
 40
1.0
 40
1.0
 40
1.0
 40
1.0
 10
-220.0
 20
-53.14527918142284
 30
0.0
 10
-220.0
 20
-61.26420382882026
 30
0.0
 10
-220.0
 20
-69.38250910483126
 30
0.0
 10
-220.0
 20
-77.5000000000001
 30
0.0
  0
SPLINE
  5
78
330
1F
100
AcDbEntity
  8
0
  6
Continuous
 62
     7
370
    25
100
AcDbSpline
210
0.0
220
0.0
230
1.0
 70
     8
 71
     3
 72
    20
 73
    16
 74
     0
 42
0.000000001
 43
0.00000001
 40
0.0
 40
0.0
 40
0.0
 40
0.0
 40
0.1249999999999979
 40
0.1249999999999979
 40
0.2499999999999959
 40
0.2499999999999959
 40
0.3749999999999938
 40
0.3749999999999938
 40
0.4999999999999918
 40
0.4999999999999918
 40
0.6249999999999898
 40
0.6249999999999898
 40
0.7499999999999877
 40
0.7499999999999877
 40
1.0
 40
1.0
 40
1.0
 40
1.0
 10
-377.5000000000002
 20
-80.0000000000001
 30
0.0
 10
-377.6650654163688
 20
-80.0000000000001
 30
0.0
 10
-377.8273851209156
 20
-79.98381247952054
 30
0.0
 10
-378.1467554827562
 20
-79.92037451571933
 30
0.0
 10
-378.3054614188065
 20
-79.87235367980044
 30
0.0
 10
-378.6081179174216
 20
-79.74697680458387
 30
0.0
 10
-378.751672990696
 20
-79.67025017867218
 30
0.0
 10
-379.0233747478907
 20
-79.48896970594159
 30
0.0
 10
-379.1520208968237
 20
-79.38345472595124
 30
0.0
 10
-379.3826208057698
 20
-79.15297115822776
 30
0.0
 10
-379.4861070984627
 20
-79.02721034234918
 30
0.0
 10
-379.6688926408218
 20
-78.75415212352065
 30
0.0
 10
-379.7465728876609
 20
-78.60877583138316
 30
0.0
 10
-379.933719030267
 20
-78.15795593852849
 30
0.0
 10
-380.0000000000002
 20
-77.82999008016992
 30
0.0
 10
-380.0000000000001
 20
-77.5000000000001
 30
0.0
  0
SPLINE
  5
79
330
1F
100
AcDbEntity
  8
0
  6
Continuous
 62
     7
370
    25
100
AcDbSpline
210
0.0
220
0.0
230
1.0
 70
    24
 71
     3
 72
    20
 73
    16
 74
     0
 42
0.000000001
 43
0.00000001
 40
0.0
 40
0.0
 40
0.0
 40
0.0
 40
0.25
 40
0.25
 40
0.375
 40
0.375
 40
0.5
 40
0.5
 40
0.625
 40
0.625
 40
0.75
 40
0.75
 40
0.875
 40
0.875
 40
1.0
 40
1.0
 40
1.0
 40
1.0
 10
-222.5
 20
-80.00000000000007
 30
0.0
 10
-235.4172593232981
 20
-80.00000000000007
 30
0.0
 10
-248.3344665301953
 20
-80.00000000000009
 30
0.0
 10
-267.7106084511287
 20
-80.00000000000011
 30
0.0
 10
-274.169357664385
 20
-80.00000000000011
 30
0.0
 10
-287.0870765140573
 20
-80.0000000000001
 30
0.0
 10
-293.546044136575
 20
-80.00000000000006
 30
0.0
 10
-306.464532576381
 20
-80.00000000000004
 30
0.0
 10
-312.9234688923591
 20
-80.00000000000007
 30
0.0
 10
-325.8405511880482
 20
-80.00000000000007
 30
0.0
 10
-332.2979918694585
 20
-80.00000000000007
 30
0.0
 10
-345.2125473804501
 20
-80.00000000000007
 30
0.0
 10
-351.6697056162141
 20
-80.00000000000007
 30
0.0
 10
-364.5845189265833
 20
-80.00000000000007
 30
0.0
 10
-371.0421410780691
 20
-80.00000000000006
 30
0.0
 10
-377.5000000000002
 20
-80.00000000000006
 30
0.0
  0
SPLINE
  5
7A
330
1F
100
AcDbEntity
  8
0
  6
Continuous
 62
     7
370
    25
100
AcDbSpline
210
0.0
220
0.0
230
1.0
 70
     8
 71
     3
 72
    20
 73
    16
 74
     0
 42
0.000000001
 43
0.00000001
 40
0.0
 40
0.0
 40
0.0
 40
0.0
 40
0.125
 40
0.125
 40
0.25
 40
0.25
 40
0.375
 40
0.375
 40
0.5
 40
0.5
 40
0.625
 40
0.625
 40
0.75
 40
0.75
 40
1.0
 40
1.0
 40
1.0
 40
1.0
 10
-220.0
 20
-77.5000000000001
 30
0.0
 10
-220.0
 20
-77.66503764108083
 30
0.0
 10
-220.0161820933527
 20
-77.82732457498521
 30
0.0
 10
-220.0795921872295
 20
-78.1466210564551
 30
0.0
 10
-220.1275873822608
 20
-78.30528131989978
 30
0.0
 10
-220.2529131172907
 20
-78.60788996499808
 30
0.0
 10
-220.3296083918399
 20
-78.75142280815174
 30
0.0
 10
-220.5108116886965
 20
-79.0230852371774
 30
0.0
 10
-220.6162952536505
 20
-79.15173515785307
 30
0.0
 10
-220.8467339656707
 20
-79.38236128913677
 30
0.0
 10
-220.9724716595164
 20
-79.48586156212015
 30
0.0
 10
-221.245480178322
 20
-79.66867908919325
 30
0.0
 10
-221.3909030930212
 20
-79.74641672853029
 30
0.0
 10
-221.8417879609855
 20
-79.93365839444625
 30
0.0
 10
-222.1698612297015
 20
-80.00000000000006
 30
0.0
 10
-222.5
 20
-80.00000000000007
 30
0.0
  0
SPLINE
  5
7C
330
1F
100
AcDbEntity
  8
0
  6
Continuous
 62
     7
370
    25
100
AcDbSpline
210
0.0
220
0.0
230
1.0
 70
     8
 71
     3
 72
    14
 73
    10
 74
     0
 42
0.000000001
 43
0.00000001
 40
0.0
 40
0.0
 40
0.0
 40
0.0
 40
0.2499999999999999
 40
0.2499999999999999
 40
0.4999999999999999
 40
0.4999999999999999
 40
0.7499999999999999
 40
0.7499999999999999
 40
1.0
 40
1.0
 40
1.0
 40
1.0
 10
-220.0000000000001
 20
53.14527918142279
 30
0.0
 10
-220.0000000000001
 20
44.28795510585181
 30
0.0
 10
-220.0
 20
35.43058778792298
 30
0.0
 10
-220.0
 20
17.71561733349428
 30
0.0
 10
-220.0000000004937
 20
8.858007846286496
 30
0.0
 10
-220.0000000004937
 20
-8.857550348294435
 30
0.0
 10
-220.0
 20
-17.71523260832994
 30
0.0
 10
-220.0
 20
-35.43045530158504
 30
0.0
 10
-220.0000000000001
 20
-44.28789813996342
 30
0.0
 10
-220.0
 20
-53.14527918142282
 30
0.0
  0
SPLINE
  5
7F
330
1F
100
AcDbEntity
  8
0
  6
Continuous
 62
     7
370
    25
100
AcDbSpline
210
0.0
220
0.0
230
1.0
 70
    24
 71
     3
 72
     8
 73
     4
 74
     0
 42
0.000000001
 43
0.00000001
 40
0.0
 40
0.0
 40
0.0
 40
0.0
 40
1.0
 40
1.0
 40
1.0
 40
1.0
 10
-220.0000000000001
 20
77.5
 30
0.0
 10
-220.0000000000001
 20
69.38250910483119
 30
0.0
 10
-220.0
 20
61.2642038288202
 30
0.0
 10
-220.0
 20
53.1452791814228
 30
0.0
  0
SPLINE
  5
80
330
1F
100
AcDbEntity
  8
0
  6
Continuous
 62
     7
370
    25
100
AcDbSpline
210
0.0
220
0.0
230
1.0
 70
     8
 71
     3
 72
    20
 73
    16
 74
     0
 42
0.000000001
 43
0.00000001
 40
0.0
 40
0.0
 40
0.0
 40
0.0
 40
0.124999999999999
 40
0.124999999999999
 40
0.2499999999999979
 40
0.2499999999999979
 40
0.3749999999999969
 40
0.3749999999999969
 40
0.4999999999999959
 40
0.4999999999999959
 40
0.6249999999999949
 40
0.6249999999999949
 40
0.7499999999999938
 40
0.7499999999999938
 40
1.0
 40
1.0
 40
1.0
 40
1.0
 10
-222.5000000000001
 20
80.00000000000001
 30
0.0
 10
-222.3349313783307
 20
80.00000000000001
 30
0.0
 10
-222.1726152103207
 20
79.98381189185501
 30
0.0
 10
-221.8532634936151
 20
79.92037893850171
 30
0.0
 10
-221.6945750532303
 20
79.87236519574105
 30
0.0
 10
-221.3919392102882
 20
79.7470040616665
 30
0.0
 10
-221.2483966503825
 20
79.67028879053622
 30
0.0
 10
-220.9767219495724
 20
79.48904207099453
 30
0.0
 10
-220.8480807638876
 20
79.3835430863223
 30
0.0
 10
-220.6174807482474
 20
79.15308589838864
 30
0.0
 10
-220.5139939353622
 20
79.02734023175255
 30
0.0
 10
-220.331204403588
 20
78.75431811487034
 30
0.0
 10
-220.2534994410392
 20
78.60892383063863
 30
0.0
 10
-220.0663139919169
 20
78.15808791839696
 30
0.0
 10
-220.0000000000001
 20
77.83007439183426
 30
0.0
 10
-220.0000000000001
 20
77.5
 30
0.0
  0
SPLINE
  5
81
330
1F
100
AcDbEntity
  8
0
  6
Continuous
 62
     7
370
    25
100
AcDbSpline
210
0.0
220
0.0
230
1.0
 70
    24
 71
     3
 72
    20
 73
    16
 74
     0
 42
0.000000001
 43
0.00000001
 40
0.0
 40
0.0
 40
0.0
 40
0.0
 40
0.1250000000000001
 40
0.1250000000000001
 40
0.2500000000000002
 40
0.2500000000000002
 40
0.3750000000000002
 40
0.3750000000000002
 40
0.5000000000000003
 40
0.5000000000000003
 40
0.6250000000000004
 40
0.6250000000000004
 40
0.7500000000000004
 40
0.7500000000000004
 40
1.0
 40
1.0
 40
1.0
 40
1.0
 10
-377.5000000000001
 20
79.99999999999996
 30
0.0
 10
-371.0421898611196
 20
79.99999999999996
 30
0.0
 10
-364.5846217159319
 20
80.0
 30
0.0
 10
-351.6699259256927
 20
79.99999999999999
 30
0.0
 10
-345.2128326984925
 20
79.99999999999997
 30
0.0
 10
-332.2983993930723
 20
79.99999999999996
 30
0.0
 10
-325.8410786932365
 20
79.99999999999994
 30
0.0
 10
-312.9250322534638
 20
79.99999999999993
 30
0.0
 10
-306.466251126984
 20
79.99999999999994
 30
0.0
 10
-293.5474970259174
 20
79.99999999999997
 30
0.0
 10
-287.0883985090298
 20
80.00000000000001
 30
0.0
 10
-274.1704154324706
 20
80.0
 30
0.0
 10
-267.7115339721269
 20
80.00000000000001
 30
0.0
 10
-248.3349953226843
 20
80.0
 30
0.0
 10
-235.4175237471418
 20
79.99999999999996
 30
0.0
 10
-222.5
 20
80.0
 30
0.0
  0
SPLINE
  5
82
330
1F
100
AcDbEntity
  8
0
  6
Continuous
 62
     7
370
    25
100
AcDbSpline
210
0.0
220
0.0
230
1.0
 70
     8
 71
     3
 72
    20
 73
    16
 74
     0
 42
0.000000001
 43
0.00000001
 40
0.0
 40
0.0
 40
0.0
 40
0.0
 40
0.125
 40
0.125
 40
0.25
 40
0.25
 40
0.375
 40
0.375
 40
0.5
 40
0.5
 40
0.625
 40
0.625
 40
0.75
 40
0.75
 40
1.0
 40
1.0
 40
1.0
 40
1.0
 10
-380.0000000000001
 20
77.49999999999997
 30
0.0
 10
-380.0000000000002
 20
77.66499592808252
 30
0.0
 10
-379.9838259634007
 20
77.82725054243215
 30
0.0
 10
-379.9204387500193
 20
78.14649871723782
 30
0.0
 10
-379.8724588645873
 20
78.3051428865276
 30
0.0
 10
-379.7471602261776
 20
78.60773961280184
 30
0.0
 10
-379.6704776866661
 20
78.75127355398301
 30
0.0
 10
-379.4892926342152
 20
79.02294901775115
 30
0.0
 10
-379.3838116259813
 20
79.15161448724419
 30
0.0
 10
-379.153369036571
 20
79.38227189469681
 30
0.0
 10
-379.0276258256325
 20
79.48578795233304
 30
0.0
 10
-378.7545972921181
 20
79.6686355363178
 30
0.0
 10
-378.6091590019669
 20
79.74638727336814
 30
0.0
 10
-378.1582320135038
 20
79.93365743496842
 30
0.0
 10
-377.8301342129169
 20
79.99999999999996
 30
0.0
 10
-377.5000000000001
 20
79.99999999999996
 30
0.0
  0
SPLINE
  5
8A
330
1F
100
AcDbEntity
  8
0
  6
Continuous
 62
     7
370
    25
100
AcDbSpline
210
0.0
220
0.0
230
1.0
 70
    24
 71
     3
 72
    22
 73
    18
 74
     0
 42
0.000000001
 43
0.00000001
 40
0.0
 40
0.0
 40
0.0
 40
0.0
 40
0.125
 40
0.125
 40
0.25
 40
0.25
 40
0.375
 40
0.375
 40
0.5
 40
0.5
 40
0.625
 40
0.625
 40
0.75
 40
0.75
 40
0.875
 40
0.875
 40
1.0
 40
1.0
 40
1.0
 40
1.0
 10
-380.0000000000001
 20
-76.89392747670578
 30
0.0
 10
-380.0000000000001
 20
-70.48638439881164
 30
0.0
 10
-380.0000000000003
 20
-64.07893266725226
 30
0.0
 10
-380.0000000000001
 20
-51.26419158060116
 30
0.0
 10
-380.0
 20
-44.85690948500774
 30
0.0
 10
-379.9999999999999
 20
-32.04234049563878
 30
0.0
 10
-380.0000000000003
 20
-25.63508806463216
 30
0.0
 10
-380.0000000000003
 20
-12.81971161670589
 30
0.0
 10
-380.0000000000002
 20
-6.411494895241199
 30
0.0
 10
-380.0000000000001
 20
6.40786842735068
 30
0.0
 10
-380.0000000000003
 20
12.81628869404614
 30
0.0
 10
-380.0000000000003
 20
25.63223723441086
 30
0.0
 10
-380.0000000000001
 20
32.03983935430114
 30
0.0
 10
-380.0000000000001
 20
44.85509829222121
 30
0.0
 10
-380.0000000000001
 20
51.26272499298247
 30
0.0
 10
-380.0000000000001
 20
64.07818096322305
 30
0.0
 10
-380.0000000000003
 20
70.48600191757218
 30
0.0
 10
-380.0000000000002
 20
76.89392747670585
 30
0.0
  0
LINE
  5
97
330
1F
100
AcDbEntity
  8
0
  6
Continuous
 62
     7
370
    25
100
AcDbLine
 10
530.0
 20
-380.0
 30
0.0
 11
-220.0
 21
-53.1452791814
 31
0.0
  0
LINE
  5
98
330
1F
100
AcDbEntity
  8
0
  6
Continuous
 62
     7
370
    25
100
AcDbLine
 10
-530.0
 20
-380.0
 30
0.0
 11
530.0
 21
-380.0
 31
0.0
  0
LINE
  5
99
330
1F
100
AcDbEntity
  8
0
  6
Continuous
 62
     7
370
    25
100
AcDbLine
 10
-530.0
 20
-380.0
 30
0.0
 11
-380.0
 21
-76.8939274767
 31
0.0
  0
LINE
  5
9A
330
1F
100
AcDbEntity
  8
0
  6
Continuous
 62
     7
370
    25
100
AcDbLine
 10
-380.0
 20
-77.5
 30
0.0
 11
-380.0
 21
-76.8939274767
 31
0.0
  0
LINE
  5
9B
330
1F
100
AcDbEntity
  8
0
  6
Continuous
 62
     7
370
    25
100
AcDbLine
 10
530.0
 20
-380.0
 30
0.0
 11
530.0
 21
380.0
 31
0.0
  0
LINE
  5
9C
330
1F
100
AcDbEntity
  8
0
  6
Continuous
 62
     7
370
    25
100
AcDbLine
 10
530.0
 20
380.0
 30
0.0
 11
-220.0
 21
53.1452791814
 31
0.0
  0
LINE
  5
9D
330
1F
100
AcDbEntity
  8
0
  6
Continuous
 62
     7
370
    25
100
AcDbLine
 10
530.0
 20
380.0
 30
0.0
 11
-530.0
 21
380.0
 31
0.0
  0
LINE
  5
9E
330
1F
100
AcDbEntity
  8
0
  6
Continuous
 62
     7
370
    25
100
AcDbLine
 10
-380.0
 20
76.8939274767
 30
0.0
 11
-380.0
 21
77.5
 31
0.0
  0
LINE
  5
9F
330
1F
100
AcDbEntity
  8
0
  6
Continuous
 62
     7
370
    25
100
AcDbLine
 10
-380.0
 20
76.8939274767
 30
0.0
 11
-530.0
 21
380.0
 31
0.0
  0
LINE
  5
A0
330
1F
100
AcDbEntity
  8
0
  6
Continuous
 62
     7
370
    25
100
AcDbLine
 10
550.0
 20
400.0
 30
0.0
 11
-550.0
 21
400.0
 31
0.0
  0
LINE
  5
A1
330
1F
100
AcDbEntity
  8
0
  6
Continuous
 62
     7
370
    25
100
AcDbLine
 10
550.0
 20
-400.0
 30
0.0
 11
550.0
 21
400.0
 31
0.0
  0
LINE
  5
A2
330
1F
100
AcDbEntity
  8
0
  6
Continuous
 62
     7
370
    25
100
AcDbLine
 10
-550.0
 20
-400.0
 30
0.0
 11
550.0
 21
-400.0
 31
0.0
  0
LINE
  5
A3
330
1F
100
AcDbEntity
  8
0
  6
Continuous
 62
     7
370
    25
100
AcDbLine
 10
-550.0
 20
400.0
 30
0.0
 11
-550.0
 21
-400.0
 31
0.0
  0
LINE
  5
A4
330
1F
100
AcDbEntity
  8
0
  6
Continuous
 62
     7
370
    25
100
AcDbLine
 10
-530.0
 20
380.0
 30
0.0
 11
-530.0
 21
-380.0
 31
0.0
  0
LINE
  5
A5
330
1F
100
AcDbEntity
  8
0
  6
Continuous
 62
     7
370
    25
100
AcDbLine
 10
-220.7543942911
 20
79.2456057089
 30
0.0
 11
-231.4644660941
 21
68.5355339059
 31
0.0
  0
LINE
  5
A6
330
1F
100
AcDbEntity
  8
0
  6
Continuous
 62
     7
370
    25
100
AcDbLine
 10
-220.7543805683
 20
-79.2456194317
 30
0.0
 11
-231.4644660941
 21
-68.5355339059
 31
0.0
  0
LINE
  5
A7
330
1F
100
AcDbEntity
  8
0
  6
Continuous
 62
     7
370
    25
100
AcDbLine
 10
-379.2456255216
 20
79.2456255216
 30
0.0
 11
-368.5355339059
 21
68.5355339059
 31
0.0
  0
LINE
  5
A8
330
1F
100
AcDbEntity
  8
0
  6
Continuous
 62
     7
370
    25
100
AcDbLine
 10
-368.5355339059
 20
-68.5355339059
 30
0.0
 11
-379.2455962521
 21
-79.2455962521
 31
0.0
  0
LINE
  5
A9
330
1F
100
AcDbEntity
  8
0
  6
Continuous
 62
     7
370
    25
100
AcDbLine
 10
-370.0
 20
65.0
 30
0.0
 11
-370.0
 21
-65.0
 31
0.0
  0
LINE
  5
AA
330
1F
100
AcDbEntity
  8
0
  6
Continuous
 62
     7
370
    25
100
AcDbLine
 10
-235.0
 20
70.0
 30
0.0
 11
-365.0
 21
70.0
 31
0.0
  0
LINE
  5
AB
330
1F
100
AcDbEntity
  8
0
  6
Continuous
 62
     7
370
    25
100
AcDbLine
 10
-230.0
 20
-65.0
 30
0.0
 11
-230.0
 21
65.0
 31
0.0
  0
LINE
  5
AC
330
1F
100
AcDbEntity
  8
0
  6
Continuous
 62
     7
370
    25
100
AcDbLine
 10
-365.0
 20
-70.0
 30
0.0
 11
-235.0
 21
-70.0
 31
0.0
  0
ARC
  5
AD
330
1F
100
AcDbEntity
  8
0
  6
Continuous
 62
     7
370
    25
100
AcDbCircle
 10
-365.0
 20
65.0
 30
0.0
 40
5.0
100
AcDbArc
 50
90.0
 51
180.0
  0
ARC
  5
AE
330
1F
100
AcDbEntity
  8
0
  6
Continuous
 62
     7
370
    25
100
AcDbCircle
 10
-235.0
 20
-65.0
 30
0.0
 40
5.0
100
AcDbArc
 50
270.0
 51
0.0
  0
ARC
  5
AF
330
1F
100
AcDbEntity
  8
0
  6
Continuous
 62
     7
370
    25
100
AcDbCircle
 10
-365.0
 20
-65.0
 30
0.0
 40
5.0
100
AcDbArc
 50
180.0
 51
270.0
  0
ARC
  5
B0
330
1F
100
AcDbEntity
  8
0
  6
Continuous
 62
     7
370
    25
100
AcDbCircle
 10
-235.0
 20
65.0
 30
0.0
 40
5.000000000000057
100
AcDbArc
 50
0.0
 51
90.0
  0
LINE
  5
B8
330
1B
100
AcDbEntity
 67
     1
  8
0
  6
Continuous
 62
     7
370
    25
100
AcDbLine
 10
-550.0
 20
35.0
 30
0.0
 11
550.0
 21
35.0
 31
0.0
  0
LINE
  5
B9
330
1B
100
AcDbEntity
 67
     1
  8
0
  6
Continuous
 62
     7
370
    25
100
AcDbLine
 10
550.0
 20
35.0
 30
0.0
 11
550.0
 21
0.0
 31
0.0
  0
LINE
  5
BA
330
1B
100
AcDbEntity
 67
     1
  8
0
  6
Continuous
 62
     7
370
    25
100
AcDbLine
 10
-550.0
 20
0.0
 30
0.0
 11
550.0
 21
0.0
 31
0.0
  0
LINE
  5
BB
330
1B
100
AcDbEntity
 67
     1
  8
0
  6
Continuous
 62
     7
370
    25
100
AcDbLine
 10
-550.0
 20
35.0
 30
0.0
 11
-550.0
 21
0.0
 31
0.0
  0
LINE
  5
BC
330
1B
100
AcDbEntity
 67
     1
  8
0
  6
Continuous
 62
     7
370
    25
100
AcDbLine
 10
-170.0
 20
-26.0
 30
0.0
 11
-430.0
 21
-26.0
 31
0.0
  0
LINE
  5
BD
330
1B
100
AcDbEntity
 67
     1
  8
0
  6
Continuous
 62
     7
370
    25
100
AcDbLine
 10
-170.0
 20
-26.0
 30
0.0
 11
-170.0
 21
0.0
 31
0.0
  0
LINE
  5
BE
330
1B
100
AcDbEntity
 67
     1
  8
0
  6
Continuous
 62
     7
370
    25
100
AcDbLine
 10
-430.0
 20
-26.0
 30
0.0
 11
-430.0
 21
0.0
 31
0.0
  0
VIEWPORT
  5
280
330
1B
100
AcDbEntity
 67
     1
  8
0
100
AcDbViewport
 10
0.0
 20
0.0
 30
0.0
 40
205.6
 41
156.0
 68
     1
 69
     1
 12
0.0
 22
0.0
 13
0.0
 23
0.0
 14
10.0
 24
10.0
 15
10.0
 25
10.0
 16
0.0
 26
0.0
 36
1.0
 17
0.0
 27
0.0
 37
0.0
 42
50.0
 43
0.0
 44
0.0
 45
851.3229571984
 50
0.0
 51
0.0
 72
   100
 90
   557152
  1

281
     0
 71
     1
 74
     0
110
0.0
120
0.0
130
0.0
111
1.0
121
0.0
131
0.0
112
0.0
122
1.0
132
0.0
 79
     0
146
0.0
  0
ENDSEC
  0
SECTION
  2
OBJECTS
  0
DICTIONARY
  5
C
330
0
100
AcDbDictionary
281
     1
  3
ACAD_GROUP
350
D
  3
ACAD_LAYOUT
350
1A
  3
ACAD_MLINESTYLE
350
17
  3
ACAD_PLOTSETTINGS
350
19
  3
ACAD_PLOTSTYLENAME
350
E
  3
ACAD_SCALELIST
350
47
  0
DICTIONARY
  5
D
102
{ACAD_REACTORS
330
C
102
}
330
C
100
AcDbDictionary
281
     1
  0
DICTIONARY
  5
1A
102
{ACAD_REACTORS
330
C
102
}
330
C
100
AcDbDictionary
281
     1
  3
_Dimetrisch
350
221
  3
_Isometrisch
350
131
  3
_Links
350
F2
  3
_Normal auf
350
CE
  3
_Rechts
350
26
  3
_Rückseite
350
E0
  3
_Trimetrisch
350
1B3
  3
_Unten
350
104
  3
_Vorderseite
350
1E
  3
Model
350
22
  0
DICTIONARY
  5
17
102
{ACAD_REACTORS
330
C
102
}
330
C
100
AcDbDictionary
281
     1
  3
Standard
350
18
  0
DICTIONARY
  5
19
102
{ACAD_REACTORS
330
C
102
}
330
C
100
AcDbDictionary
281
     1
  0
ACDBDICTIONARYWDFLT
  5
E
102
{ACAD_REACTORS
330
C
102
}
330
C
100
AcDbDictionary
281
     1
  3
Normal
350
F
100
AcDbDictionaryWithDefault
340
F
  0
DICTIONARY
  5
47
102
{ACAD_REACTORS
330
C
102
}
330
C
100
AcDbDictionary
281
     1
  3
A0
350
48
  3
A1
350
49
  3
A2
350
4A
  3
A3
350
4B
  3
A4
350
4C
  3
A5
350
4D
  3
A6
350
4E
  3
A7
350
4F
  3
A8
350
50
  3
A9
350
51
  3
B0
350
52
  3
B1
350
53
  3
B2
350
54
  3
B3
350
55
  3
B4
350
56
  3
B5
350
57
  3
B6
350
58
  3
B7
350
59
  3
B8
350
5A
  3
B9
350
5B
  3
C0
350
5C
  3
C1
350
5D
  3
C2
350
5E
  3
C3
350
5F
  3
C4
350
60
  3
C5
350
61
  3
C6
350
62
  3
C7
350
63
  3
C8
350
64
  3
C9
350
65
  3
D0
350
66
  3
D1
350
67
  3
D2
350
68
  0
LAYOUT
  5
221
102
{ACAD_REACTORS
330
1A
102
}
330
1A
100
AcDbPlotSettings
  1

  2
none_device
  4
ISO_A4_(210.00_x_297.00_MM)
  6

 40
7.5
 41
20.0
 42
7.5
 43
20.0
 44
210.0
 45
297.0
 46
0.0
 47
0.0
 48
0.0
 49
0.0
140
0.0
141
0.0
142
1.0
143
4.280155642
 70
   688
 72
     1
 73
     1
 74
     1
  7

 75
     0
147
0.2336363636
148
550.0
149
26.0
100
AcDbLayout
  1
_Dimetrisch
 70
     1
 71
     9
 10
0.0
 20
0.0
 11
0.0
 21
0.0
 12
0.0
 22
0.0
 32
0.0
 14
0.0
 24
0.0
 34
0.0
 15
0.0
 25
0.0
 35
0.0
146
0.0
 13
0.0
 23
0.0
 33
0.0
 16
1.0
 26
0.0
 36
0.0
 17
0.0
 27
1.0
 37
0.0
 76
     0
330
220
331
290
  0
LAYOUT
  5
131
102
{ACAD_REACTORS
330
1A
102
}
330
1A
100
AcDbPlotSettings
  1

  2
none_device
  4
ISO_A4_(210.00_x_297.00_MM)
  6

 40
7.5
 41
20.0
 42
7.5
 43
20.0
 44
210.0
 45
297.0
 46
0.0
 47
0.0
 48
0.0
 49
0.0
140
0.0
141
0.0
142
1.0
143
4.280155642
 70
   688
 72
     1
 73
     1
 74
     1
  7

 75
     0
147
0.2336363636
148
550.0
149
26.0
100
AcDbLayout
  1
_Isometrisch
 70
     1
 71
     7
 10
0.0
 20
0.0
 11
0.0
 21
0.0
 12
0.0
 22
0.0
 32
0.0
 14
0.0
 24
0.0
 34
0.0
 15
0.0
 25
0.0
 35
0.0
146
0.0
 13
0.0
 23
0.0
 33
0.0
 16
1.0
 26
0.0
 36
0.0
 17
0.0
 27
1.0
 37
0.0
 76
     0
330
130
331
28C
  0
LAYOUT
  5
F2
102
{ACAD_REACTORS
330
1A
102
}
330
1A
100
AcDbPlotSettings
  1

  2
none_device
  4
ISO_A4_(210.00_x_297.00_MM)
  6

 40
7.5
 41
20.0
 42
7.5
 43
20.0
 44
210.0
 45
297.0
 46
0.0
 47
0.0
 48
0.0
 49
0.0
140
0.0
141
0.0
142
1.0
143
4.280155642
 70
   688
 72
     1
 73
     1
 74
     1
  7

 75
     0
147
0.2336363636
148
550.0
149
26.0
100
AcDbLayout
  1
_Links
 70
     1
 71
     5
 10
0.0
 20
0.0
 11
0.0
 21
0.0
 12
0.0
 22
0.0
 32
0.0
 14
0.0
 24
0.0
 34
0.0
 15
0.0
 25
0.0
 35
0.0
146
0.0
 13
0.0
 23
0.0
 33
0.0
 16
1.0
 26
0.0
 36
0.0
 17
0.0
 27
1.0
 37
0.0
 76
     0
330
F1
331
288
  0
LAYOUT
  5
CE
102
{ACAD_REACTORS
330
1A
102
}
330
1A
100
AcDbPlotSettings
  1

  2
none_device
  4
ISO_A4_(210.00_x_297.00_MM)
  6

 40
7.5
 41
20.0
 42
7.5
 43
20.0
 44
210.0
 45
297.0
 46
0.0
 47
0.0
 48
0.0
 49
0.0
140
0.0
141
0.0
142
1.0
143
4.280155642
 70
   688
 72
     1
 73
     1
 74
     1
  7

 75
     0
147
0.2336363636
148
550.0
149
26.0
100
AcDbLayout
  1
_Normal auf
 70
     1
 71
     3
 10
0.0
 20
0.0
 11
0.0
 21
0.0
 12
0.0
 22
0.0
 32
0.0
 14
0.0
 24
0.0
 34
0.0
 15
0.0
 25
0.0
 35
0.0
146
0.0
 13
0.0
 23
0.0
 33
0.0
 16
1.0
 26
0.0
 36
0.0
 17
0.0
 27
1.0
 37
0.0
 76
     0
330
CD
331
284
  0
LAYOUT
  5
26
102
{ACAD_REACTORS
330
1A
102
}
330
1A
100
AcDbPlotSettings
  1

  2
none_device
  4
ISO_A4_(210.00_x_297.00_MM)
  6

 40
7.5
 41
20.0
 42
7.5
 43
20.0
 44
210.0
 45
297.0
 46
0.0
 47
0.0
 48
0.0
 49
0.0
140
0.0
141
0.0
142
1.0
143
4.280155642
 70
   688
 72
     1
 73
     1
 74
     1
  7

 75
     0
147
0.2336363636
148
550.0
149
26.0
100
AcDbLayout
  1
_Rechts
 70
     1
 71
     2
 10
0.0
 20
0.0
 11
0.0
 21
0.0
 12
0.0
 22
0.0
 32
0.0
 14
0.0
 24
0.0
 34
0.0
 15
0.0
 25
0.0
 35
0.0
146
0.0
 13
0.0
 23
0.0
 33
0.0
 16
1.0
 26
0.0
 36
0.0
 17
0.0
 27
1.0
 37
0.0
 76
     0
330
23
331
282
  0
LAYOUT
  5
E0
102
{ACAD_REACTORS
330
1A
102
}
330
1A
100
AcDbPlotSettings
  1

  2
none_device
  4
ISO_A4_(210.00_x_297.00_MM)
  6

 40
7.5
 41
20.0
 42
7.5
 43
20.0
 44
210.0
 45
297.0
 46
0.0
 47
0.0
 48
0.0
 49
0.0
140
0.0
141
0.0
142
1.0
143
4.280155642
 70
   688
 72
     1
 73
     1
 74
     1
  7

 75
     0
147
0.2336363636
148
550.0
149
26.0
100
AcDbLayout
  1
_Rückseite
 70
     1
 71
     4
 10
0.0
 20
0.0
 11
0.0
 21
0.0
 12
0.0
 22
0.0
 32
0.0
 14
0.0
 24
0.0
 34
0.0
 15
0.0
 25
0.0
 35
0.0
146
0.0
 13
0.0
 23
0.0
 33
0.0
 16
1.0
 26
0.0
 36
0.0
 17
0.0
 27
1.0
 37
0.0
 76
     0
330
DF
331
286
  0
LAYOUT
  5
1B3
102
{ACAD_REACTORS
330
1A
102
}
330
1A
100
AcDbPlotSettings
  1

  2
none_device
  4
ISO_A4_(210.00_x_297.00_MM)
  6

 40
7.5
 41
20.0
 42
7.5
 43
20.0
 44
210.0
 45
297.0
 46
0.0
 47
0.0
 48
0.0
 49
0.0
140
0.0
141
0.0
142
1.0
143
4.280155642
 70
   688
 72
     1
 73
     1
 74
     1
  7

 75
     0
147
0.2336363636
148
550.0
149
26.0
100
AcDbLayout
  1
_Trimetrisch
 70
     1
 71
     8
 10
0.0
 20
0.0
 11
0.0
 21
0.0
 12
0.0
 22
0.0
 32
0.0
 14
0.0
 24
0.0
 34
0.0
 15
0.0
 25
0.0
 35
0.0
146
0.0
 13
0.0
 23
0.0
 33
0.0
 16
1.0
 26
0.0
 36
0.0
 17
0.0
 27
1.0
 37
0.0
 76
     0
330
1B2
331
28E
  0
LAYOUT
  5
104
102
{ACAD_REACTORS
330
1A
102
}
330
1A
100
AcDbPlotSettings
  1

  2
none_device
  4
ISO_A4_(210.00_x_297.00_MM)
  6

 40
7.5
 41
20.0
 42
7.5
 43
20.0
 44
210.0
 45
297.0
 46
0.0
 47
0.0
 48
0.0
 49
0.0
140
0.0
141
0.0
142
1.0
143
4.280155642
 70
   688
 72
     1
 73
     1
 74
     1
  7

 75
     0
147
0.2336363636
148
550.0
149
26.0
100
AcDbLayout
  1
_Unten
 70
     1
 71
     6
 10
0.0
 20
0.0
 11
0.0
 21
0.0
 12
0.0
 22
0.0
 32
0.0
 14
0.0
 24
0.0
 34
0.0
 15
0.0
 25
0.0
 35
0.0
146
0.0
 13
0.0
 23
0.0
 33
0.0
 16
1.0
 26
0.0
 36
0.0
 17
0.0
 27
1.0
 37
0.0
 76
     0
330
103
331
28A
  0
LAYOUT
  5
1E
102
{ACAD_REACTORS
330
1A
102
}
330
1A
100
AcDbPlotSettings
  1

  2
none_device
  4
ISO_A4_(210.00_x_297.00_MM)
  6

 40
7.5
 41
20.0
 42
7.5
 43
20.0
 44
210.0
 45
297.0
 46
0.0
 47
0.0
 48
0.0
 49
0.0
140
0.0
141
0.0
142
1.0
143
4.280155642
 70
   688
 72
     1
 73
     1
 74
     1
  7

 75
     0
147
0.2336363636
148
550.0
149
26.0
100
AcDbLayout
  1
_Vorderseite
 70
     1
 71
     1
 10
-635.6031128405
 20
-58.1011673152
 11
635.6031128405
 21
840.7315175097
 12
0.0
 22
0.0
 32
0.0
 14
-550.0
 24
-26.0
 34
0.0
 15
550.0
 25
35.0
 35
0.0
146
0.0
 13
0.0
 23
0.0
 33
0.0
 16
1.0
 26
0.0
 36
0.0
 17
0.0
 27
1.0
 37
0.0
 76
     0
330
1B
331
280
  0
LAYOUT
  5
22
102
{ACAD_REACTORS
330
1A
102
}
330
1A
100
AcDbPlotSettings
  1

  2
none_device
  4
ANSI_A_(11.00_x_8.50_Inches)
  6

 40
6.35
 41
19.05
 42
6.35000508
 43
19.05000254
 44
279.4
 45
215.9
 46
133.34999746
 47
88.89999873
 48
0.0
 49
0.0
140
0.0
141
0.0
142
0.0099
143
1.0
 70
  1696
 72
     0
 73
     0
 74
     0
  7

 75
     0
147
0.0179189148
148
-1300.4909072572
149
0.0
100
AcDbLayout
  1
Model
 70
     1
 71
     0
 10
0.0
 20
0.0
 11
420.0
 21
297.0
 12
0.0
 22
0.0
 32
0.0
 14
-550.0
 24
-400.0
 34
0.0
 15
550.0
 25
400.0
 35
0.0
146
0.0
 13
0.0
 23
0.0
 33
0.0
 16
1.0
 26
0.0
 36
0.0
 17
0.0
 27
1.0
 37
0.0
 76
     0
330
1F
331
29
  0
MLINESTYLE
  5
18
102
{ACAD_REACTORS
330
17
102
}
330
17
100
AcDbMlineStyle
  2
Standard
 70
     0
  3

 62
   256
 51
90.0
 52
90.0
 71
     2
 49
0.5
 62
   256
  6
BYLAYER
 49
-0.5
 62
   256
  6
BYLAYER
  0
ACDBPLACEHOLDER
  5
F
102
{ACAD_REACTORS
330
E
102
}
330
E
  0
SCALE
  5
48
102
{ACAD_REACTORS
330
47
102
}
330
47
100
AcDbScale
 70
     0
300
1:1
140
1.0
141
1.0
290
     1
  0
SCALE
  5
49
102
{ACAD_REACTORS
330
47
102
}
330
47
100
AcDbScale
 70
     0
300
1:2
140
1.0
141
2.0
290
     0
  0
SCALE
  5
4A
102
{ACAD_REACTORS
330
47
102
}
330
47
100
AcDbScale
 70
     0
300
1:4
140
1.0
141
4.0
290
     0
  0
SCALE
  5
4B
102
{ACAD_REACTORS
330
47
102
}
330
47
100
AcDbScale
 70
     0
300
1:5
140
1.0
141
5.0
290
     0
  0
SCALE
  5
4C
102
{ACAD_REACTORS
330
47
102
}
330
47
100
AcDbScale
 70
     0
300
1:8
140
1.0
141
8.0
290
     0
  0
SCALE
  5
4D
102
{ACAD_REACTORS
330
47
102
}
330
47
100
AcDbScale
 70
     0
300
1:10
140
1.0
141
10.0
290
     0
  0
SCALE
  5
4E
102
{ACAD_REACTORS
330
47
102
}
330
47
100
AcDbScale
 70
     0
300
1:16
140
1.0
141
16.0
290
     0
  0
SCALE
  5
4F
102
{ACAD_REACTORS
330
47
102
}
330
47
100
AcDbScale
 70
     0
300
1:20
140
1.0
141
20.0
290
     0
  0
SCALE
  5
50
102
{ACAD_REACTORS
330
47
102
}
330
47
100
AcDbScale
 70
     0
300
1:30
140
1.0
141
30.0
290
     0
  0
SCALE
  5
51
102
{ACAD_REACTORS
330
47
102
}
330
47
100
AcDbScale
 70
     0
300
1:40
140
1.0
141
40.0
290
     0
  0
SCALE
  5
52
102
{ACAD_REACTORS
330
47
102
}
330
47
100
AcDbScale
 70
     0
300
1:50
140
1.0
141
50.0
290
     0
  0
SCALE
  5
53
102
{ACAD_REACTORS
330
47
102
}
330
47
100
AcDbScale
 70
     0
300
1:100
140
1.0
141
100.0
290
     0
  0
SCALE
  5
54
102
{ACAD_REACTORS
330
47
102
}
330
47
100
AcDbScale
 70
     0
300
2:1
140
2.0
141
1.0
290
     0
  0
SCALE
  5
55
102
{ACAD_REACTORS
330
47
102
}
330
47
100
AcDbScale
 70
     0
300
4:1
140
4.0
141
1.0
290
     0
  0
SCALE
  5
56
102
{ACAD_REACTORS
330
47
102
}
330
47
100
AcDbScale
 70
     0
300
8:1
140
8.0
141
1.0
290
     0
  0
SCALE
  5
57
102
{ACAD_REACTORS
330
47
102
}
330
47
100
AcDbScale
 70
     0
300
10:1
140
10.0
141
1.0
290
     0
  0
SCALE
  5
58
102
{ACAD_REACTORS
330
47
102
}
330
47
100
AcDbScale
 70
     0
300
100:1
140
100.0
141
1.0
290
     0
  0
SCALE
  5
59
102
{ACAD_REACTORS
330
47
102
}
330
47
100
AcDbScale
 70
     0
300
1/128" = 1'-0"
140
0.0078125
141
12.0
290
     0
  0
SCALE
  5
5A
102
{ACAD_REACTORS
330
47
102
}
330
47
100
AcDbScale
 70
     0
300
1/64" = 1'-0"
140
0.015625
141
12.0
290
     0
  0
SCALE
  5
5B
102
{ACAD_REACTORS
330
47
102
}
330
47
100
AcDbScale
 70
     0
300
1/32" = 1'-0"
140
0.03125
141
12.0
290
     0
  0
SCALE
  5
5C
102
{ACAD_REACTORS
330
47
102
}
330
47
100
AcDbScale
 70
     0
300
1/16" = 1'-0"
140
0.0625
141
12.0
290
     0
  0
SCALE
  5
5D
102
{ACAD_REACTORS
330
47
102
}
330
47
100
AcDbScale
 70
     0
300
3/32" = 1'-0"
140
0.09375
141
12.0
290
     0
  0
SCALE
  5
5E
102
{ACAD_REACTORS
330
47
102
}
330
47
100
AcDbScale
 70
     0
300
1/8" = 1'-0"
140
0.125
141
12.0
290
     0
  0
SCALE
  5
5F
102
{ACAD_REACTORS
330
47
102
}
330
47
100
AcDbScale
 70
     0
300
3/16" = 1'-0"
140
0.1875
141
12.0
290
     0
  0
SCALE
  5
60
102
{ACAD_REACTORS
330
47
102
}
330
47
100
AcDbScale
 70
     0
300
1/4" = 1'-0"
140
0.25
141
12.0
290
     0
  0
SCALE
  5
61
102
{ACAD_REACTORS
330
47
102
}
330
47
100
AcDbScale
 70
     0
300
3/8" = 1'-0"
140
0.375
141
12.0
290
     0
  0
SCALE
  5
62
102
{ACAD_REACTORS
330
47
102
}
330
47
100
AcDbScale
 70
     0
300
1/2" = 1'-0"
140
0.5
141
12.0
290
     0
  0
SCALE
  5
63
102
{ACAD_REACTORS
330
47
102
}
330
47
100
AcDbScale
 70
     0
300
3/4" = 1'-0"
140
0.75
141
12.0
290
     0
  0
SCALE
  5
64
102
{ACAD_REACTORS
330
47
102
}
330
47
100
AcDbScale
 70
     0
300
1" = 1'-0"
140
1.0
141
12.0
290
     0
  0
SCALE
  5
65
102
{ACAD_REACTORS
330
47
102
}
330
47
100
AcDbScale
 70
     0
300
1-1/2" = 1'-0"
140
1.5
141
12.0
290
     0
  0
SCALE
  5
66
102
{ACAD_REACTORS
330
47
102
}
330
47
100
AcDbScale
 70
     0
300
3" = 1'-0"
140
3.0
141
12.0
290
     0
  0
SCALE
  5
67
102
{ACAD_REACTORS
330
47
102
}
330
47
100
AcDbScale
 70
     0
300
6" = 1'-0"
140
6.0
141
12.0
290
     0
  0
SCALE
  5
68
102
{ACAD_REACTORS
330
47
102
}
330
47
100
AcDbScale
 70
     0
300
1'-0" = 1'-0"
140
12.0
141
12.0
290
     0
  0
ENDSEC
  0
EOF
