  0
SECTION
  2
HEADER
  9
$ACADVER
  1
AC1015
  9
$ACADMAINTVER
 70
     6
  9
$DWGCODEPAGE
  3
ANSI_1252
  9
$INSBASE
 10
0.0
 20
0.0
 30
0.0
  9
$EXTMIN
 10
-500.0
 20
-450.0
 30
0.0
  9
$EXTMAX
 10
500.0
 20
450.0
 30
0.0
  9
$LIMMIN
 10
0.0
 20
0.0
  9
$LIMMAX
 10
420.0
 20
297.0
  9
$ORTHOMODE
 70
     0
  9
$REGENMODE
 70
     1
  9
$FILLMODE
 70
     1
  9
$QTEXTMODE
 70
     0
  9
$MIRRTEXT
 70
     1
  9
$LTSCALE
 40
1.0
  9
$ATTMODE
 70
     1
  9
$TEXTSIZE
 40
3.5
  9
$TRACEWID
 40
1.0
  9
$TEXTSTYLE
  7
STANDARD
  9
$CLAYER
  8
0
  9
$CELTYPE
  6
ByLayer
  9
$CECOLOR
 62
   256
  9
$CELTSCALE
 40
1.0
  9
$DISPSILH
 70
     0
  9
$DIMSCALE
 40
1.0
  9
$DIMASZ
 40
7.4083333333
  9
$DIMEXO
 40
1.0
  9
$DIMDLI
 40
3.75
  9
$DIMRND
 40
0.0
  9
$DIMDLE
 40
0.0
  9
$DIMEXE
 40
1.0
  9
$DIMTP
 40
0.0
  9
$DIMTM
 40
0.0
  9
$DIMTXT
 40
7.0555555556
  9
$DIMCEN
 40
2.5
  9
$DIMTSZ
 40
0.0
  9
$DIMTOL
 70
     0
  9
$DIMLIM
 70
     0
  9
$DIMTIH
 70
     1
  9
$DIMTOH
 70
     1
  9
$DIMSE1
 70
     0
  9
$DIMSE2
 70
     0
  9
$DIMTAD
 70
     1
  9
$DIMZIN
 70
     0
  9
$DIMBLK
  1

  9
$DIMASO
 70
     1
  9
$DIMSHO
 70
     1
  9
$DIMPOST
  1

  9
$DIMAPOST
  1

  9
$DIMALT
 70
     0
  9
$DIMALTD
 70
     3
  9
$DIMALTF
 40
0.0393700787
  9
$DIMLFAC
 40
1.0
  9
$DIMTOFL
 70
     1
  9
$DIMTVP
 40
0.0
  9
$DIMTIX
 70
     0
  9
$DIMSOXD
 70
     0
  9
$DIMSAH
 70
     0
  9
$DIMBLK1
  1

  9
$DIMBLK2
  1

  9
$DIMSTYLE
  2
ISO-25
  9
$DIMCLRD
 70
     0
  9
$DIMCLRE
 70
     0
  9
$DIMCLRT
 70
     0
  9
$DIMTFAC
 40
1.0
  9
$DIMGAP
 40
1.524
  9
$DIMJUST
 70
     0
  9
$DIMSD1
 70
     0
  9
$DIMSD2
 70
     0
  9
$DIMTOLJ
 70
     0
  9
$DIMTZIN
 70
     0
  9
$DIMALTZ
 70
     0
  9
$DIMALTTZ
 70
     0
  9
$DIMUPT
 70
     0
  9
$DIMDEC
 70
     1
  9
$DIMTDEC
 70
     1
  9
$DIMALTU
 70
     2
  9
$DIMALTTD
 70
     3
  9
$DIMTXSTY
  7
STANDARD
  9
$DIMAUNIT
 70
     0
  9
$DIMADEC
 70
     0
  9
$DIMALTRND
 40
0.0
  9
$DIMAZIN
 70
     0
  9
$DIMDSEP
 70
    44
  9
$DIMATFIT
 70
     3
  9
$DIMFRAC
 70
     0
  9
$DIMLDRBLK
  1

  9
$DIMLUNIT
 70
     2
  9
$DIMLWD
 70
    -2
  9
$DIMLWE
 70
    -2
  9
$DIMTMOVE
 70
     0
  9
$LUNITS
 70
     2
  9
$LUPREC
 70
     1
  9
$SKETCHINC
 40
1.0
  9
$FILLETRAD
 40
10.0
  9
$AUNITS
 70
     0
  9
$AUPREC
 70
     0
  9
$MENU
  1
.
  9
$ELEVATION
 40
0.0
  9
$PELEVATION
 40
0.0
  9
$THICKNESS
 40
0.0
  9
$LIMCHECK
 70
     0
  9
$CHAMFERA
 40
0.0
  9
$CHAMFERB
 40
0.0
  9
$CHAMFERC
 40
0.0
  9
$CHAMFERD
 40
0.0
  9
$SKPOLY
 70
     0
  9
$TDCREATE
 40
2458232.48915787
  9
$TDUCREATE
 40
2458232.405824537
  9
$TDUPDATE
 40
2458232.489186238
  9
$TDUUPDATE
 40
2458232.405852905
  9
$TDINDWG
 40
0.0000000116
  9
$TDUSRTIMER
 40
0.0000000116
  9
$USRTIMER
 70
     1
  9
$ANGBASE
 50
0.0
  9
$ANGDIR
 70
     0
  9
$PDMODE
 70
     0
  9
$PDSIZE
 40
-1.0
  9
$PLINEWID
 40
0.0
  9
$SPLFRAME
 70
     0
  9
$SPLINETYPE
 70
     6
  9
$SPLINESEGS
 70
     8
  9
$HANDSEED
  5
28A
  9
$SURFTAB1
 70
     6
  9
$SURFTAB2
 70
     6
  9
$SURFTYPE
 70
     6
  9
$SURFU
 70
     6
  9
$SURFV
 70
     6
  9
$UCSBASE
  2

  9
$UCSNAME
  2

  9
$UCSORG
 10
0.0
 20
0.0
 30
0.0
  9
$UCSXDIR
 10
1.0
 20
0.0
 30
0.0
  9
$UCSYDIR
 10
0.0
 20
1.0
 30
0.0
  9
$UCSORTHOREF
  2

  9
$UCSORTHOVIEW
 70
     0
  9
$UCSORGTOP
 10
0.0
 20
0.0
 30
0.0
  9
$UCSORGBOTTOM
 10
0.0
 20
0.0
 30
0.0
  9
$UCSORGLEFT
 10
0.0
 20
0.0
 30
0.0
  9
$UCSORGRIGHT
 10
0.0
 20
0.0
 30
0.0
  9
$UCSORGFRONT
 10
0.0
 20
0.0
 30
0.0
  9
$UCSORGBACK
 10
0.0
 20
0.0
 30
0.0
  9
$PUCSBASE
  2

  9
$PUCSNAME
  2

  9
$PUCSORG
 10
0.0
 20
0.0
 30
0.0
  9
$PUCSXDIR
 10
1.0
 20
0.0
 30
0.0
  9
$PUCSYDIR
 10
0.0
 20
1.0
 30
0.0
  9
$PUCSORTHOREF
  2

  9
$PUCSORTHOVIEW
 70
     0
  9
$PUCSORGTOP
 10
0.0
 20
0.0
 30
0.0
  9
$PUCSORGBOTTOM
 10
0.0
 20
0.0
 30
0.0
  9
$PUCSORGLEFT
 10
0.0
 20
0.0
 30
0.0
  9
$PUCSORGRIGHT
 10
0.0
 20
0.0
 30
0.0
  9
$PUCSORGFRONT
 10
0.0
 20
0.0
 30
0.0
  9
$PUCSORGBACK
 10
0.0
 20
0.0
 30
0.0
  9
$USERI1
 70
     0
  9
$USERI2
 70
     0
  9
$USERI3
 70
     0
  9
$USERI4
 70
     0
  9
$USERI5
 70
     0
  9
$USERR1
 40
0.0
  9
$USERR2
 40
0.0
  9
$USERR3
 40
0.0
  9
$USERR4
 40
0.0
  9
$USERR5
 40
0.0
  9
$WORLDVIEW
 70
     1
  9
$SHADEDGE
 70
     3
  9
$SHADEDIF
 70
    70
  9
$TILEMODE
 70
     1
  9
$MAXACTVP
 70
    64
  9
$PINSBASE
 10
0.0
 20
0.0
 30
0.0
  9
$PLIMCHECK
 70
     0
  9
$PEXTMIN
 10
-500.0
 20
-26.0
 30
0.0
  9
$PEXTMAX
 10
500.0
 20
35.0
 30
0.0
  9
$PLIMMIN
 10
-577.8210116732
 20
-55.1828793774
  9
$PLIMMAX
 10
577.8210116732
 20
761.9377431907
  9
$UNITMODE
 70
     0
  9
$VISRETAIN
 70
     1
  9
$PLINEGEN
 70
     0
  9
$PSLTSCALE
 70
     1
  9
$TREEDEPTH
 70
  3020
  9
$CMLSTYLE
  2
Standard
  9
$CMLJUST
 70
     0
  9
$CMLSCALE
 40
20.0
  9
$PROXYGRAPHICS
 70
     1
  9
$MEASUREMENT
 70
     1
  9
$CELWEIGHT
370
    -1
  9
$ENDCAPS
280
     0
  9
$JOINSTYLE
280
     0
  9
$LWDISPLAY
290
     1
  9
$INSUNITS
 70
     4
  9
$HYPERLINKBASE
  1

  9
$STYLESHEET
  1

  9
$XEDIT
290
     1
  9
$CEPSNTYPE
380
     0
  9
$PSTYLEMODE
290
     1
  9
$FINGERPRINTGUID
  2
{6B0F456C-0385-406C-A67A-09EEF92C10D1}
  9
$VERSIONGUID
  2
{FAEB1C32-E019-11D5-929B-00C0DF256EC4}
  9
$EXTNAMES
290
     1
  9
$PSVPSCALE
 40
0.0
  9
$OLESTARTUP
290
     0
  0
ENDSEC
  0
SECTION
  2
CLASSES
  0
CLASS
  1
ACDBDICTIONARYWDFLT
  2
AcDbDictionaryWithDefault
  3
ObjectDBX Classes
 90
        0
280
     0
281
     0
  0
CLASS
  1
VISUALSTYLE
  2
AcDbVisualStyle
  3
ObjectDBX Classes
 90
     4095
280
     0
281
     0
  0
CLASS
  1
MATERIAL
  2
AcDbMaterial
  3
ObjectDBX Classes
 90
     1153
280
     0
281
     0
  0
CLASS
  1
SCALE
  2
AcDbScale
  3
ObjectDBX Classes
 90
     1153
280
     0
281
     0
  0
CLASS
  1
TABLESTYLE
  2
AcDbTableStyle
  3
ObjectDBX Classes
 90
     4095
280
     0
281
     0
  0
CLASS
  1
MLEADERSTYLE
  2
AcDbMLeaderStyle
  3
ACDB_MLEADERSTYLE_CLASS
 90
     4095
280
     0
281
     0
  0
CLASS
  1
SUN
  2
AcDbSun
  3
SCENEOE
 90
     1153
280
     0
281
     0
  0
CLASS
  1
ACDBPLACEHOLDER
  2
AcDbPlaceHolder
  3
ObjectDBX Classes
 90
        0
280
     0
281
     0
  0
CLASS
  1
LAYOUT
  2
AcDbLayout
  3
ObjectDBX Classes
 90
        0
280
     0
281
     0
  0
ENDSEC
  0
SECTION
  2
TABLES
  0
TABLE
  2
VPORT
  5
8
330
0
100
AcDbSymbolTable
 70
     1
  0
VPORT
  5
29
330
8
100
AcDbSymbolTableRecord
100
AcDbViewportTableRecord
  2
*Active
 70
     0
 10
0.0
 20
0.0
 11
1.0
 21
1.0
 12
0.0
 22
0.0
 13
0.0
 23
0.0
 14
10.0
 24
10.0
 15
10.0
 25
10.0
 16
0.0
 26
0.0
 36
1.0
 17
0.0
 27
0.0
 37
0.0
 40
918.0
 41
1.1111111111
 42
50.0
 43
0.0
 44
0.0
 50
0.0
 51
0.0
 71
     0
 72
   100
 73
     1
 74
     3
 75
     0
 76
     0
 77
     0
 78
     0
281
     0
 65
     1
110
0.0
120
0.0
130
0.0
111
1.0
121
0.0
131
0.0
112
0.0
122
1.0
132
0.0
 79
     0
146
0.0
  0
ENDTAB
  0
TABLE
  2
LTYPE
  5
5
330
0
100
AcDbSymbolTable
 70
     6
  0
LTYPE
  5
14
330
5
100
AcDbSymbolTableRecord
100
AcDbLinetypeTableRecord
  2
ByBlock
 70
     0
  3

 72
    65
 73
     0
 40
0.0
  0
LTYPE
  5
15
330
5
100
AcDbSymbolTableRecord
100
AcDbLinetypeTableRecord
  2
ByLayer
 70
     0
  3

 72
    65
 73
     0
 40
0.0
  0
LTYPE
  5
16
330
5
100
AcDbSymbolTableRecord
100
AcDbLinetypeTableRecord
  2
Continuous
 70
     0
  3
Solid line
 72
    65
 73
     0
 40
0.0
  0
LTYPE
  5
6E
330
5
100
AcDbSymbolTableRecord
100
AcDbLinetypeTableRecord
  2
HIDDEN
 70
     0
  3
Hidden __ __ __ __ __ __ __ __ __ __ __ __ __ __
 72
    65
 73
     2
 40
1.905
 49
1.27
 74
     0
 49
-0.635
 74
     0
  0
LTYPE
  5
6F
330
5
100
AcDbSymbolTableRecord
100
AcDbLinetypeTableRecord
  2
PHANTOM
 70
     0
  3
Phantom ______  __  __  ______  __  __  ______
 72
    65
 73
     6
 40
12.7
 49
6.35
 74
     0
 49
-1.27
 74
     0
 49
1.27
 74
     0
 49
-1.27
 74
     0
 49
1.27
 74
     0
 49
-1.27
 74
     0
  0
LTYPE
  5
70
330
5
100
AcDbSymbolTableRecord
100
AcDbLinetypeTableRecord
  2
CENTER
 70
     0
  3
Center ____ _ ____ _ ____ _ ____ _ ____ _ ____
 72
    65
 73
     4
 40
10.16
 49
6.35
 74
     0
 49
-1.27
 74
     0
 49
1.27
 74
     0
 49
-1.27
 74
     0
  0
LTYPE
  5
71
330
5
100
AcDbSymbolTableRecord
100
AcDbLinetypeTableRecord
  2
CENTERX2
 70
     0
  3
Center (2x) ________  __  ________  __  _____
 72
    65
 73
     4
 40
20.32
 49
12.7
 74
     0
 49
-2.54
 74
     0
 49
2.54
 74
     0
 49
-2.54
 74
     0
  0
LTYPE
  5
72
330
5
100
AcDbSymbolTableRecord
100
AcDbLinetypeTableRecord
  2
DOT2
 70
     0
  3
Dot (.5x) ........................................
 72
    65
 73
     2
 40
0.635
 49
0.0
 74
     0
 49
-0.635
 74
     0
  0
ENDTAB
  0
TABLE
  2
LAYER
  5
2
330
0
100
AcDbSymbolTable
 70
     1
  0
LAYER
  5
10
330
2
100
AcDbSymbolTableRecord
100
AcDbLayerTableRecord
  2
0
 70
     0
 62
     7
  6
Continuous
370
    -3
390
F
  0
ENDTAB
  0
TABLE
  2
STYLE
  5
3
330
0
100
AcDbSymbolTable
 70
     1
  0
STYLE
  5
11
330
3
100
AcDbSymbolTableRecord
100
AcDbTextStyleTableRecord
  2
STANDARD
 70
     0
 40
0.0
 41
1.0
 50
0.0
 71
     0
 42
3.5
  3
GOTHIC.TTF
  4

1001
ACAD
1000
CENTURY GOTHIC
1071
       34
  0
ENDTAB
  0
TABLE
  2
VIEW
  5
6
330
0
100
AcDbSymbolTable
 70
     0
  0
ENDTAB
  0
TABLE
  2
UCS
  5
7
330
0
100
AcDbSymbolTable
 70
     0
  0
ENDTAB
  0
TABLE
  2
APPID
  5
9
330
0
100
AcDbSymbolTable
 70
     1
  0
APPID
  5
12
330
9
100
AcDbSymbolTableRecord
100
AcDbRegAppTableRecord
  2
ACAD
 70
     0
  0
ENDTAB
  0
TABLE
  2
DIMSTYLE
  5
A
330
0
100
AcDbSymbolTable
 70
     1
100
AcDbDimStyleTable
  0
DIMSTYLE
105
27
330
A
100
AcDbSymbolTableRecord
100
AcDbDimStyleTableRecord
  2
ISO-25
 70
     0
 41
2.5
 42
0.625
 43
3.75
 44
1.25
 73
     0
 74
     0
 77
     1
 78
     8
140
2.5
141
2.5
143
0.0393700787
147
0.625
171
     3
172
     1
178
     0
271
     2
272
     2
274
     3
278
    44
283
     0
284
     8
340
11
  0
ENDTAB
  0
TABLE
  2
BLOCK_RECORD
  5
1
330
0
100
AcDbSymbolTable
 70
     8
  0
BLOCK_RECORD
  5
1F
330
1
100
AcDbSymbolTableRecord
100
AcDbBlockTableRecord
  2
*Model_Space
340
22
  0
BLOCK_RECORD
  5
1B
330
1
100
AcDbSymbolTableRecord
100
AcDbBlockTableRecord
  2
*Paper_Space
340
1E
  0
BLOCK_RECORD
  5
23
330
1
100
AcDbSymbolTableRecord
100
AcDbBlockTableRecord
  2
*Paper_Space0
340
26
  0
BLOCK_RECORD
  5
CB
330
1
100
AcDbSymbolTableRecord
100
AcDbBlockTableRecord
  2
*Paper_Space1
340
CC
  0
BLOCK_RECORD
  5
DD
330
1
100
AcDbSymbolTableRecord
100
AcDbBlockTableRecord
  2
*Paper_Space2
340
DE
  0
BLOCK_RECORD
  5
EF
330
1
100
AcDbSymbolTableRecord
100
AcDbBlockTableRecord
  2
*Paper_Space3
340
F0
  0
BLOCK_RECORD
  5
101
330
1
100
AcDbSymbolTableRecord
100
AcDbBlockTableRecord
  2
*Paper_Space4
340
102
  0
BLOCK_RECORD
  5
12E
330
1
100
AcDbSymbolTableRecord
100
AcDbBlockTableRecord
  2
*Paper_Space5
340
12F
  0
BLOCK_RECORD
  5
1AE
330
1
100
AcDbSymbolTableRecord
100
AcDbBlockTableRecord
  2
*Paper_Space6
340
1AF
  0
BLOCK_RECORD
  5
21A
330
1
100
AcDbSymbolTableRecord
100
AcDbBlockTableRecord
  2
*Paper_Space7
340
21B
  0
ENDTAB
  0
ENDSEC
  0
SECTION
  2
BLOCKS
  0
BLOCK
  5
20
330
1F
100
AcDbEntity
  8
0
100
AcDbBlockBegin
  2
*Model_Space
 70
     0
 10
0.0
 20
0.0
 30
0.0
  3
*Model_Space
  1

  0
ENDBLK
  5
21
330
1F
100
AcDbEntity
  8
0
100
AcDbBlockEnd
  0
BLOCK
  5
1C
330
1B
100
AcDbEntity
 67
     1
  8
0
100
AcDbBlockBegin
  2
*Paper_Space
 70
     0
 10
0.0
 20
0.0
 30
0.0
  3
*Paper_Space
  1

  0
ENDBLK
  5
1D
330
1B
100
AcDbEntity
 67
     1
  8
0
100
AcDbBlockEnd
  0
BLOCK
  5
24
330
23
100
AcDbEntity
  8
0
100
AcDbBlockBegin
  2
*Paper_Space0
 70
     0
 10
0.0
 20
0.0
 30
0.0
  3
*Paper_Space0
  1

  0
LINE
  5
C4
330
23
100
AcDbEntity
  8
0
  6
Continuous
 62
     7
370
    25
100
AcDbLine
 10
450.0
 20
35.0
 30
0.0
 11
450.0
 21
0.0
 31
0.0
  0
LINE
  5
C5
330
23
100
AcDbEntity
  8
0
  6
Continuous
 62
     7
370
    25
100
AcDbLine
 10
-450.0
 20
0.0
 30
0.0
 11
450.0
 21
0.0
 31
0.0
  0
LINE
  5
C6
330
23
100
AcDbEntity
  8
0
  6
Continuous
 62
     7
370
    25
100
AcDbLine
 10
-450.0
 20
35.0
 30
0.0
 11
-450.0
 21
0.0
 31
0.0
  0
LINE
  5
C7
330
23
100
AcDbEntity
  8
0
  6
Continuous
 62
     7
370
    25
100
AcDbLine
 10
-450.0
 20
35.0
 30
0.0
 11
450.0
 21
35.0
 31
0.0
  0
LINE
  5
C8
330
23
100
AcDbEntity
  8
0
  6
Continuous
 62
     7
370
    25
100
AcDbLine
 10
130.0
 20
-26.0
 30
0.0
 11
130.0
 21
0.0
 31
0.0
  0
LINE
  5
C9
330
23
100
AcDbEntity
  8
0
  6
Continuous
 62
     7
370
    25
100
AcDbLine
 10
-130.0
 20
-26.0
 30
0.0
 11
-130.0
 21
0.0
 31
0.0
  0
LINE
  5
CA
330
23
100
AcDbEntity
  8
0
  6
Continuous
 62
     7
370
    25
100
AcDbLine
 10
130.0
 20
-26.0
 30
0.0
 11
-130.0
 21
-26.0
 31
0.0
  0
VIEWPORT
  5
27A
330
23
100
AcDbEntity
  8
0
100
AcDbViewport
 10
0.0
 20
0.0
 30
0.0
 40
205.6
 41
156.0
 68
     1
 69
     1
 12
0.0
 22
0.0
 13
0.0
 23
0.0
 14
10.0
 24
10.0
 15
10.0
 25
10.0
 16
0.0
 26
0.0
 36
1.0
 17
0.0
 27
0.0
 37
0.0
 42
50.0
 43
0.0
 44
0.0
 45
918.0
 50
0.0
 51
0.0
 72
   100
 90
   557152
  1

281
     0
 71
     1
 74
     0
110
0.0
120
0.0
130
0.0
111
1.0
121
0.0
131
0.0
112
0.0
122
1.0
132
0.0
 79
     0
146
0.0
  0
ENDBLK
  5
25
330
23
100
AcDbEntity
  8
0
100
AcDbBlockEnd
  0
BLOCK
  5
CD
330
CB
100
AcDbEntity
  8
0
100
AcDbBlockBegin
  2
*Paper_Space1
 70
     0
 10
0.0
 20
0.0
 30
0.0
  3
*Paper_Space1
  1

  0
LINE
  5
D6
330
CB
100
AcDbEntity
  8
0
  6
Continuous
 62
     7
370
    25
100
AcDbLine
 10
-500.0
 20
35.0
 30
0.0
 11
500.0
 21
35.0
 31
0.0
  0
LINE
  5
D7
330
CB
100
AcDbEntity
  8
0
  6
Continuous
 62
     7
370
    25
100
AcDbLine
 10
500.0
 20
35.0
 30
0.0
 11
500.0
 21
0.0
 31
0.0
  0
LINE
  5
D8
330
CB
100
AcDbEntity
  8
0
  6
Continuous
 62
     7
370
    25
100
AcDbLine
 10
-500.0
 20
0.0
 30
0.0
 11
500.0
 21
0.0
 31
0.0
  0
LINE
  5
D9
330
CB
100
AcDbEntity
  8
0
  6
Continuous
 62
     7
370
    25
100
AcDbLine
 10
-500.0
 20
35.0
 30
0.0
 11
-500.0
 21
0.0
 31
0.0
  0
LINE
  5
DA
330
CB
100
AcDbEntity
  8
0
  6
Continuous
 62
     7
370
    25
100
AcDbLine
 10
-120.0
 20
-26.0
 30
0.0
 11
-380.0
 21
-26.0
 31
0.0
  0
LINE
  5
DB
330
CB
100
AcDbEntity
  8
0
  6
Continuous
 62
     7
370
    25
100
AcDbLine
 10
-120.0
 20
-26.0
 30
0.0
 11
-120.0
 21
0.0
 31
0.0
  0
LINE
  5
DC
330
CB
100
AcDbEntity
  8
0
  6
Continuous
 62
     7
370
    25
100
AcDbLine
 10
-380.0
 20
-26.0
 30
0.0
 11
-380.0
 21
0.0
 31
0.0
  0
VIEWPORT
  5
27C
330
CB
100
AcDbEntity
  8
0
100
AcDbViewport
 10
0.0
 20
0.0
 30
0.0
 40
205.6
 41
156.0
 68
     1
 69
     1
 12
0.0
 22
0.0
 13
0.0
 23
0.0
 14
10.0
 24
10.0
 15
10.0
 25
10.0
 16
0.0
 26
0.0
 36
1.0
 17
0.0
 27
0.0
 37
0.0
 42
50.0
 43
0.0
 44
0.0
 45
918.0
 50
0.0
 51
0.0
 72
   100
 90
   557152
  1

281
     0
 71
     1
 74
     0
110
0.0
120
0.0
130
0.0
111
1.0
121
0.0
131
0.0
112
0.0
122
1.0
132
0.0
 79
     0
146
0.0
  0
ENDBLK
  5
CE
330
CB
100
AcDbEntity
  8
0
100
AcDbBlockEnd
  0
BLOCK
  5
DF
330
DD
100
AcDbEntity
  8
0
100
AcDbBlockBegin
  2
*Paper_Space2
 70
     0
 10
0.0
 20
0.0
 30
0.0
  3
*Paper_Space2
  1

  0
LINE
  5
E8
330
DD
100
AcDbEntity
  8
0
  6
Continuous
 62
     7
370
    25
100
AcDbLine
 10
-500.0
 20
35.0
 30
0.0
 11
500.0
 21
35.0
 31
0.0
  0
LINE
  5
E9
330
DD
100
AcDbEntity
  8
0
  6
Continuous
 62
     7
370
    25
100
AcDbLine
 10
-500.0
 20
35.0
 30
0.0
 11
-500.0
 21
0.0
 31
0.0
  0
LINE
  5
EA
330
DD
100
AcDbEntity
  8
0
  6
Continuous
 62
     7
370
    25
100
AcDbLine
 10
-500.0
 20
0.0
 30
0.0
 11
500.0
 21
0.0
 31
0.0
  0
LINE
  5
EB
330
DD
100
AcDbEntity
  8
0
  6
Continuous
 62
     7
370
    25
100
AcDbLine
 10
500.0
 20
35.0
 30
0.0
 11
500.0
 21
0.0
 31
0.0
  0
LINE
  5
EC
330
DD
100
AcDbEntity
  8
0
  6
Continuous
 62
     7
370
    25
100
AcDbLine
 10
380.0
 20
-26.0
 30
0.0
 11
380.0
 21
0.0
 31
0.0
  0
LINE
  5
ED
330
DD
100
AcDbEntity
  8
0
  6
Continuous
 62
     7
370
    25
100
AcDbLine
 10
380.0
 20
-26.0
 30
0.0
 11
120.0
 21
-26.0
 31
0.0
  0
LINE
  5
EE
330
DD
100
AcDbEntity
  8
0
  6
Continuous
 62
     7
370
    25
100
AcDbLine
 10
120.0
 20
-26.0
 30
0.0
 11
120.0
 21
0.0
 31
0.0
  0
VIEWPORT
  5
27E
330
DD
100
AcDbEntity
  8
0
100
AcDbViewport
 10
0.0
 20
0.0
 30
0.0
 40
205.6
 41
156.0
 68
     1
 69
     1
 12
0.0
 22
0.0
 13
0.0
 23
0.0
 14
10.0
 24
10.0
 15
10.0
 25
10.0
 16
0.0
 26
0.0
 36
1.0
 17
0.0
 27
0.0
 37
0.0
 42
50.0
 43
0.0
 44
0.0
 45
918.0
 50
0.0
 51
0.0
 72
   100
 90
   557152
  1

281
     0
 71
     1
 74
     0
110
0.0
120
0.0
130
0.0
111
1.0
121
0.0
131
0.0
112
0.0
122
1.0
132
0.0
 79
     0
146
0.0
  0
ENDBLK
  5
E0
330
DD
100
AcDbEntity
  8
0
100
AcDbBlockEnd
  0
BLOCK
  5
F1
330
EF
100
AcDbEntity
  8
0
100
AcDbBlockBegin
  2
*Paper_Space3
 70
     0
 10
0.0
 20
0.0
 30
0.0
  3
*Paper_Space3
  1

  0
LINE
  5
FA
330
EF
100
AcDbEntity
  8
0
  6
Continuous
 62
     7
370
    25
100
AcDbLine
 10
-450.0
 20
35.0
 30
0.0
 11
-450.0
 21
0.0
 31
0.0
  0
LINE
  5
FB
330
EF
100
AcDbEntity
  8
0
  6
Continuous
 62
     7
370
    25
100
AcDbLine
 10
-450.0
 20
35.0
 30
0.0
 11
450.0
 21
35.0
 31
0.0
  0
LINE
  5
FC
330
EF
100
AcDbEntity
  8
0
  6
Continuous
 62
     7
370
    25
100
AcDbLine
 10
450.0
 20
35.0
 30
0.0
 11
450.0
 21
0.0
 31
0.0
  0
LINE
  5
FD
330
EF
100
AcDbEntity
  8
0
  6
Continuous
 62
     7
370
    25
100
AcDbLine
 10
-450.0
 20
0.0
 30
0.0
 11
450.0
 21
0.0
 31
0.0
  0
LINE
  5
FE
330
EF
100
AcDbEntity
  8
0
  6
Continuous
 62
     7
370
    25
100
AcDbLine
 10
130.0
 20
-26.0
 30
0.0
 11
-130.0
 21
-26.0
 31
0.0
  0
LINE
  5
FF
330
EF
100
AcDbEntity
  8
0
  6
Continuous
 62
     7
370
    25
100
AcDbLine
 10
-130.0
 20
-26.0
 30
0.0
 11
-130.0
 21
0.0
 31
0.0
  0
LINE
  5
100
330
EF
100
AcDbEntity
  8
0
  6
Continuous
 62
     7
370
    25
100
AcDbLine
 10
130.0
 20
-26.0
 30
0.0
 11
130.0
 21
0.0
 31
0.0
  0
VIEWPORT
  5
280
330
EF
100
AcDbEntity
  8
0
100
AcDbViewport
 10
0.0
 20
0.0
 30
0.0
 40
205.6
 41
156.0
 68
     1
 69
     1
 12
0.0
 22
0.0
 13
0.0
 23
0.0
 14
10.0
 24
10.0
 15
10.0
 25
10.0
 16
0.0
 26
0.0
 36
1.0
 17
0.0
 27
0.0
 37
0.0
 42
50.0
 43
0.0
 44
0.0
 45
918.0
 50
0.0
 51
0.0
 72
   100
 90
   557152
  1

281
     0
 71
     1
 74
     0
110
0.0
120
0.0
130
0.0
111
1.0
121
0.0
131
0.0
112
0.0
122
1.0
132
0.0
 79
     0
146
0.0
  0
ENDBLK
  5
F2
330
EF
100
AcDbEntity
  8
0
100
AcDbBlockEnd
  0
BLOCK
  5
103
330
101
100
AcDbEntity
  8
0
100
AcDbBlockBegin
  2
*Paper_Space4
 70
     0
 10
0.0
 20
0.0
 30
0.0
  3
*Paper_Space4
  1

  0
CIRCLE
  5
10D
330
101
100
AcDbEntity
  8
0
  6
Continuous
 62
     7
370
    25
100
AcDbCircle
 10
-250.0
 20
0.0
 30
0.0
 40
45.0
  0
LINE
  5
11A
330
101
100
AcDbEntity
  8
0
  6
Continuous
 62
     7
370
    25
100
AcDbLine
 10
500.0
 20
-450.0
 30
0.0
 11
-500.0
 21
-450.0
 31
0.0
  0
LINE
  5
11B
330
101
100
AcDbEntity
  8
0
  6
Continuous
 62
     7
370
    25
100
AcDbLine
 10
-500.0
 20
450.0
 30
0.0
 11
500.0
 21
450.0
 31
0.0
  0
LINE
  5
11C
330
101
100
AcDbEntity
  8
0
  6
Continuous
 62
     7
370
    25
100
AcDbLine
 10
500.0
 20
450.0
 30
0.0
 11
500.0
 21
-450.0
 31
0.0
  0
LINE
  5
11D
330
101
100
AcDbEntity
  8
0
  6
Continuous
 62
     7
370
    25
100
AcDbLine
 10
-500.0
 20
-450.0
 30
0.0
 11
-500.0
 21
450.0
 31
0.0
  0
LINE
  5
11E
330
101
100
AcDbEntity
  8
0
  6
Continuous
 62
     7
370
    25
100
AcDbLine
 10
-120.0
 20
-130.0
 30
0.0
 11
-120.0
 21
130.0
 31
0.0
  0
LINE
  5
11F
330
101
100
AcDbEntity
  8
0
  6
Continuous
 62
     7
370
    25
100
AcDbLine
 10
-380.0
 20
-130.0
 30
0.0
 11
-120.0
 21
-130.0
 31
0.0
  0
LINE
  5
120
330
101
100
AcDbEntity
  8
0
  6
Continuous
 62
     7
370
    25
100
AcDbLine
 10
-380.0
 20
130.0
 30
0.0
 11
-380.0
 21
-130.0
 31
0.0
  0
LINE
  5
121
330
101
100
AcDbEntity
  8
0
  6
Continuous
 62
     7
370
    25
100
AcDbLine
 10
-120.0
 20
130.0
 30
0.0
 11
-380.0
 21
130.0
 31
0.0
  0
LINE
  5
122
330
101
100
AcDbEntity
  8
0
  6
Continuous
 62
     7
370
    25
100
AcDbLine
 10
-278.8654208587
 20
34.5222751082
 30
0.0
 11
-269.3431457505
 21
25.0
 31
0.0
  0
LINE
  5
123
330
101
100
AcDbEntity
  8
0
  6
Continuous
 62
     7
370
    25
100
AcDbLine
 10
-269.3431457505
 20
25.0
 30
0.0
 11
-230.6568542495
 21
25.0
 31
0.0
  0
LINE
  5
124
330
101
100
AcDbEntity
  8
0
  6
Continuous
 62
     7
370
    25
100
AcDbLine
 10
-230.6568542495
 20
25.0
 30
0.0
 11
-221.1345791413
 21
34.5222751082
 31
0.0
  0
LINE
  5
125
330
101
100
AcDbEntity
  8
0
  6
Continuous
 62
     7
370
    25
100
AcDbLine
 10
-215.4777248918
 20
28.8654208587
 30
0.0
 11
-225.0
 21
19.3431457505
 31
0.0
  0
LINE
  5
126
330
101
100
AcDbEntity
  8
0
  6
Continuous
 62
     7
370
    25
100
AcDbLine
 10
-225.0
 20
19.3431457505
 30
0.0
 11
-225.0
 21
-19.3431457505
 31
0.0
  0
LINE
  5
127
330
101
100
AcDbEntity
  8
0
  6
Continuous
 62
     7
370
    25
100
AcDbLine
 10
-225.0
 20
-19.3431457505
 30
0.0
 11
-215.4777248918
 21
-28.8654208587
 31
0.0
  0
LINE
  5
128
330
101
100
AcDbEntity
  8
0
  6
Continuous
 62
     7
370
    25
100
AcDbLine
 10
-275.0
 20
19.3431457505
 30
0.0
 11
-284.5222751082
 21
28.8654208587
 31
0.0
  0
LINE
  5
129
330
101
100
AcDbEntity
  8
0
  6
Continuous
 62
     7
370
    25
100
AcDbLine
 10
-275.0
 20
-19.3431457505
 30
0.0
 11
-275.0
 21
19.3431457505
 31
0.0
  0
LINE
  5
12A
330
101
100
AcDbEntity
  8
0
  6
Continuous
 62
     7
370
    25
100
AcDbLine
 10
-284.5222751082
 20
-28.8654208587
 30
0.0
 11
-275.0
 21
-19.3431457505
 31
0.0
  0
LINE
  5
12B
330
101
100
AcDbEntity
  8
0
  6
Continuous
 62
     7
370
    25
100
AcDbLine
 10
-269.3431457505
 20
-25.0
 30
0.0
 11
-278.8654208587
 21
-34.5222751082
 31
0.0
  0
LINE
  5
12C
330
101
100
AcDbEntity
  8
0
  6
Continuous
 62
     7
370
    25
100
AcDbLine
 10
-221.1345791413
 20
-34.5222751082
 30
0.0
 11
-230.6568542495
 21
-25.0
 31
0.0
  0
LINE
  5
12D
330
101
100
AcDbEntity
  8
0
  6
Continuous
 62
     7
370
    25
100
AcDbLine
 10
-230.6568542495
 20
-25.0
 30
0.0
 11
-269.3431457505
 21
-25.0
 31
0.0
  0
VIEWPORT
  5
282
330
101
100
AcDbEntity
  8
0
100
AcDbViewport
 10
0.0
 20
0.0
 30
0.0
 40
205.6
 41
156.0
 68
     1
 69
     1
 12
0.0
 22
0.0
 13
0.0
 23
0.0
 14
10.0
 24
10.0
 15
10.0
 25
10.0
 16
0.0
 26
0.0
 36
1.0
 17
0.0
 27
0.0
 37
0.0
 42
50.0
 43
0.0
 44
0.0
 45
918.0
 50
0.0
 51
0.0
 72
   100
 90
   557152
  1

281
     0
 71
     1
 74
     0
110
0.0
120
0.0
130
0.0
111
1.0
121
0.0
131
0.0
112
0.0
122
1.0
132
0.0
 79
     0
146
0.0
  0
ENDBLK
  5
104
330
101
100
AcDbEntity
  8
0
100
AcDbBlockEnd
  0
BLOCK
  5
130
330
12E
100
AcDbEntity
  8
0
100
AcDbBlockBegin
  2
*Paper_Space5
 70
     0
 10
0.0
 20
0.0
 30
0.0
  3
*Paper_Space5
  1

  0
SPLINE
  5
143
330
12E
100
AcDbEntity
  8
0
  6
Continuous
 62
     7
370
    25
100
AcDbSpline
210
0.0
220
0.0
230
1.0
 70
     8
 71
     3
 72
     8
 73
     4
 74
     0
 42
0.000000001
 43
0.00000001
 40
0.0
 40
0.0
 40
0.0
 40
0.0
 40
1.0
 40
1.0
 40
1.0
 40
1.0
 10
-166.0622164749563
 20
59.62745666238349
 30
0.0
 10
-169.0445795899311
 20
57.96197158360724
 30
0.0
 10
-172.0268190965064
 20
56.30423688713683
 30
0.0
 10
-175.0089283436702
 20
54.65466959872005
 30
0.0
  0
SPLINE
  5
146
330
12E
100
AcDbEntity
  8
0
  6
Continuous
 62
     7
370
    25
100
AcDbSpline
210
0.0
220
0.0
230
1.0
 70
     8
 71
     3
 72
    20
 73
    16
 74
     0
 42
0.000000001
 43
0.00000001
 40
0.0
 40
0.0
 40
0.0
 40
0.0
 40
0.25
 40
0.25
 40
0.375
 40
0.375
 40
0.5
 40
0.5
 40
0.625
 40
0.625
 40
0.75
 40
0.75
 40
0.875
 40
0.875
 40
1.0
 40
1.0
 40
1.0
 40
1.0
 10
-178.5444622496029
 20
54.67396703932371
 30
0.0
 10
-187.3323491407857
 20
59.62615918725606
 30
0.0
 10
-196.1202029885138
 20
64.57506239936468
 30
0.0
 10
-209.302194139447
 20
72.01934932048434
 30
0.0
 10
-213.6962151891894
 20
74.50450864558613
 30
0.0
 10
-222.4843918761267
 20
79.49574689521435
 30
0.0
 10
-226.8785481409145
 20
82.00184627248646
 30
0.0
 10
-235.6671549873761
 20
87.06010073143344
 30
0.0
 10
-240.0612633935762
 20
89.61389462414952
 30
0.0
 10
-248.8489890218005
 20
94.78360967413252
 30
0.0
 10
-253.2426109243536
 20
97.39895228562851
 30
0.0
 10
-262.0296528595514
 20
102.6551170583948
 30
0.0
 10
-266.4229893950244
 20
105.2941370189023
 30
0.0
 10
-275.2097418623284
 20
110.5674684134243
 30
0.0
 10
-279.6031495792936
 20
113.2022670223429
 30
0.0
 10
-283.9966484548975
 20
115.8316595537572
 30
0.0
  0
SPLINE
  5
147
330
12E
100
AcDbEntity
  8
0
  6
Continuous
 62
     7
370
    25
100
AcDbSpline
210
0.0
220
0.0
230
1.0
 70
     8
 71
     3
 72
    20
 73
    16
 74
     0
 42
0.000000001
 43
0.00000001
 40
0.0
 40
0.0
 40
0.0
 40
0.0
 40
0.1249999999999995
 40
0.1249999999999995
 40
0.249999999999999
 40
0.249999999999999
 40
0.3749999999999985
 40
0.3749999999999985
 40
0.499999999999998
 40
0.499999999999998
 40
0.6249999999999976
 40
0.6249999999999976
 40
0.749999999999997
 40
0.749999999999997
 40
1.0
 40
1.0
 40
1.0
 40
1.0
 10
-175.0089283436702
 20
54.65466959872005
 30
0.0
 10
-175.1256309715157
 20
54.59011500953142
 30
0.0
 10
-175.2518311536748
 20
54.53309425618188
 30
0.0
 10
-175.5224524924521
 20
54.43350882155232
 30
0.0
 10
-175.668583567625
 20
54.39060465951621
 30
0.0
 10
-175.9711835692734
 20
54.32225943620774
 30
0.0
 10
-176.1269102597631
 20
54.29672712879479
 30
0.0
 10
-176.4471373980945
 20
54.26278392129198
 30
0.0
 10
-176.6126944348058
 20
54.25455881011708
 30
0.0
 10
-176.9387144448548
 20
54.25630275099488
 30
0.0
 10
-177.1008088602669
 20
54.26598808762375
 30
0.0
 10
-177.423123365146
 20
54.30339341122858
 30
0.0
 10
-177.5809175609773
 20
54.33099342994365
 30
0.0
 10
-178.0321330003197
 20
54.43757215873711
 30
0.0
 10
-178.3110213536534
 20
54.54241730657882
 30
0.0
 10
-178.5444622496029
 20
54.67396703932371
 30
0.0
  0
SPLINE
  5
148
330
12E
100
AcDbEntity
  8
0
  6
Continuous
 62
     7
370
    25
100
AcDbSpline
210
0.0
220
0.0
230
1.0
 70
     8
 71
     3
 72
    14
 73
    10
 74
     0
 42
0.000000001
 43
0.00000001
 40
0.0
 40
0.0
 40
0.0
 40
0.0
 40
0.25
 40
0.25
 40
0.5
 40
0.5
 40
0.75
 40
0.75
 40
1.0
 40
1.0
 40
1.0
 40
1.0
 10
-74.35408912846903
 20
112.5694316778865
 30
0.0
 10
-81.99622241293231
 20
108.0617419489575
 30
0.0
 10
-89.6383789470402
 20
103.5567791975338
 30
0.0
 10
-104.9230872779344
 20
94.59326596869414
 30
0.0
 10
-112.5655384960842
 20
90.13749306923144
 30
0.0
 10
-127.8507672518468
 20
81.31351833263803
 30
0.0
 10
-135.4932183660596
 20
76.94550493495674
 30
0.0
 10
-150.777926700224
 20
68.26166955764472
 30
0.0
 10
-158.4200832016062
 20
63.94318620565964
 30
0.0
 10
-166.0622164749563
 20
59.62745666238349
 30
0.0
  0
SPLINE
  5
14A
330
12E
100
AcDbEntity
  8
0
  6
Continuous
 62
     7
370
    25
100
AcDbSpline
210
0.0
220
0.0
230
1.0
 70
     8
 71
     3
 72
     8
 73
     4
 74
     0
 42
0.000000001
 43
0.00000001
 40
0.0
 40
0.0
 40
0.0
 40
0.0
 40
1.0
 40
1.0
 40
1.0
 40
1.0
 10
-65.40737725975511
 20
117.9262982649799
 30
0.0
 10
-68.38948650691884
 20
116.1327955044281
 30
0.0
 10
-71.37172601349417
 20
114.3473097576146
 30
0.0
 10
-74.35408912846903
 20
112.5694316778865
 30
0.0
  0
SPLINE
  5
14B
330
12E
100
AcDbEntity
  8
0
  6
Continuous
 62
     7
370
    25
100
AcDbSpline
210
0.0
220
0.0
230
1.0
 70
     8
 71
     3
 72
    20
 73
    16
 74
     0
 42
0.000000001
 43
0.00000001
 40
0.0
 40
0.0
 40
0.0
 40
0.0
 40
0.125
 40
0.125
 40
0.25
 40
0.25
 40
0.375
 40
0.375
 40
0.5
 40
0.5
 40
0.625
 40
0.625
 40
0.75
 40
0.75
 40
1.0
 40
1.0
 40
1.0
 40
1.0
 10
-65.40737725975511
 20
119.9866159851403
 30
0.0
 10
-65.29065724857675
 20
119.9208413649135
 30
0.0
 10
-65.18733030717965
 20
119.8492632628027
 30
0.0
 10
-65.00637051628583
 20
119.6949789073393
 30
0.0
 10
-64.92811265801929
 20
119.6112866058803
 30
0.0
 10
-64.80276040519908
 20
119.4372836119131
 30
0.0
 10
-64.7555059991681
 20
119.3474042721196
 30
0.0
 10
-64.69156208905252
 20
119.161950138721
 30
0.0
 10
-64.67519647026789
 20
119.0657596290786
 30
0.0
 10
-64.67509221085302
 20
118.8757406265578
 30
0.0
 10
-64.69082988725481
 20
118.7809682515422
 30
0.0
 10
-64.75463011686087
 20
118.5919152023042
 30
0.0
 10
-64.8024932335482
 20
118.4990693050296
 30
0.0
 10
-64.98892082124789
 20
118.2326346978341
 30
0.0
 10
-65.17397247673814
 20
118.0666727744198
 30
0.0
 10
-65.40737725975511
 20
117.9262982649799
 30
0.0
  0
SPLINE
  5
14C
330
12E
100
AcDbEntity
  8
0
  6
Continuous
 62
     7
370
    25
100
AcDbSpline
210
0.0
220
0.0
230
1.0
 70
     8
 71
     3
 72
    20
 73
    16
 74
     0
 42
0.000000001
 43
0.00000001
 40
0.0
 40
0.0
 40
0.0
 40
0.0
 40
0.125
 40
0.125
 40
0.25
 40
0.25
 40
0.375
 40
0.375
 40
0.5
 40
0.5
 40
0.625
 40
0.625
 40
0.75
 40
0.75
 40
1.0
 40
1.0
 40
1.0
 40
1.0
 10
-170.8595634650497
 20
181.1443084995738
 30
0.0
 10
-166.4660646736537
 20
178.5149160185557
 30
0.0
 10
-162.072657043514
 20
175.8801174618338
 30
0.0
 10
-153.285904751673
 20
170.6067861727192
 30
0.0
 10
-148.8925682129609
 20
167.9677662104948
 30
0.0
 10
-140.1055266292846
 20
162.7116016460861
 30
0.0
 10
-135.7119049832672
 20
160.0962591830857
 30
0.0
 10
-126.9241790276566
 20
154.9265439335262
 30
0.0
 10
-122.5300696701533
 20
152.3727494867227
 30
0.0
 10
-113.7414622828797
 20
147.3144947207285
 30
0.0
 10
-109.3473066322477
 20
144.8083956964428
 30
0.0
 10
-100.5591300762668
 20
139.817157521814
 30
0.0
 10
-96.16510902984099
 20
137.3319981986
 30
0.0
 10
-82.98311790320255
 20
129.8877112914096
 30
0.0
 10
-74.19526411436735
 20
124.9388081124643
 30
0.0
 10
-65.40737725975511
 20
119.9866159851403
 30
0.0
  0
SPLINE
  5
14E
330
12E
100
AcDbEntity
  8
0
  6
Continuous
 62
     7
370
    25
100
AcDbSpline
210
0.0
220
0.0
230
1.0
 70
     8
 71
     3
 72
     8
 73
     4
 74
     0
 42
0.000000001
 43
0.00000001
 40
0.0
 40
0.0
 40
0.0
 40
0.0
 40
1.0
 40
1.0
 40
1.0
 40
1.0
 10
-175.0089283436697
 20
183.7586936312152
 30
0.0
 10
-173.6260310010716
 20
182.881695020459
 30
0.0
 10
-172.2429069870107
 20
182.0102922589874
 30
0.0
 10
-170.8595634650497
 20
181.1443084995737
 30
0.0
  0
SPLINE
  5
14F
330
12E
100
AcDbEntity
  8
0
  6
Continuous
 62
     7
370
    25
100
AcDbSpline
210
0.0
220
0.0
230
1.0
 70
     8
 71
     3
 72
    20
 73
    16
 74
     0
 42
0.000000001
 43
0.00000001
 40
0.0
 40
0.0
 40
0.0
 40
0.0
 40
0.1249999999999951
 40
0.1249999999999951
 40
0.2499999999999902
 40
0.2499999999999902
 40
0.3749999999999852
 40
0.3749999999999852
 40
0.4999999999999803
 40
0.4999999999999803
 40
0.6249999999999755
 40
0.6249999999999755
 40
0.7499999999999705
 40
0.7499999999999705
 40
1.0
 40
1.0
 40
1.0
 40
1.0
 10
-178.5444622496026
 20
183.8229180106416
 30
0.0
 10
-178.4277151189634
 20
183.892934714786
 30
0.0
 10
-178.3014567765251
 20
183.9544739124663
 30
0.0
 10
-178.0306869628552
 20
184.0612964243627
 30
0.0
 10
-177.8844550366796
 20
184.1069344819379
 30
0.0
 10
-177.5817172774896
 20
184.1787209495459
 30
0.0
 10
-177.4259177630255
 20
184.2049913654824
 30
0.0
 10
-177.1055355899866
 20
184.23848222622
 30
0.0
 10
-176.939945954792
 20
184.2454797364942
 30
0.0
 10
-176.6139101844987
 20
184.2394493043795
 30
0.0
 10
-176.45180826485
 20
184.2267128799362
 30
0.0
 10
-176.1294792035943
 20
184.1813581666281
 30
0.0
 10
-175.9718312134654
 20
184.1489338662623
 30
0.0
 10
-175.5208408943055
 20
184.0257059199235
 30
0.0
 10
-175.2421772386816
 20
183.9066141966721
 30
0.0
 10
-175.0089283436697
 20
183.7586936312152
 30
0.0
  0
SPLINE
  5
150
330
12E
100
AcDbEntity
  8
0
  6
Continuous
 62
     7
370
    25
100
AcDbSpline
210
0.0
220
0.0
230
1.0
 70
     8
 71
     3
 72
    22
 73
    18
 74
     0
 42
0.000000001
 43
0.00000001
 40
0.0
 40
0.0
 40
0.0
 40
0.0
 40
0.1249999999999999
 40
0.1249999999999999
 40
0.2499999999999998
 40
0.2499999999999998
 40
0.3749999999999998
 40
0.3749999999999998
 40
0.4999999999999997
 40
0.4999999999999997
 40
0.6249999999999997
 40
0.6249999999999997
 40
0.7499999999999997
 40
0.7499999999999997
 40
0.8749999999999998
 40
0.8749999999999998
 40
1.0
 40
1.0
 40
1.0
 40
1.0
 10
-288.1460133335178
 20
120.5512893443817
 30
0.0
 10
-283.5795040424663
 20
123.0849981830105
 30
0.0
 10
-279.0130644614108
 20
125.6142346367495
 30
0.0
 10
-269.8803047054389
 20
130.6650468034075
 30
0.0
 10
-265.3139914386117
 20
133.1861793139806
 30
0.0
 10
-256.181353648464
 20
138.229166518063
 30
0.0
 10
-251.6150529345475
 20
140.7494936714395
 30
0.0
 10
-242.4817860401522
 20
145.8328423228508
 30
0.0
 10
-237.9147466921171
 20
148.4002464561387
 30
0.0
 10
-228.7785146461828
 20
153.6744547425478
 30
0.0
 10
-224.2113215887864
 20
156.3801109764263
 30
0.0
 10
-215.0776171276027
 20
161.8420523966251
 30
0.0
 10
-210.5110476514335
 20
164.5940249364135
 30
0.0
 10
-201.3778778563592
 20
170.095676787545
 30
0.0
 10
-196.8112994455655
 20
172.8468578574912
 30
0.0
 10
-187.6779895172362
 20
178.3408375168864
 30
0.0
 10
-183.1112659410074
 20
181.084070886982
 30
0.0
 10
-178.5444622496027
 20
183.8229180106416
 30
0.0
  0
SPLINE
  5
151
330
12E
100
AcDbEntity
  8
0
  6
Continuous
 62
     7
370
    25
100
AcDbSpline
210
0.0
220
0.0
230
1.0
 70
     8
 71
     3
 72
    20
 73
    16
 74
     0
 42
0.000000001
 43
0.00000001
 40
0.0
 40
0.0
 40
0.0
 40
0.0
 40
0.1249999999999992
 40
0.1249999999999992
 40
0.2499999999999984
 40
0.2499999999999984
 40
0.3749999999999976
 40
0.3749999999999976
 40
0.4999999999999968
 40
0.4999999999999968
 40
0.624999999999996
 40
0.624999999999996
 40
0.7499999999999951
 40
0.7499999999999951
 40
1.0
 40
1.0
 40
1.0
 40
1.0
 10
-288.1460133335178
 20
118.4460446853988
 30
0.0
 10
-288.2626397445225
 20
118.5200062133285
 30
0.0
 10
-288.3659040106754
 20
118.5991188238607
 30
0.0
 10
-288.5467854783521
 20
118.7672336442909
 30
0.0
 10
-288.6250273560806
 20
118.8572762798143
 30
0.0
 10
-288.7504085742424
 20
119.0423689762384
 30
0.0
 10
-288.7976940251429
 20
119.1369714650359
 30
0.0
 10
-288.8617207302738
 20
119.3302378273322
 30
0.0
 10
-288.8781438466923
 20
119.4295342661285
 30
0.0
 10
-288.8783479349951
 20
119.6238254969928
 30
0.0
 10
-288.862655171506
 20
119.7198071786984
 30
0.0
 10
-288.798930820592
 20
119.9093615750732
 30
0.0
 10
-288.7510729468016
 20
120.0015259426565
 30
0.0
 10
-288.56464154043
 20
120.2629916408875
 30
0.0
 10
-288.3795130117714
 20
120.4217330113271
 30
0.0
 10
-288.1460133335178
 20
120.5512893443817
 30
0.0
  0
SPLINE
  5
152
330
12E
100
AcDbEntity
  8
0
  6
Continuous
 62
     7
370
    25
100
AcDbSpline
210
0.0
220
0.0
230
1.0
 70
     8
 71
     3
 72
     8
 73
     4
 74
     0
 42
0.000000001
 43
0.00000001
 40
0.0
 40
0.0
 40
0.0
 40
0.0
 40
1.0
 40
1.0
 40
1.0
 40
1.0
 10
-283.9966484548975
 20
115.8316595537572
 30
0.0
 10
-285.3799919768585
 20
116.697643313171
 30
0.0
 10
-286.7631159909198
 20
117.5690460746426
 30
0.0
 10
-288.1460133335179
 20
118.4460446853987
 30
0.0
  0
SPLINE
  5
157
330
12E
100
AcDbEntity
  8
0
  6
Continuous
 62
     7
370
    25
100
AcDbSpline
210
0.0
220
0.0
230
1.0
 70
    24
 71
     3
 72
     9
 73
     5
 74
     0
 42
0.000000001
 43
0.00000001
 40
0.0
 40
0.0
 40
0.0
 40
0.0
 40
0.9718995904464893
 40
1.0
 40
1.0
 40
1.0
 40
1.0
 10
-181.7766952966364
 20
56.49630921235854
 30
0.0
 10
-181.7766952966362
 20
56.84997939851609
 30
0.0
 10
-181.776695296636
 20
57.21387520589576
 30
0.0
 10
-181.7766952966364
 20
57.57716583776351
 30
0.0
 10
-181.7766952966364
 20
57.58737445330593
 30
0.0
  0
SPLINE
  5
15A
330
12E
100
AcDbEntity
  8
0
  6
Continuous
 62
     7
370
    25
100
AcDbSpline
210
0.0
220
0.0
230
1.0
 70
     8
 71
     3
 72
     9
 73
     5
 74
     0
 42
0.000000001
 43
0.00000001
 40
0.0
 40
0.0
 40
0.0
 40
0.0
 40
0.1159701954778089
 40
1.0
 40
1.0
 40
1.0
 40
1.0
 10
-196.8422768231221
 20
64.99032687058614
 30
0.0
 10
-196.7190873744339
 20
64.96167389055275
 30
0.0
 10
-195.6568364384876
 20
64.71460196043003
 30
0.0
 10
-194.550704416042
 20
64.54610573028036
 30
0.0
 10
-193.5728507404637
 20
64.39715004087846
 30
0.0
  0
SPLINE
  5
15B
330
12E
100
AcDbEntity
  8
0
  6
Continuous
 62
     7
370
    25
100
AcDbSpline
210
0.0
220
0.0
230
1.0
 70
     8
 71
     3
 72
     9
 73
     5
 74
     0
 42
0.000000001
 43
0.00000001
 40
0.0
 40
0.0
 40
0.0
 40
0.0
 40
0.9799219831212623
 40
0.9999999999999999
 40
0.9999999999999999
 40
0.9999999999999999
 40
0.9999999999999999
 10
-99.10947924965382
 20
98.01023939002245
 30
0.0
 10
-100.0346717007035
 20
97.97520813815306
 30
0.0
 10
-100.9788207931677
 20
97.93945911683018
 30
0.0
 10
-101.9229226293376
 20
97.90289039593652
 30
0.0
 10
-101.9418783219394
 20
97.90215616854117
 30
0.0
  0
SPLINE
  5
15E
330
12E
100
AcDbEntity
  8
0
  6
Continuous
 62
     7
370
    25
100
AcDbSpline
210
0.0
220
0.0
230
1.0
 70
     8
 71
     3
 72
     9
 73
     5
 74
     0
 42
0.000000001
 43
0.00000001
 40
0.0
 40
0.0
 40
0.0
 40
0.0
 40
0.3104311230180379
 40
1.0
 40
1.0
 40
1.0
 40
1.0
 10
-115.2966597611949
 20
88.58521508396824
 30
0.0
 10
-115.1362302450978
 20
88.82086769189426
 30
0.0
 10
-114.619434395064
 20
89.57998168032103
 30
0.0
 10
-114.2797982743862
 20
90.37003359805097
 30
0.0
 10
-114.0455957760679
 20
90.91482881171747
 30
0.0
  0
LWPOLYLINE
  5
15F
330
12E
100
AcDbEntity
  8
0
  6
Continuous
 62
     7
370
    25
100
AcDbPolyline
 90
        3
 70
   128
 43
0.0
 10
-219.6383046405
 20
77.8073025314
 10
-220.3280660041
 20
79.1818413564
 10
-220.6929324728
 20
80.0532399757
  0
LWPOLYLINE
  5
160
330
12E
100
AcDbEntity
  8
0
  6
Continuous
 62
     7
370
    25
100
AcDbPolyline
 90
        3
 70
   128
 43
0.0
 10
-132.8604581204
 20
80.0532399757
 10
-132.9854280284
 20
79.7396276851
 10
-133.8606686553
 20
77.9062154841
  0
LINE
  5
17A
330
12E
100
AcDbEntity
  8
0
  6
Continuous
 62
     7
370
    25
100
AcDbLine
 10
-79.8528137424
 20
111.8495037205
 30
0.0
 11
-79.8528137424
 21
118.3818302156
 31
0.0
  0
LINE
  5
17B
330
12E
100
AcDbEntity
  8
0
  6
Continuous
 62
     7
370
    25
100
AcDbLine
 10
-273.7005768509
 20
118.3818302156
 30
0.0
 11
-273.7005768509
 21
111.8495037205
 31
0.0
  0
LINE
  5
17C
330
12E
100
AcDbEntity
  8
0
  6
Continuous
 62
     7
370
    25
100
AcDbLine
 10
-80.8528137424
 20
108.7443416504
 30
0.0
 11
-80.8528137424
 21
110.1176405842
 31
0.0
  0
LINE
  5
17D
330
12E
100
AcDbEntity
  8
0
  6
Continuous
 62
     7
370
    25
100
AcDbLine
 10
-272.7005768509
 20
110.1176405842
 30
0.0
 11
-272.7005768509
 21
109.0590277703
 31
0.0
  0
LINE
  5
17E
330
12E
100
AcDbEntity
  8
0
  6
Continuous
 62
     7
370
    25
100
AcDbLine
 10
671.7514421272
 20
8.1687256204
 30
0.0
 11
-35.3553390593
 21
416.3727815318
 31
0.0
  0
LINE
  5
17F
330
12E
100
AcDbEntity
  8
0
  6
Continuous
 62
     7
370
    25
100
AcDbLine
 10
35.3553390593
 20
-359.2149246998
 30
0.0
 11
671.7514421272
 21
8.1687256204
 31
0.0
  0
LINE
  5
180
330
12E
100
AcDbEntity
  8
0
  6
Continuous
 62
     7
370
    25
100
AcDbLine
 10
-671.7514421272
 20
48.9891312116
 30
0.0
 11
35.3553390593
 21
-359.2149246998
 31
0.0
  0
LINE
  5
181
330
12E
100
AcDbEntity
  8
0
  6
Continuous
 62
     7
370
    25
100
AcDbLine
 10
-35.3553390593
 20
416.3727815318
 30
0.0
 11
-671.7514421272
 21
48.9891312116
 31
0.0
  0
LINE
  5
182
330
12E
100
AcDbEntity
  8
0
  6
Continuous
 62
     7
370
    25
100
AcDbLine
 10
-35.3553390593
 20
400.0446192953
 30
0.0
 11
-643.4671708798
 21
48.9891312116
 31
0.0
  0
LINE
  5
183
330
12E
100
AcDbEntity
  8
0
  6
Continuous
 62
     7
370
    25
100
AcDbLine
 10
-643.4671708798
 20
48.9891312116
 30
0.0
 11
35.3553390593
 21
-342.8867624633
 31
0.0
  0
LINE
  5
184
330
12E
100
AcDbEntity
  8
0
  6
Continuous
 62
     7
370
    25
100
AcDbLine
 10
35.3553390593
 20
-342.8867624633
 30
0.0
 11
643.4671708798
 21
8.1687256204
 31
0.0
  0
LINE
  5
185
330
12E
100
AcDbEntity
  8
0
  6
Continuous
 62
     7
370
    25
100
AcDbLine
 10
643.4671708798
 20
8.1687256204
 30
0.0
 11
-35.3553390593
 21
400.0446192953
 31
0.0
  0
LINE
  5
186
330
12E
100
AcDbEntity
  8
0
  6
Continuous
 62
     7
370
    25
100
AcDbLine
 10
-671.7514421272
 20
48.9891312116
 30
0.0
 11
-671.7514421272
 21
20.4102027956
 31
0.0
  0
LINE
  5
187
330
12E
100
AcDbEntity
  8
0
  6
Continuous
 62
     7
370
    25
100
AcDbLine
 10
35.3553390593
 20
-359.2149246998
 30
0.0
 11
35.3553390593
 21
-387.7938531158
 31
0.0
  0
LINE
  5
188
330
12E
100
AcDbEntity
  8
0
  6
Continuous
 62
     7
370
    25
100
AcDbLine
 10
-671.7514421272
 20
20.4102027956
 30
0.0
 11
35.3553390593
 21
-387.7938531158
 31
0.0
  0
LINE
  5
189
330
12E
100
AcDbEntity
  8
0
  6
Continuous
 62
     7
370
    25
100
AcDbLine
 10
671.7514421272
 20
8.1687256204
 30
0.0
 11
671.7514421272
 21
-20.4102027956
 31
0.0
  0
LINE
  5
18A
330
12E
100
AcDbEntity
  8
0
  6
Continuous
 62
     7
370
    25
100
AcDbLine
 10
35.3553390593
 20
-387.7938531158
 30
0.0
 11
671.7514421272
 21
-20.4102027956
 31
0.0
  0
LINE
  5
18B
330
12E
100
AcDbEntity
  8
0
  6
Continuous
 62
     7
370
    25
100
AcDbLine
 10
35.3553390593
 20
-342.8867624633
 30
0.0
 11
-166.062216475
 21
59.6274566624
 31
0.0
  0
LINE
  5
18C
330
12E
100
AcDbEntity
  8
0
  6
Continuous
 62
     7
370
    25
100
AcDbLine
 10
-643.4671708798
 20
48.9891312116
 30
0.0
 11
-283.9966484549
 21
115.8316595538
 31
0.0
  0
LINE
  5
18D
330
12E
100
AcDbEntity
  8
0
  6
Continuous
 62
     7
370
    25
100
AcDbLine
 10
643.4671708798
 20
8.1687256204
 30
0.0
 11
-74.3540891285
 21
112.5694316779
 31
0.0
  0
LINE
  5
18E
330
12E
100
AcDbEntity
  8
0
  6
Continuous
 62
     7
370
    25
100
AcDbLine
 10
-170.859563465
 20
181.1443084996
 30
0.0
 11
-35.3553390593
 21
400.0446192953
 31
0.0
  0
LINE
  5
18F
330
12E
100
AcDbEntity
  8
0
  6
Continuous
 62
     7
370
    25
100
AcDbLine
 10
-273.6499789917
 20
111.4399066171
 30
0.0
 11
-275.1894001876
 21
110.551217677
 31
0.0
  0
LINE
  5
190
330
12E
100
AcDbEntity
  8
0
  6
Continuous
 62
     7
370
    25
100
AcDbLine
 10
-78.0706688574
 20
110.3818867515
 30
0.0
 11
-79.9034116015
 21
111.4399066171
 31
0.0
  0
LINE
  5
191
330
12E
100
AcDbEntity
  8
0
  6
Continuous
 62
     7
370
    25
100
AcDbLine
 10
-251.6047327782
 20
97.8982424505
 30
0.0
 11
-254.182777132
 21
97.9971457322
 31
0.0
  0
LINE
  5
192
330
12E
100
AcDbEntity
  8
0
  6
Continuous
 62
     7
370
    25
100
AcDbLine
 10
-239.3948017299
 20
90.8495992909
 30
0.0
 11
-238.3050154385
 21
88.6644765718
 31
0.0
  0
LINE
  5
193
330
12E
100
AcDbEntity
  8
0
  6
Continuous
 62
     7
370
    25
100
AcDbLine
 10
-171.7766952966
 20
57.5873744533
 30
0.0
 11
-171.7766952966
 21
56.4512186459
 31
0.0
  0
LINE
  5
194
330
12E
100
AcDbEntity
  8
0
  6
Continuous
 62
     7
370
    25
100
AcDbLine
 10
-159.8635770462
 20
64.4646712319
 30
0.0
 11
-156.4256088913
 21
65.0816315867
 31
0.0
  0
LINE
  5
195
330
12E
100
AcDbEntity
  8
0
  6
Continuous
 62
     7
370
    25
100
AcDbLine
 10
-180.3122292026
 20
173.4893777636
 30
0.0
 11
-272.2361107568
 21
120.4228504951
 31
0.0
  0
LINE
  5
196
330
12E
100
AcDbEntity
  8
0
  6
Continuous
 62
     7
370
    25
100
AcDbLine
 10
-81.3172798365
 20
120.4228504951
 30
0.0
 11
-173.2411613907
 21
173.4893777636
 31
0.0
  0
LINE
  5
197
330
12E
100
AcDbEntity
  8
0
  6
Continuous
 62
     7
370
    25
100
AcDbLine
 10
-173.2411613907
 20
63.2742826675
 30
0.0
 11
-81.3172798365
 21
116.340809936
 31
0.0
  0
LINE
  5
198
330
12E
100
AcDbEntity
  8
0
  6
Continuous
 62
     7
370
    25
100
AcDbLine
 10
-272.2361107568
 20
116.340809936
 30
0.0
 11
-180.3122292026
 21
63.2742826675
 31
0.0
  0
LINE
  5
199
330
12E
100
AcDbEntity
  8
0
  6
Continuous
 62
     7
370
    25
100
AcDbLine
 10
-180.3122292026
 20
63.2742826675
 30
0.0
 11
-180.3122292026
 21
56.7419561724
 31
0.0
  0
LINE
  5
19A
330
12E
100
AcDbEntity
  8
0
  6
Continuous
 62
     7
370
    25
100
AcDbLine
 10
-173.2411613907
 20
63.2742826675
 30
0.0
 11
-173.2411613907
 21
56.7419561724
 31
0.0
  0
LINE
  5
19B
330
12E
100
AcDbEntity
  8
0
  6
Continuous
 62
     7
370
    25
100
AcDbLine
 10
-81.3172798365
 20
116.340809936
 30
0.0
 11
-81.3172798365
 21
109.8084834409
 31
0.0
  0
LINE
  5
19C
330
12E
100
AcDbEntity
  8
0
  6
Continuous
 62
     7
370
    25
100
AcDbLine
 10
-173.2411613907
 20
56.7419561724
 30
0.0
 11
-81.3172798365
 21
109.8084834409
 31
0.0
  0
LINE
  5
19D
330
12E
100
AcDbEntity
  8
0
  6
Continuous
 62
     7
370
    25
100
AcDbLine
 10
-272.2361107568
 20
116.340809936
 30
0.0
 11
-272.2361107568
 21
109.8084834409
 31
0.0
  0
LINE
  5
19E
330
12E
100
AcDbEntity
  8
0
  6
Continuous
 62
     7
370
    25
100
AcDbLine
 10
-272.2361107568
 20
109.8084834409
 30
0.0
 11
-180.3122292026
 21
56.7419561724
 31
0.0
  0
LINE
  5
19F
330
12E
100
AcDbEntity
  8
0
  6
Continuous
 62
     7
370
    25
100
AcDbLine
 10
-180.7766952966
 20
57.0100867412
 30
0.0
 11
-180.7766952966
 21
55.9325063719
 31
0.0
  0
LINE
  5
1A0
330
12E
100
AcDbEntity
  8
0
  6
Continuous
 62
     7
370
    25
100
AcDbLine
 10
-172.7766952966
 20
57.0100867412
 30
0.0
 11
-172.7766952966
 21
55.8953957764
 31
0.0
  0
LINE
  5
1A1
330
12E
100
AcDbEntity
  8
0
  6
Continuous
 62
    60
370
    25
100
AcDbLine
 10
-288.1460133335
 20
118.4460446854
 30
0.0
 11
-288.1460133335
 21
120.5512893444
 31
0.0
  0
LINE
  5
1A2
330
12E
100
AcDbEntity
  8
0
  6
Continuous
 62
    60
370
    25
100
AcDbLine
 10
-65.4073772598
 20
117.926298265
 30
0.0
 11
-65.4073772598
 21
119.9866159851
 31
0.0
  0
LINE
  5
1A3
330
12E
100
AcDbEntity
  8
0
  6
Continuous
 62
    60
370
    25
100
AcDbLine
 10
-178.5444622496
 20
174.1483735243
 30
0.0
 11
-178.5444622496
 21
183.8229180106
 31
0.0
  0
LINE
  5
1A4
330
12E
100
AcDbEntity
  8
0
  6
Continuous
 62
    60
370
    25
100
AcDbLine
 10
-175.0089283437
 20
174.1483735243
 30
0.0
 11
-175.0089283437
 21
183.7586936312
 31
0.0
  0
LINE
  5
1A5
330
12E
100
AcDbEntity
  8
0
  6
Continuous
 62
    60
370
    25
100
AcDbLine
 10
-84.8528137424
 20
107.7674631614
 30
0.0
 11
-84.8528137424
 21
106.3899781377
 31
0.0
  0
LINE
  5
1A6
330
12E
100
AcDbEntity
  8
0
  6
Continuous
 62
    60
370
    25
100
AcDbLine
 10
-268.7005768509
 20
107.7674631614
 30
0.0
 11
-268.7005768509
 21
106.6608022558
 31
0.0
  0
ARC
  5
1A7
330
12E
100
AcDbEntity
  8
0
  6
Continuous
 62
     7
370
    25
100
AcDbCircle
 10
-176.7766952966
 20
166.6658223388
 30
0.0
 40
7.685109539558565
100
AcDbArc
 50
62.6096722366
 51
117.3903277634
  0
ARC
  5
1A8
330
12E
100
AcDbEntity
  8
0
  6
Continuous
 62
     7
370
    25
100
AcDbCircle
 10
-82.0919149704
 20
118.3818302156
 30
0.0
 40
2.183076584171356
100
AcDbArc
 50
290.7834207995
 51
69.2165792005
  0
ARC
  5
1A9
330
12E
100
AcDbEntity
  8
0
  6
Continuous
 62
     7
370
    25
100
AcDbCircle
 10
-176.7766952966
 20
70.0978380923
 30
0.0
 40
7.685109539559848
100
AcDbArc
 50
242.6096722366
 51
297.3903277634
  0
ARC
  5
1AA
330
12E
100
AcDbEntity
  8
0
  6
Continuous
 62
     7
370
    25
100
AcDbCircle
 10
-271.4614756228
 20
118.3818302156
 30
0.0
 40
2.183076584171354
100
AcDbArc
 50
110.7834207995
 51
249.2165792005
  0
ARC
  5
1AB
330
12E
100
AcDbEntity
  8
0
  6
Continuous
 62
     7
370
    25
100
AcDbCircle
 10
-176.7766952966
 20
63.5655115972
 30
0.0
 40
7.685109539559735
100
AcDbArc
 50
242.6096722366
 51
297.3903277634
  0
ARC
  5
1AC
330
12E
100
AcDbEntity
  8
0
  6
Continuous
 62
     7
370
    25
100
AcDbCircle
 10
-82.3550990548
 20
112.099035605
 30
0.0
 40
2.514696392469025
100
AcDbArc
 50
294.3746582936
 51
354.3052007488
  0
ARC
  5
1AD
330
12E
100
AcDbEntity
  8
0
  6
Continuous
 62
     7
370
    25
100
AcDbCircle
 10
-271.1982915384
 20
112.099035605
 30
0.0
 40
2.514696392468607
100
AcDbArc
 50
185.6947992512
 51
245.6253417064
  0
VIEWPORT
  5
284
330
12E
100
AcDbEntity
  8
0
100
AcDbViewport
 10
0.0
 20
0.0
 30
0.0
 40
205.6
 41
156.0
 68
     1
 69
     1
 12
0.0
 22
0.0
 13
0.0
 23
0.0
 14
10.0
 24
10.0
 15
10.0
 25
10.0
 16
0.0
 26
0.0
 36
1.0
 17
0.0
 27
0.0
 37
0.0
 42
50.0
 43
0.0
 44
0.0
 45
918.0
 50
0.0
 51
0.0
 72
   100
 90
   557152
  1

281
     0
 71
     1
 74
     0
110
0.0
120
0.0
130
0.0
111
1.0
121
0.0
131
0.0
112
0.0
122
1.0
132
0.0
 79
     0
146
0.0
  0
ENDBLK
  5
131
330
12E
100
AcDbEntity
  8
0
100
AcDbBlockEnd
  0
BLOCK
  5
1B0
330
1AE
100
AcDbEntity
  8
0
100
AcDbBlockBegin
  2
*Paper_Space6
 70
     0
 10
0.0
 20
0.0
 30
0.0
  3
*Paper_Space6
  1

  0
SPLINE
  5
1C3
330
1AE
100
AcDbEntity
  8
0
  6
Continuous
 62
     7
370
    25
100
AcDbSpline
210
0.0
220
0.0
230
1.0
 70
     8
 71
     3
 72
     8
 73
     4
 74
     0
 42
0.000000001
 43
0.00000001
 40
0.0
 40
0.0
 40
0.0
 40
0.0
 40
1.0
 40
1.0
 40
1.0
 40
1.0
 10
-180.6150813274669
 20
28.85844944850422
 30
0.0
 10
-182.5834617063657
 20
26.99624237820436
 30
0.0
 10
-184.5517605028618
 20
25.14217602470447
 30
0.0
 10
-186.5199733272413
 20
23.29668841652717
 30
0.0
  0
SPLINE
  5
1C6
330
1AE
100
AcDbEntity
  8
0
  6
Continuous
 62
     7
370
    25
100
AcDbSpline
210
0.0
220
0.0
230
1.0
 70
     8
 71
     3
 72
    20
 73
    16
 74
     0
 42
0.000000001
 43
0.00000001
 40
0.0
 40
0.0
 40
0.0
 40
0.0
 40
0.25
 40
0.25
 40
0.375
 40
0.375
 40
0.5
 40
0.5
 40
0.625
 40
0.625
 40
0.75
 40
0.75
 40
0.875
 40
0.875
 40
1.0
 40
1.0
 40
1.0
 40
1.0
 10
-189.89775710376
 20
22.77908820918763
 30
0.0
 10
-200.8892602608525
 20
25.63937863580089
 30
0.0
 10
-211.8807220886426
 20
28.49622527985482
 30
0.0
 10
-228.3681779635723
 20
32.80341283480414
 30
0.0
 10
-233.864026605984
 20
34.24305158672809
 30
0.0
 10
-244.855892226885
 20
37.14425372063376
 30
0.0
 10
-250.35190999034
 20
38.60583840598407
 30
0.0
 10
-261.3443136358911
 20
41.57727664219074
 30
0.0
 10
-266.8402715399254
 20
43.08894158872749
 30
0.0
 10
-277.8315729963886
 20
46.1776205454833
 30
0.0
 10
-283.3269224030174
 20
47.75402597933781
 30
0.0
 10
-294.3173687262556
 20
50.93363783010886
 30
0.0
 10
-299.8123612082676
 20
52.53497459592688
 30
0.0
 10
-310.802445477771
 20
55.73268420530304
 30
0.0
 10
-316.297526990469
 20
57.32957064867954
 30
0.0
 10
-321.7927225203904
 20
58.92075778283458
 30
0.0
  0
SPLINE
  5
1C7
330
1AE
100
AcDbEntity
  8
0
  6
Continuous
 62
     7
370
    25
100
AcDbSpline
210
0.0
220
0.0
230
1.0
 70
     8
 71
     3
 72
    20
 73
    16
 74
     0
 42
0.000000001
 43
0.00000001
 40
0.0
 40
0.0
 40
0.0
 40
0.0
 40
0.1249999999999995
 40
0.1249999999999995
 40
0.249999999999999
 40
0.249999999999999
 40
0.3749999999999985
 40
0.3749999999999985
 40
0.499999999999998
 40
0.499999999999998
 40
0.6249999999999976
 40
0.6249999999999976
 40
0.749999999999997
 40
0.749999999999997
 40
1.0
 40
1.0
 40
1.0
 40
1.0
 10
-186.5199733272413
 20
23.29668841652717
 30
0.0
 10
-186.5969978725301
 20
23.22446663131408
 30
0.0
 10
-186.687050886022
 20
23.15718299381443
 30
0.0
 10
-186.8921519430523
 20
23.0320920982088
 30
0.0
 10
-187.0086490771206
 20
22.97373953155579
 30
0.0
 10
-187.2607202996239
 20
22.87024427204907
 30
0.0
 10
-187.3955392499169
 20
22.82513646277289
 30
0.0
 10
-187.6825857825216
 20
22.74807710164214
 30
0.0
 10
-187.8359179369328
 20
22.71612314568551
 30
0.0
 10
-188.1473532644546
 20
22.66837143156229
 30
0.0
 10
-188.3068602403833
 20
22.65208739027156
 30
0.0
 10
-188.6336316564766
 20
22.63505281934627
 30
0.0
 10
-188.7985221867823
 20
22.63456710458983
 30
0.0
 10
-189.2846698420904
 20
22.65656215666922
 30
0.0
 10
-189.6057794785816
 20
22.70310762726477
 30
0.0
 10
-189.89775710376
 20
22.77908820918763
 30
0.0
  0
SPLINE
  5
1C8
330
1AE
100
AcDbEntity
  8
0
  6
Continuous
 62
     7
370
    25
100
AcDbSpline
210
0.0
220
0.0
230
1.0
 70
     8
 71
     3
 72
    14
 73
    10
 74
     0
 42
0.000000001
 43
0.00000001
 40
0.0
 40
0.0
 40
0.0
 40
0.0
 40
0.25
 40
0.25
 40
0.5
 40
0.5
 40
0.75
 40
0.75
 40
1.0
 40
1.0
 40
1.0
 40
1.0
 10
-120.087080042856
 20
87.9356342739421
 30
0.0
 10
-125.1309411121321
 20
82.91191572325634
 30
0.0
 10
-130.1748175263351
 20
77.89105894157933
 30
0.0
 10
-140.2628312308556
 20
67.89805177672021
 30
0.0
 10
-145.306902138574
 20
62.92882100794505
 30
0.0
 10
-155.3952593271237
 20
53.08227511958501
 30
0.0
 10
-160.4393301662429
 20
48.20517027690929
 30
0.0
 10
-170.5273438729217
 20
38.50575616394493
 30
0.0
 10
-175.5712202655257
 20
33.68065695145101
 30
0.0
 10
-180.6150813274669
 20
28.85844944850422
 30
0.0
  0
SPLINE
  5
1CB
330
1AE
100
AcDbEntity
  8
0
  6
Continuous
 62
     7
370
    25
100
AcDbSpline
210
0.0
220
0.0
230
1.0
 70
     8
 71
     3
 72
     8
 73
     4
 74
     0
 42
0.000000001
 43
0.00000001
 40
0.0
 40
0.0
 40
0.0
 40
0.0
 40
1.0
 40
1.0
 40
1.0
 40
1.0
 10
-252.3113037349501
 20
133.4425914866821
 30
0.0
 10
-250.5816364445857
 20
132.8899218852591
 30
0.0
 10
-248.8516856435058
 20
132.3431868642861
 30
0.0
 10
-247.1214602915804
 20
131.8021988715182
 30
0.0
  0
SPLINE
  5
1CC
330
1AE
100
AcDbEntity
  8
0
  6
Continuous
 62
     7
370
    25
100
AcDbSpline
210
0.0
220
0.0
230
1.0
 70
     8
 71
     3
 72
    20
 73
    16
 74
     0
 42
0.000000001
 43
0.00000001
 40
0.0
 40
0.0
 40
0.0
 40
0.0
 40
0.1249999999999951
 40
0.1249999999999951
 40
0.2499999999999902
 40
0.2499999999999902
 40
0.3749999999999852
 40
0.3749999999999852
 40
0.4999999999999803
 40
0.4999999999999803
 40
0.6249999999999755
 40
0.6249999999999755
 40
0.7499999999999705
 40
0.7499999999999705
 40
1.0
 40
1.0
 40
1.0
 40
1.0
 10
-255.6890875114692
 20
132.9721535305355
 30
0.0
 10
-255.6120335940273
 20
133.0501108938642
 30
0.0
 10
-255.5219370673594
 20
133.1221419864359
 30
0.0
 10
-255.3167136324778
 20
133.2548451108041
 30
0.0
 10
-255.2001280795076
 20
133.3160798784824
 30
0.0
 10
-254.9479230138974
 20
133.4232094173524
 30
0.0
 10
-254.813030129666
 20
133.4691048196967
 30
0.0
 10
-254.5258189347951
 20
133.5457192960025
 30
0.0
 10
-254.3724408260236
 20
133.5763952453936
 30
0.0
 10
-254.060961241098
 20
133.6196608593171
 30
0.0
 10
-253.9014321463604
 20
133.6327489167213
 30
0.0
 10
-253.5746144731558
 20
133.6414532757471
 30
0.0
 10
-253.4098598741325
 20
133.6368538845949
 30
0.0
 10
-252.9239165070738
 20
133.5973511576611
 30
0.0
 10
-252.6030412137842
 20
133.5358085100053
 30
0.0
 10
-252.3113037349501
 20
133.4425914866821
 30
0.0
  0
SPLINE
  5
1CD
330
1AE
100
AcDbEntity
  8
0
  6
Continuous
 62
     7
370
    25
100
AcDbSpline
210
0.0
220
0.0
230
1.0
 70
     8
 71
     3
 72
    22
 73
    18
 74
     0
 42
0.000000001
 43
0.00000001
 40
0.0
 40
0.0
 40
0.0
 40
0.0
 40
0.1249999999999999
 40
0.1249999999999999
 40
0.2499999999999998
 40
0.2499999999999998
 40
0.3749999999999998
 40
0.3749999999999998
 40
0.4999999999999997
 40
0.4999999999999997
 40
0.6249999999999997
 40
0.6249999999999997
 40
0.7499999999999997
 40
0.7499999999999997
 40
0.8749999999999998
 40
0.8749999999999998
 40
1.0
 40
1.0
 40
1.0
 40
1.0
 10
-328.0268727956289
 20
62.36825747587304
 30
0.0
 10
-325.0129449330452
 20
65.20236373112778
 30
0.0
 10
-321.9990630795432
 20
68.03177241941914
 30
0.0
 10
-315.9713781814207
 20
73.68254334117354
 30
0.0
 10
-312.9575796961872
 20
76.50344005730075
 30
0.0
 10
-306.9299752963562
 20
82.14599203399779
 30
0.0
 10
-303.916185096131
 20
84.96604284364479
 30
0.0
 10
-297.8881654831252
 20
90.65098844393117
 30
0.0
 10
-294.8738877792493
 20
93.52048671845715
 30
0.0
 10
-288.8439111456244
 20
99.40590125789693
 30
0.0
 10
-285.8295319925017
 20
102.4205361498605
 30
0.0
 10
-279.8012235823753
 20
108.502927875511
 30
0.0
 10
-276.7872559971956
 20
111.5661597065874
 30
0.0
 10
-270.7593004704164
 20
117.6902172195898
 30
0.0
 10
-267.7453269883227
 20
120.7526185428203
 30
0.0
 10
-261.7172789726215
 20
126.8686274887039
 30
0.0
 10
-258.7032096803318
 20
129.9226912210756
 30
0.0
 10
-255.6890875114692
 20
132.9721535305354
 30
0.0
  0
SPLINE
  5
1CE
330
1AE
100
AcDbEntity
  8
0
  6
Continuous
 62
     7
370
    25
100
AcDbSpline
210
0.0
220
0.0
230
1.0
 70
     8
 71
     3
 72
    20
 73
    16
 74
     0
 42
0.000000001
 43
0.00000001
 40
0.0
 40
0.0
 40
0.0
 40
0.0
 40
0.1249999999999992
 40
0.1249999999999992
 40
0.2499999999999984
 40
0.2499999999999984
 40
0.3749999999999976
 40
0.3749999999999976
 40
0.4999999999999968
 40
0.4999999999999968
 40
0.624999999999996
 40
0.624999999999996
 40
0.7499999999999951
 40
0.7499999999999951
 40
1.0
 40
1.0
 40
1.0
 40
1.0
 10
-326.9825659637605
 20
60.56115039799843
 30
0.0
 10
-327.1284371590355
 20
60.60775969436476
 30
0.0
 10
-327.2643468704788
 20
60.6607272015454
 30
0.0
 10
-327.5170463402733
 20
60.77886891231746
 30
0.0
 10
-327.6349366439195
 20
60.84484593768784
 30
0.0
 10
-327.8440725362431
 20
60.98560375494904
 30
0.0
 10
-327.93523319872
 20
61.05997909489849
 30
0.0
 10
-328.0909717708387
 20
61.21663737784235
 30
0.0
 10
-328.1555654499472
 20
61.29950941532184
 30
0.0
 10
-328.2520718319038
 20
61.46628050092509
 30
0.0
 10
-328.2849663261538
 20
61.55095068430629
 30
0.0
 10
-328.3193095876536
 20
61.72289401704826
 30
0.0
 10
-328.3202229179813
 20
61.808932913702
 30
0.0
 10
-328.2754416991829
 20
62.06033126509649
 30
0.0
 10
-328.1809842057539
 20
62.22334089811955
 30
0.0
 10
-328.0268727956289
 20
62.36825747587304
 30
0.0
  0
SPLINE
  5
1CF
330
1AE
100
AcDbEntity
  8
0
  6
Continuous
 62
     7
370
    25
100
AcDbSpline
210
0.0
220
0.0
230
1.0
 70
     8
 71
     3
 72
     8
 73
     4
 74
     0
 42
0.000000001
 43
0.00000001
 40
0.0
 40
0.0
 40
0.0
 40
0.0
 40
1.0
 40
1.0
 40
1.0
 40
1.0
 10
-321.7927225203904
 20
58.92075778283458
 30
0.0
 10
-323.5229478723158
 20
59.46174577560245
 30
0.0
 10
-325.2528986733961
 20
60.00848079657543
 30
0.0
 10
-326.9825659637606
 20
60.56115039799838
 30
0.0
  0
SPLINE
  5
1D0
330
1AE
100
AcDbEntity
  8
0
  6
Continuous
 62
     7
370
    25
100
AcDbSpline
210
0.0
220
0.0
230
1.0
 70
     8
 71
     3
 72
     8
 73
     4
 74
     0
 42
0.000000001
 43
0.00000001
 40
0.0
 40
0.0
 40
0.0
 40
0.0
 40
1.0
 40
1.0
 40
1.0
 40
1.0
 10
-114.1821880430816
 20
93.90058447118955
 30
0.0
 10
-116.1504008674611
 20
91.90399996947137
 30
0.0
 10
-118.1186996639572
 20
89.91582639023274
 30
0.0
 10
-120.087080042856
 20
87.9356342739421
 30
0.0
  0
SPLINE
  5
1D1
330
1AE
100
AcDbEntity
  8
0
  6
Continuous
 62
     7
370
    25
100
AcDbSpline
210
0.0
220
0.0
230
1.0
 70
     8
 71
     3
 72
    20
 73
    16
 74
     0
 42
0.000000001
 43
0.00000001
 40
0.0
 40
0.0
 40
0.0
 40
0.0
 40
0.125
 40
0.125
 40
0.25
 40
0.25
 40
0.375
 40
0.375
 40
0.5
 40
0.5
 40
0.625
 40
0.625
 40
0.75
 40
0.75
 40
1.0
 40
1.0
 40
1.0
 40
1.0
 10
-115.22649487495
 20
95.66052929787136
 30
0.0
 10
-115.0805066086866
 20
95.62253914907886
 30
0.0
 10
-114.9445077961624
 20
95.5775018335752
 30
0.0
 10
-114.6916745757657
 20
95.4739133608571
 30
0.0
 10
-114.5737373407309
 20
95.4146172732408
 30
0.0
 10
-114.3645874211363
 20
95.28551260084193
 30
0.0
 10
-114.2734388223991
 20
95.2160974727945
 30
0.0
 10
-114.1177518469245
 20
95.0676381267134
 30
0.0
 10
-114.0532139920371
 20
94.98801746078617
 30
0.0
 10
-113.9568176212846
 20
94.82571033213011
 30
0.0
 10
-113.9239754458849
 20
94.74229916095508
 30
0.0
 10
-113.8897278862926
 20
94.57086162249202
 30
0.0
 10
-113.8888571365918
 20
94.48409199469981
 30
0.0
 10
-113.933706416479
 20
94.2274504255111
 30
0.0
 10
-114.0281392644722
 20
94.05685385429204
 30
0.0
 10
-114.1821880430816
 20
93.90058447118955
 30
0.0
  0
SPLINE
  5
1D2
330
1AE
100
AcDbEntity
  8
0
  6
Continuous
 62
     7
370
    25
100
AcDbSpline
210
0.0
220
0.0
230
1.0
 70
     8
 71
     3
 72
    20
 73
    16
 74
     0
 42
0.000000001
 43
0.00000001
 40
0.0
 40
0.0
 40
0.0
 40
0.0
 40
0.125
 40
0.125
 40
0.25
 40
0.25
 40
0.375
 40
0.375
 40
0.5
 40
0.5
 40
0.625
 40
0.625
 40
0.75
 40
0.75
 40
1.0
 40
1.0
 40
1.0
 40
1.0
 10
-247.1214602915804
 20
131.8021988715183
 30
0.0
 10
-241.6262648669825
 20
130.2110117678607
 30
0.0
 10
-236.1311834628822
 20
128.6141253561753
 30
0.0
 10
-225.1410994128401
 20
125.4164158107635
 30
0.0
 10
-219.6461069267768
 20
123.8150790440051
 30
0.0
 10
-208.6556610432064
 20
120.6354673184249
 30
0.0
 10
-203.1603119574411
 20
119.0590619721948
 30
0.0
 10
-192.1690100914975
 20
115.9703828930441
 30
0.0
 10
-186.6730509976149
 20
114.458717617976
 30
0.0
 10
-175.6806466756398
 20
111.4872792033453
 30
0.0
 10
-170.184629680344
 20
110.0256947251284
 30
0.0
 10
-159.1927642232376
 20
107.1244926351086
 30
0.0
 10
-153.696915584974
 20
105.6848538842839
 30
0.0
 10
-137.2094597404312
 20
101.3776663374925
 30
0.0
 10
-126.2179979863018
 20
98.52081971258161
 30
0.0
 10
-115.22649487495
 20
95.66052929787136
 30
0.0
  0
SPLINE
  5
1D8
330
1AE
100
AcDbEntity
  8
0
  6
Continuous
 62
     7
370
    25
100
AcDbSpline
210
0.0
220
0.0
230
1.0
 70
     8
 71
     3
 72
    10
 73
     6
 74
     0
 42
0.000000001
 43
0.00000001
 40
0.0
 40
0.0
 40
0.0
 40
0.0
 40
0.2778512484201244
 40
0.7407030073046422
 40
0.9999999999999999
 40
0.9999999999999999
 40
0.9999999999999999
 40
0.9999999999999999
 10
-180.7733100213036
 20
32.49103218138348
 30
0.0
 10
-179.9208944515359
 20
32.85608242250272
 30
0.0
 10
-177.6485030925253
 20
33.82924274822302
 30
0.0
 10
-174.8106133525595
 20
35.2824311250754
 30
0.0
 10
-172.9659849964398
 20
36.41469363852071
 30
0.0
 10
-172.3036469610475
 20
36.8212473631318
 30
0.0
  0
SPLINE
  5
1D9
330
1AE
100
AcDbEntity
  8
0
  6
Continuous
 62
     7
370
    25
100
AcDbSpline
210
0.0
220
0.0
230
1.0
 70
     8
 71
     3
 72
    10
 73
     6
 74
     0
 42
0.000000001
 43
0.00000001
 40
0.0
 40
0.0
 40
0.0
 40
0.0
 40
0.4356878992717891
 40
0.877880432484536
 40
1.0
 40
1.0
 40
1.0
 40
1.0
 10
-158.2628313814956
 20
50.3459002561439
 30
0.0
 10
-157.8553168184657
 20
51.21340442609404
 30
0.0
 10
-157.0342036743219
 20
52.96136423211772
 30
0.0
 10
-156.4303652626735
 20
54.97842883736084
 30
0.0
 10
-156.33162097011
 20
56.12056360641006
 30
0.0
 10
-156.3102522801831
 20
56.36772648642037
 30
0.0
  0
LWPOLYLINE
  5
1DE
330
1AE
100
AcDbEntity
  8
0
  6
Continuous
 62
     7
370
    25
100
AcDbPolyline
 90
        9
 70
   128
 43
0.0
 10
-128.8600616215
 20
90.0172924994
 10
-128.489792084
 20
90.4847123099
 10
-128.3036902593
 20
90.9803550718
 10
-128.3089079363
 20
91.4851735118
 10
-128.5052446024
 20
91.9797677404
 10
-128.8851551496
 20
92.4451307787
 10
-129.4340398289
 20
92.8633789861
 10
-130.1308053096
 20
93.2184393187
 10
-130.9486752852
 20
93.4966670069
  0
LWPOLYLINE
  5
1E2
330
1AE
100
AcDbEntity
  8
0
  6
Continuous
 62
     7
370
    25
100
AcDbPolyline
 90
        9
 70
   128
 43
0.0
 10
-313.3489992172
 20
64.4523468706
 10
-313.7192687547
 20
63.9849270602
 10
-313.9053705794
 20
63.4892842983
 10
-313.9001529024
 20
62.9844658583
 10
-313.7038162364
 20
62.4898716297
 10
-313.3239056891
 20
62.0245085914
 10
-312.7750210098
 20
61.6062603839
 10
-312.0782555291
 20
61.2512000514
 10
-311.2603855535
 20
60.9729723632
  0
LINE
  5
1EF
330
1AE
100
AcDbEntity
  8
0
  6
Continuous
 62
     7
370
    25
100
AcDbLine
 10
-189.9525527908
 20
22.7604948086
 30
0.0
 11
-189.9525527908
 21
23.6004984579
 31
0.0
  0
LINE
  5
1F0
330
1AE
100
AcDbEntity
  8
0
  6
Continuous
 62
     7
370
    25
100
AcDbLine
 10
-313.9269086088
 20
63.2505173972
 30
0.0
 11
-313.9269086088
 21
56.3931789916
 31
0.0
  0
LINE
  5
1F1
330
1AE
100
AcDbEntity
  8
0
  6
Continuous
 62
     7
370
    25
100
AcDbLine
 10
-128.2821522299
 20
84.3617835672
 30
0.0
 11
-128.2821522299
 21
91.2191219728
 31
0.0
  0
LINE
  5
1F2
330
1AE
100
AcDbEntity
  8
0
  6
Continuous
 62
     7
370
    25
100
AcDbLine
 10
-129.2821522299
 20
78.7956537138
 30
0.0
 11
-129.2821522299
 21
82.7479807202
 31
0.0
  0
LINE
  5
1F3
330
1AE
100
AcDbEntity
  8
0
  6
Continuous
 62
     7
370
    25
100
AcDbLine
 10
652.2219858572
 20
114.7969612445
 30
0.0
 11
-232.1961358202
 21
355.1628559285
 31
0.0
  0
LINE
  5
1F4
330
1AE
100
AcDbEntity
  8
0
  6
Continuous
 62
     7
370
    25
100
AcDbLine
 10
232.1961358202
 20
-295.1611448793
 30
0.0
 11
652.2219858572
 21
114.7969612445
 31
0.0
  0
LINE
  5
1F5
330
1AE
100
AcDbEntity
  8
0
  6
Continuous
 62
     7
370
    25
100
AcDbLine
 10
-652.2219858572
 20
-54.7952501954
 30
0.0
 11
232.1961358202
 21
-295.1611448793
 31
0.0
  0
LINE
  5
1F6
330
1AE
100
AcDbEntity
  8
0
  6
Continuous
 62
     7
370
    25
100
AcDbLine
 10
-232.1961358202
 20
355.1628559285
 30
0.0
 11
-652.2219858572
 21
-54.7952501954
 31
0.0
  0
LINE
  5
1F7
330
1AE
100
AcDbEntity
  8
0
  6
Continuous
 62
     7
370
    25
100
AcDbLine
 10
-223.8416811652
 20
341.2453578987
 30
0.0
 11
-625.1997156451
 21
-50.492387953
 31
0.0
  0
LINE
  5
1F8
330
1AE
100
AcDbEntity
  8
0
  6
Continuous
 62
     7
370
    25
100
AcDbLine
 10
-625.1997156451
 20
-50.492387953
 30
0.0
 11
223.8416811652
 21
-281.2436468495
 31
0.0
  0
LINE
  5
1F9
330
1AE
100
AcDbEntity
  8
0
  6
Continuous
 62
     7
370
    25
100
AcDbLine
 10
223.8416811652
 20
-281.2436468495
 30
0.0
 11
625.1997156451
 21
110.4940990021
 31
0.0
  0
LINE
  5
1FA
330
1AE
100
AcDbEntity
  8
0
  6
Continuous
 62
     7
370
    25
100
AcDbLine
 10
625.1997156451
 20
110.4940990021
 30
0.0
 11
-223.8416811652
 21
341.2453578987
 31
0.0
  0
LINE
  5
1FB
330
1AE
100
AcDbEntity
  8
0
  6
Continuous
 62
     7
370
    25
100
AcDbLine
 10
-652.2219858572
 20
-54.7952501954
 30
0.0
 11
-652.2219858572
 21
-84.79610572
 31
0.0
  0
LINE
  5
1FC
330
1AE
100
AcDbEntity
  8
0
  6
Continuous
 62
     7
370
    25
100
AcDbLine
 10
232.1961358202
 20
-295.1611448793
 30
0.0
 11
232.1961358202
 21
-325.1620004039
 31
0.0
  0
LINE
  5
1FD
330
1AE
100
AcDbEntity
  8
0
  6
Continuous
 62
     7
370
    25
100
AcDbLine
 10
-652.2219858572
 20
-84.79610572
 30
0.0
 11
232.1961358202
 21
-325.1620004039
 31
0.0
  0
LINE
  5
1FE
330
1AE
100
AcDbEntity
  8
0
  6
Continuous
 62
     7
370
    25
100
AcDbLine
 10
652.2219858572
 20
114.7969612445
 30
0.0
 11
652.2219858572
 21
84.79610572
 31
0.0
  0
LINE
  5
1FF
330
1AE
100
AcDbEntity
  8
0
  6
Continuous
 62
     7
370
    25
100
AcDbLine
 10
232.1961358202
 20
-325.1620004039
 30
0.0
 11
652.2219858572
 21
84.79610572
 31
0.0
  0
LINE
  5
200
330
1AE
100
AcDbEntity
  8
0
  6
Continuous
 62
     7
370
    25
100
AcDbLine
 10
223.8416811652
 20
-281.2436468495
 30
0.0
 11
-180.6150813275
 21
28.8584494485
 31
0.0
  0
LINE
  5
201
330
1AE
100
AcDbEntity
  8
0
  6
Continuous
 62
     7
370
    25
100
AcDbLine
 10
-625.1997156451
 20
-50.492387953
 30
0.0
 11
-321.7927225204
 21
58.9207577828
 31
0.0
  0
LINE
  5
202
330
1AE
100
AcDbEntity
  8
0
  6
Continuous
 62
     7
370
    25
100
AcDbLine
 10
625.1997156451
 20
110.4940990021
 30
0.0
 11
-120.0870800429
 21
87.9356342739
 31
0.0
  0
LINE
  5
203
330
1AE
100
AcDbEntity
  8
0
  6
Continuous
 62
     7
370
    25
100
AcDbLine
 10
-247.1214602916
 20
131.8021988715
 30
0.0
 11
-223.8416811652
 21
341.2453578987
 31
0.0
  0
LINE
  5
204
330
1AE
100
AcDbEntity
  8
0
  6
Continuous
 62
     7
370
    25
100
AcDbLine
 10
-313.9269086088
 20
57.7807945191
 30
0.0
 11
-314.8308242551
 21
56.8985451375
 31
0.0
  0
LINE
  5
205
330
1AE
100
AcDbEntity
  8
0
  6
Continuous
 62
     7
370
    25
100
AcDbLine
 10
-126.9688010695
 20
81.0951445938
 30
0.0
 11
-129.2821522299
 21
81.7238638701
 31
0.0
  0
LINE
  5
206
330
1AE
100
AcDbEntity
  8
0
  6
Continuous
 62
     7
370
    25
100
AcDbLine
 10
-138.5487130429
 20
69.6181968326
 30
0.0
 11
-143.8209278165
 21
68.5576900409
 31
0.0
  0
LINE
  5
207
330
1AE
100
AcDbEntity
  8
0
  6
Continuous
 62
     7
370
    25
100
AcDbLine
 10
-156.4397336192
 20
56.2413487301
 30
0.0
 11
-156.3165062775
 21
55.5473112177
 31
0.0
  0
LINE
  5
208
330
1AE
100
AcDbEntity
  8
0
  6
Continuous
 62
     7
370
    25
100
AcDbLine
 10
-252.6785986563
 20
123.6685177552
 30
0.0
 11
-313.3489992172
 21
64.4523468706
 31
0.0
  0
LINE
  5
209
330
1AE
100
AcDbEntity
  8
0
  6
Continuous
 62
     7
370
    25
100
AcDbLine
 10
-130.9486752852
 20
93.4966670069
 30
0.0
 11
-245.9230311033
 21
124.7442333158
 31
0.0
  0
LINE
  5
20A
330
1AE
100
AcDbEntity
  8
0
  6
Continuous
 62
     7
370
    25
100
AcDbLine
 10
-189.5304621824
 20
30.8011216149
 30
0.0
 11
-128.8600616215
 21
90.0172924994
 31
0.0
  0
LINE
  5
20B
330
1AE
100
AcDbEntity
  8
0
  6
Continuous
 62
     7
370
    25
100
AcDbLine
 10
-311.2603855535
 20
60.9729723632
 30
0.0
 11
-196.2860297354
 21
29.7254060543
 31
0.0
  0
LINE
  5
20C
330
1AE
100
AcDbEntity
  8
0
  6
Continuous
 62
     7
370
    25
100
AcDbLine
 10
-189.5304621824
 20
30.8011216149
 30
0.0
 11
-189.5304621824
 21
23.9437832093
 31
0.0
  0
LINE
  5
20D
330
1AE
100
AcDbEntity
  8
0
  6
Continuous
 62
     7
370
    25
100
AcDbLine
 10
-128.8600616215
 20
90.0172924994
 30
0.0
 11
-128.8600616215
 21
83.1599540938
 31
0.0
  0
LINE
  5
20E
330
1AE
100
AcDbEntity
  8
0
  6
Continuous
 62
     7
370
    25
100
AcDbLine
 10
-189.5304621824
 20
23.9437832093
 30
0.0
 11
-128.8600616215
 21
83.1599540938
 31
0.0
  0
LINE
  5
20F
330
1AE
100
AcDbEntity
  8
0
  6
Continuous
 62
    60
370
    25
100
AcDbLine
 10
-328.0268727956
 20
61.175859964
 30
0.0
 11
-328.0268727956
 21
62.3682574759
 31
0.0
  0
LINE
  5
210
330
1AE
100
AcDbEntity
  8
0
  6
Continuous
 62
    60
370
    25
100
AcDbLine
 10
-255.6890875115
 20
120.7301883417
 30
0.0
 11
-255.6890875115
 21
132.9721535305
 31
0.0
  0
LINE
  5
211
330
1AE
100
AcDbEntity
  8
0
  6
Continuous
 62
    60
370
    25
100
AcDbLine
 10
-115.226494875
 20
92.8456560757
 30
0.0
 11
-115.226494875
 21
95.6605292979
 31
0.0
  0
LINE
  5
212
330
1AE
100
AcDbEntity
  8
0
  6
Continuous
 62
    60
370
    25
100
AcDbLine
 10
-252.311303735
 20
123.9734393604
 30
0.0
 11
-252.311303735
 21
133.4425914867
 31
0.0
  0
LINE
  5
213
330
1AE
100
AcDbEntity
  8
0
  6
Continuous
 62
    60
370
    25
100
AcDbLine
 10
-196.2860297354
 20
29.7254060543
 30
0.0
 11
-196.2860297354
 21
24.4429826562
 31
0.0
  0
LINE
  5
214
330
1AE
100
AcDbEntity
  8
0
  6
Continuous
 62
    60
370
    25
100
AcDbLine
 10
-311.2603855535
 20
60.9729723632
 30
0.0
 11
-311.2603855535
 21
55.8614449076
 31
0.0
  0
LINE
  5
215
330
1AE
100
AcDbEntity
  8
0
  6
Continuous
 62
    60
370
    25
100
AcDbLine
 10
-132.1006539219
 20
79.9970366636
 30
0.0
 11
-132.1006539219
 21
75.994038876
 31
0.0
  0
ARC
  5
216
330
1AE
100
AcDbEntity
  8
0
  6
Continuous
 62
     7
370
    25
100
AcDbCircle
 10
-248.2149977018
 20
117.3873691316
 30
0.0
 40
7.705618827393772
100
AcDbArc
 50
72.6960345908
 51
125.398914916
  0
ARC
  5
217
330
1AE
100
AcDbEntity
  8
0
  6
Continuous
 62
     7
370
    25
100
AcDbCircle
 10
-193.9940631369
 20
37.0822702385
 30
0.0
 40
7.705618827395318
100
AcDbArc
 50
252.6960345908
 51
305.398914916
  0
ARC
  5
218
330
1AE
100
AcDbEntity
  8
0
  6
Continuous
 62
     7
370
    25
100
AcDbCircle
 10
-192.5027406834
 20
27.2539686623
 30
0.0
 40
4.448793906372606
100
AcDbArc
 50
289.2502622573
 51
311.9212708261
  0
ARC
  5
219
330
1AE
100
AcDbEntity
  8
0
  6
Continuous
 62
     7
370
    25
100
AcDbCircle
 10
-129.9414313736
 20
84.419800389
 30
0.0
 40
1.660293115193565
100
AcDbArc
 50
310.6406362012
 51
357.9974645045
  0
VIEWPORT
  5
286
330
1AE
100
AcDbEntity
  8
0
100
AcDbViewport
 10
0.0
 20
0.0
 30
0.0
 40
205.6
 41
156.0
 68
     1
 69
     1
 12
0.0
 22
0.0
 13
0.0
 23
0.0
 14
10.0
 24
10.0
 15
10.0
 25
10.0
 16
0.0
 26
0.0
 36
1.0
 17
0.0
 27
0.0
 37
0.0
 42
50.0
 43
0.0
 44
0.0
 45
918.0
 50
0.0
 51
0.0
 72
   100
 90
   557152
  1

281
     0
 71
     1
 74
     0
110
0.0
120
0.0
130
0.0
111
1.0
121
0.0
131
0.0
112
0.0
122
1.0
132
0.0
 79
     0
146
0.0
  0
ENDBLK
  5
1B1
330
1AE
100
AcDbEntity
  8
0
100
AcDbBlockEnd
  0
BLOCK
  5
21C
330
21A
100
AcDbEntity
  8
0
100
AcDbBlockBegin
  2
*Paper_Space7
 70
     0
 10
0.0
 20
0.0
 30
0.0
  3
*Paper_Space7
  1

  0
SPLINE
  5
22E
330
21A
100
AcDbEntity
  8
0
  6
Continuous
 62
     7
370
    25
100
AcDbSpline
210
0.0
220
0.0
230
1.0
 70
     8
 71
     3
 72
     8
 73
     4
 74
     0
 42
0.000000001
 43
0.00000001
 40
0.0
 40
0.0
 40
0.0
 40
0.0
 40
1.0
 40
1.0
 40
1.0
 40
1.0
 10
-181.947470774466
 20
19.10174032331444
 30
0.0
 10
-183.4386523316113
 20
17.85152841767393
 30
0.0
 10
-184.9297720845569
 20
16.6102375118523
 30
0.0
 10
-186.4208267077967
 20
15.37834761915398
 30
0.0
  0
SPLINE
  5
231
330
21A
100
AcDbEntity
  8
0
  6
Continuous
 62
     7
370
    25
100
AcDbSpline
210
0.0
220
0.0
230
1.0
 70
     8
 71
     3
 72
    20
 73
    16
 74
     0
 42
0.000000001
 43
0.00000001
 40
0.0
 40
0.0
 40
0.0
 40
0.0
 40
0.25
 40
0.25
 40
0.375
 40
0.375
 40
0.5
 40
0.5
 40
0.625
 40
0.625
 40
0.75
 40
0.75
 40
0.875
 40
0.875
 40
1.0
 40
1.0
 40
1.0
 40
1.0
 10
-189.6432460508875
 20
14.91574504711924
 30
0.0
 10
-201.2685276831855
 20
16.24074289584622
 30
0.0
 10
-212.8937656031019
 20
17.56195973247243
 30
0.0
 10
-230.3319007886851
 20
19.56784882181426
 30
0.0
 10
-236.1446442654762
 20
20.24077372658222
 30
0.0
 10
-247.770309261523
 20
21.61071082120022
 30
0.0
 10
-253.5832316110061
 20
22.30774631283895
 30
0.0
 10
-265.2094656546156
 20
23.75484783551023
 30
0.0
 10
-271.0223246931381
 20
24.50697715069349
 30
0.0
 10
-282.6473929945942
 20
26.08321581978305
 30
0.0
 10
-288.4596084492857
 20
26.90665482300615
 30
0.0
 10
-300.0837723098813
 20
28.58305339866711
 30
0.0
 10
-305.8956102594096
 20
29.43397382117869
 30
0.0
 10
-317.5193911899753
 20
31.13033833306
 30
0.0
 10
-323.3313233037669
 20
31.97634903962465
 30
0.0
 10
-329.1433760091022
 20
32.81607211428425
 30
0.0
  0
SPLINE
  5
232
330
21A
100
AcDbEntity
  8
0
  6
Continuous
 62
     7
370
    25
100
AcDbSpline
210
0.0
220
0.0
230
1.0
 70
     8
 71
     3
 72
    20
 73
    16
 74
     0
 42
0.000000001
 43
0.00000001
 40
0.0
 40
0.0
 40
0.0
 40
0.0
 40
0.1249999999999995
 40
0.1249999999999995
 40
0.249999999999999
 40
0.249999999999999
 40
0.3749999999999985
 40
0.3749999999999985
 40
0.499999999999998
 40
0.499999999999998
 40
0.6249999999999976
 40
0.6249999999999976
 40
0.749999999999997
 40
0.749999999999997
 40
1.0
 40
1.0
 40
1.0
 40
1.0
 10
-186.4208267077967
 20
15.37834761915398
 30
0.0
 10
-186.4791780217061
 20
15.33013852425547
 30
0.0
 10
-186.5516943816886
 20
15.28446903946926
 30
0.0
 10
-186.7239026574845
 20
15.19800511163277
 30
0.0
 10
-186.8248960136389
 20
15.15681080672458
 30
0.0
 10
-187.0491205487505
 20
15.08186911574708
 30
0.0
 10
-187.1716111234128
 20
15.0481746841417
 30
0.0
 10
-187.437162128191
 20
14.98826642334689
 30
0.0
 10
-187.5813180786378
 20
14.96200538245152
 30
0.0
 10
-187.8784118841796
 20
14.91935355369202
 30
0.0
 10
-188.0326210056414
 20
14.90260159692076
 30
0.0
 10
-188.3526308919107
 20
14.87845225890558
 30
0.0
 10
-188.5161422446396
 20
14.87131814636104
 30
0.0
 10
-189.0040987417463
 20
14.86487130548407
 30
0.0
 10
-189.3344327726201
 20
14.88054788439195
 30
0.0
 10
-189.6432460508875
 20
14.91574504711924
 30
0.0
  0
SPLINE
  5
233
330
21A
100
AcDbEntity
  8
0
  6
Continuous
 62
     7
370
    25
100
AcDbSpline
210
0.0
220
0.0
230
1.0
 70
     8
 71
     3
 72
    14
 73
    10
 74
     0
 42
0.000000001
 43
0.00000001
 40
0.0
 40
0.0
 40
0.0
 40
0.0
 40
0.25
 40
0.25
 40
0.5
 40
0.5
 40
0.75
 40
0.75
 40
1.0
 40
1.0
 40
1.0
 40
1.0
 10
-136.0934071117417
 20
59.54122334205897
 30
0.0
 10
-139.9144737530968
 20
56.06053705881696
 30
0.0
 10
-143.7355520192741
 20
52.58300469251438
 30
0.0
 10
-151.3779061829679
 20
45.68161850584064
 30
0.0
 10
-155.1991317911663
 20
42.26094909197645
 30
0.0
 10
-162.8417461672943
 20
35.52079675721848
 30
0.0
 10
-166.662971723524
 20
32.20145777462723
 30
0.0
 10
-174.305325888853
 20
25.62299826096546
 30
0.0
 10
-178.1264041386675
 20
22.36078208618339
 30
0.0
 10
-181.947470774466
 20
19.10174032331444
 30
0.0
  0
SPLINE
  5
236
330
21A
100
AcDbEntity
  8
0
  6
Continuous
 62
     7
370
    25
100
AcDbSpline
210
0.0
220
0.0
230
1.0
 70
     8
 71
     3
 72
     8
 73
     4
 74
     0
 42
0.000000001
 43
0.00000001
 40
0.0
 40
0.0
 40
0.0
 40
0.0
 40
1.0
 40
1.0
 40
1.0
 40
1.0
 10
-278.0639273111826
 20
83.6492727700271
 30
0.0
 10
-276.2345260824994
 20
83.32795570086469
 30
0.0
 10
-274.4048249956562
 20
83.01321312304454
 30
0.0
 10
-272.5748335271556
 20
82.70483726103484
 30
0.0
  0
SPLINE
  5
237
330
21A
100
AcDbEntity
  8
0
  6
Continuous
 62
     7
370
    25
100
AcDbSpline
210
0.0
220
0.0
230
1.0
 70
     8
 71
     3
 72
    20
 73
    16
 74
     0
 42
0.000000001
 43
0.00000001
 40
0.0
 40
0.0
 40
0.0
 40
0.0
 40
0.1249999999999951
 40
0.1249999999999951
 40
0.2499999999999902
 40
0.2499999999999902
 40
0.3749999999999852
 40
0.3749999999999852
 40
0.4999999999999803
 40
0.4999999999999803
 40
0.6249999999999755
 40
0.6249999999999755
 40
0.7499999999999705
 40
0.7499999999999705
 40
1.0
 40
1.0
 40
1.0
 40
1.0
 10
-281.2863466542737
 20
83.2385445483215
 30
0.0
 10
-281.2279730889675
 20
83.29305036883241
 30
0.0
 10
-281.1554205072806
 20
83.34393019653942
 30
0.0
 10
-280.9831040295406
 20
83.43874677774909
 30
0.0
 10
-280.8820298031283
 20
83.4831018320782
 30
0.0
 10
-280.6576766014148
 20
83.56203854855303
 30
0.0
 10
-280.5351135800599
 20
83.59660056936232
 30
0.0
 10
-280.2693982247023
 20
83.65602811444418
 30
0.0
 10
-280.1251919328677
 20
83.68089437987958
 30
0.0
 10
-279.828043088619
 20
83.7186348850509
 30
0.0
 10
-279.6738063039577
 20
83.73188332826238
 30
0.0
 10
-279.3537380886787
 20
83.74689572416482
 30
0.0
 10
-279.1903547685325
 20
83.74844409280992
 30
0.0
 10
-278.7025884283006
 20
83.73564948817348
 30
0.0
 10
-278.3724865960839
 20
83.70346829779477
 30
0.0
 10
-278.0639273111826
 20
83.6492727700271
 30
0.0
  0
SPLINE
  5
238
330
21A
100
AcDbEntity
  8
0
  6
Continuous
 62
     7
370
    25
100
AcDbSpline
210
0.0
220
0.0
230
1.0
 70
     8
 71
     3
 72
    22
 73
    18
 74
     0
 42
0.000000001
 43
0.00000001
 40
0.0
 40
0.0
 40
0.0
 40
0.0
 40
0.1249999999999999
 40
0.1249999999999999
 40
0.2499999999999998
 40
0.2499999999999998
 40
0.3749999999999998
 40
0.3749999999999998
 40
0.4999999999999997
 40
0.4999999999999997
 40
0.6249999999999997
 40
0.6249999999999997
 40
0.7499999999999997
 40
0.7499999999999997
 40
0.8749999999999998
 40
0.8749999999999998
 40
1.0
 40
1.0
 40
1.0
 40
1.0
 10
-336.0871221836595
 20
34.90880331240672
 30
0.0
 10
-333.8038675386575
 20
36.80411633921395
 30
0.0
 10
-331.5206477486536
 20
38.69428110708164
 30
0.0
 10
-326.9542678717151
 20
42.46579219843412
 30
0.0
 10
-324.6711112388253
 20
44.34662834211639
 30
0.0
 10
-320.104792344799
 20
48.10913194987257
 30
0.0
 10
-317.8216419883647
 20
49.98904102947403
 30
0.0
 10
-313.2550085422147
 20
53.79800557186395
 30
0.0
 10
-310.971488868721
 20
55.73210488522701
 30
0.0
 10
-306.4033728468018
 20
59.76077427539116
 30
0.0
 10
-304.1197763186273
 20
61.85447003946646
 30
0.0
 10
-299.5529240890832
 20
66.10047346038736
 30
0.0
 10
-297.2696393515224
 20
68.24778847059483
 30
0.0
 10
-292.7030544550329
 20
72.53976368421353
 30
0.0
 10
-290.41976525016
 20
74.68616281762408
 30
0.0
 10
-285.8531102870429
 20
78.96924781316886
 30
0.0
 10
-283.5697484994523
 20
81.10643748111168
 30
0.0
 10
-281.2863466542738
 20
83.23854454832147
 30
0.0
  0
SPLINE
  5
239
330
21A
100
AcDbEntity
  8
0
  6
Continuous
 62
     7
370
    25
100
AcDbSpline
210
0.0
220
0.0
230
1.0
 70
     8
 71
     3
 72
    20
 73
    16
 74
     0
 42
0.000000001
 43
0.00000001
 40
0.0
 40
0.0
 40
0.0
 40
0.0
 40
0.1249999999999992
 40
0.1249999999999992
 40
0.2499999999999984
 40
0.2499999999999984
 40
0.3749999999999976
 40
0.3749999999999976
 40
0.4999999999999968
 40
0.4999999999999968
 40
0.624999999999996
 40
0.624999999999996
 40
0.7499999999999951
 40
0.7499999999999951
 40
1.0
 40
1.0
 40
1.0
 40
1.0
 10
-334.6324697931295
 20
33.76050762327643
 30
0.0
 10
-334.7867520330448
 20
33.78760584338043
 30
0.0
 10
-334.9327619449486
 20
33.81904013881426
 30
0.0
 10
-335.2089039290453
 20
33.890234506539
 30
0.0
 10
-335.3403070339069
 20
33.93049158390779
 30
0.0
 10
-335.5790416314168
 20
34.01728276998033
 30
0.0
 10
-335.686193556286
 20
34.06355578345163
 30
0.0
 10
-335.8762779644425
 20
34.16178893462295
 30
0.0
 10
-335.9593658238231
 20
34.21413045280834
 30
0.0
 10
-336.0937074359817
 20
34.32015970938679
 30
0.0
 10
-336.1461080735085
 20
34.37432650955544
 30
0.0
 10
-336.2206686682181
 20
34.48498898063202
 30
0.0
 10
-336.242009949787
 20
34.54069607633442
 30
0.0
 10
-336.2578120965165
 20
34.70441942289186
 30
0.0
 10
-336.2038720227595
 20
34.81189012254052
 30
0.0
 10
-336.0871221836595
 20
34.90880331240672
 30
0.0
  0
SPLINE
  5
23A
330
21A
100
AcDbEntity
  8
0
  6
Continuous
 62
     7
370
    25
100
AcDbSpline
210
0.0
220
0.0
230
1.0
 70
     8
 71
     3
 72
     8
 73
     4
 74
     0
 42
0.000000001
 43
0.00000001
 40
0.0
 40
0.0
 40
0.0
 40
0.0
 40
1.0
 40
1.0
 40
1.0
 40
1.0
 10
-329.1433760091022
 20
32.81607211428425
 30
0.0
 10
-330.9733674776027
 20
33.12444797629394
 30
0.0
 10
-332.8030685644464
 20
33.43919055411401
 30
0.0
 10
-334.6324697931296
 20
33.7605076232764
 30
0.0
  0
SPLINE
  5
23B
330
21A
100
AcDbEntity
  8
0
  6
Continuous
 62
     7
370
    25
100
AcDbSpline
210
0.0
220
0.0
230
1.0
 70
     8
 71
     3
 72
     8
 73
     4
 74
     0
 42
0.000000001
 43
0.00000001
 40
0.0
 40
0.0
 40
0.0
 40
0.0
 40
1.0
 40
1.0
 40
1.0
 40
1.0
 10
-131.620051178411
 20
63.70808885506872
 30
0.0
 10
-133.1111058016508
 20
62.31000559816619
 30
0.0
 10
-134.6022255545964
 20
60.921208476384
 30
0.0
 10
-136.0934071117417
 20
59.54122334205897
 30
0.0
  0
SPLINE
  5
23C
330
21A
100
AcDbEntity
  8
0
  6
Continuous
 62
     7
370
    25
100
AcDbSpline
210
0.0
220
0.0
230
1.0
 70
     8
 71
     3
 72
    20
 73
    16
 74
     0
 42
0.000000001
 43
0.00000001
 40
0.0
 40
0.0
 40
0.0
 40
0.0
 40
0.125
 40
0.125
 40
0.25
 40
0.25
 40
0.375
 40
0.375
 40
0.5
 40
0.5
 40
0.625
 40
0.625
 40
0.75
 40
0.75
 40
1.0
 40
1.0
 40
1.0
 40
1.0
 10
-133.0747035689409
 20
64.80451019386994
 30
0.0
 10
-132.9202975076345
 20
64.78691167836448
 30
0.0
 10
-132.7741897663393
 20
64.76422149578703
 30
0.0
 10
-132.4978943208694
 20
64.70907941144861
 30
0.0
 10
-132.3664325449913
 20
64.67619574870487
 30
0.0
 10
-132.1276662618549
 20
64.60225639341242
 30
0.0
 10
-132.020518122418
 20
64.56145425890064
 30
0.0
 10
-131.8304708652075
 20
64.47226382653301
 30
0.0
 10
-131.7474366539053
 20
64.42349955106764
 30
0.0
 10
-131.6132064173168
 20
64.32237150557597
 30
0.0
 10
-131.560859822481
 20
64.2695833010726
 30
0.0
 10
-131.4864007148602
 20
64.15946079555455
 30
0.0
 10
-131.4651165467768
 20
64.10291991946562
 30
0.0
 10
-131.4494108061256
 20
63.93337174020245
 30
0.0
 10
-131.5033487869293
 20
63.81751453071335
 30
0.0
 10
-131.620051178411
 20
63.70808885506872
 30
0.0
  0
SPLINE
  5
23D
330
21A
100
AcDbEntity
  8
0
  6
Continuous
 62
     7
370
    25
100
AcDbSpline
210
0.0
220
0.0
230
1.0
 70
     8
 71
     3
 72
    20
 73
    16
 74
     0
 42
0.000000001
 43
0.00000001
 40
0.0
 40
0.0
 40
0.0
 40
0.0
 40
0.125
 40
0.125
 40
0.25
 40
0.25
 40
0.375
 40
0.375
 40
0.5
 40
0.5
 40
0.625
 40
0.625
 40
0.75
 40
0.75
 40
1.0
 40
1.0
 40
1.0
 40
1.0
 10
-272.5748335271556
 20
82.70483726103495
 30
0.0
 10
-266.7627809332168
 20
81.8651142024699
 30
0.0
 10
-260.9508489342846
 20
81.01910351277024
 30
0.0
 10
-249.3270682358347
 20
79.32273903488378
 30
0.0
 10
-243.5152302820214
 20
78.47181861200902
 30
0.0
 10
-231.8910668864451
 20
76.79542010120296
 30
0.0
 10
-226.0788517711185
 20
75.97198114119847
 30
0.0
 10
-214.453783036571
 20
74.39574240532791
 30
0.0
 10
-208.6409227395927
 20
73.64361292592287
 30
0.0
 10
-197.0146879805561
 20
72.1965113190706
 30
0.0
 10
-191.2017664435248
 20
71.49947592799197
 30
0.0
 10
-179.5761016207171
 20
70.12953885450706
 30
0.0
 10
-173.7633581483133
 20
69.45661395026094
 30
0.0
 10
-156.3252229948691
 20
67.45072486485765
 30
0.0
 10
-144.6999851528607
 20
66.129508037083
 30
0.0
 10
-133.0747035689409
 20
64.80451019386994
 30
0.0
  0
SPLINE
  5
23E
330
21A
100
AcDbEntity
  8
0
  6
Continuous
 62
     7
370
    25
100
AcDbSpline
210
0.0
220
0.0
230
1.0
 70
     8
 71
     3
 72
     9
 73
     5
 74
     0
 42
0.000000001
 43
0.00000001
 40
0.0
 40
0.0
 40
0.0
 40
0.0
 40
0.9821250129443605
 40
1.0
 40
1.0
 40
1.0
 40
1.0
 10
-160.856541396642
 20
37.29264494853714
 30
0.0
 10
-161.7501368054525
 20
37.11532144257826
 30
0.0
 10
-162.6599959344157
 20
36.93477059251158
 30
0.0
 10
-163.5698095233579
 20
36.75322588765928
 30
0.0
 10
-163.5860724294833
 20
36.74998077841002
 30
0.0
  0
SPLINE
  5
23F
330
21A
100
AcDbEntity
  8
0
  6
Continuous
 62
     7
370
    25
100
AcDbSpline
210
0.0
220
0.0
230
1.0
 70
     8
 71
     3
 72
     9
 73
     5
 74
     0
 42
0.000000001
 43
0.00000001
 40
0.0
 40
0.0
 40
0.0
 40
0.0
 40
0.2730012504726928
 40
1.0
 40
1.0
 40
1.0
 40
1.0
 10
-169.2089154453037
 20
30.02225393105691
 30
0.0
 10
-169.232203615582
 20
30.13978573907987
 30
0.0
 10
-169.3175078778813
 20
30.57030321040816
 30
0.0
 10
-169.5776484922816
 20
30.99231528235556
 30
0.0
 10
-169.7667703936519
 20
31.29911753094674
 30
0.0
  0
LWPOLYLINE
  5
240
330
21A
100
AcDbEntity
  8
0
  6
Continuous
 62
     7
370
    25
100
AcDbPolyline
 90
        3
 70
   128
 43
0.0
 10
-172.6317361824
 20
28.7724552003
 10
-172.2023548976
 20
28.3579929042
 10
-171.6727723451
 20
27.8049959828
  0
LWPOLYLINE
  5
244
330
21A
100
AcDbEntity
  8
0
  6
Continuous
 62
     7
370
    25
100
AcDbPolyline
 90
        9
 70
   128
 43
0.0
 10
-145.3936120271
 20
60.3366950988
 10
-145.1386064249
 20
60.6521679576
 10
-145.0731377889
 20
60.9781621357
 10
-145.1997220419
 20
61.3021498594
 10
-145.513494622
 20
61.6116804624
 10
-146.0023974251
 20
61.894858857
 10
-146.6476421905
 20
62.1408026564
 10
-147.4244325238
 20
62.3400603784
 10
-148.3029168081
 20
62.4849746603
  0
LWPOLYLINE
  5
248
330
21A
100
AcDbEntity
  8
0
  6
Continuous
 62
     7
370
    25
100
AcDbPolyline
 90
        9
 70
   128
 43
0.0
 10
-322.313561335
 20
36.301231637
 10
-322.5685669371
 20
35.9857587781
 10
-322.6340355732
 20
35.6597646001
 10
-322.5074513202
 20
35.3357768763
 10
-322.19367874
 20
35.0262462734
 10
-321.704775937
 20
34.7430678787
 10
-321.0595311716
 20
34.4971240793
 10
-320.2827408383
 20
34.2978663574
 10
-319.404256554
 20
34.1529520754
  0
LWPOLYLINE
  5
24B
330
21A
100
AcDbEntity
  8
0
  6
Continuous
 62
     7
370
    25
100
AcDbPolyline
 90
        3
 70
   128
 43
0.0
 10
-145.3936120271
 20
52.7942227659
 10
-145.1386064249
 20
53.1096956248
 10
-145.0706837607
 20
53.3834784166
  0
LINE
  5
254
330
21A
100
AcDbEntity
  8
0
  6
Continuous
 62
     7
370
    25
100
AcDbLine
 10
-322.6364896014
 20
35.7119759863
 30
0.0
 11
-322.6364896014
 21
31.8698095222
 31
0.0
  0
LINE
  5
255
330
21A
100
AcDbEntity
  8
0
  6
Continuous
 62
     7
370
    25
100
AcDbLine
 10
-145.0706837607
 20
53.3834784166
 30
0.0
 11
-145.0706837607
 21
60.9259507495
 31
0.0
  0
LINE
  5
256
330
21A
100
AcDbEntity
  8
0
  6
Continuous
 62
     7
370
    25
100
AcDbLine
 10
-146.0706837607
 20
50.4816642454
 30
0.0
 11
-146.0706837607
 21
52.1971016236
 31
0.0
  0
LINE
  5
257
330
21A
100
AcDbEntity
  8
0
  6
Continuous
 62
     7
370
    25
100
AcDbLine
 10
626.8061990925
 20
114.3849033602
 30
0.0
 11
-308.6081476316
 21
232.2360335029
 31
0.0
  0
LINE
  5
258
330
21A
100
AcDbEntity
  8
0
  6
Continuous
 62
     7
370
    25
100
AcDbLine
 10
308.6081476316
 20
-166.2394005902
 30
0.0
 11
626.8061990925
 21
114.3849033602
 31
0.0
  0
LINE
  5
259
330
21A
100
AcDbEntity
  8
0
  6
Continuous
 62
     7
370
    25
100
AcDbLine
 10
-626.8061990925
 20
-48.3882704475
 30
0.0
 11
308.6081476316
 21
-166.2394005902
 31
0.0
  0
LINE
  5
25A
330
21A
100
AcDbEntity
  8
0
  6
Continuous
 62
     7
370
    25
100
AcDbLine
 10
-308.6081476316
 20
232.2360335029
 30
0.0
 11
-626.8061990925
 21
-48.3882704475
 31
0.0
  0
LINE
  5
25B
330
21A
100
AcDbEntity
  8
0
  6
Continuous
 62
     7
370
    25
100
AcDbLine
 10
-296.9709285074
 20
223.6429152567
 30
0.0
 11
-601.0268443478
 21
-44.5091974071
 31
0.0
  0
LINE
  5
25C
330
21A
100
AcDbEntity
  8
0
  6
Continuous
 62
     7
370
    25
100
AcDbLine
 10
-601.0268443478
 20
-44.5091974071
 30
0.0
 11
296.9709285074
 21
-157.646282344
 31
0.0
  0
LINE
  5
25D
330
21A
100
AcDbEntity
  8
0
  6
Continuous
 62
     7
370
    25
100
AcDbLine
 10
296.9709285074
 20
-157.646282344
 30
0.0
 11
601.0268443478
 21
110.5058303198
 31
0.0
  0
LINE
  5
25E
330
21A
100
AcDbEntity
  8
0
  6
Continuous
 62
     7
370
    25
100
AcDbLine
 10
601.0268443478
 20
110.5058303198
 30
0.0
 11
-296.9709285074
 21
223.6429152567
 31
0.0
  0
LINE
  5
25F
330
21A
100
AcDbEntity
  8
0
  6
Continuous
 62
     7
370
    25
100
AcDbLine
 10
-626.8061990925
 20
-48.3882704475
 30
0.0
 11
-626.8061990925
 21
-81.3865869039
 31
0.0
  0
LINE
  5
260
330
21A
100
AcDbEntity
  8
0
  6
Continuous
 62
     7
370
    25
100
AcDbLine
 10
308.6081476316
 20
-166.2394005902
 30
0.0
 11
308.6081476316
 21
-199.2377170466
 31
0.0
  0
LINE
  5
261
330
21A
100
AcDbEntity
  8
0
  6
Continuous
 62
     7
370
    25
100
AcDbLine
 10
-626.8061990925
 20
-81.3865869039
 30
0.0
 11
308.6081476316
 21
-199.2377170466
 31
0.0
  0
LINE
  5
262
330
21A
100
AcDbEntity
  8
0
  6
Continuous
 62
     7
370
    25
100
AcDbLine
 10
626.8061990925
 20
114.3849033602
 30
0.0
 11
626.8061990925
 21
81.3865869039
 31
0.0
  0
LINE
  5
263
330
21A
100
AcDbEntity
  8
0
  6
Continuous
 62
     7
370
    25
100
AcDbLine
 10
308.6081476316
 20
-199.2377170466
 30
0.0
 11
626.8061990925
 21
81.3865869039
 31
0.0
  0
LINE
  5
264
330
21A
100
AcDbEntity
  8
0
  6
Continuous
 62
     7
370
    25
100
AcDbLine
 10
296.9709285074
 20
-157.646282344
 30
0.0
 11
-181.9474707745
 21
19.1017403233
 31
0.0
  0
LINE
  5
265
330
21A
100
AcDbEntity
  8
0
  6
Continuous
 62
     7
370
    25
100
AcDbLine
 10
-601.0268443478
 20
-44.5091974071
 30
0.0
 11
-329.1433760091
 21
32.8160721143
 31
0.0
  0
LINE
  5
266
330
21A
100
AcDbEntity
  8
0
  6
Continuous
 62
     7
370
    25
100
AcDbLine
 10
601.0268443478
 20
110.5058303198
 30
0.0
 11
-136.0934071117
 21
59.5412233421
 31
0.0
  0
LINE
  5
267
330
21A
100
AcDbEntity
  8
0
  6
Continuous
 62
     7
370
    25
100
AcDbLine
 10
-272.5748335272
 20
82.704837261
 30
0.0
 11
-296.9709285074
 21
223.6429152567
 31
0.0
  0
LINE
  5
268
330
21A
100
AcDbEntity
  8
0
  6
Continuous
 62
     7
370
    25
100
AcDbLine
 10
-276.3516205684
 20
76.8358533187
 30
0.0
 11
-322.313561335
 21
36.301231637
 31
0.0
  0
LINE
  5
269
330
21A
100
AcDbEntity
  8
0
  6
Continuous
 62
     7
370
    25
100
AcDbLine
 10
-148.3029168081
 20
62.4849746603
 30
0.0
 11
-269.9067818823
 21
77.8056215789
 31
0.0
  0
LINE
  5
26A
330
21A
100
AcDbEntity
  8
0
  6
Continuous
 62
     7
370
    25
100
AcDbLine
 10
-191.3555527936
 20
19.802073417
 30
0.0
 11
-145.3936120271
 21
60.3366950988
 31
0.0
  0
LINE
  5
26B
330
21A
100
AcDbEntity
  8
0
  6
Continuous
 62
     7
370
    25
100
AcDbLine
 10
-319.404256554
 20
34.1529520754
 30
0.0
 11
-197.8003914798
 21
18.8323051569
 31
0.0
  0
LINE
  5
26C
330
21A
100
AcDbEntity
  8
0
  6
Continuous
 62
     7
370
    25
100
AcDbLine
 10
-145.3936120271
 20
60.3366950988
 30
0.0
 11
-145.3936120271
 21
52.7942227659
 31
0.0
  0
LINE
  5
26D
330
21A
100
AcDbEntity
  8
0
  6
Continuous
 62
     7
370
    25
100
AcDbLine
 10
-188.3799986993
 20
14.883793133
 30
0.0
 11
-145.3936120271
 21
52.7942227659
 31
0.0
  0
LINE
  5
26E
330
21A
100
AcDbEntity
  8
0
  6
Continuous
 62
    60
370
    25
100
AcDbLine
 10
-336.0871221837
 20
34.3521789489
 30
0.0
 11
-336.0871221837
 21
34.9088033124
 31
0.0
  0
LINE
  5
26F
330
21A
100
AcDbEntity
  8
0
  6
Continuous
 62
    60
370
    25
100
AcDbLine
 10
-281.2863466543
 20
72.4838339815
 30
0.0
 11
-281.2863466543
 21
83.2385445483
 31
0.0
  0
LINE
  5
270
330
21A
100
AcDbEntity
  8
0
  6
Continuous
 62
    60
370
    25
100
AcDbLine
 10
-133.0747035689
 20
62.3531014653
 30
0.0
 11
-133.0747035689
 21
64.8045101939
 31
0.0
  0
LINE
  5
271
330
21A
100
AcDbEntity
  8
0
  6
Continuous
 62
    60
370
    25
100
AcDbLine
 10
-278.0639273112
 20
75.3257407155
 30
0.0
 11
-278.0639273112
 21
83.64927277
 31
0.0
  0
LINE
  5
272
330
21A
100
AcDbEntity
  8
0
  6
Continuous
 62
    60
370
    25
100
AcDbLine
 10
-197.8003914798
 20
18.8323051569
 30
0.0
 11
-197.8003914798
 21
15.8474397948
 31
0.0
  0
LINE
  5
273
330
21A
100
AcDbEntity
  8
0
  6
Continuous
 62
    60
370
    25
100
AcDbLine
 10
-191.3555527936
 20
19.802073417
 30
0.0
 11
-191.3555527936
 21
15.1113216998
 31
0.0
  0
LINE
  5
274
330
21A
100
AcDbEntity
  8
0
  6
Continuous
 62
    60
370
    25
100
AcDbLine
 10
-319.404256554
 20
34.1529520754
 30
0.0
 11
-319.404256554
 21
31.3997627088
 31
0.0
  0
LINE
  5
275
330
21A
100
AcDbEntity
  8
0
  6
Continuous
 62
    60
370
    25
100
AcDbLine
 10
-148.4249324493
 20
50.1208494387
 30
0.0
 11
-148.4249324493
 21
48.356684376
 31
0.0
  0
ARC
  5
276
330
21A
100
AcDbEntity
  8
0
  6
Continuous
 62
     7
370
    25
100
AcDbCircle
 10
-271.7469938243
 20
68.1349308014
 30
0.0
 40
9.844218613218787
100
AcDbArc
 50
79.2261330329
 51
117.8883001309
  0
ARC
  5
277
330
21A
100
AcDbEntity
  8
0
  6
Continuous
 62
     7
370
    25
100
AcDbCircle
 10
-195.9601795377
 20
28.5029959343
 30
0.0
 40
9.84421861322089
100
AcDbArc
 50
259.2261330329
 51
297.8883001309
  0
VIEWPORT
  5
288
330
21A
100
AcDbEntity
  8
0
100
AcDbViewport
 10
0.0
 20
0.0
 30
0.0
 40
205.6
 41
156.0
 68
     1
 69
     1
 12
0.0
 22
0.0
 13
0.0
 23
0.0
 14
10.0
 24
10.0
 15
10.0
 25
10.0
 16
0.0
 26
0.0
 36
1.0
 17
0.0
 27
0.0
 37
0.0
 42
50.0
 43
0.0
 44
0.0
 45
918.0
 50
0.0
 51
0.0
 72
   100
 90
   557152
  1

281
     0
 71
     1
 74
     0
110
0.0
120
0.0
130
0.0
111
1.0
121
0.0
131
0.0
112
0.0
122
1.0
132
0.0
 79
     0
146
0.0
  0
ENDBLK
  5
21D
330
21A
100
AcDbEntity
  8
0
100
AcDbBlockEnd
  0
ENDSEC
  0
SECTION
  2
ENTITIES
  0
SPLINE
  5
73
330
1F
100
AcDbEntity
  8
0
  6
Continuous
 62
     7
370
    25
100
AcDbSpline
210
0.0
220
0.0
230
1.0
 70
    24
 71
     3
 72
     8
 73
     4
 74
     0
 42
0.000000001
 43
0.00000001
 40
0.0
 40
0.0
 40
0.0
 40
0.0
 40
1.0
 40
1.0
 40
1.0
 40
1.0
 10
-169.9999999999999
 20
-64.84743873662046
 30
0.0
 10
-169.9999999999999
 20
-69.06513710173921
 30
0.0
 10
-169.9999999999999
 20
-73.28266065818282
 30
0.0
 10
-169.9999999999999
 20
-77.50000000000001
 30
0.0
  0
SPLINE
  5
77
330
1F
100
AcDbEntity
  8
0
  6
Continuous
 62
     7
370
    25
100
AcDbSpline
210
0.0
220
0.0
230
1.0
 70
    24
 71
     3
 72
    20
 73
    16
 74
     0
 42
0.000000001
 43
0.00000001
 40
0.0
 40
0.0
 40
0.0
 40
0.0
 40
0.25
 40
0.25
 40
0.375
 40
0.375
 40
0.5
 40
0.5
 40
0.625
 40
0.625
 40
0.75
 40
0.75
 40
0.875
 40
0.875
 40
1.0
 40
1.0
 40
1.0
 40
1.0
 10
-172.4999999999999
 20
-80.00000000000007
 30
0.0
 10
-184.9279488261112
 20
-80.00000000000007
 30
0.0
 10
-197.355850921721
 20
-80.00000000000004
 30
0.0
 10
-215.9980015864529
 20
-80.00000000000006
 30
0.0
 10
-222.2120857483515
 20
-80.00000000000004
 30
0.0
 10
-234.6404444075492
 20
-80.00000000000003
 30
0.0
 10
-240.854719792399
 20
-80.00000000000006
 30
0.0
 10
-253.2836867890299
 20
-80.00000000000003
 30
0.0
 10
-259.4978944916157
 20
-80.00000000000004
 30
0.0
 10
-271.9256152574642
 20
-80.00000000000003
 30
0.0
 10
-278.1391349399942
 20
-80.0000000000001
 30
0.0
 10
-290.5658888178922
 20
-80.0000000000001
 30
0.0
 10
-296.7790049304273
 20
-80.00000000000009
 30
0.0
 10
-309.2053494389039
 20
-80.00000000000007
 30
0.0
 10
-315.4185662172708
 20
-80.00000000000009
 30
0.0
 10
-321.6319119134208
 20
-80.00000000000007
 30
0.0
  0
SPLINE
  5
78
330
1F
100
AcDbEntity
  8
0
  6
Continuous
 62
     7
370
    25
100
AcDbSpline
210
0.0
220
0.0
230
1.0
 70
     8
 71
     3
 72
    20
 73
    16
 74
     0
 42
0.000000001
 43
0.00000001
 40
0.0
 40
0.0
 40
0.0
 40
0.0
 40
0.1249999999999995
 40
0.1249999999999995
 40
0.249999999999999
 40
0.249999999999999
 40
0.3749999999999985
 40
0.3749999999999985
 40
0.499999999999998
 40
0.499999999999998
 40
0.6249999999999976
 40
0.6249999999999976
 40
0.749999999999997
 40
0.749999999999997
 40
1.0
 40
1.0
 40
1.0
 40
1.0
 10
-169.9999999999999
 20
-77.50000000000001
 30
0.0
 10
-169.9999999999999
 20
-77.66504243906375
 30
0.0
 10
-170.0161830224504
 20
-77.82733342579654
 30
0.0
 10
-170.079596121481
 20
-78.14663669433241
 30
0.0
 10
-170.1275935309764
 20
-78.30529983323073
 30
0.0
 10
-170.2529233602829
 20
-78.60791103022947
 30
0.0
 10
-170.329620772197
 20
-78.75144441602933
 30
0.0
 10
-170.5108280426343
 20
-79.02310670766025
 30
0.0
 10
-170.6163127489973
 20
-79.1517550079606
 30
0.0
 10
-170.8467523396301
 20
-79.38237733714426
 30
0.0
 10
-170.9724901348771
 20
-79.48587566255792
 30
0.0
 10
-171.2454980282075
 20
-79.66868931337719
 30
0.0
 10
-171.3909180876358
 20
-79.7464239457572
 30
0.0
 10
-171.8417969010128
 20
-79.93366012625032
 30
0.0
 10
-172.1698647189355
 20
-80.00000000000007
 30
0.0
 10
-172.4999999999999
 20
-80.00000000000007
 30
0.0
  0
SPLINE
  5
7A
330
1F
100
AcDbEntity
  8
0
  6
Continuous
 62
     7
370
    25
100
AcDbSpline
210
0.0
220
0.0
230
1.0
 70
    24
 71
     3
 72
    14
 73
    10
 74
     0
 42
0.000000001
 43
0.00000001
 40
0.0
 40
0.0
 40
0.0
 40
0.0
 40
0.25
 40
0.25
 40
0.5
 40
0.5
 40
0.75
 40
0.75
 40
1.0
 40
1.0
 40
1.0
 40
1.0
 10
-169.9999999999999
 20
64.84743873662046
 30
0.0
 10
-169.9999999999999
 20
54.03983020026972
 30
0.0
 10
-169.9999999999998
 20
43.232188783956
 30
0.0
 10
-169.9999999999998
 20
21.6163469654884
 30
0.0
 10
-169.9999999999999
 20
10.80828880300629
 30
0.0
 10
-169.9999999999999
 20
-10.80828900736834
 30
0.0
 10
-169.9999999999999
 20
-21.61634702286133
 30
0.0
 10
-169.9999999999999
 20
-43.23218884595375
 30
0.0
 10
-169.9999999999999
 20
-54.03983021598618
 30
0.0
 10
-169.9999999999999
 20
-64.84743873662046
 30
0.0
  0
SPLINE
  5
7D
330
1F
100
AcDbEntity
  8
0
  6
Continuous
 62
     7
370
    25
100
AcDbSpline
210
0.0
220
0.0
230
1.0
 70
    24
 71
     3
 72
     8
 73
     4
 74
     0
 42
0.000000001
 43
0.00000001
 40
0.0
 40
0.0
 40
0.0
 40
0.0
 40
1.0
 40
1.0
 40
1.0
 40
1.0
 10
-169.9999999999999
 20
77.50000000000001
 30
0.0
 10
-169.9999999999999
 20
73.28266065818283
 30
0.0
 10
-169.9999999999999
 20
69.06513710173918
 30
0.0
 10
-169.9999999999999
 20
64.84743873662046
 30
0.0
  0
SPLINE
  5
7E
330
1F
100
AcDbEntity
  8
0
  6
Continuous
 62
     7
370
    25
100
AcDbSpline
210
0.0
220
0.0
230
1.0
 70
     8
 71
     3
 72
    20
 73
    16
 74
     0
 42
0.000000001
 43
0.00000001
 40
0.0
 40
0.0
 40
0.0
 40
0.0
 40
0.125
 40
0.125
 40
0.25
 40
0.25
 40
0.375
 40
0.375
 40
0.5
 40
0.5
 40
0.625
 40
0.625
 40
0.75
 40
0.75
 40
1.0
 40
1.0
 40
1.0
 40
1.0
 10
-172.4999999999999
 20
79.99999999999996
 30
0.0
 10
-172.3349329771911
 20
79.99999999999997
 30
0.0
 10
-172.1726188201744
 20
79.98381220486554
 30
0.0
 10
-171.8532718214455
 20
79.92038099666289
 30
0.0
 10
-171.6945864073994
 20
79.87236890713964
 30
0.0
 10
-171.3919536996008
 20
79.74701105535335
 30
0.0
 10
-171.2484126430388
 20
79.67029782068234
 30
0.0
 10
-170.9767406903629
 20
79.48905621292297
 30
0.0
 10
-170.8480993008476
 20
79.38355930344954
 30
0.0
 10
-170.617497633132
 20
79.15310508081251
 30
0.0
 10
-170.5140099658603
 20
79.0273609781331
 30
0.0
 10
-170.331218490885
 20
78.75434235316645
 30
0.0
 10
-170.2535096741327
 20
78.60894486765739
 30
0.0
 10
-170.0663179862959
 20
78.15810475689524
 30
0.0
 10
-169.9999999999999
 20
77.83008420966536
 30
0.0
 10
-169.9999999999999
 20
77.50000000000001
 30
0.0
  0
SPLINE
  5
7F
330
1F
100
AcDbEntity
  8
0
  6
Continuous
 62
     7
370
    25
100
AcDbSpline
210
0.0
220
0.0
230
1.0
 70
    24
 71
     3
 72
    20
 73
    16
 74
     0
 42
0.000000001
 43
0.00000001
 40
0.0
 40
0.0
 40
0.0
 40
0.0
 40
0.125
 40
0.125
 40
0.25
 40
0.25
 40
0.375
 40
0.375
 40
0.5
 40
0.5
 40
0.625
 40
0.625
 40
0.75
 40
0.75
 40
1.0
 40
1.0
 40
1.0
 40
1.0
 10
-321.6319119134208
 20
79.99999999999996
 30
0.0
 10
-315.4185663363587
 20
79.99999999999996
 30
0.0
 10
-309.2053496807817
 20
79.99999999999993
 30
0.0
 10
-296.7790054204472
 20
79.99999999999993
 30
0.0
 10
-290.5658893033313
 20
79.99999999999996
 30
0.0
 10
-278.1391359225599
 20
79.99999999999994
 30
0.0
 10
-271.9256166028261
 20
79.99999999999993
 30
0.0
 10
-259.4978953739836
 20
79.99999999999993
 30
0.0
 10
-253.2836863260518
 20
79.99999999999996
 30
0.0
 10
-240.8547185645971
 20
79.99999999999997
 30
0.0
 10
-234.6404440482949
 20
79.99999999999999
 30
0.0
 10
-222.2120855742975
 20
80.0
 30
0.0
 10
-215.9980014170893
 20
79.99999999999997
 30
0.0
 10
-197.3558507867154
 20
80.0
 30
0.0
 10
-184.9279487743927
 20
79.99999999999996
 30
0.0
 10
-172.4999999999999
 20
79.99999999999996
 30
0.0
  0
SPLINE
  5
86
330
1F
100
AcDbEntity
  8
0
  6
Continuous
 62
     7
370
    25
100
AcDbSpline
210
0.0
220
0.0
230
1.0
 70
    24
 71
     3
 72
     8
 73
     4
 74
     0
 42
0.000000001
 43
0.00000001
 40
0.0
 40
0.0
 40
0.0
 40
0.0
 40
1.0
 40
1.0
 40
1.0
 40
1.0
 10
-327.4999999999997
 20
79.99999999999996
 30
0.0
 10
-325.5442878227278
 20
79.99999999999996
 30
0.0
 10
-323.5882550835989
 20
79.99999999999996
 30
0.0
 10
-321.6319119134208
 20
79.99999999999996
 30
0.0
  0
SPLINE
  5
87
330
1F
100
AcDbEntity
  8
0
  6
Continuous
 62
     7
370
    25
100
AcDbSpline
210
0.0
220
0.0
230
1.0
 70
     8
 71
     3
 72
    20
 73
    16
 74
     0
 42
0.000000001
 43
0.00000001
 40
0.0
 40
0.0
 40
0.0
 40
0.0
 40
0.1249999999999951
 40
0.1249999999999951
 40
0.2499999999999902
 40
0.2499999999999902
 40
0.3749999999999852
 40
0.3749999999999852
 40
0.4999999999999803
 40
0.4999999999999803
 40
0.6249999999999755
 40
0.6249999999999755
 40
0.7499999999999705
 40
0.7499999999999705
 40
1.0
 40
1.0
 40
1.0
 40
1.0
 10
-330.0000000000001
 20
77.50000000000001
 30
0.0
 10
-330.0000000000001
 20
77.66510537551812
 30
0.0
 10
-329.9838047038874
 20
77.82746633964442
 30
0.0
 10
-329.9203332326677
 20
78.14692121119803
 30
0.0
 10
-329.8722835000937
 20
78.30567465187355
 30
0.0
 10
-329.7468509180068
 20
78.60837791467553
 30
0.0
 10
-329.6700915759957
 20
78.75195235903071
 30
0.0
 10
-329.4887350719232
 20
79.02368466921234
 30
0.0
 10
-329.3831918599227
 20
79.1523205650925
 30
0.0
 10
-329.1526712214309
 20
79.38288413476809
 30
0.0
 10
-329.0268923320344
 20
79.48635197862558
 30
0.0
 10
-328.7537967015548
 20
79.66909847812083
 30
0.0
 10
-328.6084710456622
 20
79.74672074794933
 30
0.0
 10
-328.1577255919527
 20
79.93377192009476
 30
0.0
 10
-327.8298637507341
 20
79.99999999999996
 30
0.0
 10
-327.4999999999997
 20
79.99999999999996
 30
0.0
  0
SPLINE
  5
88
330
1F
100
AcDbEntity
  8
0
  6
Continuous
 62
     7
370
    25
100
AcDbSpline
210
0.0
220
0.0
230
1.0
 70
    24
 71
     3
 72
    22
 73
    18
 74
     0
 42
0.000000001
 43
0.00000001
 40
0.0
 40
0.0
 40
0.0
 40
0.0
 40
0.1249999999999999
 40
0.1249999999999999
 40
0.2499999999999998
 40
0.2499999999999998
 40
0.3749999999999998
 40
0.3749999999999998
 40
0.4999999999999997
 40
0.4999999999999997
 40
0.6249999999999997
 40
0.6249999999999997
 40
0.7499999999999997
 40
0.7499999999999997
 40
0.8749999999999998
 40
0.8749999999999998
 40
1.0
 40
1.0
 40
1.0
 40
1.0
 10
-330.0000000000001
 20
-77.50000000000013
 30
0.0
 10
-330.0000000000001
 20
-71.04198062789239
 30
0.0
 10
-330.0000000000001
 20
-64.58405984060643
 30
0.0
 10
-329.9999999999999
 20
-51.66838713181581
 30
0.0
 10
-330.0
 20
-45.2106449798246
 30
0.0
 10
-329.9999999999999
 20
-32.29514475675693
 30
0.0
 10
-330.0000000000002
 20
-25.83742035726188
 30
0.0
 10
-330.0000000000003
 20
-12.9210304464347
 30
0.0
 10
-330.0000000000002
 20
-6.462261460552163
 30
0.0
 10
-330.0000000000002
 20
6.458321807795909
 30
0.0
 10
-329.9999999999999
 20
12.91730817154188
 30
0.0
 10
-330.0
 20
25.8343168952555
 30
0.0
 10
-330.0
 20
32.29242138197302
 30
0.0
 10
-329.9999999999999
 20
45.20867397362327
 30
0.0
 10
-330.0000000000002
 20
51.66679109580813
 30
0.0
 10
-330.0000000000002
 20
64.58324186580823
 30
0.0
 10
-330.0000000000001
 20
71.0415642829199
 30
0.0
 10
-330.0000000000001
 20
77.4999999999999
 30
0.0
  0
SPLINE
  5
89
330
1F
100
AcDbEntity
  8
0
  6
Continuous
 62
     7
370
    25
100
AcDbSpline
210
0.0
220
0.0
230
1.0
 70
     8
 71
     3
 72
    20
 73
    16
 74
     0
 42
0.000000001
 43
0.00000001
 40
0.0
 40
0.0
 40
0.0
 40
0.0
 40
0.1249999999999992
 40
0.1249999999999992
 40
0.2499999999999984
 40
0.2499999999999984
 40
0.3749999999999976
 40
0.3749999999999976
 40
0.4999999999999968
 40
0.4999999999999968
 40
0.624999999999996
 40
0.624999999999996
 40
0.7499999999999951
 40
0.7499999999999951
 40
1.0
 40
1.0
 40
1.0
 40
1.0
 10
-327.5000000000001
 20
-80.00000000000007
 30
0.0
 10
-327.6649346521738
 20
-80.00000000000007
 30
0.0
 10
-327.8271345348632
 20
-79.98383784301268
 30
0.0
 10
-328.1462850953134
 20
-79.92049230733295
 30
0.0
 10
-328.3048834082283
 20
-79.87254471904718
 30
0.0
 10
-328.6074367700994
 20
-79.74730717636727
 30
0.0
 10
-328.7509576551714
 20
-79.67065801726177
 30
0.0
 10
-329.0226223096061
 20
-79.48954079757725
 30
0.0
 10
-329.1513064915808
 20
-79.384082409578
 30
0.0
 10
-329.3820137878413
 20
-79.15366373776327
 30
0.0
 10
-329.4855557399631
 20
-79.02792886668405
 30
0.0
 10
-329.6684564295919
 20
-78.75490833573923
 30
0.0
 10
-329.7462588976478
 20
-78.60942461350255
 30
0.0
 10
-329.9336195526806
 20
-78.15841013512674
 30
0.0
 10
-330.0
 20
-77.83021841179617
 30
0.0
 10
-330.0000000000001
 20
-77.50000000000013
 30
0.0
  0
SPLINE
  5
8A
330
1F
100
AcDbEntity
  8
0
  6
Continuous
 62
     7
370
    25
100
AcDbSpline
210
0.0
220
0.0
230
1.0
 70
    24
 71
     3
 72
     8
 73
     4
 74
     0
 42
0.000000001
 43
0.00000001
 40
0.0
 40
0.0
 40
0.0
 40
0.0
 40
1.0
 40
1.0
 40
1.0
 40
1.0
 10
-321.6319119134208
 20
-80.00000000000007
 30
0.0
 10
-323.5882550835989
 20
-80.00000000000007
 30
0.0
 10
-325.5442878227283
 20
-80.00000000000018
 30
0.0
 10
-327.5000000000001
 20
-80.00000000000018
 30
0.0
  0
LINE
  5
97
330
1F
100
AcDbEntity
  8
0
  6
Continuous
 62
     7
370
    25
100
AcDbLine
 10
480.0
 20
-430.0
 30
0.0
 11
-170.0
 21
-64.8474387366
 31
0.0
  0
LINE
  5
98
330
1F
100
AcDbEntity
  8
0
  6
Continuous
 62
     7
370
    25
100
AcDbLine
 10
-480.0
 20
-430.0
 30
0.0
 11
480.0
 21
-430.0
 31
0.0
  0
LINE
  5
99
330
1F
100
AcDbEntity
  8
0
  6
Continuous
 62
     7
370
    25
100
AcDbLine
 10
-480.0
 20
-430.0
 30
0.0
 11
-321.6319119134
 21
-80.0
 31
0.0
  0
LINE
  5
9A
330
1F
100
AcDbEntity
  8
0
  6
Continuous
 62
     7
370
    25
100
AcDbLine
 10
480.0
 20
-430.0
 30
0.0
 11
480.0
 21
430.0
 31
0.0
  0
LINE
  5
9B
330
1F
100
AcDbEntity
  8
0
  6
Continuous
 62
     7
370
    25
100
AcDbLine
 10
480.0
 20
430.0
 30
0.0
 11
-170.0
 21
64.8474387366
 31
0.0
  0
LINE
  5
9C
330
1F
100
AcDbEntity
  8
0
  6
Continuous
 62
     7
370
    25
100
AcDbLine
 10
480.0
 20
430.0
 30
0.0
 11
-480.0
 21
430.0
 31
0.0
  0
LINE
  5
9D
330
1F
100
AcDbEntity
  8
0
  6
Continuous
 62
     7
370
    25
100
AcDbLine
 10
-321.6319119134
 20
80.0
 30
0.0
 11
-480.0
 21
430.0
 31
0.0
  0
LINE
  5
9E
330
1F
100
AcDbEntity
  8
0
  6
Continuous
 62
     7
370
    25
100
AcDbLine
 10
500.0
 20
450.0
 30
0.0
 11
-500.0
 21
450.0
 31
0.0
  0
LINE
  5
9F
330
1F
100
AcDbEntity
  8
0
  6
Continuous
 62
     7
370
    25
100
AcDbLine
 10
500.0
 20
-450.0
 30
0.0
 11
500.0
 21
450.0
 31
0.0
  0
LINE
  5
A0
330
1F
100
AcDbEntity
  8
0
  6
Continuous
 62
     7
370
    25
100
AcDbLine
 10
-500.0
 20
-450.0
 30
0.0
 11
500.0
 21
-450.0
 31
0.0
  0
LINE
  5
A1
330
1F
100
AcDbEntity
  8
0
  6
Continuous
 62
     7
370
    25
100
AcDbLine
 10
-500.0
 20
450.0
 30
0.0
 11
-500.0
 21
-450.0
 31
0.0
  0
LINE
  5
A2
330
1F
100
AcDbEntity
  8
0
  6
Continuous
 62
     7
370
    25
100
AcDbLine
 10
-480.0
 20
430.0
 30
0.0
 11
-480.0
 21
-430.0
 31
0.0
  0
LINE
  5
A3
330
1F
100
AcDbEntity
  8
0
  6
Continuous
 62
     7
370
    25
100
AcDbLine
 10
-318.5355339059
 20
-68.5355339059
 30
0.0
 11
-329.2456463724
 21
-79.2456463724
 31
0.0
  0
LINE
  5
A4
330
1F
100
AcDbEntity
  8
0
  6
Continuous
 62
     7
370
    25
100
AcDbLine
 10
-329.2455717406
 20
79.2455717406
 30
0.0
 11
-318.5355339059
 21
68.5355339059
 31
0.0
  0
LINE
  5
A5
330
1F
100
AcDbEntity
  8
0
  6
Continuous
 62
     7
370
    25
100
AcDbLine
 10
-170.7543818277
 20
-79.2456181723
 30
0.0
 11
-181.4644660941
 21
-68.5355339059
 31
0.0
  0
LINE
  5
A6
330
1F
100
AcDbEntity
  8
0
  6
Continuous
 62
     7
370
    25
100
AcDbLine
 10
-170.7543926375
 20
79.2456073625
 30
0.0
 11
-181.4644660941
 21
68.5355339059
 31
0.0
  0
LINE
  5
A7
330
1F
100
AcDbEntity
  8
0
  6
Continuous
 62
     7
370
    25
100
AcDbLine
 10
-320.0
 20
65.0
 30
0.0
 11
-320.0
 21
-65.0
 31
0.0
  0
LINE
  5
A8
330
1F
100
AcDbEntity
  8
0
  6
Continuous
 62
     7
370
    25
100
AcDbLine
 10
-185.0
 20
70.0
 30
0.0
 11
-315.0
 21
70.0
 31
0.0
  0
LINE
  5
A9
330
1F
100
AcDbEntity
  8
0
  6
Continuous
 62
     7
370
    25
100
AcDbLine
 10
-180.0
 20
-65.0
 30
0.0
 11
-180.0
 21
65.0
 31
0.0
  0
LINE
  5
AA
330
1F
100
AcDbEntity
  8
0
  6
Continuous
 62
     7
370
    25
100
AcDbLine
 10
-315.0
 20
-70.0
 30
0.0
 11
-185.0
 21
-70.0
 31
0.0
  0
ARC
  5
AB
330
1F
100
AcDbEntity
  8
0
  6
Continuous
 62
     7
370
    25
100
AcDbCircle
 10
-315.0
 20
65.0
 30
0.0
 40
5.0
100
AcDbArc
 50
90.0
 51
180.0
  0
ARC
  5
AC
330
1F
100
AcDbEntity
  8
0
  6
Continuous
 62
     7
370
    25
100
AcDbCircle
 10
-185.0
 20
-65.0
 30
0.0
 40
5.000000000000739
100
AcDbArc
 50
270.0
 51
360.0
  0
ARC
  5
AD
330
1F
100
AcDbEntity
  8
0
  6
Continuous
 62
     7
370
    25
100
AcDbCircle
 10
-315.0
 20
-65.0
 30
0.0
 40
4.999999999999957
100
AcDbArc
 50
180.0
 51
270.0
  0
ARC
  5
AE
330
1F
100
AcDbEntity
  8
0
  6
Continuous
 62
     7
370
    25
100
AcDbCircle
 10
-185.0
 20
65.0
 30
0.0
 40
4.999999999999687
100
AcDbArc
 50
360.0
 51
90.0
  0
LINE
  5
B6
330
1B
100
AcDbEntity
 67
     1
  8
0
  6
Continuous
 62
     7
370
    25
100
AcDbLine
 10
-500.0
 20
35.0
 30
0.0
 11
500.0
 21
35.0
 31
0.0
  0
LINE
  5
B7
330
1B
100
AcDbEntity
 67
     1
  8
0
  6
Continuous
 62
     7
370
    25
100
AcDbLine
 10
500.0
 20
35.0
 30
0.0
 11
500.0
 21
0.0
 31
0.0
  0
LINE
  5
B8
330
1B
100
AcDbEntity
 67
     1
  8
0
  6
Continuous
 62
     7
370
    25
100
AcDbLine
 10
-500.0
 20
0.0
 30
0.0
 11
500.0
 21
0.0
 31
0.0
  0
LINE
  5
B9
330
1B
100
AcDbEntity
 67
     1
  8
0
  6
Continuous
 62
     7
370
    25
100
AcDbLine
 10
-500.0
 20
35.0
 30
0.0
 11
-500.0
 21
0.0
 31
0.0
  0
LINE
  5
BA
330
1B
100
AcDbEntity
 67
     1
  8
0
  6
Continuous
 62
     7
370
    25
100
AcDbLine
 10
-120.0
 20
-26.0
 30
0.0
 11
-380.0
 21
-26.0
 31
0.0
  0
LINE
  5
BB
330
1B
100
AcDbEntity
 67
     1
  8
0
  6
Continuous
 62
     7
370
    25
100
AcDbLine
 10
-120.0
 20
-26.0
 30
0.0
 11
-120.0
 21
0.0
 31
0.0
  0
LINE
  5
BC
330
1B
100
AcDbEntity
 67
     1
  8
0
  6
Continuous
 62
     7
370
    25
100
AcDbLine
 10
-380.0
 20
-26.0
 30
0.0
 11
-380.0
 21
0.0
 31
0.0
  0
VIEWPORT
  5
278
330
1B
100
AcDbEntity
 67
     1
  8
0
100
AcDbViewport
 10
0.0
 20
0.0
 30
0.0
 40
205.6
 41
156.0
 68
     1
 69
     1
 12
0.0
 22
0.0
 13
0.0
 23
0.0
 14
10.0
 24
10.0
 15
10.0
 25
10.0
 16
0.0
 26
0.0
 36
1.0
 17
0.0
 27
0.0
 37
0.0
 42
50.0
 43
0.0
 44
0.0
 45
918.0
 50
0.0
 51
0.0
 72
   100
 90
   557152
  1

281
     0
 71
     1
 74
     0
110
0.0
120
0.0
130
0.0
111
1.0
121
0.0
131
0.0
112
0.0
122
1.0
132
0.0
 79
     0
146
0.0
  0
ENDSEC
  0
SECTION
  2
OBJECTS
  0
DICTIONARY
  5
C
330
0
100
AcDbDictionary
281
     1
  3
ACAD_GROUP
350
D
  3
ACAD_LAYOUT
350
1A
  3
ACAD_MLINESTYLE
350
17
  3
ACAD_PLOTSETTINGS
350
19
  3
ACAD_PLOTSTYLENAME
350
E
  3
ACAD_SCALELIST
350
47
  0
DICTIONARY
  5
D
102
{ACAD_REACTORS
330
C
102
}
330
C
100
AcDbDictionary
281
     1
  0
DICTIONARY
  5
1A
102
{ACAD_REACTORS
330
C
102
}
330
C
100
AcDbDictionary
281
     1
  3
_Dimetrisch
350
21B
  3
_Isometrisch
350
12F
  3
_Links
350
F0
  3
_Normal auf
350
CC
  3
_Rechts
350
26
  3
_Rückseite
350
DE
  3
_Trimetrisch
350
1AF
  3
_Unten
350
102
  3
_Vorderseite
350
1E
  3
Model
350
22
  0
DICTIONARY
  5
17
102
{ACAD_REACTORS
330
C
102
}
330
C
100
AcDbDictionary
281
     1
  3
Standard
350
18
  0
DICTIONARY
  5
19
102
{ACAD_REACTORS
330
C
102
}
330
C
100
AcDbDictionary
281
     1
  0
ACDBDICTIONARYWDFLT
  5
E
102
{ACAD_REACTORS
330
C
102
}
330
C
100
AcDbDictionary
281
     1
  3
Normal
350
F
100
AcDbDictionaryWithDefault
340
F
  0
DICTIONARY
  5
47
102
{ACAD_REACTORS
330
C
102
}
330
C
100
AcDbDictionary
281
     1
  3
A0
350
48
  3
A1
350
49
  3
A2
350
4A
  3
A3
350
4B
  3
A4
350
4C
  3
A5
350
4D
  3
A6
350
4E
  3
A7
350
4F
  3
A8
350
50
  3
A9
350
51
  3
B0
350
52
  3
B1
350
53
  3
B2
350
54
  3
B3
350
55
  3
B4
350
56
  3
B5
350
57
  3
B6
350
58
  3
B7
350
59
  3
B8
350
5A
  3
B9
350
5B
  3
C0
350
5C
  3
C1
350
5D
  3
C2
350
5E
  3
C3
350
5F
  3
C4
350
60
  3
C5
350
61
  3
C6
350
62
  3
C7
350
63
  3
C8
350
64
  3
C9
350
65
  3
D0
350
66
  3
D1
350
67
  3
D2
350
68
  0
LAYOUT
  5
21B
102
{ACAD_REACTORS
330
1A
102
}
330
1A
100
AcDbPlotSettings
  1

  2
none_device
  4
ISO_A4_(210.00_x_297.00_MM)
  6

 40
7.5
 41
20.0
 42
7.5
 43
20.0
 44
210.0
 45
297.0
 46
0.0
 47
0.0
 48
0.0
 49
0.0
140
0.0
141
0.0
142
1.0
143
3.8910505837
 70
   688
 72
     1
 73
     1
 74
     1
  7

 75
     0
147
0.257
148
500.0
149
26.0
100
AcDbLayout
  1
_Dimetrisch
 70
     1
 71
     9
 10
0.0
 20
0.0
 11
0.0
 21
0.0
 12
0.0
 22
0.0
 32
0.0
 14
0.0
 24
0.0
 34
0.0
 15
0.0
 25
0.0
 35
0.0
146
0.0
 13
0.0
 23
0.0
 33
0.0
 16
1.0
 26
0.0
 36
0.0
 17
0.0
 27
1.0
 37
0.0
 76
     0
330
21A
331
288
  0
LAYOUT
  5
12F
102
{ACAD_REACTORS
330
1A
102
}
330
1A
100
AcDbPlotSettings
  1

  2
none_device
  4
ISO_A4_(210.00_x_297.00_MM)
  6

 40
7.5
 41
20.0
 42
7.5
 43
20.0
 44
210.0
 45
297.0
 46
0.0
 47
0.0
 48
0.0
 49
0.0
140
0.0
141
0.0
142
1.0
143
3.8910505837
 70
   688
 72
     1
 73
     1
 74
     1
  7

 75
     0
147
0.257
148
500.0
149
26.0
100
AcDbLayout
  1
_Isometrisch
 70
     1
 71
     7
 10
0.0
 20
0.0
 11
0.0
 21
0.0
 12
0.0
 22
0.0
 32
0.0
 14
0.0
 24
0.0
 34
0.0
 15
0.0
 25
0.0
 35
0.0
146
0.0
 13
0.0
 23
0.0
 33
0.0
 16
1.0
 26
0.0
 36
0.0
 17
0.0
 27
1.0
 37
0.0
 76
     0
330
12E
331
284
  0
LAYOUT
  5
F0
102
{ACAD_REACTORS
330
1A
102
}
330
1A
100
AcDbPlotSettings
  1

  2
none_device
  4
ISO_A4_(210.00_x_297.00_MM)
  6

 40
7.5
 41
20.0
 42
7.5
 43
20.0
 44
210.0
 45
297.0
 46
0.0
 47
0.0
 48
0.0
 49
0.0
140
0.0
141
0.0
142
1.0
143
3.8910505837
 70
   688
 72
     1
 73
     1
 74
     1
  7

 75
     0
147
0.257
148
500.0
149
26.0
100
AcDbLayout
  1
_Links
 70
     1
 71
     5
 10
0.0
 20
0.0
 11
0.0
 21
0.0
 12
0.0
 22
0.0
 32
0.0
 14
0.0
 24
0.0
 34
0.0
 15
0.0
 25
0.0
 35
0.0
146
0.0
 13
0.0
 23
0.0
 33
0.0
 16
1.0
 26
0.0
 36
0.0
 17
0.0
 27
1.0
 37
0.0
 76
     0
330
EF
331
280
  0
LAYOUT
  5
CC
102
{ACAD_REACTORS
330
1A
102
}
330
1A
100
AcDbPlotSettings
  1

  2
none_device
  4
ISO_A4_(210.00_x_297.00_MM)
  6

 40
7.5
 41
20.0
 42
7.5
 43
20.0
 44
210.0
 45
297.0
 46
0.0
 47
0.0
 48
0.0
 49
0.0
140
0.0
141
0.0
142
1.0
143
3.8910505837
 70
   688
 72
     1
 73
     1
 74
     1
  7

 75
     0
147
0.257
148
500.0
149
26.0
100
AcDbLayout
  1
_Normal auf
 70
     1
 71
     3
 10
0.0
 20
0.0
 11
0.0
 21
0.0
 12
0.0
 22
0.0
 32
0.0
 14
0.0
 24
0.0
 34
0.0
 15
0.0
 25
0.0
 35
0.0
146
0.0
 13
0.0
 23
0.0
 33
0.0
 16
1.0
 26
0.0
 36
0.0
 17
0.0
 27
1.0
 37
0.0
 76
     0
330
CB
331
27C
  0
LAYOUT
  5
26
102
{ACAD_REACTORS
330
1A
102
}
330
1A
100
AcDbPlotSettings
  1

  2
none_device
  4
ISO_A4_(210.00_x_297.00_MM)
  6

 40
7.5
 41
20.0
 42
7.5
 43
20.0
 44
210.0
 45
297.0
 46
0.0
 47
0.0
 48
0.0
 49
0.0
140
0.0
141
0.0
142
1.0
143
3.8910505837
 70
   688
 72
     1
 73
     1
 74
     1
  7

 75
     0
147
0.257
148
500.0
149
26.0
100
AcDbLayout
  1
_Rechts
 70
     1
 71
     2
 10
0.0
 20
0.0
 11
0.0
 21
0.0
 12
0.0
 22
0.0
 32
0.0
 14
0.0
 24
0.0
 34
0.0
 15
0.0
 25
0.0
 35
0.0
146
0.0
 13
0.0
 23
0.0
 33
0.0
 16
1.0
 26
0.0
 36
0.0
 17
0.0
 27
1.0
 37
0.0
 76
     0
330
23
331
27A
  0
LAYOUT
  5
DE
102
{ACAD_REACTORS
330
1A
102
}
330
1A
100
AcDbPlotSettings
  1

  2
none_device
  4
ISO_A4_(210.00_x_297.00_MM)
  6

 40
7.5
 41
20.0
 42
7.5
 43
20.0
 44
210.0
 45
297.0
 46
0.0
 47
0.0
 48
0.0
 49
0.0
140
0.0
141
0.0
142
1.0
143
3.8910505837
 70
   688
 72
     1
 73
     1
 74
     1
  7

 75
     0
147
0.257
148
500.0
149
26.0
100
AcDbLayout
  1
_Rückseite
 70
     1
 71
     4
 10
0.0
 20
0.0
 11
0.0
 21
0.0
 12
0.0
 22
0.0
 32
0.0
 14
0.0
 24
0.0
 34
0.0
 15
0.0
 25
0.0
 35
0.0
146
0.0
 13
0.0
 23
0.0
 33
0.0
 16
1.0
 26
0.0
 36
0.0
 17
0.0
 27
1.0
 37
0.0
 76
     0
330
DD
331
27E
  0
LAYOUT
  5
1AF
102
{ACAD_REACTORS
330
1A
102
}
330
1A
100
AcDbPlotSettings
  1

  2
none_device
  4
ISO_A4_(210.00_x_297.00_MM)
  6

 40
7.5
 41
20.0
 42
7.5
 43
20.0
 44
210.0
 45
297.0
 46
0.0
 47
0.0
 48
0.0
 49
0.0
140
0.0
141
0.0
142
1.0
143
3.8910505837
 70
   688
 72
     1
 73
     1
 74
     1
  7

 75
     0
147
0.257
148
500.0
149
26.0
100
AcDbLayout
  1
_Trimetrisch
 70
     1
 71
     8
 10
0.0
 20
0.0
 11
0.0
 21
0.0
 12
0.0
 22
0.0
 32
0.0
 14
0.0
 24
0.0
 34
0.0
 15
0.0
 25
0.0
 35
0.0
146
0.0
 13
0.0
 23
0.0
 33
0.0
 16
1.0
 26
0.0
 36
0.0
 17
0.0
 27
1.0
 37
0.0
 76
     0
330
1AE
331
286
  0
LAYOUT
  5
102
102
{ACAD_REACTORS
330
1A
102
}
330
1A
100
AcDbPlotSettings
  1

  2
none_device
  4
ISO_A4_(210.00_x_297.00_MM)
  6

 40
7.5
 41
20.0
 42
7.5
 43
20.0
 44
210.0
 45
297.0
 46
0.0
 47
0.0
 48
0.0
 49
0.0
140
0.0
141
0.0
142
1.0
143
3.8910505837
 70
   688
 72
     1
 73
     1
 74
     1
  7

 75
     0
147
0.257
148
500.0
149
26.0
100
AcDbLayout
  1
_Unten
 70
     1
 71
     6
 10
0.0
 20
0.0
 11
0.0
 21
0.0
 12
0.0
 22
0.0
 32
0.0
 14
0.0
 24
0.0
 34
0.0
 15
0.0
 25
0.0
 35
0.0
146
0.0
 13
0.0
 23
0.0
 33
0.0
 16
1.0
 26
0.0
 36
0.0
 17
0.0
 27
1.0
 37
0.0
 76
     0
330
101
331
282
  0
LAYOUT
  5
1E
102
{ACAD_REACTORS
330
1A
102
}
330
1A
100
AcDbPlotSettings
  1

  2
none_device
  4
ISO_A4_(210.00_x_297.00_MM)
  6

 40
7.5
 41
20.0
 42
7.5
 43
20.0
 44
210.0
 45
297.0
 46
0.0
 47
0.0
 48
0.0
 49
0.0
140
0.0
141
0.0
142
1.0
143
3.8910505837
 70
   688
 72
     1
 73
     1
 74
     1
  7

 75
     0
147
0.257
148
500.0
149
26.0
100
AcDbLayout
  1
_Vorderseite
 70
     1
 71
     1
 10
-577.8210116732
 20
-55.1828793774
 11
577.8210116732
 21
761.9377431907
 12
0.0
 22
0.0
 32
0.0
 14
-500.0
 24
-26.0
 34
0.0
 15
500.0
 25
35.0
 35
0.0
146
0.0
 13
0.0
 23
0.0
 33
0.0
 16
1.0
 26
0.0
 36
0.0
 17
0.0
 27
1.0
 37
0.0
 76
     0
330
1B
331
278
  0
LAYOUT
  5
22
102
{ACAD_REACTORS
330
1A
102
}
330
1A
100
AcDbPlotSettings
  1

  2
none_device
  4
ANSI_A_(11.00_x_8.50_Inches)
  6

 40
6.35
 41
19.05
 42
6.35000508
 43
19.05000254
 44
279.4
 45
215.9
 46
133.34999746
 47
88.89999873
 48
0.0
 49
0.0
140
0.0
141
0.0
142
0.00935
143
1.0
 70
  1696
 72
     0
 73
     0
 74
     0
  7

 75
     0
147
0.0179189148
148
-1300.4909072572
149
0.0
100
AcDbLayout
  1
Model
 70
     1
 71
     0
 10
0.0
 20
0.0
 11
420.0
 21
297.0
 12
0.0
 22
0.0
 32
0.0
 14
-500.0
 24
-450.0
 34
0.0
 15
500.0
 25
450.0
 35
0.0
146
0.0
 13
0.0
 23
0.0
 33
0.0
 16
1.0
 26
0.0
 36
0.0
 17
0.0
 27
1.0
 37
0.0
 76
     0
330
1F
331
29
  0
MLINESTYLE
  5
18
102
{ACAD_REACTORS
330
17
102
}
330
17
100
AcDbMlineStyle
  2
Standard
 70
     0
  3

 62
   256
 51
90.0
 52
90.0
 71
     2
 49
0.5
 62
   256
  6
BYLAYER
 49
-0.5
 62
   256
  6
BYLAYER
  0
ACDBPLACEHOLDER
  5
F
102
{ACAD_REACTORS
330
E
102
}
330
E
  0
SCALE
  5
48
102
{ACAD_REACTORS
330
47
102
}
330
47
100
AcDbScale
 70
     0
300
1:1
140
1.0
141
1.0
290
     1
  0
SCALE
  5
49
102
{ACAD_REACTORS
330
47
102
}
330
47
100
AcDbScale
 70
     0
300
1:2
140
1.0
141
2.0
290
     0
  0
SCALE
  5
4A
102
{ACAD_REACTORS
330
47
102
}
330
47
100
AcDbScale
 70
     0
300
1:4
140
1.0
141
4.0
290
     0
  0
SCALE
  5
4B
102
{ACAD_REACTORS
330
47
102
}
330
47
100
AcDbScale
 70
     0
300
1:5
140
1.0
141
5.0
290
     0
  0
SCALE
  5
4C
102
{ACAD_REACTORS
330
47
102
}
330
47
100
AcDbScale
 70
     0
300
1:8
140
1.0
141
8.0
290
     0
  0
SCALE
  5
4D
102
{ACAD_REACTORS
330
47
102
}
330
47
100
AcDbScale
 70
     0
300
1:10
140
1.0
141
10.0
290
     0
  0
SCALE
  5
4E
102
{ACAD_REACTORS
330
47
102
}
330
47
100
AcDbScale
 70
     0
300
1:16
140
1.0
141
16.0
290
     0
  0
SCALE
  5
4F
102
{ACAD_REACTORS
330
47
102
}
330
47
100
AcDbScale
 70
     0
300
1:20
140
1.0
141
20.0
290
     0
  0
SCALE
  5
50
102
{ACAD_REACTORS
330
47
102
}
330
47
100
AcDbScale
 70
     0
300
1:30
140
1.0
141
30.0
290
     0
  0
SCALE
  5
51
102
{ACAD_REACTORS
330
47
102
}
330
47
100
AcDbScale
 70
     0
300
1:40
140
1.0
141
40.0
290
     0
  0
SCALE
  5
52
102
{ACAD_REACTORS
330
47
102
}
330
47
100
AcDbScale
 70
     0
300
1:50
140
1.0
141
50.0
290
     0
  0
SCALE
  5
53
102
{ACAD_REACTORS
330
47
102
}
330
47
100
AcDbScale
 70
     0
300
1:100
140
1.0
141
100.0
290
     0
  0
SCALE
  5
54
102
{ACAD_REACTORS
330
47
102
}
330
47
100
AcDbScale
 70
     0
300
2:1
140
2.0
141
1.0
290
     0
  0
SCALE
  5
55
102
{ACAD_REACTORS
330
47
102
}
330
47
100
AcDbScale
 70
     0
300
4:1
140
4.0
141
1.0
290
     0
  0
SCALE
  5
56
102
{ACAD_REACTORS
330
47
102
}
330
47
100
AcDbScale
 70
     0
300
8:1
140
8.0
141
1.0
290
     0
  0
SCALE
  5
57
102
{ACAD_REACTORS
330
47
102
}
330
47
100
AcDbScale
 70
     0
300
10:1
140
10.0
141
1.0
290
     0
  0
SCALE
  5
58
102
{ACAD_REACTORS
330
47
102
}
330
47
100
AcDbScale
 70
     0
300
100:1
140
100.0
141
1.0
290
     0
  0
SCALE
  5
59
102
{ACAD_REACTORS
330
47
102
}
330
47
100
AcDbScale
 70
     0
300
1/128" = 1'-0"
140
0.0078125
141
12.0
290
     0
  0
SCALE
  5
5A
102
{ACAD_REACTORS
330
47
102
}
330
47
100
AcDbScale
 70
     0
300
1/64" = 1'-0"
140
0.015625
141
12.0
290
     0
  0
SCALE
  5
5B
102
{ACAD_REACTORS
330
47
102
}
330
47
100
AcDbScale
 70
     0
300
1/32" = 1'-0"
140
0.03125
141
12.0
290
     0
  0
SCALE
  5
5C
102
{ACAD_REACTORS
330
47
102
}
330
47
100
AcDbScale
 70
     0
300
1/16" = 1'-0"
140
0.0625
141
12.0
290
     0
  0
SCALE
  5
5D
102
{ACAD_REACTORS
330
47
102
}
330
47
100
AcDbScale
 70
     0
300
3/32" = 1'-0"
140
0.09375
141
12.0
290
     0
  0
SCALE
  5
5E
102
{ACAD_REACTORS
330
47
102
}
330
47
100
AcDbScale
 70
     0
300
1/8" = 1'-0"
140
0.125
141
12.0
290
     0
  0
SCALE
  5
5F
102
{ACAD_REACTORS
330
47
102
}
330
47
100
AcDbScale
 70
     0
300
3/16" = 1'-0"
140
0.1875
141
12.0
290
     0
  0
SCALE
  5
60
102
{ACAD_REACTORS
330
47
102
}
330
47
100
AcDbScale
 70
     0
300
1/4" = 1'-0"
140
0.25
141
12.0
290
     0
  0
SCALE
  5
61
102
{ACAD_REACTORS
330
47
102
}
330
47
100
AcDbScale
 70
     0
300
3/8" = 1'-0"
140
0.375
141
12.0
290
     0
  0
SCALE
  5
62
102
{ACAD_REACTORS
330
47
102
}
330
47
100
AcDbScale
 70
     0
300
1/2" = 1'-0"
140
0.5
141
12.0
290
     0
  0
SCALE
  5
63
102
{ACAD_REACTORS
330
47
102
}
330
47
100
AcDbScale
 70
     0
300
3/4" = 1'-0"
140
0.75
141
12.0
290
     0
  0
SCALE
  5
64
102
{ACAD_REACTORS
330
47
102
}
330
47
100
AcDbScale
 70
     0
300
1" = 1'-0"
140
1.0
141
12.0
290
     0
  0
SCALE
  5
65
102
{ACAD_REACTORS
330
47
102
}
330
47
100
AcDbScale
 70
     0
300
1-1/2" = 1'-0"
140
1.5
141
12.0
290
     0
  0
SCALE
  5
66
102
{ACAD_REACTORS
330
47
102
}
330
47
100
AcDbScale
 70
     0
300
3" = 1'-0"
140
3.0
141
12.0
290
     0
  0
SCALE
  5
67
102
{ACAD_REACTORS
330
47
102
}
330
47
100
AcDbScale
 70
     0
300
6" = 1'-0"
140
6.0
141
12.0
290
     0
  0
SCALE
  5
68
102
{ACAD_REACTORS
330
47
102
}
330
47
100
AcDbScale
 70
     0
300
1'-0" = 1'-0"
140
12.0
141
12.0
290
     0
  0
ENDSEC
  0
EOF
