  0
SECTION
  2
HEADER
  9
$ACADVER
  1
AC1015
  9
$ACADMAINTVER
 70
     6
  9
$DWGCODEPAGE
  3
ANSI_1252
  9
$INSBASE
 10
0.0
 20
0.0
 30
0.0
  9
$EXTMIN
 10
-650.0
 20
-450.0
 30
0.0
  9
$EXTMAX
 10
650.0
 20
450.0
 30
0.0
  9
$LIMMIN
 10
0.0
 20
0.0
  9
$LIMMAX
 10
420.0
 20
297.0
  9
$ORTHOMODE
 70
     0
  9
$REGENMODE
 70
     1
  9
$FILLMODE
 70
     1
  9
$QTEXTMODE
 70
     0
  9
$MIRRTEXT
 70
     1
  9
$LTSCALE
 40
1.0
  9
$ATTMODE
 70
     1
  9
$TEXTSIZE
 40
3.5
  9
$TRACEWID
 40
1.0
  9
$TEXTSTYLE
  7
STANDARD
  9
$CLAYER
  8
0
  9
$CELTYPE
  6
ByLayer
  9
$CECOLOR
 62
   256
  9
$CELTSCALE
 40
1.0
  9
$DISPSILH
 70
     0
  9
$DIMSCALE
 40
1.0
  9
$DIMASZ
 40
7.4083333333
  9
$DIMEXO
 40
1.0
  9
$DIMDLI
 40
3.75
  9
$DIMRND
 40
0.0
  9
$DIMDLE
 40
0.0
  9
$DIMEXE
 40
1.0
  9
$DIMTP
 40
0.0
  9
$DIMTM
 40
0.0
  9
$DIMTXT
 40
7.0555555556
  9
$DIMCEN
 40
2.5
  9
$DIMTSZ
 40
0.0
  9
$DIMTOL
 70
     0
  9
$DIMLIM
 70
     0
  9
$DIMTIH
 70
     1
  9
$DIMTOH
 70
     1
  9
$DIMSE1
 70
     0
  9
$DIMSE2
 70
     0
  9
$DIMTAD
 70
     1
  9
$DIMZIN
 70
     0
  9
$DIMBLK
  1

  9
$DIMASO
 70
     1
  9
$DIMSHO
 70
     1
  9
$DIMPOST
  1

  9
$DIMAPOST
  1

  9
$DIMALT
 70
     0
  9
$DIMALTD
 70
     3
  9
$DIMALTF
 40
0.0393700787
  9
$DIMLFAC
 40
1.0
  9
$DIMTOFL
 70
     1
  9
$DIMTVP
 40
0.0
  9
$DIMTIX
 70
     0
  9
$DIMSOXD
 70
     0
  9
$DIMSAH
 70
     0
  9
$DIMBLK1
  1

  9
$DIMBLK2
  1

  9
$DIMSTYLE
  2
ISO-25
  9
$DIMCLRD
 70
     0
  9
$DIMCLRE
 70
     0
  9
$DIMCLRT
 70
     0
  9
$DIMTFAC
 40
1.0
  9
$DIMGAP
 40
1.524
  9
$DIMJUST
 70
     0
  9
$DIMSD1
 70
     0
  9
$DIMSD2
 70
     0
  9
$DIMTOLJ
 70
     0
  9
$DIMTZIN
 70
     0
  9
$DIMALTZ
 70
     0
  9
$DIMALTTZ
 70
     0
  9
$DIMUPT
 70
     0
  9
$DIMDEC
 70
     2
  9
$DIMTDEC
 70
     2
  9
$DIMALTU
 70
     2
  9
$DIMALTTD
 70
     3
  9
$DIMTXSTY
  7
STANDARD
  9
$DIMAUNIT
 70
     0
  9
$DIMADEC
 70
     2
  9
$DIMALTRND
 40
0.0
  9
$DIMAZIN
 70
     0
  9
$DIMDSEP
 70
    44
  9
$DIMATFIT
 70
     3
  9
$DIMFRAC
 70
     0
  9
$DIMLDRBLK
  1

  9
$DIMLUNIT
 70
     2
  9
$DIMLWD
 70
    -2
  9
$DIMLWE
 70
    -2
  9
$DIMTMOVE
 70
     0
  9
$LUNITS
 70
     2
  9
$LUPREC
 70
     2
  9
$SKETCHINC
 40
1.0
  9
$FILLETRAD
 40
10.0
  9
$AUNITS
 70
     0
  9
$AUPREC
 70
     2
  9
$MENU
  1
.
  9
$ELEVATION
 40
0.0
  9
$PELEVATION
 40
0.0
  9
$THICKNESS
 40
0.0
  9
$LIMCHECK
 70
     0
  9
$CHAMFERA
 40
0.0
  9
$CHAMFERB
 40
0.0
  9
$CHAMFERC
 40
0.0
  9
$CHAMFERD
 40
0.0
  9
$SKPOLY
 70
     0
  9
$TDCREATE
 40
2458232.491818171
  9
$TDUCREATE
 40
2458232.408484838
  9
$TDUPDATE
 40
2458232.491846435
  9
$TDUUPDATE
 40
2458232.408513102
  9
$TDINDWG
 40
0.0000000116
  9
$TDUSRTIMER
 40
0.0000000116
  9
$USRTIMER
 70
     1
  9
$ANGBASE
 50
0.0
  9
$ANGDIR
 70
     0
  9
$PDMODE
 70
     0
  9
$PDSIZE
 40
-1.0
  9
$PLINEWID
 40
0.0
  9
$SPLFRAME
 70
     0
  9
$SPLINETYPE
 70
     6
  9
$SPLINESEGS
 70
     8
  9
$HANDSEED
  5
28A
  9
$SURFTAB1
 70
     6
  9
$SURFTAB2
 70
     6
  9
$SURFTYPE
 70
     6
  9
$SURFU
 70
     6
  9
$SURFV
 70
     6
  9
$UCSBASE
  2

  9
$UCSNAME
  2

  9
$UCSORG
 10
0.0
 20
0.0
 30
0.0
  9
$UCSXDIR
 10
1.0
 20
0.0
 30
0.0
  9
$UCSYDIR
 10
0.0
 20
1.0
 30
0.0
  9
$UCSORTHOREF
  2

  9
$UCSORTHOVIEW
 70
     0
  9
$UCSORGTOP
 10
0.0
 20
0.0
 30
0.0
  9
$UCSORGBOTTOM
 10
0.0
 20
0.0
 30
0.0
  9
$UCSORGLEFT
 10
0.0
 20
0.0
 30
0.0
  9
$UCSORGRIGHT
 10
0.0
 20
0.0
 30
0.0
  9
$UCSORGFRONT
 10
0.0
 20
0.0
 30
0.0
  9
$UCSORGBACK
 10
0.0
 20
0.0
 30
0.0
  9
$PUCSBASE
  2

  9
$PUCSNAME
  2

  9
$PUCSORG
 10
0.0
 20
0.0
 30
0.0
  9
$PUCSXDIR
 10
1.0
 20
0.0
 30
0.0
  9
$PUCSYDIR
 10
0.0
 20
1.0
 30
0.0
  9
$PUCSORTHOREF
  2

  9
$PUCSORTHOVIEW
 70
     0
  9
$PUCSORGTOP
 10
0.0
 20
0.0
 30
0.0
  9
$PUCSORGBOTTOM
 10
0.0
 20
0.0
 30
0.0
  9
$PUCSORGLEFT
 10
0.0
 20
0.0
 30
0.0
  9
$PUCSORGRIGHT
 10
0.0
 20
0.0
 30
0.0
  9
$PUCSORGFRONT
 10
0.0
 20
0.0
 30
0.0
  9
$PUCSORGBACK
 10
0.0
 20
0.0
 30
0.0
  9
$USERI1
 70
     0
  9
$USERI2
 70
     0
  9
$USERI3
 70
     0
  9
$USERI4
 70
     0
  9
$USERI5
 70
     0
  9
$USERR1
 40
0.0
  9
$USERR2
 40
0.0
  9
$USERR3
 40
0.0
  9
$USERR4
 40
0.0
  9
$USERR5
 40
0.0
  9
$WORLDVIEW
 70
     1
  9
$SHADEDGE
 70
     3
  9
$SHADEDIF
 70
    70
  9
$TILEMODE
 70
     1
  9
$MAXACTVP
 70
    64
  9
$PINSBASE
 10
0.0
 20
0.0
 30
0.0
  9
$PLIMCHECK
 70
     0
  9
$PEXTMIN
 10
-650.0
 20
-26.0
 30
0.0
  9
$PEXTMAX
 10
650.0
 20
35.0
 30
0.0
  9
$PLIMMIN
 10
-751.1673151751
 20
-63.9377431907
  9
$PLIMMAX
 10
751.1673151751
 20
998.3190661479
  9
$UNITMODE
 70
     0
  9
$VISRETAIN
 70
     1
  9
$PLINEGEN
 70
     0
  9
$PSLTSCALE
 70
     1
  9
$TREEDEPTH
 70
  3020
  9
$CMLSTYLE
  2
Standard
  9
$CMLJUST
 70
     0
  9
$CMLSCALE
 40
20.0
  9
$PROXYGRAPHICS
 70
     1
  9
$MEASUREMENT
 70
     1
  9
$CELWEIGHT
370
    -1
  9
$ENDCAPS
280
     0
  9
$JOINSTYLE
280
     0
  9
$LWDISPLAY
290
     1
  9
$INSUNITS
 70
     4
  9
$HYPERLINKBASE
  1

  9
$STYLESHEET
  1

  9
$XEDIT
290
     1
  9
$CEPSNTYPE
380
     0
  9
$PSTYLEMODE
290
     1
  9
$FINGERPRINTGUID
  2
{85EC15B2-7B2B-4915-A735-29744F74109A}
  9
$VERSIONGUID
  2
{FAEB1C32-E019-11D5-929B-00C0DF256EC4}
  9
$EXTNAMES
290
     1
  9
$PSVPSCALE
 40
0.0
  9
$OLESTARTUP
290
     0
  0
ENDSEC
  0
SECTION
  2
CLASSES
  0
CLASS
  1
ACDBDICTIONARYWDFLT
  2
AcDbDictionaryWithDefault
  3
ObjectDBX Classes
 90
        0
280
     0
281
     0
  0
CLASS
  1
VISUALSTYLE
  2
AcDbVisualStyle
  3
ObjectDBX Classes
 90
     4095
280
     0
281
     0
  0
CLASS
  1
MATERIAL
  2
AcDbMaterial
  3
ObjectDBX Classes
 90
     1153
280
     0
281
     0
  0
CLASS
  1
SCALE
  2
AcDbScale
  3
ObjectDBX Classes
 90
     1153
280
     0
281
     0
  0
CLASS
  1
TABLESTYLE
  2
AcDbTableStyle
  3
ObjectDBX Classes
 90
     4095
280
     0
281
     0
  0
CLASS
  1
MLEADERSTYLE
  2
AcDbMLeaderStyle
  3
ACDB_MLEADERSTYLE_CLASS
 90
     4095
280
     0
281
     0
  0
CLASS
  1
SUN
  2
AcDbSun
  3
SCENEOE
 90
     1153
280
     0
281
     0
  0
CLASS
  1
ACDBPLACEHOLDER
  2
AcDbPlaceHolder
  3
ObjectDBX Classes
 90
        0
280
     0
281
     0
  0
CLASS
  1
LAYOUT
  2
AcDbLayout
  3
ObjectDBX Classes
 90
        0
280
     0
281
     0
  0
ENDSEC
  0
SECTION
  2
TABLES
  0
TABLE
  2
VPORT
  5
8
330
0
100
AcDbSymbolTable
 70
     1
  0
VPORT
  5
29
330
8
100
AcDbSymbolTableRecord
100
AcDbViewportTableRecord
  2
*Active
 70
     0
 10
0.0
 20
0.0
 11
1.0
 21
1.0
 12
0.0
 22
0.0
 13
0.0
 23
0.0
 14
10.0
 24
10.0
 15
10.0
 25
10.0
 16
0.0
 26
0.0
 36
1.0
 17
0.0
 27
0.0
 37
0.0
 40
918.0
 41
1.4444444444
 42
50.0
 43
0.0
 44
0.0
 50
0.0
 51
0.0
 71
     0
 72
   100
 73
     1
 74
     3
 75
     0
 76
     0
 77
     0
 78
     0
281
     0
 65
     1
110
0.0
120
0.0
130
0.0
111
1.0
121
0.0
131
0.0
112
0.0
122
1.0
132
0.0
 79
     0
146
0.0
  0
ENDTAB
  0
TABLE
  2
LTYPE
  5
5
330
0
100
AcDbSymbolTable
 70
     6
  0
LTYPE
  5
14
330
5
100
AcDbSymbolTableRecord
100
AcDbLinetypeTableRecord
  2
ByBlock
 70
     0
  3

 72
    65
 73
     0
 40
0.0
  0
LTYPE
  5
15
330
5
100
AcDbSymbolTableRecord
100
AcDbLinetypeTableRecord
  2
ByLayer
 70
     0
  3

 72
    65
 73
     0
 40
0.0
  0
LTYPE
  5
16
330
5
100
AcDbSymbolTableRecord
100
AcDbLinetypeTableRecord
  2
Continuous
 70
     0
  3
Solid line
 72
    65
 73
     0
 40
0.0
  0
LTYPE
  5
6E
330
5
100
AcDbSymbolTableRecord
100
AcDbLinetypeTableRecord
  2
HIDDEN
 70
     0
  3
Hidden __ __ __ __ __ __ __ __ __ __ __ __ __ __
 72
    65
 73
     2
 40
1.905
 49
1.27
 74
     0
 49
-0.635
 74
     0
  0
LTYPE
  5
6F
330
5
100
AcDbSymbolTableRecord
100
AcDbLinetypeTableRecord
  2
PHANTOM
 70
     0
  3
Phantom ______  __  __  ______  __  __  ______
 72
    65
 73
     6
 40
12.7
 49
6.35
 74
     0
 49
-1.27
 74
     0
 49
1.27
 74
     0
 49
-1.27
 74
     0
 49
1.27
 74
     0
 49
-1.27
 74
     0
  0
LTYPE
  5
70
330
5
100
AcDbSymbolTableRecord
100
AcDbLinetypeTableRecord
  2
CENTER
 70
     0
  3
Center ____ _ ____ _ ____ _ ____ _ ____ _ ____
 72
    65
 73
     4
 40
10.16
 49
6.35
 74
     0
 49
-1.27
 74
     0
 49
1.27
 74
     0
 49
-1.27
 74
     0
  0
LTYPE
  5
71
330
5
100
AcDbSymbolTableRecord
100
AcDbLinetypeTableRecord
  2
CENTERX2
 70
     0
  3
Center (2x) ________  __  ________  __  _____
 72
    65
 73
     4
 40
20.32
 49
12.7
 74
     0
 49
-2.54
 74
     0
 49
2.54
 74
     0
 49
-2.54
 74
     0
  0
LTYPE
  5
72
330
5
100
AcDbSymbolTableRecord
100
AcDbLinetypeTableRecord
  2
DOT2
 70
     0
  3
Dot (.5x) ........................................
 72
    65
 73
     2
 40
0.635
 49
0.0
 74
     0
 49
-0.635
 74
     0
  0
ENDTAB
  0
TABLE
  2
LAYER
  5
2
330
0
100
AcDbSymbolTable
 70
     1
  0
LAYER
  5
10
330
2
100
AcDbSymbolTableRecord
100
AcDbLayerTableRecord
  2
0
 70
     0
 62
     7
  6
Continuous
370
    -3
390
F
  0
ENDTAB
  0
TABLE
  2
STYLE
  5
3
330
0
100
AcDbSymbolTable
 70
     1
  0
STYLE
  5
11
330
3
100
AcDbSymbolTableRecord
100
AcDbTextStyleTableRecord
  2
STANDARD
 70
     0
 40
0.0
 41
1.0
 50
0.0
 71
     0
 42
3.5
  3
GOTHIC.TTF
  4

1001
ACAD
1000
CENTURY GOTHIC
1071
       34
  0
ENDTAB
  0
TABLE
  2
VIEW
  5
6
330
0
100
AcDbSymbolTable
 70
     0
  0
ENDTAB
  0
TABLE
  2
UCS
  5
7
330
0
100
AcDbSymbolTable
 70
     0
  0
ENDTAB
  0
TABLE
  2
APPID
  5
9
330
0
100
AcDbSymbolTable
 70
     1
  0
APPID
  5
12
330
9
100
AcDbSymbolTableRecord
100
AcDbRegAppTableRecord
  2
ACAD
 70
     0
  0
ENDTAB
  0
TABLE
  2
DIMSTYLE
  5
A
330
0
100
AcDbSymbolTable
 70
     1
100
AcDbDimStyleTable
  0
DIMSTYLE
105
27
330
A
100
AcDbSymbolTableRecord
100
AcDbDimStyleTableRecord
  2
ISO-25
 70
     0
 41
2.5
 42
0.625
 43
3.75
 44
1.25
 73
     0
 74
     0
 77
     1
 78
     8
140
2.5
141
2.5
143
0.0393700787
147
0.625
171
     3
172
     1
178
     0
271
     2
272
     2
274
     3
278
    44
283
     0
284
     8
340
11
  0
ENDTAB
  0
TABLE
  2
BLOCK_RECORD
  5
1
330
0
100
AcDbSymbolTable
 70
     8
  0
BLOCK_RECORD
  5
1F
330
1
100
AcDbSymbolTableRecord
100
AcDbBlockTableRecord
  2
*Model_Space
340
22
  0
BLOCK_RECORD
  5
1B
330
1
100
AcDbSymbolTableRecord
100
AcDbBlockTableRecord
  2
*Paper_Space
340
1E
  0
BLOCK_RECORD
  5
23
330
1
100
AcDbSymbolTableRecord
100
AcDbBlockTableRecord
  2
*Paper_Space0
340
26
  0
BLOCK_RECORD
  5
CB
330
1
100
AcDbSymbolTableRecord
100
AcDbBlockTableRecord
  2
*Paper_Space1
340
CC
  0
BLOCK_RECORD
  5
DD
330
1
100
AcDbSymbolTableRecord
100
AcDbBlockTableRecord
  2
*Paper_Space2
340
DE
  0
BLOCK_RECORD
  5
EF
330
1
100
AcDbSymbolTableRecord
100
AcDbBlockTableRecord
  2
*Paper_Space3
340
F0
  0
BLOCK_RECORD
  5
101
330
1
100
AcDbSymbolTableRecord
100
AcDbBlockTableRecord
  2
*Paper_Space4
340
102
  0
BLOCK_RECORD
  5
12E
330
1
100
AcDbSymbolTableRecord
100
AcDbBlockTableRecord
  2
*Paper_Space5
340
12F
  0
BLOCK_RECORD
  5
1AE
330
1
100
AcDbSymbolTableRecord
100
AcDbBlockTableRecord
  2
*Paper_Space6
340
1AF
  0
BLOCK_RECORD
  5
21A
330
1
100
AcDbSymbolTableRecord
100
AcDbBlockTableRecord
  2
*Paper_Space7
340
21B
  0
ENDTAB
  0
ENDSEC
  0
SECTION
  2
BLOCKS
  0
BLOCK
  5
20
330
1F
100
AcDbEntity
  8
0
100
AcDbBlockBegin
  2
*Model_Space
 70
     0
 10
0.0
 20
0.0
 30
0.0
  3
*Model_Space
  1

  0
ENDBLK
  5
21
330
1F
100
AcDbEntity
  8
0
100
AcDbBlockEnd
  0
BLOCK
  5
1C
330
1B
100
AcDbEntity
 67
     1
  8
0
100
AcDbBlockBegin
  2
*Paper_Space
 70
     0
 10
0.0
 20
0.0
 30
0.0
  3
*Paper_Space
  1

  0
ENDBLK
  5
1D
330
1B
100
AcDbEntity
 67
     1
  8
0
100
AcDbBlockEnd
  0
BLOCK
  5
24
330
23
100
AcDbEntity
  8
0
100
AcDbBlockBegin
  2
*Paper_Space0
 70
     0
 10
0.0
 20
0.0
 30
0.0
  3
*Paper_Space0
  1

  0
LINE
  5
C4
330
23
100
AcDbEntity
  8
0
  6
Continuous
 62
     7
370
    25
100
AcDbLine
 10
450.0
 20
35.0
 30
0.0
 11
450.0
 21
0.0
 31
0.0
  0
LINE
  5
C5
330
23
100
AcDbEntity
  8
0
  6
Continuous
 62
     7
370
    25
100
AcDbLine
 10
-450.0
 20
0.0
 30
0.0
 11
450.0
 21
0.0
 31
0.0
  0
LINE
  5
C6
330
23
100
AcDbEntity
  8
0
  6
Continuous
 62
     7
370
    25
100
AcDbLine
 10
-450.0
 20
35.0
 30
0.0
 11
-450.0
 21
0.0
 31
0.0
  0
LINE
  5
C7
330
23
100
AcDbEntity
  8
0
  6
Continuous
 62
     7
370
    25
100
AcDbLine
 10
-450.0
 20
35.0
 30
0.0
 11
450.0
 21
35.0
 31
0.0
  0
LINE
  5
C8
330
23
100
AcDbEntity
  8
0
  6
Continuous
 62
     7
370
    25
100
AcDbLine
 10
-130.0
 20
-26.0
 30
0.0
 11
-130.0
 21
0.0
 31
0.0
  0
LINE
  5
C9
330
23
100
AcDbEntity
  8
0
  6
Continuous
 62
     7
370
    25
100
AcDbLine
 10
130.0
 20
-26.0
 30
0.0
 11
130.0
 21
0.0
 31
0.0
  0
LINE
  5
CA
330
23
100
AcDbEntity
  8
0
  6
Continuous
 62
     7
370
    25
100
AcDbLine
 10
130.0
 20
-26.0
 30
0.0
 11
-130.0
 21
-26.0
 31
0.0
  0
VIEWPORT
  5
27A
330
23
100
AcDbEntity
  8
0
100
AcDbViewport
 10
0.0
 20
0.0
 30
0.0
 40
205.6
 41
156.0
 68
     1
 69
     1
 12
0.0
 22
0.0
 13
0.0
 23
0.0
 14
10.0
 24
10.0
 15
10.0
 25
10.0
 16
0.0
 26
0.0
 36
1.0
 17
0.0
 27
0.0
 37
0.0
 42
50.0
 43
0.0
 44
0.0
 45
1006.1089494163
 50
0.0
 51
0.0
 72
   100
 90
   557152
  1

281
     0
 71
     1
 74
     0
110
0.0
120
0.0
130
0.0
111
1.0
121
0.0
131
0.0
112
0.0
122
1.0
132
0.0
 79
     0
146
0.0
  0
ENDBLK
  5
25
330
23
100
AcDbEntity
  8
0
100
AcDbBlockEnd
  0
BLOCK
  5
CD
330
CB
100
AcDbEntity
  8
0
100
AcDbBlockBegin
  2
*Paper_Space1
 70
     0
 10
0.0
 20
0.0
 30
0.0
  3
*Paper_Space1
  1

  0
LINE
  5
D6
330
CB
100
AcDbEntity
  8
0
  6
Continuous
 62
     7
370
    25
100
AcDbLine
 10
-650.0
 20
35.0
 30
0.0
 11
650.0
 21
35.0
 31
0.0
  0
LINE
  5
D7
330
CB
100
AcDbEntity
  8
0
  6
Continuous
 62
     7
370
    25
100
AcDbLine
 10
650.0
 20
35.0
 30
0.0
 11
650.0
 21
0.0
 31
0.0
  0
LINE
  5
D8
330
CB
100
AcDbEntity
  8
0
  6
Continuous
 62
     7
370
    25
100
AcDbLine
 10
-650.0
 20
0.0
 30
0.0
 11
650.0
 21
0.0
 31
0.0
  0
LINE
  5
D9
330
CB
100
AcDbEntity
  8
0
  6
Continuous
 62
     7
370
    25
100
AcDbLine
 10
-650.0
 20
35.0
 30
0.0
 11
-650.0
 21
0.0
 31
0.0
  0
LINE
  5
DA
330
CB
100
AcDbEntity
  8
0
  6
Continuous
 62
     7
370
    25
100
AcDbLine
 10
130.0
 20
-26.0
 30
0.0
 11
-130.0
 21
-26.0
 31
0.0
  0
LINE
  5
DB
330
CB
100
AcDbEntity
  8
0
  6
Continuous
 62
     7
370
    25
100
AcDbLine
 10
130.0
 20
-26.0
 30
0.0
 11
130.0
 21
0.0
 31
0.0
  0
LINE
  5
DC
330
CB
100
AcDbEntity
  8
0
  6
Continuous
 62
     7
370
    25
100
AcDbLine
 10
-130.0
 20
-26.0
 30
0.0
 11
-130.0
 21
0.0
 31
0.0
  0
VIEWPORT
  5
27C
330
CB
100
AcDbEntity
  8
0
100
AcDbViewport
 10
0.0
 20
0.0
 30
0.0
 40
205.6
 41
156.0
 68
     1
 69
     1
 12
0.0
 22
0.0
 13
0.0
 23
0.0
 14
10.0
 24
10.0
 15
10.0
 25
10.0
 16
0.0
 26
0.0
 36
1.0
 17
0.0
 27
0.0
 37
0.0
 42
50.0
 43
0.0
 44
0.0
 45
1006.1089494163
 50
0.0
 51
0.0
 72
   100
 90
   557152
  1

281
     0
 71
     1
 74
     0
110
0.0
120
0.0
130
0.0
111
1.0
121
0.0
131
0.0
112
0.0
122
1.0
132
0.0
 79
     0
146
0.0
  0
ENDBLK
  5
CE
330
CB
100
AcDbEntity
  8
0
100
AcDbBlockEnd
  0
BLOCK
  5
DF
330
DD
100
AcDbEntity
  8
0
100
AcDbBlockBegin
  2
*Paper_Space2
 70
     0
 10
0.0
 20
0.0
 30
0.0
  3
*Paper_Space2
  1

  0
LINE
  5
E8
330
DD
100
AcDbEntity
  8
0
  6
Continuous
 62
     7
370
    25
100
AcDbLine
 10
-650.0
 20
35.0
 30
0.0
 11
650.0
 21
35.0
 31
0.0
  0
LINE
  5
E9
330
DD
100
AcDbEntity
  8
0
  6
Continuous
 62
     7
370
    25
100
AcDbLine
 10
-650.0
 20
35.0
 30
0.0
 11
-650.0
 21
0.0
 31
0.0
  0
LINE
  5
EA
330
DD
100
AcDbEntity
  8
0
  6
Continuous
 62
     7
370
    25
100
AcDbLine
 10
-650.0
 20
0.0
 30
0.0
 11
650.0
 21
0.0
 31
0.0
  0
LINE
  5
EB
330
DD
100
AcDbEntity
  8
0
  6
Continuous
 62
     7
370
    25
100
AcDbLine
 10
650.0
 20
35.0
 30
0.0
 11
650.0
 21
0.0
 31
0.0
  0
LINE
  5
EC
330
DD
100
AcDbEntity
  8
0
  6
Continuous
 62
     7
370
    25
100
AcDbLine
 10
130.0
 20
-26.0
 30
0.0
 11
130.0
 21
0.0
 31
0.0
  0
LINE
  5
ED
330
DD
100
AcDbEntity
  8
0
  6
Continuous
 62
     7
370
    25
100
AcDbLine
 10
130.0
 20
-26.0
 30
0.0
 11
-130.0
 21
-26.0
 31
0.0
  0
LINE
  5
EE
330
DD
100
AcDbEntity
  8
0
  6
Continuous
 62
     7
370
    25
100
AcDbLine
 10
-130.0
 20
-26.0
 30
0.0
 11
-130.0
 21
0.0
 31
0.0
  0
VIEWPORT
  5
27E
330
DD
100
AcDbEntity
  8
0
100
AcDbViewport
 10
0.0
 20
0.0
 30
0.0
 40
205.6
 41
156.0
 68
     1
 69
     1
 12
0.0
 22
0.0
 13
0.0
 23
0.0
 14
10.0
 24
10.0
 15
10.0
 25
10.0
 16
0.0
 26
0.0
 36
1.0
 17
0.0
 27
0.0
 37
0.0
 42
50.0
 43
0.0
 44
0.0
 45
1006.1089494163
 50
0.0
 51
0.0
 72
   100
 90
   557152
  1

281
     0
 71
     1
 74
     0
110
0.0
120
0.0
130
0.0
111
1.0
121
0.0
131
0.0
112
0.0
122
1.0
132
0.0
 79
     0
146
0.0
  0
ENDBLK
  5
E0
330
DD
100
AcDbEntity
  8
0
100
AcDbBlockEnd
  0
BLOCK
  5
F1
330
EF
100
AcDbEntity
  8
0
100
AcDbBlockBegin
  2
*Paper_Space3
 70
     0
 10
0.0
 20
0.0
 30
0.0
  3
*Paper_Space3
  1

  0
LINE
  5
FA
330
EF
100
AcDbEntity
  8
0
  6
Continuous
 62
     7
370
    25
100
AcDbLine
 10
-450.0
 20
35.0
 30
0.0
 11
-450.0
 21
0.0
 31
0.0
  0
LINE
  5
FB
330
EF
100
AcDbEntity
  8
0
  6
Continuous
 62
     7
370
    25
100
AcDbLine
 10
-450.0
 20
35.0
 30
0.0
 11
450.0
 21
35.0
 31
0.0
  0
LINE
  5
FC
330
EF
100
AcDbEntity
  8
0
  6
Continuous
 62
     7
370
    25
100
AcDbLine
 10
450.0
 20
35.0
 30
0.0
 11
450.0
 21
0.0
 31
0.0
  0
LINE
  5
FD
330
EF
100
AcDbEntity
  8
0
  6
Continuous
 62
     7
370
    25
100
AcDbLine
 10
-450.0
 20
0.0
 30
0.0
 11
450.0
 21
0.0
 31
0.0
  0
LINE
  5
FE
330
EF
100
AcDbEntity
  8
0
  6
Continuous
 62
     7
370
    25
100
AcDbLine
 10
130.0
 20
-26.0
 30
0.0
 11
-130.0
 21
-26.0
 31
0.0
  0
LINE
  5
FF
330
EF
100
AcDbEntity
  8
0
  6
Continuous
 62
     7
370
    25
100
AcDbLine
 10
-130.0
 20
-26.0
 30
0.0
 11
-130.0
 21
0.0
 31
0.0
  0
LINE
  5
100
330
EF
100
AcDbEntity
  8
0
  6
Continuous
 62
     7
370
    25
100
AcDbLine
 10
130.0
 20
-26.0
 30
0.0
 11
130.0
 21
0.0
 31
0.0
  0
VIEWPORT
  5
280
330
EF
100
AcDbEntity
  8
0
100
AcDbViewport
 10
0.0
 20
0.0
 30
0.0
 40
205.6
 41
156.0
 68
     1
 69
     1
 12
0.0
 22
0.0
 13
0.0
 23
0.0
 14
10.0
 24
10.0
 15
10.0
 25
10.0
 16
0.0
 26
0.0
 36
1.0
 17
0.0
 27
0.0
 37
0.0
 42
50.0
 43
0.0
 44
0.0
 45
1006.1089494163
 50
0.0
 51
0.0
 72
   100
 90
   557152
  1

281
     0
 71
     1
 74
     0
110
0.0
120
0.0
130
0.0
111
1.0
121
0.0
131
0.0
112
0.0
122
1.0
132
0.0
 79
     0
146
0.0
  0
ENDBLK
  5
F2
330
EF
100
AcDbEntity
  8
0
100
AcDbBlockEnd
  0
BLOCK
  5
103
330
101
100
AcDbEntity
  8
0
100
AcDbBlockBegin
  2
*Paper_Space4
 70
     0
 10
0.0
 20
0.0
 30
0.0
  3
*Paper_Space4
  1

  0
CIRCLE
  5
10D
330
101
100
AcDbEntity
  8
0
  6
Continuous
 62
     7
370
    25
100
AcDbCircle
 10
0.0
 20
0.0
 30
0.0
 40
44.99999999999995
  0
LINE
  5
11A
330
101
100
AcDbEntity
  8
0
  6
Continuous
 62
     7
370
    25
100
AcDbLine
 10
650.0
 20
-450.0
 30
0.0
 11
-650.0
 21
-450.0
 31
0.0
  0
LINE
  5
11B
330
101
100
AcDbEntity
  8
0
  6
Continuous
 62
     7
370
    25
100
AcDbLine
 10
-650.0
 20
450.0
 30
0.0
 11
650.0
 21
450.0
 31
0.0
  0
LINE
  5
11C
330
101
100
AcDbEntity
  8
0
  6
Continuous
 62
     7
370
    25
100
AcDbLine
 10
650.0
 20
450.0
 30
0.0
 11
650.0
 21
-450.0
 31
0.0
  0
LINE
  5
11D
330
101
100
AcDbEntity
  8
0
  6
Continuous
 62
     7
370
    25
100
AcDbLine
 10
-650.0
 20
-450.0
 30
0.0
 11
-650.0
 21
450.0
 31
0.0
  0
LINE
  5
11E
330
101
100
AcDbEntity
  8
0
  6
Continuous
 62
     7
370
    25
100
AcDbLine
 10
130.0
 20
-130.0
 30
0.0
 11
130.0
 21
130.0
 31
0.0
  0
LINE
  5
11F
330
101
100
AcDbEntity
  8
0
  6
Continuous
 62
     7
370
    25
100
AcDbLine
 10
-130.0
 20
-130.0
 30
0.0
 11
130.0
 21
-130.0
 31
0.0
  0
LINE
  5
120
330
101
100
AcDbEntity
  8
0
  6
Continuous
 62
     7
370
    25
100
AcDbLine
 10
-130.0
 20
130.0
 30
0.0
 11
-130.0
 21
-130.0
 31
0.0
  0
LINE
  5
121
330
101
100
AcDbEntity
  8
0
  6
Continuous
 62
     7
370
    25
100
AcDbLine
 10
130.0
 20
130.0
 30
0.0
 11
-130.0
 21
130.0
 31
0.0
  0
LINE
  5
122
330
101
100
AcDbEntity
  8
0
  6
Continuous
 62
     7
370
    25
100
AcDbLine
 10
-28.8654208587
 20
34.5222751082
 30
0.0
 11
-19.3431457505
 21
25.0
 31
0.0
  0
LINE
  5
123
330
101
100
AcDbEntity
  8
0
  6
Continuous
 62
     7
370
    25
100
AcDbLine
 10
-19.3431457505
 20
25.0
 30
0.0
 11
19.3431457505
 21
25.0
 31
0.0
  0
LINE
  5
124
330
101
100
AcDbEntity
  8
0
  6
Continuous
 62
     7
370
    25
100
AcDbLine
 10
19.3431457505
 20
25.0
 30
0.0
 11
28.8654208587
 21
34.5222751082
 31
0.0
  0
LINE
  5
125
330
101
100
AcDbEntity
  8
0
  6
Continuous
 62
     7
370
    25
100
AcDbLine
 10
34.5222751082
 20
28.8654208587
 30
0.0
 11
25.0
 21
19.3431457505
 31
0.0
  0
LINE
  5
126
330
101
100
AcDbEntity
  8
0
  6
Continuous
 62
     7
370
    25
100
AcDbLine
 10
25.0
 20
19.3431457505
 30
0.0
 11
25.0
 21
-19.3431457505
 31
0.0
  0
LINE
  5
127
330
101
100
AcDbEntity
  8
0
  6
Continuous
 62
     7
370
    25
100
AcDbLine
 10
25.0
 20
-19.3431457505
 30
0.0
 11
34.5222751082
 21
-28.8654208587
 31
0.0
  0
LINE
  5
128
330
101
100
AcDbEntity
  8
0
  6
Continuous
 62
     7
370
    25
100
AcDbLine
 10
-25.0
 20
19.3431457505
 30
0.0
 11
-34.5222751082
 21
28.8654208587
 31
0.0
  0
LINE
  5
129
330
101
100
AcDbEntity
  8
0
  6
Continuous
 62
     7
370
    25
100
AcDbLine
 10
-25.0
 20
-19.3431457505
 30
0.0
 11
-25.0
 21
19.3431457505
 31
0.0
  0
LINE
  5
12A
330
101
100
AcDbEntity
  8
0
  6
Continuous
 62
     7
370
    25
100
AcDbLine
 10
-34.5222751082
 20
-28.8654208587
 30
0.0
 11
-25.0
 21
-19.3431457505
 31
0.0
  0
LINE
  5
12B
330
101
100
AcDbEntity
  8
0
  6
Continuous
 62
     7
370
    25
100
AcDbLine
 10
-19.3431457505
 20
-25.0
 30
0.0
 11
-28.8654208587
 21
-34.5222751082
 31
0.0
  0
LINE
  5
12C
330
101
100
AcDbEntity
  8
0
  6
Continuous
 62
     7
370
    25
100
AcDbLine
 10
28.8654208587
 20
-34.5222751082
 30
0.0
 11
19.3431457505
 21
-25.0
 31
0.0
  0
LINE
  5
12D
330
101
100
AcDbEntity
  8
0
  6
Continuous
 62
     7
370
    25
100
AcDbLine
 10
19.3431457505
 20
-25.0
 30
0.0
 11
-19.3431457505
 21
-25.0
 31
0.0
  0
VIEWPORT
  5
282
330
101
100
AcDbEntity
  8
0
100
AcDbViewport
 10
0.0
 20
0.0
 30
0.0
 40
205.6
 41
156.0
 68
     1
 69
     1
 12
0.0
 22
0.0
 13
0.0
 23
0.0
 14
10.0
 24
10.0
 15
10.0
 25
10.0
 16
0.0
 26
0.0
 36
1.0
 17
0.0
 27
0.0
 37
0.0
 42
50.0
 43
0.0
 44
0.0
 45
1006.1089494163
 50
0.0
 51
0.0
 72
   100
 90
   557152
  1

281
     0
 71
     1
 74
     0
110
0.0
120
0.0
130
0.0
111
1.0
121
0.0
131
0.0
112
0.0
122
1.0
132
0.0
 79
     0
146
0.0
  0
ENDBLK
  5
104
330
101
100
AcDbEntity
  8
0
100
AcDbBlockEnd
  0
BLOCK
  5
130
330
12E
100
AcDbEntity
  8
0
100
AcDbBlockBegin
  2
*Paper_Space5
 70
     0
 10
0.0
 20
0.0
 30
0.0
  3
*Paper_Space5
  1

  0
SPLINE
  5
143
330
12E
100
AcDbEntity
  8
0
  6
Continuous
 62
     7
370
    25
100
AcDbSpline
210
0.0
220
0.0
230
1.0
 70
     8
 71
     3
 72
     8
 73
     4
 74
     0
 42
0.000000001
 43
0.00000001
 40
0.0
 40
0.0
 40
0.0
 40
0.0
 40
1.0
 40
1.0
 40
1.0
 40
1.0
 10
17.9582674587057
 20
-38.31232390911838
 30
0.0
 10
12.56097101569074
 20
-41.33107744196828
 30
0.0
 10
7.164148012829476
 20
-44.32206378368411
 30
0.0
 10
1.76776695296603
 20
-47.28713023754011
 30
0.0
  0
SPLINE
  5
146
330
12E
100
AcDbEntity
  8
0
  6
Continuous
 62
     7
370
    25
100
AcDbSpline
210
0.0
220
0.0
230
1.0
 70
     8
 71
     3
 72
     8
 73
     4
 74
     0
 42
0.000000001
 43
0.00000001
 40
0.0
 40
0.0
 40
0.0
 40
0.0
 40
1.0
 40
1.0
 40
1.0
 40
1.0
 10
-111.3693180368814
 20
18.02551870827672
 30
0.0
 10
-105.9729369770179
 20
20.99058516213272
 30
0.0
 10
-100.5761139741566
 20
23.98157150384851
 30
0.0
 10
-95.17881753114166
 20
27.0003250366984
 30
0.0
  0
SPLINE
  5
147
330
12E
100
AcDbEntity
  8
0
  6
Continuous
 62
     7
370
    25
100
AcDbSpline
210
0.0
220
0.0
230
1.0
 70
     8
 71
     3
 72
    20
 73
    16
 74
     0
 42
0.000000001
 43
0.00000001
 40
0.0
 40
0.0
 40
0.0
 40
0.0
 40
0.1249999999999988
 40
0.1249999999999988
 40
0.2499999999999976
 40
0.2499999999999976
 40
0.3749999999999963
 40
0.3749999999999963
 40
0.4999999999999951
 40
0.4999999999999951
 40
0.6249999999999939
 40
0.6249999999999939
 40
0.7499999999999927
 40
0.7499999999999927
 40
1.0
 40
1.0
 40
1.0
 40
1.0
 10
-111.3693180368814
 20
16.00681066038744
 30
0.0
 10
-111.4860379830976
 20
16.0760322452501
 30
0.0
 10
-111.5893657509294
 20
16.15037207528356
 30
0.0
 10
-111.7703277535875
 20
16.30887765690145
 30
0.0
 10
-111.8485871238568
 20
16.39403472085102
 30
0.0
 10
-111.9739399382711
 20
16.5695473026421
 30
0.0
 10
-112.0211943785936
 20
16.65948825491533
 30
0.0
 10
-112.0851370233455
 20
16.84370889232845
 30
0.0
 10
-112.1015008765818
 20
16.93857717530109
 30
0.0
 10
-112.1016010551984
 20
17.12469134948521
 30
0.0
 10
-112.0858610242806
 20
17.21688353625497
 30
0.0
 10
-112.0220549253396
 20
17.39950360588447
 30
0.0
 10
-111.9741908624394
 20
17.48852941860974
 30
0.0
 10
-111.787760082543
 20
17.74207029759266
 30
0.0
 10
-111.6027107780631
 20
17.89727999055566
 30
0.0
 10
-111.3693180368814
 20
18.02551870827675
 30
0.0
  0
SPLINE
  5
148
330
12E
100
AcDbEntity
  8
0
  6
Continuous
 62
     7
370
    25
100
AcDbSpline
210
0.0
220
0.0
230
1.0
 70
     8
 71
     3
 72
    18
 73
    14
 74
     0
 42
0.000000001
 43
0.00000001
 40
0.0
 40
0.0
 40
0.0
 40
0.0
 40
0.1250000000000001
 40
0.1250000000000001
 40
0.25
 40
0.25
 40
0.4999999999999999
 40
0.4999999999999999
 40
0.7499999999999999
 40
0.7499999999999999
 40
0.8749999999999999
 40
0.8749999999999999
 40
1.0
 40
1.0
 40
1.0
 40
1.0
 10
-1.767766952966682
 20
-47.26481800587262
 30
0.0
 10
-6.334396173527692
 20
-44.70057170769612
 30
0.0
 10
-10.90100083519287
 20
-42.13838559877277
 30
0.0
 10
-20.03420666988546
 20
-37.01430603472255
 30
0.0
 10
-24.60080526445632
 20
-34.45263036892602
 30
0.0
 10
-38.30078281355011
 20
-26.7523465585371
 30
0.0
 10
-47.43424417971679
 20
-21.59862641900642
 30
0.0
 10
-65.70284278387578
 20
-11.0523889119617
 30
0.0
 10
-74.83630299228497
 20
-5.660839693305726
 30
0.0
 10
-88.53628027396812
 20
2.456533729281597
 30
0.0
 10
-93.10287874468365
 20
5.167340499366062
 30
0.0
 10
-102.2360843672496
 20
10.58823581004682
 30
0.0
 10
-106.8026889228231
 20
13.29853915236479
 30
0.0
 10
-111.3693180368814
 20
16.00681066038742
 30
0.0
  0
SPLINE
  5
149
330
12E
100
AcDbEntity
  8
0
  6
Continuous
 62
     7
370
    25
100
AcDbSpline
210
0.0
220
0.0
230
1.0
 70
     8
 71
     3
 72
    20
 73
    16
 74
     0
 42
0.000000001
 43
0.00000001
 40
0.0
 40
0.0
 40
0.0
 40
0.0
 40
0.1249999999999988
 40
0.1249999999999988
 40
0.2499999999999976
 40
0.2499999999999976
 40
0.3749999999999963
 40
0.3749999999999963
 40
0.4999999999999951
 40
0.4999999999999951
 40
0.6249999999999939
 40
0.6249999999999939
 40
0.7499999999999927
 40
0.7499999999999927
 40
1.0
 40
1.0
 40
1.0
 40
1.0
 10
1.767766952966002
 20
-47.28713023754008
 30
0.0
 10
1.651070271537991
 20
-47.35124976719155
 30
0.0
 10
1.524875915099859
 20
-47.407867296932
 30
0.0
 10
1.254265046582943
 20
-47.50670591633764
 30
0.0
 10
1.108138741080456
 20
-47.54926328602838
 30
0.0
 10
0.8055447275424135
 20
-47.61699591553251
 30
0.0
 10
0.6498199581062778
 20
-47.64226240590084
 30
0.0
 10
0.3295941877905079
 20
-47.6757532993199
 30
0.0
 10
0.1640354895454596
 20
-47.68379198489911
 30
0.0
 10
-0.1619893232580119
 20
-47.68177122557375
 30
0.0
 10
-0.3240866621391295
 20
-47.67199269763385
 30
0.0
 10
-0.6464080661678153
 20
-47.6344935744127
 30
0.0
 10
-0.8042069390263307
 20
-47.60689429764275
 30
0.0
 10
-1.255433105236896
 20
-47.50045839014658
 30
0.0
 10
-1.534325907787869
 20
-47.39589944625914
 30
0.0
 10
-1.767766952966703
 20
-47.26481800587263
 30
0.0
  0
SPLINE
  5
14A
330
12E
100
AcDbEntity
  8
0
  6
Continuous
 62
     7
370
    25
100
AcDbSpline
210
0.0
220
0.0
230
1.0
 70
     8
 71
     3
 72
    10
 73
     6
 74
     0
 42
0.000000001
 43
0.00000001
 40
0.0
 40
0.0
 40
0.0
 40
0.0
 40
0.5
 40
0.5
 40
1.0
 40
1.0
 40
1.0
 40
1.0
 10
95.17881753114152
 20
6.266150768184979
 30
0.0
 10
82.30911952892296
 20
-1.316834849410199
 30
0.0
 10
69.43939483896459
 20
-8.895321508357899
 30
0.0
 10
43.69819617505454
 20
-23.75540283852122
 30
0.0
 10
30.82813137485786
 20
-31.03617869524477
 30
0.0
 10
17.9582674587057
 20
-38.3123239091184
 30
0.0
  0
SPLINE
  5
14C
330
12E
100
AcDbEntity
  8
0
  6
Continuous
 62
     7
370
    25
100
AcDbSpline
210
0.0
220
0.0
230
1.0
 70
     8
 71
     3
 72
     8
 73
     4
 74
     0
 42
0.000000001
 43
0.00000001
 40
0.0
 40
0.0
 40
0.0
 40
0.0
 40
1.0
 40
1.0
 40
1.0
 40
1.0
 10
111.3693180368811
 20
15.98449842871976
 30
0.0
 10
105.9729369770177
 20
12.71903593139515
 30
0.0
 10
100.5761139741564
 20
9.478983065406135
 30
0.0
 10
95.1788175311415
 20
6.266150768184986
 30
0.0
  0
SPLINE
  5
14D
330
12E
100
AcDbEntity
  8
0
  6
Continuous
 62
     7
370
    25
100
AcDbSpline
210
0.0
220
0.0
230
1.0
 70
     8
 71
     3
 72
    20
 73
    16
 74
     0
 42
0.000000001
 43
0.00000001
 40
0.0
 40
0.0
 40
0.0
 40
0.0
 40
0.1249999999999988
 40
0.1249999999999988
 40
0.2499999999999976
 40
0.2499999999999976
 40
0.3749999999999963
 40
0.3749999999999963
 40
0.4999999999999951
 40
0.4999999999999951
 40
0.6249999999999939
 40
0.6249999999999939
 40
0.7499999999999927
 40
0.7499999999999927
 40
1.0
 40
1.0
 40
1.0
 40
1.0
 10
111.3693180368811
 20
18.04783093994402
 30
0.0
 10
111.4860379830973
 20
17.98229054339496
 30
0.0
 10
111.5893657509291
 20
17.91089899618744
 30
0.0
 10
111.7703277535872
 20
17.75689661613004
 30
0.0
 10
111.8485871238566
 20
17.67329970981479
 30
0.0
 10
111.9739399382708
 20
17.49939083785218
 30
0.0
 10
112.0211943785933
 20
17.40951029801187
 30
0.0
 10
112.0851370233452
 20
17.22395844614536
 30
0.0
 10
112.1015008765815
 20
17.12767097685763
 30
0.0
 10
112.1016010551981
 20
16.93737142770911
 30
0.0
 10
112.0858610242803
 20
16.84241475145881
 30
0.0
 10
112.0220549253393
 20
16.65290297982934
 30
0.0
 10
111.9741908624391
 20
16.55979046479347
 30
0.0
 10
111.7877600825427
 20
16.29244704624402
 30
0.0
 10
111.6027107780629
 20
16.12572923414691
 30
0.0
 10
111.3693180368812
 20
15.98449842871973
 30
0.0
  0
SPLINE
  5
14E
330
12E
100
AcDbEntity
  8
0
  6
Continuous
 62
     7
370
    25
100
AcDbSpline
210
0.0
220
0.0
230
1.0
 70
     8
 71
     3
 72
    18
 73
    14
 74
     0
 42
0.000000001
 43
0.00000001
 40
0.0
 40
0.0
 40
0.0
 40
0.0
 40
0.1249999999999999
 40
0.1249999999999999
 40
0.25
 40
0.25
 40
0.5
 40
0.5
 40
0.75
 40
0.75
 40
0.875
 40
0.875
 40
1.0
 40
1.0
 40
1.0
 40
1.0
 10
1.767766952966439
 20
81.31945960620406
 30
0.0
 10
6.33439617352747
 20
78.61118803501927
 30
0.0
 10
10.90100083519266
 20
75.90088462967883
 30
0.0
 10
20.03420666988522
 20
70.47998919309694
 30
0.0
 10
24.60080526445606
 20
67.76918234954776
 30
0.0
 10
38.30078281354989
 20
59.65180877005734
 30
0.0
 10
47.43424417971661
 20
54.26025887859587
 30
0.0
 10
65.70284278387558
 20
43.71402140323239
 30
0.0
 10
74.83630299228474
 20
38.56030192761454
 30
0.0
 10
88.53628027396792
 20
30.86001826906822
 30
0.0
 10
93.1028787446834
 20
28.29834267280733
 30
0.0
 10
102.2360843672494
 20
23.17426322777213
 30
0.0
 10
106.8026889228229
 20
20.61207717831728
 30
0.0
 10
111.3693180368811
 20
18.04783093994403
 30
0.0
  0
SPLINE
  5
14F
330
12E
100
AcDbEntity
  8
0
  6
Continuous
 62
     7
370
    25
100
AcDbSpline
210
0.0
220
0.0
230
1.0
 70
     8
 71
     3
 72
    20
 73
    16
 74
     0
 42
0.000000001
 43
0.00000001
 40
0.0
 40
0.0
 40
0.0
 40
0.0
 40
0.1249999999999988
 40
0.1249999999999988
 40
0.2499999999999976
 40
0.2499999999999976
 40
0.3749999999999963
 40
0.3749999999999963
 40
0.4999999999999951
 40
0.4999999999999951
 40
0.6249999999999939
 40
0.6249999999999939
 40
0.7499999999999927
 40
0.7499999999999927
 40
1.0
 40
1.0
 40
1.0
 40
1.0
 10
-1.767766952966293
 20
81.29714737453656
 30
0.0
 10
-1.651070271538303
 20
81.36776296534423
 30
0.0
 10
-1.524875915100095
 20
81.4304250906633
 30
0.0
 10
-1.254265046583179
 20
81.54049289857615
 30
0.0
 10
-1.108138741080691
 20
81.58828366956003
 30
0.0
 10
-0.8055447275426495
 20
81.66528744042029
 30
0.0
 10
-0.6498199581065414
 20
81.69458866114856
 30
0.0
 10
-0.3295941877907507
 20
81.73495124921959
 30
0.0
 10
-0.1640354895457094
 20
81.74582664450361
 30
0.0
 10
0.1619893232577344
 20
81.74800144752147
 30
0.0
 10
0.3240866621388658
 20
81.73962537636552
 30
0.0
 10
0.6464080661675725
 20
81.7034913102043
 30
0.0
 10
0.8042069390260531
 20
81.6758315133685
 30
0.0
 10
1.255433105236597
 20
81.56702542128484
 30
0.0
 10
1.534325907787647
 20
81.45790345957384
 30
0.0
 10
1.767766952966453
 20
81.31945960620405
 30
0.0
  0
SPLINE
  5
150
330
12E
100
AcDbEntity
  8
0
  6
Continuous
 62
     7
370
    25
100
AcDbSpline
210
0.0
220
0.0
230
1.0
 70
     8
 71
     3
 72
     8
 73
     4
 74
     0
 42
0.000000001
 43
0.00000001
 40
0.0
 40
0.0
 40
0.0
 40
0.0
 40
1.0
 40
1.0
 40
1.0
 40
1.0
 10
-17.95826745870589
 20
71.57879971400183
 30
0.0
 10
-12.56097101569096
 20
74.79163201122296
 30
0.0
 10
-7.164148012829739
 20
78.031684877212
 30
0.0
 10
-1.767766952966321
 20
81.2971473745366
 30
0.0
  0
SPLINE
  5
152
330
12E
100
AcDbEntity
  8
0
  6
Continuous
 62
     7
370
    25
100
AcDbSpline
210
0.0
220
0.0
230
1.0
 70
     8
 71
     3
 72
    10
 73
     6
 74
     0
 42
0.000000001
 43
0.00000001
 40
0.0
 40
0.0
 40
0.0
 40
0.0
 40
0.5
 40
0.5
 40
1.0
 40
1.0
 40
1.0
 40
1.0
 10
-95.17881753114173
 20
27.00032503669842
 30
0.0
 10
-82.30911952892318
 20
34.27637644896842
 30
0.0
 10
-69.43939483896479
 20
41.55695763092331
 30
0.0
 10
-43.69819617505473
 20
56.41703166681595
 30
0.0
 10
-30.82813137485812
 20
63.99571633786002
 30
0.0
 10
-17.95826745870593
 20
71.57879971400186
 30
0.0
  0
SPLINE
  5
157
330
12E
100
AcDbEntity
  8
0
  6
Continuous
 62
     7
370
    25
100
AcDbSpline
210
0.0
220
0.0
230
1.0
 70
     8
 71
     3
 72
     9
 73
     5
 74
     0
 42
0.000000001
 43
0.00000001
 40
0.0
 40
0.0
 40
0.0
 40
0.0
 40
0.9791057574075005
 40
0.9999999999999999
 40
0.9999999999999999
 40
0.9999999999999999
 40
0.9999999999999999
 10
77.5565693703815
 20
-4.044995532289698
 30
0.0
 10
76.66825975995661
 20
-4.0786304719415
 30
0.0
 10
75.76099350837524
 20
-4.112983185524617
 30
0.0
 10
74.8537726670404
 20
-4.148123577424532
 30
0.0
 10
74.83481697469657
 20
-4.148857809297684
 30
0.0
  0
SPLINE
  5
15A
330
12E
100
AcDbEntity
  8
0
  6
Continuous
 62
     7
370
    25
100
AcDbSpline
210
0.0
220
0.0
230
1.0
 70
     8
 71
     3
 72
     9
 73
     5
 74
     0
 42
0.000000001
 43
0.00000001
 40
0.0
 40
0.0
 40
0.0
 40
0.0
 40
0.3034820945894469
 40
1.0
 40
1.0
 40
1.0
 40
1.0
 10
61.49495477736073
 20
-13.44298246220101
 30
0.0
 10
61.65010502301602
 20
-13.21488186066434
 30
0.0
 10
62.16133862928592
 20
-12.46327046215583
 30
0.0
 10
62.49717999557235
 20
-11.68102979625874
 30
0.0
 10
62.73109952056839
 20
-11.13618516612116
 30
0.0
  0
SPLINE
  5
15B
330
12E
100
AcDbEntity
  8
0
  6
Continuous
 62
     7
370
    25
100
AcDbSpline
210
0.0
220
0.0
230
1.0
 70
    24
 71
     3
 72
     9
 73
     5
 74
     0
 42
0.000000001
 43
0.00000001
 40
0.0
 40
0.0
 40
0.0
 40
0.0
 40
0.9689364478964512
 40
1.0
 40
1.0
 40
1.0
 40
1.0
 10
-5.000000000000247
 20
-45.450625147987
 30
0.0
 10
-5.000000000000247
 20
-45.13166739336489
 30
0.0
 10
-5.000000000000226
 20
-44.80248403431739
 30
0.0
 10
-5.000000000000254
 20
-44.47384812327855
 30
0.0
 10
-5.000000000000254
 20
-44.4636395245329
 30
0.0
  0
SPLINE
  5
15E
330
12E
100
AcDbEntity
  8
0
  6
Continuous
 62
     7
370
    25
100
AcDbSpline
210
0.0
220
0.0
230
1.0
 70
     8
 71
     3
 72
     9
 73
     5
 74
     0
 42
0.000000001
 43
0.00000001
 40
0.0
 40
0.0
 40
0.0
 40
0.0
 40
0.0571472381899523
 40
1.0
 40
1.0
 40
1.0
 40
1.0
 10
-19.86644802871388
 20
-37.10636177237039
 30
0.0
 10
-19.80948448126605
 20
-37.11951780804675
 30
0.0
 10
-18.81269882281498
 20
-37.34973078234017
 30
0.0
 10
-17.77476974315169
 20
-37.50627025903037
 30
0.0
 10
-16.79615544382821
 20
-37.65386393696004
 30
0.0
  0
LWPOLYLINE
  5
15F
330
12E
100
AcDbEntity
  8
0
  6
Continuous
 62
     7
370
    25
100
AcDbPolyline
 90
        3
 70
   128
 43
0.0
 10
43.9162371762
 20
-21.9977740021
 10
43.007757221
 20
-23.974873309
 10
42.8824331913
 20
-24.2060220085
  0
LWPOLYLINE
  5
160
330
12E
100
AcDbEntity
  8
0
  6
Continuous
 62
     7
370
    25
100
AcDbPolyline
 90
        3
 70
   128
 43
0.0
 10
-42.8727080091
 20
-24.2236484598
 10
-43.2901580752
 20
-23.4237587737
 10
-43.9162371762
 20
-21.9977740021
  0
LINE
  5
17A
330
12E
100
AcDbEntity
  8
0
  6
Continuous
 62
     7
370
    25
100
AcDbLine
 10
96.9238815543
 20
9.7984897426
 30
0.0
 11
96.9238815543
 21
16.3308162377
 31
0.0
  0
LINE
  5
17B
330
12E
100
AcDbEntity
  8
0
  6
Continuous
 62
     7
370
    25
100
AcDbLine
 10
-96.9238815543
 20
16.3308162377
 30
0.0
 11
-96.9238815543
 21
9.7984897426
 31
0.0
  0
LINE
  5
17C
330
12E
100
AcDbEntity
  8
0
  6
Continuous
 62
     7
370
    25
100
AcDbLine
 10
95.9238815543
 20
6.7133754357
 30
0.0
 11
95.9238815543
 21
8.0666266064
 31
0.0
  0
LINE
  5
17D
330
12E
100
AcDbEntity
  8
0
  6
Continuous
 62
     7
370
    25
100
AcDbLine
 10
-95.9238815543
 20
8.0666266064
 30
0.0
 11
-95.9238815543
 21
6.8431323351
 31
0.0
  0
LINE
  5
17E
330
12E
100
AcDbEntity
  8
0
  6
Continuous
 62
     7
370
    25
100
AcDbLine
 10
777.8174593052
 20
-53.0618827663
 30
0.0
 11
-141.4213562373
 21
477.6033899185
 31
0.0
  0
LINE
  5
17F
330
12E
100
AcDbEntity
  8
0
  6
Continuous
 62
     7
370
    25
100
AcDbLine
 10
141.4213562373
 20
-420.4455330865
 30
0.0
 11
777.8174593052
 21
-53.0618827663
 31
0.0
  0
LINE
  5
180
330
12E
100
AcDbEntity
  8
0
  6
Continuous
 62
     7
370
    25
100
AcDbLine
 10
-777.8174593052
 20
110.2197395983
 30
0.0
 11
141.4213562373
 21
-420.4455330865
 31
0.0
  0
LINE
  5
181
330
12E
100
AcDbEntity
  8
0
  6
Continuous
 62
     7
370
    25
100
AcDbLine
 10
-141.4213562373
 20
477.6033899185
 30
0.0
 11
-777.8174593052
 21
110.2197395983
 31
0.0
  0
LINE
  5
182
330
12E
100
AcDbEntity
  8
0
  6
Continuous
 62
     7
370
    25
100
AcDbLine
 10
-141.4213562373
 20
461.275227682
 30
0.0
 11
-749.5331880577
 21
110.2197395983
 31
0.0
  0
LINE
  5
183
330
12E
100
AcDbEntity
  8
0
  6
Continuous
 62
     7
370
    25
100
AcDbLine
 10
-749.5331880577
 20
110.2197395983
 30
0.0
 11
141.4213562373
 21
-404.11737085
 31
0.0
  0
LINE
  5
184
330
12E
100
AcDbEntity
  8
0
  6
Continuous
 62
     7
370
    25
100
AcDbLine
 10
141.4213562373
 20
-404.11737085
 30
0.0
 11
749.5331880577
 21
-53.0618827663
 31
0.0
  0
LINE
  5
185
330
12E
100
AcDbEntity
  8
0
  6
Continuous
 62
     7
370
    25
100
AcDbLine
 10
749.5331880577
 20
-53.0618827663
 30
0.0
 11
-141.4213562373
 21
461.275227682
 31
0.0
  0
LINE
  5
186
330
12E
100
AcDbEntity
  8
0
  6
Continuous
 62
     7
370
    25
100
AcDbLine
 10
-777.8174593052
 20
110.2197395983
 30
0.0
 11
-777.8174593052
 21
81.6408111823
 31
0.0
  0
LINE
  5
187
330
12E
100
AcDbEntity
  8
0
  6
Continuous
 62
     7
370
    25
100
AcDbLine
 10
141.4213562373
 20
-420.4455330865
 30
0.0
 11
141.4213562373
 21
-449.0244615025
 31
0.0
  0
LINE
  5
188
330
12E
100
AcDbEntity
  8
0
  6
Continuous
 62
     7
370
    25
100
AcDbLine
 10
-777.8174593052
 20
81.6408111823
 30
0.0
 11
141.4213562373
 21
-449.0244615025
 31
0.0
  0
LINE
  5
189
330
12E
100
AcDbEntity
  8
0
  6
Continuous
 62
     7
370
    25
100
AcDbLine
 10
777.8174593052
 20
-53.0618827663
 30
0.0
 11
777.8174593052
 21
-81.6408111823
 31
0.0
  0
LINE
  5
18A
330
12E
100
AcDbEntity
  8
0
  6
Continuous
 62
     7
370
    25
100
AcDbLine
 10
141.4213562373
 20
-449.0244615025
 30
0.0
 11
777.8174593052
 21
-81.6408111823
 31
0.0
  0
LINE
  5
18B
330
12E
100
AcDbEntity
  8
0
  6
Continuous
 62
     7
370
    25
100
AcDbLine
 10
141.4213562373
 20
-404.11737085
 30
0.0
 11
17.9582674587
 21
-38.3123239091
 31
0.0
  0
LINE
  5
18C
330
12E
100
AcDbEntity
  8
0
  6
Continuous
 62
     7
370
    25
100
AcDbLine
 10
-749.5331880577
 20
110.2197395983
 30
0.0
 11
-95.1788175311
 21
27.0003250367
 31
0.0
  0
LINE
  5
18D
330
12E
100
AcDbEntity
  8
0
  6
Continuous
 62
     7
370
    25
100
AcDbLine
 10
749.5331880577
 20
-53.0618827663
 30
0.0
 11
95.1788175311
 21
6.2661507682
 31
0.0
  0
LINE
  5
18E
330
12E
100
AcDbEntity
  8
0
  6
Continuous
 62
     7
370
    25
100
AcDbLine
 10
-17.9582674587
 20
71.578799714
 30
0.0
 11
-141.4213562373
 21
461.275227682
 31
0.0
  0
LINE
  5
18F
330
12E
100
AcDbEntity
  8
0
  6
Continuous
 62
     7
370
    25
100
AcDbLine
 10
98.661454547
 20
8.3566035793
 30
0.0
 11
96.8732836951
 21
9.3888926393
 31
0.0
  0
LINE
  5
190
330
12E
100
AcDbEntity
  8
0
  6
Continuous
 62
     7
370
    25
100
AcDbLine
 10
-96.8732836951
 20
9.3888926393
 30
0.0
 11
-98.5668748358
 21
8.4112032844
 31
0.0
  0
LINE
  5
191
330
12E
100
AcDbEntity
  8
0
  6
Continuous
 62
     7
370
    25
100
AcDbLine
 10
5.0
 20
-44.4636395245
 30
0.0
 11
5.0
 21
-45.4954212292
 31
0.0
  0
LINE
  5
192
330
12E
100
AcDbEntity
  8
0
  6
Continuous
 62
     7
370
    25
100
AcDbLine
 10
16.9131182505
 20
-37.5863427459
 30
0.0
 11
20.318619888
 21
-36.9752086679
 31
0.0
  0
LINE
  5
193
330
12E
100
AcDbEntity
  8
0
  6
Continuous
 62
     7
370
    25
100
AcDbLine
 10
-74.8280374816
 20
-4.1527715274
 30
0.0
 11
-77.4903908333
 21
-4.0506338418
 31
0.0
  0
LINE
  5
194
330
12E
100
AcDbEntity
  8
0
  6
Continuous
 62
     7
370
    25
100
AcDbLine
 10
-62.6181064333
 20
-11.201414687
 30
0.0
 11
-61.5078720477
 21
-13.4275377338
 31
0.0
  0
LINE
  5
195
330
12E
100
AcDbEntity
  8
0
  6
Continuous
 62
     7
370
    25
100
AcDbLine
 10
-3.5355339059
 20
71.4383637857
 30
0.0
 11
-95.4594154602
 21
18.3718365173
 31
0.0
  0
LINE
  5
196
330
12E
100
AcDbEntity
  8
0
  6
Continuous
 62
     7
370
    25
100
AcDbLine
 10
95.4594154602
 20
18.3718365173
 30
0.0
 11
3.5355339059
 21
71.4383637857
 31
0.0
  0
LINE
  5
197
330
12E
100
AcDbEntity
  8
0
  6
Continuous
 62
     7
370
    25
100
AcDbLine
 10
3.5355339059
 20
-38.7767313103
 30
0.0
 11
95.4594154602
 21
14.2897959582
 31
0.0
  0
LINE
  5
198
330
12E
100
AcDbEntity
  8
0
  6
Continuous
 62
     7
370
    25
100
AcDbLine
 10
-95.4594154602
 20
14.2897959582
 30
0.0
 11
-3.5355339059
 21
-38.7767313103
 31
0.0
  0
LINE
  5
199
330
12E
100
AcDbEntity
  8
0
  6
Continuous
 62
     7
370
    25
100
AcDbLine
 10
-3.5355339059
 20
-38.7767313103
 30
0.0
 11
-3.5355339059
 21
-45.3090578054
 31
0.0
  0
LINE
  5
19A
330
12E
100
AcDbEntity
  8
0
  6
Continuous
 62
     7
370
    25
100
AcDbLine
 10
3.5355339059
 20
-38.7767313103
 30
0.0
 11
3.5355339059
 21
-45.3090578054
 31
0.0
  0
LINE
  5
19B
330
12E
100
AcDbEntity
  8
0
  6
Continuous
 62
     7
370
    25
100
AcDbLine
 10
-95.4594154602
 20
14.2897959582
 30
0.0
 11
-95.4594154602
 21
7.7574694631
 31
0.0
  0
LINE
  5
19C
330
12E
100
AcDbEntity
  8
0
  6
Continuous
 62
     7
370
    25
100
AcDbLine
 10
-95.4594154602
 20
7.7574694631
 30
0.0
 11
-3.5355339059
 21
-45.3090578054
 31
0.0
  0
LINE
  5
19D
330
12E
100
AcDbEntity
  8
0
  6
Continuous
 62
     7
370
    25
100
AcDbLine
 10
95.4594154602
 20
14.2897959582
 30
0.0
 11
95.4594154602
 21
7.7574694631
 31
0.0
  0
LINE
  5
19E
330
12E
100
AcDbEntity
  8
0
  6
Continuous
 62
     7
370
    25
100
AcDbLine
 10
3.5355339059
 20
-45.3090578054
 30
0.0
 11
95.4594154602
 21
7.7574694631
 31
0.0
  0
LINE
  5
19F
330
12E
100
AcDbEntity
  8
0
  6
Continuous
 62
     7
370
    25
100
AcDbLine
 10
-4.0
 20
-45.0409272366
 30
0.0
 11
-4.0
 21
-46.0119067238
 31
0.0
  0
LINE
  5
1A0
330
12E
100
AcDbEntity
  8
0
  6
Continuous
 62
     7
370
    25
100
AcDbLine
 10
4.0
 20
-45.0409272366
 30
0.0
 11
4.0
 21
-46.0497466699
 31
0.0
  0
LINE
  5
1A1
330
12E
100
AcDbEntity
  8
0
  6
Continuous
 62
    60
370
    25
100
AcDbLine
 10
111.3693180369
 20
15.9844984287
 30
0.0
 11
111.3693180369
 21
18.0478309399
 31
0.0
  0
LINE
  5
1A2
330
12E
100
AcDbEntity
  8
0
  6
Continuous
 62
    60
370
    25
100
AcDbLine
 10
-111.3693180369
 20
16.0068106604
 30
0.0
 11
-111.3693180369
 21
18.0255187083
 31
0.0
  0
LINE
  5
1A3
330
12E
100
AcDbEntity
  8
0
  6
Continuous
 62
    60
370
    25
100
AcDbLine
 10
1.767766953
 20
72.0973595465
 30
0.0
 11
1.767766953
 21
81.3194596062
 31
0.0
  0
LINE
  5
1A4
330
12E
100
AcDbEntity
  8
0
  6
Continuous
 62
    60
370
    25
100
AcDbLine
 10
-1.767766953
 20
72.0973595465
 30
0.0
 11
-1.767766953
 21
81.2971473745
 31
0.0
  0
LINE
  5
1A5
330
12E
100
AcDbEntity
  8
0
  6
Continuous
 62
    60
370
    25
100
AcDbLine
 10
91.9238815543
 20
5.7164491835
 30
0.0
 11
91.9238815543
 21
4.3616195897
 31
0.0
  0
LINE
  5
1A6
330
12E
100
AcDbEntity
  8
0
  6
Continuous
 62
    60
370
    25
100
AcDbLine
 10
-91.9238815543
 20
5.7164491835
 30
0.0
 11
-91.9238815543
 21
4.4699580099
 31
0.0
  0
ARC
  5
1A7
330
12E
100
AcDbEntity
  8
0
  6
Continuous
 62
     7
370
    25
100
AcDbCircle
 10
0.0
 20
64.614808361
 30
0.0
 40
7.685109539558627
100
AcDbArc
 50
62.6096722366
 51
117.3903277634
  0
ARC
  5
1A8
330
12E
100
AcDbEntity
  8
0
  6
Continuous
 62
     7
370
    25
100
AcDbCircle
 10
94.6847803262
 20
16.3308162377
 30
0.0
 40
2.183076584171369
100
AcDbArc
 50
290.7834207995
 51
69.2165792005
  0
ARC
  5
1A9
330
12E
100
AcDbEntity
  8
0
  6
Continuous
 62
     7
370
    25
100
AcDbCircle
 10
0.0
 20
-31.9531758855
 30
0.0
 40
7.6851095395586
100
AcDbArc
 50
242.6096722366
 51
297.3903277634
  0
ARC
  5
1AA
330
12E
100
AcDbEntity
  8
0
  6
Continuous
 62
     7
370
    25
100
AcDbCircle
 10
-94.6847803262
 20
16.3308162377
 30
0.0
 40
2.18307658417134
100
AcDbArc
 50
110.7834207995
 51
249.2165792005
  0
ARC
  5
1AB
330
12E
100
AcDbEntity
  8
0
  6
Continuous
 62
     7
370
    25
100
AcDbCircle
 10
0.0
 20
-38.4855023806
 30
0.0
 40
7.685109539558587
100
AcDbArc
 50
242.6096722366
 51
297.3903277634
  0
ARC
  5
1AC
330
12E
100
AcDbEntity
  8
0
  6
Continuous
 62
     7
370
    25
100
AcDbCircle
 10
94.4215962418
 20
10.0480216271
 30
0.0
 40
2.514696392468924
100
AcDbArc
 50
294.3746582936
 51
354.3052007488
  0
ARC
  5
1AD
330
12E
100
AcDbEntity
  8
0
  6
Continuous
 62
     7
370
    25
100
AcDbCircle
 10
-94.4215962418
 20
10.0480216271
 30
0.0
 40
2.514696392468846
100
AcDbArc
 50
185.6947992512
 51
245.6253417064
  0
VIEWPORT
  5
284
330
12E
100
AcDbEntity
  8
0
100
AcDbViewport
 10
0.0
 20
0.0
 30
0.0
 40
205.6
 41
156.0
 68
     1
 69
     1
 12
0.0
 22
0.0
 13
0.0
 23
0.0
 14
10.0
 24
10.0
 15
10.0
 25
10.0
 16
0.0
 26
0.0
 36
1.0
 17
0.0
 27
0.0
 37
0.0
 42
50.0
 43
0.0
 44
0.0
 45
1006.1089494163
 50
0.0
 51
0.0
 72
   100
 90
   557152
  1

281
     0
 71
     1
 74
     0
110
0.0
120
0.0
130
0.0
111
1.0
121
0.0
131
0.0
112
0.0
122
1.0
132
0.0
 79
     0
146
0.0
  0
ENDBLK
  5
131
330
12E
100
AcDbEntity
  8
0
100
AcDbBlockEnd
  0
BLOCK
  5
1B0
330
1AE
100
AcDbEntity
  8
0
100
AcDbBlockBegin
  2
*Paper_Space6
 70
     0
 10
0.0
 20
0.0
 30
0.0
  3
*Paper_Space6
  1

  0
SPLINE
  5
1C3
330
1AE
100
AcDbEntity
  8
0
  6
Continuous
 62
     7
370
    25
100
AcDbSpline
210
0.0
220
0.0
230
1.0
 70
     8
 71
     3
 72
     8
 73
     4
 74
     0
 42
0.000000001
 43
0.00000001
 40
0.0
 40
0.0
 40
0.0
 40
0.0
 40
1.0
 40
1.0
 40
1.0
 40
1.0
 10
45.27039992594892
 20
-26.64069492278584
 30
0.0
 10
41.70814677032662
 20
-30.01569569128106
 30
0.0
 10
38.14620608849551
 20
-33.36152965464019
 30
0.0
 10
34.58455709211377
 20
-36.68013723004002
 30
0.0
  0
SPLINE
  5
1C6
330
1AE
100
AcDbEntity
  8
0
  6
Continuous
 62
     7
370
    25
100
AcDbSpline
210
0.0
220
0.0
230
1.0
 70
     8
 71
     3
 72
     8
 73
     4
 74
     0
 42
0.000000001
 43
0.00000001
 40
0.0
 40
0.0
 40
0.0
 40
0.0
 40
1.0
 40
1.0
 40
1.0
 40
1.0
 10
-106.9223423762737
 20
1.778405919387403
 30
0.0
 10
-103.360693379892
 20
5.097013494787229
 30
0.0
 10
-99.79875269806074
 20
8.44284745814634
 30
0.0
 10
-96.23649954243844
 20
11.81784822664154
 30
0.0
  0
SPLINE
  5
1C7
330
1AE
100
AcDbEntity
  8
0
  6
Continuous
 62
     7
370
    25
100
AcDbSpline
210
0.0
220
0.0
230
1.0
 70
     8
 71
     3
 72
    20
 73
    16
 74
     0
 42
0.000000001
 43
0.00000001
 40
0.0
 40
0.0
 40
0.0
 40
0.0
 40
0.1249999999999988
 40
0.1249999999999988
 40
0.2499999999999976
 40
0.2499999999999976
 40
0.3749999999999963
 40
0.3749999999999963
 40
0.4999999999999951
 40
0.4999999999999951
 40
0.6249999999999939
 40
0.6249999999999939
 40
0.7499999999999927
 40
0.7499999999999927
 40
1.0
 40
1.0
 40
1.0
 40
1.0
 10
-105.8780355444053
 20
0.062141028778058
 30
0.0
 10
-106.0240237294169
 20
0.1037496611094174
 30
0.0
 10
-106.1600235708374
 20
0.1516858945617358
 30
0.0
 10
-106.4128601140051
 20
0.2597048148001019
 30
0.0
 10
-106.5307999324451
 20
0.3205378738867504
 30
0.0
 10
-106.7399520486867
 20
0.4512265168404236
 30
0.0
 10
-106.8311017296207
 20
0.5207059127808472
 30
0.0
 10
-106.9867901017087
 20
0.6678695783546018
 30
0.0
 10
-107.0513271257473
 20
0.7461021694176797
 30
0.0
 10
-107.1477206094447
 20
0.9043104179096012
 30
0.0
 10
-107.1805610947661
 20
0.9850131675367413
 30
0.0
 10
-107.2148042693133
 20
1.149698078728542
 30
0.0
 10
-107.2156722046879
 20
1.232458436933266
 30
0.0
 10
-107.1708173069036
 20
1.475566234730816
 30
0.0
 10
-107.0763832071882
 20
1.634876596617839
 30
0.0
 10
-106.9223423762737
 20
1.778405919387417
 30
0.0
  0
SPLINE
  5
1C8
330
1AE
100
AcDbEntity
  8
0
  6
Continuous
 62
     7
370
    25
100
AcDbSpline
210
0.0
220
0.0
230
1.0
 70
     8
 71
     3
 72
    18
 73
    14
 74
     0
 42
0.000000001
 43
0.00000001
 40
0.0
 40
0.0
 40
0.0
 40
0.0
 40
0.1250000000000001
 40
0.1250000000000001
 40
0.25
 40
0.25
 40
0.4999999999999999
 40
0.4999999999999999
 40
0.7499999999999999
 40
0.7499999999999999
 40
0.8749999999999999
 40
0.8749999999999999
 40
1.0
 40
1.0
 40
1.0
 40
1.0
 10
31.20677331559508
 20
-37.19457264722973
 30
0.0
 10
25.49503395019323
 20
-35.71783985668456
 30
0.0
 10
19.78332530198019
 20
-34.24326322417878
 30
0.0
 10
8.359912368989093
 20
-31.29441624551209
 30
0.0
 10
2.648211309231326
 20
-29.82037383857663
 30
0.0
 10
-14.4871192142018
 20
-25.38227907579262
 30
0.0
 10
-25.91085175474348
 20
-22.40238476516009
 30
0.0
 10
-48.76041294273971
 20
-16.19236362450588
 30
0.0
 10
-60.18414403520913
 20
-12.96280688628027
 30
0.0
 10
-77.31947422417679
 20
-8.086870401521944
 30
0.0
 10
-83.03117512902172
 20
-6.456276930436225
 30
0.0
 10
-94.45458779669421
 20
-3.195846262712257
 30
0.0
 10
-100.1662963122123
 20
-1.565782886202439
 30
0.0
 10
-105.8780355444052
 20
0.0621410287780511
 30
0.0
  0
SPLINE
  5
1C9
330
1AE
100
AcDbEntity
  8
0
  6
Continuous
 62
     7
370
    25
100
AcDbSpline
210
0.0
220
0.0
230
1.0
 70
     8
 71
     3
 72
    20
 73
    16
 74
     0
 42
0.000000001
 43
0.00000001
 40
0.0
 40
0.0
 40
0.0
 40
0.0
 40
0.1249999999999988
 40
0.1249999999999988
 40
0.2499999999999976
 40
0.2499999999999976
 40
0.3749999999999963
 40
0.3749999999999963
 40
0.4999999999999951
 40
0.4999999999999951
 40
0.6249999999999939
 40
0.6249999999999939
 40
0.7499999999999927
 40
0.7499999999999927
 40
1.0
 40
1.0
 40
1.0
 40
1.0
 10
34.58455709211372
 20
-36.68013723003999
 30
0.0
 10
34.50753647150179
 20
-36.75190208258005
 30
0.0
 10
34.41748798201127
 20
-36.81876194997426
 30
0.0
 10
34.21239580682393
 20
-36.94306771275605
 30
0.0
 10
34.09590316347596
 20
-37.00105553253072
 30
0.0
 10
33.8438382896331
 20
-37.10390656586488
 30
0.0
 10
33.70902175793357
 20
-37.14873481527022
 30
0.0
 10
33.4219778801267
 20
-37.22531862961613
 30
0.0
 10
33.26864494031042
 20
-37.25707682785247
 30
0.0
 10
32.95720626623963
 20
-37.304538202117
 30
0.0
 10
32.79769697938797
 20
-37.3207246741736
 30
0.0
 10
32.47091951480513
 20
-37.33766161868346
 30
0.0
 10
32.30602447984886
 20
-37.33814883781839
 30
0.0
 10
31.81986606067193
 20
-37.31630554381172
 30
0.0
 10
31.49875112742291
 20
-37.27006159748711
 30
0.0
 10
31.20677331559506
 20
-37.19457264722975
 30
0.0
  0
SPLINE
  5
1CA
330
1AE
100
AcDbEntity
  8
0
  6
Continuous
 62
     7
370
    25
100
AcDbSpline
210
0.0
220
0.0
230
1.0
 70
     8
 71
     3
 72
    10
 73
     6
 74
     0
 42
0.000000001
 43
0.00000001
 40
0.0
 40
0.0
 40
0.0
 40
0.0
 40
0.5
 40
0.5
 40
1.0
 40
1.0
 40
1.0
 40
1.0
 10
96.23649954243828
 20
23.10378074091889
 30
0.0
 10
87.74240943559589
 20
14.65218563375381
 30
0.0
 10
79.24830171415549
 20
6.205312309128272
 30
0.0
 10
62.25893173269274
 20
-10.37683745458922
 30
0.0
 10
53.76459953714036
 20
-18.51120054196255
 30
0.0
 10
45.27039992594894
 20
-26.64069492278587
 30
0.0
  0
SPLINE
  5
1CD
330
1AE
100
AcDbEntity
  8
0
  6
Continuous
 62
     7
370
    25
100
AcDbSpline
210
0.0
220
0.0
230
1.0
 70
     8
 71
     3
 72
    10
 73
     6
 74
     0
 42
0.000000001
 43
0.00000001
 40
0.0
 40
0.0
 40
0.0
 40
0.0
 40
0.5
 40
0.5
 40
1.0
 40
1.0
 40
1.0
 40
1.0
 10
-96.23649954243851
 20
11.81784822664154
 30
0.0
 10
-87.74240943559613
 20
19.94723780477233
 30
0.0
 10
-79.2483017141557
 20
28.08138354755346
 30
0.0
 10
-62.25893173269295
 20
44.66352565407828
 30
0.0
 10
-53.76459953714068
 20
53.11061982667045
 30
0.0
 10
-45.27039992594923
 20
61.56232389034636
 30
0.0
  0
SPLINE
  5
1CE
330
1AE
100
AcDbEntity
  8
0
  6
Continuous
 62
     7
370
    25
100
AcDbSpline
210
0.0
220
0.0
230
1.0
 70
     8
 71
     3
 72
     8
 73
     4
 74
     0
 42
0.000000001
 43
0.00000001
 40
0.0
 40
0.0
 40
0.0
 40
0.0
 40
1.0
 40
1.0
 40
1.0
 40
1.0
 10
106.9223423762734
 20
33.92375882462238
 30
0.0
 10
103.3606933798917
 20
30.28980918429021
 30
0.0
 10
99.79875269806054
 20
26.68251654403597
 30
0.0
 10
96.23649954243827
 20
23.10378074091889
 30
0.0
  0
SPLINE
  5
1CF
330
1AE
100
AcDbEntity
  8
0
  6
Continuous
 62
     7
370
    25
100
AcDbSpline
210
0.0
220
0.0
230
1.0
 70
     8
 71
     3
 72
    20
 73
    16
 74
     0
 42
0.000000001
 43
0.00000001
 40
0.0
 40
0.0
 40
0.0
 40
0.0
 40
0.1249999999999988
 40
0.1249999999999988
 40
0.2499999999999976
 40
0.2499999999999976
 40
0.3749999999999963
 40
0.3749999999999963
 40
0.4999999999999951
 40
0.4999999999999951
 40
0.6249999999999939
 40
0.6249999999999939
 40
0.7499999999999927
 40
0.7499999999999927
 40
1.0
 40
1.0
 40
1.0
 40
1.0
 10
105.878035544405
 20
35.68686844145402
 30
0.0
 10
106.0240237294166
 20
35.64912415270993
 30
0.0
 10
106.1600235708371
 20
35.60428289209282
 30
0.0
 10
106.4128601140048
 20
35.50099122745508
 30
0.0
 10
106.5307999324449
 20
35.44179595069187
 30
0.0
 10
106.7399520486863
 20
35.31279080916858
 30
0.0
 10
106.8311017296204
 20
35.24337483144473
 30
0.0
 10
106.9867901017084
 20
35.09481371765644
 30
0.0
 10
107.051327125747
 20
35.01509132953094
 30
0.0
 10
107.1477206094444
 20
34.85248946530243
 30
0.0
 10
107.1805610947657
 20
34.76888468071102
 30
0.0
 10
107.2148042693129
 20
34.5969651751002
 30
0.0
 10
107.2156722046876
 20
34.50991478321025
 30
0.0
 10
107.1708173069033
 20
34.25231770892971
 30
0.0
 10
107.076383207188
 20
34.08092664847777
 30
0.0
 10
106.9223423762735
 20
33.92375882462237
 30
0.0
  0
SPLINE
  5
1D0
330
1AE
100
AcDbEntity
  8
0
  6
Continuous
 62
     7
370
    25
100
AcDbSpline
210
0.0
220
0.0
230
1.0
 70
     8
 71
     3
 72
    18
 73
    14
 74
     0
 42
0.000000001
 43
0.00000001
 40
0.0
 40
0.0
 40
0.0
 40
0.0
 40
0.1249999999999999
 40
0.1249999999999999
 40
0.25
 40
0.25
 40
0.5
 40
0.5
 40
0.75
 40
0.75
 40
0.875
 40
0.875
 40
1.0
 40
1.0
 40
1.0
 40
1.0
 10
-31.20677331559533
 20
72.94358211746183
 30
0.0
 10
-25.49503395019346
 20
71.31565816451496
 30
0.0
 10
-19.7833253019804
 20
69.68559475007613
 30
0.0
 10
-8.359912368989358
 20
66.42516400662987
 30
0.0
 10
-2.648211309231596
 20
64.79457049137986
 30
0.0
 10
14.48711921420156
 20
59.91863391306487
 30
0.0
 10
25.91085175474327
 20
56.68907677661672
 30
0.0
 10
48.76041294273948
 20
50.47905566922002
 30
0.0
 10
60.1841440352089
 20
47.49916174747493
 30
0.0
 10
77.31947422417655
 20
43.06106707293532
 30
0.0
 10
83.03117512902146
 20
41.58702470603956
 30
0.0
 10
94.45458779669394
 20
38.63817779586643
 30
0.0
 10
100.1662963122121
 20
37.16360119755892
 30
0.0
 10
105.878035544405
 20
35.68686844145404
 30
0.0
  0
SPLINE
  5
1D1
330
1AE
100
AcDbEntity
  8
0
  6
Continuous
 62
     7
370
    25
100
AcDbSpline
210
0.0
220
0.0
230
1.0
 70
     8
 71
     3
 72
    20
 73
    16
 74
     0
 42
0.000000001
 43
0.00000001
 40
0.0
 40
0.0
 40
0.0
 40
0.0
 40
0.1249999999999988
 40
0.1249999999999988
 40
0.2499999999999976
 40
0.2499999999999976
 40
0.3749999999999963
 40
0.3749999999999963
 40
0.4999999999999951
 40
0.4999999999999951
 40
0.6249999999999939
 40
0.6249999999999939
 40
0.7499999999999927
 40
0.7499999999999927
 40
1.0
 40
1.0
 40
1.0
 40
1.0
 10
-34.58455709211405
 20
72.3823019740498
 30
0.0
 10
-34.50753647150214
 20
72.46088609529677
 30
0.0
 10
-34.41748798201153
 20
72.53409130342665
 30
0.0
 10
-34.2123958068242
 20
72.67018495612366
 30
0.0
 10
-34.09590316347619
 20
72.73366656187282
 30
0.0
 10
-33.84383828963334
 20
72.84625001653241
 30
0.0
 10
-33.70902175793384
 20
72.89531374183966
 30
0.0
 10
-33.42197788012695
 20
72.97911114780321
 30
0.0
 10
-33.26864494031068
 20
73.0138471945012
 30
0.0
 10
-32.9572062662399
 20
73.06571287874797
 30
0.0
 10
-32.79769697938824
 20
73.08337158596825
 30
0.0
 10
-32.47091951480539
 20
73.10174150511736
 30
0.0
 10
-32.30602447984913
 20
73.10216519304754
 30
0.0
 10
-31.81986606067222
 20
73.07783378736855
 30
0.0
 10
-31.49875112742314
 20
73.02679979305863
 30
0.0
 10
-31.20677331559532
 20
72.94358211746183
 30
0.0
  0
SPLINE
  5
1D2
330
1AE
100
AcDbEntity
  8
0
  6
Continuous
 62
     7
370
    25
100
AcDbSpline
210
0.0
220
0.0
230
1.0
 70
     8
 71
     3
 72
     8
 73
     4
 74
     0
 42
0.000000001
 43
0.00000001
 40
0.0
 40
0.0
 40
0.0
 40
0.0
 40
1.0
 40
1.0
 40
1.0
 40
1.0
 10
-45.27039992594916
 20
61.56232389034633
 30
0.0
 10
-41.70814677032688
 20
65.14105969346339
 30
0.0
 10
-38.14620608849578
 20
68.74835233371763
 30
0.0
 10
-34.58455709211407
 20
72.3823019740498
 30
0.0
  0
SPLINE
  5
1D8
330
1AE
100
AcDbEntity
  8
0
  6
Continuous
 62
     7
370
    25
100
AcDbSpline
210
0.0
220
0.0
230
1.0
 70
     8
 71
     3
 72
    10
 73
     6
 74
     0
 42
0.000000001
 43
0.00000001
 40
0.0
 40
0.0
 40
0.0
 40
0.0
 40
0.2793325058437315
 40
0.7446517814580628
 40
1.0
 40
1.0
 40
1.0
 40
1.0
 10
40.33122039805131
 20
-27.6004414895969
 30
0.0
 10
41.18360999601732
 20
-27.23538073997974
 30
0.0
 10
43.45593211873084
 20
-26.26219240043534
 30
0.0
 10
46.27942357682643
 20
-24.81697330391732
 30
0.0
 10
48.11080799405097
 20
-23.69314713161637
 30
0.0
 10
48.75970745489213
 20
-23.29495099626297
 30
0.0
  0
SPLINE
  5
1D9
330
1AE
100
AcDbEntity
  8
0
  6
Continuous
 62
     7
370
    25
100
AcDbSpline
210
0.0
220
0.0
230
1.0
 70
     8
 71
     3
 72
    10
 73
     6
 74
     0
 42
0.000000001
 43
0.00000001
 40
0.0
 40
0.0
 40
0.0
 40
0.0
 40
0.4358877008943538
 40
0.8779236704156147
 40
1.0
 40
1.0
 40
1.0
 40
1.0
 10
62.8407634556411
 20
-9.747693660364948
 30
0.0
 10
63.24861803479622
 20
-8.87948494601249
 30
0.0
 10
64.07008004988175
 20
-7.130821288774144
 30
0.0
 10
64.67416700633659
 20
-5.113044978417233
 30
0.0
 10
64.77290977830786
 20
-3.970910090330388
 30
0.0
 10
64.7942781391721
 20
-3.723747184559739
 30
0.0
  0
LWPOLYLINE
  5
1DE
330
1AE
100
AcDbEntity
  8
0
  6
Continuous
 62
     7
370
    25
100
AcDbPolyline
 90
        9
 70
   128
 43
0.0
 10
92.2444687979
 20
29.9258188284
 10
92.6147383354
 20
30.3932386389
 10
92.80084016
 20
30.8888814008
 10
92.7956224831
 20
31.3936998408
 10
92.599285817
 20
31.8882940694
 10
92.2193752697
 20
32.3536571077
 10
91.6704905905
 20
32.7719053152
 10
90.9737251097
 20
33.1269656477
 10
90.1558551341
 20
33.4051933359
  0
LWPOLYLINE
  5
1E2
330
1AE
100
AcDbEntity
  8
0
  6
Continuous
 62
     7
370
    25
100
AcDbPolyline
 90
        9
 70
   128
 43
0.0
 10
-92.2444687979
 20
4.3608731996
 10
-92.6147383354
 20
3.8934533892
 10
-92.80084016
 20
3.3978106273
 10
-92.7956224831
 20
2.8929921873
 10
-92.599285817
 20
2.3983979587
 10
-92.2193752697
 20
1.9330349204
 10
-91.6704905905
 20
1.5147867129
 10
-90.9737251097
 20
1.1597263804
 10
-90.1558551341
 20
0.8814986922
  0
LINE
  5
1EF
330
1AE
100
AcDbEntity
  8
0
  6
Continuous
 62
     7
370
    25
100
AcDbLine
 10
31.1519776286
 20
-37.2837209874
 30
0.0
 11
31.1519776286
 21
-36.490975213
 31
0.0
  0
LINE
  5
1F0
330
1AE
100
AcDbEntity
  8
0
  6
Continuous
 62
     7
370
    25
100
AcDbLine
 10
-92.8223781895
 20
3.1590437262
 30
0.0
 11
-92.8223781895
 21
-3.6982946794
 31
0.0
  0
LINE
  5
1F1
330
1AE
100
AcDbEntity
  8
0
  6
Continuous
 62
     7
370
    25
100
AcDbLine
 10
92.8223781895
 20
24.2703098962
 30
0.0
 11
92.8223781895
 21
31.1276483019
 31
0.0
  0
LINE
  5
1F2
330
1AE
100
AcDbEntity
  8
0
  6
Continuous
 62
     7
370
    25
100
AcDbLine
 10
91.8223781895
 20
18.7404678937
 30
0.0
 11
91.8223781895
 21
22.6565070493
 31
0.0
  0
LINE
  5
1F3
330
1AE
100
AcDbEntity
  8
0
  6
Continuous
 62
     7
370
    25
100
AcDbLine
 10
784.8847041089
 20
78.7420770419
 30
0.0
 11
-364.8588540718
 21
391.217740131
 31
0.0
  0
LINE
  5
1F4
330
1AE
100
AcDbEntity
  8
0
  6
Continuous
 62
     7
370
    25
100
AcDbLine
 10
364.8588540718
 20
-331.2160290819
 30
0.0
 11
784.8847041089
 21
78.7420770419
 31
0.0
  0
LINE
  5
1F5
330
1AE
100
AcDbEntity
  8
0
  6
Continuous
 62
     7
370
    25
100
AcDbLine
 10
-784.8847041089
 20
-18.7403659928
 30
0.0
 11
364.8588540718
 21
-331.2160290819
 31
0.0
  0
LINE
  5
1F6
330
1AE
100
AcDbEntity
  8
0
  6
Continuous
 62
     7
370
    25
100
AcDbLine
 10
-364.8588540718
 20
391.217740131
 30
0.0
 11
-784.8847041089
 21
-18.7403659928
 31
0.0
  0
LINE
  5
1F7
330
1AE
100
AcDbEntity
  8
0
  6
Continuous
 62
     7
370
    25
100
AcDbLine
 10
-356.5043994168
 20
377.3002421013
 30
0.0
 11
-757.8624338967
 21
-14.4375037504
 31
0.0
  0
LINE
  5
1F8
330
1AE
100
AcDbEntity
  8
0
  6
Continuous
 62
     7
370
    25
100
AcDbLine
 10
-757.8624338967
 20
-14.4375037504
 30
0.0
 11
356.5043994168
 21
-317.2985310521
 31
0.0
  0
LINE
  5
1F9
330
1AE
100
AcDbEntity
  8
0
  6
Continuous
 62
     7
370
    25
100
AcDbLine
 10
356.5043994168
 20
-317.2985310521
 30
0.0
 11
757.8624338967
 21
74.4392147995
 31
0.0
  0
LINE
  5
1FA
330
1AE
100
AcDbEntity
  8
0
  6
Continuous
 62
     7
370
    25
100
AcDbLine
 10
757.8624338967
 20
74.4392147995
 30
0.0
 11
-356.5043994168
 21
377.3002421013
 31
0.0
  0
LINE
  5
1FB
330
1AE
100
AcDbEntity
  8
0
  6
Continuous
 62
     7
370
    25
100
AcDbLine
 10
-784.8847041089
 20
-18.7403659928
 30
0.0
 11
-784.8847041089
 21
-48.7412215174
 31
0.0
  0
LINE
  5
1FC
330
1AE
100
AcDbEntity
  8
0
  6
Continuous
 62
     7
370
    25
100
AcDbLine
 10
364.8588540718
 20
-331.2160290819
 30
0.0
 11
364.8588540718
 21
-361.2168846065
 31
0.0
  0
LINE
  5
1FD
330
1AE
100
AcDbEntity
  8
0
  6
Continuous
 62
     7
370
    25
100
AcDbLine
 10
-784.8847041089
 20
-48.7412215174
 30
0.0
 11
364.8588540718
 21
-361.2168846065
 31
0.0
  0
LINE
  5
1FE
330
1AE
100
AcDbEntity
  8
0
  6
Continuous
 62
     7
370
    25
100
AcDbLine
 10
784.8847041089
 20
78.7420770419
 30
0.0
 11
784.8847041089
 21
48.7412215174
 31
0.0
  0
LINE
  5
1FF
330
1AE
100
AcDbEntity
  8
0
  6
Continuous
 62
     7
370
    25
100
AcDbLine
 10
364.8588540718
 20
-361.2168846065
 30
0.0
 11
784.8847041089
 21
48.7412215174
 31
0.0
  0
LINE
  5
200
330
1AE
100
AcDbEntity
  8
0
  6
Continuous
 62
     7
370
    25
100
AcDbLine
 10
356.5043994168
 20
-317.2985310521
 30
0.0
 11
45.2703999259
 21
-26.6406949228
 31
0.0
  0
LINE
  5
201
330
1AE
100
AcDbEntity
  8
0
  6
Continuous
 62
     7
370
    25
100
AcDbLine
 10
-757.8624338967
 20
-14.4375037504
 30
0.0
 11
-96.2364995424
 21
11.8178482266
 31
0.0
  0
LINE
  5
202
330
1AE
100
AcDbEntity
  8
0
  6
Continuous
 62
     7
370
    25
100
AcDbLine
 10
757.8624338967
 20
74.4392147995
 30
0.0
 11
96.2364995424
 21
23.1037807409
 31
0.0
  0
LINE
  5
203
330
1AE
100
AcDbEntity
  8
0
  6
Continuous
 62
     7
370
    25
100
AcDbLine
 10
-45.2703999259
 20
61.5623238903
 30
0.0
 11
-356.5043994168
 21
377.3002421013
 31
0.0
  0
LINE
  5
204
330
1AE
100
AcDbEntity
  8
0
  6
Continuous
 62
     7
370
    25
100
AcDbLine
 10
-92.8223781895
 20
-2.3106791519
 30
0.0
 11
-93.8933955214
 21
-3.3560249014
 31
0.0
  0
LINE
  5
205
330
1AE
100
AcDbEntity
  8
0
  6
Continuous
 62
     7
370
    25
100
AcDbLine
 10
94.1170663154
 20
21.0087431357
 30
0.0
 11
91.8223781895
 21
21.6323901991
 31
0.0
  0
LINE
  5
206
330
1AE
100
AcDbEntity
  8
0
  6
Continuous
 62
     7
370
    25
100
AcDbLine
 10
82.4874273437
 20
9.5129664963
 30
0.0
 11
77.2836026029
 21
8.4662163699
 31
0.0
  0
LINE
  5
207
330
1AE
100
AcDbEntity
  8
0
  6
Continuous
 62
     7
370
    25
100
AcDbLine
 10
64.6647968002
 20
-3.8501249409
 30
0.0
 11
64.7707525956
 21
-4.436448033
 31
0.0
  0
LINE
  5
208
330
1AE
100
AcDbEntity
  8
0
  6
Continuous
 62
     7
370
    25
100
AcDbLine
 10
-31.574068237
 20
63.5770440842
 30
0.0
 11
-92.2444687979
 21
4.3608731996
 31
0.0
  0
LINE
  5
209
330
1AE
100
AcDbEntity
  8
0
  6
Continuous
 62
     7
370
    25
100
AcDbLine
 10
90.1558551341
 20
33.4051933359
 30
0.0
 11
-24.8185006839
 21
64.6527596448
 31
0.0
  0
LINE
  5
20A
330
1AE
100
AcDbEntity
  8
0
  6
Continuous
 62
     7
370
    25
100
AcDbLine
 10
31.574068237
 20
-29.2903520561
 30
0.0
 11
92.2444687979
 21
29.9258188284
 31
0.0
  0
LINE
  5
20B
330
1AE
100
AcDbEntity
  8
0
  6
Continuous
 62
     7
370
    25
100
AcDbLine
 10
-90.1558551341
 20
0.8814986922
 30
0.0
 11
24.8185006839
 21
-30.3660676167
 31
0.0
  0
LINE
  5
20C
330
1AE
100
AcDbEntity
  8
0
  6
Continuous
 62
     7
370
    25
100
AcDbLine
 10
31.574068237
 20
-29.2903520561
 30
0.0
 11
31.574068237
 21
-36.1476904617
 31
0.0
  0
LINE
  5
20D
330
1AE
100
AcDbEntity
  8
0
  6
Continuous
 62
     7
370
    25
100
AcDbLine
 10
92.2444687979
 20
29.9258188284
 30
0.0
 11
92.2444687979
 21
23.0684804228
 31
0.0
  0
LINE
  5
20E
330
1AE
100
AcDbEntity
  8
0
  6
Continuous
 62
     7
370
    25
100
AcDbLine
 10
31.574068237
 20
-36.1476904617
 30
0.0
 11
92.2444687979
 21
23.0684804228
 31
0.0
  0
LINE
  5
20F
330
1AE
100
AcDbEntity
  8
0
  6
Continuous
 62
    60
370
    25
100
AcDbLine
 10
-106.9223423763
 20
0.6295440343
 30
0.0
 11
-106.9223423763
 21
1.7784059194
 31
0.0
  0
LINE
  5
210
330
1AE
100
AcDbEntity
  8
0
  6
Continuous
 62
    60
370
    25
100
AcDbLine
 10
-34.5845570921
 20
60.6387146708
 30
0.0
 11
-34.5845570921
 21
72.382301974
 31
0.0
  0
LINE
  5
211
330
1AE
100
AcDbEntity
  8
0
  6
Continuous
 62
    60
370
    25
100
AcDbLine
 10
105.8780355444
 20
32.8663432132
 30
0.0
 11
105.8780355444
 21
35.6868684415
 31
0.0
  0
LINE
  5
212
330
1AE
100
AcDbEntity
  8
0
  6
Continuous
 62
    60
370
    25
100
AcDbLine
 10
-31.2067733156
 20
63.8819656894
 30
0.0
 11
-31.2067733156
 21
72.9435821175
 31
0.0
  0
LINE
  5
213
330
1AE
100
AcDbEntity
  8
0
  6
Continuous
 62
    60
370
    25
100
AcDbLine
 10
24.8185006839
 20
-30.3660676167
 30
0.0
 11
24.8185006839
 21
-35.5441963408
 31
0.0
  0
LINE
  5
214
330
1AE
100
AcDbEntity
  8
0
  6
Continuous
 62
    60
370
    25
100
AcDbLine
 10
-90.1558551341
 20
0.8814986922
 30
0.0
 11
-90.1558551341
 21
-4.4220171373
 31
0.0
  0
LINE
  5
215
330
1AE
100
AcDbEntity
  8
0
  6
Continuous
 62
    60
370
    25
100
AcDbLine
 10
89.0038764974
 20
19.9055629926
 30
0.0
 11
89.0038764974
 21
15.9544084134
 31
0.0
  0
ARC
  5
216
330
1AE
100
AcDbEntity
  8
0
  6
Continuous
 62
     7
370
    25
100
AcDbCircle
 10
-27.1104672824
 20
57.2958954606
 30
0.0
 40
7.70561882739399
100
AcDbArc
 50
72.6960345908
 51
125.398914916
  0
ARC
  5
217
330
1AE
100
AcDbEntity
  8
0
  6
Continuous
 62
     7
370
    25
100
AcDbCircle
 10
27.1104672824
 20
-23.0092034325
 30
0.0
 40
7.705618827393836
100
AcDbArc
 50
252.6960345908
 51
305.398914916
  0
ARC
  5
218
330
1AE
100
AcDbEntity
  8
0
  6
Continuous
 62
     7
370
    25
100
AcDbCircle
 10
28.6734211389
 20
-32.9395178953
 30
0.0
 40
4.325057780401252
100
AcDbArc
 50
291.54835006
 51
312.1180930794
  0
ARC
  5
219
330
1AE
100
AcDbEntity
  8
0
  6
Continuous
 62
     7
370
    25
100
AcDbCircle
 10
91.1630990458
 20
24.3283267181
 30
0.0
 40
1.660293115197119
100
AcDbArc
 50
310.6406362013
 51
357.9974645044
  0
VIEWPORT
  5
286
330
1AE
100
AcDbEntity
  8
0
100
AcDbViewport
 10
0.0
 20
0.0
 30
0.0
 40
205.6
 41
156.0
 68
     1
 69
     1
 12
0.0
 22
0.0
 13
0.0
 23
0.0
 14
10.0
 24
10.0
 15
10.0
 25
10.0
 16
0.0
 26
0.0
 36
1.0
 17
0.0
 27
0.0
 37
0.0
 42
50.0
 43
0.0
 44
0.0
 45
1006.1089494163
 50
0.0
 51
0.0
 72
   100
 90
   557152
  1

281
     0
 71
     1
 74
     0
110
0.0
120
0.0
130
0.0
111
1.0
121
0.0
131
0.0
112
0.0
122
1.0
132
0.0
 79
     0
146
0.0
  0
ENDBLK
  5
1B1
330
1AE
100
AcDbEntity
  8
0
100
AcDbBlockEnd
  0
BLOCK
  5
21C
330
21A
100
AcDbEntity
  8
0
100
AcDbBlockBegin
  2
*Paper_Space7
 70
     0
 10
0.0
 20
0.0
 30
0.0
  3
*Paper_Space7
  1

  0
SPLINE
  5
22E
330
21A
100
AcDbEntity
  8
0
  6
Continuous
 62
     7
370
    25
100
AcDbSpline
210
0.0
220
0.0
230
1.0
 70
     8
 71
     3
 72
     8
 73
     4
 74
     0
 42
0.000000001
 43
0.00000001
 40
0.0
 40
0.0
 40
0.0
 40
0.0
 40
1.0
 40
1.0
 40
1.0
 40
1.0
 10
55.52801022425098
 20
-7.248252998966108
 30
0.0
 10
52.82936200336258
 20
-9.516191664686577
 30
0.0
 10
50.13095050255104
 20
-11.75217608464468
 30
0.0
 10
47.4327599732383
 20
-13.95833211962835
 30
0.0
  0
SPLINE
  5
231
330
21A
100
AcDbEntity
  8
0
  6
Continuous
 62
     7
370
    25
100
AcDbSpline
210
0.0
220
0.0
230
1.0
 70
     8
 71
     3
 72
     8
 73
     4
 74
     0
 42
0.000000001
 43
0.00000001
 40
0.0
 40
0.0
 40
0.0
 40
0.0
 40
1.0
 40
1.0
 40
1.0
 40
1.0
 10
-102.2335355026243
 20
4.897848703200665
 30
0.0
 10
-99.53534497331158
 20
7.104004738184347
 30
0.0
 10
-96.83693347249992
 20
9.33998915814243
 30
0.0
 10
-94.13828525161153
 20
11.60792782386289
 30
0.0
  0
SPLINE
  5
232
330
21A
100
AcDbEntity
  8
0
  6
Continuous
 62
     7
370
    25
100
AcDbSpline
210
0.0
220
0.0
230
1.0
 70
     8
 71
     3
 72
    20
 73
    16
 74
     0
 42
0.000000001
 43
0.00000001
 40
0.0
 40
0.0
 40
0.0
 40
0.0
 40
0.1249999999999988
 40
0.1249999999999988
 40
0.2499999999999976
 40
0.2499999999999976
 40
0.3749999999999963
 40
0.3749999999999963
 40
0.4999999999999951
 40
0.4999999999999951
 40
0.6249999999999939
 40
0.6249999999999939
 40
0.7499999999999927
 40
0.7499999999999927
 40
1.0
 40
1.0
 40
1.0
 40
1.0
 10
-100.7788831120944
 20
3.849471472746058
 30
0.0
 10
-100.9332890874638
 20
3.871050017043538
 30
0.0
 10
-101.0793979153825
 20
3.896928588330403
 30
0.0
 10
-101.3556970617616
 20
3.956942871808439
 30
0.0
 10
-101.4871618021031
 20
3.991516198978372
 30
0.0
 10
-101.7259309095247
 20
4.067196465940708
 30
0.0
 10
-101.8330805420123
 20
4.108068447061259
 30
0.0
 10
-102.0231302752426
 20
4.19583161183951
 30
0.0
 10
-102.1061640696036
 20
4.243068385150258
 30
0.0
 10
-102.2403919959814
 20
4.339687084753987
 30
0.0
 10
-102.2927372240067
 20
4.389495741829394
 30
0.0
 10
-102.3671926848309
 20
4.492189788434613
 30
0.0
 10
-102.3884733295305
 20
4.544322325601923
 30
0.0
 10
-102.4041725834507
 20
4.698986508126842
 30
0.0
 10
-102.3502318731884
 20
4.802432757075412
 30
0.0
 10
-102.2335355026244
 20
4.897848703200667
 30
0.0
  0
SPLINE
  5
233
330
21A
100
AcDbEntity
  8
0
  6
Continuous
 62
     7
370
    25
100
AcDbSpline
210
0.0
220
0.0
230
1.0
 70
     8
 71
     3
 72
    18
 73
    14
 74
     0
 42
0.000000001
 43
0.00000001
 40
0.0
 40
0.0
 40
0.0
 40
0.0
 40
0.1250000000000001
 40
0.1250000000000001
 40
0.25
 40
0.25
 40
0.4999999999999999
 40
0.4999999999999999
 40
0.7499999999999999
 40
0.7499999999999999
 40
0.8749999999999999
 40
0.8749999999999999
 40
1.0
 40
1.0
 40
1.0
 40
1.0
 10
44.21034063014755
 20
-14.41745369936955
 30
0.0
 10
38.16925800622699
 20
-13.73949735548374
 30
0.0
 10
32.12820787067182
 20
-13.06390750758865
 30
0.0
 10
20.04611221459547
 20
-11.71306397704883
 30
0.0
 10
14.00507010505173
 20
-11.03806047328975
 30
0.0
 10
-4.118296676577433
 20
-8.995524729118042
 30
0.0
 10
-16.20073036902008
 20
-7.610584802141434
 30
0.0
 10
-40.36781472394532
 20
-4.565818351247708
 30
0.0
 10
-52.45024688481874
 20
-2.906271355685032
 30
0.0
 10
-70.5736133126969
 20
-0.3821479664495968
 30
0.0
 10
-76.61465525839542
 20
0.4650480376926259
 30
0.0
 10
-88.69675063385468
 20
2.15860641129766
 30
0.0
 10
-94.73780062906366
 20
3.005218096845886
 30
0.0
 10
-100.7788831120943
 20
3.849471472746054
 30
0.0
  0
SPLINE
  5
234
330
21A
100
AcDbEntity
  8
0
  6
Continuous
 62
     7
370
    25
100
AcDbSpline
210
0.0
220
0.0
230
1.0
 70
     8
 71
     3
 72
    20
 73
    16
 74
     0
 42
0.000000001
 43
0.00000001
 40
0.0
 40
0.0
 40
0.0
 40
0.0
 40
0.1249999999999988
 40
0.1249999999999988
 40
0.2499999999999976
 40
0.2499999999999976
 40
0.3749999999999963
 40
0.3749999999999963
 40
0.4999999999999951
 40
0.4999999999999951
 40
0.6249999999999939
 40
0.6249999999999939
 40
0.7499999999999927
 40
0.7499999999999927
 40
1.0
 40
1.0
 40
1.0
 40
1.0
 10
47.43275997323826
 20
-13.95833211962835
 30
0.0
 10
47.37441163253762
 20
-14.00604021976786
 30
0.0
 10
47.30189913119816
 20
-14.05124460768516
 30
0.0
 10
47.12969883656388
 20
-14.13684617533216
 30
0.0
 10
47.02870973554618
 20
-14.177639487702
 30
0.0
 10
46.80449153261311
 20
-14.25187226244795
 30
0.0
 10
46.6820035213075
 20
-14.28525879184346
 30
0.0
 10
46.41645564081871
 20
-14.34464295075443
 30
0.0
 10
46.27229929311272
 20
-14.37068798052942
 30
0.0
 10
45.97520284006522
 20
-14.41301931769292
 30
0.0
 10
45.82099172558501
 20
-14.42966348111059
 30
0.0
 10
45.50097630729777
 20
-14.45370479407271
 30
0.0
 10
45.33746064117862
 20
-14.46084044931641
 30
0.0
 10
44.84949364897682
 20
-14.46745430145827
 30
0.0
 10
44.51915410582676
 20
-14.45211007935104
 30
0.0
 10
44.21034063014753
 20
-14.41745369936955
 30
0.0
  0
SPLINE
  5
235
330
21A
100
AcDbEntity
  8
0
  6
Continuous
 62
     7
370
    25
100
AcDbSpline
210
0.0
220
0.0
230
1.0
 70
     8
 71
     3
 72
    10
 73
     6
 74
     0
 42
0.000000001
 43
0.00000001
 40
0.0
 40
0.0
 40
0.0
 40
0.0
 40
0.5
 40
0.5
 40
1.0
 40
1.0
 40
1.0
 40
1.0
 10
94.13828525161138
 20
26.80280892659387
 30
0.0
 10
87.70343625197829
 20
20.9506065871131
 30
0.0
 10
81.26857390777289
 20
15.1036049363299
 30
0.0
 10
68.3979745787705
 20
3.752799041968634
 30
0.0
 10
61.96294218085084
 20
-1.750377676567608
 30
0.0
 10
55.52801022425101
 20
-7.248252998966124
 30
0.0
  0
SPLINE
  5
238
330
21A
100
AcDbEntity
  8
0
  6
Continuous
 62
     7
370
    25
100
AcDbSpline
210
0.0
220
0.0
230
1.0
 70
     8
 71
     3
 72
    10
 73
     6
 74
     0
 42
0.000000001
 43
0.00000001
 40
0.0
 40
0.0
 40
0.0
 40
0.0
 40
0.5
 40
0.5
 40
1.0
 40
1.0
 40
1.0
 40
1.0
 10
-94.1382852516116
 20
11.6079278238629
 30
0.0
 10
-87.70343625197854
 20
17.10573226951189
 30
0.0
 10
-81.26857390777312
 20
22.6087609391953
 30
0.0
 10
-68.39797457877071
 20
33.95955841131452
 30
0.0
 10
-61.96294218085116
 20
39.80671196435591
 30
0.0
 10
-55.5280102242513
 20
45.65898974942291
 30
0.0
  0
SPLINE
  5
239
330
21A
100
AcDbEntity
  8
0
  6
Continuous
 62
     7
370
    25
100
AcDbSpline
210
0.0
220
0.0
230
1.0
 70
     8
 71
     3
 72
     8
 73
     4
 74
     0
 42
0.000000001
 43
0.00000001
 40
0.0
 40
0.0
 40
0.0
 40
0.0
 40
1.0
 40
1.0
 40
1.0
 40
1.0
 10
102.233535502624
 20
34.3714091162864
 30
0.0
 10
99.5353449733113
 20
31.81840439753388
 30
0.0
 10
96.83693347249974
 20
29.29483830666718
 30
0.0
 10
94.13828525161136
 20
26.80280892659387
 30
0.0
  0
SPLINE
  5
23A
330
21A
100
AcDbEntity
  8
0
  6
Continuous
 62
     7
370
    25
100
AcDbSpline
210
0.0
220
0.0
230
1.0
 70
     8
 71
     3
 72
    20
 73
    16
 74
     0
 42
0.000000001
 43
0.00000001
 40
0.0
 40
0.0
 40
0.0
 40
0.0
 40
0.1249999999999988
 40
0.1249999999999988
 40
0.2499999999999976
 40
0.2499999999999976
 40
0.3749999999999963
 40
0.3749999999999963
 40
0.4999999999999951
 40
0.4999999999999951
 40
0.6249999999999939
 40
0.6249999999999939
 40
0.7499999999999927
 40
0.7499999999999927
 40
1.0
 40
1.0
 40
1.0
 40
1.0
 10
100.7788831120941
 20
35.47131144738117
 30
0.0
 10
100.9332890874635
 20
35.45398334295813
 30
0.0
 10
101.0793979153821
 20
35.43150897102669
 30
0.0
 10
101.3556970617614
 20
35.37669425514606
 30
0.0
 10
101.4871618021028
 20
35.34392234525077
 30
0.0
 10
101.7259309095244
 20
35.27009378258094
 30
0.0
 10
101.833080542012
 20
35.22929155595047
 30
0.0
 10
102.0231302752423
 20
35.1399913203918
 30
0.0
 10
102.1061640696033
 20
35.0911159006471
 30
0.0
 10
102.2403919959811
 20
34.989664608108
 30
0.0
 10
102.2927372240063
 20
34.93666396645599
 30
0.0
 10
102.3671926848306
 20
34.82601249890734
 30
0.0
 10
102.3884733295302
 20
34.7691612999993
 30
0.0
 10
102.4041725834504
 20
34.59856018093542
 30
0.0
 10
102.3502318731882
 20
34.48182622044369
 30
0.0
 10
102.2335355026241
 20
34.37140911628639
 30
0.0
  0
SPLINE
  5
23B
330
21A
100
AcDbEntity
  8
0
  6
Continuous
 62
     7
370
    25
100
AcDbSpline
210
0.0
220
0.0
230
1.0
 70
     8
 71
     3
 72
    18
 73
    14
 74
     0
 42
0.000000001
 43
0.00000001
 40
0.0
 40
0.0
 40
0.0
 40
0.0
 40
0.1249999999999999
 40
0.1249999999999999
 40
0.25
 40
0.25
 40
0.5
 40
0.5
 40
0.75
 40
0.75
 40
0.875
 40
0.875
 40
1.0
 40
1.0
 40
1.0
 40
1.0
 10
-44.2103406301478
 20
53.73823661949677
 30
0.0
 10
-38.16925800622722
 20
52.89398322390696
 30
0.0
 10
-32.12820787067204
 20
52.04737151862504
 30
0.0
 10
-20.04611221459574
 20
50.35381310569007
 30
0.0
 10
-14.005070105052
 20
49.50661707863695
 30
0.0
 10
4.11829667657718
 20
46.98249364191157
 30
0.0
 10
16.20073036901985
 20
45.32294644825542
 30
0.0
 10
40.36781472394507
 20
42.27818003394206
 30
0.0
 10
52.4502468848185
 20
40.89324029479112
 30
0.0
 10
70.57361331269665
 20
38.85070459226632
 30
0.0
 10
76.61465525839515
 20
38.17570110688145
 30
0.0
 10
88.6967506338544
 20
36.82485760772058
 30
0.0
 10
94.73780062906344
 20
36.14926777545571
 30
0.0
 10
100.7788831120941
 20
35.47131144738118
 30
0.0
  0
SPLINE
  5
23C
330
21A
100
AcDbEntity
  8
0
  6
Continuous
 62
     7
370
    25
100
AcDbSpline
210
0.0
220
0.0
230
1.0
 70
     8
 71
     3
 72
    20
 73
    16
 74
     0
 42
0.000000001
 43
0.00000001
 40
0.0
 40
0.0
 40
0.0
 40
0.0
 40
0.1249999999999988
 40
0.1249999999999988
 40
0.2499999999999976
 40
0.2499999999999976
 40
0.3749999999999963
 40
0.3749999999999963
 40
0.4999999999999951
 40
0.4999999999999951
 40
0.6249999999999939
 40
0.6249999999999939
 40
0.7499999999999927
 40
0.7499999999999927
 40
1.0
 40
1.0
 40
1.0
 40
1.0
 10
-47.43275997323857
 20
53.22758993911542
 30
0.0
 10
-47.37441163253797
 20
53.2827986382498
 30
0.0
 10
-47.30189913119843
 20
53.33498234585507
 30
0.0
 10
-47.12969883656415
 20
53.4335495611469
 30
0.0
 10
-47.02870973554641
 20
53.4803855574656
 30
0.0
 10
-46.80449153261333
 20
53.56532314422997
 30
0.0
 10
-46.68200352130778
 20
53.60336832657755
 30
0.0
 10
-46.41645564081896
 20
53.67068680518788
 30
0.0
 10
-46.27229929311299
 20
53.70000720775401
 30
0.0
 10
-45.97520284006549
 20
53.74718290058753
 30
0.0
 10
-45.82099172558527
 20
53.76544639388696
 30
0.0
 10
-45.50097630729801
 20
53.79106385358868
 30
0.0
 10
-45.33746064117889
 20
53.7981296300652
 30
0.0
 10
-44.84949364897711
 20
53.80200677703957
 30
0.0
 10
-44.51915410582697
 20
53.78139392120521
 30
0.0
 10
-44.21034063014778
 20
53.73823661949677
 30
0.0
  0
SPLINE
  5
23D
330
21A
100
AcDbEntity
  8
0
  6
Continuous
 62
     7
370
    25
100
AcDbSpline
210
0.0
220
0.0
230
1.0
 70
     8
 71
     3
 72
     8
 73
     4
 74
     0
 42
0.000000001
 43
0.00000001
 40
0.0
 40
0.0
 40
0.0
 40
0.0
 40
1.0
 40
1.0
 40
1.0
 40
1.0
 10
-55.52801022425124
 20
45.65898974942291
 30
0.0
 10
-52.82936200336286
 20
48.15101912949621
 30
0.0
 10
-50.13095050255133
 20
50.67458522036291
 30
0.0
 10
-47.4327599732386
 20
53.22758993911542
 30
0.0
  0
SPLINE
  5
23E
330
21A
100
AcDbEntity
  8
0
  6
Continuous
 62
     7
370
    25
100
AcDbSpline
210
0.0
220
0.0
230
1.0
 70
     8
 71
     3
 72
     9
 73
     5
 74
     0
 42
0.000000001
 43
0.00000001
 40
0.0
 40
0.0
 40
0.0
 40
0.0
 40
0.9821290468212525
 40
1.0
 40
1.0
 40
1.0
 40
1.0
 10
72.9976614014514
 20
7.829984896384182
 30
0.0
 10
72.10386061686252
 20
7.652620637340719
 30
0.0
 10
71.19379611211977
 20
7.472029034213292
 30
0.0
 10
70.28377715767813
 20
7.290443351964956
 30
0.0
 10
70.26751425155152
 20
7.287198242739563
 30
0.0
  0
SPLINE
  5
23F
330
21A
100
AcDbEntity
  8
0
  6
Continuous
 62
     7
370
    25
100
AcDbSpline
210
0.0
220
0.0
230
1.0
 70
     8
 71
     3
 72
     9
 73
     5
 74
     0
 42
0.000000001
 43
0.00000001
 40
0.0
 40
0.0
 40
0.0
 40
0.0
 40
0.2706076687478423
 40
1.0
 40
1.0
 40
1.0
 40
1.0
 10
64.6436747965127
 20
0.5637021478396496
 30
0.0
 10
64.62062893706978
 20
0.6798193347443502
 30
0.0
 10
64.53546557289181
 20
1.108917251451572
 30
0.0
 10
64.27603960146759
 20
1.529537680188061
 30
0.0
 10
64.0868162873831
 20
1.836334995276452
 30
0.0
  0
LWPOLYLINE
  5
240
330
21A
100
AcDbEntity
  8
0
  6
Continuous
 62
     7
370
    25
100
AcDbPolyline
 90
        3
 70
   128
 43
0.0
 10
61.2218504987
 20
-0.6903273353
 10
62.0212651679
 20
-1.4857108719
 10
62.1818950632
 20
-1.6589696574
  0
LWPOLYLINE
  5
244
330
21A
100
AcDbEntity
  8
0
  6
Continuous
 62
     7
370
    25
100
AcDbPolyline
 90
        9
 70
   128
 43
0.0
 10
88.459974654
 20
30.8739125631
 10
88.7149802561
 20
31.189385422
 10
88.7804488922
 20
31.5153796
 10
88.6538646392
 20
31.8393673238
 10
88.340092059
 20
32.1488979267
 10
87.8511892559
 20
32.4320763213
 10
87.2059444905
 20
32.6780201208
 10
86.4291541572
 20
32.8772778427
 10
85.5506698729
 20
33.0221921246
  0
LWPOLYLINE
  5
248
330
21A
100
AcDbEntity
  8
0
  6
Continuous
 62
     7
370
    25
100
AcDbPolyline
 90
        9
 70
   128
 43
0.0
 10
-88.459974654
 20
6.8384491013
 10
-88.7149802561
 20
6.5229762424
 10
-88.7804488922
 20
6.1969820644
 10
-88.6538646392
 20
5.8729943406
 10
-88.340092059
 20
5.5634637377
 10
-87.8511892559
 20
5.2802853431
 10
-87.2059444905
 20
5.0343415436
 10
-86.4291541572
 20
4.8350838217
 10
-85.5506698729
 20
4.6901695398
  0
LWPOLYLINE
  5
24B
330
21A
100
AcDbEntity
  8
0
  6
Continuous
 62
     7
370
    25
100
AcDbPolyline
 90
        3
 70
   128
 43
0.0
 10
88.459974654
 20
23.3314402302
 10
88.7149802561
 20
23.6469130891
 10
88.7829029204
 20
23.9206958809
  0
LINE
  5
254
330
21A
100
AcDbEntity
  8
0
  6
Continuous
 62
     7
370
    25
100
AcDbLine
 10
-88.7829029204
 20
6.2491934506
 30
0.0
 11
-88.7829029204
 21
2.1705324528
 31
0.0
  0
LINE
  5
255
330
21A
100
AcDbEntity
  8
0
  6
Continuous
 62
     7
370
    25
100
AcDbLine
 10
88.7829029204
 20
23.9206958809
 30
0.0
 11
88.7829029204
 21
31.4631682138
 31
0.0
  0
LINE
  5
256
330
21A
100
AcDbEntity
  8
0
  6
Continuous
 62
     7
370
    25
100
AcDbLine
 10
87.7829029204
 20
21.0829255866
 30
0.0
 11
87.7829029204
 21
22.7343190879
 31
0.0
  0
LINE
  5
257
330
21A
100
AcDbEntity
  8
0
  6
Continuous
 62
     7
370
    25
100
AcDbLine
 10
767.1183511012
 20
96.7072338388
 30
0.0
 11
-448.9202996402
 21
249.9137030243
 31
0.0
  0
LINE
  5
258
330
21A
100
AcDbEntity
  8
0
  6
Continuous
 62
     7
370
    25
100
AcDbLine
 10
448.9202996402
 20
-183.9170701116
 30
0.0
 11
767.1183511012
 21
96.7072338388
 31
0.0
  0
LINE
  5
259
330
21A
100
AcDbEntity
  8
0
  6
Continuous
 62
     7
370
    25
100
AcDbLine
 10
-767.1183511012
 20
-30.7106009261
 30
0.0
 11
448.9202996402
 21
-183.9170701116
 31
0.0
  0
LINE
  5
25A
330
21A
100
AcDbEntity
  8
0
  6
Continuous
 62
     7
370
    25
100
AcDbLine
 10
-448.9202996402
 20
249.9137030243
 30
0.0
 11
-767.1183511012
 21
-30.7106009261
 31
0.0
  0
LINE
  5
25B
330
21A
100
AcDbEntity
  8
0
  6
Continuous
 62
     7
370
    25
100
AcDbLine
 10
-437.283080516
 20
241.3205847781
 30
0.0
 11
-741.3389963564
 21
-26.8315278856
 31
0.0
  0
LINE
  5
25C
330
21A
100
AcDbEntity
  8
0
  6
Continuous
 62
     7
370
    25
100
AcDbLine
 10
-741.3389963564
 20
-26.8315278856
 30
0.0
 11
437.283080516
 21
-175.3239518654
 31
0.0
  0
LINE
  5
25D
330
21A
100
AcDbEntity
  8
0
  6
Continuous
 62
     7
370
    25
100
AcDbLine
 10
437.283080516
 20
-175.3239518654
 30
0.0
 11
741.3389963564
 21
92.8281607984
 31
0.0
  0
LINE
  5
25E
330
21A
100
AcDbEntity
  8
0
  6
Continuous
 62
     7
370
    25
100
AcDbLine
 10
741.3389963564
 20
92.8281607984
 30
0.0
 11
-437.283080516
 21
241.3205847781
 31
0.0
  0
LINE
  5
25F
330
21A
100
AcDbEntity
  8
0
  6
Continuous
 62
     7
370
    25
100
AcDbLine
 10
-767.1183511012
 20
-30.7106009261
 30
0.0
 11
-767.1183511012
 21
-63.7089173825
 31
0.0
  0
LINE
  5
260
330
21A
100
AcDbEntity
  8
0
  6
Continuous
 62
     7
370
    25
100
AcDbLine
 10
448.9202996402
 20
-183.9170701116
 30
0.0
 11
448.9202996402
 21
-216.915386568
 31
0.0
  0
LINE
  5
261
330
21A
100
AcDbEntity
  8
0
  6
Continuous
 62
     7
370
    25
100
AcDbLine
 10
-767.1183511012
 20
-63.7089173825
 30
0.0
 11
448.9202996402
 21
-216.915386568
 31
0.0
  0
LINE
  5
262
330
21A
100
AcDbEntity
  8
0
  6
Continuous
 62
     7
370
    25
100
AcDbLine
 10
767.1183511012
 20
96.7072338388
 30
0.0
 11
767.1183511012
 21
63.7089173825
 31
0.0
  0
LINE
  5
263
330
21A
100
AcDbEntity
  8
0
  6
Continuous
 62
     7
370
    25
100
AcDbLine
 10
448.9202996402
 20
-216.915386568
 30
0.0
 11
767.1183511012
 21
63.7089173825
 31
0.0
  0
LINE
  5
264
330
21A
100
AcDbEntity
  8
0
  6
Continuous
 62
     7
370
    25
100
AcDbLine
 10
437.283080516
 20
-175.3239518654
 30
0.0
 11
55.5280102243
 21
-7.248252999
 31
0.0
  0
LINE
  5
265
330
21A
100
AcDbEntity
  8
0
  6
Continuous
 62
     7
370
    25
100
AcDbLine
 10
-741.3389963564
 20
-26.8315278856
 30
0.0
 11
-94.1382852516
 21
11.6079278239
 31
0.0
  0
LINE
  5
266
330
21A
100
AcDbEntity
  8
0
  6
Continuous
 62
     7
370
    25
100
AcDbLine
 10
741.3389963564
 20
92.8281607984
 30
0.0
 11
94.1382852516
 21
26.8028089266
 31
0.0
  0
LINE
  5
267
330
21A
100
AcDbEntity
  8
0
  6
Continuous
 62
     7
370
    25
100
AcDbLine
 10
-55.5280102243
 20
45.6589897494
 30
0.0
 11
-437.283080516
 21
241.3205847781
 31
0.0
  0
LINE
  5
268
330
21A
100
AcDbEntity
  8
0
  6
Continuous
 62
     7
370
    25
100
AcDbLine
 10
-42.4980338874
 20
47.3730707831
 30
0.0
 11
-88.459974654
 21
6.8384491013
 31
0.0
  0
LINE
  5
269
330
21A
100
AcDbEntity
  8
0
  6
Continuous
 62
     7
370
    25
100
AcDbLine
 10
85.5506698729
 20
33.0221921246
 30
0.0
 11
-36.0531952012
 21
48.3428390432
 31
0.0
  0
LINE
  5
26A
330
21A
100
AcDbEntity
  8
0
  6
Continuous
 62
     7
370
    25
100
AcDbLine
 10
42.4980338874
 20
-9.6607091187
 30
0.0
 11
88.459974654
 21
30.8739125631
 31
0.0
  0
LINE
  5
26B
330
21A
100
AcDbEntity
  8
0
  6
Continuous
 62
     7
370
    25
100
AcDbLine
 10
-85.5506698729
 20
4.6901695398
 30
0.0
 11
36.0531952012
 21
-10.6304773788
 31
0.0
  0
LINE
  5
26C
330
21A
100
AcDbEntity
  8
0
  6
Continuous
 62
     7
370
    25
100
AcDbLine
 10
88.459974654
 20
30.8739125631
 30
0.0
 11
88.459974654
 21
23.3314402302
 31
0.0
  0
LINE
  5
26D
330
21A
100
AcDbEntity
  8
0
  6
Continuous
 62
     7
370
    25
100
AcDbLine
 10
45.6293928254
 20
-14.4415824462
 30
0.0
 11
88.459974654
 21
23.3314402302
 31
0.0
  0
LINE
  5
26E
330
21A
100
AcDbEntity
  8
0
  6
Continuous
 62
    60
370
    25
100
AcDbLine
 10
-102.2335355026
 20
4.3698419921
 30
0.0
 11
-102.2335355026
 21
4.8978487032
 31
0.0
  0
LINE
  5
26F
330
21A
100
AcDbEntity
  8
0
  6
Continuous
 62
    60
370
    25
100
AcDbLine
 10
-47.4327599732
 20
43.0210514458
 30
0.0
 11
-47.4327599732
 21
53.2275899391
 31
0.0
  0
LINE
  5
270
330
21A
100
AcDbEntity
  8
0
  6
Continuous
 62
    60
370
    25
100
AcDbLine
 10
100.7788831121
 20
33.011391573
 30
0.0
 11
100.7788831121
 21
35.4713114474
 31
0.0
  0
LINE
  5
271
330
21A
100
AcDbEntity
  8
0
  6
Continuous
 62
    60
370
    25
100
AcDbLine
 10
-44.2103406301
 20
45.8629581798
 30
0.0
 11
-44.2103406301
 21
53.7382366195
 31
0.0
  0
LINE
  5
272
330
21A
100
AcDbEntity
  8
0
  6
Continuous
 62
    60
370
    25
100
AcDbLine
 10
36.0531952012
 20
-10.6304773788
 30
0.0
 11
36.0531952012
 21
-13.5037097377
 31
0.0
  0
LINE
  5
273
330
21A
100
AcDbEntity
  8
0
  6
Continuous
 62
    60
370
    25
100
AcDbLine
 10
42.4980338874
 20
-9.6607091187
 30
0.0
 11
42.4980338874
 21
-14.2256451849
 31
0.0
  0
LINE
  5
274
330
21A
100
AcDbEntity
  8
0
  6
Continuous
 62
    60
370
    25
100
AcDbLine
 10
-85.5506698729
 20
4.6901695398
 30
0.0
 11
-85.5506698729
 21
1.7181540645
 31
0.0
  0
LINE
  5
275
330
21A
100
AcDbEntity
  8
0
  6
Continuous
 62
    60
370
    25
100
AcDbLine
 10
85.4286542317
 20
20.658066903
 30
0.0
 11
85.4286542317
 21
18.9640872303
 31
0.0
  0
ARC
  5
276
330
21A
100
AcDbEntity
  8
0
  6
Continuous
 62
     7
370
    25
100
AcDbCircle
 10
-37.8934071433
 20
38.6721482657
 30
0.0
 40
9.844218613218661
100
AcDbArc
 50
79.2261330329
 51
117.8883001309
  0
ARC
  5
277
330
21A
100
AcDbEntity
  8
0
  6
Continuous
 62
     7
370
    25
100
AcDbCircle
 10
37.8934071433
 20
-0.9597866013
 30
0.0
 40
9.844218613218553
100
AcDbArc
 50
259.2261330329
 51
297.8883001309
  0
VIEWPORT
  5
288
330
21A
100
AcDbEntity
  8
0
100
AcDbViewport
 10
0.0
 20
0.0
 30
0.0
 40
205.6
 41
156.0
 68
     1
 69
     1
 12
0.0
 22
0.0
 13
0.0
 23
0.0
 14
10.0
 24
10.0
 15
10.0
 25
10.0
 16
0.0
 26
0.0
 36
1.0
 17
0.0
 27
0.0
 37
0.0
 42
50.0
 43
0.0
 44
0.0
 45
1006.1089494163
 50
0.0
 51
0.0
 72
   100
 90
   557152
  1

281
     0
 71
     1
 74
     0
110
0.0
120
0.0
130
0.0
111
1.0
121
0.0
131
0.0
112
0.0
122
1.0
132
0.0
 79
     0
146
0.0
  0
ENDBLK
  5
21D
330
21A
100
AcDbEntity
  8
0
100
AcDbBlockEnd
  0
ENDSEC
  0
SECTION
  2
ENTITIES
  0
SPLINE
  5
73
330
1F
100
AcDbEntity
  8
0
  6
Continuous
 62
     7
370
    25
100
AcDbSpline
210
0.0
220
0.0
230
1.0
 70
    24
 71
     3
 72
     8
 73
     4
 74
     0
 42
0.000000001
 43
0.00000001
 40
0.0
 40
0.0
 40
0.0
 40
0.0
 40
1.0
 40
1.0
 40
1.0
 40
1.0
 10
79.99999999999984
 20
-54.60317460317454
 30
0.0
 10
79.99999999999984
 20
-62.23610443303435
 30
0.0
 10
79.9999999999999
 20
-69.86836471740787
 30
0.0
 10
79.9999999999999
 20
-77.50000000000004
 30
0.0
  0
SPLINE
  5
77
330
1F
100
AcDbEntity
  8
0
  6
Continuous
 62
     7
370
    25
100
AcDbSpline
210
0.0
220
0.0
230
1.0
 70
    24
 71
     3
 72
     8
 73
     4
 74
     0
 42
0.000000001
 43
0.00000001
 40
0.0
 40
0.0
 40
0.0
 40
0.0
 40
1.0
 40
1.0
 40
1.0
 40
1.0
 10
-80.00000000000013
 20
-77.50000000000004
 30
0.0
 10
-80.00000000000013
 20
-69.86836471740787
 30
0.0
 10
-80.00000000000007
 20
-62.23610443303436
 30
0.0
 10
-80.00000000000007
 20
-54.60317460317457
 30
0.0
  0
SPLINE
  5
78
330
1F
100
AcDbEntity
  8
0
  6
Continuous
 62
     7
370
    25
100
AcDbSpline
210
0.0
220
0.0
230
1.0
 70
     8
 71
     3
 72
    20
 73
    16
 74
     0
 42
0.000000001
 43
0.00000001
 40
0.0
 40
0.0
 40
0.0
 40
0.0
 40
0.1249999999999988
 40
0.1249999999999988
 40
0.2499999999999976
 40
0.2499999999999976
 40
0.3749999999999963
 40
0.3749999999999963
 40
0.4999999999999951
 40
0.4999999999999951
 40
0.6249999999999939
 40
0.6249999999999939
 40
0.7499999999999927
 40
0.7499999999999927
 40
1.0
 40
1.0
 40
1.0
 40
1.0
 10
-77.50000000000013
 20
-80.00000000000004
 30
0.0
 10
-77.66506693093847
 20
-80.00000000000007
 30
0.0
 10
-77.82738224528681
 20
-79.98381221628922
 30
0.0
 10
-78.1467337038906
 20
-79.92037967611871
 30
0.0
 10
-78.30542291345174
 20
-79.87236592937526
 30
0.0
 10
-78.60805999254926
 20
-79.74700450050405
 30
0.0
 10
-78.7516035856363
 20
-79.6702887778034
 30
0.0
 10
-79.02328088100045
 20
-79.48904003786139
 30
0.0
 10
-79.15192307110729
 20
-79.38353983093403
 30
0.0
 10
-79.38252427511831
 20
-79.15308030088126
 30
0.0
 10
-79.48601161662056
 20
-79.02733319418299
 30
0.0
 10
-79.6688018677139
 20
-78.75430749260516
 30
0.0
 10
-79.7465054421874
 20
-78.60891391122789
 30
0.0
 10
-79.93368872486728
 20
-78.15807769117471
 30
0.0
 10
-80.0000000000002
 20
-77.8300671799386
 30
0.0
 10
-80.00000000000018
 20
-77.50000000000004
 30
0.0
  0
SPLINE
  5
79
330
1F
100
AcDbEntity
  8
0
  6
Continuous
 62
     7
370
    25
100
AcDbSpline
210
0.0
220
0.0
230
1.0
 70
    24
 71
     3
 72
    18
 73
    14
 74
     0
 42
0.000000001
 43
0.00000001
 40
0.0
 40
0.0
 40
0.0
 40
0.0
 40
0.1250000000000001
 40
0.1250000000000001
 40
0.25
 40
0.25
 40
0.4999999999999999
 40
0.4999999999999999
 40
0.7499999999999999
 40
0.7499999999999999
 40
0.8749999999999999
 40
0.8749999999999999
 40
1.0
 40
1.0
 40
1.0
 40
1.0
 10
77.49999999999991
 20
-80.00000000000001
 30
0.0
 10
71.04181102195325
 20
-80.00000000000003
 30
0.0
 10
64.58365677543013
 20
-80.0
 30
0.0
 10
51.66735321606273
 20
-79.99999999999997
 30
0.0
 10
45.20920754970673
 20
-80.00000000000001
 30
0.0
 10
25.83451349557134
 20
-80.0
 30
0.0
 10
12.91784856012769
 20
-80.0
 30
0.0
 10
-12.91785135142417
 20
-80.00000000000003
 30
0.0
 10
-25.83451464955145
 20
-80.00000000000003
 30
0.0
 10
-45.20920832551113
 20
-80.0
 30
0.0
 10
-51.66735381670921
 20
-80.00000000000006
 30
0.0
 10
-64.58365707608432
 20
-80.00000000000003
 30
0.0
 10
-71.04181117257103
 20
-80.00000000000006
 30
0.0
 10
-77.50000000000007
 20
-80.00000000000003
 30
0.0
  0
SPLINE
  5
7A
330
1F
100
AcDbEntity
  8
0
  6
Continuous
 62
     7
370
    25
100
AcDbSpline
210
0.0
220
0.0
230
1.0
 70
     8
 71
     3
 72
    20
 73
    16
 74
     0
 42
0.000000001
 43
0.00000001
 40
0.0
 40
0.0
 40
0.0
 40
0.0
 40
0.1249999999999988
 40
0.1249999999999988
 40
0.2499999999999976
 40
0.2499999999999976
 40
0.3749999999999963
 40
0.3749999999999963
 40
0.4999999999999951
 40
0.4999999999999951
 40
0.6249999999999939
 40
0.6249999999999939
 40
0.7499999999999927
 40
0.7499999999999927
 40
1.0
 40
1.0
 40
1.0
 40
1.0
 10
79.99999999999984
 20
-77.50000000000003
 30
0.0
 10
79.99999999999984
 20
-77.66503402955946
 30
0.0
 10
79.98381860299364
 20
-77.827318402923
 30
0.0
 10
79.92041022335762
 20
-78.14661158366916
 30
0.0
 10
79.87241602820657
 20
-78.30527119157921
 30
0.0
 10
79.74709193587789
 20
-78.60787965708893
 30
0.0
 10
79.67039727862522
 20
-78.75141308077026
 30
0.0
 10
79.48919420211352
 20
-79.0230776316605
 30
0.0
 10
79.38371024078704
 20
-79.151729026761
 30
0.0
 10
79.15327022715202
 20
-79.38235772506279
 30
0.0
 10
79.02753151882807
 20
-79.48585927180912
 30
0.0
 10
78.75452004656148
 20
-79.66867910056304
 30
0.0
 10
78.60909659306348
 20
-79.74641695318874
 30
0.0
 10
78.15820896029254
 20
-79.9336594843704
 30
0.0
 10
77.83013549210638
 20
-80.00000000000006
 30
0.0
 10
77.49999999999991
 20
-80.00000000000004
 30
0.0
  0
SPLINE
  5
7C
330
1F
100
AcDbEntity
  8
0
  6
Continuous
 62
     7
370
    25
100
AcDbSpline
210
0.0
220
0.0
230
1.0
 70
     8
 71
     3
 72
    10
 73
     6
 74
     0
 42
0.000000001
 43
0.00000001
 40
0.0
 40
0.0
 40
0.0
 40
0.0
 40
0.5
 40
0.5
 40
1.0
 40
1.0
 40
1.0
 40
1.0
 10
79.9999999999999
 20
54.60317460317462
 30
0.0
 10
79.99999999999989
 20
36.40267314479127
 30
0.0
 10
79.99999999879267
 20
18.20213394545152
 30
0.0
 10
79.99999999879266
 20
-18.20141831679018
 30
0.0
 10
79.99999999999987
 20
-36.4024385070561
 30
0.0
 10
79.99999999999989
 20
-54.60317460317458
 30
0.0
  0
SPLINE
  5
7F
330
1F
100
AcDbEntity
  8
0
  6
Continuous
 62
     7
370
    25
100
AcDbSpline
210
0.0
220
0.0
230
1.0
 70
    24
 71
     3
 72
     8
 73
     4
 74
     0
 42
0.000000001
 43
0.00000001
 40
0.0
 40
0.0
 40
0.0
 40
0.0
 40
1.0
 40
1.0
 40
1.0
 40
1.0
 10
79.99999999999984
 20
77.50000000000004
 30
0.0
 10
79.99999999999984
 20
69.8683647174079
 30
0.0
 10
79.99999999999989
 20
62.23610443303441
 30
0.0
 10
79.99999999999989
 20
54.60317460317462
 30
0.0
  0
SPLINE
  5
80
330
1F
100
AcDbEntity
  8
0
  6
Continuous
 62
     7
370
    25
100
AcDbSpline
210
0.0
220
0.0
230
1.0
 70
     8
 71
     3
 72
    20
 73
    16
 74
     0
 42
0.000000001
 43
0.00000001
 40
0.0
 40
0.0
 40
0.0
 40
0.0
 40
0.1249999999999988
 40
0.1249999999999988
 40
0.2499999999999976
 40
0.2499999999999976
 40
0.3749999999999963
 40
0.3749999999999963
 40
0.4999999999999951
 40
0.4999999999999951
 40
0.6249999999999939
 40
0.6249999999999939
 40
0.7499999999999927
 40
0.7499999999999927
 40
1.0
 40
1.0
 40
1.0
 40
1.0
 10
77.49999999999984
 20
80.00000000000004
 30
0.0
 10
77.6650669309382
 20
80.00000000000006
 30
0.0
 10
77.82738224528651
 20
79.98381221628922
 30
0.0
 10
78.14673370389033
 20
79.92037967611871
 30
0.0
 10
78.3054229134515
 20
79.87236592937526
 30
0.0
 10
78.60805999254897
 20
79.74700450050402
 30
0.0
 10
78.75160358563602
 20
79.67028877780346
 30
0.0
 10
79.02328088100013
 20
79.48904003786146
 30
0.0
 10
79.15192307110698
 20
79.383539830934
 30
0.0
 10
79.38252427511803
 20
79.15308030088123
 30
0.0
 10
79.48601161662019
 20
79.02733319418297
 30
0.0
 10
79.6688018677136
 20
78.75430749260515
 30
0.0
 10
79.7465054421871
 20
78.60891391122787
 30
0.0
 10
79.93368872486698
 20
78.15807769117471
 30
0.0
 10
79.99999999999996
 20
77.8300671799386
 30
0.0
 10
79.99999999999993
 20
77.50000000000004
 30
0.0
  0
SPLINE
  5
81
330
1F
100
AcDbEntity
  8
0
  6
Continuous
 62
     7
370
    25
100
AcDbSpline
210
0.0
220
0.0
230
1.0
 70
    24
 71
     3
 72
    18
 73
    14
 74
     0
 42
0.000000001
 43
0.00000001
 40
0.0
 40
0.0
 40
0.0
 40
0.0
 40
0.1249999999999999
 40
0.1249999999999999
 40
0.25
 40
0.25
 40
0.5
 40
0.5
 40
0.75
 40
0.75
 40
0.875
 40
0.875
 40
1.0
 40
1.0
 40
1.0
 40
1.0
 10
-77.50000000000014
 20
80.00000000000001
 30
0.0
 10
-71.04181102195346
 20
80.00000000000003
 30
0.0
 10
-64.58365677543031
 20
80.00000000000001
 30
0.0
 10
-51.66735321606298
 20
80.0
 30
0.0
 10
-45.20920754970698
 20
80.00000000000001
 30
0.0
 10
-25.83451349557158
 20
80.00000000000004
 30
0.0
 10
-12.91784856012792
 20
80.00000000000009
 30
0.0
 10
12.91785135142393
 20
80.0000000000001
 30
0.0
 10
25.83451464955122
 20
80.00000000000007
 30
0.0
 10
45.20920832551089
 20
80.00000000000006
 30
0.0
 10
51.66735381670895
 20
80.00000000000007
 30
0.0
 10
64.58365707608405
 20
80.00000000000007
 30
0.0
 10
71.04181117257085
 20
80.00000000000009
 30
0.0
 10
77.49999999999986
 20
80.00000000000007
 30
0.0
  0
SPLINE
  5
82
330
1F
100
AcDbEntity
  8
0
  6
Continuous
 62
     7
370
    25
100
AcDbSpline
210
0.0
220
0.0
230
1.0
 70
     8
 71
     3
 72
    20
 73
    16
 74
     0
 42
0.000000001
 43
0.00000001
 40
0.0
 40
0.0
 40
0.0
 40
0.0
 40
0.1249999999999988
 40
0.1249999999999988
 40
0.2499999999999976
 40
0.2499999999999976
 40
0.3749999999999963
 40
0.3749999999999963
 40
0.4999999999999951
 40
0.4999999999999951
 40
0.6249999999999939
 40
0.6249999999999939
 40
0.7499999999999927
 40
0.7499999999999927
 40
1.0
 40
1.0
 40
1.0
 40
1.0
 10
-80.00000000000014
 20
77.50000000000001
 30
0.0
 10
-80.00000000000016
 20
77.66503402955944
 30
0.0
 10
-79.98381860299388
 20
77.82731840292301
 30
0.0
 10
-79.92041022335788
 20
78.14661158366918
 30
0.0
 10
-79.87241602820677
 20
78.30527119157918
 30
0.0
 10
-79.74709193587807
 20
78.60787965708889
 30
0.0
 10
-79.67039727862544
 20
78.75141308077023
 30
0.0
 10
-79.48919420211374
 20
79.02307763166048
 30
0.0
 10
-79.38371024078728
 20
79.15172902676099
 30
0.0
 10
-79.15327022715223
 20
79.38235772506273
 30
0.0
 10
-79.0275315188283
 20
79.48585927180908
 30
0.0
 10
-78.7545200465617
 20
79.66867910056301
 30
0.0
 10
-78.60909659306371
 20
79.74641695318869
 30
0.0
 10
-78.15820896029278
 20
79.93365948437032
 30
0.0
 10
-77.83013549210656
 20
80.00000000000003
 30
0.0
 10
-77.50000000000013
 20
80.00000000000001
 30
0.0
  0
SPLINE
  5
83
330
1F
100
AcDbEntity
  8
0
  6
Continuous
 62
     7
370
    25
100
AcDbSpline
210
0.0
220
0.0
230
1.0
 70
    24
 71
     3
 72
     8
 73
     4
 74
     0
 42
0.000000001
 43
0.00000001
 40
0.0
 40
0.0
 40
0.0
 40
0.0
 40
1.0
 40
1.0
 40
1.0
 40
1.0
 10
-80.00000000000013
 20
54.60317460317465
 30
0.0
 10
-80.00000000000013
 20
62.23610443303442
 30
0.0
 10
-80.00000000000018
 20
69.8683647174079
 30
0.0
 10
-80.00000000000018
 20
77.50000000000003
 30
0.0
  0
SPLINE
  5
8A
330
1F
100
AcDbEntity
  8
0
  6
Continuous
 62
     7
370
    25
100
AcDbSpline
210
0.0
220
0.0
230
1.0
 70
     8
 71
     3
 72
    10
 73
     6
 74
     0
 42
0.000000001
 43
0.00000001
 40
0.0
 40
0.0
 40
0.0
 40
0.0
 40
0.5
 40
0.5
 40
1.0
 40
1.0
 40
1.0
 40
1.0
 10
-80.00000000000013
 20
-54.6031746031746
 30
0.0
 10
-80.00000000000013
 20
-36.40267314479124
 30
0.0
 10
-79.9999999987929
 20
-18.20213394545145
 30
0.0
 10
-79.99999999879289
 20
18.20141831679026
 30
0.0
 10
-80.00000000000021
 20
36.40243850705617
 30
0.0
 10
-80.00000000000021
 20
54.60317460317466
 30
0.0
  0
LINE
  5
97
330
1F
100
AcDbEntity
  8
0
  6
Continuous
 62
     7
370
    25
100
AcDbLine
 10
630.0
 20
-430.0
 30
0.0
 11
80.0
 21
-54.6031746032
 31
0.0
  0
LINE
  5
98
330
1F
100
AcDbEntity
  8
0
  6
Continuous
 62
     7
370
    25
100
AcDbLine
 10
-630.0
 20
-430.0
 30
0.0
 11
630.0
 21
-430.0
 31
0.0
  0
LINE
  5
99
330
1F
100
AcDbEntity
  8
0
  6
Continuous
 62
     7
370
    25
100
AcDbLine
 10
-630.0
 20
-430.0
 30
0.0
 11
-80.0
 21
-54.6031746032
 31
0.0
  0
LINE
  5
9A
330
1F
100
AcDbEntity
  8
0
  6
Continuous
 62
     7
370
    25
100
AcDbLine
 10
630.0
 20
-430.0
 30
0.0
 11
630.0
 21
430.0
 31
0.0
  0
LINE
  5
9B
330
1F
100
AcDbEntity
  8
0
  6
Continuous
 62
     7
370
    25
100
AcDbLine
 10
630.0
 20
430.0
 30
0.0
 11
80.0
 21
54.6031746032
 31
0.0
  0
LINE
  5
9C
330
1F
100
AcDbEntity
  8
0
  6
Continuous
 62
     7
370
    25
100
AcDbLine
 10
630.0
 20
430.0
 30
0.0
 11
-630.0
 21
430.0
 31
0.0
  0
LINE
  5
9D
330
1F
100
AcDbEntity
  8
0
  6
Continuous
 62
     7
370
    25
100
AcDbLine
 10
-80.0
 20
54.6031746032
 30
0.0
 11
-630.0
 21
430.0
 31
0.0
  0
LINE
  5
9E
330
1F
100
AcDbEntity
  8
0
  6
Continuous
 62
     7
370
    25
100
AcDbLine
 10
650.0
 20
450.0
 30
0.0
 11
-650.0
 21
450.0
 31
0.0
  0
LINE
  5
9F
330
1F
100
AcDbEntity
  8
0
  6
Continuous
 62
     7
370
    25
100
AcDbLine
 10
650.0
 20
-450.0
 30
0.0
 11
650.0
 21
450.0
 31
0.0
  0
LINE
  5
A0
330
1F
100
AcDbEntity
  8
0
  6
Continuous
 62
     7
370
    25
100
AcDbLine
 10
-650.0
 20
-450.0
 30
0.0
 11
650.0
 21
-450.0
 31
0.0
  0
LINE
  5
A1
330
1F
100
AcDbEntity
  8
0
  6
Continuous
 62
     7
370
    25
100
AcDbLine
 10
-650.0
 20
450.0
 30
0.0
 11
-650.0
 21
-450.0
 31
0.0
  0
LINE
  5
A2
330
1F
100
AcDbEntity
  8
0
  6
Continuous
 62
     7
370
    25
100
AcDbLine
 10
-630.0
 20
430.0
 30
0.0
 11
-630.0
 21
-430.0
 31
0.0
  0
LINE
  5
A3
330
1F
100
AcDbEntity
  8
0
  6
Continuous
 62
     7
370
    25
100
AcDbLine
 10
79.2456053226
 20
79.2456053226
 30
0.0
 11
68.5355339059
 21
68.5355339059
 31
0.0
  0
LINE
  5
A4
330
1F
100
AcDbEntity
  8
0
  6
Continuous
 62
     7
370
    25
100
AcDbLine
 10
79.2456195625
 20
-79.2456195625
 30
0.0
 11
68.5355339059
 21
-68.5355339059
 31
0.0
  0
LINE
  5
A5
330
1F
100
AcDbEntity
  8
0
  6
Continuous
 62
     7
370
    25
100
AcDbLine
 10
-79.2456195625
 20
79.2456195625
 30
0.0
 11
-68.5355339059
 21
68.5355339059
 31
0.0
  0
LINE
  5
A6
330
1F
100
AcDbEntity
  8
0
  6
Continuous
 62
     7
370
    25
100
AcDbLine
 10
-68.5355339059
 20
-68.5355339059
 30
0.0
 11
-79.2456053226
 21
-79.2456053226
 31
0.0
  0
LINE
  5
A7
330
1F
100
AcDbEntity
  8
0
  6
Continuous
 62
     7
370
    25
100
AcDbLine
 10
-70.0
 20
65.0
 30
0.0
 11
-70.0
 21
-65.0
 31
0.0
  0
LINE
  5
A8
330
1F
100
AcDbEntity
  8
0
  6
Continuous
 62
     7
370
    25
100
AcDbLine
 10
65.0
 20
70.0
 30
0.0
 11
-65.0
 21
70.0
 31
0.0
  0
LINE
  5
A9
330
1F
100
AcDbEntity
  8
0
  6
Continuous
 62
     7
370
    25
100
AcDbLine
 10
70.0
 20
-65.0
 30
0.0
 11
70.0
 21
65.0
 31
0.0
  0
LINE
  5
AA
330
1F
100
AcDbEntity
  8
0
  6
Continuous
 62
     7
370
    25
100
AcDbLine
 10
-65.0
 20
-70.0
 30
0.0
 11
65.0
 21
-70.0
 31
0.0
  0
ARC
  5
AB
330
1F
100
AcDbEntity
  8
0
  6
Continuous
 62
     7
370
    25
100
AcDbCircle
 10
-65.0
 20
65.0
 30
0.0
 40
4.999999999999972
100
AcDbArc
 50
90.0
 51
180.0
  0
ARC
  5
AC
330
1F
100
AcDbEntity
  8
0
  6
Continuous
 62
     7
370
    25
100
AcDbCircle
 10
65.0
 20
-65.0
 30
0.0
 40
5.0
100
AcDbArc
 50
270.0
 51
0.0
  0
ARC
  5
AD
330
1F
100
AcDbEntity
  8
0
  6
Continuous
 62
     7
370
    25
100
AcDbCircle
 10
-65.0
 20
-65.0
 30
0.0
 40
4.999999999999986
100
AcDbArc
 50
180.0
 51
270.0
  0
ARC
  5
AE
330
1F
100
AcDbEntity
  8
0
  6
Continuous
 62
     7
370
    25
100
AcDbCircle
 10
65.0
 20
65.0
 30
0.0
 40
5.000000000000028
100
AcDbArc
 50
0.0
 51
90.0
  0
LINE
  5
B6
330
1B
100
AcDbEntity
 67
     1
  8
0
  6
Continuous
 62
     7
370
    25
100
AcDbLine
 10
-650.0
 20
35.0
 30
0.0
 11
650.0
 21
35.0
 31
0.0
  0
LINE
  5
B7
330
1B
100
AcDbEntity
 67
     1
  8
0
  6
Continuous
 62
     7
370
    25
100
AcDbLine
 10
650.0
 20
35.0
 30
0.0
 11
650.0
 21
0.0
 31
0.0
  0
LINE
  5
B8
330
1B
100
AcDbEntity
 67
     1
  8
0
  6
Continuous
 62
     7
370
    25
100
AcDbLine
 10
-650.0
 20
0.0
 30
0.0
 11
650.0
 21
0.0
 31
0.0
  0
LINE
  5
B9
330
1B
100
AcDbEntity
 67
     1
  8
0
  6
Continuous
 62
     7
370
    25
100
AcDbLine
 10
-650.0
 20
35.0
 30
0.0
 11
-650.0
 21
0.0
 31
0.0
  0
LINE
  5
BA
330
1B
100
AcDbEntity
 67
     1
  8
0
  6
Continuous
 62
     7
370
    25
100
AcDbLine
 10
130.0
 20
-26.0
 30
0.0
 11
-130.0
 21
-26.0
 31
0.0
  0
LINE
  5
BB
330
1B
100
AcDbEntity
 67
     1
  8
0
  6
Continuous
 62
     7
370
    25
100
AcDbLine
 10
130.0
 20
-26.0
 30
0.0
 11
130.0
 21
0.0
 31
0.0
  0
LINE
  5
BC
330
1B
100
AcDbEntity
 67
     1
  8
0
  6
Continuous
 62
     7
370
    25
100
AcDbLine
 10
-130.0
 20
-26.0
 30
0.0
 11
-130.0
 21
0.0
 31
0.0
  0
VIEWPORT
  5
278
330
1B
100
AcDbEntity
 67
     1
  8
0
100
AcDbViewport
 10
0.0
 20
0.0
 30
0.0
 40
205.6
 41
156.0
 68
     1
 69
     1
 12
0.0
 22
0.0
 13
0.0
 23
0.0
 14
10.0
 24
10.0
 15
10.0
 25
10.0
 16
0.0
 26
0.0
 36
1.0
 17
0.0
 27
0.0
 37
0.0
 42
50.0
 43
0.0
 44
0.0
 45
1006.1089494163
 50
0.0
 51
0.0
 72
   100
 90
   557152
  1

281
     0
 71
     1
 74
     0
110
0.0
120
0.0
130
0.0
111
1.0
121
0.0
131
0.0
112
0.0
122
1.0
132
0.0
 79
     0
146
0.0
  0
ENDSEC
  0
SECTION
  2
OBJECTS
  0
DICTIONARY
  5
C
330
0
100
AcDbDictionary
281
     1
  3
ACAD_GROUP
350
D
  3
ACAD_LAYOUT
350
1A
  3
ACAD_MLINESTYLE
350
17
  3
ACAD_PLOTSETTINGS
350
19
  3
ACAD_PLOTSTYLENAME
350
E
  3
ACAD_SCALELIST
350
47
  0
DICTIONARY
  5
D
102
{ACAD_REACTORS
330
C
102
}
330
C
100
AcDbDictionary
281
     1
  0
DICTIONARY
  5
1A
102
{ACAD_REACTORS
330
C
102
}
330
C
100
AcDbDictionary
281
     1
  3
_Dimetrisch
350
21B
  3
_Isometrisch
350
12F
  3
_Links
350
F0
  3
_Normal auf
350
CC
  3
_Rechts
350
26
  3
_Rückseite
350
DE
  3
_Trimetrisch
350
1AF
  3
_Unten
350
102
  3
_Vorderseite
350
1E
  3
Model
350
22
  0
DICTIONARY
  5
17
102
{ACAD_REACTORS
330
C
102
}
330
C
100
AcDbDictionary
281
     1
  3
Standard
350
18
  0
DICTIONARY
  5
19
102
{ACAD_REACTORS
330
C
102
}
330
C
100
AcDbDictionary
281
     1
  0
ACDBDICTIONARYWDFLT
  5
E
102
{ACAD_REACTORS
330
C
102
}
330
C
100
AcDbDictionary
281
     1
  3
Normal
350
F
100
AcDbDictionaryWithDefault
340
F
  0
DICTIONARY
  5
47
102
{ACAD_REACTORS
330
C
102
}
330
C
100
AcDbDictionary
281
     1
  3
A0
350
48
  3
A1
350
49
  3
A2
350
4A
  3
A3
350
4B
  3
A4
350
4C
  3
A5
350
4D
  3
A6
350
4E
  3
A7
350
4F
  3
A8
350
50
  3
A9
350
51
  3
B0
350
52
  3
B1
350
53
  3
B2
350
54
  3
B3
350
55
  3
B4
350
56
  3
B5
350
57
  3
B6
350
58
  3
B7
350
59
  3
B8
350
5A
  3
B9
350
5B
  3
C0
350
5C
  3
C1
350
5D
  3
C2
350
5E
  3
C3
350
5F
  3
C4
350
60
  3
C5
350
61
  3
C6
350
62
  3
C7
350
63
  3
C8
350
64
  3
C9
350
65
  3
D0
350
66
  3
D1
350
67
  3
D2
350
68
  0
LAYOUT
  5
21B
102
{ACAD_REACTORS
330
1A
102
}
330
1A
100
AcDbPlotSettings
  1

  2
none_device
  4
ISO_A4_(210.00_x_297.00_MM)
  6

 40
7.5
 41
20.0
 42
7.5
 43
20.0
 44
210.0
 45
297.0
 46
0.0
 47
0.0
 48
0.0
 49
0.0
140
0.0
141
0.0
142
1.0
143
5.0583657588
 70
   688
 72
     1
 73
     1
 74
     1
  7

 75
     0
147
0.1976923077
148
650.0
149
26.0
100
AcDbLayout
  1
_Dimetrisch
 70
     1
 71
     9
 10
0.0
 20
0.0
 11
0.0
 21
0.0
 12
0.0
 22
0.0
 32
0.0
 14
0.0
 24
0.0
 34
0.0
 15
0.0
 25
0.0
 35
0.0
146
0.0
 13
0.0
 23
0.0
 33
0.0
 16
1.0
 26
0.0
 36
0.0
 17
0.0
 27
1.0
 37
0.0
 76
     0
330
21A
331
288
  0
LAYOUT
  5
12F
102
{ACAD_REACTORS
330
1A
102
}
330
1A
100
AcDbPlotSettings
  1

  2
none_device
  4
ISO_A4_(210.00_x_297.00_MM)
  6

 40
7.5
 41
20.0
 42
7.5
 43
20.0
 44
210.0
 45
297.0
 46
0.0
 47
0.0
 48
0.0
 49
0.0
140
0.0
141
0.0
142
1.0
143
5.0583657588
 70
   688
 72
     1
 73
     1
 74
     1
  7

 75
     0
147
0.1976923077
148
650.0
149
26.0
100
AcDbLayout
  1
_Isometrisch
 70
     1
 71
     7
 10
0.0
 20
0.0
 11
0.0
 21
0.0
 12
0.0
 22
0.0
 32
0.0
 14
0.0
 24
0.0
 34
0.0
 15
0.0
 25
0.0
 35
0.0
146
0.0
 13
0.0
 23
0.0
 33
0.0
 16
1.0
 26
0.0
 36
0.0
 17
0.0
 27
1.0
 37
0.0
 76
     0
330
12E
331
284
  0
LAYOUT
  5
F0
102
{ACAD_REACTORS
330
1A
102
}
330
1A
100
AcDbPlotSettings
  1

  2
none_device
  4
ISO_A4_(210.00_x_297.00_MM)
  6

 40
7.5
 41
20.0
 42
7.5
 43
20.0
 44
210.0
 45
297.0
 46
0.0
 47
0.0
 48
0.0
 49
0.0
140
0.0
141
0.0
142
1.0
143
5.0583657588
 70
   688
 72
     1
 73
     1
 74
     1
  7

 75
     0
147
0.1976923077
148
650.0
149
26.0
100
AcDbLayout
  1
_Links
 70
     1
 71
     5
 10
0.0
 20
0.0
 11
0.0
 21
0.0
 12
0.0
 22
0.0
 32
0.0
 14
0.0
 24
0.0
 34
0.0
 15
0.0
 25
0.0
 35
0.0
146
0.0
 13
0.0
 23
0.0
 33
0.0
 16
1.0
 26
0.0
 36
0.0
 17
0.0
 27
1.0
 37
0.0
 76
     0
330
EF
331
280
  0
LAYOUT
  5
CC
102
{ACAD_REACTORS
330
1A
102
}
330
1A
100
AcDbPlotSettings
  1

  2
none_device
  4
ISO_A4_(210.00_x_297.00_MM)
  6

 40
7.5
 41
20.0
 42
7.5
 43
20.0
 44
210.0
 45
297.0
 46
0.0
 47
0.0
 48
0.0
 49
0.0
140
0.0
141
0.0
142
1.0
143
5.0583657588
 70
   688
 72
     1
 73
     1
 74
     1
  7

 75
     0
147
0.1976923077
148
650.0
149
26.0
100
AcDbLayout
  1
_Normal auf
 70
     1
 71
     3
 10
0.0
 20
0.0
 11
0.0
 21
0.0
 12
0.0
 22
0.0
 32
0.0
 14
0.0
 24
0.0
 34
0.0
 15
0.0
 25
0.0
 35
0.0
146
0.0
 13
0.0
 23
0.0
 33
0.0
 16
1.0
 26
0.0
 36
0.0
 17
0.0
 27
1.0
 37
0.0
 76
     0
330
CB
331
27C
  0
LAYOUT
  5
26
102
{ACAD_REACTORS
330
1A
102
}
330
1A
100
AcDbPlotSettings
  1

  2
none_device
  4
ISO_A4_(210.00_x_297.00_MM)
  6

 40
7.5
 41
20.0
 42
7.5
 43
20.0
 44
210.0
 45
297.0
 46
0.0
 47
0.0
 48
0.0
 49
0.0
140
0.0
141
0.0
142
1.0
143
5.0583657588
 70
   688
 72
     1
 73
     1
 74
     1
  7

 75
     0
147
0.1976923077
148
650.0
149
26.0
100
AcDbLayout
  1
_Rechts
 70
     1
 71
     2
 10
0.0
 20
0.0
 11
0.0
 21
0.0
 12
0.0
 22
0.0
 32
0.0
 14
0.0
 24
0.0
 34
0.0
 15
0.0
 25
0.0
 35
0.0
146
0.0
 13
0.0
 23
0.0
 33
0.0
 16
1.0
 26
0.0
 36
0.0
 17
0.0
 27
1.0
 37
0.0
 76
     0
330
23
331
27A
  0
LAYOUT
  5
DE
102
{ACAD_REACTORS
330
1A
102
}
330
1A
100
AcDbPlotSettings
  1

  2
none_device
  4
ISO_A4_(210.00_x_297.00_MM)
  6

 40
7.5
 41
20.0
 42
7.5
 43
20.0
 44
210.0
 45
297.0
 46
0.0
 47
0.0
 48
0.0
 49
0.0
140
0.0
141
0.0
142
1.0
143
5.0583657588
 70
   688
 72
     1
 73
     1
 74
     1
  7

 75
     0
147
0.1976923077
148
650.0
149
26.0
100
AcDbLayout
  1
_Rückseite
 70
     1
 71
     4
 10
0.0
 20
0.0
 11
0.0
 21
0.0
 12
0.0
 22
0.0
 32
0.0
 14
0.0
 24
0.0
 34
0.0
 15
0.0
 25
0.0
 35
0.0
146
0.0
 13
0.0
 23
0.0
 33
0.0
 16
1.0
 26
0.0
 36
0.0
 17
0.0
 27
1.0
 37
0.0
 76
     0
330
DD
331
27E
  0
LAYOUT
  5
1AF
102
{ACAD_REACTORS
330
1A
102
}
330
1A
100
AcDbPlotSettings
  1

  2
none_device
  4
ISO_A4_(210.00_x_297.00_MM)
  6

 40
7.5
 41
20.0
 42
7.5
 43
20.0
 44
210.0
 45
297.0
 46
0.0
 47
0.0
 48
0.0
 49
0.0
140
0.0
141
0.0
142
1.0
143
5.0583657588
 70
   688
 72
     1
 73
     1
 74
     1
  7

 75
     0
147
0.1976923077
148
650.0
149
26.0
100
AcDbLayout
  1
_Trimetrisch
 70
     1
 71
     8
 10
0.0
 20
0.0
 11
0.0
 21
0.0
 12
0.0
 22
0.0
 32
0.0
 14
0.0
 24
0.0
 34
0.0
 15
0.0
 25
0.0
 35
0.0
146
0.0
 13
0.0
 23
0.0
 33
0.0
 16
1.0
 26
0.0
 36
0.0
 17
0.0
 27
1.0
 37
0.0
 76
     0
330
1AE
331
286
  0
LAYOUT
  5
102
102
{ACAD_REACTORS
330
1A
102
}
330
1A
100
AcDbPlotSettings
  1

  2
none_device
  4
ISO_A4_(210.00_x_297.00_MM)
  6

 40
7.5
 41
20.0
 42
7.5
 43
20.0
 44
210.0
 45
297.0
 46
0.0
 47
0.0
 48
0.0
 49
0.0
140
0.0
141
0.0
142
1.0
143
5.0583657588
 70
   688
 72
     1
 73
     1
 74
     1
  7

 75
     0
147
0.1976923077
148
650.0
149
26.0
100
AcDbLayout
  1
_Unten
 70
     1
 71
     6
 10
0.0
 20
0.0
 11
0.0
 21
0.0
 12
0.0
 22
0.0
 32
0.0
 14
0.0
 24
0.0
 34
0.0
 15
0.0
 25
0.0
 35
0.0
146
0.0
 13
0.0
 23
0.0
 33
0.0
 16
1.0
 26
0.0
 36
0.0
 17
0.0
 27
1.0
 37
0.0
 76
     0
330
101
331
282
  0
LAYOUT
  5
1E
102
{ACAD_REACTORS
330
1A
102
}
330
1A
100
AcDbPlotSettings
  1

  2
none_device
  4
ISO_A4_(210.00_x_297.00_MM)
  6

 40
7.5
 41
20.0
 42
7.5
 43
20.0
 44
210.0
 45
297.0
 46
0.0
 47
0.0
 48
0.0
 49
0.0
140
0.0
141
0.0
142
1.0
143
5.0583657588
 70
   688
 72
     1
 73
     1
 74
     1
  7

 75
     0
147
0.1976923077
148
650.0
149
26.0
100
AcDbLayout
  1
_Vorderseite
 70
     1
 71
     1
 10
-751.1673151751
 20
-63.9377431907
 11
751.1673151751
 21
998.3190661479
 12
0.0
 22
0.0
 32
0.0
 14
-650.0
 24
-26.0
 34
0.0
 15
650.0
 25
35.0
 35
0.0
146
0.0
 13
0.0
 23
0.0
 33
0.0
 16
1.0
 26
0.0
 36
0.0
 17
0.0
 27
1.0
 37
0.0
 76
     0
330
1B
331
278
  0
LAYOUT
  5
22
102
{ACAD_REACTORS
330
1A
102
}
330
1A
100
AcDbPlotSettings
  1

  2
none_device
  4
ANSI_A_(11.00_x_8.50_Inches)
  6

 40
6.35
 41
19.05
 42
6.35000508
 43
19.05000254
 44
279.4
 45
215.9
 46
133.34999746
 47
88.89999873
 48
0.0
 49
0.0
140
0.0
141
0.0
142
0.0083769231
143
1.0
 70
  1696
 72
     0
 73
     0
 74
     0
  7

 75
     0
147
0.0179189148
148
-1300.4909072572
149
0.0
100
AcDbLayout
  1
Model
 70
     1
 71
     0
 10
0.0
 20
0.0
 11
420.0
 21
297.0
 12
0.0
 22
0.0
 32
0.0
 14
-650.0
 24
-450.0
 34
0.0
 15
650.0
 25
450.0
 35
0.0
146
0.0
 13
0.0
 23
0.0
 33
0.0
 16
1.0
 26
0.0
 36
0.0
 17
0.0
 27
1.0
 37
0.0
 76
     0
330
1F
331
29
  0
MLINESTYLE
  5
18
102
{ACAD_REACTORS
330
17
102
}
330
17
100
AcDbMlineStyle
  2
Standard
 70
     0
  3

 62
   256
 51
90.0
 52
90.0
 71
     2
 49
0.5
 62
   256
  6
BYLAYER
 49
-0.5
 62
   256
  6
BYLAYER
  0
ACDBPLACEHOLDER
  5
F
102
{ACAD_REACTORS
330
E
102
}
330
E
  0
SCALE
  5
48
102
{ACAD_REACTORS
330
47
102
}
330
47
100
AcDbScale
 70
     0
300
1:1
140
1.0
141
1.0
290
     1
  0
SCALE
  5
49
102
{ACAD_REACTORS
330
47
102
}
330
47
100
AcDbScale
 70
     0
300
1:2
140
1.0
141
2.0
290
     0
  0
SCALE
  5
4A
102
{ACAD_REACTORS
330
47
102
}
330
47
100
AcDbScale
 70
     0
300
1:4
140
1.0
141
4.0
290
     0
  0
SCALE
  5
4B
102
{ACAD_REACTORS
330
47
102
}
330
47
100
AcDbScale
 70
     0
300
1:5
140
1.0
141
5.0
290
     0
  0
SCALE
  5
4C
102
{ACAD_REACTORS
330
47
102
}
330
47
100
AcDbScale
 70
     0
300
1:8
140
1.0
141
8.0
290
     0
  0
SCALE
  5
4D
102
{ACAD_REACTORS
330
47
102
}
330
47
100
AcDbScale
 70
     0
300
1:10
140
1.0
141
10.0
290
     0
  0
SCALE
  5
4E
102
{ACAD_REACTORS
330
47
102
}
330
47
100
AcDbScale
 70
     0
300
1:16
140
1.0
141
16.0
290
     0
  0
SCALE
  5
4F
102
{ACAD_REACTORS
330
47
102
}
330
47
100
AcDbScale
 70
     0
300
1:20
140
1.0
141
20.0
290
     0
  0
SCALE
  5
50
102
{ACAD_REACTORS
330
47
102
}
330
47
100
AcDbScale
 70
     0
300
1:30
140
1.0
141
30.0
290
     0
  0
SCALE
  5
51
102
{ACAD_REACTORS
330
47
102
}
330
47
100
AcDbScale
 70
     0
300
1:40
140
1.0
141
40.0
290
     0
  0
SCALE
  5
52
102
{ACAD_REACTORS
330
47
102
}
330
47
100
AcDbScale
 70
     0
300
1:50
140
1.0
141
50.0
290
     0
  0
SCALE
  5
53
102
{ACAD_REACTORS
330
47
102
}
330
47
100
AcDbScale
 70
     0
300
1:100
140
1.0
141
100.0
290
     0
  0
SCALE
  5
54
102
{ACAD_REACTORS
330
47
102
}
330
47
100
AcDbScale
 70
     0
300
2:1
140
2.0
141
1.0
290
     0
  0
SCALE
  5
55
102
{ACAD_REACTORS
330
47
102
}
330
47
100
AcDbScale
 70
     0
300
4:1
140
4.0
141
1.0
290
     0
  0
SCALE
  5
56
102
{ACAD_REACTORS
330
47
102
}
330
47
100
AcDbScale
 70
     0
300
8:1
140
8.0
141
1.0
290
     0
  0
SCALE
  5
57
102
{ACAD_REACTORS
330
47
102
}
330
47
100
AcDbScale
 70
     0
300
10:1
140
10.0
141
1.0
290
     0
  0
SCALE
  5
58
102
{ACAD_REACTORS
330
47
102
}
330
47
100
AcDbScale
 70
     0
300
100:1
140
100.0
141
1.0
290
     0
  0
SCALE
  5
59
102
{ACAD_REACTORS
330
47
102
}
330
47
100
AcDbScale
 70
     0
300
1/128" = 1'-0"
140
0.0078125
141
12.0
290
     0
  0
SCALE
  5
5A
102
{ACAD_REACTORS
330
47
102
}
330
47
100
AcDbScale
 70
     0
300
1/64" = 1'-0"
140
0.015625
141
12.0
290
     0
  0
SCALE
  5
5B
102
{ACAD_REACTORS
330
47
102
}
330
47
100
AcDbScale
 70
     0
300
1/32" = 1'-0"
140
0.03125
141
12.0
290
     0
  0
SCALE
  5
5C
102
{ACAD_REACTORS
330
47
102
}
330
47
100
AcDbScale
 70
     0
300
1/16" = 1'-0"
140
0.0625
141
12.0
290
     0
  0
SCALE
  5
5D
102
{ACAD_REACTORS
330
47
102
}
330
47
100
AcDbScale
 70
     0
300
3/32" = 1'-0"
140
0.09375
141
12.0
290
     0
  0
SCALE
  5
5E
102
{ACAD_REACTORS
330
47
102
}
330
47
100
AcDbScale
 70
     0
300
1/8" = 1'-0"
140
0.125
141
12.0
290
     0
  0
SCALE
  5
5F
102
{ACAD_REACTORS
330
47
102
}
330
47
100
AcDbScale
 70
     0
300
3/16" = 1'-0"
140
0.1875
141
12.0
290
     0
  0
SCALE
  5
60
102
{ACAD_REACTORS
330
47
102
}
330
47
100
AcDbScale
 70
     0
300
1/4" = 1'-0"
140
0.25
141
12.0
290
     0
  0
SCALE
  5
61
102
{ACAD_REACTORS
330
47
102
}
330
47
100
AcDbScale
 70
     0
300
3/8" = 1'-0"
140
0.375
141
12.0
290
     0
  0
SCALE
  5
62
102
{ACAD_REACTORS
330
47
102
}
330
47
100
AcDbScale
 70
     0
300
1/2" = 1'-0"
140
0.5
141
12.0
290
     0
  0
SCALE
  5
63
102
{ACAD_REACTORS
330
47
102
}
330
47
100
AcDbScale
 70
     0
300
3/4" = 1'-0"
140
0.75
141
12.0
290
     0
  0
SCALE
  5
64
102
{ACAD_REACTORS
330
47
102
}
330
47
100
AcDbScale
 70
     0
300
1" = 1'-0"
140
1.0
141
12.0
290
     0
  0
SCALE
  5
65
102
{ACAD_REACTORS
330
47
102
}
330
47
100
AcDbScale
 70
     0
300
1-1/2" = 1'-0"
140
1.5
141
12.0
290
     0
  0
SCALE
  5
66
102
{ACAD_REACTORS
330
47
102
}
330
47
100
AcDbScale
 70
     0
300
3" = 1'-0"
140
3.0
141
12.0
290
     0
  0
SCALE
  5
67
102
{ACAD_REACTORS
330
47
102
}
330
47
100
AcDbScale
 70
     0
300
6" = 1'-0"
140
6.0
141
12.0
290
     0
  0
SCALE
  5
68
102
{ACAD_REACTORS
330
47
102
}
330
47
100
AcDbScale
 70
     0
300
1'-0" = 1'-0"
140
12.0
141
12.0
290
     0
  0
ENDSEC
  0
EOF
