  0
SECTION
  2
HEADER
  9
$ACADVER
  1
AC1015
  9
$ACADMAINTVER
 70
     6
  9
$DWGCODEPAGE
  3
ANSI_1252
  9
$INSBASE
 10
0.0
 20
0.0
 30
0.0
  9
$EXTMIN
 10
-500.0
 20
-500.0
 30
0.0
  9
$EXTMAX
 10
500.0
 20
500.0
 30
0.0
  9
$LIMMIN
 10
0.0
 20
0.0
  9
$LIMMAX
 10
420.0
 20
297.0
  9
$ORTHOMODE
 70
     0
  9
$REGENMODE
 70
     1
  9
$FILLMODE
 70
     1
  9
$QTEXTMODE
 70
     0
  9
$MIRRTEXT
 70
     1
  9
$LTSCALE
 40
1.0
  9
$ATTMODE
 70
     1
  9
$TEXTSIZE
 40
3.5
  9
$TRACEWID
 40
1.0
  9
$TEXTSTYLE
  7
STANDARD
  9
$CLAYER
  8
0
  9
$CELTYPE
  6
ByLayer
  9
$CECOLOR
 62
   256
  9
$CELTSCALE
 40
1.0
  9
$DISPSILH
 70
     0
  9
$DIMSCALE
 40
1.0
  9
$DIMASZ
 40
7.4083333333
  9
$DIMEXO
 40
1.0
  9
$DIMDLI
 40
3.75
  9
$DIMRND
 40
0.0
  9
$DIMDLE
 40
0.0
  9
$DIMEXE
 40
1.0
  9
$DIMTP
 40
0.0
  9
$DIMTM
 40
0.0
  9
$DIMTXT
 40
7.0555555556
  9
$DIMCEN
 40
2.5
  9
$DIMTSZ
 40
0.0
  9
$DIMTOL
 70
     0
  9
$DIMLIM
 70
     0
  9
$DIMTIH
 70
     1
  9
$DIMTOH
 70
     1
  9
$DIMSE1
 70
     0
  9
$DIMSE2
 70
     0
  9
$DIMTAD
 70
     1
  9
$DIMZIN
 70
     0
  9
$DIMBLK
  1

  9
$DIMASO
 70
     1
  9
$DIMSHO
 70
     1
  9
$DIMPOST
  1

  9
$DIMAPOST
  1

  9
$DIMALT
 70
     0
  9
$DIMALTD
 70
     3
  9
$DIMALTF
 40
0.0393700787
  9
$DIMLFAC
 40
1.0
  9
$DIMTOFL
 70
     1
  9
$DIMTVP
 40
0.0
  9
$DIMTIX
 70
     0
  9
$DIMSOXD
 70
     0
  9
$DIMSAH
 70
     0
  9
$DIMBLK1
  1

  9
$DIMBLK2
  1

  9
$DIMSTYLE
  2
ISO-25
  9
$DIMCLRD
 70
     0
  9
$DIMCLRE
 70
     0
  9
$DIMCLRT
 70
     0
  9
$DIMTFAC
 40
1.0
  9
$DIMGAP
 40
1.524
  9
$DIMJUST
 70
     0
  9
$DIMSD1
 70
     0
  9
$DIMSD2
 70
     0
  9
$DIMTOLJ
 70
     0
  9
$DIMTZIN
 70
     0
  9
$DIMALTZ
 70
     0
  9
$DIMALTTZ
 70
     0
  9
$DIMUPT
 70
     0
  9
$DIMDEC
 70
     2
  9
$DIMTDEC
 70
     2
  9
$DIMALTU
 70
     2
  9
$DIMALTTD
 70
     3
  9
$DIMTXSTY
  7
STANDARD
  9
$DIMAUNIT
 70
     0
  9
$DIMADEC
 70
     2
  9
$DIMALTRND
 40
0.0
  9
$DIMAZIN
 70
     0
  9
$DIMDSEP
 70
    44
  9
$DIMATFIT
 70
     3
  9
$DIMFRAC
 70
     0
  9
$DIMLDRBLK
  1

  9
$DIMLUNIT
 70
     2
  9
$DIMLWD
 70
    -2
  9
$DIMLWE
 70
    -2
  9
$DIMTMOVE
 70
     0
  9
$LUNITS
 70
     2
  9
$LUPREC
 70
     2
  9
$SKETCHINC
 40
1.0
  9
$FILLETRAD
 40
10.0
  9
$AUNITS
 70
     0
  9
$AUPREC
 70
     2
  9
$MENU
  1
.
  9
$ELEVATION
 40
0.0
  9
$PELEVATION
 40
0.0
  9
$THICKNESS
 40
0.0
  9
$LIMCHECK
 70
     0
  9
$CHAMFERA
 40
0.0
  9
$CHAMFERB
 40
0.0
  9
$CHAMFERC
 40
0.0
  9
$CHAMFERD
 40
0.0
  9
$SKPOLY
 70
     0
  9
$TDCREATE
 40
2458232.474018599
  9
$TDUCREATE
 40
2458232.390685266
  9
$TDUPDATE
 40
2458232.474046724
  9
$TDUUPDATE
 40
2458232.390713391
  9
$TDINDWG
 40
0.0000000116
  9
$TDUSRTIMER
 40
0.0000000116
  9
$USRTIMER
 70
     1
  9
$ANGBASE
 50
0.0
  9
$ANGDIR
 70
     0
  9
$PDMODE
 70
     0
  9
$PDSIZE
 40
-1.0
  9
$PLINEWID
 40
0.0
  9
$SPLFRAME
 70
     0
  9
$SPLINETYPE
 70
     6
  9
$SPLINESEGS
 70
     8
  9
$HANDSEED
  5
286
  9
$SURFTAB1
 70
     6
  9
$SURFTAB2
 70
     6
  9
$SURFTYPE
 70
     6
  9
$SURFU
 70
     6
  9
$SURFV
 70
     6
  9
$UCSBASE
  2

  9
$UCSNAME
  2

  9
$UCSORG
 10
0.0
 20
0.0
 30
0.0
  9
$UCSXDIR
 10
1.0
 20
0.0
 30
0.0
  9
$UCSYDIR
 10
0.0
 20
1.0
 30
0.0
  9
$UCSORTHOREF
  2

  9
$UCSORTHOVIEW
 70
     0
  9
$UCSORGTOP
 10
0.0
 20
0.0
 30
0.0
  9
$UCSORGBOTTOM
 10
0.0
 20
0.0
 30
0.0
  9
$UCSORGLEFT
 10
0.0
 20
0.0
 30
0.0
  9
$UCSORGRIGHT
 10
0.0
 20
0.0
 30
0.0
  9
$UCSORGFRONT
 10
0.0
 20
0.0
 30
0.0
  9
$UCSORGBACK
 10
0.0
 20
0.0
 30
0.0
  9
$PUCSBASE
  2

  9
$PUCSNAME
  2

  9
$PUCSORG
 10
0.0
 20
0.0
 30
0.0
  9
$PUCSXDIR
 10
1.0
 20
0.0
 30
0.0
  9
$PUCSYDIR
 10
0.0
 20
1.0
 30
0.0
  9
$PUCSORTHOREF
  2

  9
$PUCSORTHOVIEW
 70
     0
  9
$PUCSORGTOP
 10
0.0
 20
0.0
 30
0.0
  9
$PUCSORGBOTTOM
 10
0.0
 20
0.0
 30
0.0
  9
$PUCSORGLEFT
 10
0.0
 20
0.0
 30
0.0
  9
$PUCSORGRIGHT
 10
0.0
 20
0.0
 30
0.0
  9
$PUCSORGFRONT
 10
0.0
 20
0.0
 30
0.0
  9
$PUCSORGBACK
 10
0.0
 20
0.0
 30
0.0
  9
$USERI1
 70
     0
  9
$USERI2
 70
     0
  9
$USERI3
 70
     0
  9
$USERI4
 70
     0
  9
$USERI5
 70
     0
  9
$USERR1
 40
0.0
  9
$USERR2
 40
0.0
  9
$USERR3
 40
0.0
  9
$USERR4
 40
0.0
  9
$USERR5
 40
0.0
  9
$WORLDVIEW
 70
     1
  9
$SHADEDGE
 70
     3
  9
$SHADEDIF
 70
    70
  9
$TILEMODE
 70
     1
  9
$MAXACTVP
 70
    64
  9
$PINSBASE
 10
0.0
 20
0.0
 30
0.0
  9
$PLIMCHECK
 70
     0
  9
$PEXTMIN
 10
-500.0
 20
-26.0
 30
0.0
  9
$PEXTMAX
 10
500.0
 20
35.0
 30
0.0
  9
$PLIMMIN
 10
-577.8210116732
 20
-55.1828793774
  9
$PLIMMAX
 10
577.8210116732
 20
761.9377431907
  9
$UNITMODE
 70
     0
  9
$VISRETAIN
 70
     1
  9
$PLINEGEN
 70
     0
  9
$PSLTSCALE
 70
     1
  9
$TREEDEPTH
 70
  3020
  9
$CMLSTYLE
  2
Standard
  9
$CMLJUST
 70
     0
  9
$CMLSCALE
 40
20.0
  9
$PROXYGRAPHICS
 70
     1
  9
$MEASUREMENT
 70
     1
  9
$CELWEIGHT
370
    -1
  9
$ENDCAPS
280
     0
  9
$JOINSTYLE
280
     0
  9
$LWDISPLAY
290
     1
  9
$INSUNITS
 70
     4
  9
$HYPERLINKBASE
  1

  9
$STYLESHEET
  1

  9
$XEDIT
290
     1
  9
$CEPSNTYPE
380
     0
  9
$PSTYLEMODE
290
     1
  9
$FINGERPRINTGUID
  2
{F7452A17-F582-4D65-8F92-EF0A8DEA5252}
  9
$VERSIONGUID
  2
{FAEB1C32-E019-11D5-929B-00C0DF256EC4}
  9
$EXTNAMES
290
     1
  9
$PSVPSCALE
 40
0.0
  9
$OLESTARTUP
290
     0
  0
ENDSEC
  0
SECTION
  2
CLASSES
  0
CLASS
  1
ACDBDICTIONARYWDFLT
  2
AcDbDictionaryWithDefault
  3
ObjectDBX Classes
 90
        0
280
     0
281
     0
  0
CLASS
  1
VISUALSTYLE
  2
AcDbVisualStyle
  3
ObjectDBX Classes
 90
     4095
280
     0
281
     0
  0
CLASS
  1
MATERIAL
  2
AcDbMaterial
  3
ObjectDBX Classes
 90
     1153
280
     0
281
     0
  0
CLASS
  1
SCALE
  2
AcDbScale
  3
ObjectDBX Classes
 90
     1153
280
     0
281
     0
  0
CLASS
  1
TABLESTYLE
  2
AcDbTableStyle
  3
ObjectDBX Classes
 90
     4095
280
     0
281
     0
  0
CLASS
  1
MLEADERSTYLE
  2
AcDbMLeaderStyle
  3
ACDB_MLEADERSTYLE_CLASS
 90
     4095
280
     0
281
     0
  0
CLASS
  1
SUN
  2
AcDbSun
  3
SCENEOE
 90
     1153
280
     0
281
     0
  0
CLASS
  1
ACDBPLACEHOLDER
  2
AcDbPlaceHolder
  3
ObjectDBX Classes
 90
        0
280
     0
281
     0
  0
CLASS
  1
LAYOUT
  2
AcDbLayout
  3
ObjectDBX Classes
 90
        0
280
     0
281
     0
  0
ENDSEC
  0
SECTION
  2
TABLES
  0
TABLE
  2
VPORT
  5
8
330
0
100
AcDbSymbolTable
 70
     1
  0
VPORT
  5
29
330
8
100
AcDbSymbolTableRecord
100
AcDbViewportTableRecord
  2
*Active
 70
     0
 10
0.0
 20
0.0
 11
1.0
 21
1.0
 12
0.0
 22
0.0
 13
0.0
 23
0.0
 14
10.0
 24
10.0
 15
10.0
 25
10.0
 16
0.0
 26
0.0
 36
1.0
 17
0.0
 27
0.0
 37
0.0
 40
1020.0
 41
1.0
 42
50.0
 43
0.0
 44
0.0
 50
0.0
 51
0.0
 71
     0
 72
   100
 73
     1
 74
     3
 75
     0
 76
     0
 77
     0
 78
     0
281
     0
 65
     1
110
0.0
120
0.0
130
0.0
111
1.0
121
0.0
131
0.0
112
0.0
122
1.0
132
0.0
 79
     0
146
0.0
  0
ENDTAB
  0
TABLE
  2
LTYPE
  5
5
330
0
100
AcDbSymbolTable
 70
     6
  0
LTYPE
  5
14
330
5
100
AcDbSymbolTableRecord
100
AcDbLinetypeTableRecord
  2
ByBlock
 70
     0
  3

 72
    65
 73
     0
 40
0.0
  0
LTYPE
  5
15
330
5
100
AcDbSymbolTableRecord
100
AcDbLinetypeTableRecord
  2
ByLayer
 70
     0
  3

 72
    65
 73
     0
 40
0.0
  0
LTYPE
  5
16
330
5
100
AcDbSymbolTableRecord
100
AcDbLinetypeTableRecord
  2
Continuous
 70
     0
  3
Solid line
 72
    65
 73
     0
 40
0.0
  0
LTYPE
  5
6E
330
5
100
AcDbSymbolTableRecord
100
AcDbLinetypeTableRecord
  2
HIDDEN
 70
     0
  3
Hidden __ __ __ __ __ __ __ __ __ __ __ __ __ __
 72
    65
 73
     2
 40
1.905
 49
1.27
 74
     0
 49
-0.635
 74
     0
  0
LTYPE
  5
6F
330
5
100
AcDbSymbolTableRecord
100
AcDbLinetypeTableRecord
  2
PHANTOM
 70
     0
  3
Phantom ______  __  __  ______  __  __  ______
 72
    65
 73
     6
 40
12.7
 49
6.35
 74
     0
 49
-1.27
 74
     0
 49
1.27
 74
     0
 49
-1.27
 74
     0
 49
1.27
 74
     0
 49
-1.27
 74
     0
  0
LTYPE
  5
70
330
5
100
AcDbSymbolTableRecord
100
AcDbLinetypeTableRecord
  2
CENTER
 70
     0
  3
Center ____ _ ____ _ ____ _ ____ _ ____ _ ____
 72
    65
 73
     4
 40
10.16
 49
6.35
 74
     0
 49
-1.27
 74
     0
 49
1.27
 74
     0
 49
-1.27
 74
     0
  0
LTYPE
  5
71
330
5
100
AcDbSymbolTableRecord
100
AcDbLinetypeTableRecord
  2
CENTERX2
 70
     0
  3
Center (2x) ________  __  ________  __  _____
 72
    65
 73
     4
 40
20.32
 49
12.7
 74
     0
 49
-2.54
 74
     0
 49
2.54
 74
     0
 49
-2.54
 74
     0
  0
LTYPE
  5
72
330
5
100
AcDbSymbolTableRecord
100
AcDbLinetypeTableRecord
  2
DOT2
 70
     0
  3
Dot (.5x) ........................................
 72
    65
 73
     2
 40
0.635
 49
0.0
 74
     0
 49
-0.635
 74
     0
  0
ENDTAB
  0
TABLE
  2
LAYER
  5
2
330
0
100
AcDbSymbolTable
 70
     1
  0
LAYER
  5
10
330
2
100
AcDbSymbolTableRecord
100
AcDbLayerTableRecord
  2
0
 70
     0
 62
     7
  6
Continuous
370
    -3
390
F
  0
ENDTAB
  0
TABLE
  2
STYLE
  5
3
330
0
100
AcDbSymbolTable
 70
     1
  0
STYLE
  5
11
330
3
100
AcDbSymbolTableRecord
100
AcDbTextStyleTableRecord
  2
STANDARD
 70
     0
 40
0.0
 41
1.0
 50
0.0
 71
     0
 42
3.5
  3
GOTHIC.TTF
  4

1001
ACAD
1000
CENTURY GOTHIC
1071
       34
  0
ENDTAB
  0
TABLE
  2
VIEW
  5
6
330
0
100
AcDbSymbolTable
 70
     0
  0
ENDTAB
  0
TABLE
  2
UCS
  5
7
330
0
100
AcDbSymbolTable
 70
     0
  0
ENDTAB
  0
TABLE
  2
APPID
  5
9
330
0
100
AcDbSymbolTable
 70
     1
  0
APPID
  5
12
330
9
100
AcDbSymbolTableRecord
100
AcDbRegAppTableRecord
  2
ACAD
 70
     0
  0
ENDTAB
  0
TABLE
  2
DIMSTYLE
  5
A
330
0
100
AcDbSymbolTable
 70
     1
100
AcDbDimStyleTable
  0
DIMSTYLE
105
27
330
A
100
AcDbSymbolTableRecord
100
AcDbDimStyleTableRecord
  2
ISO-25
 70
     0
 41
2.5
 42
0.625
 43
3.75
 44
1.25
 73
     0
 74
     0
 77
     1
 78
     8
140
2.5
141
2.5
143
0.0393700787
147
0.625
171
     3
172
     1
178
     0
271
     2
272
     2
274
     3
278
    44
283
     0
284
     8
340
11
  0
ENDTAB
  0
TABLE
  2
BLOCK_RECORD
  5
1
330
0
100
AcDbSymbolTable
 70
     8
  0
BLOCK_RECORD
  5
1F
330
1
100
AcDbSymbolTableRecord
100
AcDbBlockTableRecord
  2
*Model_Space
340
22
  0
BLOCK_RECORD
  5
1B
330
1
100
AcDbSymbolTableRecord
100
AcDbBlockTableRecord
  2
*Paper_Space
340
1E
  0
BLOCK_RECORD
  5
23
330
1
100
AcDbSymbolTableRecord
100
AcDbBlockTableRecord
  2
*Paper_Space0
340
26
  0
BLOCK_RECORD
  5
C7
330
1
100
AcDbSymbolTableRecord
100
AcDbBlockTableRecord
  2
*Paper_Space1
340
C8
  0
BLOCK_RECORD
  5
D9
330
1
100
AcDbSymbolTableRecord
100
AcDbBlockTableRecord
  2
*Paper_Space2
340
DA
  0
BLOCK_RECORD
  5
EB
330
1
100
AcDbSymbolTableRecord
100
AcDbBlockTableRecord
  2
*Paper_Space3
340
EC
  0
BLOCK_RECORD
  5
FD
330
1
100
AcDbSymbolTableRecord
100
AcDbBlockTableRecord
  2
*Paper_Space4
340
FE
  0
BLOCK_RECORD
  5
12A
330
1
100
AcDbSymbolTableRecord
100
AcDbBlockTableRecord
  2
*Paper_Space5
340
12B
  0
BLOCK_RECORD
  5
1AA
330
1
100
AcDbSymbolTableRecord
100
AcDbBlockTableRecord
  2
*Paper_Space6
340
1AB
  0
BLOCK_RECORD
  5
216
330
1
100
AcDbSymbolTableRecord
100
AcDbBlockTableRecord
  2
*Paper_Space7
340
217
  0
ENDTAB
  0
ENDSEC
  0
SECTION
  2
BLOCKS
  0
BLOCK
  5
20
330
1F
100
AcDbEntity
  8
0
100
AcDbBlockBegin
  2
*Model_Space
 70
     0
 10
0.0
 20
0.0
 30
0.0
  3
*Model_Space
  1

  0
ENDBLK
  5
21
330
1F
100
AcDbEntity
  8
0
100
AcDbBlockEnd
  0
BLOCK
  5
1C
330
1B
100
AcDbEntity
 67
     1
  8
0
100
AcDbBlockBegin
  2
*Paper_Space
 70
     0
 10
0.0
 20
0.0
 30
0.0
  3
*Paper_Space
  1

  0
ENDBLK
  5
1D
330
1B
100
AcDbEntity
 67
     1
  8
0
100
AcDbBlockEnd
  0
BLOCK
  5
24
330
23
100
AcDbEntity
  8
0
100
AcDbBlockBegin
  2
*Paper_Space0
 70
     0
 10
0.0
 20
0.0
 30
0.0
  3
*Paper_Space0
  1

  0
LINE
  5
C0
330
23
100
AcDbEntity
  8
0
  6
Continuous
 62
     7
370
    25
100
AcDbLine
 10
500.0
 20
35.0
 30
0.0
 11
500.0
 21
0.0
 31
0.0
  0
LINE
  5
C1
330
23
100
AcDbEntity
  8
0
  6
Continuous
 62
     7
370
    25
100
AcDbLine
 10
-500.0
 20
0.0
 30
0.0
 11
500.0
 21
0.0
 31
0.0
  0
LINE
  5
C2
330
23
100
AcDbEntity
  8
0
  6
Continuous
 62
     7
370
    25
100
AcDbLine
 10
-500.0
 20
35.0
 30
0.0
 11
-500.0
 21
0.0
 31
0.0
  0
LINE
  5
C3
330
23
100
AcDbEntity
  8
0
  6
Continuous
 62
     7
370
    25
100
AcDbLine
 10
-500.0
 20
35.0
 30
0.0
 11
500.0
 21
35.0
 31
0.0
  0
LINE
  5
C4
330
23
100
AcDbEntity
  8
0
  6
Continuous
 62
     7
370
    25
100
AcDbLine
 10
130.0
 20
-26.0
 30
0.0
 11
130.0
 21
0.0
 31
0.0
  0
LINE
  5
C5
330
23
100
AcDbEntity
  8
0
  6
Continuous
 62
     7
370
    25
100
AcDbLine
 10
130.0
 20
-26.0
 30
0.0
 11
-130.0
 21
-26.0
 31
0.0
  0
LINE
  5
C6
330
23
100
AcDbEntity
  8
0
  6
Continuous
 62
     7
370
    25
100
AcDbLine
 10
-130.0
 20
-26.0
 30
0.0
 11
-130.0
 21
0.0
 31
0.0
  0
VIEWPORT
  5
276
330
23
100
AcDbEntity
  8
0
100
AcDbViewport
 10
0.0
 20
0.0
 30
0.0
 40
205.6
 41
156.0
 68
     1
 69
     1
 12
0.0
 22
0.0
 13
0.0
 23
0.0
 14
10.0
 24
10.0
 15
10.0
 25
10.0
 16
0.0
 26
0.0
 36
1.0
 17
0.0
 27
0.0
 37
0.0
 42
50.0
 43
0.0
 44
0.0
 45
1020.0
 50
0.0
 51
0.0
 72
   100
 90
   557152
  1

281
     0
 71
     1
 74
     0
110
0.0
120
0.0
130
0.0
111
1.0
121
0.0
131
0.0
112
0.0
122
1.0
132
0.0
 79
     0
146
0.0
  0
ENDBLK
  5
25
330
23
100
AcDbEntity
  8
0
100
AcDbBlockEnd
  0
BLOCK
  5
C9
330
C7
100
AcDbEntity
  8
0
100
AcDbBlockBegin
  2
*Paper_Space1
 70
     0
 10
0.0
 20
0.0
 30
0.0
  3
*Paper_Space1
  1

  0
LINE
  5
D2
330
C7
100
AcDbEntity
  8
0
  6
Continuous
 62
     7
370
    25
100
AcDbLine
 10
-500.0
 20
35.0
 30
0.0
 11
-500.0
 21
0.0
 31
0.0
  0
LINE
  5
D3
330
C7
100
AcDbEntity
  8
0
  6
Continuous
 62
     7
370
    25
100
AcDbLine
 10
500.0
 20
35.0
 30
0.0
 11
500.0
 21
0.0
 31
0.0
  0
LINE
  5
D4
330
C7
100
AcDbEntity
  8
0
  6
Continuous
 62
     7
370
    25
100
AcDbLine
 10
-500.0
 20
0.0
 30
0.0
 11
500.0
 21
0.0
 31
0.0
  0
LINE
  5
D5
330
C7
100
AcDbEntity
  8
0
  6
Continuous
 62
     7
370
    25
100
AcDbLine
 10
-500.0
 20
35.0
 30
0.0
 11
500.0
 21
35.0
 31
0.0
  0
LINE
  5
D6
330
C7
100
AcDbEntity
  8
0
  6
Continuous
 62
     7
370
    25
100
AcDbLine
 10
130.0
 20
-26.0
 30
0.0
 11
130.0
 21
0.0
 31
0.0
  0
LINE
  5
D7
330
C7
100
AcDbEntity
  8
0
  6
Continuous
 62
     7
370
    25
100
AcDbLine
 10
130.0
 20
-26.0
 30
0.0
 11
-130.0
 21
-26.0
 31
0.0
  0
LINE
  5
D8
330
C7
100
AcDbEntity
  8
0
  6
Continuous
 62
     7
370
    25
100
AcDbLine
 10
-130.0
 20
-26.0
 30
0.0
 11
-130.0
 21
0.0
 31
0.0
  0
VIEWPORT
  5
278
330
C7
100
AcDbEntity
  8
0
100
AcDbViewport
 10
0.0
 20
0.0
 30
0.0
 40
205.6
 41
156.0
 68
     1
 69
     1
 12
0.0
 22
0.0
 13
0.0
 23
0.0
 14
10.0
 24
10.0
 15
10.0
 25
10.0
 16
0.0
 26
0.0
 36
1.0
 17
0.0
 27
0.0
 37
0.0
 42
50.0
 43
0.0
 44
0.0
 45
1020.0
 50
0.0
 51
0.0
 72
   100
 90
   557152
  1

281
     0
 71
     1
 74
     0
110
0.0
120
0.0
130
0.0
111
1.0
121
0.0
131
0.0
112
0.0
122
1.0
132
0.0
 79
     0
146
0.0
  0
ENDBLK
  5
CA
330
C7
100
AcDbEntity
  8
0
100
AcDbBlockEnd
  0
BLOCK
  5
DB
330
D9
100
AcDbEntity
  8
0
100
AcDbBlockBegin
  2
*Paper_Space2
 70
     0
 10
0.0
 20
0.0
 30
0.0
  3
*Paper_Space2
  1

  0
LINE
  5
E4
330
D9
100
AcDbEntity
  8
0
  6
Continuous
 62
     7
370
    25
100
AcDbLine
 10
-500.0
 20
35.0
 30
0.0
 11
500.0
 21
35.0
 31
0.0
  0
LINE
  5
E5
330
D9
100
AcDbEntity
  8
0
  6
Continuous
 62
     7
370
    25
100
AcDbLine
 10
-500.0
 20
35.0
 30
0.0
 11
-500.0
 21
0.0
 31
0.0
  0
LINE
  5
E6
330
D9
100
AcDbEntity
  8
0
  6
Continuous
 62
     7
370
    25
100
AcDbLine
 10
-500.0
 20
0.0
 30
0.0
 11
500.0
 21
0.0
 31
0.0
  0
LINE
  5
E7
330
D9
100
AcDbEntity
  8
0
  6
Continuous
 62
     7
370
    25
100
AcDbLine
 10
500.0
 20
35.0
 30
0.0
 11
500.0
 21
0.0
 31
0.0
  0
LINE
  5
E8
330
D9
100
AcDbEntity
  8
0
  6
Continuous
 62
     7
370
    25
100
AcDbLine
 10
130.0
 20
-26.0
 30
0.0
 11
130.0
 21
0.0
 31
0.0
  0
LINE
  5
E9
330
D9
100
AcDbEntity
  8
0
  6
Continuous
 62
     7
370
    25
100
AcDbLine
 10
130.0
 20
-26.0
 30
0.0
 11
-130.0
 21
-26.0
 31
0.0
  0
LINE
  5
EA
330
D9
100
AcDbEntity
  8
0
  6
Continuous
 62
     7
370
    25
100
AcDbLine
 10
-130.0
 20
-26.0
 30
0.0
 11
-130.0
 21
0.0
 31
0.0
  0
VIEWPORT
  5
27A
330
D9
100
AcDbEntity
  8
0
100
AcDbViewport
 10
0.0
 20
0.0
 30
0.0
 40
205.6
 41
156.0
 68
     1
 69
     1
 12
0.0
 22
0.0
 13
0.0
 23
0.0
 14
10.0
 24
10.0
 15
10.0
 25
10.0
 16
0.0
 26
0.0
 36
1.0
 17
0.0
 27
0.0
 37
0.0
 42
50.0
 43
0.0
 44
0.0
 45
1020.0
 50
0.0
 51
0.0
 72
   100
 90
   557152
  1

281
     0
 71
     1
 74
     0
110
0.0
120
0.0
130
0.0
111
1.0
121
0.0
131
0.0
112
0.0
122
1.0
132
0.0
 79
     0
146
0.0
  0
ENDBLK
  5
DC
330
D9
100
AcDbEntity
  8
0
100
AcDbBlockEnd
  0
BLOCK
  5
ED
330
EB
100
AcDbEntity
  8
0
100
AcDbBlockBegin
  2
*Paper_Space3
 70
     0
 10
0.0
 20
0.0
 30
0.0
  3
*Paper_Space3
  1

  0
LINE
  5
F6
330
EB
100
AcDbEntity
  8
0
  6
Continuous
 62
     7
370
    25
100
AcDbLine
 10
-500.0
 20
35.0
 30
0.0
 11
-500.0
 21
0.0
 31
0.0
  0
LINE
  5
F7
330
EB
100
AcDbEntity
  8
0
  6
Continuous
 62
     7
370
    25
100
AcDbLine
 10
-500.0
 20
35.0
 30
0.0
 11
500.0
 21
35.0
 31
0.0
  0
LINE
  5
F8
330
EB
100
AcDbEntity
  8
0
  6
Continuous
 62
     7
370
    25
100
AcDbLine
 10
500.0
 20
35.0
 30
0.0
 11
500.0
 21
0.0
 31
0.0
  0
LINE
  5
F9
330
EB
100
AcDbEntity
  8
0
  6
Continuous
 62
     7
370
    25
100
AcDbLine
 10
-500.0
 20
0.0
 30
0.0
 11
500.0
 21
0.0
 31
0.0
  0
LINE
  5
FA
330
EB
100
AcDbEntity
  8
0
  6
Continuous
 62
     7
370
    25
100
AcDbLine
 10
130.0
 20
-26.0
 30
0.0
 11
130.0
 21
0.0
 31
0.0
  0
LINE
  5
FB
330
EB
100
AcDbEntity
  8
0
  6
Continuous
 62
     7
370
    25
100
AcDbLine
 10
-130.0
 20
-26.0
 30
0.0
 11
-130.0
 21
0.0
 31
0.0
  0
LINE
  5
FC
330
EB
100
AcDbEntity
  8
0
  6
Continuous
 62
     7
370
    25
100
AcDbLine
 10
130.0
 20
-26.0
 30
0.0
 11
-130.0
 21
-26.0
 31
0.0
  0
VIEWPORT
  5
27C
330
EB
100
AcDbEntity
  8
0
100
AcDbViewport
 10
0.0
 20
0.0
 30
0.0
 40
205.6
 41
156.0
 68
     1
 69
     1
 12
0.0
 22
0.0
 13
0.0
 23
0.0
 14
10.0
 24
10.0
 15
10.0
 25
10.0
 16
0.0
 26
0.0
 36
1.0
 17
0.0
 27
0.0
 37
0.0
 42
50.0
 43
0.0
 44
0.0
 45
1020.0
 50
0.0
 51
0.0
 72
   100
 90
   557152
  1

281
     0
 71
     1
 74
     0
110
0.0
120
0.0
130
0.0
111
1.0
121
0.0
131
0.0
112
0.0
122
1.0
132
0.0
 79
     0
146
0.0
  0
ENDBLK
  5
EE
330
EB
100
AcDbEntity
  8
0
100
AcDbBlockEnd
  0
BLOCK
  5
FF
330
FD
100
AcDbEntity
  8
0
100
AcDbBlockBegin
  2
*Paper_Space4
 70
     0
 10
0.0
 20
0.0
 30
0.0
  3
*Paper_Space4
  1

  0
CIRCLE
  5
107
330
FD
100
AcDbEntity
  8
0
  6
Continuous
 62
     7
370
    25
100
AcDbCircle
 10
0.0
 20
0.0
 30
0.0
 40
44.99999999999999
  0
LINE
  5
116
330
FD
100
AcDbEntity
  8
0
  6
Continuous
 62
     7
370
    25
100
AcDbLine
 10
500.0
 20
-500.0
 30
0.0
 11
-500.0
 21
-500.0
 31
0.0
  0
LINE
  5
117
330
FD
100
AcDbEntity
  8
0
  6
Continuous
 62
     7
370
    25
100
AcDbLine
 10
-500.0
 20
500.0
 30
0.0
 11
500.0
 21
500.0
 31
0.0
  0
LINE
  5
118
330
FD
100
AcDbEntity
  8
0
  6
Continuous
 62
     7
370
    25
100
AcDbLine
 10
500.0
 20
500.0
 30
0.0
 11
500.0
 21
-500.0
 31
0.0
  0
LINE
  5
119
330
FD
100
AcDbEntity
  8
0
  6
Continuous
 62
     7
370
    25
100
AcDbLine
 10
-500.0
 20
-500.0
 30
0.0
 11
-500.0
 21
500.0
 31
0.0
  0
LINE
  5
11A
330
FD
100
AcDbEntity
  8
0
  6
Continuous
 62
     7
370
    25
100
AcDbLine
 10
130.0
 20
130.0
 30
0.0
 11
-130.0
 21
130.0
 31
0.0
  0
LINE
  5
11B
330
FD
100
AcDbEntity
  8
0
  6
Continuous
 62
     7
370
    25
100
AcDbLine
 10
130.0
 20
-130.0
 30
0.0
 11
130.0
 21
130.0
 31
0.0
  0
LINE
  5
11C
330
FD
100
AcDbEntity
  8
0
  6
Continuous
 62
     7
370
    25
100
AcDbLine
 10
-130.0
 20
-130.0
 30
0.0
 11
130.0
 21
-130.0
 31
0.0
  0
LINE
  5
11D
330
FD
100
AcDbEntity
  8
0
  6
Continuous
 62
     7
370
    25
100
AcDbLine
 10
-130.0
 20
130.0
 30
0.0
 11
-130.0
 21
-130.0
 31
0.0
  0
LINE
  5
11E
330
FD
100
AcDbEntity
  8
0
  6
Continuous
 62
     7
370
    25
100
AcDbLine
 10
25.0
 20
-19.3431457505
 30
0.0
 11
34.5222751082
 21
-28.8654208587
 31
0.0
  0
LINE
  5
11F
330
FD
100
AcDbEntity
  8
0
  6
Continuous
 62
     7
370
    25
100
AcDbLine
 10
34.5222751082
 20
28.8654208587
 30
0.0
 11
25.0
 21
19.3431457505
 31
0.0
  0
LINE
  5
120
330
FD
100
AcDbEntity
  8
0
  6
Continuous
 62
     7
370
    25
100
AcDbLine
 10
19.3431457505
 20
25.0
 30
0.0
 11
28.8654208587
 21
34.5222751082
 31
0.0
  0
LINE
  5
121
330
FD
100
AcDbEntity
  8
0
  6
Continuous
 62
     7
370
    25
100
AcDbLine
 10
25.0
 20
19.3431457505
 30
0.0
 11
25.0
 21
-19.3431457505
 31
0.0
  0
LINE
  5
122
330
FD
100
AcDbEntity
  8
0
  6
Continuous
 62
     7
370
    25
100
AcDbLine
 10
-28.8654208587
 20
34.5222751082
 30
0.0
 11
-19.3431457505
 21
25.0
 31
0.0
  0
LINE
  5
123
330
FD
100
AcDbEntity
  8
0
  6
Continuous
 62
     7
370
    25
100
AcDbLine
 10
-25.0
 20
19.3431457505
 30
0.0
 11
-34.5222751082
 21
28.8654208587
 31
0.0
  0
LINE
  5
124
330
FD
100
AcDbEntity
  8
0
  6
Continuous
 62
     7
370
    25
100
AcDbLine
 10
-19.3431457505
 20
25.0
 30
0.0
 11
19.3431457505
 21
25.0
 31
0.0
  0
LINE
  5
125
330
FD
100
AcDbEntity
  8
0
  6
Continuous
 62
     7
370
    25
100
AcDbLine
 10
28.8654208587
 20
-34.5222751082
 30
0.0
 11
19.3431457505
 21
-25.0
 31
0.0
  0
LINE
  5
126
330
FD
100
AcDbEntity
  8
0
  6
Continuous
 62
     7
370
    25
100
AcDbLine
 10
-34.5222751082
 20
-28.8654208587
 30
0.0
 11
-25.0
 21
-19.3431457505
 31
0.0
  0
LINE
  5
127
330
FD
100
AcDbEntity
  8
0
  6
Continuous
 62
     7
370
    25
100
AcDbLine
 10
-19.3431457505
 20
-25.0
 30
0.0
 11
-28.8654208587
 21
-34.5222751082
 31
0.0
  0
LINE
  5
128
330
FD
100
AcDbEntity
  8
0
  6
Continuous
 62
     7
370
    25
100
AcDbLine
 10
-25.0
 20
-19.3431457505
 30
0.0
 11
-25.0
 21
19.3431457505
 31
0.0
  0
LINE
  5
129
330
FD
100
AcDbEntity
  8
0
  6
Continuous
 62
     7
370
    25
100
AcDbLine
 10
19.3431457505
 20
-25.0
 30
0.0
 11
-19.3431457505
 21
-25.0
 31
0.0
  0
VIEWPORT
  5
27E
330
FD
100
AcDbEntity
  8
0
100
AcDbViewport
 10
0.0
 20
0.0
 30
0.0
 40
205.6
 41
156.0
 68
     1
 69
     1
 12
0.0
 22
0.0
 13
0.0
 23
0.0
 14
10.0
 24
10.0
 15
10.0
 25
10.0
 16
0.0
 26
0.0
 36
1.0
 17
0.0
 27
0.0
 37
0.0
 42
50.0
 43
0.0
 44
0.0
 45
1020.0
 50
0.0
 51
0.0
 72
   100
 90
   557152
  1

281
     0
 71
     1
 74
     0
110
0.0
120
0.0
130
0.0
111
1.0
121
0.0
131
0.0
112
0.0
122
1.0
132
0.0
 79
     0
146
0.0
  0
ENDBLK
  5
100
330
FD
100
AcDbEntity
  8
0
100
AcDbBlockEnd
  0
BLOCK
  5
12C
330
12A
100
AcDbEntity
  8
0
100
AcDbBlockBegin
  2
*Paper_Space5
 70
     0
 10
0.0
 20
0.0
 30
0.0
  3
*Paper_Space5
  1

  0
SPLINE
  5
140
330
12A
100
AcDbEntity
  8
0
  6
Continuous
 62
     7
370
    25
100
AcDbSpline
210
0.0
220
0.0
230
1.0
 70
     8
 71
     3
 72
    14
 73
    10
 74
     0
 42
0.000000001
 43
0.00000001
 40
0.0
 40
0.0
 40
0.0
 40
0.0
 40
0.25
 40
0.25
 40
0.5
 40
0.5
 40
0.75
 40
0.75
 40
1.0
 40
1.0
 40
1.0
 40
1.0
 10
-111.3693180368813
 20
15.96124575452622
 30
0.0
 10
-111.4859805642597
 20
16.030369741447
 30
0.0
 10
-111.5892635239571
 20
16.10464334739477
 30
0.0
 10
-111.7701608825556
 20
16.26307575807179
 30
0.0
 10
-111.8483999284894
 20
16.34822468780628
 30
0.0
 10
-111.973752424997
 20
16.52379717918058
 30
0.0
 10
-112.0210207930922
 20
16.61379897205764
 30
0.0
 10
-112.0850236881816
 20
16.79820050226949
 30
0.0
 10
-112.1015510839149
 20
16.893015712007
 30
0.0
 10
-112.1015510839149
 20
16.98741045761639
 30
0.0
  0
SPLINE
  5
141
330
12A
100
AcDbEntity
  8
0
  6
Continuous
 62
     7
370
    25
100
AcDbSpline
210
0.0
220
0.0
230
1.0
 70
     8
 71
     3
 72
    14
 73
    10
 74
     0
 42
0.000000001
 43
0.00000001
 40
0.0
 40
0.0
 40
0.0
 40
0.0
 40
0.2500000000000001
 40
0.2500000000000001
 40
0.5000000000000001
 40
0.5000000000000001
 40
0.7500000000000001
 40
0.7500000000000001
 40
1.0
 40
1.0
 40
1.0
 40
1.0
 10
-1.76776695296655
 20
-47.31038291173382
 30
0.0
 10
-10.90100982770997
 20
-42.17692424003543
 30
0.0
 10
-20.03413985484668
 20
-37.0534144555812
 30
0.0
 10
-38.30084803211466
 20
-26.76688730560206
 30
0.0
 10
-47.4343625484686
 20
-21.59855808275467
 30
0.0
 10
-65.70272372351232
 20
-11.0524576474724
 30
0.0
 10
-74.83623742956176
 20
-5.67545594420249
 30
0.0
 10
-93.1029454231184
 20
5.128309140516242
 30
0.0
 10
-102.2360752888087
 20
10.54968673511422
 30
0.0
 10
-111.3693180368812
 20
15.96124575452624
 30
0.0
  0
SPLINE
  5
142
330
12A
100
AcDbEntity
  8
0
  6
Continuous
 62
     7
370
    25
100
AcDbSpline
210
0.0
220
0.0
230
1.0
 70
     8
 71
     3
 72
    14
 73
    10
 74
     0
 42
0.000000001
 43
0.00000001
 40
0.0
 40
0.0
 40
0.0
 40
0.0
 40
0.25
 40
0.25
 40
0.5
 40
0.5
 40
0.75
 40
0.75
 40
1.0
 40
1.0
 40
1.0
 40
1.0
 10
-0.0000000000001527
 20
-47.72743748885753
 30
0.0
 10
-0.1649968394196455
 20
-47.72658145050895
 30
0.0
 10
-0.3272409421160721
 20
-47.71672525206481
 30
0.0
 10
-0.6464485979881113
 20
-47.67975441133564
 30
0.0
 10
-0.8050622039253996
 20
-47.65220399033757
 30
0.0
 10
-1.107577710236583
 20
-47.58085731004882
 30
0.0
 10
-1.251065172406543
 20
-47.53741663200321
 30
0.0
 10
-1.52264296488025
 20
-47.43515118228122
 30
0.0
 10
-1.651104458610254
 20
-47.37595459328533
 30
0.0
 10
-1.767766952966592
 20
-47.3103829117338
 30
0.0
  0
SPLINE
  5
144
330
12A
100
AcDbEntity
  8
0
  6
Continuous
 62
     7
370
    25
100
AcDbSpline
210
0.0
220
0.0
230
1.0
 70
     8
 71
     3
 72
    14
 73
    10
 74
     0
 42
0.000000001
 43
0.00000001
 40
0.0
 40
0.0
 40
0.0
 40
0.0
 40
0.25
 40
0.25
 40
0.5
 40
0.5
 40
0.75
 40
0.75
 40
1.0
 40
1.0
 40
1.0
 40
1.0
 10
112.1015510839149
 20
16.98741045761616
 30
0.0
 10
112.1015510839149
 20
16.89301584803492
 30
0.0
 10
112.0853769331662
 20
16.7998733811534
 30
0.0
 10
112.0220018051164
 20
16.6159838818691
 30
0.0
 10
111.9740340492415
 20
16.52427742114705
 30
0.0
 10
111.8487876510661
 20
16.34868241027735
 30
0.0
 10
111.7721434618913
 20
16.26504379096056
 30
0.0
 10
111.5910720660708
 20
16.10600042639487
 30
0.0
 10
111.4859805312376
 20
16.03036972188083
 30
0.0
 10
111.3693180368812
 20
15.96124575452605
 30
0.0
  0
SPLINE
  5
146
330
12A
100
AcDbEntity
  8
0
  6
Continuous
 62
     7
370
    25
100
AcDbSpline
210
0.0
220
0.0
230
1.0
 70
     8
 71
     3
 72
    14
 73
    10
 74
     0
 42
0.000000001
 43
0.00000001
 40
0.0
 40
0.0
 40
0.0
 40
0.0
 40
0.25
 40
0.25
 40
0.5
 40
0.5
 40
0.75
 40
0.75
 40
1.0
 40
1.0
 40
1.0
 40
1.0
 10
1.767766952966134
 20
-47.31038291173383
 30
0.0
 10
1.651104425587718
 20
-47.37595461184586
 30
0.0
 10
1.524950791300259
 20
-47.43413193230834
 30
0.0
 10
1.254435012834627
 20
-47.53629477873243
 30
0.0
 10
1.108364093326673
 20
-47.58063723574576
 30
0.0
 10
0.8058917365936016
 20
-47.6520427750721
 30
0.0
 10
0.6502332748175715
 20
-47.67918814753221
 30
0.0
 10
0.3301527058247045
 20
-47.71651328155029
 30
0.0
 10
0.1649970771893938
 20
-47.72658144927536
 30
0.0
 10
-0.0000000000002012
 20
-47.72743748885754
 30
0.0
  0
SPLINE
  5
147
330
12A
100
AcDbEntity
  8
0
  6
Continuous
 62
     7
370
    25
100
AcDbSpline
210
0.0
220
0.0
230
1.0
 70
     8
 71
     3
 72
    14
 73
    10
 74
     0
 42
0.000000001
 43
0.00000001
 40
0.0
 40
0.0
 40
0.0
 40
0.0
 40
0.25
 40
0.25
 40
0.5
 40
0.5
 40
0.7500000000000001
 40
0.7500000000000001
 40
1.0
 40
1.0
 40
1.0
 40
1.0
 10
111.3693180368813
 20
15.96124575452602
 30
0.0
 10
102.2360751621378
 20
10.54968666005997
 30
0.0
 10
93.10294513500104
 20
5.128308969423144
 30
0.0
 10
74.83623695773298
 20
-5.675456222576359
 30
0.0
 10
65.70272244137915
 20
-11.05245839662103
 30
0.0
 10
47.43436126633536
 20
-21.59855881392547
 30
0.0
 10
38.30084756028585
 20
-26.7668875719901
 30
0.0
 10
20.03413956672915
 20
-37.05341461714141
 30
0.0
 10
10.90100970103877
 20
-42.17692431123244
 30
0.0
 10
1.767766952966141
 20
-47.31038291173383
 30
0.0
  0
SPLINE
  5
148
330
12A
100
AcDbEntity
  8
0
  6
Continuous
 62
     7
370
    25
100
AcDbSpline
210
0.0
220
0.0
230
1.0
 70
     8
 71
     3
 72
    14
 73
    10
 74
     0
 42
0.000000001
 43
0.00000001
 40
0.0
 40
0.0
 40
0.0
 40
0.0
 40
0.25
 40
0.25
 40
0.5
 40
0.5
 40
0.75
 40
0.75
 40
1.0
 40
1.0
 40
1.0
 40
1.0
 10
111.3693180368813
 20
18.00226603408282
 30
0.0
 10
111.4859805642597
 20
17.9366943339708
 30
0.0
 10
111.5892635239571
 20
17.8653140541004
 30
0.0
 10
111.7701608825556
 20
17.71141559511049
 30
0.0
 10
111.8483999284894
 20
17.62791463099503
 30
0.0
 10
111.973752424997
 20
17.4542599727942
 30
0.0
 10
112.0210207930922
 20
17.36454233114035
 30
0.0
 10
112.0850236881816
 20
17.17938670263834
 30
0.0
 10
112.1015510839149
 20
17.08351728238996
 30
0.0
 10
112.1015510839149
 20
16.98741045761617
 30
0.0
  0
SPLINE
  5
149
330
12A
100
AcDbEntity
  8
0
  6
Continuous
 62
     7
370
    25
100
AcDbSpline
210
0.0
220
0.0
230
1.0
 70
     8
 71
     3
 72
    14
 73
    10
 74
     0
 42
0.000000001
 43
0.00000001
 40
0.0
 40
0.0
 40
0.0
 40
0.0
 40
0.2499999999999999
 40
0.2499999999999999
 40
0.4999999999999999
 40
0.4999999999999999
 40
0.7499999999999998
 40
0.7499999999999998
 40
1.0
 40
1.0
 40
1.0
 40
1.0
 10
1.767766952966564
 20
81.27389470034285
 30
0.0
 10
10.90100982770999
 20
75.86233560587677
 30
0.0
 10
20.03413985484669
 20
70.44095791523992
 30
0.0
 10
38.30084803211466
 20
59.6371927232404
 30
0.0
 10
47.43436254846858
 20
54.26019054919578
 30
0.0
 10
65.70272372351229
 20
43.71409013189126
 30
0.0
 10
74.83623742956173
 20
38.54576137382658
 30
0.0
 10
93.10294542311836
 20
28.25923432867524
 30
0.0
 10
102.2360752888087
 20
23.1357246345842
 30
0.0
 10
111.3693180368813
 20
18.0022660340828
 30
0.0
  0
SPLINE
  5
14A
330
12A
100
AcDbEntity
  8
0
  6
Continuous
 62
     7
370
    25
100
AcDbSpline
210
0.0
220
0.0
230
1.0
 70
     8
 71
     3
 72
    14
 73
    10
 74
     0
 42
0.000000001
 43
0.00000001
 40
0.0
 40
0.0
 40
0.0
 40
0.0
 40
0.25
 40
0.25
 40
0.5
 40
0.5
 40
0.75
 40
0.75
 40
1.0
 40
1.0
 40
1.0
 40
1.0
 10
0.0000000000001596
 20
81.70225840409006
 30
0.0
 10
0.1649968394196524
 20
81.70311444243866
 30
0.0
 10
0.3272409421160444
 20
81.69429636392144
 30
0.0
 10
0.6464485979880765
 20
81.65809583930067
 30
0.0
 10
0.8050622039253719
 20
81.63026386821298
 30
0.0
 10
1.107577710236576
 20
81.55700413520239
 30
0.0
 10
1.251065172406536
 20
81.51195331602135
 30
0.0
 10
1.522642964880222
 20
81.40515818210868
 30
0.0
 10
1.651104458610233
 20
81.34301866769763
 30
0.0
 10
1.767766952966571
 20
81.27389470034284
 30
0.0
  0
SPLINE
  5
14C
330
12A
100
AcDbEntity
  8
0
  6
Continuous
 62
     7
370
    25
100
AcDbSpline
210
0.0
220
0.0
230
1.0
 70
     8
 71
     3
 72
    14
 73
    10
 74
     0
 42
0.000000001
 43
0.00000001
 40
0.0
 40
0.0
 40
0.0
 40
0.0
 40
0.25
 40
0.25
 40
0.5
 40
0.5
 40
0.75
 40
0.75
 40
1.0
 40
1.0
 40
1.0
 40
1.0
 10
-1.767766952966154
 20
81.27389470034285
 30
0.0
 10
-1.651104425587739
 20
81.34301868726362
 30
0.0
 10
-1.524950791300293
 20
81.40408933380351
 30
0.0
 10
-1.25443501283469
 20
81.51078613191473
 30
0.0
 10
-1.10836409332675
 20
81.55677655454704
 30
0.0
 10
-0.8058917365936641
 20
81.63009992704693
 30
0.0
 10
-0.6502332748175715
 20
81.65752945073015
 30
0.0
 10
-0.3301527058247253
 20
81.69410048645808
 30
0.0
 10
-0.1649970771893938
 20
81.70311444367222
 30
0.0
 10
0.0000000000001874
 20
81.70225840409003
 30
0.0
  0
SPLINE
  5
14D
330
12A
100
AcDbEntity
  8
0
  6
Continuous
 62
     7
370
    25
100
AcDbSpline
210
0.0
220
0.0
230
1.0
 70
     8
 71
     3
 72
    14
 73
    10
 74
     0
 42
0.000000001
 43
0.00000001
 40
0.0
 40
0.0
 40
0.0
 40
0.0
 40
0.25
 40
0.25
 40
0.5
 40
0.5
 40
0.75
 40
0.75
 40
1.0
 40
1.0
 40
1.0
 40
1.0
 10
-111.3693180368813
 20
18.002266034083
 30
0.0
 10
-102.2360751621378
 20
23.13572470578138
 30
0.0
 10
-93.10294513500106
 20
28.25923449023561
 30
0.0
 10
-74.83623695773298
 20
38.54576164021467
 30
0.0
 10
-65.70272244137917
 20
43.71409086306213
 30
0.0
 10
-47.43436126633537
 20
54.26019129834436
 30
0.0
 10
-38.30084756028585
 20
59.63719300161423
 30
0.0
 10
-20.03413956672911
 20
70.44095808633294
 30
0.0
 10
-10.90100970103876
 20
75.86233568093087
 30
0.0
 10
-1.767766952966154
 20
81.27389470034288
 30
0.0
  0
SPLINE
  5
14E
330
12A
100
AcDbEntity
  8
0
  6
Continuous
 62
     7
370
    25
100
AcDbSpline
210
0.0
220
0.0
230
1.0
 70
     8
 71
     3
 72
    14
 73
    10
 74
     0
 42
0.000000001
 43
0.00000001
 40
0.0
 40
0.0
 40
0.0
 40
0.0
 40
0.25
 40
0.25
 40
0.5
 40
0.5
 40
0.75
 40
0.75
 40
1.0
 40
1.0
 40
1.0
 40
1.0
 10
-112.1015510839149
 20
16.98741045761639
 30
0.0
 10
-112.1015510839149
 20
17.08351714389479
 30
0.0
 10
-112.0853769331661
 20
17.17769773070326
 30
0.0
 10
-112.0220018051164
 20
17.362357546096
 30
0.0
 10
-111.9740340492415
 20
17.45378245672833
 30
0.0
 10
-111.8487876510661
 20
17.62746441487619
 30
0.0
 10
-111.7721434618913
 20
17.70949289305748
 30
0.0
 10
-111.5910720660708
 20
17.86400657343251
 30
0.0
 10
-111.4859805312376
 20
17.93669435253145
 30
0.0
 10
-111.3693180368813
 20
18.00226603408298
 30
0.0
  0
SPLINE
  5
153
330
12A
100
AcDbEntity
  8
0
  6
Continuous
 62
     7
370
    25
100
AcDbSpline
210
0.0
220
0.0
230
1.0
 70
    24
 71
     3
 72
     9
 73
     5
 74
     0
 42
0.000000001
 43
0.00000001
 40
0.0
 40
0.0
 40
0.0
 40
0.0
 40
0.9702348774232332
 40
1.0
 40
1.0
 40
1.0
 40
1.0
 10
-5.000000000000157
 20
-45.49368142750158
 30
0.0
 10
-5.000000000000185
 20
-45.16036362671504
 30
0.0
 10
-5.000000000000219
 20
-44.81682021414284
 30
0.0
 10
-5.000000000000143
 20
-44.47384813063881
 30
0.0
 10
-5.000000000000157
 20
-44.46363952453291
 30
0.0
  0
SPLINE
  5
156
330
12A
100
AcDbEntity
  8
0
  6
Continuous
 62
     7
370
    25
100
AcDbSpline
210
0.0
220
0.0
230
1.0
 70
     8
 71
     3
 72
     9
 73
     5
 74
     0
 42
0.000000001
 43
0.00000001
 40
0.0
 40
0.0
 40
0.0
 40
0.0
 40
0.0860782030687877
 40
1.0
 40
1.0
 40
1.0
 40
1.0
 10
-19.96118472977088
 20
-37.08463229368623
 30
0.0
 10
-19.8727023267183
 20
-37.10513900809565
 30
0.0
 10
-18.84477191114166
 20
-37.34337254084055
 30
0.0
 10
-17.77439564467219
 20
-37.50560037931203
 30
0.0
 10
-16.7961554438279
 20
-37.65386393696015
 30
0.0
  0
SPLINE
  5
157
330
12A
100
AcDbEntity
  8
0
  6
Continuous
 62
     7
370
    25
100
AcDbSpline
210
0.0
220
0.0
230
1.0
 70
     8
 71
     3
 72
     9
 73
     5
 74
     0
 42
0.000000001
 43
0.00000001
 40
0.0
 40
0.0
 40
0.0
 40
0.0
 40
0.978899330571848
 40
1.0
 40
1.0
 40
1.0
 40
1.0
 10
77.52994257884208
 20
-4.046011289943252
 30
0.0
 10
76.65050871361412
 20
-4.079310211184451
 30
0.0
 10
75.75211820729491
 20
-4.113326907489425
 30
0.0
 10
74.85377266697513
 20
-4.148123576292146
 30
0.0
 10
74.8348169746966
 20
-4.148857809297756
 30
0.0
  0
SPLINE
  5
15A
330
12A
100
AcDbEntity
  8
0
  6
Continuous
 62
     7
370
    25
100
AcDbSpline
210
0.0
220
0.0
230
1.0
 70
     8
 71
     3
 72
     9
 73
     5
 74
     0
 42
0.000000001
 43
0.00000001
 40
0.0
 40
0.0
 40
0.0
 40
0.0
 40
0.3017877256246645
 40
1.0
 40
1.0
 40
1.0
 40
1.0
 10
61.49854747632123
 20
-13.43748804292818
 30
0.0
 10
61.6524272763006
 20
-13.21120618734428
 30
0.0
 10
62.16232144002401
 20
-12.46140148566023
 30
0.0
 10
62.49724899244309
 20
-11.68104184538702
 30
0.0
 10
62.73109952056857
 20
-11.13618516612114
 30
0.0
  0
LWPOLYLINE
  5
15B
330
12A
100
AcDbEntity
  8
0
  6
Continuous
 62
     7
370
    25
100
AcDbPolyline
 90
        3
 70
   128
 43
0.0
 10
-42.8745193532
 20
-24.2203687679
 10
-43.5513707075
 20
-22.8691726215
 10
-43.9162371762
 20
-21.9977740021
  0
LWPOLYLINE
  5
15C
330
12A
100
AcDbEntity
  8
0
  6
Continuous
 62
     7
370
    25
100
AcDbPolyline
 90
        3
 70
   128
 43
0.0
 10
43.9162371762
 20
-21.9977740021
 10
43.7912672682
 20
-22.3113862928
 10
42.9492528016
 20
-24.0837210863
  0
LINE
  5
176
330
12A
100
AcDbEntity
  8
0
  6
Continuous
 62
     7
370
    25
100
AcDbLine
 10
96.9238815543
 20
9.7984897426
 30
0.0
 11
96.9238815543
 21
16.3308162377
 31
0.0
  0
LINE
  5
177
330
12A
100
AcDbEntity
  8
0
  6
Continuous
 62
     7
370
    25
100
AcDbLine
 10
-96.9238815543
 20
16.3308162377
 30
0.0
 11
-96.9238815543
 21
9.7984897426
 31
0.0
  0
LINE
  5
178
330
12A
100
AcDbEntity
  8
0
  6
Continuous
 62
     7
370
    25
100
AcDbLine
 10
95.9238815543
 20
6.8095509381
 30
0.0
 11
95.9238815543
 21
8.0666266064
 31
0.0
  0
LINE
  5
179
330
12A
100
AcDbEntity
  8
0
  6
Continuous
 62
     7
370
    25
100
AcDbLine
 10
-95.9238815543
 20
8.0666266064
 30
0.0
 11
-95.9238815543
 21
6.809556103
 31
0.0
  0
LINE
  5
17A
330
12A
100
AcDbEntity
  8
0
  6
Continuous
 62
     7
370
    25
100
AcDbLine
 10
707.1067811865
 20
28.578928416
 30
0.0
 11
0.0
 21
436.7829843274
 31
0.0
  0
LINE
  5
17B
330
12A
100
AcDbEntity
  8
0
  6
Continuous
 62
     7
370
    25
100
AcDbLine
 10
0.0
 20
-379.6251274954
 30
0.0
 11
707.1067811865
 21
28.578928416
 31
0.0
  0
LINE
  5
17C
330
12A
100
AcDbEntity
  8
0
  6
Continuous
 62
     7
370
    25
100
AcDbLine
 10
-707.1067811865
 20
28.578928416
 30
0.0
 11
0.0
 21
-379.6251274954
 31
0.0
  0
LINE
  5
17D
330
12A
100
AcDbEntity
  8
0
  6
Continuous
 62
     7
370
    25
100
AcDbLine
 10
0.0
 20
436.7829843274
 30
0.0
 11
-707.1067811865
 21
28.578928416
 31
0.0
  0
LINE
  5
17E
330
12A
100
AcDbEntity
  8
0
  6
Continuous
 62
     7
370
    25
100
AcDbLine
 10
0.0
 20
420.4548220909
 30
0.0
 11
-678.8225099391
 21
28.578928416
 31
0.0
  0
LINE
  5
17F
330
12A
100
AcDbEntity
  8
0
  6
Continuous
 62
     7
370
    25
100
AcDbLine
 10
-678.8225099391
 20
28.578928416
 30
0.0
 11
0.0
 21
-363.2969652589
 31
0.0
  0
LINE
  5
180
330
12A
100
AcDbEntity
  8
0
  6
Continuous
 62
     7
370
    25
100
AcDbLine
 10
0.0
 20
-363.2969652589
 30
0.0
 11
678.8225099391
 21
28.578928416
 31
0.0
  0
LINE
  5
181
330
12A
100
AcDbEntity
  8
0
  6
Continuous
 62
     7
370
    25
100
AcDbLine
 10
678.8225099391
 20
28.578928416
 30
0.0
 11
0.0
 21
420.4548220909
 31
0.0
  0
LINE
  5
182
330
12A
100
AcDbEntity
  8
0
  6
Continuous
 62
     7
370
    25
100
AcDbLine
 10
-707.1067811865
 20
28.578928416
 30
0.0
 11
-707.1067811865
 21
0.0
 31
0.0
  0
LINE
  5
183
330
12A
100
AcDbEntity
  8
0
  6
Continuous
 62
     7
370
    25
100
AcDbLine
 10
0.0
 20
-379.6251274954
 30
0.0
 11
0.0
 21
-408.2040559114
 31
0.0
  0
LINE
  5
184
330
12A
100
AcDbEntity
  8
0
  6
Continuous
 62
     7
370
    25
100
AcDbLine
 10
-707.1067811865
 20
0.0
 30
0.0
 11
0.0
 21
-408.2040559114
 31
0.0
  0
LINE
  5
185
330
12A
100
AcDbEntity
  8
0
  6
Continuous
 62
     7
370
    25
100
AcDbLine
 10
707.1067811865
 20
28.578928416
 30
0.0
 11
707.1067811865
 21
0.0
 31
0.0
  0
LINE
  5
186
330
12A
100
AcDbEntity
  8
0
  6
Continuous
 62
     7
370
    25
100
AcDbLine
 10
0.0
 20
-408.2040559114
 30
0.0
 11
707.1067811865
 21
0.0
 31
0.0
  0
LINE
  5
187
330
12A
100
AcDbEntity
  8
0
  6
Continuous
 62
     7
370
    25
100
AcDbLine
 10
-678.8225099391
 20
28.578928416
 30
0.0
 11
-112.1015510839
 21
16.9874104576
 31
0.0
  0
LINE
  5
188
330
12A
100
AcDbEntity
  8
0
  6
Continuous
 62
     7
370
    25
100
AcDbLine
 10
0.0
 20
-363.2969652589
 30
0.0
 11
0.0
 21
-47.7274374889
 31
0.0
  0
LINE
  5
189
330
12A
100
AcDbEntity
  8
0
  6
Continuous
 62
     7
370
    25
100
AcDbLine
 10
678.8225099391
 20
28.578928416
 30
0.0
 11
112.1015510839
 21
16.9874104576
 31
0.0
  0
LINE
  5
18A
330
12A
100
AcDbEntity
  8
0
  6
Continuous
 62
     7
370
    25
100
AcDbLine
 10
0.0
 20
81.7022584041
 30
0.0
 11
0.0
 21
420.4548220909
 31
0.0
  0
LINE
  5
18B
330
12A
100
AcDbEntity
  8
0
  6
Continuous
 62
     7
370
    25
100
AcDbLine
 10
98.5973345951
 20
8.3936192397
 30
0.0
 11
96.8732836951
 21
9.3888926393
 31
0.0
  0
LINE
  5
18C
330
12A
100
AcDbEntity
  8
0
  6
Continuous
 62
     7
370
    25
100
AcDbLine
 10
-96.8732836951
 20
9.3888926393
 30
0.0
 11
-98.5973309442
 21
8.3936213473
 31
0.0
  0
LINE
  5
18D
330
12A
100
AcDbEntity
  8
0
  6
Continuous
 62
     7
370
    25
100
AcDbLine
 10
-74.8280374816
 20
-4.1527715274
 30
0.0
 11
-77.524282298
 21
-4.0493336403
 31
0.0
  0
LINE
  5
18E
330
12A
100
AcDbEntity
  8
0
  6
Continuous
 62
     7
370
    25
100
AcDbLine
 10
-62.6181064333
 20
-11.201414687
 30
0.0
 11
-61.5047784373
 21
-13.4337407099
 31
0.0
  0
LINE
  5
18F
330
12A
100
AcDbEntity
  8
0
  6
Continuous
 62
     7
370
    25
100
AcDbLine
 10
5.0
 20
-44.4636395245
 30
0.0
 11
5.0
 21
-45.4936803467
 31
0.0
  0
LINE
  5
190
330
12A
100
AcDbEntity
  8
0
  6
Continuous
 62
     7
370
    25
100
AcDbLine
 10
16.9131182505
 20
-37.5863427459
 30
0.0
 11
20.0795163334
 21
-37.018116981
 31
0.0
  0
LINE
  5
191
330
12A
100
AcDbEntity
  8
0
  6
Continuous
 62
     7
370
    25
100
AcDbLine
 10
-3.5355339059
 20
-38.7767313103
 30
0.0
 11
-3.5355339059
 21
-45.3090578054
 31
0.0
  0
LINE
  5
192
330
12A
100
AcDbEntity
  8
0
  6
Continuous
 62
     7
370
    25
100
AcDbLine
 10
3.5355339059
 20
-38.7767313103
 30
0.0
 11
3.5355339059
 21
-45.3090578054
 31
0.0
  0
LINE
  5
193
330
12A
100
AcDbEntity
  8
0
  6
Continuous
 62
     7
370
    25
100
AcDbLine
 10
-3.5355339059
 20
71.4383637857
 30
0.0
 11
-95.4594154602
 21
18.3718365173
 31
0.0
  0
LINE
  5
194
330
12A
100
AcDbEntity
  8
0
  6
Continuous
 62
     7
370
    25
100
AcDbLine
 10
95.4594154602
 20
18.3718365173
 30
0.0
 11
3.5355339059
 21
71.4383637857
 31
0.0
  0
LINE
  5
195
330
12A
100
AcDbEntity
  8
0
  6
Continuous
 62
     7
370
    25
100
AcDbLine
 10
3.5355339059
 20
-38.7767313103
 30
0.0
 11
95.4594154602
 21
14.2897959582
 31
0.0
  0
LINE
  5
196
330
12A
100
AcDbEntity
  8
0
  6
Continuous
 62
     7
370
    25
100
AcDbLine
 10
-95.4594154602
 20
14.2897959582
 30
0.0
 11
-3.5355339059
 21
-38.7767313103
 31
0.0
  0
LINE
  5
197
330
12A
100
AcDbEntity
  8
0
  6
Continuous
 62
     7
370
    25
100
AcDbLine
 10
-95.4594154602
 20
14.2897959582
 30
0.0
 11
-95.4594154602
 21
7.7574694631
 31
0.0
  0
LINE
  5
198
330
12A
100
AcDbEntity
  8
0
  6
Continuous
 62
     7
370
    25
100
AcDbLine
 10
-95.4594154602
 20
7.7574694631
 30
0.0
 11
-3.5355339059
 21
-45.3090578054
 31
0.0
  0
LINE
  5
199
330
12A
100
AcDbEntity
  8
0
  6
Continuous
 62
     7
370
    25
100
AcDbLine
 10
95.4594154602
 20
14.2897959582
 30
0.0
 11
95.4594154602
 21
7.7574694631
 31
0.0
  0
LINE
  5
19A
330
12A
100
AcDbEntity
  8
0
  6
Continuous
 62
     7
370
    25
100
AcDbLine
 10
3.5355339059
 20
-45.3090578054
 30
0.0
 11
95.4594154602
 21
7.7574694631
 31
0.0
  0
LINE
  5
19B
330
12A
100
AcDbEntity
  8
0
  6
Continuous
 62
     7
370
    25
100
AcDbLine
 10
-4.0
 20
-45.0409272366
 30
0.0
 11
-4.0
 21
-46.0557391312
 31
0.0
  0
LINE
  5
19C
330
12A
100
AcDbEntity
  8
0
  6
Continuous
 62
     7
370
    25
100
AcDbLine
 10
4.0
 20
-45.0409272366
 30
0.0
 11
4.0
 21
-46.0557383848
 31
0.0
  0
LINE
  5
19D
330
12A
100
AcDbEntity
  8
0
  6
Continuous
 62
    60
370
    25
100
AcDbLine
 10
111.3693180369
 20
15.9612457545
 30
0.0
 11
111.3693180369
 21
18.0022660341
 31
0.0
  0
LINE
  5
19E
330
12A
100
AcDbEntity
  8
0
  6
Continuous
 62
    60
370
    25
100
AcDbLine
 10
-111.3693180369
 20
15.9612457545
 30
0.0
 11
-111.3693180369
 21
18.0022660341
 31
0.0
  0
LINE
  5
19F
330
12A
100
AcDbEntity
  8
0
  6
Continuous
 62
    60
370
    25
100
AcDbLine
 10
1.767766953
 20
72.0973595465
 30
0.0
 11
1.767766953
 21
81.2738947003
 31
0.0
  0
LINE
  5
1A0
330
12A
100
AcDbEntity
  8
0
  6
Continuous
 62
    60
370
    25
100
AcDbLine
 10
-1.767766953
 20
72.0973595465
 30
0.0
 11
-1.767766953
 21
81.2738947003
 31
0.0
  0
LINE
  5
1A1
330
12A
100
AcDbEntity
  8
0
  6
Continuous
 62
    60
370
    25
100
AcDbLine
 10
91.9238815543
 20
5.7164491835
 30
0.0
 11
91.9238815543
 21
4.4394800562
 31
0.0
  0
LINE
  5
1A2
330
12A
100
AcDbEntity
  8
0
  6
Continuous
 62
    60
370
    25
100
AcDbLine
 10
-91.9238815543
 20
5.7164491835
 30
0.0
 11
-91.9238815543
 21
4.4394865586
 31
0.0
  0
ARC
  5
1A3
330
12A
100
AcDbEntity
  8
0
  6
Continuous
 62
     7
370
    25
100
AcDbCircle
 10
0.0
 20
-31.9531758855
 30
0.0
 40
7.685109539558656
100
AcDbArc
 50
242.6096722366
 51
297.3903277634
  0
ARC
  5
1A4
330
12A
100
AcDbEntity
  8
0
  6
Continuous
 62
     7
370
    25
100
AcDbCircle
 10
0.0
 20
-38.4855023806
 30
0.0
 40
7.685109539558603
100
AcDbArc
 50
242.6096722366
 51
297.3903277634
  0
ARC
  5
1A5
330
12A
100
AcDbEntity
  8
0
  6
Continuous
 62
     7
370
    25
100
AcDbCircle
 10
0.0
 20
64.614808361
 30
0.0
 40
7.685109539558731
100
AcDbArc
 50
62.6096722366
 51
117.3903277634
  0
ARC
  5
1A6
330
12A
100
AcDbEntity
  8
0
  6
Continuous
 62
     7
370
    25
100
AcDbCircle
 10
94.6847803262
 20
16.3308162377
 30
0.0
 40
2.183076584171356
100
AcDbArc
 50
290.7834207995
 51
69.2165792005
  0
ARC
  5
1A7
330
12A
100
AcDbEntity
  8
0
  6
Continuous
 62
     7
370
    25
100
AcDbCircle
 10
-94.6847803262
 20
16.3308162377
 30
0.0
 40
2.183076584171356
100
AcDbArc
 50
110.7834207995
 51
249.2165792005
  0
ARC
  5
1A8
330
12A
100
AcDbEntity
  8
0
  6
Continuous
 62
     7
370
    25
100
AcDbCircle
 10
94.4215962418
 20
10.0480216271
 30
0.0
 40
2.514696392468977
100
AcDbArc
 50
294.3746582936
 51
354.3052007488
  0
ARC
  5
1A9
330
12A
100
AcDbEntity
  8
0
  6
Continuous
 62
     7
370
    25
100
AcDbCircle
 10
-94.4215962418
 20
10.0480216271
 30
0.0
 40
2.514696392468818
100
AcDbArc
 50
185.6947992512
 51
245.6253417064
  0
VIEWPORT
  5
280
330
12A
100
AcDbEntity
  8
0
100
AcDbViewport
 10
0.0
 20
0.0
 30
0.0
 40
205.6
 41
156.0
 68
     1
 69
     1
 12
0.0
 22
0.0
 13
0.0
 23
0.0
 14
10.0
 24
10.0
 15
10.0
 25
10.0
 16
0.0
 26
0.0
 36
1.0
 17
0.0
 27
0.0
 37
0.0
 42
50.0
 43
0.0
 44
0.0
 45
1020.0
 50
0.0
 51
0.0
 72
   100
 90
   557152
  1

281
     0
 71
     1
 74
     0
110
0.0
120
0.0
130
0.0
111
1.0
121
0.0
131
0.0
112
0.0
122
1.0
132
0.0
 79
     0
146
0.0
  0
ENDBLK
  5
12D
330
12A
100
AcDbEntity
  8
0
100
AcDbBlockEnd
  0
BLOCK
  5
1AC
330
1AA
100
AcDbEntity
  8
0
100
AcDbBlockBegin
  2
*Paper_Space6
 70
     0
 10
0.0
 20
0.0
 30
0.0
  3
*Paper_Space6
  1

  0
SPLINE
  5
1C0
330
1AA
100
AcDbEntity
  8
0
  6
Continuous
 62
     7
370
    25
100
AcDbSpline
210
0.0
220
0.0
230
1.0
 70
     8
 71
     3
 72
    14
 73
    10
 74
     0
 42
0.000000001
 43
0.00000001
 40
0.0
 40
0.0
 40
0.0
 40
0.0
 40
0.25
 40
0.25
 40
0.5
 40
0.5
 40
0.75
 40
0.75
 40
1.0
 40
1.0
 40
1.0
 40
1.0
 10
-105.8780355444052
 20
0.0143090688867059
 30
0.0
 10
-106.023951912455
 20
0.0558305254465125
 30
0.0
 10
-106.1598891204116
 20
0.103711704622908
 30
0.0
 10
-106.41261859846
 20
0.211681125936232
 30
0.0
 10
-106.5305123735771
 20
0.2725190099872044
 30
0.0
 10
-106.7396144773348
 20
0.4032897687762035
 30
0.0
 10
-106.8307513552543
 20
0.4728409863040753
 30
0.0
 10
-106.9864422014677
 20
0.6202066314077576
 30
0.0
 10
-107.0510149439602
 20
0.6984051271040626
 30
0.0
 10
-107.0997508858383
 20
0.7786946047845176
 30
0.0
  0
SPLINE
  5
1C1
330
1AA
100
AcDbEntity
  8
0
  6
Continuous
 62
     7
370
    25
100
AcDbSpline
210
0.0
220
0.0
230
1.0
 70
     8
 71
     3
 72
    14
 73
    10
 74
     0
 42
0.000000001
 43
0.00000001
 40
0.0
 40
0.0
 40
0.0
 40
0.0
 40
0.2500000000000001
 40
0.2500000000000001
 40
0.5000000000000001
 40
0.5000000000000001
 40
0.7500000000000001
 40
0.7500000000000001
 40
1.0
 40
1.0
 40
1.0
 40
1.0
 10
31.20677331559521
 20
-37.24240460712109
 30
0.0
 10
19.78331405453453
 20
-34.28372172471612
 30
0.0
 10
8.35999593830658
 20
-31.33545270368499
 30
0.0
 10
-14.48720078671943
 20
-25.39756064229685
 30
0.0
 10
-25.91099980518213
 20
-22.40234452462691
 30
0.0
 10
-48.76026402726355
 20
-16.19240410013774
 30
0.0
 10
-60.184062032233
 20
-12.97813291476885
 30
0.0
 10
-83.03125852748092
 20
-6.497268012584323
 30
0.0
 10
-94.4545764417788
 20
-3.236310907690942
 30
0.0
 10
-105.8780355444051
 20
0.0143090688867198
 30
0.0
  0
SPLINE
  5
1C2
330
1AA
100
AcDbEntity
  8
0
  6
Continuous
 62
     7
370
    25
100
AcDbSpline
210
0.0
220
0.0
230
1.0
 70
     8
 71
     3
 72
    14
 73
    10
 74
     0
 42
0.000000001
 43
0.00000001
 40
0.0
 40
0.0
 40
0.0
 40
0.0
 40
0.25
 40
0.25
 40
0.5
 40
0.5
 40
0.75
 40
0.75
 40
1.0
 40
1.0
 40
1.0
 40
1.0
 10
33.11194823037398
 20
-37.32784084170815
 30
0.0
 10
32.95431329822617
 20
-37.352043041207
 30
0.0
 10
32.79453084695269
 20
-37.36822159570472
 30
0.0
 10
32.47084634809449
 20
-37.38519383483433
 30
0.0
 10
32.30514138368824
 20
-37.38586845627484
 30
0.0
 10
31.97912905590073
 20
-37.37126552704567
 30
0.0
 10
31.81940504044661
 20
-37.35622590372882
 30
0.0
 10
31.50646074783634
 20
-37.31082072749536
 30
0.0
 10
31.35268964234243
 20
-37.28019702431665
 30
0.0
 10
31.20677331559515
 20
-37.24240460712107
 30
0.0
  0
SPLINE
  5
1C4
330
1AA
100
AcDbEntity
  8
0
  6
Continuous
 62
     7
370
    25
100
AcDbSpline
210
0.0
220
0.0
230
1.0
 70
     8
 71
     3
 72
    14
 73
    10
 74
     0
 42
0.000000001
 43
0.00000001
 40
0.0
 40
0.0
 40
0.0
 40
0.0
 40
0.25
 40
0.25
 40
0.5
 40
0.5
 40
0.75
 40
0.75
 40
1.0
 40
1.0
 40
1.0
 40
1.0
 10
107.0997508858383
 20
34.88652275096847
 30
0.0
 10
107.1484867574851
 20
34.80623338898968
 30
0.0
 10
107.1809570558707
 20
34.72448422835597
 30
0.0
 10
107.214695455678
 20
34.55817870854355
 30
0.0
 10
107.2157183746526
 20
34.47268656345158
 30
0.0
 10
107.1854156694069
 20
34.30377368400583
 30
0.0
 10
107.1545737754727
 20
34.22066460820787
 30
0.0
 10
107.0617986846782
 20
34.0571088542589
 30
0.0
 10
106.9993404331806
 20
33.97636620567368
 30
0.0
 10
106.9223423762735
 20
33.89934922784217
 30
0.0
  0
SPLINE
  5
1C6
330
1AA
100
AcDbEntity
  8
0
  6
Continuous
 62
     7
370
    25
100
AcDbSpline
210
0.0
220
0.0
230
1.0
 70
     8
 71
     3
 72
    14
 73
    10
 74
     0
 42
0.000000001
 43
0.00000001
 40
0.0
 40
0.0
 40
0.0
 40
0.0
 40
0.25
 40
0.25
 40
0.5
 40
0.5
 40
0.75
 40
0.75
 40
1.0
 40
1.0
 40
1.0
 40
1.0
 10
34.58455709211387
 20
-36.70454682682023
 30
0.0
 10
34.50755901341199
 20
-36.77783479778505
 30
0.0
 10
34.41754132236868
 20
-36.84632899480606
 30
0.0
 10
34.21252802603856
 20
-36.97411453081264
 30
0.0
 10
34.09608439322349
 20
-37.03396933422243
 30
0.0
 10
33.84413383225476
 20
-37.14065825230625
 30
0.0
 10
33.70938248781641
 20
-37.18744806996646
 30
0.0
 10
33.42248825359066
 20
-37.26803059267604
 30
0.0
 10
33.26958338968291
 20
-37.30184134471619
 30
0.0
 10
33.11194823037394
 20
-37.32784084170816
 30
0.0
  0
SPLINE
  5
1C7
330
1AA
100
AcDbEntity
  8
0
  6
Continuous
 62
     7
370
    25
100
AcDbSpline
210
0.0
220
0.0
230
1.0
 70
     8
 71
     3
 72
    14
 73
    10
 74
     0
 42
0.000000001
 43
0.00000001
 40
0.0
 40
0.0
 40
0.0
 40
0.0
 40
0.25
 40
0.25
 40
0.5
 40
0.5
 40
0.7500000000000001
 40
0.7500000000000001
 40
1.0
 40
1.0
 40
1.0
 40
1.0
 10
106.9223423762736
 20
33.89934922784215
 30
0.0
 10
100.8943386164049
 20
27.86986419158432
 30
0.0
 10
94.86640933674083
 20
21.83007634905677
 30
0.0
 10
82.81025501312249
 20
9.791413678442568
 30
0.0
 10
76.78207196790355
 20
3.798194550669751
 30
0.0
 10
64.7248266542673
 20
-7.970046497945266
 30
0.0
 10
58.69664414385482
 20
-13.74420976058589
 30
0.0
 10
46.64048994148725
 20
-25.23989940961048
 30
0.0
 10
40.61256076837886
 20
-30.96699900939385
 30
0.0
 10
34.58455709211388
 20
-36.70454682682023
 30
0.0
  0
SPLINE
  5
1C9
330
1AA
100
AcDbEntity
  8
0
  6
Continuous
 62
     7
370
    25
100
AcDbSpline
210
0.0
220
0.0
230
1.0
 70
     8
 71
     3
 72
    14
 73
    10
 74
     0
 42
0.000000001
 43
0.00000001
 40
0.0
 40
0.0
 40
0.0
 40
0.0
 40
0.25
 40
0.25
 40
0.5
 40
0.5
 40
0.75
 40
0.75
 40
1.0
 40
1.0
 40
1.0
 40
1.0
 10
-34.5845570921139
 20
72.35789237726958
 30
0.0
 10
-34.50755901341202
 20
72.43490937690125
 30
0.0
 10
-34.41754132236873
 20
72.50644085566948
 30
0.0
 10
-34.21252802603863
 20
72.63898592735707
 30
0.0
 10
-34.09608439322356
 20
72.70057068990756
 30
0.0
 10
-33.84413383225484
 20
72.80927286178178
 30
0.0
 10
-33.70938248781641
 20
72.85636096843551
 30
0.0
 10
-33.42248825359067
 20
72.93615187315561
 30
0.0
 10
-33.26958338968289
 20
72.96885596308547
 30
0.0
 10
-33.11194823037392
 20
72.9930581974611
 30
0.0
  0
SPLINE
  5
1CA
330
1AA
100
AcDbEntity
  8
0
  6
Continuous
 62
     7
370
    25
100
AcDbSpline
210
0.0
220
0.0
230
1.0
 70
     8
 71
     3
 72
    14
 73
    10
 74
     0
 42
0.000000001
 43
0.00000001
 40
0.0
 40
0.0
 40
0.0
 40
0.0
 40
0.25
 40
0.25
 40
0.5
 40
0.5
 40
0.75
 40
0.75
 40
1.0
 40
1.0
 40
1.0
 40
1.0
 10
-106.9223423762736
 20
1.753996322607185
 30
0.0
 10
-100.8943386164049
 20
7.491544219608795
 30
0.0
 10
-94.86640933674087
 20
13.21864392041482
 30
0.0
 10
-82.81025501312249
 20
24.71433368649631
 30
0.0
 10
-76.78207196790356
 20
30.48849746797947
 30
0.0
 10
-64.72482665426732
 20
42.25673853546677
 30
0.0
 10
-58.69664414385481
 20
48.24995713810691
 30
0.0
 10
-46.64048994148722
 20
60.28861968908915
 30
0.0
 10
-40.61256076837888
 20
66.32840742463594
 30
0.0
 10
-34.5845570921139
 20
72.35789237726958
 30
0.0
  0
SPLINE
  5
1CB
330
1AA
100
AcDbEntity
  8
0
  6
Continuous
 62
     7
370
    25
100
AcDbSpline
210
0.0
220
0.0
230
1.0
 70
     8
 71
     3
 72
    14
 73
    10
 74
     0
 42
0.000000001
 43
0.00000001
 40
0.0
 40
0.0
 40
0.0
 40
0.0
 40
0.25
 40
0.25
 40
0.5
 40
0.5
 40
0.75
 40
0.75
 40
1.0
 40
1.0
 40
1.0
 40
1.0
 10
-107.0997508858383
 20
0.7786946047845245
 30
0.0
 10
-107.1484867574851
 20
0.8607812267896892
 30
0.0
 10
-107.1809570558707
 20
0.9436201583725643
 30
0.0
 10
-107.214695455678
 20
1.110734320900364
 30
0.0
 10
-107.2157183746525
 20
1.195930907550068
 30
0.0
 10
-107.1854156694068
 20
1.362835551505549
 30
0.0
 10
-107.1545737754727
 20
1.444254374580345
 30
0.0
 10
-107.0617986846781
 20
1.603055072671458
 30
0.0
 10
-106.9993404331806
 20
1.680708372386992
 30
0.0
 10
-106.9223423762735
 20
1.753996322607178
 30
0.0
  0
SPLINE
  5
1CC
330
1AA
100
AcDbEntity
  8
0
  6
Continuous
 62
     7
370
    25
100
AcDbSpline
210
0.0
220
0.0
230
1.0
 70
     8
 71
     3
 72
    14
 73
    10
 74
     0
 42
0.000000001
 43
0.00000001
 40
0.0
 40
0.0
 40
0.0
 40
0.0
 40
0.25
 40
0.25
 40
0.5
 40
0.5
 40
0.75
 40
0.75
 40
1.0
 40
1.0
 40
1.0
 40
1.0
 10
105.8780355444051
 20
35.63903648156267
 30
0.0
 10
106.023951912455
 20
35.60124405366971
 30
0.0
 10
106.1598891204115
 20
35.55640015624052
 30
0.0
 10
106.41261859846
 20
35.4531902706082
 30
0.0
 10
106.5305123735771
 20
35.39408234569797
 30
0.0
 10
106.7396144773348
 20
35.26532484069931
 30
0.0
 10
106.8307513552543
 20
35.196071912165
 30
0.0
 10
106.9864422014677
 20
35.04791464907185
 30
0.0
 10
107.0510149439602
 20
34.9686094912653
 30
0.0
 10
107.0997508858383
 20
34.88652275096847
 30
0.0
  0
SPLINE
  5
1CD
330
1AA
100
AcDbEntity
  8
0
  6
Continuous
 62
     7
370
    25
100
AcDbSpline
210
0.0
220
0.0
230
1.0
 70
     8
 71
     3
 72
    14
 73
    10
 74
     0
 42
0.000000001
 43
0.00000001
 40
0.0
 40
0.0
 40
0.0
 40
0.0
 40
0.2499999999999999
 40
0.2499999999999999
 40
0.4999999999999999
 40
0.4999999999999999
 40
0.7499999999999998
 40
0.7499999999999998
 40
1.0
 40
1.0
 40
1.0
 40
1.0
 10
-31.2067733155952
 20
72.89575015757043
 30
0.0
 10
-19.78331405453449
 20
69.64513013590926
 30
0.0
 10
-8.359995938306552
 20
66.38417297315658
 30
0.0
 10
14.48720078671944
 20
59.90330800723575
 30
0.0
 10
25.91099980518212
 20
56.68903654327615
 30
0.0
 10
48.76026402726352
 20
50.4790961376592
 30
0.0
 10
60.18406203223299
 20
47.48388029228985
 30
0.0
 10
83.03125852748089
 20
41.54598829206295
 30
0.0
 10
94.4545764417788
 20
38.59771932293305
 30
0.0
 10
105.8780355444052
 20
35.63903648156266
 30
0.0
  0
SPLINE
  5
1CE
330
1AA
100
AcDbEntity
  8
0
  6
Continuous
 62
     7
370
    25
100
AcDbSpline
210
0.0
220
0.0
230
1.0
 70
     8
 71
     3
 72
    14
 73
    10
 74
     0
 42
0.000000001
 43
0.00000001
 40
0.0
 40
0.0
 40
0.0
 40
0.0
 40
0.25
 40
0.25
 40
0.5
 40
0.5
 40
0.75
 40
0.75
 40
1.0
 40
1.0
 40
1.0
 40
1.0
 10
-33.11194823037397
 20
72.99305819746112
 30
0.0
 10
-32.95431329822616
 20
73.01905765698635
 30
0.0
 10
-32.7945308469527
 20
73.03632598243317
 30
0.0
 10
-32.47084634809449
 20
73.05410686427815
 30
0.0
 10
-32.30514138368827
 20
73.0544859272765
 30
0.0
 10
-31.97912905590074
 20
73.0378747625571
 30
0.0
 10
-31.81940504044665
 20
73.02114488651712
 30
0.0
 10
-31.50646074783642
 20
72.97098465442578
 30
0.0
 10
-31.35268964234247
 20
72.93727160237734
 30
0.0
 10
-31.2067733155952
 20
72.89575015757043
 30
0.0
  0
SPLINE
  5
1D4
330
1AA
100
AcDbEntity
  8
0
  6
Continuous
 62
     7
370
    25
100
AcDbSpline
210
0.0
220
0.0
230
1.0
 70
     8
 71
     3
 72
    10
 73
     6
 74
     0
 42
0.000000001
 43
0.00000001
 40
0.0
 40
0.0
 40
0.0
 40
0.0
 40
0.2880820774784499
 40
0.767976614653172
 40
1.0
 40
1.0
 40
1.0
 40
1.0
 10
40.3312203980513
 20
-27.60044148959702
 30
0.0
 10
41.18345347897771
 20
-27.23531741133582
 30
0.0
 10
43.4553583545397
 20
-26.26196024866273
 30
0.0
 10
46.19689706998605
 20
-24.86217330422224
 30
0.0
 10
47.95283971388631
 20
-23.7864136991361
 30
0.0
 10
48.52512444478555
 20
-23.43580953888771
 30
0.0
  0
SPLINE
  5
1D5
330
1AA
100
AcDbEntity
  8
0
  6
Continuous
 62
     7
370
    25
100
AcDbSpline
210
0.0
220
0.0
230
1.0
 70
     8
 71
     3
 72
    10
 73
     6
 74
     0
 42
0.000000001
 43
0.00000001
 40
0.0
 40
0.0
 40
0.0
 40
0.0
 40
0.4282394297677062
 40
0.8762685516240339
 40
1.0
 40
1.0
 40
1.0
 40
1.0
 10
62.87611035993784
 20
-9.667589406213567
 30
0.0
 10
63.2711234119271
 20
-8.825999189824053
 30
0.0
 10
64.079403759038
 20
-7.103927403074714
 30
0.0
 10
64.67409595538473
 20
-5.113039416287287
 30
0.0
 10
64.77289713799448
 20
-3.970909100800103
 30
0.0
 10
64.79427813917228
 20
-3.723747184559683
 30
0.0
  0
LWPOLYLINE
  5
1DA
330
1AA
100
AcDbEntity
  8
0
  6
Continuous
 62
     7
370
    25
100
AcDbPolyline
 90
        9
 70
   128
 43
0.0
 10
92.2444687979
 20
29.9258188284
 10
92.6147383354
 20
30.3932386389
 10
92.80084016
 20
30.8888814008
 10
92.7956224831
 20
31.3936998408
 10
92.599285817
 20
31.8882940694
 10
92.2193752697
 20
32.3536571077
 10
91.6704905905
 20
32.7719053152
 10
90.9737251097
 20
33.1269656477
 10
90.1558551341
 20
33.4051933359
  0
LWPOLYLINE
  5
1DE
330
1AA
100
AcDbEntity
  8
0
  6
Continuous
 62
     7
370
    25
100
AcDbPolyline
 90
        9
 70
   128
 43
0.0
 10
-92.2444687979
 20
4.3608731996
 10
-92.6147383354
 20
3.8934533892
 10
-92.80084016
 20
3.3978106273
 10
-92.7956224831
 20
2.8929921873
 10
-92.599285817
 20
2.3983979587
 10
-92.2193752697
 20
1.9330349204
 10
-91.6704905905
 20
1.5147867129
 10
-90.9737251097
 20
1.1597263804
 10
-90.1558551341
 20
0.8814986922
  0
LINE
  5
1EB
330
1AA
100
AcDbEntity
  8
0
  6
Continuous
 62
     7
370
    25
100
AcDbLine
 10
31.1519776286
 20
-37.3303664254
 30
0.0
 11
31.1519776286
 21
-36.490975213
 31
0.0
  0
LINE
  5
1EC
330
1AA
100
AcDbEntity
  8
0
  6
Continuous
 62
     7
370
    25
100
AcDbLine
 10
-92.8223781895
 20
3.1590437262
 30
0.0
 11
-92.8223781895
 21
-3.6982946794
 31
0.0
  0
LINE
  5
1ED
330
1AA
100
AcDbEntity
  8
0
  6
Continuous
 62
     7
370
    25
100
AcDbLine
 10
92.8223781895
 20
24.2703098962
 30
0.0
 11
92.8223781895
 21
31.1276483019
 31
0.0
  0
LINE
  5
1EE
330
1AA
100
AcDbEntity
  8
0
  6
Continuous
 62
     7
370
    25
100
AcDbLine
 10
91.8223781895
 20
18.7955452332
 30
0.0
 11
91.8223781895
 21
22.6565070493
 31
0.0
  0
LINE
  5
1EF
330
1AA
100
AcDbEntity
  8
0
  6
Continuous
 62
     7
370
    25
100
AcDbLine
 10
675.5567553037
 20
137.5724115848
 30
0.0
 11
-208.8613663737
 21
377.9383062687
 31
0.0
  0
LINE
  5
1F0
330
1AA
100
AcDbEntity
  8
0
  6
Continuous
 62
     7
370
    25
100
AcDbLine
 10
208.8613663737
 20
-317.9365952195
 30
0.0
 11
675.5567553037
 21
137.5724115848
 31
0.0
  0
LINE
  5
1F1
330
1AA
100
AcDbEntity
  8
0
  6
Continuous
 62
     7
370
    25
100
AcDbLine
 10
-675.5567553037
 20
-77.5707005356
 30
0.0
 11
208.8613663737
 21
-317.9365952195
 31
0.0
  0
LINE
  5
1F2
330
1AA
100
AcDbEntity
  8
0
  6
Continuous
 62
     7
370
    25
100
AcDbLine
 10
-208.8613663737
 20
377.9383062687
 30
0.0
 11
-675.5567553037
 21
-77.5707005356
 31
0.0
  0
LINE
  5
1F3
330
1AA
100
AcDbEntity
  8
0
  6
Continuous
 62
     7
370
    25
100
AcDbLine
 10
-200.5069117187
 20
364.0208082389
 30
0.0
 11
-648.5344850916
 21
-73.2678382932
 31
0.0
  0
LINE
  5
1F4
330
1AA
100
AcDbEntity
  8
0
  6
Continuous
 62
     7
370
    25
100
AcDbLine
 10
-648.5344850916
 20
-73.2678382932
 30
0.0
 11
200.5069117187
 21
-304.0190971898
 31
0.0
  0
LINE
  5
1F5
330
1AA
100
AcDbEntity
  8
0
  6
Continuous
 62
     7
370
    25
100
AcDbLine
 10
200.5069117187
 20
-304.0190971898
 30
0.0
 11
648.5344850916
 21
133.2695493423
 31
0.0
  0
LINE
  5
1F6
330
1AA
100
AcDbEntity
  8
0
  6
Continuous
 62
     7
370
    25
100
AcDbLine
 10
648.5344850916
 20
133.2695493423
 30
0.0
 11
-200.5069117187
 21
364.0208082389
 31
0.0
  0
LINE
  5
1F7
330
1AA
100
AcDbEntity
  8
0
  6
Continuous
 62
     7
370
    25
100
AcDbLine
 10
-675.5567553037
 20
-77.5707005356
 30
0.0
 11
-675.5567553037
 21
-107.5715560602
 31
0.0
  0
LINE
  5
1F8
330
1AA
100
AcDbEntity
  8
0
  6
Continuous
 62
     7
370
    25
100
AcDbLine
 10
208.8613663737
 20
-317.9365952195
 30
0.0
 11
208.8613663737
 21
-347.9374507441
 31
0.0
  0
LINE
  5
1F9
330
1AA
100
AcDbEntity
  8
0
  6
Continuous
 62
     7
370
    25
100
AcDbLine
 10
-675.5567553037
 20
-107.5715560602
 30
0.0
 11
208.8613663737
 21
-347.9374507441
 31
0.0
  0
LINE
  5
1FA
330
1AA
100
AcDbEntity
  8
0
  6
Continuous
 62
     7
370
    25
100
AcDbLine
 10
675.5567553037
 20
137.5724115848
 30
0.0
 11
675.5567553037
 21
107.5715560602
 31
0.0
  0
LINE
  5
1FB
330
1AA
100
AcDbEntity
  8
0
  6
Continuous
 62
     7
370
    25
100
AcDbLine
 10
208.8613663737
 20
-347.9374507441
 30
0.0
 11
675.5567553037
 21
107.5715560602
 31
0.0
  0
LINE
  5
1FC
330
1AA
100
AcDbEntity
  8
0
  6
Continuous
 62
     7
370
    25
100
AcDbLine
 10
-648.5344850916
 20
-73.2678382932
 30
0.0
 11
-107.0997508858
 21
0.7786946048
 31
0.0
  0
LINE
  5
1FD
330
1AA
100
AcDbEntity
  8
0
  6
Continuous
 62
     7
370
    25
100
AcDbLine
 10
200.5069117187
 20
-304.0190971898
 30
0.0
 11
33.1119482304
 21
-37.3278408417
 31
0.0
  0
LINE
  5
1FE
330
1AA
100
AcDbEntity
  8
0
  6
Continuous
 62
     7
370
    25
100
AcDbLine
 10
648.5344850916
 20
133.2695493423
 30
0.0
 11
107.0997508858
 21
34.886522751
 31
0.0
  0
LINE
  5
1FF
330
1AA
100
AcDbEntity
  8
0
  6
Continuous
 62
     7
370
    25
100
AcDbLine
 10
-33.1119482304
 20
72.9930581975
 30
0.0
 11
-200.5069117187
 21
364.0208082389
 31
0.0
  0
LINE
  5
200
330
1AA
100
AcDbEntity
  8
0
  6
Continuous
 62
     7
370
    25
100
AcDbLine
 10
-92.8223781895
 20
-2.3106791519
 30
0.0
 11
-93.9251460763
 21
-3.3870144164
 31
0.0
  0
LINE
  5
201
330
1AA
100
AcDbEntity
  8
0
  6
Continuous
 62
     7
370
    25
100
AcDbLine
 10
94.0525445977
 20
21.026278756
 30
0.0
 11
91.8223781895
 21
21.6323901991
 31
0.0
  0
LINE
  5
202
330
1AA
100
AcDbEntity
  8
0
  6
Continuous
 62
     7
370
    25
100
AcDbLine
 10
82.4709895137
 20
9.5096600243
 30
0.0
 11
77.2836026029
 21
8.4662163699
 31
0.0
  0
LINE
  5
203
330
1AA
100
AcDbEntity
  8
0
  6
Continuous
 62
     7
370
    25
100
AcDbLine
 10
64.6647968002
 20
-3.8501249409
 30
0.0
 11
64.7880241419
 21
-4.5441624533
 31
0.0
  0
LINE
  5
204
330
1AA
100
AcDbEntity
  8
0
  6
Continuous
 62
     7
370
    25
100
AcDbLine
 10
-31.574068237
 20
63.5770440842
 30
0.0
 11
-92.2444687979
 21
4.3608731996
 31
0.0
  0
LINE
  5
205
330
1AA
100
AcDbEntity
  8
0
  6
Continuous
 62
     7
370
    25
100
AcDbLine
 10
90.1558551341
 20
33.4051933359
 30
0.0
 11
-24.8185006839
 21
64.6527596448
 31
0.0
  0
LINE
  5
206
330
1AA
100
AcDbEntity
  8
0
  6
Continuous
 62
     7
370
    25
100
AcDbLine
 10
31.574068237
 20
-29.2903520561
 30
0.0
 11
92.2444687979
 21
29.9258188284
 31
0.0
  0
LINE
  5
207
330
1AA
100
AcDbEntity
  8
0
  6
Continuous
 62
     7
370
    25
100
AcDbLine
 10
-90.1558551341
 20
0.8814986922
 30
0.0
 11
24.8185006839
 21
-30.3660676167
 31
0.0
  0
LINE
  5
208
330
1AA
100
AcDbEntity
  8
0
  6
Continuous
 62
     7
370
    25
100
AcDbLine
 10
31.574068237
 20
-29.2903520561
 30
0.0
 11
31.574068237
 21
-36.1476904617
 31
0.0
  0
LINE
  5
209
330
1AA
100
AcDbEntity
  8
0
  6
Continuous
 62
     7
370
    25
100
AcDbLine
 10
92.2444687979
 20
29.9258188284
 30
0.0
 11
92.2444687979
 21
23.0684804228
 31
0.0
  0
LINE
  5
20A
330
1AA
100
AcDbEntity
  8
0
  6
Continuous
 62
     7
370
    25
100
AcDbLine
 10
31.574068237
 20
-36.1476904617
 30
0.0
 11
92.2444687979
 21
23.0684804228
 31
0.0
  0
LINE
  5
20B
330
1AA
100
AcDbEntity
  8
0
  6
Continuous
 62
    60
370
    25
100
AcDbLine
 10
-106.9223423763
 20
0.5822304536
 30
0.0
 11
-106.9223423763
 21
1.7539963226
 31
0.0
  0
LINE
  5
20C
330
1AA
100
AcDbEntity
  8
0
  6
Continuous
 62
    60
370
    25
100
AcDbLine
 10
-34.5845570921
 20
60.6387146708
 30
0.0
 11
-34.5845570921
 21
72.3578923773
 31
0.0
  0
LINE
  5
20D
330
1AA
100
AcDbEntity
  8
0
  6
Continuous
 62
    60
370
    25
100
AcDbLine
 10
105.8780355444
 20
32.8547768366
 30
0.0
 11
105.8780355444
 21
35.6390364816
 31
0.0
  0
LINE
  5
20E
330
1AA
100
AcDbEntity
  8
0
  6
Continuous
 62
    60
370
    25
100
AcDbLine
 10
-31.2067733156
 20
63.8819656894
 30
0.0
 11
-31.2067733156
 21
72.8957501576
 31
0.0
  0
LINE
  5
20F
330
1AA
100
AcDbEntity
  8
0
  6
Continuous
 62
    60
370
    25
100
AcDbLine
 10
24.8185006839
 20
-30.3660676167
 30
0.0
 11
24.8185006839
 21
-35.5878669738
 31
0.0
  0
LINE
  5
210
330
1AA
100
AcDbEntity
  8
0
  6
Continuous
 62
    60
370
    25
100
AcDbLine
 10
-90.1558551341
 20
0.8814986922
 30
0.0
 11
-90.1558551341
 21
-4.4596067664
 31
0.0
  0
LINE
  5
211
330
1AA
100
AcDbEntity
  8
0
  6
Continuous
 62
    60
370
    25
100
AcDbLine
 10
89.0038764974
 20
19.9055629926
 30
0.0
 11
89.0038764974
 21
15.9763268172
 31
0.0
  0
ARC
  5
212
330
1AA
100
AcDbEntity
  8
0
  6
Continuous
 62
     7
370
    25
100
AcDbCircle
 10
-27.1104672824
 20
57.2958954606
 30
0.0
 40
7.705618827393995
100
AcDbArc
 50
72.6960345908
 51
125.398914916
  0
ARC
  5
213
330
1AA
100
AcDbEntity
  8
0
  6
Continuous
 62
     7
370
    25
100
AcDbCircle
 10
27.1104672824
 20
-23.0092034325
 30
0.0
 40
7.705618827393986
100
AcDbArc
 50
252.6960345908
 51
305.398914916
  0
ARC
  5
214
330
1AA
100
AcDbEntity
  8
0
  6
Continuous
 62
     7
370
    25
100
AcDbCircle
 10
28.6441443433
 20
-32.89782072
 30
0.0
 40
4.375626510677555
100
AcDbArc
 50
290.6009478158
 51
312.0362773723
  0
ARC
  5
215
330
1AA
100
AcDbEntity
  8
0
  6
Continuous
 62
     7
370
    25
100
AcDbCircle
 10
91.1630990458
 20
24.3283267181
 30
0.0
 40
1.660293115197274
100
AcDbArc
 50
310.6406362013
 51
357.9974645044
  0
VIEWPORT
  5
282
330
1AA
100
AcDbEntity
  8
0
100
AcDbViewport
 10
0.0
 20
0.0
 30
0.0
 40
205.6
 41
156.0
 68
     1
 69
     1
 12
0.0
 22
0.0
 13
0.0
 23
0.0
 14
10.0
 24
10.0
 15
10.0
 25
10.0
 16
0.0
 26
0.0
 36
1.0
 17
0.0
 27
0.0
 37
0.0
 42
50.0
 43
0.0
 44
0.0
 45
1020.0
 50
0.0
 51
0.0
 72
   100
 90
   557152
  1

281
     0
 71
     1
 74
     0
110
0.0
120
0.0
130
0.0
111
1.0
121
0.0
131
0.0
112
0.0
122
1.0
132
0.0
 79
     0
146
0.0
  0
ENDBLK
  5
1AD
330
1AA
100
AcDbEntity
  8
0
100
AcDbBlockEnd
  0
BLOCK
  5
218
330
216
100
AcDbEntity
  8
0
100
AcDbBlockBegin
  2
*Paper_Space7
 70
     0
 10
0.0
 20
0.0
 30
0.0
  3
*Paper_Space7
  1

  0
SPLINE
  5
22B
330
216
100
AcDbEntity
  8
0
  6
Continuous
 62
     7
370
    25
100
AcDbSpline
210
0.0
220
0.0
230
1.0
 70
     8
 71
     3
 72
    14
 73
    10
 74
     0
 42
0.000000001
 43
0.00000001
 40
0.0
 40
0.0
 40
0.0
 40
0.0
 40
0.25
 40
0.25
 40
0.5
 40
0.5
 40
0.75
 40
0.75
 40
1.0
 40
1.0
 40
1.0
 40
1.0
 10
-100.7788831120943
 20
3.796860501437932
 30
0.0
 10
-100.9332131294811
 20
3.818355058641906
 30
0.0
 10
-101.0792535031753
 20
3.84418765667368
 30
0.0
 10
-101.3554306230282
 20
3.904181958826532
 30
0.0
 10
-101.4868397509315
 20
3.938781380159729
 30
0.0
 10
-101.7255393274865
 20
4.014591911292449
 30
0.0
 10
-101.8326652856224
 20
4.055564295706033
 30
0.0
 10
-102.022693199333
 20
4.143595715874807
 30
0.0
 10
-102.1057081661003
 20
4.190896797310995
 30
0.0
 10
-102.17359420514
 20
4.240036574015241
 30
0.0
  0
SPLINE
  5
22C
330
216
100
AcDbEntity
  8
0
  6
Continuous
 62
     7
370
    25
100
AcDbSpline
210
0.0
220
0.0
230
1.0
 70
     8
 71
     3
 72
    14
 73
    10
 74
     0
 42
0.000000001
 43
0.00000001
 40
0.0
 40
0.0
 40
0.0
 40
0.0
 40
0.2500000000000001
 40
0.2500000000000001
 40
0.5000000000000001
 40
0.5000000000000001
 40
0.7500000000000001
 40
0.7500000000000001
 40
1.0
 40
1.0
 40
1.0
 40
1.0
 10
44.21034063014767
 20
-14.47006467067767
 30
0.0
 10
32.12819597468982
 20
-13.10841018214937
 30
0.0
 10
20.0462006025837
 20
-11.75818664521216
 30
0.0
 10
-4.118382952628799
 20
-9.012346630295358
 30
0.0
 10
-16.2008869561602
 20
-7.610565070060529
 30
0.0
 10
-40.36765722188895
 20
-4.565838198597234
 30
0.0
 10
-52.45016015348832
 20
-2.923115059980288
 30
0.0
 10
-76.61474346567354
 20
0.4199476159785845
 30
0.0
 10
-88.69673862420618
 20
2.114100723146429
 30
0.0
 10
-100.7788831120942
 20
3.796860501437946
 30
0.0
  0
SPLINE
  5
22D
330
216
100
AcDbEntity
  8
0
  6
Continuous
 62
     7
370
    25
100
AcDbSpline
210
0.0
220
0.0
230
1.0
 70
     8
 71
     3
 72
    14
 73
    10
 74
     0
 42
0.000000001
 43
0.00000001
 40
0.0
 40
0.0
 40
0.0
 40
0.0
 40
0.25
 40
0.25
 40
0.5
 40
0.5
 40
0.75
 40
0.75
 40
1.0
 40
1.0
 40
1.0
 40
1.0
 10
46.12281867604106
 20
-14.44355526457231
 30
0.0
 10
45.97243431513817
 20
-14.46519549723964
 30
0.0
 10
45.81790424516317
 20
-14.48193338033948
 30
0.0
 10
45.50089138767602
 20
-14.50601253405275
 30
0.0
 10
45.33658919794824
 20
-14.51335508169176
 30
0.0
 10
45.00933401601046
 20
-14.51789686260617
 30
0.0
 10
44.84701979647269
 20
-14.51521967982521
 30
0.0
 10
44.52499390145935
 20
-14.50006877167212
 30
0.0
 10
44.36467060385034
 20
-14.48745761765846
 30
0.0
 10
44.21034063014761
 20
-14.47006467067766
 30
0.0
  0
SPLINE
  5
22F
330
216
100
AcDbEntity
  8
0
  6
Continuous
 62
     7
370
    25
100
AcDbSpline
210
0.0
220
0.0
230
1.0
 70
     8
 71
     3
 72
    14
 73
    10
 74
     0
 42
0.000000001
 43
0.00000001
 40
0.0
 40
0.0
 40
0.0
 40
0.0
 40
0.25
 40
0.25
 40
0.5
 40
0.5
 40
0.75
 40
0.75
 40
1.0
 40
1.0
 40
1.0
 40
1.0
 10
102.17359420514
 20
34.98858235072651
 30
0.0
 10
102.2414801463521
 20
34.93944264483545
 30
0.0
 10
102.2934917747224
 20
34.88853194787551
 30
0.0
 10
102.3670633902441
 20
34.78330571352642
 30
0.0
 10
102.3886034005219
 20
34.72837577274873
 30
0.0
 10
102.398915418244
 20
34.61818627045422
 30
0.0
 10
102.3880951747125
 20
34.56315196555919
 30
0.0
 10
102.3347972320682
 20
34.45319492785617
 30
0.0
 10
102.2918667497889
 20
34.3980548219232
 30
0.0
 10
102.2335355026241
 20
34.34456069529836
 30
0.0
  0
SPLINE
  5
231
330
216
100
AcDbEntity
  8
0
  6
Continuous
 62
     7
370
    25
100
AcDbSpline
210
0.0
220
0.0
230
1.0
 70
     8
 71
     3
 72
    14
 73
    10
 74
     0
 42
0.000000001
 43
0.00000001
 40
0.0
 40
0.0
 40
0.0
 40
0.0
 40
0.25
 40
0.25
 40
0.5
 40
0.5
 40
0.75
 40
0.75
 40
1.0
 40
1.0
 40
1.0
 40
1.0
 10
47.43275997323839
 20
-13.98518054061641
 30
0.0
 10
47.37442870956257
 20
-14.03457307708312
 30
0.0
 10
47.30194203175865
 20
-14.0815828295334
 30
0.0
 10
47.12981173455182
 20
-14.17102433303159
 30
0.0
 10
47.02886767609255
 20
-14.2138759738008
 30
0.0
 10
46.8047576872013
 20
-14.2923352977801
 30
0.0
 10
46.68233267162717
 20
-14.327879904585
 30
0.0
 10
46.41693234525697
 20
-14.39165789774038
 30
0.0
 10
46.27320325365658
 20
-14.41993816907546
 30
0.0
 10
46.12281867604103
 20
-14.44355526457232
 30
0.0
  0
SPLINE
  5
232
330
216
100
AcDbEntity
  8
0
  6
Continuous
 62
     7
370
    25
100
AcDbSpline
210
0.0
220
0.0
230
1.0
 70
     8
 71
     3
 72
    14
 73
    10
 74
     0
 42
0.000000001
 43
0.00000001
 40
0.0
 40
0.0
 40
0.0
 40
0.0
 40
0.25
 40
0.25
 40
0.5
 40
0.5
 40
0.7500000000000001
 40
0.7500000000000001
 40
1.0
 40
1.0
 40
1.0
 40
1.0
 10
102.2335355026242
 20
34.34456069529835
 30
0.0
 10
97.66691406630007
 20
30.15662648788642
 30
0.0
 10
93.10034905377928
 20
25.95732989793509
 30
0.0
 10
83.96699496724052
 20
17.60385736824236
 30
0.0
 10
79.40023771011133
 20
13.45588517624412
 30
0.0
 10
70.26605712468488
 20
5.400295099963493
 30
0.0
 10
65.69930027270779
 20
1.493264978708714
 30
0.0
 10
56.5659462780247
 20
-6.262984778314276
 30
0.0
 10
51.99938134622709
 20
-10.11835169993609
 30
0.0
 10
47.4327599732384
 20
-13.9851805406164
 30
0.0
  0
SPLINE
  5
234
330
216
100
AcDbEntity
  8
0
  6
Continuous
 62
     7
370
    25
100
AcDbSpline
210
0.0
220
0.0
230
1.0
 70
     8
 71
     3
 72
    14
 73
    10
 74
     0
 42
0.000000001
 43
0.00000001
 40
0.0
 40
0.0
 40
0.0
 40
0.0
 40
0.25
 40
0.25
 40
0.5
 40
0.5
 40
0.75
 40
0.75
 40
1.0
 40
1.0
 40
1.0
 40
1.0
 10
-47.43275997323842
 20
53.20074151812737
 30
0.0
 10
-47.37442870956259
 20
53.25423565989406
 30
0.0
 10
-47.30194203175869
 20
53.30458615655012
 30
0.0
 10
-47.12981173455189
 20
53.39926273291008
 30
0.0
 10
-47.02886767609262
 20
53.44401717738885
 30
0.0
 10
-46.80475768720139
 20
53.52469090440834
 30
0.0
 10
-46.68233267162717
 20
53.56056360301036
 30
0.0
 10
-46.41693234525697
 20
53.62347088563191
 30
0.0
 10
-46.27320325365655
 20
53.65053392546186
 30
0.0
 10
-46.12281867604099
 20
53.67217418931403
 30
0.0
  0
SPLINE
  5
235
330
216
100
AcDbEntity
  8
0
  6
Continuous
 62
     7
370
    25
100
AcDbSpline
210
0.0
220
0.0
230
1.0
 70
     8
 71
     3
 72
    14
 73
    10
 74
     0
 42
0.000000001
 43
0.00000001
 40
0.0
 40
0.0
 40
0.0
 40
0.0
 40
0.25
 40
0.25
 40
0.5
 40
0.5
 40
0.75
 40
0.75
 40
1.0
 40
1.0
 40
1.0
 40
1.0
 10
-102.2335355026242
 20
4.871000282212611
 30
0.0
 10
-97.66691406630008
 20
8.737829176522771
 30
0.0
 10
-93.10034905377933
 20
12.59319616605907
 30
0.0
 10
-83.96699496724052
 20
20.34944600267496
 30
0.0
 10
-79.40023771011134
 20
24.25647647778111
 30
0.0
 10
-70.26605712468489
 20
32.31206657481959
 30
0.0
 10
-65.69930027270777
 20
36.46003840604786
 30
0.0
 10
-56.56594627802469
 20
44.81351085331534
 30
0.0
 10
-51.99938134622712
 20
49.0128073687988
 30
0.0
 10
-47.43275997323844
 20
53.20074151812739
 30
0.0
  0
SPLINE
  5
236
330
216
100
AcDbEntity
  8
0
  6
Continuous
 62
     7
370
    25
100
AcDbSpline
210
0.0
220
0.0
230
1.0
 70
     8
 71
     3
 72
    14
 73
    10
 74
     0
 42
0.000000001
 43
0.00000001
 40
0.0
 40
0.0
 40
0.0
 40
0.0
 40
0.25
 40
0.25
 40
0.5
 40
0.5
 40
0.75
 40
0.75
 40
1.0
 40
1.0
 40
1.0
 40
1.0
 10
-102.17359420514
 20
4.240036574015248
 30
0.0
 10
-102.2414801463521
 20
4.291153108702265
 30
0.0
 10
-102.2934917747224
 20
4.343262458367813
 30
0.0
 10
-102.3670633902441
 20
4.449378128959826
 30
0.0
 10
-102.3886034005219
 20
4.503982981307934
 30
0.0
 10
-102.398915418244
 20
4.611963600253372
 30
0.0
 10
-102.3880951747125
 20
4.665138775024422
 30
0.0
 10
-102.3347972320681
 20
4.769865667279189
 30
0.0
 10
-102.291866749789
 20
4.821607759726777
 30
0.0
 10
-102.2335355026242
 20
4.871000282212608
 30
0.0
  0
SPLINE
  5
237
330
216
100
AcDbEntity
  8
0
  6
Continuous
 62
     7
370
    25
100
AcDbSpline
210
0.0
220
0.0
230
1.0
 70
     8
 71
     3
 72
    14
 73
    10
 74
     0
 42
0.000000001
 43
0.00000001
 40
0.0
 40
0.0
 40
0.0
 40
0.0
 40
0.25
 40
0.25
 40
0.5
 40
0.5
 40
0.75
 40
0.75
 40
1.0
 40
1.0
 40
1.0
 40
1.0
 10
100.7788831120942
 20
35.41870047607306
 30
0.0
 10
100.9332131294811
 20
35.40130752416906
 30
0.0
 10
101.0792535031753
 20
35.37881567034304
 30
0.0
 10
101.3554306230282
 20
35.32405644105198
 30
0.0
 10
101.4868397509315
 20
35.29135982342835
 30
0.0
 10
101.7255393274865
 20
35.21776369533579
 30
0.0
 10
101.8326652856224
 20
35.17711940271934
 30
0.0
 10
102.022693199333
 20
35.08821727201675
 30
0.0
 10
102.1057081661003
 20
35.03969895907547
 30
0.0
 10
102.17359420514
 20
34.98858235072651
 30
0.0
  0
SPLINE
  5
238
330
216
100
AcDbEntity
  8
0
  6
Continuous
 62
     7
370
    25
100
AcDbSpline
210
0.0
220
0.0
230
1.0
 70
     8
 71
     3
 72
    14
 73
    10
 74
     0
 42
0.000000001
 43
0.00000001
 40
0.0
 40
0.0
 40
0.0
 40
0.0
 40
0.2499999999999999
 40
0.2499999999999999
 40
0.4999999999999999
 40
0.4999999999999999
 40
0.7499999999999998
 40
0.7499999999999998
 40
1.0
 40
1.0
 40
1.0
 40
1.0
 10
-44.21034063014768
 20
53.68562564818864
 30
0.0
 10
-32.12819597468981
 20
52.00286584655858
 30
0.0
 10
-20.04620060258367
 20
50.30871270920631
 30
0.0
 10
4.118382952628806
 20
46.96565000121269
 30
0.0
 10
16.20088695616019
 20
45.32292672408579
 30
0.0
 10
40.36765722188892
 20
42.27819987338029
 30
0.0
 10
52.45016015348831
 20
40.87641844473685
 30
0.0
 10
76.61474346567351
 20
38.13057845902244
 30
0.0
 10
88.69673862420618
 20
36.78035494571627
 30
0.0
 10
100.7788831120942
 20
35.41870047607305
 30
0.0
  0
SPLINE
  5
239
330
216
100
AcDbEntity
  8
0
  6
Continuous
 62
     7
370
    25
100
AcDbSpline
210
0.0
220
0.0
230
1.0
 70
     8
 71
     3
 72
    14
 73
    10
 74
     0
 42
0.000000001
 43
0.00000001
 40
0.0
 40
0.0
 40
0.0
 40
0.0
 40
0.25
 40
0.25
 40
0.5
 40
0.5
 40
0.75
 40
0.75
 40
1.0
 40
1.0
 40
1.0
 40
1.0
 10
-46.12281867604105
 20
53.67217418931406
 30
0.0
 10
-45.97243431513816
 20
53.69579125077735
 30
0.0
 10
-45.81790424516316
 20
53.71372778658275
 30
0.0
 10
-45.50089138767601
 20
53.73869637653895
 30
0.0
 10
-45.33658919794828
 20
53.74571383574844
 30
0.0
 10
-45.00933401601047
 20
53.74804673331376
 30
0.0
 10
-44.84701979647274
 20
53.74351042040887
 30
0.0
 10
-44.52499390145942
 20
53.72312936680751
 30
0.0
 10
-44.36467060385039
 20
53.70712019930844
 30
0.0
 10
-44.21034063014766
 20
53.68562564818864
 30
0.0
  0
SPLINE
  5
23A
330
216
100
AcDbEntity
  8
0
  6
Continuous
 62
     7
370
    25
100
AcDbSpline
210
0.0
220
0.0
230
1.0
 70
     8
 71
     3
 72
     9
 73
     5
 74
     0
 42
0.000000001
 43
0.00000001
 40
0.0
 40
0.0
 40
0.0
 40
0.0
 40
0.9819741749853397
 40
1.0
 40
1.0
 40
1.0
 40
1.0
 10
72.97420487986523
 20
7.825321760974141
 30
0.0
 10
72.0882230662142
 20
7.649509034386461
 30
0.0
 10
71.18597753245129
 20
7.470468962797716
 30
0.0
 10
70.28377715763617
 20
7.290443352882026
 30
0.0
 10
70.26751425155159
 20
7.28719824273953
 30
0.0
  0
SPLINE
  5
23B
330
216
100
AcDbEntity
  8
0
  6
Continuous
 62
     7
370
    25
100
AcDbSpline
210
0.0
220
0.0
230
1.0
 70
     8
 71
     3
 72
     9
 73
     5
 74
     0
 42
0.000000001
 43
0.00000001
 40
0.0
 40
0.0
 40
0.0
 40
0.0
 40
0.2314554530641485
 40
1.0
 40
1.0
 40
1.0
 40
1.0
 10
64.6282569571991
 20
0.6291643057622902
 30
0.0
 10
64.60905002992322
 20
0.7233975143427982
 30
0.0
 10
64.52606677322493
 20
1.130530754596994
 30
0.0
 10
64.27769842615515
 20
1.529618378316933
 30
0.0
 10
64.08681628738326
 20
1.836334995276483
 30
0.0
  0
LWPOLYLINE
  5
23C
330
216
100
AcDbEntity
  8
0
  6
Continuous
 62
     7
370
    25
100
AcDbPolyline
 90
        3
 70
   128
 43
0.0
 10
61.2218504987
 20
-0.6903273353
 10
61.6512317835
 20
-1.1047896314
 10
62.1342503417
 20
-1.6070398616
  0
LWPOLYLINE
  5
241
330
216
100
AcDbEntity
  8
0
  6
Continuous
 62
     7
370
    25
100
AcDbPolyline
 90
        9
 70
   128
 43
0.0
 10
88.459974654
 20
30.8739125631
 10
88.7149802561
 20
31.189385422
 10
88.7804488922
 20
31.5153796
 10
88.6538646392
 20
31.8393673238
 10
88.340092059
 20
32.1488979267
 10
87.8511892559
 20
32.4320763213
 10
87.2059444905
 20
32.6780201208
 10
86.4291541572
 20
32.8772778427
 10
85.5506698729
 20
33.0221921246
  0
LWPOLYLINE
  5
244
330
216
100
AcDbEntity
  8
0
  6
Continuous
 62
     7
370
    25
100
AcDbPolyline
 90
        9
 70
   128
 43
0.0
 10
-88.459974654
 20
6.8384491013
 10
-88.7149802561
 20
6.5229762424
 10
-88.7804488922
 20
6.1969820644
 10
-88.6538646392
 20
5.8729943406
 10
-88.340092059
 20
5.5634637377
 10
-87.8511892559
 20
5.2802853431
 10
-87.2059444905
 20
5.0343415436
 10
-86.4291541572
 20
4.8350838217
 10
-85.5506698729
 20
4.6901695398
  0
LWPOLYLINE
  5
247
330
216
100
AcDbEntity
  8
0
  6
Continuous
 62
     7
370
    25
100
AcDbPolyline
 90
        3
 70
   128
 43
0.0
 10
88.459974654
 20
23.3314402302
 10
88.7149802561
 20
23.6469130891
 10
88.7829029204
 20
23.9206958809
  0
LINE
  5
250
330
216
100
AcDbEntity
  8
0
  6
Continuous
 62
     7
370
    25
100
AcDbLine
 10
-88.7829029204
 20
6.2491934506
 30
0.0
 11
-88.7829029204
 21
2.1260485424
 31
0.0
  0
LINE
  5
251
330
216
100
AcDbEntity
  8
0
  6
Continuous
 62
     7
370
    25
100
AcDbLine
 10
88.7829029204
 20
23.9206958809
 30
0.0
 11
88.7829029204
 21
31.4631682138
 31
0.0
  0
LINE
  5
252
330
216
100
AcDbEntity
  8
0
  6
Continuous
 62
     7
370
    25
100
AcDbLine
 10
87.7829029204
 20
21.103715284
 30
0.0
 11
87.7829029204
 21
22.7343190879
 31
0.0
  0
LINE
  5
253
330
216
100
AcDbEntity
  8
0
  6
Continuous
 62
     7
370
    25
100
AcDbLine
 10
644.4838686182
 20
129.9751424686
 30
0.0
 11
-290.930478106
 21
247.8262726113
 31
0.0
  0
LINE
  5
254
330
216
100
AcDbEntity
  8
0
  6
Continuous
 62
     7
370
    25
100
AcDbLine
 10
290.930478106
 20
-181.8296396986
 30
0.0
 11
644.4838686182
 21
129.9751424686
 31
0.0
  0
LINE
  5
255
330
216
100
AcDbEntity
  8
0
  6
Continuous
 62
     7
370
    25
100
AcDbLine
 10
-644.4838686182
 20
-63.9785095559
 30
0.0
 11
290.930478106
 21
-181.8296396986
 31
0.0
  0
LINE
  5
256
330
216
100
AcDbEntity
  8
0
  6
Continuous
 62
     7
370
    25
100
AcDbLine
 10
-290.930478106
 20
247.8262726113
 30
0.0
 11
-644.4838686182
 21
-63.9785095559
 31
0.0
  0
LINE
  5
257
330
216
100
AcDbEntity
  8
0
  6
Continuous
 62
     7
370
    25
100
AcDbLine
 10
-279.2932589817
 20
239.2331543651
 30
0.0
 11
-618.7045138734
 21
-60.0994365154
 31
0.0
  0
LINE
  5
258
330
216
100
AcDbEntity
  8
0
  6
Continuous
 62
     7
370
    25
100
AcDbLine
 10
-618.7045138734
 20
-60.0994365154
 30
0.0
 11
279.2932589817
 21
-173.2365214524
 31
0.0
  0
LINE
  5
259
330
216
100
AcDbEntity
  8
0
  6
Continuous
 62
     7
370
    25
100
AcDbLine
 10
279.2932589817
 20
-173.2365214524
 30
0.0
 11
618.7045138734
 21
126.0960694281
 31
0.0
  0
LINE
  5
25A
330
216
100
AcDbEntity
  8
0
  6
Continuous
 62
     7
370
    25
100
AcDbLine
 10
618.7045138734
 20
126.0960694281
 30
0.0
 11
-279.2932589817
 21
239.2331543651
 31
0.0
  0
LINE
  5
25B
330
216
100
AcDbEntity
  8
0
  6
Continuous
 62
     7
370
    25
100
AcDbLine
 10
-644.4838686182
 20
-63.9785095559
 30
0.0
 11
-644.4838686182
 21
-96.9768260123
 31
0.0
  0
LINE
  5
25C
330
216
100
AcDbEntity
  8
0
  6
Continuous
 62
     7
370
    25
100
AcDbLine
 10
290.930478106
 20
-181.8296396986
 30
0.0
 11
290.930478106
 21
-214.8279561549
 31
0.0
  0
LINE
  5
25D
330
216
100
AcDbEntity
  8
0
  6
Continuous
 62
     7
370
    25
100
AcDbLine
 10
-644.4838686182
 20
-96.9768260123
 30
0.0
 11
290.930478106
 21
-214.8279561549
 31
0.0
  0
LINE
  5
25E
330
216
100
AcDbEntity
  8
0
  6
Continuous
 62
     7
370
    25
100
AcDbLine
 10
644.4838686182
 20
129.9751424686
 30
0.0
 11
644.4838686182
 21
96.9768260123
 31
0.0
  0
LINE
  5
25F
330
216
100
AcDbEntity
  8
0
  6
Continuous
 62
     7
370
    25
100
AcDbLine
 10
290.930478106
 20
-214.8279561549
 30
0.0
 11
644.4838686182
 21
96.9768260123
 31
0.0
  0
LINE
  5
260
330
216
100
AcDbEntity
  8
0
  6
Continuous
 62
     7
370
    25
100
AcDbLine
 10
-618.7045138734
 20
-60.0994365154
 30
0.0
 11
-102.1735942051
 21
4.240036574
 31
0.0
  0
LINE
  5
261
330
216
100
AcDbEntity
  8
0
  6
Continuous
 62
     7
370
    25
100
AcDbLine
 10
279.2932589817
 20
-173.2365214524
 30
0.0
 11
46.122818676
 21
-14.4435552646
 31
0.0
  0
LINE
  5
262
330
216
100
AcDbEntity
  8
0
  6
Continuous
 62
     7
370
    25
100
AcDbLine
 10
618.7045138734
 20
126.0960694281
 30
0.0
 11
102.1735942051
 21
34.9885823507
 31
0.0
  0
LINE
  5
263
330
216
100
AcDbEntity
  8
0
  6
Continuous
 62
     7
370
    25
100
AcDbLine
 10
-46.122818676
 20
53.6721741893
 30
0.0
 11
-279.2932589817
 21
239.2331543651
 31
0.0
  0
LINE
  5
264
330
216
100
AcDbEntity
  8
0
  6
Continuous
 62
     7
370
    25
100
AcDbLine
 10
-42.4980338874
 20
47.3730707831
 30
0.0
 11
-88.459974654
 21
6.8384491013
 31
0.0
  0
LINE
  5
265
330
216
100
AcDbEntity
  8
0
  6
Continuous
 62
     7
370
    25
100
AcDbLine
 10
85.5506698729
 20
33.0221921246
 30
0.0
 11
-36.0531952012
 21
48.3428390432
 31
0.0
  0
LINE
  5
266
330
216
100
AcDbEntity
  8
0
  6
Continuous
 62
     7
370
    25
100
AcDbLine
 10
42.4980338874
 20
-9.6607091187
 30
0.0
 11
88.459974654
 21
30.8739125631
 31
0.0
  0
LINE
  5
267
330
216
100
AcDbEntity
  8
0
  6
Continuous
 62
     7
370
    25
100
AcDbLine
 10
-85.5506698729
 20
4.6901695398
 30
0.0
 11
36.0531952012
 21
-10.6304773788
 31
0.0
  0
LINE
  5
268
330
216
100
AcDbEntity
  8
0
  6
Continuous
 62
     7
370
    25
100
AcDbLine
 10
88.459974654
 20
30.8739125631
 30
0.0
 11
88.459974654
 21
23.3314402302
 31
0.0
  0
LINE
  5
269
330
216
100
AcDbEntity
  8
0
  6
Continuous
 62
     7
370
    25
100
AcDbLine
 10
45.5743223002
 20
-14.4901500843
 30
0.0
 11
88.459974654
 21
23.3314402302
 31
0.0
  0
LINE
  5
26A
330
216
100
AcDbEntity
  8
0
  6
Continuous
 62
    60
370
    25
100
AcDbLine
 10
-102.2335355026
 20
4.3170386967
 30
0.0
 11
-102.2335355026
 21
4.8710002822
 31
0.0
  0
LINE
  5
26B
330
216
100
AcDbEntity
  8
0
  6
Continuous
 62
    60
370
    25
100
AcDbLine
 10
-47.4327599732
 20
43.0210514458
 30
0.0
 11
-47.4327599732
 21
53.2007415181
 31
0.0
  0
LINE
  5
26C
330
216
100
AcDbEntity
  8
0
  6
Continuous
 62
    60
370
    25
100
AcDbLine
 10
100.7788831121
 20
33.010517322
 30
0.0
 11
100.7788831121
 21
35.4187004761
 31
0.0
  0
LINE
  5
26D
330
216
100
AcDbEntity
  8
0
  6
Continuous
 62
    60
370
    25
100
AcDbLine
 10
-44.2103406301
 20
45.8629581798
 30
0.0
 11
-44.2103406301
 21
53.6856256482
 31
0.0
  0
LINE
  5
26E
330
216
100
AcDbEntity
  8
0
  6
Continuous
 62
    60
370
    25
100
AcDbLine
 10
36.0531952012
 20
-10.6304773788
 30
0.0
 11
36.0531952012
 21
-13.5507948686
 31
0.0
  0
LINE
  5
26F
330
216
100
AcDbEntity
  8
0
  6
Continuous
 62
    60
370
    25
100
AcDbLine
 10
42.4980338874
 20
-9.6607091187
 30
0.0
 11
42.4980338874
 21
-14.2770961998
 31
0.0
  0
LINE
  5
270
330
216
100
AcDbEntity
  8
0
  6
Continuous
 62
    60
370
    25
100
AcDbLine
 10
-85.5506698729
 20
4.6901695398
 30
0.0
 11
-85.5506698729
 21
1.6758599339
 31
0.0
  0
LINE
  5
271
330
216
100
AcDbEntity
  8
0
  6
Continuous
 62
    60
370
    25
100
AcDbLine
 10
85.4286542317
 20
20.658066903
 30
0.0
 11
85.4286542317
 21
18.9810882898
 31
0.0
  0
ARC
  5
272
330
216
100
AcDbEntity
  8
0
  6
Continuous
 62
     7
370
    25
100
AcDbCircle
 10
37.8934071433
 20
-0.9597866013
 30
0.0
 40
9.844218613218684
100
AcDbArc
 50
259.2261330329
 51
297.8883001309
  0
ARC
  5
273
330
216
100
AcDbEntity
  8
0
  6
Continuous
 62
     7
370
    25
100
AcDbCircle
 10
-37.8934071433
 20
38.6721482657
 30
0.0
 40
9.844218613218578
100
AcDbArc
 50
79.2261330329
 51
117.8883001309
  0
VIEWPORT
  5
284
330
216
100
AcDbEntity
  8
0
100
AcDbViewport
 10
0.0
 20
0.0
 30
0.0
 40
205.6
 41
156.0
 68
     1
 69
     1
 12
0.0
 22
0.0
 13
0.0
 23
0.0
 14
10.0
 24
10.0
 15
10.0
 25
10.0
 16
0.0
 26
0.0
 36
1.0
 17
0.0
 27
0.0
 37
0.0
 42
50.0
 43
0.0
 44
0.0
 45
1020.0
 50
0.0
 51
0.0
 72
   100
 90
   557152
  1

281
     0
 71
     1
 74
     0
110
0.0
120
0.0
130
0.0
111
1.0
121
0.0
131
0.0
112
0.0
122
1.0
132
0.0
 79
     0
146
0.0
  0
ENDBLK
  5
219
330
216
100
AcDbEntity
  8
0
100
AcDbBlockEnd
  0
ENDSEC
  0
SECTION
  2
ENTITIES
  0
SPLINE
  5
75
330
1F
100
AcDbEntity
  8
0
  6
Continuous
 62
     7
370
    25
100
AcDbSpline
210
0.0
220
0.0
230
1.0
 70
     8
 71
     3
 72
    14
 73
    10
 74
     0
 42
0.000000001
 43
0.00000001
 40
0.0
 40
0.0
 40
0.0
 40
0.0
 40
0.25
 40
0.25
 40
0.5
 40
0.5
 40
0.75
 40
0.75
 40
1.0
 40
1.0
 40
1.0
 40
1.0
 10
-77.49999999999991
 20
-80.00000000000011
 30
0.0
 10
-77.66498572843919
 20
-80.00000000000011
 30
0.0
 10
-77.82722189989825
 20
-79.98382799090719
 30
0.0
 10
-78.14641919023298
 20
-79.92045819849992
 30
0.0
 10
-78.30503028788453
 20
-79.87249382071501
 30
0.0
 10
-78.60754814277118
 20
-79.7472511664668
 30
0.0
 10
-78.75103908025785
 20
-79.6706077962116
 30
0.0
 10
-79.02262710225205
 20
-79.48953353648399
 30
0.0
 10
-79.15109640080955
 20
-79.38443750512317
 30
0.0
 10
-79.26776695296628
 20
-79.26776695296644
 30
0.0
  0
SPLINE
  5
76
330
1F
100
AcDbEntity
  8
0
  6
Continuous
 62
     7
370
    25
100
AcDbSpline
210
0.0
220
0.0
230
1.0
 70
    24
 71
     3
 72
    14
 73
    10
 74
     0
 42
0.000000001
 43
0.00000001
 40
0.0
 40
0.0
 40
0.0
 40
0.0
 40
0.2500000000000001
 40
0.2500000000000001
 40
0.5000000000000001
 40
0.5000000000000001
 40
0.7500000000000001
 40
0.7500000000000001
 40
1.0
 40
1.0
 40
1.0
 40
1.0
 10
77.50000000000013
 20
-80.00000000000004
 30
0.0
 10
64.58364405809054
 20
-80.00000000000006
 30
0.0
 10
51.66744770679684
 20
-80.00000000000006
 30
0.0
 10
25.83442126259289
 20
-80.00000000000006
 30
0.0
 10
12.91768116143366
 20
-80.00000000000014
 30
0.0
 10
-12.9176829746433
 20
-80.00000000000017
 30
0.0
 10
-25.83442192985904
 20
-80.0000000000001
 30
0.0
 10
-51.6674481142559
 20
-80.00000000000009
 30
0.0
 10
-64.58364423722993
 20
-80.00000000000004
 30
0.0
 10
-77.4999999999999
 20
-80.00000000000006
 30
0.0
  0
SPLINE
  5
77
330
1F
100
AcDbEntity
  8
0
  6
Continuous
 62
     7
370
    25
100
AcDbSpline
210
0.0
220
0.0
230
1.0
 70
     8
 71
     3
 72
    14
 73
    10
 74
     0
 42
0.000000001
 43
0.00000001
 40
0.0
 40
0.0
 40
0.0
 40
0.0
 40
0.25
 40
0.25
 40
0.5
 40
0.5
 40
0.75
 40
0.75
 40
1.0
 40
1.0
 40
1.0
 40
1.0
 10
79.26776695296653
 20
-79.2677669529664
 30
0.0
 10
79.15109656893867
 20
-79.38443733699428
 30
0.0
 10
79.02493581204014
 20
-79.48772439054409
 30
0.0
 10
78.75440893116381
 20
-79.66862530581533
 30
0.0
 10
78.60833384935964
 20
-79.74686373670457
 30
0.0
 10
78.30586050596388
 20
-79.87221192516225
 30
0.0
 10
78.15020392254421
 20
-79.91947725677383
 30
0.0
 10
77.83013261200281
 20
-79.9834749435881
 30
0.0
 10
77.66498568173907
 20
-80.00000000000004
 30
0.0
 10
77.50000000000007
 20
-80.00000000000004
 30
0.0
  0
SPLINE
  5
79
330
1F
100
AcDbEntity
  8
0
  6
Continuous
 62
     7
370
    25
100
AcDbSpline
210
0.0
220
0.0
230
1.0
 70
     8
 71
     3
 72
    14
 73
    10
 74
     0
 42
0.000000001
 43
0.00000001
 40
0.0
 40
0.0
 40
0.0
 40
0.0
 40
0.25
 40
0.25
 40
0.5
 40
0.5
 40
0.75
 40
0.75
 40
1.0
 40
1.0
 40
1.0
 40
1.0
 10
79.26776695296651
 20
79.26776695296635
 30
0.0
 10
79.38443733699438
 20
79.15109656893848
 30
0.0
 10
79.48772439054417
 20
79.02493581203994
 30
0.0
 10
79.66862530581538
 20
78.75440893116367
 30
0.0
 10
79.74686373670467
 20
78.60833384935948
 30
0.0
 10
79.87221192516235
 20
78.3058605059637
 30
0.0
 10
79.91947725677389
 20
78.15020392254405
 30
0.0
 10
79.98347494358813
 20
77.83013261200273
 30
0.0
 10
80.00000000000006
 20
77.66498568173898
 30
0.0
 10
80.00000000000004
 20
77.49999999999997
 30
0.0
  0
SPLINE
  5
7C
330
1F
100
AcDbEntity
  8
0
  6
Continuous
 62
     7
370
    25
100
AcDbSpline
210
0.0
220
0.0
230
1.0
 70
     8
 71
     3
 72
    14
 73
    10
 74
     0
 42
0.000000001
 43
0.00000001
 40
0.0
 40
0.0
 40
0.0
 40
0.0
 40
0.25
 40
0.25
 40
0.5
 40
0.5
 40
0.75
 40
0.75
 40
1.0
 40
1.0
 40
1.0
 40
1.0
 10
80.0000000000001
 20
-77.5000000000001
 30
0.0
 10
80.0000000000001
 20
-77.66498572843938
 30
0.0
 10
79.98382799090722
 20
-77.82722189989846
 30
0.0
 10
79.92045819849994
 20
-78.1464191902332
 30
0.0
 10
79.87249382071501
 20
-78.30503028788473
 30
0.0
 10
79.74725116646678
 20
-78.60754814277135
 30
0.0
 10
79.67060779621161
 20
-78.751039080258
 30
0.0
 10
79.489533536484
 20
-79.02262710225217
 30
0.0
 10
79.38443750512322
 20
-79.15109640080972
 30
0.0
 10
79.2677669529665
 20
-79.26776695296644
 30
0.0
  0
SPLINE
  5
7D
330
1F
100
AcDbEntity
  8
0
  6
Continuous
 62
     7
370
    25
100
AcDbSpline
210
0.0
220
0.0
230
1.0
 70
    24
 71
     3
 72
    14
 73
    10
 74
     0
 42
0.000000001
 43
0.00000001
 40
0.0
 40
0.0
 40
0.0
 40
0.0
 40
0.25
 40
0.25
 40
0.5
 40
0.5
 40
0.7500000000000001
 40
0.7500000000000001
 40
1.0
 40
1.0
 40
1.0
 40
1.0
 10
80.00000000000013
 20
77.49999999999999
 30
0.0
 10
80.00000000000011
 20
64.58364405809036
 30
0.0
 10
80.0000000000001
 20
51.66744770679664
 30
0.0
 10
80.00000000000009
 20
25.83442126259271
 30
0.0
 10
80.00000000000018
 20
12.9176811614335
 30
0.0
 10
80.00000000000017
 20
-12.91768297464347
 30
0.0
 10
80.00000000000017
 20
-25.83442192985921
 30
0.0
 10
80.00000000000017
 20
-51.66744811425608
 30
0.0
 10
80.0000000000001
 20
-64.58364423723008
 30
0.0
 10
80.0000000000001
 20
-77.50000000000009
 30
0.0
  0
SPLINE
  5
7F
330
1F
100
AcDbEntity
  8
0
  6
Continuous
 62
     7
370
    25
100
AcDbSpline
210
0.0
220
0.0
230
1.0
 70
     8
 71
     3
 72
    14
 73
    10
 74
     0
 42
0.000000001
 43
0.00000001
 40
0.0
 40
0.0
 40
0.0
 40
0.0
 40
0.25
 40
0.25
 40
0.5
 40
0.5
 40
0.75
 40
0.75
 40
1.0
 40
1.0
 40
1.0
 40
1.0
 10
77.50000000000007
 20
80.00000000000001
 30
0.0
 10
77.66498572843936
 20
80.00000000000003
 30
0.0
 10
77.82722189989842
 20
79.98382799090709
 30
0.0
 10
78.14641919023317
 20
79.92045819849984
 30
0.0
 10
78.30503028788472
 20
79.87249382071495
 30
0.0
 10
78.60754814277138
 20
79.74725116646671
 30
0.0
 10
78.75103908025801
 20
79.67060779621151
 30
0.0
 10
79.02262710225219
 20
79.4895335364839
 30
0.0
 10
79.15109640080975
 20
79.3844375051231
 30
0.0
 10
79.26776695296648
 20
79.26776695296635
 30
0.0
  0
SPLINE
  5
80
330
1F
100
AcDbEntity
  8
0
  6
Continuous
 62
     7
370
    25
100
AcDbSpline
210
0.0
220
0.0
230
1.0
 70
    24
 71
     3
 72
    14
 73
    10
 74
     0
 42
0.000000001
 43
0.00000001
 40
0.0
 40
0.0
 40
0.0
 40
0.0
 40
0.2499999999999999
 40
0.2499999999999999
 40
0.4999999999999999
 40
0.4999999999999999
 40
0.7499999999999998
 40
0.7499999999999998
 40
1.0
 40
1.0
 40
1.0
 40
1.0
 10
-77.49999999999991
 20
79.99999999999996
 30
0.0
 10
-64.58364405809029
 20
79.99999999999996
 30
0.0
 10
-51.66744770679659
 20
79.99999999999994
 30
0.0
 10
-25.83442126259267
 20
79.99999999999996
 30
0.0
 10
-12.91768116143346
 20
80.00000000000003
 30
0.0
 10
12.9176829746435
 20
80.00000000000001
 30
0.0
 10
25.83442192985926
 20
79.99999999999994
 30
0.0
 10
51.66744811425611
 20
79.99999999999994
 30
0.0
 10
64.58364423723013
 20
80.0
 30
0.0
 10
77.50000000000011
 20
80.00000000000001
 30
0.0
  0
SPLINE
  5
81
330
1F
100
AcDbEntity
  8
0
  6
Continuous
 62
     7
370
    25
100
AcDbSpline
210
0.0
220
0.0
230
1.0
 70
     8
 71
     3
 72
    14
 73
    10
 74
     0
 42
0.000000001
 43
0.00000001
 40
0.0
 40
0.0
 40
0.0
 40
0.0
 40
0.25
 40
0.25
 40
0.5
 40
0.5
 40
0.75
 40
0.75
 40
1.0
 40
1.0
 40
1.0
 40
1.0
 10
-79.2677669529663
 20
79.2677669529663
 30
0.0
 10
-79.15109656893843
 20
79.38443733699415
 30
0.0
 10
-79.02493581203987
 20
79.4877243905439
 30
0.0
 10
-78.75440893116355
 20
79.66862530581513
 30
0.0
 10
-78.60833384935944
 20
79.74686373670446
 30
0.0
 10
-78.30586050596365
 20
79.87221192516212
 30
0.0
 10
-78.15020392254408
 20
79.91947725677382
 30
0.0
 10
-77.8301326120027
 20
79.98347494358805
 30
0.0
 10
-77.66498568173891
 20
79.99999999999996
 30
0.0
 10
-77.4999999999999
 20
79.99999999999996
 30
0.0
  0
SPLINE
  5
88
330
1F
100
AcDbEntity
  8
0
  6
Continuous
 62
     7
370
    25
100
AcDbSpline
210
0.0
220
0.0
230
1.0
 70
     8
 71
     3
 72
    14
 73
    10
 74
     0
 42
0.000000001
 43
0.00000001
 40
0.0
 40
0.0
 40
0.0
 40
0.0
 40
0.25
 40
0.25
 40
0.5
 40
0.5
 40
0.75
 40
0.75
 40
1.0
 40
1.0
 40
1.0
 40
1.0
 10
-79.9999999999999
 20
77.49999999999999
 30
0.0
 10
-79.9999999999999
 20
77.66498572843926
 30
0.0
 10
-79.98382799090703
 20
77.82722189989835
 30
0.0
 10
-79.92045819849979
 20
78.14641919023308
 30
0.0
 10
-79.87249382071485
 20
78.30503028788458
 30
0.0
 10
-79.74725116646665
 20
78.60754814277125
 30
0.0
 10
-79.6706077962114
 20
78.75103908025788
 30
0.0
 10
-79.48953353648378
 20
79.02262710225205
 30
0.0
 10
-79.38443750512295
 20
79.15109640080955
 30
0.0
 10
-79.26776695296623
 20
79.26776695296627
 30
0.0
  0
SPLINE
  5
89
330
1F
100
AcDbEntity
  8
0
  6
Continuous
 62
     7
370
    25
100
AcDbSpline
210
0.0
220
0.0
230
1.0
 70
    24
 71
     3
 72
    14
 73
    10
 74
     0
 42
0.000000001
 43
0.00000001
 40
0.0
 40
0.0
 40
0.0
 40
0.0
 40
0.25
 40
0.25
 40
0.5
 40
0.5
 40
0.75
 40
0.75
 40
1.0
 40
1.0
 40
1.0
 40
1.0
 10
-79.99999999999991
 20
-77.50000000000013
 30
0.0
 10
-79.9999999999999
 20
-64.5836440580905
 30
0.0
 10
-79.99999999999991
 20
-51.66744770679676
 30
0.0
 10
-79.99999999999986
 20
-25.83442126259282
 30
0.0
 10
-79.99999999999997
 20
-12.91768116143361
 30
0.0
 10
-79.99999999999996
 20
12.91768297464335
 30
0.0
 10
-79.99999999999994
 20
25.83442192985911
 30
0.0
 10
-79.99999999999994
 20
51.667448114256
 30
0.0
 10
-79.99999999999993
 20
64.58364423723002
 30
0.0
 10
-79.99999999999993
 20
77.5
 30
0.0
  0
SPLINE
  5
8A
330
1F
100
AcDbEntity
  8
0
  6
Continuous
 62
     7
370
    25
100
AcDbSpline
210
0.0
220
0.0
230
1.0
 70
     8
 71
     3
 72
    14
 73
    10
 74
     0
 42
0.000000001
 43
0.00000001
 40
0.0
 40
0.0
 40
0.0
 40
0.0
 40
0.25
 40
0.25
 40
0.5
 40
0.5
 40
0.75
 40
0.75
 40
1.0
 40
1.0
 40
1.0
 40
1.0
 10
-79.26776695296627
 20
-79.26776695296643
 30
0.0
 10
-79.38443733699414
 20
-79.15109656893858
 30
0.0
 10
-79.48772439054396
 20
-79.02493581204004
 30
0.0
 10
-79.66862530581513
 20
-78.75440893116377
 30
0.0
 10
-79.74686373670441
 20
-78.60833384935964
 30
0.0
 10
-79.87221192516208
 20
-78.30586050596388
 30
0.0
 10
-79.91947725677365
 20
-78.1502039225442
 30
0.0
 10
-79.98347494358788
 20
-77.83013261200281
 30
0.0
 10
-79.99999999999987
 20
-77.6649856817391
 30
0.0
 10
-79.99999999999987
 20
-77.50000000000011
 30
0.0
  0
LINE
  5
97
330
1F
100
AcDbEntity
  8
0
  6
Continuous
 62
     7
370
    25
100
AcDbLine
 10
-480.0
 20
-480.0
 30
0.0
 11
480.0
 21
-480.0
 31
0.0
  0
LINE
  5
98
330
1F
100
AcDbEntity
  8
0
  6
Continuous
 62
     7
370
    25
100
AcDbLine
 10
-480.0
 20
-480.0
 30
0.0
 11
-68.5355339059
 21
-68.5355339059
 31
0.0
  0
LINE
  5
99
330
1F
100
AcDbEntity
  8
0
  6
Continuous
 62
     7
370
    25
100
AcDbLine
 10
480.0
 20
-480.0
 30
0.0
 11
68.5355339059
 21
-68.5355339059
 31
0.0
  0
LINE
  5
9A
330
1F
100
AcDbEntity
  8
0
  6
Continuous
 62
     7
370
    25
100
AcDbLine
 10
480.0
 20
480.0
 30
0.0
 11
68.5355339059
 21
68.5355339059
 31
0.0
  0
LINE
  5
9B
330
1F
100
AcDbEntity
  8
0
  6
Continuous
 62
     7
370
    25
100
AcDbLine
 10
480.0
 20
-480.0
 30
0.0
 11
480.0
 21
480.0
 31
0.0
  0
LINE
  5
9C
330
1F
100
AcDbEntity
  8
0
  6
Continuous
 62
     7
370
    25
100
AcDbLine
 10
480.0
 20
480.0
 30
0.0
 11
-480.0
 21
480.0
 31
0.0
  0
LINE
  5
9D
330
1F
100
AcDbEntity
  8
0
  6
Continuous
 62
     7
370
    25
100
AcDbLine
 10
-68.5355339059
 20
68.5355339059
 30
0.0
 11
-480.0
 21
480.0
 31
0.0
  0
LINE
  5
9E
330
1F
100
AcDbEntity
  8
0
  6
Continuous
 62
     7
370
    25
100
AcDbLine
 10
500.0
 20
500.0
 30
0.0
 11
-500.0
 21
500.0
 31
0.0
  0
LINE
  5
9F
330
1F
100
AcDbEntity
  8
0
  6
Continuous
 62
     7
370
    25
100
AcDbLine
 10
500.0
 20
-500.0
 30
0.0
 11
500.0
 21
500.0
 31
0.0
  0
LINE
  5
A0
330
1F
100
AcDbEntity
  8
0
  6
Continuous
 62
     7
370
    25
100
AcDbLine
 10
-500.0
 20
-500.0
 30
0.0
 11
500.0
 21
-500.0
 31
0.0
  0
LINE
  5
A1
330
1F
100
AcDbEntity
  8
0
  6
Continuous
 62
     7
370
    25
100
AcDbLine
 10
-500.0
 20
500.0
 30
0.0
 11
-500.0
 21
-500.0
 31
0.0
  0
LINE
  5
A2
330
1F
100
AcDbEntity
  8
0
  6
Continuous
 62
     7
370
    25
100
AcDbLine
 10
-480.0
 20
480.0
 30
0.0
 11
-480.0
 21
-480.0
 31
0.0
  0
LINE
  5
A3
330
1F
100
AcDbEntity
  8
0
  6
Continuous
 62
     7
370
    25
100
AcDbLine
 10
-70.0
 20
65.0
 30
0.0
 11
-70.0
 21
-65.0
 31
0.0
  0
LINE
  5
A4
330
1F
100
AcDbEntity
  8
0
  6
Continuous
 62
     7
370
    25
100
AcDbLine
 10
65.0
 20
70.0
 30
0.0
 11
-65.0
 21
70.0
 31
0.0
  0
LINE
  5
A5
330
1F
100
AcDbEntity
  8
0
  6
Continuous
 62
     7
370
    25
100
AcDbLine
 10
70.0
 20
-65.0
 30
0.0
 11
70.0
 21
65.0
 31
0.0
  0
LINE
  5
A6
330
1F
100
AcDbEntity
  8
0
  6
Continuous
 62
     7
370
    25
100
AcDbLine
 10
-65.0
 20
-70.0
 30
0.0
 11
65.0
 21
-70.0
 31
0.0
  0
ARC
  5
A7
330
1F
100
AcDbEntity
  8
0
  6
Continuous
 62
     7
370
    25
100
AcDbCircle
 10
-65.0
 20
65.0
 30
0.0
 40
5.000000000000057
100
AcDbArc
 50
90.0
 51
180.0
  0
ARC
  5
A8
330
1F
100
AcDbEntity
  8
0
  6
Continuous
 62
     7
370
    25
100
AcDbCircle
 10
65.0
 20
-65.0
 30
0.0
 40
5.000000000000014
100
AcDbArc
 50
270.0
 51
0.0
  0
ARC
  5
A9
330
1F
100
AcDbEntity
  8
0
  6
Continuous
 62
     7
370
    25
100
AcDbCircle
 10
-65.0
 20
-65.0
 30
0.0
 40
5.000000000000028
100
AcDbArc
 50
180.0
 51
270.0
  0
ARC
  5
AA
330
1F
100
AcDbEntity
  8
0
  6
Continuous
 62
     7
370
    25
100
AcDbCircle
 10
65.0
 20
65.0
 30
0.0
 40
5.000000000000043
100
AcDbArc
 50
0.0
 51
90.0
  0
LINE
  5
B2
330
1B
100
AcDbEntity
 67
     1
  8
0
  6
Continuous
 62
     7
370
    25
100
AcDbLine
 10
-500.0
 20
35.0
 30
0.0
 11
-500.0
 21
0.0
 31
0.0
  0
LINE
  5
B3
330
1B
100
AcDbEntity
 67
     1
  8
0
  6
Continuous
 62
     7
370
    25
100
AcDbLine
 10
500.0
 20
35.0
 30
0.0
 11
500.0
 21
0.0
 31
0.0
  0
LINE
  5
B4
330
1B
100
AcDbEntity
 67
     1
  8
0
  6
Continuous
 62
     7
370
    25
100
AcDbLine
 10
-500.0
 20
0.0
 30
0.0
 11
500.0
 21
0.0
 31
0.0
  0
LINE
  5
B5
330
1B
100
AcDbEntity
 67
     1
  8
0
  6
Continuous
 62
     7
370
    25
100
AcDbLine
 10
-500.0
 20
35.0
 30
0.0
 11
500.0
 21
35.0
 31
0.0
  0
LINE
  5
B6
330
1B
100
AcDbEntity
 67
     1
  8
0
  6
Continuous
 62
     7
370
    25
100
AcDbLine
 10
130.0
 20
-26.0
 30
0.0
 11
130.0
 21
0.0
 31
0.0
  0
LINE
  5
B7
330
1B
100
AcDbEntity
 67
     1
  8
0
  6
Continuous
 62
     7
370
    25
100
AcDbLine
 10
130.0
 20
-26.0
 30
0.0
 11
-130.0
 21
-26.0
 31
0.0
  0
LINE
  5
B8
330
1B
100
AcDbEntity
 67
     1
  8
0
  6
Continuous
 62
     7
370
    25
100
AcDbLine
 10
-130.0
 20
-26.0
 30
0.0
 11
-130.0
 21
0.0
 31
0.0
  0
VIEWPORT
  5
274
330
1B
100
AcDbEntity
 67
     1
  8
0
100
AcDbViewport
 10
0.0
 20
0.0
 30
0.0
 40
205.6
 41
156.0
 68
     1
 69
     1
 12
0.0
 22
0.0
 13
0.0
 23
0.0
 14
10.0
 24
10.0
 15
10.0
 25
10.0
 16
0.0
 26
0.0
 36
1.0
 17
0.0
 27
0.0
 37
0.0
 42
50.0
 43
0.0
 44
0.0
 45
1020.0
 50
0.0
 51
0.0
 72
   100
 90
   557152
  1

281
     0
 71
     1
 74
     0
110
0.0
120
0.0
130
0.0
111
1.0
121
0.0
131
0.0
112
0.0
122
1.0
132
0.0
 79
     0
146
0.0
  0
ENDSEC
  0
SECTION
  2
OBJECTS
  0
DICTIONARY
  5
C
330
0
100
AcDbDictionary
281
     1
  3
ACAD_GROUP
350
D
  3
ACAD_LAYOUT
350
1A
  3
ACAD_MLINESTYLE
350
17
  3
ACAD_PLOTSETTINGS
350
19
  3
ACAD_PLOTSTYLENAME
350
E
  3
ACAD_SCALELIST
350
47
  0
DICTIONARY
  5
D
102
{ACAD_REACTORS
330
C
102
}
330
C
100
AcDbDictionary
281
     1
  0
DICTIONARY
  5
1A
102
{ACAD_REACTORS
330
C
102
}
330
C
100
AcDbDictionary
281
     1
  3
_Dimetrisch
350
217
  3
_Isometrisch
350
12B
  3
_Links
350
EC
  3
_Normal auf
350
C8
  3
_Rechts
350
26
  3
_Rückseite
350
DA
  3
_Trimetrisch
350
1AB
  3
_Unten
350
FE
  3
_Vorderseite
350
1E
  3
Model
350
22
  0
DICTIONARY
  5
17
102
{ACAD_REACTORS
330
C
102
}
330
C
100
AcDbDictionary
281
     1
  3
Standard
350
18
  0
DICTIONARY
  5
19
102
{ACAD_REACTORS
330
C
102
}
330
C
100
AcDbDictionary
281
     1
  0
ACDBDICTIONARYWDFLT
  5
E
102
{ACAD_REACTORS
330
C
102
}
330
C
100
AcDbDictionary
281
     1
  3
Normal
350
F
100
AcDbDictionaryWithDefault
340
F
  0
DICTIONARY
  5
47
102
{ACAD_REACTORS
330
C
102
}
330
C
100
AcDbDictionary
281
     1
  3
A0
350
48
  3
A1
350
49
  3
A2
350
4A
  3
A3
350
4B
  3
A4
350
4C
  3
A5
350
4D
  3
A6
350
4E
  3
A7
350
4F
  3
A8
350
50
  3
A9
350
51
  3
B0
350
52
  3
B1
350
53
  3
B2
350
54
  3
B3
350
55
  3
B4
350
56
  3
B5
350
57
  3
B6
350
58
  3
B7
350
59
  3
B8
350
5A
  3
B9
350
5B
  3
C0
350
5C
  3
C1
350
5D
  3
C2
350
5E
  3
C3
350
5F
  3
C4
350
60
  3
C5
350
61
  3
C6
350
62
  3
C7
350
63
  3
C8
350
64
  3
C9
350
65
  3
D0
350
66
  3
D1
350
67
  3
D2
350
68
  0
LAYOUT
  5
217
102
{ACAD_REACTORS
330
1A
102
}
330
1A
100
AcDbPlotSettings
  1

  2
none_device
  4
ISO_A4_(210.00_x_297.00_MM)
  6

 40
7.5
 41
20.0
 42
7.5
 43
20.0
 44
210.0
 45
297.0
 46
0.0
 47
0.0
 48
0.0
 49
0.0
140
0.0
141
0.0
142
1.0
143
3.8910505837
 70
   688
 72
     1
 73
     1
 74
     1
  7

 75
     0
147
0.257
148
500.0
149
26.0
100
AcDbLayout
  1
_Dimetrisch
 70
     1
 71
     9
 10
0.0
 20
0.0
 11
0.0
 21
0.0
 12
0.0
 22
0.0
 32
0.0
 14
0.0
 24
0.0
 34
0.0
 15
0.0
 25
0.0
 35
0.0
146
0.0
 13
0.0
 23
0.0
 33
0.0
 16
1.0
 26
0.0
 36
0.0
 17
0.0
 27
1.0
 37
0.0
 76
     0
330
216
331
284
  0
LAYOUT
  5
12B
102
{ACAD_REACTORS
330
1A
102
}
330
1A
100
AcDbPlotSettings
  1

  2
none_device
  4
ISO_A4_(210.00_x_297.00_MM)
  6

 40
7.5
 41
20.0
 42
7.5
 43
20.0
 44
210.0
 45
297.0
 46
0.0
 47
0.0
 48
0.0
 49
0.0
140
0.0
141
0.0
142
1.0
143
3.8910505837
 70
   688
 72
     1
 73
     1
 74
     1
  7

 75
     0
147
0.257
148
500.0
149
26.0
100
AcDbLayout
  1
_Isometrisch
 70
     1
 71
     7
 10
0.0
 20
0.0
 11
0.0
 21
0.0
 12
0.0
 22
0.0
 32
0.0
 14
0.0
 24
0.0
 34
0.0
 15
0.0
 25
0.0
 35
0.0
146
0.0
 13
0.0
 23
0.0
 33
0.0
 16
1.0
 26
0.0
 36
0.0
 17
0.0
 27
1.0
 37
0.0
 76
     0
330
12A
331
280
  0
LAYOUT
  5
EC
102
{ACAD_REACTORS
330
1A
102
}
330
1A
100
AcDbPlotSettings
  1

  2
none_device
  4
ISO_A4_(210.00_x_297.00_MM)
  6

 40
7.5
 41
20.0
 42
7.5
 43
20.0
 44
210.0
 45
297.0
 46
0.0
 47
0.0
 48
0.0
 49
0.0
140
0.0
141
0.0
142
1.0
143
3.8910505837
 70
   688
 72
     1
 73
     1
 74
     1
  7

 75
     0
147
0.257
148
500.0
149
26.0
100
AcDbLayout
  1
_Links
 70
     1
 71
     5
 10
0.0
 20
0.0
 11
0.0
 21
0.0
 12
0.0
 22
0.0
 32
0.0
 14
0.0
 24
0.0
 34
0.0
 15
0.0
 25
0.0
 35
0.0
146
0.0
 13
0.0
 23
0.0
 33
0.0
 16
1.0
 26
0.0
 36
0.0
 17
0.0
 27
1.0
 37
0.0
 76
     0
330
EB
331
27C
  0
LAYOUT
  5
C8
102
{ACAD_REACTORS
330
1A
102
}
330
1A
100
AcDbPlotSettings
  1

  2
none_device
  4
ISO_A4_(210.00_x_297.00_MM)
  6

 40
7.5
 41
20.0
 42
7.5
 43
20.0
 44
210.0
 45
297.0
 46
0.0
 47
0.0
 48
0.0
 49
0.0
140
0.0
141
0.0
142
1.0
143
3.8910505837
 70
   688
 72
     1
 73
     1
 74
     1
  7

 75
     0
147
0.257
148
500.0
149
26.0
100
AcDbLayout
  1
_Normal auf
 70
     1
 71
     3
 10
0.0
 20
0.0
 11
0.0
 21
0.0
 12
0.0
 22
0.0
 32
0.0
 14
0.0
 24
0.0
 34
0.0
 15
0.0
 25
0.0
 35
0.0
146
0.0
 13
0.0
 23
0.0
 33
0.0
 16
1.0
 26
0.0
 36
0.0
 17
0.0
 27
1.0
 37
0.0
 76
     0
330
C7
331
278
  0
LAYOUT
  5
26
102
{ACAD_REACTORS
330
1A
102
}
330
1A
100
AcDbPlotSettings
  1

  2
none_device
  4
ISO_A4_(210.00_x_297.00_MM)
  6

 40
7.5
 41
20.0
 42
7.5
 43
20.0
 44
210.0
 45
297.0
 46
0.0
 47
0.0
 48
0.0
 49
0.0
140
0.0
141
0.0
142
1.0
143
3.8910505837
 70
   688
 72
     1
 73
     1
 74
     1
  7

 75
     0
147
0.257
148
500.0
149
26.0
100
AcDbLayout
  1
_Rechts
 70
     1
 71
     2
 10
0.0
 20
0.0
 11
0.0
 21
0.0
 12
0.0
 22
0.0
 32
0.0
 14
0.0
 24
0.0
 34
0.0
 15
0.0
 25
0.0
 35
0.0
146
0.0
 13
0.0
 23
0.0
 33
0.0
 16
1.0
 26
0.0
 36
0.0
 17
0.0
 27
1.0
 37
0.0
 76
     0
330
23
331
276
  0
LAYOUT
  5
DA
102
{ACAD_REACTORS
330
1A
102
}
330
1A
100
AcDbPlotSettings
  1

  2
none_device
  4
ISO_A4_(210.00_x_297.00_MM)
  6

 40
7.5
 41
20.0
 42
7.5
 43
20.0
 44
210.0
 45
297.0
 46
0.0
 47
0.0
 48
0.0
 49
0.0
140
0.0
141
0.0
142
1.0
143
3.8910505837
 70
   688
 72
     1
 73
     1
 74
     1
  7

 75
     0
147
0.257
148
500.0
149
26.0
100
AcDbLayout
  1
_Rückseite
 70
     1
 71
     4
 10
0.0
 20
0.0
 11
0.0
 21
0.0
 12
0.0
 22
0.0
 32
0.0
 14
0.0
 24
0.0
 34
0.0
 15
0.0
 25
0.0
 35
0.0
146
0.0
 13
0.0
 23
0.0
 33
0.0
 16
1.0
 26
0.0
 36
0.0
 17
0.0
 27
1.0
 37
0.0
 76
     0
330
D9
331
27A
  0
LAYOUT
  5
1AB
102
{ACAD_REACTORS
330
1A
102
}
330
1A
100
AcDbPlotSettings
  1

  2
none_device
  4
ISO_A4_(210.00_x_297.00_MM)
  6

 40
7.5
 41
20.0
 42
7.5
 43
20.0
 44
210.0
 45
297.0
 46
0.0
 47
0.0
 48
0.0
 49
0.0
140
0.0
141
0.0
142
1.0
143
3.8910505837
 70
   688
 72
     1
 73
     1
 74
     1
  7

 75
     0
147
0.257
148
500.0
149
26.0
100
AcDbLayout
  1
_Trimetrisch
 70
     1
 71
     8
 10
0.0
 20
0.0
 11
0.0
 21
0.0
 12
0.0
 22
0.0
 32
0.0
 14
0.0
 24
0.0
 34
0.0
 15
0.0
 25
0.0
 35
0.0
146
0.0
 13
0.0
 23
0.0
 33
0.0
 16
1.0
 26
0.0
 36
0.0
 17
0.0
 27
1.0
 37
0.0
 76
     0
330
1AA
331
282
  0
LAYOUT
  5
FE
102
{ACAD_REACTORS
330
1A
102
}
330
1A
100
AcDbPlotSettings
  1

  2
none_device
  4
ISO_A4_(210.00_x_297.00_MM)
  6

 40
7.5
 41
20.0
 42
7.5
 43
20.0
 44
210.0
 45
297.0
 46
0.0
 47
0.0
 48
0.0
 49
0.0
140
0.0
141
0.0
142
1.0
143
3.8910505837
 70
   688
 72
     1
 73
     1
 74
     1
  7

 75
     0
147
0.257
148
500.0
149
26.0
100
AcDbLayout
  1
_Unten
 70
     1
 71
     6
 10
0.0
 20
0.0
 11
0.0
 21
0.0
 12
0.0
 22
0.0
 32
0.0
 14
0.0
 24
0.0
 34
0.0
 15
0.0
 25
0.0
 35
0.0
146
0.0
 13
0.0
 23
0.0
 33
0.0
 16
1.0
 26
0.0
 36
0.0
 17
0.0
 27
1.0
 37
0.0
 76
     0
330
FD
331
27E
  0
LAYOUT
  5
1E
102
{ACAD_REACTORS
330
1A
102
}
330
1A
100
AcDbPlotSettings
  1

  2
none_device
  4
ISO_A4_(210.00_x_297.00_MM)
  6

 40
7.5
 41
20.0
 42
7.5
 43
20.0
 44
210.0
 45
297.0
 46
0.0
 47
0.0
 48
0.0
 49
0.0
140
0.0
141
0.0
142
1.0
143
3.8910505837
 70
   688
 72
     1
 73
     1
 74
     1
  7

 75
     0
147
0.257
148
500.0
149
26.0
100
AcDbLayout
  1
_Vorderseite
 70
     1
 71
     1
 10
-577.8210116732
 20
-55.1828793774
 11
577.8210116732
 21
761.9377431907
 12
0.0
 22
0.0
 32
0.0
 14
-500.0
 24
-26.0
 34
0.0
 15
500.0
 25
35.0
 35
0.0
146
0.0
 13
0.0
 23
0.0
 33
0.0
 16
1.0
 26
0.0
 36
0.0
 17
0.0
 27
1.0
 37
0.0
 76
     0
330
1B
331
274
  0
LAYOUT
  5
22
102
{ACAD_REACTORS
330
1A
102
}
330
1A
100
AcDbPlotSettings
  1

  2
none_device
  4
ANSI_A_(11.00_x_8.50_Inches)
  6

 40
6.35
 41
19.05
 42
6.35000508
 43
19.05000254
 44
279.4
 45
215.9
 46
133.34999746
 47
88.89999873
 48
0.0
 49
0.0
140
0.0
141
0.0
142
0.008415
143
1.0
 70
  1696
 72
     0
 73
     0
 74
     0
  7

 75
     0
147
0.0179189148
148
-1300.4909072572
149
0.0
100
AcDbLayout
  1
Model
 70
     1
 71
     0
 10
0.0
 20
0.0
 11
420.0
 21
297.0
 12
0.0
 22
0.0
 32
0.0
 14
-500.0
 24
-500.0
 34
0.0
 15
500.0
 25
500.0
 35
0.0
146
0.0
 13
0.0
 23
0.0
 33
0.0
 16
1.0
 26
0.0
 36
0.0
 17
0.0
 27
1.0
 37
0.0
 76
     0
330
1F
331
29
  0
MLINESTYLE
  5
18
102
{ACAD_REACTORS
330
17
102
}
330
17
100
AcDbMlineStyle
  2
Standard
 70
     0
  3

 62
   256
 51
90.0
 52
90.0
 71
     2
 49
0.5
 62
   256
  6
BYLAYER
 49
-0.5
 62
   256
  6
BYLAYER
  0
ACDBPLACEHOLDER
  5
F
102
{ACAD_REACTORS
330
E
102
}
330
E
  0
SCALE
  5
48
102
{ACAD_REACTORS
330
47
102
}
330
47
100
AcDbScale
 70
     0
300
1:1
140
1.0
141
1.0
290
     1
  0
SCALE
  5
49
102
{ACAD_REACTORS
330
47
102
}
330
47
100
AcDbScale
 70
     0
300
1:2
140
1.0
141
2.0
290
     0
  0
SCALE
  5
4A
102
{ACAD_REACTORS
330
47
102
}
330
47
100
AcDbScale
 70
     0
300
1:4
140
1.0
141
4.0
290
     0
  0
SCALE
  5
4B
102
{ACAD_REACTORS
330
47
102
}
330
47
100
AcDbScale
 70
     0
300
1:5
140
1.0
141
5.0
290
     0
  0
SCALE
  5
4C
102
{ACAD_REACTORS
330
47
102
}
330
47
100
AcDbScale
 70
     0
300
1:8
140
1.0
141
8.0
290
     0
  0
SCALE
  5
4D
102
{ACAD_REACTORS
330
47
102
}
330
47
100
AcDbScale
 70
     0
300
1:10
140
1.0
141
10.0
290
     0
  0
SCALE
  5
4E
102
{ACAD_REACTORS
330
47
102
}
330
47
100
AcDbScale
 70
     0
300
1:16
140
1.0
141
16.0
290
     0
  0
SCALE
  5
4F
102
{ACAD_REACTORS
330
47
102
}
330
47
100
AcDbScale
 70
     0
300
1:20
140
1.0
141
20.0
290
     0
  0
SCALE
  5
50
102
{ACAD_REACTORS
330
47
102
}
330
47
100
AcDbScale
 70
     0
300
1:30
140
1.0
141
30.0
290
     0
  0
SCALE
  5
51
102
{ACAD_REACTORS
330
47
102
}
330
47
100
AcDbScale
 70
     0
300
1:40
140
1.0
141
40.0
290
     0
  0
SCALE
  5
52
102
{ACAD_REACTORS
330
47
102
}
330
47
100
AcDbScale
 70
     0
300
1:50
140
1.0
141
50.0
290
     0
  0
SCALE
  5
53
102
{ACAD_REACTORS
330
47
102
}
330
47
100
AcDbScale
 70
     0
300
1:100
140
1.0
141
100.0
290
     0
  0
SCALE
  5
54
102
{ACAD_REACTORS
330
47
102
}
330
47
100
AcDbScale
 70
     0
300
2:1
140
2.0
141
1.0
290
     0
  0
SCALE
  5
55
102
{ACAD_REACTORS
330
47
102
}
330
47
100
AcDbScale
 70
     0
300
4:1
140
4.0
141
1.0
290
     0
  0
SCALE
  5
56
102
{ACAD_REACTORS
330
47
102
}
330
47
100
AcDbScale
 70
     0
300
8:1
140
8.0
141
1.0
290
     0
  0
SCALE
  5
57
102
{ACAD_REACTORS
330
47
102
}
330
47
100
AcDbScale
 70
     0
300
10:1
140
10.0
141
1.0
290
     0
  0
SCALE
  5
58
102
{ACAD_REACTORS
330
47
102
}
330
47
100
AcDbScale
 70
     0
300
100:1
140
100.0
141
1.0
290
     0
  0
SCALE
  5
59
102
{ACAD_REACTORS
330
47
102
}
330
47
100
AcDbScale
 70
     0
300
1/128" = 1'-0"
140
0.0078125
141
12.0
290
     0
  0
SCALE
  5
5A
102
{ACAD_REACTORS
330
47
102
}
330
47
100
AcDbScale
 70
     0
300
1/64" = 1'-0"
140
0.015625
141
12.0
290
     0
  0
SCALE
  5
5B
102
{ACAD_REACTORS
330
47
102
}
330
47
100
AcDbScale
 70
     0
300
1/32" = 1'-0"
140
0.03125
141
12.0
290
     0
  0
SCALE
  5
5C
102
{ACAD_REACTORS
330
47
102
}
330
47
100
AcDbScale
 70
     0
300
1/16" = 1'-0"
140
0.0625
141
12.0
290
     0
  0
SCALE
  5
5D
102
{ACAD_REACTORS
330
47
102
}
330
47
100
AcDbScale
 70
     0
300
3/32" = 1'-0"
140
0.09375
141
12.0
290
     0
  0
SCALE
  5
5E
102
{ACAD_REACTORS
330
47
102
}
330
47
100
AcDbScale
 70
     0
300
1/8" = 1'-0"
140
0.125
141
12.0
290
     0
  0
SCALE
  5
5F
102
{ACAD_REACTORS
330
47
102
}
330
47
100
AcDbScale
 70
     0
300
3/16" = 1'-0"
140
0.1875
141
12.0
290
     0
  0
SCALE
  5
60
102
{ACAD_REACTORS
330
47
102
}
330
47
100
AcDbScale
 70
     0
300
1/4" = 1'-0"
140
0.25
141
12.0
290
     0
  0
SCALE
  5
61
102
{ACAD_REACTORS
330
47
102
}
330
47
100
AcDbScale
 70
     0
300
3/8" = 1'-0"
140
0.375
141
12.0
290
     0
  0
SCALE
  5
62
102
{ACAD_REACTORS
330
47
102
}
330
47
100
AcDbScale
 70
     0
300
1/2" = 1'-0"
140
0.5
141
12.0
290
     0
  0
SCALE
  5
63
102
{ACAD_REACTORS
330
47
102
}
330
47
100
AcDbScale
 70
     0
300
3/4" = 1'-0"
140
0.75
141
12.0
290
     0
  0
SCALE
  5
64
102
{ACAD_REACTORS
330
47
102
}
330
47
100
AcDbScale
 70
     0
300
1" = 1'-0"
140
1.0
141
12.0
290
     0
  0
SCALE
  5
65
102
{ACAD_REACTORS
330
47
102
}
330
47
100
AcDbScale
 70
     0
300
1-1/2" = 1'-0"
140
1.5
141
12.0
290
     0
  0
SCALE
  5
66
102
{ACAD_REACTORS
330
47
102
}
330
47
100
AcDbScale
 70
     0
300
3" = 1'-0"
140
3.0
141
12.0
290
     0
  0
SCALE
  5
67
102
{ACAD_REACTORS
330
47
102
}
330
47
100
AcDbScale
 70
     0
300
6" = 1'-0"
140
6.0
141
12.0
290
     0
  0
SCALE
  5
68
102
{ACAD_REACTORS
330
47
102
}
330
47
100
AcDbScale
 70
     0
300
1'-0" = 1'-0"
140
12.0
141
12.0
290
     0
  0
ENDSEC
  0
EOF
