  0
SECTION
  2
HEADER
  9
$ACADVER
  1
AC1014
  9
$ACADMAINTVER
 70
     9
  9
$DWGCODEPAGE
  3
ANSI_1252
  9
$INSBASE
 10
0.0
 20
0.0
 30
0.0
  9
$EXTMIN
 10
-210.0
 20
-210.0
 30
0.0
  9
$EXTMAX
 10
210.0
 20
210.0
 30
0.0
  9
$LIMMIN
 10
0.0
 20
0.0
  9
$LIMMAX
 10
420.0
 20
297.0
  9
$ORTHOMODE
 70
     0
  9
$REGENMODE
 70
     1
  9
$FILLMODE
 70
     1
  9
$QTEXTMODE
 70
     0
  9
$MIRRTEXT
 70
     1
  9
$DRAGMODE
 70
     2
  9
$LTSCALE
 40
1.0
  9
$OSMODE
 70
    37
  9
$ATTMODE
 70
     1
  9
$TEXTSIZE
 40
3.5
  9
$TRACEWID
 40
1.0
  9
$TEXTSTYLE
  7
STANDARD
  9
$CLAYER
  8
0
  9
$CELTYPE
  6
BYLAYER
  9
$CECOLOR
 62
   256
  9
$CELTSCALE
 40
1.0
  9
$DELOBJ
 70
     1
  9
$DISPSILH
 70
     0
  9
$DIMSCALE
 40
1.0
  9
$DIMASZ
 40
6.0
  9
$DIMEXO
 40
0.0
  9
$DIMDLI
 40
3.75
  9
$DIMRND
 40
0.0
  9
$DIMDLE
 40
0.0
  9
$DIMEXE
 40
1.0
  9
$DIMTP
 40
0.0
  9
$DIMTM
 40
0.0
  9
$DIMTXT
 40
3.5
  9
$DIMCEN
 40
2.5
  9
$DIMTSZ
 40
0.0
  9
$DIMTOL
 70
     0
  9
$DIMLIM
 70
     0
  9
$DIMTIH
 70
     1
  9
$DIMTOH
 70
     1
  9
$DIMSE1
 70
     0
  9
$DIMSE2
 70
     0
  9
$DIMTAD
 70
     1
  9
$DIMZIN
 70
     0
  9
$DIMBLK
  1

  9
$DIMASO
 70
     1
  9
$DIMSHO
 70
     1
  9
$DIMPOST
  1

  9
$DIMAPOST
  1

  9
$DIMALT
 70
     0
  9
$DIMALTD
 70
     3
  9
$DIMALTF
 40
0.0393700787
  9
$DIMLFAC
 40
1.0
  9
$DIMTOFL
 70
     1
  9
$DIMTVP
 40
0.0
  9
$DIMTIX
 70
     0
  9
$DIMSOXD
 70
     0
  9
$DIMSAH
 70
     0
  9
$DIMBLK1
  1

  9
$DIMBLK2
  1

  9
$DIMSTYLE
  2
ISO-25
  9
$DIMCLRD
 70
     0
  9
$DIMCLRE
 70
     0
  9
$DIMCLRT
 70
     0
  9
$DIMTFAC
 40
1.0
  9
$DIMGAP
 40
1.524
  9
$DIMJUST
 70
     0
  9
$DIMSD1
 70
     0
  9
$DIMSD2
 70
     0
  9
$DIMTOLJ
 70
     0
  9
$DIMTZIN
 70
     0
  9
$DIMALTZ
 70
     0
  9
$DIMALTTZ
 70
     0
  9
$DIMFIT
 70
     3
  9
$DIMUPT
 70
     0
  9
$DIMUNIT
 70
     2
  9
$DIMDEC
 70
     2
  9
$DIMTDEC
 70
     2
  9
$DIMALTU
 70
     2
  9
$DIMALTTD
 70
     3
  9
$DIMTXSTY
  7
STANDARD
  9
$DIMAUNIT
 70
     0
  9
$LUNITS
 70
     2
  9
$LUPREC
 70
     2
  9
$SKETCHINC
 40
1.0
  9
$FILLETRAD
 40
10.0
  9
$AUNITS
 70
     0
  9
$AUPREC
 70
     2
  9
$MENU
  1
.
  9
$ELEVATION
 40
0.0
  9
$PELEVATION
 40
0.0
  9
$THICKNESS
 40
0.0
  9
$LIMCHECK
 70
     0
  9
$CHAMFERA
 40
0.0
  9
$CHAMFERB
 40
0.0
  9
$CHAMFERC
 40
0.0
  9
$CHAMFERD
 40
0.0
  9
$SKPOLY
 70
     0
  9
$TDCREATE
 40
2459626.522115961
  9
$TDUPDATE
 40
2459626.522184988
  9
$TDINDWG
 40
0.0000000116
  9
$TDUSRTIMER
 40
0.0000000116
  9
$USRTIMER
 70
     1
  9
$ANGBASE
 50
0.0
  9
$ANGDIR
 70
     0
  9
$PDMODE
 70
     0
  9
$PDSIZE
 40
-1.0
  9
$PLINEWID
 40
0.0
  9
$COORDS
 70
     1
  9
$SPLFRAME
 70
     0
  9
$SPLINETYPE
 70
     6
  9
$SPLINESEGS
 70
     8
  9
$ATTDIA
 70
     0
  9
$ATTREQ
 70
     1
  9
$HANDLING
 70
     1
  9
$HANDSEED
  5
136
  9
$SURFTAB1
 70
     6
  9
$SURFTAB2
 70
     6
  9
$SURFTYPE
 70
     6
  9
$SURFU
 70
     6
  9
$SURFV
 70
     6
  9
$UCSNAME
  2

  9
$UCSORG
 10
0.0
 20
0.0
 30
0.0
  9
$UCSXDIR
 10
1.0
 20
0.0
 30
0.0
  9
$UCSYDIR
 10
0.0
 20
1.0
 30
0.0
  9
$PUCSNAME
  2

  9
$PUCSORG
 10
0.0
 20
0.0
 30
0.0
  9
$PUCSXDIR
 10
1.0
 20
0.0
 30
0.0
  9
$PUCSYDIR
 10
0.0
 20
1.0
 30
0.0
  9
$USERI1
 70
     0
  9
$USERI2
 70
     0
  9
$USERI3
 70
     0
  9
$USERI4
 70
     0
  9
$USERI5
 70
     0
  9
$USERR1
 40
0.0
  9
$USERR2
 40
0.0
  9
$USERR3
 40
0.0
  9
$USERR4
 40
0.0
  9
$USERR5
 40
0.0
  9
$WORLDVIEW
 70
     1
  9
$SHADEDGE
 70
     3
  9
$SHADEDIF
 70
    70
  9
$TILEMODE
 70
     1
  9
$MAXACTVP
 70
    64
  9
$PINSBASE
 10
0.0
 20
0.0
 30
0.0
  9
$PLIMCHECK
 70
     0
  9
$PEXTMIN
 10
-210.0
 20
-50.0000000001
 30
0.0
  9
$PEXTMAX
 10
210.0
 20
850.0
 30
0.0
  9
$PLIMMIN
 10
-302.3076923077
 20
-84.6153846155
  9
$PLIMMAX
 10
1068.4615384617
 20
884.6153846154
  9
$UNITMODE
 70
     0
  9
$VISRETAIN
 70
     1
  9
$PLINEGEN
 70
     0
  9
$PSLTSCALE
 70
     1
  9
$TREEDEPTH
 70
  3020
  9
$PICKSTYLE
 70
     1
  9
$CMLSTYLE
  2
STANDARD
  9
$CMLJUST
 70
     0
  9
$CMLSCALE
 40
20.0
  9
$PROXYGRAPHICS
 70
     1
  9
$MEASUREMENT
 70
     1
  0
ENDSEC
  0
SECTION
  2
CLASSES
  0
CLASS
  1
ACDBDICTIONARYWDFLT
  2
AcDbDictionaryWithDefault
  3
ObjectDBX Classes
 90
        0
280
     0
281
     0
  0
CLASS
  1
VISUALSTYLE
  2
AcDbVisualStyle
  3
ObjectDBX Classes
 90
     4095
280
     0
281
     0
  0
CLASS
  1
MATERIAL
  2
AcDbMaterial
  3
ObjectDBX Classes
 90
     1153
280
     0
281
     0
  0
CLASS
  1
SCALE
  2
AcDbScale
  3
ObjectDBX Classes
 90
     1153
280
     0
281
     0
  0
CLASS
  1
TABLESTYLE
  2
AcDbTableStyle
  3
ObjectDBX Classes
 90
     4095
280
     0
281
     0
  0
CLASS
  1
MLEADERSTYLE
  2
AcDbMLeaderStyle
  3
ACDB_MLEADERSTYLE_CLASS
 90
     4095
280
     0
281
     0
  0
CLASS
  1
SUN
  2
AcDbSun
  3
SCENEOE
 90
     1153
280
     0
281
     0
  0
CLASS
  1
XRECORD
  2
AcDbXrecord
  3
ObjectDBX Classes
 90
        0
280
     0
281
     0
  0
CLASS
  1
LWPOLYLINE
  2
AcDbPolyline
  3
ObjectDBX Classes
 90
        0
280
     0
281
     1
  0
CLASS
  1
HATCH
  2
AcDbHatch
  3
ObjectDBX Classes
 90
        0
280
     0
281
     1
  0
ENDSEC
  0
SECTION
  2
TABLES
  0
TABLE
  2
VPORT
  5
8
330
0
100
AcDbSymbolTable
 70
     1
  0
VPORT
  5
29
330
8
100
AcDbSymbolTableRecord
100
AcDbViewportTableRecord
  2
*ACTIVE
 70
     0
 10
0.0
 20
0.0
 11
1.0
 21
1.0
 12
0.0
 22
0.0
 13
0.0
 23
0.0
 14
10.0
 24
10.0
 15
10.0
 25
10.0
 16
0.0
 26
0.0
 36
1.0
 17
0.0
 27
0.0
 37
0.0
 40
428.4
 41
1.0
 42
50.0
 43
0.0
 44
0.0
 50
0.0
 51
0.0
 71
     0
 72
   100
 73
     1
 74
     3
 75
     0
 76
     0
 77
     0
 78
     0
  0
ENDTAB
  0
TABLE
  2
LTYPE
  5
5
330
0
100
AcDbSymbolTable
 70
     6
  0
LTYPE
  5
14
330
5
100
AcDbSymbolTableRecord
100
AcDbLinetypeTableRecord
  2
BYBLOCK
 70
     0
  3

 72
    65
 73
     0
 40
0.0
  0
LTYPE
  5
15
330
5
100
AcDbSymbolTableRecord
100
AcDbLinetypeTableRecord
  2
BYLAYER
 70
     0
  3

 72
    65
 73
     0
 40
0.0
  0
LTYPE
  5
16
330
5
100
AcDbSymbolTableRecord
100
AcDbLinetypeTableRecord
  2
CONTINUOUS
 70
     0
  3
Solid line
 72
    65
 73
     0
 40
0.0
  0
LTYPE
  5
6E
330
5
100
AcDbSymbolTableRecord
100
AcDbLinetypeTableRecord
  2
HIDDEN
 70
     0
  3
Hidden __ __ __ __ __ __ __ __ __ __ __ __ __ __
 72
    65
 73
     2
 40
1.905
 49
1.27
 74
     0
 49
-0.635
 74
     0
  0
LTYPE
  5
6F
330
5
100
AcDbSymbolTableRecord
100
AcDbLinetypeTableRecord
  2
PHANTOM
 70
     0
  3
Phantom ______  __  __  ______  __  __  ______
 72
    65
 73
     6
 40
12.7
 49
6.35
 74
     0
 49
-1.27
 74
     0
 49
1.27
 74
     0
 49
-1.27
 74
     0
 49
1.27
 74
     0
 49
-1.27
 74
     0
  0
LTYPE
  5
70
330
5
100
AcDbSymbolTableRecord
100
AcDbLinetypeTableRecord
  2
CENTER
 70
     0
  3
Center ____ _ ____ _ ____ _ ____ _ ____ _ ____
 72
    65
 73
     4
 40
10.16
 49
6.35
 74
     0
 49
-1.27
 74
     0
 49
1.27
 74
     0
 49
-1.27
 74
     0
  0
LTYPE
  5
71
330
5
100
AcDbSymbolTableRecord
100
AcDbLinetypeTableRecord
  2
CENTERX2
 70
     0
  3
Center (2x) ________  __  ________  __  _____
 72
    65
 73
     4
 40
20.32
 49
12.7
 74
     0
 49
-2.54
 74
     0
 49
2.54
 74
     0
 49
-2.54
 74
     0
  0
LTYPE
  5
72
330
5
100
AcDbSymbolTableRecord
100
AcDbLinetypeTableRecord
  2
DOT2
 70
     0
  3
Dot (.5x) ........................................
 72
    65
 73
     2
 40
0.635
 49
0.0
 74
     0
 49
-0.635
 74
     0
  0
ENDTAB
  0
TABLE
  2
LAYER
  5
2
330
0
100
AcDbSymbolTable
 70
     1
  0
LAYER
  5
10
330
2
100
AcDbSymbolTableRecord
100
AcDbLayerTableRecord
  2
0
 70
     0
 62
     7
  6
CONTINUOUS
  0
ENDTAB
  0
TABLE
  2
STYLE
  5
3
330
0
100
AcDbSymbolTable
 70
     1
  0
STYLE
  5
11
330
3
100
AcDbSymbolTableRecord
100
AcDbTextStyleTableRecord
  2
STANDARD
 70
     0
 40
0.0
 41
1.0
 50
0.0
 71
     0
 42
3.5
  3
txt
  4

  0
ENDTAB
  0
TABLE
  2
VIEW
  5
6
330
0
100
AcDbSymbolTable
 70
     0
  0
ENDTAB
  0
TABLE
  2
UCS
  5
7
330
0
100
AcDbSymbolTable
 70
     0
  0
ENDTAB
  0
TABLE
  2
APPID
  5
9
330
0
100
AcDbSymbolTable
 70
     1
  0
APPID
  5
12
330
9
100
AcDbSymbolTableRecord
100
AcDbRegAppTableRecord
  2
ACAD
 70
     0
  0
ENDTAB
  0
TABLE
  2
DIMSTYLE
  5
A
330
0
100
AcDbSymbolTable
 70
     1
  0
DIMSTYLE
105
27
330
A
100
AcDbSymbolTableRecord
100
AcDbDimStyleTableRecord
  2
ISO-25
 70
     0
  3

  4

  5

  6

  7

 40
1.0
 41
2.5
 42
0.625
 43
3.75
 44
1.25
 45
0.0
 46
0.0
 47
0.0
 48
0.0
140
2.5
141
2.5
142
0.0
143
0.0393700787
144
1.0
145
0.0
146
1.0
147
0.625
 71
     0
 72
     0
 73
     0
 74
     0
 75
     0
 76
     0
 77
     1
 78
     8
170
     0
171
     3
172
     1
173
     0
174
     0
175
     0
176
     0
177
     0
178
     0
270
     2
271
     2
272
     2
273
     2
274
     3
340
11
275
     0
280
     0
281
     0
282
     0
283
     0
284
     8
285
     0
286
     0
287
     3
288
     0
  0
ENDTAB
  0
TABLE
  2
BLOCK_RECORD
  5
1
330
0
100
AcDbSymbolTable
 70
     8
  0
BLOCK_RECORD
  5
1F
330
1
100
AcDbSymbolTableRecord
100
AcDbBlockTableRecord
  2
*MODEL_SPACE
  0
BLOCK_RECORD
  5
1B
330
1
100
AcDbSymbolTableRecord
100
AcDbBlockTableRecord
  2
*PAPER_SPACE
  0
BLOCK_RECORD
  5
23
330
1
100
AcDbSymbolTableRecord
100
AcDbBlockTableRecord
  2
*PAPER_SPACE0
  0
BLOCK_RECORD
  5
95
330
1
100
AcDbSymbolTableRecord
100
AcDbBlockTableRecord
  2
*PAPER_SPACE1
  0
BLOCK_RECORD
  5
A7
330
1
100
AcDbSymbolTableRecord
100
AcDbBlockTableRecord
  2
*PAPER_SPACE2
  0
BLOCK_RECORD
  5
B9
330
1
100
AcDbSymbolTableRecord
100
AcDbBlockTableRecord
  2
*PAPER_SPACE3
  0
BLOCK_RECORD
  5
CC
330
1
100
AcDbSymbolTableRecord
100
AcDbBlockTableRecord
  2
*PAPER_SPACE4
  0
BLOCK_RECORD
  5
D6
330
1
100
AcDbSymbolTableRecord
100
AcDbBlockTableRecord
  2
*PAPER_SPACE5
  0
BLOCK_RECORD
  5
F3
330
1
100
AcDbSymbolTableRecord
100
AcDbBlockTableRecord
  2
*PAPER_SPACE6
  0
BLOCK_RECORD
  5
10D
330
1
100
AcDbSymbolTableRecord
100
AcDbBlockTableRecord
  2
*PAPER_SPACE7
  0
ENDTAB
  0
ENDSEC
  0
SECTION
  2
BLOCKS
  0
BLOCK
  5
20
330
1F
100
AcDbEntity
  8
0
100
AcDbBlockBegin
  2
*MODEL_SPACE
 70
     0
 10
0.0
 20
0.0
 30
0.0
  3
*MODEL_SPACE
  1

  0
ENDBLK
  5
21
330
1F
100
AcDbEntity
  8
0
100
AcDbBlockEnd
  0
BLOCK
  5
1C
330
1B
100
AcDbEntity
 67
     1
  8
0
100
AcDbBlockBegin
  2
*PAPER_SPACE
 70
     0
 10
0.0
 20
0.0
 30
0.0
  3
*PAPER_SPACE
  1

  0
ENDBLK
  5
1D
330
1B
100
AcDbEntity
 67
     1
  8
0
100
AcDbBlockEnd
  0
BLOCK
  5
24
330
23
100
AcDbEntity
  8
0
100
AcDbBlockBegin
  2
*PAPER_SPACE0
 70
     0
 10
0.0
 20
0.0
 30
0.0
  3
*PAPER_SPACE0
  1

  0
LINE
  5
8E
330
23
100
AcDbEntity
  8
0
  6
CONTINUOUS
 62
     7
100
AcDbLine
 10
203.1241974663
 20
850.0
 30
0.0
 11
-203.1241974663
 21
850.0
 31
0.0
  0
LINE
  5
8F
330
23
100
AcDbEntity
  8
0
  6
CONTINUOUS
 62
     7
100
AcDbLine
 10
-152.1123985246
 20
-50.0000000001
 30
0.0
 11
152.1123985246
 21
-50.0
 31
0.0
  0
LINE
  5
90
330
23
100
AcDbEntity
  8
0
  6
CONTINUOUS
 62
     7
100
AcDbLine
 10
-206.1215591921
 20
847.125788254
 30
0.0
 11
206.1215591921
 21
847.125788254
 31
0.0
  0
ARC
  5
91
330
23
100
AcDbEntity
  8
0
  6
CONTINUOUS
 62
     7
100
AcDbCircle
 10
-4200.2020659295
 20
662.2085823915
 30
0.0
 40
4410.202065929465
100
AcDbArc
 50
350.7065417777
 51
2.4030831734
  0
ARC
  5
92
330
23
100
AcDbEntity
  8
0
  6
CONTINUOUS
 62
     7
100
AcDbCircle
 10
4200.2020659295
 20
662.2085823915
 30
0.0
 40
4410.20206592947
100
AcDbArc
 50
177.5969168266
 51
189.2934582223
  0
ARC
  5
93
330
23
100
AcDbEntity
  8
0
  6
CONTINUOUS
 62
     7
100
AcDbCircle
 10
-203.1241974663
 20
847.0
 30
0.0
 40
3.0
100
AcDbArc
 50
90.0
 51
177.5969168266
  0
ARC
  5
94
330
23
100
AcDbEntity
  8
0
  6
CONTINUOUS
 62
     7
100
AcDbCircle
 10
203.1241974663
 20
847.0
 30
0.0
 40
3.000000000000204
100
AcDbArc
 50
2.4030831734
 51
90.0
  0
VIEWPORT
  5
125
330
23
100
AcDbEntity
  8
0
100
AcDbViewport
 10
0.0
 20
0.0
 30
0.0
 40
205.6
 41
156.0
 68
     1
 69
     1
1001
ACAD
1000
MVIEW
1002
{
1070
    16
1010
0.0
1020
0.0
1030
0.0
1010
0.0
1020
0.0
1030
1.0
1040
0.0
1040
428.4
1040
0.0
1040
0.0
1040
50.0
1040
0.0
1040
0.0
1070
     0
1070
   100
1070
     0
1070
     3
1070
     0
1070
     0
1070
     0
1070
     0
1040
0.0
1040
0.0
1040
0.0
1040
10.0
1040
10.0
1040
10.0
1040
10.0
1070
     0
1002
{
1002
}
1002
}
  0
ENDBLK
  5
25
330
23
100
AcDbEntity
  8
0
100
AcDbBlockEnd
  0
BLOCK
  5
97
330
95
100
AcDbEntity
  8
0
100
AcDbBlockBegin
  2
*PAPER_SPACE1
 70
     0
 10
0.0
 20
0.0
 30
0.0
  3
*PAPER_SPACE1
  1

  0
LINE
  5
A0
330
95
100
AcDbEntity
  8
0
  6
CONTINUOUS
 62
     7
100
AcDbLine
 10
203.1241974663
 20
850.0
 30
0.0
 11
-203.1241974663
 21
850.0
 31
0.0
  0
LINE
  5
A1
330
95
100
AcDbEntity
  8
0
  6
CONTINUOUS
 62
     7
100
AcDbLine
 10
-152.1123985246
 20
-50.0000000001
 30
0.0
 11
152.1123985246
 21
-50.0
 31
0.0
  0
LINE
  5
A2
330
95
100
AcDbEntity
  8
0
  6
CONTINUOUS
 62
     7
100
AcDbLine
 10
-206.1215591921
 20
847.125788254
 30
0.0
 11
206.1215591921
 21
847.125788254
 31
0.0
  0
ARC
  5
A3
330
95
100
AcDbEntity
  8
0
  6
CONTINUOUS
 62
     7
100
AcDbCircle
 10
-4200.2020659295
 20
662.2085823915
 30
0.0
 40
4410.202065929478
100
AcDbArc
 50
350.7065417777
 51
2.4030831734
  0
ARC
  5
A4
330
95
100
AcDbEntity
  8
0
  6
CONTINUOUS
 62
     7
100
AcDbCircle
 10
4200.2020659295
 20
662.2085823915
 30
0.0
 40
4410.202065929487
100
AcDbArc
 50
177.5969168266
 51
189.2934582223
  0
ARC
  5
A5
330
95
100
AcDbEntity
  8
0
  6
CONTINUOUS
 62
     7
100
AcDbCircle
 10
-203.1241974663
 20
847.0
 30
0.0
 40
3.0
100
AcDbArc
 50
90.0
 51
177.5969168266
  0
ARC
  5
A6
330
95
100
AcDbEntity
  8
0
  6
CONTINUOUS
 62
     7
100
AcDbCircle
 10
203.1241974663
 20
847.0
 30
0.0
 40
3.000000000000233
100
AcDbArc
 50
2.4030831734
 51
90.0
  0
VIEWPORT
  5
127
330
95
100
AcDbEntity
  8
0
100
AcDbViewport
 10
0.0
 20
0.0
 30
0.0
 40
205.6
 41
156.0
 68
     1
 69
     1
1001
ACAD
1000
MVIEW
1002
{
1070
    16
1010
0.0
1020
0.0
1030
0.0
1010
0.0
1020
0.0
1030
1.0
1040
0.0
1040
428.4
1040
0.0
1040
0.0
1040
50.0
1040
0.0
1040
0.0
1070
     0
1070
   100
1070
     0
1070
     3
1070
     0
1070
     0
1070
     0
1070
     0
1040
0.0
1040
0.0
1040
0.0
1040
10.0
1040
10.0
1040
10.0
1040
10.0
1070
     0
1002
{
1002
}
1002
}
  0
ENDBLK
  5
98
330
95
100
AcDbEntity
  8
0
100
AcDbBlockEnd
  0
BLOCK
  5
A9
330
A7
100
AcDbEntity
  8
0
100
AcDbBlockBegin
  2
*PAPER_SPACE2
 70
     0
 10
0.0
 20
0.0
 30
0.0
  3
*PAPER_SPACE2
  1

  0
LINE
  5
B2
330
A7
100
AcDbEntity
  8
0
  6
CONTINUOUS
 62
     7
100
AcDbLine
 10
203.1241974663
 20
850.0
 30
0.0
 11
-203.1241974663
 21
850.0
 31
0.0
  0
LINE
  5
B3
330
A7
100
AcDbEntity
  8
0
  6
CONTINUOUS
 62
     7
100
AcDbLine
 10
-152.1123985246
 20
-50.0000000001
 30
0.0
 11
152.1123985246
 21
-50.0
 31
0.0
  0
LINE
  5
B4
330
A7
100
AcDbEntity
  8
0
  6
CONTINUOUS
 62
     7
100
AcDbLine
 10
-206.1215591921
 20
847.125788254
 30
0.0
 11
206.1215591921
 21
847.125788254
 31
0.0
  0
ARC
  5
B5
330
A7
100
AcDbEntity
  8
0
  6
CONTINUOUS
 62
     7
100
AcDbCircle
 10
-4200.2020659295
 20
662.2085823915
 30
0.0
 40
4410.202065929449
100
AcDbArc
 50
350.7065417777
 51
2.4030831734
  0
ARC
  5
B6
330
A7
100
AcDbEntity
  8
0
  6
CONTINUOUS
 62
     7
100
AcDbCircle
 10
4200.2020659295
 20
662.2085823915
 30
0.0
 40
4410.202065929459
100
AcDbArc
 50
177.5969168266
 51
189.2934582223
  0
ARC
  5
B7
330
A7
100
AcDbEntity
  8
0
  6
CONTINUOUS
 62
     7
100
AcDbCircle
 10
-203.1241974663
 20
847.0
 30
0.0
 40
3.0
100
AcDbArc
 50
90.0
 51
177.5969168266
  0
ARC
  5
B8
330
A7
100
AcDbEntity
  8
0
  6
CONTINUOUS
 62
     7
100
AcDbCircle
 10
203.1241974663
 20
847.0
 30
0.0
 40
3.000000000000233
100
AcDbArc
 50
2.4030831734
 51
90.0
  0
VIEWPORT
  5
129
330
A7
100
AcDbEntity
  8
0
100
AcDbViewport
 10
0.0
 20
0.0
 30
0.0
 40
205.6
 41
156.0
 68
     1
 69
     1
1001
ACAD
1000
MVIEW
1002
{
1070
    16
1010
0.0
1020
0.0
1030
0.0
1010
0.0
1020
0.0
1030
1.0
1040
0.0
1040
428.4
1040
0.0
1040
0.0
1040
50.0
1040
0.0
1040
0.0
1070
     0
1070
   100
1070
     0
1070
     3
1070
     0
1070
     0
1070
     0
1070
     0
1040
0.0
1040
0.0
1040
0.0
1040
10.0
1040
10.0
1040
10.0
1040
10.0
1070
     0
1002
{
1002
}
1002
}
  0
ENDBLK
  5
AA
330
A7
100
AcDbEntity
  8
0
100
AcDbBlockEnd
  0
BLOCK
  5
BB
330
B9
100
AcDbEntity
  8
0
100
AcDbBlockBegin
  2
*PAPER_SPACE3
 70
     0
 10
0.0
 20
0.0
 30
0.0
  3
*PAPER_SPACE3
  1

  0
LINE
  5
C5
330
B9
100
AcDbEntity
  8
0
  6
CONTINUOUS
 62
     7
100
AcDbLine
 10
203.1241974663
 20
850.0
 30
0.0
 11
-203.1241974663
 21
850.0
 31
0.0
  0
LINE
  5
C6
330
B9
100
AcDbEntity
  8
0
  6
CONTINUOUS
 62
     7
100
AcDbLine
 10
-152.1123985246
 20
-50.0000000001
 30
0.0
 11
152.1123985246
 21
-50.0
 31
0.0
  0
LINE
  5
C7
330
B9
100
AcDbEntity
  8
0
  6
CONTINUOUS
 62
     7
100
AcDbLine
 10
-206.1215591921
 20
847.125788254
 30
0.0
 11
206.1215591921
 21
847.125788254
 31
0.0
  0
ARC
  5
C8
330
B9
100
AcDbEntity
  8
0
  6
CONTINUOUS
 62
     7
100
AcDbCircle
 10
-4200.2020659295
 20
662.2085823915
 30
0.0
 40
4410.202065929465
100
AcDbArc
 50
350.7065417777
 51
2.4030831734
  0
ARC
  5
C9
330
B9
100
AcDbEntity
  8
0
  6
CONTINUOUS
 62
     7
100
AcDbCircle
 10
4200.2020659295
 20
662.2085823915
 30
0.0
 40
4410.202065929471
100
AcDbArc
 50
177.5969168266
 51
189.2934582223
  0
ARC
  5
CA
330
B9
100
AcDbEntity
  8
0
  6
CONTINUOUS
 62
     7
100
AcDbCircle
 10
-203.1241974663
 20
847.0
 30
0.0
 40
3.0
100
AcDbArc
 50
90.0
 51
177.5969168266
  0
ARC
  5
CB
330
B9
100
AcDbEntity
  8
0
  6
CONTINUOUS
 62
     7
100
AcDbCircle
 10
203.1241974663
 20
847.0
 30
0.0
 40
3.000000000000233
100
AcDbArc
 50
2.4030831734
 51
90.0
  0
VIEWPORT
  5
12B
330
B9
100
AcDbEntity
  8
0
100
AcDbViewport
 10
0.0
 20
0.0
 30
0.0
 40
205.6
 41
156.0
 68
     1
 69
     1
1001
ACAD
1000
MVIEW
1002
{
1070
    16
1010
0.0
1020
0.0
1030
0.0
1010
0.0
1020
0.0
1030
1.0
1040
0.0
1040
428.4
1040
0.0
1040
0.0
1040
50.0
1040
0.0
1040
0.0
1070
     0
1070
   100
1070
     0
1070
     3
1070
     0
1070
     0
1070
     0
1070
     0
1040
0.0
1040
0.0
1040
0.0
1040
10.0
1040
10.0
1040
10.0
1040
10.0
1070
     0
1002
{
1002
}
1002
}
  0
ENDBLK
  5
BC
330
B9
100
AcDbEntity
  8
0
100
AcDbBlockEnd
  0
BLOCK
  5
CE
330
CC
100
AcDbEntity
  8
0
100
AcDbBlockBegin
  2
*PAPER_SPACE4
 70
     0
 10
0.0
 20
0.0
 30
0.0
  3
*PAPER_SPACE4
  1

  0
CIRCLE
  5
D0
330
CC
100
AcDbEntity
  8
0
  6
CONTINUOUS
 62
     7
100
AcDbCircle
 10
0.0
 20
0.0
 30
0.0
 40
210.0000000000001
  0
CIRCLE
  5
D1
330
CC
100
AcDbEntity
  8
0
  6
CONTINUOUS
 62
     7
100
AcDbCircle
 10
0.0
 20
0.0
 30
0.0
 40
135.898801369021
  0
CIRCLE
  5
D2
330
CC
100
AcDbEntity
  8
0
  6
CONTINUOUS
 62
     7
100
AcDbCircle
 10
0.0
 20
0.0
 30
0.0
 40
152.1123985246396
  0
CIRCLE
  5
D3
330
CC
100
AcDbEntity
  8
0
  6
CONTINUOUS
 62
     7
100
AcDbCircle
 10
0.0
 20
0.0
 30
0.0
 40
59.99999999999999
  0
CIRCLE
  5
D4
330
CC
100
AcDbEntity
  8
0
  6
CONTINUOUS
 62
     7
100
AcDbCircle
 10
0.0
 20
0.0
 30
0.0
 40
23.0
  0
CIRCLE
  5
D5
330
CC
100
AcDbEntity
  8
0
  6
CONTINUOUS
 62
     7
100
AcDbCircle
 10
0.0
 20
0.0
 30
0.0
 40
68.2449071435669
  0
VIEWPORT
  5
12D
330
CC
100
AcDbEntity
  8
0
100
AcDbViewport
 10
0.0
 20
0.0
 30
0.0
 40
205.6
 41
156.0
 68
     1
 69
     1
1001
ACAD
1000
MVIEW
1002
{
1070
    16
1010
0.0
1020
0.0
1030
0.0
1010
0.0
1020
0.0
1030
1.0
1040
0.0
1040
428.4
1040
0.0
1040
0.0
1040
50.0
1040
0.0
1040
0.0
1070
     0
1070
   100
1070
     0
1070
     3
1070
     0
1070
     0
1070
     0
1070
     0
1040
0.0
1040
0.0
1040
0.0
1040
10.0
1040
10.0
1040
10.0
1040
10.0
1070
     0
1002
{
1002
}
1002
}
  0
ENDBLK
  5
CF
330
CC
100
AcDbEntity
  8
0
100
AcDbBlockEnd
  0
BLOCK
  5
D8
330
D6
100
AcDbEntity
  8
0
100
AcDbBlockBegin
  2
*PAPER_SPACE5
 70
     0
 10
0.0
 20
0.0
 30
0.0
  3
*PAPER_SPACE5
  1

  0
SPLINE
  5
DA
330
D6
100
AcDbEntity
  8
0
  6
CONTINUOUS
 62
     7
100
AcDbSpline
210
0.0
220
0.0
230
1.0
 70
     8
 71
     3
 72
    32
 73
    28
 74
     0
 42
0.00000001
 43
0.00000001
 40
0.0
 40
0.0
 40
0.0
 40
0.0
 40
0.0286732326358612
 40
0.0693980154643496
 40
0.1101566632778339
 40
0.1509465128076047
 40
0.1917649807801781
 40
0.2326095593446643
 40
0.2734778114898392
 40
0.314367366467932
 40
0.3552759152274604
 40
0.3962012058694087
 40
0.4371410391262522
 40
0.4780932638726335
 40
0.5190557726667067
 40
0.560026497327299
 40
0.6010034045441845
 40
0.6419844915227632
 40
0.6829677816625837
 40
0.7239513202664725
 40
0.7649331702783152
 40
0.8059114080476281
 40
0.846884119116248
 40
0.8878488985324927
 40
0.9288036955988695
 40
0.969746596775982
 40
0.9999999999999999
 40
0.9999999999999999
 40
0.9999999999999999
 40
0.9999999999999999
 10
151.0597856916547
 20
-50.97780660727081
 30
0.0
 10
152.463506665364
 20
-44.0102249001183
 30
0.0
 10
155.8609418648843
 20
-27.14654059905569
 30
0.0
 10
160.9095923332961
 20
-0.2664272209143559
 30
0.0
 10
166.2541506354241
 20
29.64758030881342
 30
0.0
 10
171.2904050973091
 20
59.67371903532598
 30
0.0
 10
176.0297222135669
 20
89.8004971436552
 30
0.0
 10
180.466269974441
 20
120.0222525859254
 30
0.0
 10
184.5990415905451
 20
150.3317993074957
 30
0.0
 10
188.4259437474655
 20
180.7223987139255
 30
0.0
 10
191.9453782886011
 20
211.1872296028941
 30
0.0
 10
195.1558143367535
 20
241.7195288474874
 30
0.0
 10
198.0558995845826
 20
272.3125520368318
 30
0.0
 10
200.6444272624207
 20
302.9595822583585
 30
0.0
 10
202.9203420086857
 20
333.6539258464564
 30
0.0
 10
204.8827357503332
 20
364.3889115350588
 30
0.0
 10
206.5308458398959
 20
395.1578885530805
 30
0.0
 10
207.8640553992985
 20
425.9542251320713
 30
0.0
 10
208.8818838262587
 20
456.7713060772456
 30
0.0
 10
209.5840157034677
 20
487.6025333895657
 30
0.0
 10
209.9701871963957
 20
518.4413153940325
 30
0.0
 10
210.0406053250663
 20
549.2810986169715
 30
0.0
 10
209.7943807694667
 20
580.1151157640202
 30
0.0
 10
209.2353817909684
 20
610.936942250099
 30
0.0
 10
208.3504131986587
 20
641.7387778204593
 30
0.0
 10
207.2914241422221
 20
669.8428722954354
 30
0.0
 10
206.3854784379307
 20
687.6669935045985
 30
0.0
 10
206.0005154693954
 20
695.2409867138025
 30
0.0
  0
SPLINE
  5
DB
330
D6
100
AcDbEntity
  8
0
  6
CONTINUOUS
 62
     7
100
AcDbSpline
210
0.0
220
0.0
230
1.0
 70
     8
 71
     3
 72
    33
 73
    29
 74
     0
 42
0.00000001
 43
0.00000001
 40
0.0
 40
0.0
 40
0.0
 40
0.0
 40
0.0119382238400903
 40
0.0529186166877098
 40
0.0939012126593713
 40
0.1348840570909213
 40
0.1758652129589713
 40
0.2168427566456028
 40
0.2578147737252449
 40
0.2987788592869056
 40
0.3397329626676373
 40
0.3806751703605974
 40
0.4216035600573764
 40
0.4625161965011103
 40
0.5034111273385278
 40
0.544286378969988
 40
0.5851399523952299
 40
0.625969819053245
 40
0.6667739166555184
 40
0.7075501450085948
 40
0.7482963618310543
 40
0.7890103785622855
 40
0.829689956165698
 40
0.8703328009309121
 40
0.9109365602768156
 40
0.9514988185658882
 40
0.9920170929316211
 40
1.0
 40
1.0
 40
1.0
 40
1.0
 10
-205.9981289071689
 20
695.2440804401411
 30
0.0
 10
-206.1612170793358
 20
692.2562273038451
 30
0.0
 10
-206.8841387287201
 20
679.0119577243242
 30
0.0
 10
-207.8493681698534
 20
655.4852134561398
 30
0.0
 10
-208.8858216690764
 20
624.669689910256
 30
0.0
 10
-209.5829520604551
 20
593.8380461570845
 30
0.0
 10
-209.9705040490232
 20
562.9993724856845
 30
0.0
 10
-210.0404014736126
 20
532.1595723503597
 30
0.0
 10
-209.7948792640297
 20
501.3255145420869
 30
0.0
 10
-209.2335921767142
 20
470.5038675569163
 30
0.0
 10
-208.3570707391419
 20
439.7013548836971
 30
0.0
 10
-207.1657889395291
 20
408.924555410626
 30
0.0
 10
-205.660411152635
 20
378.1800150237295
 30
0.0
 10
-203.8417268334037
 20
347.4742784196943
 30
0.0
 10
-201.7106690078118
 20
316.8138923493831
 30
0.0
 10
-199.2683102849422
 20
286.2054069754214
 30
0.0
 10
-196.5158655907123
 20
255.6553775199511
 30
0.0
 10
-193.454691689878
 20
225.170366323402
 30
0.0
 10
-190.0862940208042
 20
194.7569426040818
 30
0.0
 10
-186.4123086844167
 20
164.4216905745009
 30
0.0
 10
-182.4345775660435
 20
134.171185978377
 30
0.0
 10
-178.1548772576871
 20
104.012089922535
 30
0.0
 10
-173.5759393108349
 20
73.95080498199601
 30
0.0
 10
-168.697658156249
 20
43.99476229425969
 30
0.0
 10
-163.5312352957387
 20
14.14762937641184
 30
0.0
 10
-158.0464820417191
 20
-15.57282739604776
 30
0.0
 10
-153.8859034557665
 20
-37.28211884179372
 30
0.0
 10
-151.4642209452933
 20
-49.05198844100362
 30
0.0
 10
-151.0656313468834
 20
-50.9892149670228
 30
0.0
  0
SPLINE
  5
DC
330
D6
100
AcDbEntity
  8
0
  6
CONTINUOUS
 62
     7
100
AcDbSpline
210
0.0
220
0.0
230
1.0
 70
     8
 71
     3
 72
    65
 73
    61
 74
     0
 42
0.00000001
 43
0.00000001
 40
0.0
 40
0.0
 40
0.0
 40
0.0
 40
0.007131126052134
 40
0.0244338484236358
 40
0.0417560053374512
 40
0.0591016283241414
 40
0.0764732000489474
 40
0.093871672930537
 40
0.1112966286051547
 40
0.1287465346222807
 40
0.1462190489724244
 40
0.1637113272673828
 40
0.1812202984041179
 40
0.1987428882684842
 40
0.2162761839205029
 40
0.2338175405408433
 40
0.2513646394706847
 40
0.2689155083052937
 40
0.2864685141242318
 40
0.3040222964797578
 40
0.3215755744245555
 40
0.3391276319187219
 40
0.3566779486460115
 40
0.3742261662256719
 40
0.3917720582262383
 40
0.4093155042967846
 40
0.4268564683357626
 40
0.4443949803899759
 40
0.4619311218665187
 40
0.4794650136062358
 40
0.4969968063780524
 40
0.5145266733887999
 40
0.5320548044496268
 40
0.549581401489035
 40
0.5671066751498843
 40
0.5846308422500628
 40
0.6021541239235281
 40
0.6196767442893055
 40
0.637198929521183
 40
0.6547209072106728
 40
0.672242905930649
 40
0.6897650976165821
 40
0.707287692896638
 40
0.7248109216455204
 40
0.7423350135559605
 40
0.7598601976033789
 40
0.7773867012631704
 40
0.794914749376918
 40
0.8124445625483181
 40
0.8299763549263892
 40
0.8475103312044501
 40
0.8650466826282281
 40
0.8825855817650511
 40
0.9001271757391368
 40
0.9176715775868212
 40
0.9352188553340391
 40
0.9527690183522985
 40
0.9703220005194684
 40
0.9878776397147601
 40
1.0
 40
1.0
 40
1.0
 40
1.0
 10
204.8201530455002
 20
705.0630121497392
 30
0.0
 10
204.6314094181186
 20
705.9831974483569
 30
0.0
 10
204.2308486983468
 20
708.1959011575843
 30
0.0
 10
203.2173158848053
 20
711.949559578905
 30
0.0
 10
201.7169004063259
 20
716.5908484381056
 30
0.0
 10
199.8873359948793
 20
721.1928743733289
 30
0.0
 10
197.7552044257389
 20
725.7506361872115
 30
0.0
 10
195.3167347749422
 20
730.2566029262057
 30
0.0
 10
192.5770127857188
 20
734.7037895137045
 30
0.0
 10
189.5395051755748
 20
739.0849986267417
 30
0.0
 10
186.2088935739237
 20
743.3931059720813
 30
0.0
 10
182.5903039563921
 20
747.6210666813662
 30
0.0
 10
178.6894803807744
 20
751.7619880448755
 30
0.0
 10
174.5126899438393
 20
755.8091698477914
 30
0.0
 10
170.0666929880449
 20
759.7561366199625
 30
0.0
 10
165.3586956253152
 20
763.5966560912879
 30
0.0
 10
160.3963113884848
 20
767.3247480823893
 30
0.0
 10
155.187527217892
 20
770.9346861860237
 30
0.0
 10
149.7406801999478
 20
774.4209922184583
 30
0.0
 10
144.0644579934372
 20
777.7784189976763
 30
0.0
 10
138.1678505445583
 20
781.0019679814573
 30
0.0
 10
132.0601290838545
 20
784.0868853068533
 30
0.0
 10
125.7508068096512
 20
787.028666472138
 30
0.0
 10
119.2496639864703
 20
789.8230332377592
 30
0.0
 10
112.5667375203628
 20
792.4659331771306
 30
0.0
 10
105.712310378439
 20
794.9535405067238
 30
0.0
 10
98.69690054469885
 20
797.2822579629869
 30
0.0
 10
91.53124931970282
 20
799.448719483351
 30
0.0
 10
84.22630886374087
 20
801.4497934579676
 30
0.0
 10
76.79322894802432
 20
803.282586341858
 30
0.0
 10
69.24334292333334
 20
804.9444464453014
 30
0.0
 10
61.5881529448648
 20
806.4329677492441
 30
0.0
 10
53.83931451012269
 20
807.7459936196816
 30
0.0
 10
46.0086203768462
 20
808.8816203191296
 30
0.0
 10
38.10798393285565
 20
809.8382002339658
 30
0.0
 10
30.14942209111733
 20
810.6143447537448
 30
0.0
 10
22.14503778271232
 20
811.2089267527872
 30
0.0
 10
14.1070021187862
 20
811.6210826358723
 30
0.0
 10
6.047536290082645
 20
811.8502139192042
 30
0.0
 10
-2.021106728193736
 20
811.8959883254237
 30
0.0
 10
-10.08665181293876
 20
811.7583405274765
 30
0.0
 10
-18.13682613666966
 20
811.4374730967204
 30
0.0
 10
-26.15938083853081
 20
810.9338562419626
 30
0.0
 10
-34.14211831640447
 20
810.2482257913276
 30
0.0
 10
-42.07290466351535
 20
809.3815814436344
 30
0.0
 10
-49.93968490302176
 20
808.3351848909817
 30
0.0
 10
-57.73050090179295
 20
807.1105573297215
 30
0.0
 10
-65.43350895434116
 20
805.7094764805646
 30
0.0
 10
-73.03699704744147
 20
804.1339731920618
 30
0.0
 10
-80.52940142031015
 20
802.3863274796212
 30
0.0
 10
-87.89932349769708
 20
800.4690647285445
 30
0.0
 10
-95.13554279858829
 20
798.3849495788347
 30
0.0
 10
-102.2270418466007
 20
796.1369870703074
 30
0.0
 10
-109.1629828660212
 20
793.7283957004271
 30
0.0
 10
-115.9328606591185
 20
791.1626848687883
 30
0.0
 10
-122.5259936569372
 20
788.4433428594405
 30
0.0
 10
-128.9334810993752
 20
785.57497971255
 30
0.0
 10
-135.1409496452897
 20
782.5590411299075
 30
0.0
 10
-140.5349057237247
 20
779.7348214966011
 30
0.0
 10
-143.7976611616008
 20
777.8813924334625
 30
0.0
 10
-145.1303755504701
 20
777.1243355138664
 30
0.0
  0
SPLINE
  5
DD
330
D6
100
AcDbEntity
  8
0
  6
CONTINUOUS
 62
     7
100
AcDbSpline
210
0.0
220
0.0
230
1.0
 70
     8
 71
     3
 72
    25
 73
    21
 74
     0
 42
0.00000001
 43
0.00000001
 40
0.0
 40
0.0
 40
0.0
 40
0.0
 40
0.0308361483339168
 40
0.0893629621341979
 40
0.1478979184470481
 40
0.2064330788059265
 40
0.2649638289425186
 40
0.3234849390202342
 40
0.3819900197418265
 40
0.4404714701534582
 40
0.4989205055032535
 40
0.5573273027242385
 40
0.6156813033111608
 40
0.6739717078694144
 40
0.732188179814658
 40
0.7903217451705433
 40
0.8483658321141381
 40
0.9063173441257312
 40
0.964177616335834
 40
1.0
 40
1.0
 40
1.0
 40
1.0
 10
-145.1303755504701
 20
777.1243355138664
 30
0.0
 10
-146.1332489534479
 20
776.5380924722107
 30
0.0
 10
-149.0395697093748
 20
774.8391638587655
 30
0.0
 10
-153.6770432286821
 20
771.9270999089928
 30
0.0
 10
-158.9588378612036
 20
768.3508675763944
 30
0.0
 10
-163.9943540375737
 20
764.6521474290461
 30
0.0
 10
-168.7791338701741
 20
760.8388296197439
 30
0.0
 10
-173.304403492865
 20
756.9160078265152
 30
0.0
 10
-177.5630298292416
 20
752.8898049571875
 30
0.0
 10
-181.5479049706014
 20
748.7663945078848
 30
0.0
 10
-185.2524154801736
 20
744.5522776208629
 30
0.0
 10
-188.6703538124751
 20
740.2542146575956
 30
0.0
 10
-191.7960331231551
 20
735.8792429184371
 30
0.0
 10
-194.6241866060602
 20
731.4346427539523
 30
0.0
 10
-197.1505515793196
 20
726.9279489077238
 30
0.0
 10
-199.3699370471546
 20
722.3667384868763
 30
0.0
 10
-201.2836204723596
 20
717.7591613316608
 30
0.0
 10
-202.8719398450627
 20
713.1116318522644
 30
0.0
 10
-204.0288746894437
 20
709.0282210071368
 30
0.0
 10
-204.524913604014
 20
706.4855410075127
 30
0.0
 10
-204.7145890155857
 20
705.5132707656869
 30
0.0
  0
SPLINE
  5
DE
330
D6
100
AcDbEntity
  8
0
  6
CONTINUOUS
 62
     7
100
AcDbSpline
210
0.0
220
0.0
230
1.0
 70
     8
 71
     3
 72
    71
 73
    67
 74
     0
 42
0.00000001
 43
0.00000001
 40
0.0
 40
0.0
 40
0.0
 40
0.0
 40
0.0076932941129454
 40
0.023741876916429
 40
0.0397691283545866
 40
0.0557784514585164
 40
0.0717732063224334
 40
0.0877565313181643
 40
0.103731238467029
 40
0.1196997655359843
 40
0.1356641680381689
 40
0.1516261369671412
 40
0.1675870313523625
 40
0.1835477558545541
 40
0.1995090405562858
 40
0.2154715564914541
 40
0.2314357878995177
 40
0.2474020658615925
 40
0.2633705975131609
 40
0.2793414908433332
 40
0.2953147753880326
 40
0.311290419252643
 40
0.3272683429440569
 40
0.3432484304861682
 40
0.3592305382588658
 40
0.3752145019533159
 40
0.3912001419848454
 40
0.4071872676544596
 40
0.4231756803037621
 40
0.4391651756674743
 40
0.4551555455929027
 40
0.4711465792668419
 40
0.4871380640669418
 40
0.5031297861361119
 40
0.5191215307646306
 40
0.5351130179665397
 40
0.5511040251285931
 40
0.5670943366043542
 40
0.5830837370665507
 40
0.5990720120505882
 40
0.6150589487652929
 40
0.6310443372674733
 40
0.6470279721159221
 40
0.6630096546437393
 40
0.6789891960164364
 40
0.6949664212779444
 40
0.710941174627256
 40
0.7269133262147922
 40
0.7428827807985333
 40
0.7588494886526718
 40
0.7748134591711069
 40
0.7907747776459412
 40
0.8067336257134582
 40
0.8226903059254963
 40
0.8386452707914406
 40
0.8545991564000003
 40
0.8705527260108883
 40
0.8865067929876743
 40
0.902462677788969
 40
0.9184220333455326
 40
0.9343868805352996
 40
0.9503596305319811
 40
0.966343083786112
 40
0.9823403922523878
 40
0.9983549687892178
 40
1.0
 40
1.0
 40
1.0
 40
1.0
 10
188.7538491445436
 20
653.8397325684114
 30
0.0
 10
188.3419850532456
 20
653.1584632607083
 30
0.0
 10
187.0709525906441
 20
651.0560332985926
 30
0.0
 10
184.622018733436
 20
647.592962544532
 30
0.0
 10
181.4293737170314
 20
643.4580485144654
 30
0.0
 10
177.93686835642
 20
639.400570234338
 30
0.0
 10
174.1702750499785
 20
635.4228734417501
 30
0.0
 10
170.1296282336002
 20
631.531882756794
 30
0.0
 10
165.8223437146074
 20
627.7332685998297
 30
0.0
 10
161.2543867582012
 20
624.0329920822844
 30
0.0
 10
156.4326548597824
 20
620.4368661232295
 30
0.0
 10
151.3643484909702
 20
616.9506424377532
 30
0.0
 10
146.0571569706912
 20
613.5799674222928
 30
0.0
 10
140.5192007583876
 20
610.33035796127
 30
0.0
 10
134.7590149845171
 20
607.2071648602655
 30
0.0
 10
128.7855088247341
 20
604.2155447137382
 30
0.0
 10
122.6079551508877
 20
601.360449654105
 30
0.0
 10
116.2359907486472
 20
598.6466221419149
 30
0.0
 10
109.6795965354342
 20
596.0785806539903
 30
0.0
 10
102.9490769890042
 20
593.660607357845
 30
0.0
 10
96.05503921575281
 20
591.3967375256243
 30
0.0
 10
89.00837184662613
 20
589.2907504602267
 30
0.0
 10
81.8202239042388
 20
587.346161718018
 30
0.0
 10
74.50198371905643
 20
585.5662164396871
 30
0.0
 10
67.06525793632784
 20
583.9538836286494
 30
0.0
 10
59.52185062951576
 20
582.5118512440484
 30
0.0
 10
51.88374252062999
 20
581.2425220004818
 30
0.0
 10
44.16307029919577
 20
580.1480097884141
 30
0.0
 10
36.37210602762941
 20
579.2301366476484
 30
0.0
 10
28.52323661986803
 20
578.4904302413424
 30
0.0
 10
20.62894338094324
 20
577.9301217902555
 30
0.0
 10
12.70178159716756
 20
577.5501444365506
 30
0.0
 10
4.754360168366237
 20
577.3511320140989
 30
0.0
 10
-3.200678722571154
 20
577.3334182080026
 30
0.0
 10
-11.15066919234976
 20
577.4970358703939
 30
0.0
 10
-19.08295159402847
 20
577.8417159958939
 30
0.0
 10
-26.98489419922431
 20
578.3668879325392
 30
0.0
 10
-34.84392413953928
 20
579.0716813462982
 30
0.0
 10
-42.64753804899203
 20
579.9549271738015
 30
0.0
 10
-50.3833211066226
 20
581.0151589411339
 30
0.0
 10
-58.03896723635037
 20
582.250614506387
 30
0.0
 10
-65.60229931391562
 20
583.6592381888188
 30
0.0
 10
-73.06128939382042
 20
585.2386833041771
 30
0.0
 10
-80.40407897266026
 20
586.9863151341444
 30
0.0
 10
-87.61899930881687
 20
588.8992143687678
 30
0.0
 10
-94.69459182129818
 20
590.9741810748014
 30
0.0
 10
-101.6196285919118
 20
593.2077392607282
 30
0.0
 10
-108.3831329936091
 20
595.5961421315924
 30
0.0
 10
-114.9744004626178
 20
598.1353781541513
 30
0.0
 10
-121.3830194186234
 20
600.8211780859565
 30
0.0
 10
-127.5988923202566
 20
603.6490231595418
 30
0.0
 10
-133.6122567903429
 20
606.6141546585193
 30
0.0
 10
-139.4137067571554
 20
609.7115851569225
 30
0.0
 10
-144.9942132353872
 20
612.936111775012
 30
0.0
 10
-150.3451451739538
 20
616.2823316915136
 30
0.0
 10
-155.4582771743759
 20
619.7446538854523
 30
0.0
 10
-160.3257946669028
 20
623.3173024215902
 30
0.0
 10
-164.940314732516
 20
626.9943567880958
 30
0.0
 10
-169.2949954746031
 20
630.7697722350027
 30
0.0
 10
-173.383235910917
 20
634.6374799653553
 30
0.0
 10
-177.1998668339423
 20
638.5912119390188
 30
0.0
 10
-180.7366272029256
 20
642.6252580386837
 30
0.0
 10
-183.9990269666741
 20
646.7318056802541
 30
0.0
 10
-186.9432658920775
 20
650.9110393996582
 30
0.0
 10
-188.8826507319018
 20
653.8688787868393
 30
0.0
 10
-189.7522966772602
 20
655.4449985175886
 30
0.0
 10
-189.8333061052662
 20
655.591817528864
 30
0.0
  0
LWPOLYLINE
  5
E1
330
D6
100
AcDbEntity
  8
0
  6
CONTINUOUS
 62
     7
100
AcDbPolyline
 90
       15
 70
   128
 43
0.0
 10
107.5597084993
 20
-102.9199386264
 10
112.6306761762
 20
-99.8475104578
 10
117.4385896901
 20
-96.637237247
 10
121.9722199362
 20
-93.2966167359
 10
126.220978411
 20
-89.8334510986
 10
130.1749419422
 20
-86.2558287188
 10
133.8248758649
 20
-82.5721052994
 10
137.1622555891
 20
-78.7908843471
 10
140.17928651
 20
-74.9209970786
 10
142.8689222119
 20
-70.971481795
 10
145.2248809261
 20
-66.9515627722
 10
147.2416602019
 20
-62.8706287174
 10
148.9145497578
 20
-58.7382108412
 10
150.2396424827
 20
-54.5639605969
 10
151.0597856917
 20
-50.9778066073
  0
LWPOLYLINE
  5
E2
330
D6
100
AcDbEntity
  8
0
  6
CONTINUOUS
 62
     7
100
AcDbPolyline
 90
       48
 70
   128
 43
0.0
 10
-151.0656313469
 20
-50.989214967
 10
-150.7707659628
 20
-52.4641917524
 10
-149.6207832823
 20
-56.6557074669
 10
-148.1213543298
 20
-60.8102545964
 10
-146.2759810909
 20
-64.9181300037
 10
-144.0889735205
 20
-68.9697395555
 10
-141.565439476
 20
-72.9556205298
 10
-138.7112727881
 20
-76.8664637169
 10
-135.5331394954
 20
-80.6931351615
 10
-132.0384622754
 20
-84.426697495
 10
-128.2354031087
 20
-88.0584308096
 10
-124.1328442163
 20
-91.5798530239
 10
-119.7403673144
 20
-94.9827396931
 10
-115.0682312365
 20
-98.2591432177
 10
-110.1273479728
 20
-101.4014114055
 10
-104.9292571851
 20
-104.4022053435
 10
-99.4860992553
 20
-107.2545165385
 10
-93.8105869309
 20
-109.9516832855
 10
-87.9159756341
 20
-112.4874062266
 10
-81.8160325025
 20
-114.8557630633
 10
-75.5250042361
 20
-117.0512223886
 10
-69.0575838228
 20
-119.0686566054
 10
-62.4288762226
 20
-120.9033539026
 10
-55.6543630894
 20
-122.5510292598
 10
-48.7498666124
 20
-124.0078344547
 10
-41.7315125632
 20
-125.2703670513
 10
-34.6156926326
 20
-126.3356783463
 10
-27.419026148
 20
-127.2012802558
 10
-20.1583212574
 20
-127.8651511263
 10
-12.8505356734
 20
-128.3257404568
 10
-5.5127370679
 20
-128.5819725194
 10
1.8379367904
 20
-128.6332488724
 10
9.1843180622
 20
-128.4794497574
 10
16.5092489336
 20
-128.1209343794
 10
23.7956216892
 20
-127.5585400677
 10
31.0264186677
 20
-126.7935803202
 10
38.1847520078
 20
-125.8278417359
 10
45.2539030903
 20
-124.663579842
 10
52.2173615853
 20
-123.3035138261
 10
59.0588640128
 20
-121.7508201854
 10
65.7624317268
 20
-120.0091253078
 10
72.3124082345
 20
-118.0824970025
 10
78.6934957621
 20
-115.975434999
 10
84.890790984
 20
-113.6928604384
 10
90.8898198302
 20
-111.2401043792
 10
96.6765712907
 20
-108.622895347
 10
102.2375301394
 20
-105.8473459547
 10
107.5597084993
 20
-102.9199386264
  0
LWPOLYLINE
  5
E5
330
D6
100
AcDbEntity
  8
0
  6
CONTINUOUS
 62
     7
100
AcDbPolyline
 90
       21
 70
   128
 43
0.0
 10
-24.6904264356
 20
610.328272464
 10
-27.0616368538
 20
608.8131418361
 10
-29.1551582578
 20
607.1672985081
 10
-30.9495082847
 20
605.4076310597
 10
-32.4262744753
 20
603.5521960601
 10
-33.57030321
 20
601.6200327833
 10
-34.3698552059
 20
599.630967839
 10
-34.8167259775
 20
597.6054117254
 10
-34.9063300261
 20
595.564149389
 10
-34.6377478927
 20
593.5281269438
 10
-34.0137355937
 20
591.5182367352
 10
-33.0406963395
 20
589.5551029565
 10
-31.7286148296
 20
587.6588700169
 10
-30.0909547959
 20
585.8489958324
 10
-28.1445208465
 20
584.1440521612
 10
-25.9092860275
 20
582.5615340326
 10
-23.4081868731
 20
581.117680224
 10
-20.6668880449
 20
579.8273066294
 10
-17.7135189787
 20
578.703654228
 10
-14.5783852375
 20
577.758253214
 10
-13.8433627081
 20
577.5691813485
  0
LWPOLYLINE
  5
E6
330
D6
100
AcDbEntity
  8
0
  6
CONTINUOUS
 62
     7
100
AcDbPolyline
 90
       37
 70
   128
 43
0.0
 10
13.8621287616
 20
577.5738634944
 10
16.1667019541
 20
578.2080218487
 10
19.2148656541
 20
579.2438780705
 10
22.0658588306
 20
580.452442252
 10
24.6904264356
 20
581.8213128892
 10
27.0616368538
 20
583.3364435171
 10
29.1551582578
 20
584.9822868451
 10
30.9495082847
 20
586.7419542935
 10
32.4262744753
 20
588.5973892931
 10
33.57030321
 20
590.5295525699
 10
34.3698552059
 20
592.5186175142
 10
34.8167259775
 20
594.5441736278
 10
34.9063300261
 20
596.5854359642
 10
34.6377478927
 20
598.6214584094
 10
34.0137355937
 20
600.631348618
 10
33.0406963395
 20
602.5944823967
 10
31.7286148296
 20
604.4907153363
 10
30.0909547959
 20
606.3005895208
 10
28.1445208465
 20
608.005533192
 10
25.9092860275
 20
609.5880513206
 10
23.4081868731
 20
611.0319051292
 10
20.6668880449
 20
612.3222787238
 10
17.7135189787
 20
613.4459311252
 10
14.5783852375
 20
614.3913321392
 10
11.2936575361
 20
615.1487806721
 10
7.8930416256
 20
615.7105042769
 10
4.411432427
 20
616.0707389094
 10
0.8845559621
 20
616.2257880747
 10
-2.6513972439
 20
616.1740607585
 10
-6.1601435264
 20
615.9160877531
 10
-9.6056784002
 20
615.4545162107
 10
-12.9526460151
 20
614.7940824799
 10
-16.1667019541
 20
613.9415635045
 10
-19.2148656541
 20
612.9057072827
 10
-22.0658588306
 20
611.6971431012
 10
-24.6904264356
 20
610.328272464
 10
-24.6904264356
 20
610.328272464
  0
LWPOLYLINE
  5
E7
330
D6
100
AcDbEntity
  8
0
  6
CONTINUOUS
 62
     7
100
AcDbPolyline
 90
       15
 70
   128
 43
0.0
 10
-16.2634559673
 20
597.2980778437
 10
-18.1735652846
 20
596.0473299044
 10
-19.7970666211
 20
594.6682417056
 10
-21.1083563907
 20
593.1825622921
 10
-22.0867547706
 20
591.6137217156
 10
-22.7168318337
 20
589.9864615293
 10
-22.9886508884
 20
588.3264445983
 10
-22.8979251859
 20
586.6598503814
 10
-22.4460855246
 20
585.0129620649
 10
-21.6402576859
 20
583.4117520613
 10
-20.4931500563
 20
581.881472409
 10
-19.0228532083
 20
580.4462565321
 10
-17.2525546015
 20
579.1287386425
 10
-15.2101729024
 20
577.9496967842
 10
-15.1249855841
 20
577.90655575
  0
LWPOLYLINE
  5
E8
330
D6
100
AcDbEntity
  8
0
  6
CONTINUOUS
 62
     7
100
AcDbPolyline
 90
       28
 70
   128
 43
0.0
 10
15.1249855841
 20
577.90655575
 10
16.2634559673
 20
578.5206912718
 10
18.1735652846
 20
579.7714392111
 10
19.7970666211
 20
581.1505274099
 10
21.1083563907
 20
582.6362068234
 10
22.0867547706
 20
584.2050473999
 10
22.7168318337
 20
585.8323075862
 10
22.9886508884
 20
587.4923245171
 10
22.8979251859
 20
589.1589187341
 10
22.4460855246
 20
590.8058070506
 10
21.6402576859
 20
592.4070170542
 10
20.4931500563
 20
593.9372967065
 10
19.0228532083
 20
595.3725125834
 10
17.2525546015
 20
596.690030473
 10
15.2101729024
 20
597.8690723313
 10
12.9279176906
 20
598.8910439637
 10
10.441781494
 20
599.7398282672
 10
7.7909721656
 20
600.4020394062
 10
5.0172945521
 20
600.8672339155
 10
2.1644912063
 20
601.1280753998
 10
-0.7224474588
 20
601.180450233
 10
-3.5979926959
 20
601.0235324328
 10
-6.4167954389
 20
600.6597966866
 10
-9.1344014846
 20
600.0949793244
 10
-11.7079525623
 20
599.3379878534
 10
-14.096862234
 20
598.4007604813
 10
-16.2634559673
 20
597.2980778437
 10
-16.2634559673
 20
597.2980778437
  0
LWPOLYLINE
  5
EA
330
D6
100
AcDbEntity
  8
0
  6
CONTINUOUS
 62
     7
100
AcDbPolyline
 90
       17
 70
   128
 43
0.0
 10
21.3770108328
 20
583.0101396864
 10
20.4931500563
 20
584.1388069639
 10
19.0228532083
 20
585.5740228407
 10
17.2525546015
 20
586.8915407304
 10
15.2101729024
 20
588.0705825886
 10
12.9279176906
 20
589.0925542211
 10
10.441781494
 20
589.9413385246
 10
7.7909721656
 20
590.6035496636
 10
5.0172945521
 20
591.0687441729
 10
2.1644912063
 20
591.3295856572
 10
-0.7224474588
 20
591.3819604904
 10
-3.5979926959
 20
591.2250426902
 10
-6.4167954389
 20
590.861306944
 10
-9.1344014846
 20
590.2964895818
 10
-11.7079525623
 20
589.5394981108
 10
-14.096862234
 20
588.6022707387
 10
-16.2634559673
 20
587.4995881011
  0
LWPOLYLINE
  5
EB
330
D6
100
AcDbEntity
  8
0
  6
CONTINUOUS
 62
     7
100
AcDbPolyline
 90
       75
 70
   128
 43
0.0
 10
-205.8500527805
 20
685.6073524612
 10
-205.4175495652
 20
681.8865434043
 10
-204.5386651138
 20
676.9944141878
 10
-203.3103297841
 20
672.1274310505
 10
-201.7346421665
 20
667.2939091515
 10
-199.8142942967
 20
662.5021064819
 10
-197.5525670569
 20
657.7602097561
 10
-194.9533245701
 20
653.0763204252
 10
-192.0210075986
 20
648.4584408355
 10
-188.7606259567
 20
643.9144605568
 10
-185.1777499517
 20
639.4521429032
 10
-181.2785008672
 20
635.0791116696
 10
-177.0695405049
 20
630.8028381064
 10
-172.5580598028
 20
626.6306281554
 10
-167.7517665502
 20
622.5696099672
 10
-162.6588722184
 20
618.6267217234
 10
-157.288077932
 20
614.8086997822
 10
-151.6485596029
 20
611.1220671702
 10
-145.7499522535
 20
607.5731224373
 10
-139.6023335556
 20
604.1679288961
 10
-133.2162066126
 20
600.9123042626
 10
-126.6024820152
 20
597.8118107169
 10
-119.772459201
 20
594.8717454002
 10
-112.7378071494
 20
592.0971313648
 10
-105.5105444455
 20
589.4927089922
 10
-98.1030187462
 20
587.0629278943
 10
-90.5278856851
 20
584.8119393115
 10
-82.7980872498
 20
582.7435890199
 10
-74.9268296714
 20
580.8614107613
 10
-66.9275608613
 20
579.1686202057
 10
-58.8139474362
 20
577.6681094574
 10
-50.5998513685
 20
576.3624421138
 10
-42.2993063035
 20
575.2538488856
 10
-33.9264935833
 20
574.3442237858
 10
-25.4957180178
 20
573.6351208937
 10
-17.0213834458
 20
573.1277516995
 10
-8.5179681257
 20
572.8229830352
 10
0.0
 20
572.7213355927
 10
8.5179681257
 20
572.8229830352
 10
17.0213834458
 20
573.1277516995
 10
25.4957180178
 20
573.6351208937
 10
33.9264935833
 20
574.3442237858
 10
42.2993063035
 20
575.2538488856
 10
50.5998513685
 20
576.3624421138
 10
58.8139474362
 20
577.6681094574
 10
66.9275608613
 20
579.1686202057
 10
74.9268296714
 20
580.8614107613
 10
82.7980872498
 20
582.7435890199
 10
90.5278856851
 20
584.8119393115
 10
98.1030187462
 20
587.0629278943
 10
105.5105444455
 20
589.4927089922
 10
112.7378071494
 20
592.0971313648
 10
119.772459201
 20
594.8717454002
 10
126.6024820152
 20
597.8118107169
 10
133.2162066126
 20
600.9123042626
 10
139.6023335556
 20
604.1679288961
 10
145.7499522535
 20
607.5731224373
 10
151.6485596029
 20
611.1220671702
 10
157.288077932
 20
614.8086997822
 10
162.6588722184
 20
618.6267217234
 10
167.7517665502
 20
622.5696099672
 10
172.5580598028
 20
626.6306281554
 10
177.0695405049
 20
630.8028381064
 10
181.2785008672
 20
635.0791116696
 10
185.1777499517
 20
639.4521429032
 10
188.7606259567
 20
643.9144605568
 10
192.0210075986
 20
648.4584408355
 10
194.9533245701
 20
653.0763204252
 10
197.5525670569
 20
657.7602097561
 10
199.8142942967
 20
662.5021064819
 10
201.7346421665
 20
667.2939091515
 10
203.3103297841
 20
672.1274310505
 10
204.5386651138
 20
676.9944141878
 10
205.4175495652
 20
681.8865434043
 10
205.8294260488
 20
685.3798370328
  0
LWPOLYLINE
  5
EC
330
D6
100
AcDbEntity
  8
0
  6
CONTINUOUS
 62
     7
100
AcDbPolyline
 90
       24
 70
   128
 43
0.0
 10
-141.6246443528
 20
774.1654003761
 10
-147.431040044
 20
770.6700078857
 10
-152.9787915935
 20
767.0373158951
 10
-158.25816636
 20
763.2736973805
 10
-163.2599025262
 20
759.3857550075
 10
-167.9752253473
 20
755.3803095483
 10
-172.3958625448
 20
751.2643879153
 10
-176.5140588189
 20
747.0452108335
 10
-180.3225894539
 20
742.7301801734
 10
-183.814772993
 20
738.3268659648
 10
-186.9844829596
 20
733.8429931173
 10
-189.8261586053
 20
729.2864278673
 10
-192.3348146655
 20
724.6651639787
 10
-194.506050105
 20
719.9873087187
 10
-196.3360558389
 20
715.2610686349
 10
-197.8216214155
 20
710.4947351585
 10
-198.9601406478
 20
705.6966700578
 10
-199.7496161864
 20
700.8752907697
 10
-200.1886630228
 20
696.0390556315
 10
-200.2765109197
 20
691.1964490431
 10
-200.013005762
 20
686.3559665821
 10
-199.3986098274
 20
681.5261000994
 10
-198.434400975
 20
676.715322822
 10
-197.982709196
 20
674.9169720983
  0
LWPOLYLINE
  5
ED
330
D6
100
AcDbEntity
  8
0
  6
CONTINUOUS
 62
     7
100
AcDbPolyline
 90
       61
 70
   128
 43
0.0
 10
197.9754324295
 20
674.8895433718
 10
198.9601406478
 20
679.1177968677
 10
199.7496161864
 20
683.9391761558
 10
200.1886630228
 20
688.775411294
 10
200.2765109197
 20
693.6180178824
 10
200.013005762
 20
698.4585003434
 10
199.3986098274
 20
703.2883668261
 10
198.434400975
 20
708.0991441035
 10
197.1220707548
 20
712.8823924374
 10
195.46392144
 20
717.629720385
 10
193.4628619879
 20
722.3327995199
 10
191.1224029367
 20
726.9833790431
 10
188.446650247
 20
731.573300258
 10
185.4402980981
 20
736.0945108829
 10
182.1086206534
 20
740.5390791782
 10
178.457462807
 20
744.8992078609
 10
174.4932299307
 20
749.1672477835
 10
170.2228766359
 20
753.3357113539
 10
165.6538945733
 20
757.3972856703
 10
160.7942992901
 20
761.3448453515
 10
155.6526161676
 20
765.1714650362
 10
150.2378654653
 20
768.8704315333
 10
144.5595464958
 20
772.4352555986
 10
138.6276209601
 20
775.8596833194
 10
132.4524954712
 20
779.1377070858
 10
126.0450032976
 20
782.2635761303
 10
119.4163853578
 20
785.2318066163
 10
112.5782705002
 20
788.037191259
 10
105.5426551017
 20
790.6748084605
 10
98.3218820226
 20
793.1400309439
 10
90.9286189524
 20
795.4285338712
 10
83.3758361868
 20
797.5363024308
 10
75.6767838732
 20
799.4596388803
 10
67.8449687656
 20
801.195169034
 10
59.8941305289
 20
802.7398481824
 10
51.8382176351
 20
804.0909664332
 10
43.6913628928
 20
805.2461534661
 10
35.4678586535
 20
806.2033826903
 10
27.1821317381
 20
806.9609748006
 10
18.8487181271
 20
807.517600723
 10
10.4822374597
 20
807.8722839465
 10
2.0973673859
 20
808.0244022361
 10
-6.291182183
 20
807.9736887246
 10
-14.6686948806
 20
807.720232381
 10
-23.0204737029
 20
807.2644778536
 10
-31.331866792
 20
806.6072246907
 10
-39.58829314
 20
805.7496259379
 10
-47.7752681697
 20
804.6931861146
 10
-55.8784291449
 20
803.4397585754
 10
-63.8835603677
 20
801.991542258
 10
-71.7766181179
 20
800.351077826
 10
-79.54375529
 20
798.5212432114
 10
-87.1713456862
 20
796.5052485659
 10
-94.6460079211
 20
794.3066306292
 10
-101.9546288971
 20
791.9292465243
 10
-109.0843868096
 20
789.3772669906
 10
-116.0227736406
 20
786.6551690674
 10
-122.7576171017
 20
783.7677282396
 10
-129.2771019892
 20
780.7200100594
 10
-135.5697909111
 20
777.5173612601
 10
-141.6246443528
 20
774.1654003761
  0
ARC
  5
EE
330
D6
100
AcDbEntity
  8
0
  6
CONTINUOUS
 62
     7
100
AcDbCircle
 10
-136.9624529534
 20
691.6632427474
 30
0.0
 40
69.15327336497444
100
AcDbArc
 50
168.4466580373
 51
185.0239411839
  0
ARC
  5
EF
330
D6
100
AcDbEntity
  8
0
  6
CONTINUOUS
 62
     7
100
AcDbCircle
 10
136.9302843285
 20
691.7144330983
 30
0.0
 40
69.1897307200067
100
AcDbArc
 50
354.7469865695
 51
11.123660099
  0
ARC
  5
F0
330
D6
100
AcDbEntity
  8
0
  6
CONTINUOUS
 62
     7
100
AcDbCircle
 10
-121.8924097668
 20
695.513918734
 30
0.0
 40
78.82872495443435
100
AcDbArc
 50
195.1464611367
 51
210.5916174225
  0
ARC
  5
F1
330
D6
100
AcDbEntity
  8
0
  6
CONTINUOUS
 62
     7
100
AcDbCircle
 10
121.5484723796
 20
695.8261453614
 30
0.0
 40
79.24280109468664
100
AcDbArc
 50
328.0050080513
 51
344.6800876591
  0
ARC
  5
F2
330
D6
100
AcDbEntity
  8
0
  6
CONTINUOUS
 62
     7
100
AcDbCircle
 10
-9.0751394189
 20
574.1550431275
 30
0.0
 40
15.15746599377391
100
AcDbArc
 50
118.3100492416
 51
144.2530175476
  0
VIEWPORT
  5
12F
330
D6
100
AcDbEntity
  8
0
100
AcDbViewport
 10
0.0
 20
0.0
 30
0.0
 40
205.6
 41
156.0
 68
     1
 69
     1
1001
ACAD
1000
MVIEW
1002
{
1070
    16
1010
0.0
1020
0.0
1030
0.0
1010
0.0
1020
0.0
1030
1.0
1040
0.0
1040
428.4
1040
0.0
1040
0.0
1040
50.0
1040
0.0
1040
0.0
1070
     0
1070
   100
1070
     0
1070
     3
1070
     0
1070
     0
1070
     0
1070
     0
1040
0.0
1040
0.0
1040
0.0
1040
10.0
1040
10.0
1040
10.0
1040
10.0
1070
     0
1002
{
1002
}
1002
}
  0
ENDBLK
  5
D9
330
D6
100
AcDbEntity
  8
0
100
AcDbBlockEnd
  0
BLOCK
  5
F5
330
F3
100
AcDbEntity
  8
0
100
AcDbBlockBegin
  2
*PAPER_SPACE6
 70
     0
 10
0.0
 20
0.0
 30
0.0
  3
*PAPER_SPACE6
  1

  0
SPLINE
  5
F7
330
F3
100
AcDbEntity
  8
0
  6
CONTINUOUS
 62
     7
100
AcDbSpline
210
0.0
220
0.0
230
1.0
 70
     8
 71
     3
 72
    32
 73
    28
 74
     0
 42
0.00000001
 43
0.00000001
 40
0.0
 40
0.0
 40
0.0
 40
0.0
 40
0.0407643723765789
 40
0.0817221272447928
 40
0.1227028832358011
 40
0.1637046634669909
 40
0.2047255528847413
 40
0.2457636943570561
 40
0.2868172848217882
 40
0.3278845714909804
 40
0.3689638481158534
 40
0.4100534513057346
 40
0.4511517569088886
 40
0.4922571764457544
 40
0.5333681535983398
 40
0.5744831607491305
 40
0.6156006955685888
 40
0.656719277646261
 40
0.6978374451617597
 40
0.738953751593676
 40
0.7800667624569056
 40
0.8211750520688246
 40
0.8622771302079855
 40
0.9033711757407484
 40
0.9444557695664934
 40
0.9855294876162852
 40
1.0
 40
1.0
 40
1.0
 40
1.0
 10
151.3741144520274
 20
-50.56437789798623
 30
0.0
 10
153.3377013303596
 20
-40.17199396960014
 30
0.0
 10
157.274190165386
 20
-19.33792558442704
 30
0.0
 10
162.8020797367846
 20
12.05065498434621
 30
0.0
 10
168.0585578866209
 20
43.57252925500438
 30
0.0
 10
173.0064547325219
 20
75.18672464655357
 30
0.0
 10
177.6514598819546
 20
106.8850857818769
 30
0.0
 10
181.9899720761969
 20
138.6622457502751
 30
0.0
 10
186.0210465406217
 20
170.5121292351828
 30
0.0
 10
189.7431879883973
 20
202.4288883882144
 30
0.0
 10
193.1552072932282
 20
234.4066500343472
 30
0.0
 10
196.2559888372826
 20
266.4395815118865
 30
0.0
 10
199.0445501234681
 20
298.5218710242905
 30
0.0
 10
201.5200232845343
 20
330.6477308613792
 30
0.0
 10
203.6816576534819
 20
362.8113944395961
 30
0.0
 10
205.5288172735752
 20
395.0071149906929
 30
0.0
 10
207.0609786276906
 20
427.2291636802718
 30
0.0
 10
208.2777335956161
 20
459.4718282280022
 30
0.0
 10
209.1787723174914
 20
491.7294099902643
 30
0.0
 10
209.7639422366799
 20
523.9962266164789
 30
0.0
 10
210.0330235659147
 20
556.2665938963936
 30
0.0
 10
209.9865638059938
 20
588.5348668800995
 30
0.0
 10
209.6227633572872
 20
620.7951225085627
 30
0.0
 10
208.9491047569397
 20
653.0421156978979
 30
0.0
 10
207.93897603517
 20
685.2681160539458
 30
0.0
 10
206.9622648463332
 20
710.5246202866259
 30
0.0
 10
206.2146472324214
 20
725.0295341018034
 30
0.0
 10
206.0198761489811
 20
728.8083880592549
 30
0.0
  0
SPLINE
  5
F8
330
F3
100
AcDbEntity
  8
0
  6
CONTINUOUS
 62
     7
100
AcDbSpline
210
0.0
220
0.0
230
1.0
 70
     8
 71
     3
 72
    32
 73
    28
 74
     0
 42
0.00000001
 43
0.00000001
 40
0.0
 40
0.0
 40
0.0
 40
0.0
 40
0.0265344735150792
 40
0.0676524861495872
 40
0.1087700842280068
 40
0.1498858212485853
 40
0.1909982627458649
 40
0.2321059830574375
 40
0.2732074919820819
 40
0.3143009684117193
 40
0.3553849932652114
 40
0.3964581424934711
 40
0.4375189838997434
 40
0.4785660739627931
 40
0.5195979546518051
 40
0.5606131502289076
 40
0.6016101640346206
 40
0.6425874752530593
 40
0.68354353565223
 40
0.7244767662968582
 40
0.7653855542319826
 40
0.8062682491316754
 40
0.8471231599151186
 40
0.887948551327156
 40
0.9287426404822824
 40
0.9695035933733992
 40
0.9999999999999999
 40
0.9999999999999999
 40
0.9999999999999999
 40
0.9999999999999999
 10
-206.0196474794451
 20
728.8088743684658
 30
0.0
 10
-206.3606521786682
 20
721.8783004726835
 30
0.0
 10
-207.2300802333842
 20
704.2080589950577
 30
0.0
 10
-208.2697707118266
 20
675.7746909440623
 30
0.0
 10
-209.1809104066247
 20
643.5178277274797
 30
0.0
 10
-209.7633524135516
 20
611.2508201582762
 30
0.0
 10
-210.0332449586234
 20
578.9804981444776
 30
0.0
 10
-209.9862680232783
 20
546.712235015442
 30
0.0
 10
-209.6237249028138
 20
514.4518947298079
 30
0.0
 10
-208.9455553821495
 20
482.2052302196687
 30
0.0
 10
-207.9522075081752
 20
449.9780002096093
 30
0.0
 10
-206.6441302224665
 20
417.7758483211617
 30
0.0
 10
-205.0219092192673
 20
385.60442001074
 30
0.0
 10
-203.0862314114526
 20
353.4693617002068
 30
0.0
 10
-200.8378951500064
 20
321.3763231513466
 30
0.0
 10
-198.2778085690376
 20
289.3309588937299
 30
0.0
 10
-195.4069906779186
 20
257.3389300610943
 30
0.0
 10
-192.226574315746
 20
225.405905385863
 30
0.0
 10
-188.7377998974843
 20
193.5375649742442
 30
0.0
 10
-184.9420450812083
 20
161.7395936068207
 30
0.0
 10
-180.8407210367426
 20
130.0177128969154
 30
0.0
 10
-176.4356669377184
 20
98.37756835594224
 30
0.0
 10
-171.7276875845075
 20
66.82515719614673
 30
0.0
 10
-166.7220146252845
 20
35.36523987284163
 30
0.0
 10
-161.4079573893928
 20
4.007267934033443
 30
0.0
 10
-156.3009989569283
 20
-24.64129218807048
 30
0.0
 10
-152.8301752890379
 20
-42.79659186081003
 30
0.0
 10
-151.3447476697489
 20
-50.56661596772333
 30
0.0
  0
SPLINE
  5
F9
330
F3
100
AcDbEntity
  8
0
  6
CONTINUOUS
 62
     7
100
AcDbSpline
210
0.0
220
0.0
230
1.0
 70
     8
 71
     3
 72
    73
 73
    69
 74
     0
 42
0.00000001
 43
0.00000001
 40
0.0
 40
0.0
 40
0.0
 40
0.0
 40
0.0067124491175247
 40
0.0218164545468773
 40
0.0369472807310138
 40
0.0521110563992957
 40
0.0673111918305911
 40
0.0825484589197819
 40
0.0978213656751424
 40
0.1131267139410802
 40
0.1284602190816202
 40
0.1438170891614791
 40
0.1591924969789079
 40
0.1745819170600525
 40
0.1899813308266362
 40
0.2053873220286282
 40
0.2207970918406111
 40
0.2362084221687949
 40
0.2516191793703695
 40
0.2670281959681703
 40
0.282434676274087
 40
0.2978380938900812
 40
0.3132381329870398
 40
0.328634639420118
 40
0.3440275810594395
 40
0.3594170162417968
 40
0.374803069097577
 40
0.390185910537537
 40
0.405565743804528
 40
0.4209427936506107
 40
0.436317298359047
 40
0.4516895039772037
 40
0.4670596602540079
 40
0.4824280178824549
 40
0.4977948267348388
 40
0.5131603348482843
 40
0.5285247879731585
 40
0.5438884295398068
 40
0.5592515009318407
 40
0.5746142419788554
 40
0.5899768915994855
 40
0.6053396573855646
 40
0.620702730184581
 40
0.6360663503668998
 40
0.6514307601940308
 40
0.6667962044906053
 40
0.6821629311888143
 40
0.6975311916723058
 40
0.712901240835504
 40
0.7282733367507186
 40
0.7436477398038278
 40
0.7590247111179089
 40
0.7744045100308625
 40
0.7897873903249373
 40
0.8051735948207371
 40
0.8205633478428966
 40
0.8359568449375928
 40
0.8513542390738373
 40
0.866755622395914
 40
0.882161002426205
 40
0.8975702714722423
 40
0.9129831679174248
 40
0.9283992281530052
 40
0.943817728268864
 40
0.959237615453448
 40
0.9746569230791448
 40
0.9900734460415236
 40
1.0
 40
1.0
 40
1.0
 40
1.0
 10
205.1610571753095
 20
736.3651941008079
 30
0.0
 10
204.978590766831
 20
737.285555207106
 30
0.0
 10
204.6250289064633
 20
739.3188481172502
 30
0.0
 10
203.6933246836528
 20
742.7375015426258
 30
0.0
 10
202.30559129057
 20
746.9098020964108
 30
0.0
 10
200.5884599285661
 20
751.0494046273133
 30
0.0
 10
198.5667587562241
 20
755.1517861440585
 30
0.0
 10
196.2366012913042
 20
759.2101485781761
 30
0.0
 10
193.6026504001595
 20
763.2179986889741
 30
0.0
 10
190.6681934866701
 20
767.1685799705655
 30
0.0
 10
187.4378345539632
 20
771.0551734882124
 30
0.0
 10
183.9167329819838
 20
774.8711587058152
 30
0.0
 10
180.1107299044671
 20
778.6101124451742
 30
0.0
 10
176.0262169630678
 20
782.2658620048627
 30
0.0
 10
171.670073541679
 20
785.8325151831467
 30
0.0
 10
167.0495969528839
 20
789.3044673065405
 30
0.0
 10
162.1724516188233
 20
792.6763939591974
 30
0.0
 10
157.0466788826787
 20
795.9432052028153
 30
0.0
 10
151.6806225554166
 20
799.100069074598
 30
0.0
 10
146.0829072462219
 20
802.1423940724784
 30
0.0
 10
140.2623696444983
 20
805.0658373145425
 30
0.0
 10
134.2281130998723
 20
807.8662546966108
 30
0.0
 10
127.9895068941996
 20
810.5396918878943
 30
0.0
 10
121.5561814184106
 20
813.0823808675344
 30
0.0
 10
114.9380225229084
 20
815.4907390718033
 30
0.0
 10
108.1451646397089
 20
817.7613705605082
 30
0.0
 10
101.1879824985409
 20
819.8910686617941
 30
0.0
 10
94.07708140340469
 20
821.8768196330758
 30
0.0
 10
86.82328612443804
 20
823.7158069594295
 30
0.0
 10
79.43762850889746
 20
825.4054159888524
 30
0.0
 10
71.9313339382495
 20
826.943238671463
 30
0.0
 10
64.31580676534468
 20
828.3270782255402
 30
0.0
 10
56.60261486314881
 20
829.5549535979138
 30
0.0
 10
48.80347340892876
 20
830.625103620951
 30
0.0
 10
40.93022801796894
 20
831.5359907949364
 30
0.0
 10
32.99483733057964
 20
832.286304644556
 30
0.0
 10
25.00935514630734
 20
832.874964612958
 30
0.0
 10
16.98591219049474
 20
833.3011224676239
 30
0.0
 10
8.936697590684647
 20
833.5641642000105
 30
0.0
 10
0.8739401347112874
 20
833.6637114064588
 30
0.0
 10
-7.190105173532996
 20
833.5996221849726
 30
0.0
 10
-15.24317310263673
 20
833.3719921490884
 30
0.0
 10
-23.27301583853092
 20
832.9811547441691
 30
0.0
 10
-31.2674275610374
 20
832.4276799450099
 30
0.0
 10
-39.21426626034126
 20
831.7123719890803
 30
0.0
 10
-47.10146403597317
 20
830.8362677736869
 30
0.0
 10
-54.91704563855201
 20
829.8006344718086
 30
0.0
 10
-62.64914673516464
 20
828.6069666085833
 30
0.0
 10
-70.28603182244947
 20
827.256982605242
 30
0.0
 10
-77.81611170642155
 20
825.752620802419
 30
0.0
 10
-85.22796045894773
 20
824.0960349822606
 30
0.0
 10
-92.51033175005487
 20
822.2895894194811
 30
0.0
 10
-99.65217444357427
 20
820.3358535068526
 30
0.0
 10
-106.6426473276034
 20
818.2375960210043
 30
0.0
 10
-113.4711328461375
 20
815.9977791260728
 30
0.0
 10
-120.1272496510004
 20
813.6195522417394
 30
0.0
 10
-126.6008639096736
 20
811.1062459920136
 30
0.0
 10
-132.8820988295214
 20
808.4613663780456
 30
0.0
 10
-138.9613436334032
 20
805.6885899311468
 30
0.0
 10
-144.8292566714175
 20
802.7917587440089
 30
0.0
 10
-150.4767820067263
 20
799.7748817418276
 30
0.0
 10
-155.8951071630001
 20
796.6421213025797
 30
0.0
 10
-161.075832564136
 20
793.3978467430404
 30
0.0
 10
-166.0103443754505
 20
790.0464545070414
 30
0.0
 10
-170.6921065127187
 20
786.5931180133465
 30
0.0
 10
-175.1079590152012
 20
783.0411833401183
 30
0.0
 10
-178.7770945684992
 20
779.8335140813454
 30
0.0
 10
-180.9076462528961
 20
777.7915414274537
 30
0.0
 10
-181.7421556663559
 20
776.9917272693743
 30
0.0
  0
SPLINE
  5
FA
330
F3
100
AcDbEntity
  8
0
  6
CONTINUOUS
 62
     7
100
AcDbSpline
210
0.0
220
0.0
230
1.0
 70
     8
 71
     3
 72
    18
 73
    14
 74
     0
 42
0.00000001
 43
0.00000001
 40
0.0
 40
0.0
 40
0.0
 40
0.0
 40
0.05313253923915
 40
0.1538049932124721
 40
0.2544129327453813
 40
0.3549014876349187
 40
0.4552378371199914
 40
0.5553890421624423
 40
0.6553251752162581
 40
0.7550232435110472
 40
0.8544714403176709
 40
0.9536730064169961
 40
1.0
 40
1.0
 40
1.0
 40
1.0
 10
-181.7421556663559
 20
776.9917272693743
 30
0.0
 10
-182.4081001143783
 20
776.3317681479404
 30
0.0
 10
-184.3358374816243
 20
774.4213567569882
 30
0.0
 10
-187.3098799661452
 20
771.1978815805635
 30
0.0
 10
-190.5644975479067
 20
767.3016943545765
 30
0.0
 10
-193.5196351826345
 20
763.3368486288908
 30
0.0
 10
-196.1744170768757
 20
759.3120127584741
 30
0.0
 10
-198.5234059540704
 20
755.2340106968875
 30
0.0
 10
-200.5614567842476
 20
751.1102861979612
 30
0.0
 10
-202.2914417035562
 20
746.9488046717827
 30
0.0
 10
-203.6887803371081
 20
742.7556578596731
 30
0.0
 10
-204.632490210352
 20
739.2889248781117
 30
0.0
 10
-204.9921044293022
 20
737.2145246363053
 30
0.0
 10
-205.1065826159209
 20
736.5541681612565
 30
0.0
  0
SPLINE
  5
FB
330
F3
100
AcDbEntity
  8
0
  6
CONTINUOUS
 62
     7
100
AcDbSpline
210
0.0
220
0.0
230
1.0
 70
     8
 71
     3
 72
    73
 73
    69
 74
     0
 42
0.00000001
 43
0.00000001
 40
0.0
 40
0.0
 40
0.0
 40
0.0
 40
0.0028197147331708
 40
0.0182954525347885
 40
0.0337358104409874
 40
0.0491468471828514
 40
0.0645346135474218
 40
0.0799047061012948
 40
0.0952620305301775
 40
0.1106107150077183
 40
0.1259541198417627
 40
0.1412949018184559
 40
0.1566350293847642
 40
0.1719756454458104
 40
0.1873179859493921
 40
0.2026629204871972
 40
0.2180110284066754
 40
0.2333626630074546
 40
0.2487180042382034
 40
0.2640771011170198
 40
0.2794399053390277
 40
0.2948062975389232
 40
0.310176107557922
 40
0.3255491298930802
 40
0.3409251353230711
 40
0.356303879529263
 40
0.371685109374972
 40
0.3870685673723692
 40
0.4024539947555987
 40
0.4178411334884142
 40
0.4332297274621397
 40
0.448619523082498
 40
0.4640102693990038
 40
0.4794017178959448
 40
0.4947936220376801
 40
0.5101857366414071
 40
0.5255777962031477
 40
0.5409694953923245
 40
0.5563605880868197
 40
0.5717508261117292
 40
0.587139958538688
 40
0.6025277311350329
 40
0.6179138860218165
 40
0.63329816162492
 40
0.6486802930271584
 40
0.6640600128603759
 40
0.6794370529173909
 40
0.6948111467157962
 40
0.7101820333121516
 40
0.7255494627483668
 40
0.740913203615148
 40
0.7562730533424341
 40
0.7716288519750348
 40
0.7869805003611123
 40
0.802327983865076
 40
0.8176714028978699
 40
0.8330110117053177
 40
0.8483472669125295
 40
0.863680887195903
 40
0.8790129249967854
 40
0.8943446272473219
 40
0.9096774811153737
 40
0.9250138656962597
 40
0.9403568332600892
 40
0.9557101894065186
 40
0.9710785335780895
 40
0.9864672252516212
 40
1.0
 40
1.0
 40
1.0
 40
1.0
 10
192.0296373381765
 20
697.6215101325172
 30
0.0
 10
191.9018161675642
 20
697.3876688977124
 30
0.0
 10
191.0724605833389
 20
695.8704121476887
 30
0.0
 10
189.2481304612289
 20
693.1062143464421
 30
0.0
 10
186.5454931463662
 20
689.3414272369663
 30
0.0
 10
183.5250658793819
 20
685.6357651579353
 30
0.0
 10
180.2258972940335
 20
681.9905042768568
 30
0.0
 10
176.6432908289378
 20
678.4118558408055
 30
0.0
 10
172.7847006032971
 20
674.9048299999723
 30
0.0
 10
168.654864978295
 20
671.4748590338662
 30
0.0
 10
164.259833202656
 20
668.1273242310128
 30
0.0
 10
159.6059236681781
 20
664.867638444696
 30
0.0
 10
154.7000492184135
 20
661.7011942292587
 30
0.0
 10
149.5495874942273
 20
658.6332951745187
 30
0.0
 10
144.1623764538395
 20
655.6691181132894
 30
0.0
 10
138.546647470383
 20
652.813670539376
 30
0.0
 10
132.7110644223536
 20
650.0718029767037
 30
0.0
 10
126.6647006168264
 20
647.4481882762333
 30
0.0
 10
120.4170152606377
 20
644.9473046444473
 30
0.0
 10
113.9778295705096
 20
642.5734218828036
 30
0.0
 10
107.3573031103532
 20
640.3305902374025
 30
0.0
 10
100.5659105342717
 20
638.2226313492371
 30
0.0
 10
93.61441884096806
 20
636.2531308698389
 30
0.0
 10
86.51386514851426
 20
634.4254323904112
 30
0.0
 10
79.27553495541937
 20
632.7426324061352
 30
0.0
 10
71.9109408288786
 20
631.207576100954
 30
0.0
 10
64.43180145249913
 20
629.8228537903573
 30
0.0
 10
56.85002096611953
 20
628.5907979014966
 30
0.0
 10
49.17766853606645
 20
627.5134804025221
 30
0.0
 10
41.42695810257893
 20
626.5927106179463
 30
0.0
 10
33.6102282604728
 20
625.8300333854789
 30
0.0
 10
25.73992223838113
 20
625.2267275234481
 30
0.0
 10
17.82856795046563
 20
624.7838045877301
 30
0.0
 10
9.88875810197301
 20
624.5020079039207
 30
0.0
 10
1.933130336439437
 20
624.3818118650295
 30
0.0
 10
-6.025648975084231
 20
624.4234214689872
 30
0.0
 10
-13.9748977213807
 20
624.6267715507166
 30
0.0
 10
-21.90194837820763
 20
624.9915261539528
 30
0.0
 10
-29.79417154564482
 20
625.5170791898579
 30
0.0
 10
-37.63900236361472
 20
626.2025561840071
 30
0.0
 10
-45.42394979118837
 20
627.0468147953608
 30
0.0
 10
-53.13661627891337
 20
628.0484458383049
 30
0.0
 10
-60.7647174362832
 20
629.205774540427
 30
0.0
 10
-68.29610170573422
 20
630.5168620370073
 30
0.0
 10
-75.71877006457092
 20
631.9795071070023
 30
0.0
 10
-83.02089578452066
 20
633.5912481612406
 30
0.0
 10
-90.19084428891551
 20
635.3493655024611
 30
0.0
 10
-97.21719315907067
 20
637.2508838897083
 30
0.0
 10
-104.0887523540229
 20
639.2925754578328
 30
0.0
 10
-110.7945847206513
 20
641.4709630679531
 30
0.0
 10
-117.324026883158
 20
643.7823241988476
 30
0.0
 10
-123.6667106093314
 20
646.2226955346235
 30
0.0
 10
-129.8125847544603
 20
648.7878784631394
 30
0.0
 10
-135.7519378701238
 20
651.473445775925
 30
0.0
 10
-141.4754215530214
 20
654.274749952928
 30
0.0
 10
-146.9740744901513
 20
657.1869335360228
 30
0.0
 10
-152.23934728117
 20
660.204942200603
 30
0.0
 10
-157.2631271068564
 20
663.3235413694496
 30
0.0
 10
-162.037764218023
 20
666.5373369901936
 30
0.0
 10
-166.5560681757431
 20
669.8407864989655
 30
0.0
 10
-170.8113328849903
 20
673.2282068997259
 30
0.0
 10
-174.7973139891551
 20
676.6938406653932
 30
0.0
 10
-178.5085610413196
 20
680.2318842708004
 30
0.0
 10
-181.9393121762216
 20
683.8366890045014
 30
0.0
 10
-185.087645198083
 20
687.5023305800552
 30
0.0
 10
-187.939788217762
 20
691.2244229775748
 30
0.0
 10
-190.4230693404534
 20
694.8399793547126
 30
0.0
 10
-191.8055464003085
 20
697.230830554198
 30
0.0
 10
-192.4524275222023
 20
698.3495446009733
 30
0.0
  0
LWPOLYLINE
  5
FE
330
F3
100
AcDbEntity
  8
0
  6
CONTINUOUS
 62
     7
100
AcDbPolyline
 90
       10
 70
   128
 43
0.0
 10
134.530961787
 20
-79.420997799
 10
137.8036344402
 20
-76.0307360755
 10
140.7544603201
 20
-72.5629987424
 10
143.3765476359
 20
-69.0258848609
 10
145.6637723813
 20
-65.4276555244
 10
147.610792637
 20
-61.7767145641
 10
149.2130610468
 20
-58.081588922
 10
150.4668354388
 20
-54.3509087351
 10
151.3691875646
 20
-50.5933871798
 10
151.374114452
 20
-50.564377898
  0
LWPOLYLINE
  5
FF
330
F3
100
AcDbEntity
  8
0
  6
CONTINUOUS
 62
     7
100
AcDbPolyline
 90
       54
 70
   128
 43
0.0
 10
-151.3447476697
 20
-50.5666159677
 10
-150.5648005167
 20
-54.0053719428
 10
-149.3433249588
 20
-57.7388933259
 10
-147.7730511456
 20
-61.4376605456
 10
-145.8576465244
 20
-65.0930349599
 10
-143.6015846113
 20
-68.6964792722
 10
-141.0101345435
 20
-72.2395774715
 10
-138.0893487728
 20
-75.7140544878
 10
-134.8460489295
 20
-79.111795519
 10
-131.2878098909
 20
-82.4248649835
 10
-127.422942089
 20
-85.645525054
 10
-123.2604721017
 20
-88.7662537298
 10
-118.8101215704
 20
-91.7797624043
 10
-114.0822844951
 20
-94.6790128885
 10
-109.0880029583
 20
-97.4572338485
 10
-103.838941336
 20
-100.1079366206
 10
-98.3473590548
 20
-102.6249303655
 10
-92.6260819596
 20
-105.0023365278
 10
-86.6884723581
 20
-107.2346025652
 10
-80.5483978126
 20
-109.3165149169
 10
-74.2201987518
 20
-111.2432111803
 10
-67.7186549778
 20
-113.0101914668
 10
-61.0589511474
 20
-114.6133289122
 10
-54.2566413073
 20
-116.0488793147
 10
-47.3276125675
 20
-117.3134898797
 10
-40.2880479956
 20
-118.4042070508
 10
-33.1543888208
 20
-119.3184834074
 10
-25.9432960348
 20
-120.0541836148
 10
-18.6716114787
 20
-120.609589411
 10
-11.3563185089
 20
-120.98340362
 10
-4.014502331
 20
-121.1747531814
 10
3.3366899031
 20
-121.1831911895
 10
10.6800891434
 20
-121.0086979369
 10
17.9985445405
 20
-120.6516809607
 10
25.274963503
 20
-120.1129740906
 10
32.492351617
 20
-119.3938355014
 10
39.6338523383
 20
-118.4959447746
 10
46.682786361
 20
-117.4213989757
 10
53.6226905731
 20
-116.1727077561
 10
60.4373565068
 20
-114.752787492
 10
67.1108681939
 20
-113.164954473
 10
73.6276393388
 20
-111.4129171567
 10
79.9724497204
 20
-109.5007675074
 10
86.1304807401
 20
-107.4329714393
 10
92.0873500312
 20
-105.2143583858
 10
97.8291450494
 20
-102.8501100205
 10
103.3424555664
 20
-100.3457481551
 10
108.61440499
 20
-97.7071218427
 10
113.6326804381
 20
-94.9403937174
 10
118.3855614958
 20
-92.0520256008
 10
122.8619475892
 20
-89.0487634106
 10
127.0513839111
 20
-85.9376214047
 10
130.944085839
 20
-82.7258657995
 10
134.530961787
 20
-79.420997799
  0
LWPOLYLINE
  5
103
330
F3
100
AcDbEntity
  8
0
  6
CONTINUOUS
 62
     7
100
AcDbPolyline
 90
       28
 70
   128
 43
0.0
 10
34.9142771075
 20
625.977824378
 10
34.9097206865
 20
626.1126017491
 10
34.6558744862
 20
627.9296394398
 10
34.0464121168
 20
629.724127705
 10
33.0875874869
 20
631.4776526667
 10
31.7892394348
 20
633.1722207859
 10
30.1646907683
 20
634.7904435006
 10
28.2306115552
 20
636.3157156559
 10
26.0068480654
 20
637.7323858955
 10
23.5162191216
 20
639.0259172657
 10
20.7842819471
 20
640.1830363841
 10
17.8390699141
 20
641.1918696429
 10
14.7108048838
 20
642.0420650475
 10
11.4315870884
 20
642.7248984427
 10
8.0350657401
 20
643.2333630338
 10
4.5560937441
 20
643.562241286
 10
1.0303700609
 20
643.7081584634
 10
-2.5059266134
 20
643.6696172583
 10
-6.0165090896
 20
643.4470131556
 10
-9.4653540409
 20
643.0426303747
 10
-12.8170716511
 20
642.4606184301
 10
-16.0372687619
 20
641.706949552
 10
-19.0929017933
 20
640.7893574028
 10
-21.9526158154
 20
639.7172577198
 10
-24.5870662927
 20
638.5016516965
 10
-26.9692201982
 20
637.1550130957
 10
-29.0746334092
 20
635.6911602517
 10
-30.8817015372
 20
634.1251142756
  0
LWPOLYLINE
  5
104
330
F3
100
AcDbEntity
  8
0
  6
CONTINUOUS
 62
     7
100
AcDbPolyline
 90
       16
 70
   128
 43
0.0
 10
17.4931528399
 20
624.8514358313
 10
16.4945401715
 20
625.4160227506
 10
14.3555042985
 20
626.4156705965
 10
11.9900735471
 20
627.2693581873
 10
9.4355521734
 20
627.9636223599
 10
6.7322265054
 20
628.4875141535
 10
3.9227296038
 20
628.8327714815
 10
1.051368913
 20
628.9939494297
 10
-1.8365724936
 20
628.9685061254
 10
-4.6955500549
 20
628.7568428248
 10
-7.4804759868
 20
628.3622975847
 10
-10.1474303438
 20
627.7910926191
 10
-12.6543536625
 20
627.0522361715
 10
-14.9617102646
 20
626.1573804495
 10
-17.0331117581
 20
625.1206378625
 10
-17.4670797541
 20
624.8671391208
  0
LWPOLYLINE
  5
105
330
F3
100
AcDbEntity
  8
0
  6
CONTINUOUS
 62
     7
100
AcDbPolyline
 90
       76
 70
   128
 43
0.0
 10
-205.9706101865
 20
722.0664155946
 10
-205.8447949958
 20
720.6290004898
 10
-205.2276898859
 20
716.2525111383
 10
-204.2599567104
 20
711.8928947913
 10
-202.9432488252
 20
707.5575997802
 10
-201.2798158037
 20
703.2540328837
 10
-199.2724995933
 20
698.9895466738
 10
-196.9247296601
 20
694.7714269536
 10
-194.2405171295
 20
690.6068803099
 10
-191.2244479338
 20
686.5030218007
 10
-187.8816749765
 20
682.4668627995
 10
-184.2179093291
 20
678.5052990162
 10
-180.2394104738
 20
674.6250987162
 10
-175.9529756092
 20
670.8328911564
 10
-171.3659280373
 20
667.13515526
 10
-166.4861046519
 20
663.5382085466
 10
-161.3218425495
 20
660.0481963395
 10
-155.8819647852
 20
656.6710812658
 10
-150.1757652989
 20
653.4126330702
 10
-144.2129930367
 20
650.2784187565
 10
-138.003835295
 20
647.2737930775
 10
-131.5589003157
 20
644.4038893857
 10
-124.8891991621
 20
641.6736108634
 10
-118.0061269067
 20
639.0876221457
 10
-110.9214431629
 20
636.6503413509
 10
-103.6472519942
 20
634.3659325324
 10
-96.195981234
 20
632.2382985643
 10
-88.5803612536
 20
630.2710744735
 10
-80.8134032119
 20
628.4676212295
 10
-72.9083768264
 20
626.8310200018
 10
-64.8787877021
 20
625.3640668962
 10
-56.7383542573
 20
624.0692681774
 10
-48.5009842861
 20
622.9488359874
 10
-40.1807511968
 20
622.0046845657
 10
-31.791869968
 20
621.2384269793
 10
-23.3486728628
 20
620.6513723662
 10
-14.8655849416
 20
620.2445236996
 10
-6.3570994179
 20
620.0185760735
 10
2.1622471035
 20
619.9739155157
 10
10.677899462
 20
620.1106183279
 10
19.1753088084
 20
620.4284509558
 10
27.6399574614
 20
620.9268703875
 10
36.0573837107
 20
621.6050250819
 10
44.4132065247
 20
622.461756423
 10
52.6931501205
 20
623.4956006998
 10
60.8830683531
 20
624.7047916065
 10
68.9689688848
 20
626.0872632609
 10
76.93703709
 20
627.6406537333
 10
84.773659658
 20
629.3623090821
 10
92.4654478505
 20
631.249287888
 10
99.9992603764
 20
633.2983662795
 10
107.3622258434
 20
635.5060434404
 10
114.5417647485
 20
637.8685475913
 10
121.5256109699
 20
640.3818424336
 10
128.3018327236
 20
643.0416340452
 10
134.8588529482
 20
645.8433782167
 10
141.1854690848
 20
648.7822882152
 10
147.2708722157
 20
651.8533429622
 10
153.1046655319
 20
655.0512956123
 10
158.6768820953
 20
658.3706825169
 10
163.9780018674
 20
661.8058325593
 10
168.998967974
 20
665.3508768432
 10
173.7312021787
 20
668.99975872
 10
178.1666195387
 20
672.746244136
 10
182.2976422179
 20
676.583932284
 10
186.1172124334
 20
680.5062665379
 10
189.6188045134
 20
684.5065456557
 10
192.7964360467
 20
688.5779352274
 10
195.6446781032
 20
692.7134793522
 10
198.1586645089
 20
696.9061125226
 10
200.3341001604
 20
701.1486716949
 10
202.1672683622
 20
705.433908528
 10
203.6550371774
 20
709.7545017667
 10
204.7948647777
 20
714.1030697499
 10
205.584803787
 20
718.4721830221
 10
205.9782733887
 20
722.1708319644
  0
LWPOLYLINE
  5
106
330
F3
100
AcDbEntity
  8
0
  6
CONTINUOUS
 62
     7
100
AcDbPolyline
 90
       16
 70
   128
 43
0.0
 10
-177.1378881865
 20
774.9998143902
 10
-180.8967615856
 20
771.1371540914
 10
-184.3382805957
 20
767.196812289
 10
-187.456407623
 20
763.1857016817
 10
-190.2456724133
 20
759.1108591202
 10
-192.7011816483
 20
754.9794332633
 10
-194.8186275303
 20
750.7986720356
 10
-196.5942953399
 20
746.575909913
 10
-198.0250699522
 20
742.3185550552
 10
-199.1084413024
 20
738.0340763092
 10
-199.8425087891
 20
733.7299901067
 10
-200.2259846085
 20
729.4138472774
 10
-200.2581960136
 20
725.0932198024
 10
-199.9390864947
 20
720.7756875304
 10
-199.2692158783
 20
716.4688248803
 10
-198.6207286786
 20
713.5770785767
  0
LWPOLYLINE
  5
107
330
F3
100
AcDbEntity
  8
0
  6
CONTINUOUS
 62
     7
100
AcDbPolyline
 90
       68
 70
   128
 43
0.0
 10
198.624296072
 20
713.5912390197
 10
199.1084413024
 20
715.6809876647
 10
199.8425087891
 20
719.9850738672
 10
200.2259846085
 20
724.3012166965
 10
200.2581960136
 20
728.6218441715
 10
199.9390864947
 20
732.9393764435
 10
199.2692158783
 20
737.2462390936
 10
198.2497593452
 20
741.5348764213
 10
196.8825053684
 20
745.7977646995
 10
195.1698525761
 20
750.0274253736
 10
193.1148055432
 20
754.2164381815
 10
190.7209695206
 20
758.3574541714
 10
187.9925441099
 20
762.4432085939
 10
184.9343158967
 20
766.4665336477
 10
181.5516500522
 20
770.4203710532
 10
177.8504809219
 20
774.2977844363
 10
173.837301614
 20
778.0919714963
 10
169.5191526088
 20
781.7962759398
 10
164.9036094069
 20
785.4041991581
 10
159.9987692395
 20
788.9094116279
 10
154.8132368629
 20
792.3057640155
 10
149.356109463
 20
795.5872979646
 10
143.6369606955
 20
798.7482565496
 10
137.6658238908
 20
801.7830943752
 10
131.4531744518
 20
804.6864873044
 10
125.0099114767
 20
807.4533417995
 10
118.3473386383
 20
810.0788038576
 10
111.4771443532
 20
812.5582675261
 10
104.4113812767
 20
814.8873829831
 10
97.1624451582
 20
817.0620641687
 10
89.7430530949
 20
819.0784959532
 10
82.1662212216
 20
820.9331408299
 10
74.4452418759
 20
822.6227451217
 10
66.5936602794
 20
824.1443446884
 10
58.6252507741
 20
825.4952701273
 10
50.5539926579
 20
826.6731514562
 10
42.3940456602
 20
827.675922271
 10
34.1597251008
 20
828.5018233708
 10
25.8654767761
 20
829.1494058447
 10
17.5258516159
 20
829.6175336128
 10
9.1554801567
 20
829.9053854199
 10
0.7690468743
 20
830.0124562763
 10
-7.6187355777
 20
829.9385583431
 10
-15.9931521787
 20
829.6838212626
 10
-24.3395113562
 20
829.24869193
 10
-32.6431707601
 20
828.6339337102
 10
-40.8895629504
 20
827.8406250979
 10
-49.0642209528
 20
826.870157826
 10
-57.1528036396
 20
825.7242344238
 10
-65.1411208881
 20
824.4048652304
 10
-73.0151584755
 20
822.9143648678
 10
-80.7611026642
 20
821.2553481799
 10
-88.365364436
 20
819.4307256458
 10
-95.8146033318
 20
817.4436982735
 10
-103.0957508554
 20
815.2977519841
 10
-110.1960333998
 20
812.9966514966
 10
-117.1029946568
 20
810.5444337233
 10
-123.8045174692
 20
807.9454006873
 10
-130.288845089
 20
805.2041119758
 10
-136.544601802
 20
802.3253767406
 10
-142.5608128853
 20
799.3142452616
 10
-148.3269238604
 20
796.1760000865
 10
-153.8328190091
 20
792.9161467638
 10
-159.0688391206
 20
789.540404184
 10
-164.0257984362
 20
786.0546945465
 10
-168.6950007651
 20
782.4651329705
 10
-173.0682547397
 20
778.7780167669
 10
-177.1378881865
 20
774.9998143902
  0
ARC
  5
108
330
F3
100
AcDbEntity
  8
0
  6
CONTINUOUS
 62
     7
100
AcDbCircle
 10
-151.0310593551
 20
726.0595451113
 30
0.0
 40
55.08447448143206
100
AcDbArc
 50
169.0169429061
 51
184.1570755694
  0
ARC
  5
109
330
F3
100
AcDbEntity
  8
0
  6
CONTINUOUS
 62
     7
100
AcDbCircle
 10
150.9351508508
 20
726.1225239591
 30
0.0
 40
55.18479145874704
100
AcDbArc
 50
355.8936291052
 51
10.6965096616
  0
ARC
  5
10A
330
F3
100
AcDbEntity
  8
0
  6
CONTINUOUS
 62
     7
100
AcDbCircle
 10
-137.5448440255
 20
729.3241821788
 30
0.0
 40
63.07325073287925
100
AcDbArc
 50
194.4576148849
 51
209.6507636152
  0
ARC
  5
10B
330
F3
100
AcDbEntity
  8
0
  6
CONTINUOUS
 62
     7
100
AcDbCircle
 10
137.5284911512
 20
729.474107354
 30
0.0
 40
63.12656243966173
100
AcDbArc
 50
329.6963177898
 51
345.4275766255
  0
ARC
  5
10C
330
F3
100
AcDbEntity
  8
0
  6
CONTINUOUS
 62
     7
100
AcDbCircle
 10
-23.1086575882
 20
625.2061780333
 30
0.0
 40
11.83079185546879
100
AcDbArc
 50
131.0728478899
 51
176.2627153801
  0
VIEWPORT
  5
131
330
F3
100
AcDbEntity
  8
0
100
AcDbViewport
 10
0.0
 20
0.0
 30
0.0
 40
205.6
 41
156.0
 68
     1
 69
     1
1001
ACAD
1000
MVIEW
1002
{
1070
    16
1010
0.0
1020
0.0
1030
0.0
1010
0.0
1020
0.0
1030
1.0
1040
0.0
1040
428.4
1040
0.0
1040
0.0
1040
50.0
1040
0.0
1040
0.0
1070
     0
1070
   100
1070
     0
1070
     3
1070
     0
1070
     0
1070
     0
1070
     0
1040
0.0
1040
0.0
1040
0.0
1040
10.0
1040
10.0
1040
10.0
1040
10.0
1070
     0
1002
{
1002
}
1002
}
  0
ENDBLK
  5
F6
330
F3
100
AcDbEntity
  8
0
100
AcDbBlockEnd
  0
BLOCK
  5
10F
330
10D
100
AcDbEntity
  8
0
100
AcDbBlockBegin
  2
*PAPER_SPACE7
 70
     0
 10
0.0
 20
0.0
 30
0.0
  3
*PAPER_SPACE7
  1

  0
SPLINE
  5
111
330
10D
100
AcDbEntity
  8
0
  6
CONTINUOUS
 62
     7
100
AcDbSpline
210
0.0
220
0.0
230
1.0
 70
     8
 71
     3
 72
    32
 73
    28
 74
     0
 42
0.00000001
 43
0.00000001
 40
0.0
 40
0.0
 40
0.0
 40
0.0
 40
0.0168553559755868
 40
0.0582022555839483
 40
0.099554053857431
 40
0.1409100142259601
 40
0.1822694256664276
 40
0.2236316008786115
 40
0.2649958745276039
 40
0.3063616015481193
 40
0.3477281555089149
 40
0.3890949270312974
 40
0.4304613222565151
 40
0.4718267613617559
 40
0.5131906771172201
 40
0.5545525134824447
 40
0.5959117242376076
 40
0.6372677716462396
 40
0.6786201251449819
 40
0.7199682600580467
 40
0.7613116563310067
 40
0.8026497972835276
 40
0.8439821683739762
 40
0.8853081361292202
 40
0.9266271341856317
 40
0.9679386466158526
 40
0.9999999999999999
 40
0.9999999999999999
 40
0.9999999999999999
 40
0.9999999999999999
 10
151.8178068995343
 20
-50.08043492554886
 30
0.0
 10
152.6462357435541
 20
-45.37023594299033
 30
0.0
 10
155.5068355067745
 20
-29.10572005669321
 30
0.0
 10
160.0754588413629
 20
-1.217519300826309
 30
0.0
 10
165.5293492075956
 20
33.57964183354867
 30
0.0
 10
170.6539435048928
 20
68.44160182969966
 30
0.0
 10
175.4725615483682
 20
103.359225556725
 30
0.0
 10
179.9779988739219
 20
138.3298956568942
 30
0.0
 10
184.1713110775207
 20
173.3492700525742
 30
0.0
 10
188.0514186519465
 20
208.4134895181586
 30
0.0
 10
191.617891218264
 20
243.5185848370529
 30
0.0
 10
194.8702001047702
 20
278.6606344290397
 30
0.0
 10
197.8079174096732
 20
313.8357208981436
 30
0.0
 10
200.4306615596014
 20
349.0399414858786
 30
0.0
 10
202.7381108545323
 20
384.2694040997218
 30
0.0
 10
204.7299990671121
 20
419.5202272358677
 30
0.0
 10
206.4061153120365
 20
454.7885388441439
 30
0.0
 10
207.766305242964
 20
490.0704756186057
 30
0.0
 10
208.810463121935
 20
525.3621817242412
 30
0.0
 10
209.5385595084187
 20
560.6598094270959
 30
0.0
 10
209.9505360495416
 20
595.9595127414244
 30
0.0
 10
210.0466965914912
 20
631.2574671611826
 30
0.0
 10
209.826246868703
 20
666.54975799473
 30
0.0
 10
209.2927446316407
 20
701.8326850487554
 30
0.0
 10
208.4337693574162
 20
737.1017084352584
 30
0.0
 10
207.3815652637694
 20
769.726482358974
 30
0.0
 10
206.4697080819321
 20
790.5865154908483
 30
0.0
 10
206.0712586685382
 20
799.7016139188976
 30
0.0
  0
SPLINE
  5
112
330
10D
100
AcDbEntity
  8
0
  6
CONTINUOUS
 62
     7
100
AcDbSpline
210
0.0
220
0.0
230
1.0
 70
     8
 71
     3
 72
    33
 73
    29
 74
     0
 42
0.00000001
 43
0.00000001
 40
0.0
 40
0.0
 40
0.0
 40
0.0
 40
0.0068259240806479
 40
0.0481821953522766
 40
0.0895347726939793
 40
0.1308831314269453
 40
0.1722267514943743
 40
0.2135651162129494
 40
0.2548977110382312
 40
0.2962239024935225
 40
0.33754312421233
 40
0.3788548602644477
 40
0.4201585915854485
 40
0.4614537947583129
 40
0.5027399407869227
 40
0.5440164938576281
 40
0.5852829100866886
 40
0.626538636250739
 40
0.6677831084960516
 40
0.7090157510227594
 40
0.7502359747426869
 40
0.7914431759049136
 40
0.8326367346879124
 40
0.8738160137524479
 40
0.9149803567545872
 40
0.9561290868120201
 40
0.9972615049231958
 40
0.9999999999999999
 40
0.9999999999999999
 40
0.9999999999999999
 40
0.9999999999999999
 10
-206.0768982890008
 20
799.7009016561124
 30
0.0
 10
-206.1702017286317
 20
797.760766741972
 30
0.0
 10
-206.8288033336632
 20
784.0659236205978
 30
0.0
 10
-207.748050292095
 20
758.600984988743
 30
0.0
 10
-208.8153559345886
 20
723.3105685060798
 30
0.0
 10
-209.5372407411321
 20
688.0125958323682
 30
0.0
 10
-209.9509190480968
 20
652.7129829581896
 30
0.0
 10
-210.0464831633836
 20
617.4150116931997
 30
0.0
 10
-209.8267175582249
 20
582.1226978221565
 30
0.0
 10
-209.291075653275
 20
546.8398797341295
 30
0.0
 10
-208.4399730880654
 20
511.5704436206429
 30
0.0
 10
-207.273636100665
 20
476.3182261855953
 30
0.0
 10
-205.7924090982653
 20
441.0870519328324
 30
0.0
 10
-203.9966725047364
 20
405.8807442762541
 30
0.0
 10
-201.8868651339975
 20
370.7031275725921
 30
0.0
 10
-199.4634784340453
 20
335.5580276303842
 30
0.0
 10
-196.7270589320248
 20
300.4492725063499
 30
0.0
 10
-193.6782064113608
 20
265.380693694335
 30
0.0
 10
-190.3175813771516
 20
230.3561254822855
 30
0.0
 10
-186.6458800728603
 20
195.379411273911
 30
0.0
 10
-182.6639303868126
 20
160.4543839321754
 30
0.0
 10
-178.3723372782156
 20
125.5849430743061
 30
0.0
 10
-173.7728089400434
 20
90.77477074799222
 30
0.0
 10
-168.8632138626989
 20
56.02839606124977
 30
0.0
 10
-163.6560226688995
 20
21.34722811945922
 30
0.0
 10
-158.1095247758394
 20
-13.25564269377788
 30
0.0
 10
-154.1649322386328
 20
-37.06388246335857
 30
0.0
 10
-151.9824790731931
 20
-49.31775452246334
 30
0.0
 10
-151.8462467312014
 20
-50.08266151589336
 30
0.0
  0
SPLINE
  5
113
330
10D
100
AcDbEntity
  8
0
  6
CONTINUOUS
 62
     7
100
AcDbSpline
210
0.0
220
0.0
230
1.0
 70
     8
 71
     3
 72
    77
 73
    73
 74
     0
 42
0.00000001
 43
0.00000001
 40
0.0
 40
0.0
 40
0.0
 40
0.0
 40
0.0084107533464901
 40
0.0221939793108278
 40
0.0360860034947306
 40
0.0501182569233695
 40
0.0642997986316546
 40
0.0786196219999587
 40
0.0930531496385012
 40
0.1075702214485541
 40
0.1221417746703729
 40
0.1367437434153443
 40
0.1513582934449867
 40
0.1659714458455567
 40
0.180575903702799
 40
0.195168290835598
 40
0.2097471384901324
 40
0.2243121682573376
 40
0.2388638035940967
 40
0.2534028511339977
 40
0.2679302999134575
 40
0.282447199133491
 40
0.2969545867439294
 40
0.3114534501816083
 40
0.3259447070275917
 40
0.3404291977147724
 40
0.3549076852989407
 40
0.3693808591752247
 40
0.3838493408194524
 40
0.398313690394577
 40
0.4127744135414719
 40
0.4272319679726932
 40
0.4416867696726738
 40
0.4561391986203873
 40
0.4705896040175828
 40
0.4850383090444042
 40
0.4994856151854065
 40
0.5139318061796764
 40
0.5283771516531482
 40
0.5428219104922563
 40
0.5572663340173126
 40
0.5717106690126424
 40
0.5861551140604893
 40
0.6005998800934215
 40
0.6150452163260804
 40
0.6294913782207205
 40
0.6439386305743885
 40
0.658387250780319
 40
0.6728375323176208
 40
0.6872897885294694
 40
0.7017443567509847
 40
0.7162016028470657
 40
0.7306619262157409
 40
0.7451257653013301
 40
0.7595936036389034
 40
0.7740659764101679
 40
0.7885434774190702
 40
0.8030267662750571
 40
0.8175165753743604
 40
0.8320137159503249
 40
0.846519081952945
 40
0.8610336497081241
 40
0.8755584700339952
 40
0.8900946475076866
 40
0.9046432985210019
 40
0.9192054751395362
 40
0.9337820349694413
 40
0.9483734276507906
 40
0.9629793561757486
 40
0.9775982577334047
 40
0.9922265406812263
 40
1.0
 40
1.0
 40
1.0
 40
1.0
 10
205.788742828038
 20
802.5807074703043
 30
0.0
 10
205.6211723589255
 20
803.4850189341533
 30
0.0
 10
205.3695080398681
 20
805.009487955103
 30
0.0
 10
204.6097954248684
 20
807.4591111510487
 30
0.0
 10
203.4755613517034
 20
810.2556982664233
 30
0.0
 10
202.0127848989025
 20
813.0329243491113
 30
0.0
 10
200.2373191994751
 20
815.7889285572996
 30
0.0
 10
198.1443776276276
 20
818.5184261027518
 30
0.0
 10
195.7374757433638
 20
821.2152708517963
 30
0.0
 10
193.0207850455738
 20
823.8728210472987
 30
0.0
 10
190.0006716254899
 20
826.4848574163311
 30
0.0
 10
186.6843993377134
 20
829.045982452918
 30
0.0
 10
183.0798253780894
 20
831.5516159881765
 30
0.0
 10
179.1948701632571
 20
833.9979956177657
 30
0.0
 10
175.0373143989361
 20
836.3819979117226
 30
0.0
 10
170.6145879988608
 20
838.7010072478633
 30
0.0
 10
165.9340298051562
 20
840.9526223641277
 30
0.0
 10
161.0030689775587
 20
843.1345123357088
 30
0.0
 10
155.8293029542046
 20
845.2443702703964
 30
0.0
 10
150.4205566935541
 20
847.2798943249926
 30
0.0
 10
144.7849238158696
 20
849.2387855469377
 30
0.0
 10
138.9307924685287
 20
851.1187552160193
 30
0.0
 10
132.8668592050886
 20
852.9175369654151
 30
0.0
 10
126.6021338161067
 20
854.6329008134472
 30
0.0
 10
120.1459374810436
 20
856.2626674574077
 30
0.0
 10
113.5078960477059
 20
857.8047219436207
 30
0.0
 10
106.69792977443
 20
859.2570262858445
 30
0.0
 10
99.72624050376962
 20
860.6176308683587
 30
0.0
 10
92.60329696332337
 20
861.8846846153032
 30
0.0
 10
85.33981869071928
 20
863.0564439821076
 30
0.0
 10
77.94675893756846
 20
864.1312808578728
 30
0.0
 10
70.43528680640148
 20
865.1076894775618
 30
0.0
 10
62.81676880362011
 20
865.9842924405057
 30
0.0
 10
55.1027499417691
 20
866.7598459234205
 30
0.0
 10
47.30493448970356
 20
867.4332441653174
 30
0.0
 10
39.43516644507289
 20
868.0035232903818
 30
0.0
 10
31.50540978678186
 20
868.4698645240751
 30
0.0
 10
23.52772855349654
 20
868.8315968477456
 30
0.0
 10
15.51426678636458
 20
869.0881991281598
 30
0.0
 10
7.477228368382917
 20
869.2393017504321
 30
0.0
 10
-0.5711432097804808
 20
869.2846877757966
 30
0.0
 10
-8.618576478494248
 20
869.2242937041726
 30
0.0
 10
-16.6527944114058
 20
869.058210303992
 30
0.0
 10
-24.66154132295989
 20
868.7866826706914
 30
0.0
 10
-32.63261175889193
 20
868.4101090190585
 30
0.0
 10
-40.55386843940995
 20
867.9290391512159
 30
0.0
 10
-48.41325593407435
 20
867.3441730428007
 30
0.0
 10
-56.19882073226104
 20
866.6563588066449
 30
0.0
 10
-63.89873119484815
 20
865.8665901411557
 30
0.0
 10
-71.50129735788727
 20
864.9760032280043
 30
0.0
 10
-78.99499055676368
 20
863.9858730336075
 30
0.0
 10
-86.36846283345119
 20
862.8976089570046
 30
0.0
 10
-93.61056608095808
 20
861.7127497525775
 30
0.0
 10
-100.7103708662942
 20
860.4329576393802
 30
0.0
 10
-107.6571848546336
 20
859.0600114892753
 30
0.0
 10
-114.4405707297907
 20
857.5957989636079
 30
0.0
 10
-121.0503634669262
 20
856.0423074433515
 30
0.0
 10
-127.4766867534178
 20
854.4016135712039
 30
0.0
 10
-133.7099682790447
 20
852.6758712015993
 30
0.0
 10
-139.7409534655102
 20
850.867297532666
 30
0.0
 10
-145.5607171524961
 20
848.9781572195459
 30
0.0
 10
-151.1606720757971
 20
847.010744229716
 30
0.0
 10
-156.5325742794923
 20
844.9673616277331
 30
0.0
 10
-161.668519000372
 20
842.850298586116
 30
0.0
 10
-166.5609428962711
 20
840.6618087047077
 30
0.0
 10
-171.2025619786389
 20
838.4040785969261
 30
0.0
 10
-175.5864941723622
 20
836.0792371455294
 30
0.0
 10
-179.7056171141182
 20
833.6892345767152
 30
0.0
 10
-183.5546876390904
 20
831.2362610440746
 30
0.0
 10
-187.1220226392221
 20
828.7212536462615
 30
0.0
 10
-189.9046229193814
 20
826.5516232786781
 30
0.0
 10
-191.4524887379596
 20
825.2123912586446
 30
0.0
 10
-191.9896019601567
 20
824.7476744744661
 30
0.0
  0
SPLINE
  5
114
330
10D
100
AcDbEntity
  8
0
  6
CONTINUOUS
 62
     7
100
AcDbSpline
210
0.0
220
0.0
230
1.0
 70
     8
 71
     3
 72
    16
 73
    12
 74
     0
 42
0.00000001
 43
0.00000001
 40
0.0
 40
0.0
 40
0.0
 40
0.0
 40
0.0677951204633316
 40
0.1973101357986114
 40
0.3265835057060322
 40
0.4553279020211418
 40
0.5832658762337337
 40
0.7101158259517235
 40
0.835662244269486
 40
0.9598363594684955
 40
1.0
 40
1.0
 40
1.0
 40
1.0
 10
-191.9896019601567
 20
824.7476744744661
 30
0.0
 10
-192.5016664468263
 20
824.2873839668331
 30
0.0
 10
-193.9919730162655
 20
822.9477597881724
 30
0.0
 10
-196.2339300078908
 20
820.6875246535235
 30
0.0
 10
-198.6082963860181
 20
817.9527469408912
 30
0.0
 10
-200.6648539552053
 20
815.1734464361823
 30
0.0
 10
-202.3993857063001
 20
812.3582966756688
 30
0.0
 10
-203.813572362942
 20
809.5165814003002
 30
0.0
 10
-204.8756995670022
 20
806.6565667918733
 30
0.0
 10
-205.5126699457617
 20
804.4304508526938
 30
0.0
 10
-205.6867423481316
 20
803.15517905298
 30
0.0
 10
-205.7292851062712
 20
802.8435065592431
 30
0.0
  0
SPLINE
  5
115
330
10D
100
AcDbEntity
  8
0
  6
CONTINUOUS
 62
     7
100
AcDbSpline
210
0.0
220
0.0
230
1.0
 70
     8
 71
     3
 72
    80
 73
    76
 74
     0
 42
0.00000001
 43
0.00000001
 40
0.0
 40
0.0
 40
0.0
 40
0.0
 40
0.0002439842591074
 40
0.0145785129472614
 40
0.0287397849042855
 40
0.042777771046231
 40
0.0567361867112448
 40
0.0706484663233321
 40
0.0845382608465607
 40
0.098421370963215
 40
0.1123057078192804
 40
0.1261976924820561
 40
0.1401013200428793
 40
0.1540185138268627
 40
0.1679498768533553
 40
0.1818952036862888
 40
0.1958538207435723
 40
0.2098248074434908
 40
0.2238071363867438
 40
0.2377997595171045
 40
0.2518016588255528
 40
0.2658118741671202
 40
0.2798295165811027
 40
0.2938537726468069
 40
0.3078839034789203
 40
0.3219192406801247
 40
0.3359591807181099
 40
0.3500031786366661
 40
0.3640507416481971
 40
0.3781014229217949
 40
0.3921548157326439
 40
0.4062105480456495
 40
0.4202682775490936
 40
0.4343276871203103
 40
0.4483884806860146
 40
0.4624503794297465
 40
0.4765131182942729
 40
0.4905764427252255
 40
0.5046401056024762
 40
0.5187038643066454
 40
0.5327674080275552
 40
0.5468304834337138
 40
0.5608928426223426
 40
0.5749542298057979
 40
0.5890143782369281
 40
0.6030730069451248
 40
0.6171298172272752
 40
0.6311844888386048
 40
0.6452366758289884
 40
0.6592860019738631
 40
0.6733320557572318
 40
0.6873743848808128
 40
0.7014124903032251
 40
0.7154458198640402
 40
0.7294737616313218
 40
0.7434956372461698
 40
0.7575106957509808
 40
0.7715181087210377
 40
0.7855169680333968
 40
0.7995062883947961
 40
0.813485017946087
 40
0.8274520620591929
 40
0.84140632811632
 40
0.8553468029783987
 40
0.8692726804726443
 40
0.883183564065821
 40
0.897079780326841
 40
0.9109628516590572
 40
0.9248361904319005
 40
0.9387060858651793
 40
0.9525791108988696
 40
0.966469432279158
 40
0.9803985102888741
 40
0.9943967741645081
 40
1.0
 40
1.0
 40
1.0
 40
1.0
 10
197.6225194638681
 20
788.6661007530248
 30
0.0
 10
197.6164064780361
 20
788.6523125271352
 30
0.0
 10
197.2511442130735
 20
787.8284404036401
 30
0.0
 10
196.2438171813809
 20
786.1879861639827
 30
0.0
 10
194.5803251793454
 20
783.7570076239764
 30
0.0
 10
192.5845178923256
 20
781.3415180988095
 30
0.0
 10
190.3044975346377
 20
778.9448703008626
 30
0.0
 10
187.7283468803678
 20
776.5682678100852
 30
0.0
 10
184.8605551430709
 20
774.2150247121532
 30
0.0
 10
181.7024329154749
 20
771.8891898253279
 30
0.0
 10
178.2574405295674
 20
769.5953712360282
 30
0.0
 10
174.5296942060604
 20
767.3383671483152
 30
0.0
 10
170.5240466391903
 20
765.1229067386317
 30
0.0
 10
166.2461047507181
 20
762.9536742019643
 30
0.0
 10
161.7022211140793
 20
760.8352551933173
 30
0.0
 10
156.8993980922095
 20
758.7720795260044
 30
0.0
 10
151.8452131373028
 20
756.7683898944018
 30
0.0
 10
146.5477542054382
 20
754.8282267845962
 30
0.0
 10
141.0155672867841
 20
752.955423354576
 30
0.0
 10
135.2576132867383
 20
751.1536059567048
 30
0.0
 10
129.2832324788212
 20
749.42619756933
 30
0.0
 10
123.1021146572643
 20
747.7764224414586
 30
0.0
 10
116.7242734971222
 20
746.2073109587276
 30
0.0
 10
110.160023920038
 20
744.7217041880025
 30
0.0
 10
103.4199615474533
 20
743.3222578391732
 30
0.0
 10
96.51494355233864
 20
742.0114455517116
 30
0.0
 10
89.45607040425188
 20
740.7915615107283
 30
0.0
 10
82.25466814390653
 20
739.6647224491195
 30
0.0
 10
74.92227093055901
 20
738.6328691166395
 30
0.0
 10
67.47060368546347
 20
737.6977673045035
 30
0.0
 10
59.91156471374197
 20
736.8610085126114
 30
0.0
 10
52.25720823038407
 20
736.1240103400102
 30
0.0
 10
44.5197267477359
 20
735.4880166704763
 30
0.0
 10
36.71143330483286
 20
734.9540977155583
 30
0.0
 10
28.84474353558682
 20
734.5231499679974
 30
0.0
 10
20.93215758480491
 20
734.1958961094793
 30
0.0
 10
12.98624188979922
 20
733.972884908392
 30
0.0
 10
5.019610850952719
 20
733.8544911356662
 30
0.0
 10
-2.955091579007002
 20
733.8409155197141
 30
0.0
 10
-10.92519716833894
 20
733.932184604097
 30
0.0
 10
-18.87804308449582
 20
734.1281501369564
 30
0.0
 10
-26.80099247295199
 20
734.4284891284731
 30
0.0
 10
-34.68146588808748
 20
734.8327049558311
 30
0.0
 10
-42.5069483506398
 20
735.3401275966013
 30
0.0
 10
-50.26500560641968
 20
735.9499138345777
 30
0.0
 10
-57.94330219172298
 20
736.6610475231499
 30
0.0
 10
-65.52961931943541
 20
737.472339826026
 30
0.0
 10
-73.01187256046832
 20
738.3824293942507
 30
0.0
 10
-80.37812930098276
 20
739.3897824280609
 30
0.0
 10
-87.61662596418073
 20
740.4926925601845
 30
0.0
 10
-94.71578499712366
 20
741.6892804833349
 30
0.0
 10
-101.6642316394783
 20
742.9774932288368
 30
0.0
 10
-108.4508105141454
 20
744.3551029854513
 30
0.0
 10
-115.0646021119084
 20
745.8197053277837
 30
0.0
 10
-121.4949392870628
 20
747.3687167031047
 30
0.0
 10
-127.7314239431223
 20
748.9993710056688
 30
0.0
 10
-133.7639441733274
 20
750.708715052145
 30
0.0
 10
-139.5826922382707
 20
752.4936027668691
 30
0.0
 10
-145.1781839214428
 20
754.3506879017541
 30
0.0
 10
-150.5412800196611
 20
756.2764151711865
 30
0.0
 10
-155.6632109949169
 20
758.2670098052638
 30
0.0
 10
-160.5356062121013
 20
760.3184657658866
 30
0.0
 10
-165.1505294765367
 20
762.4265332893715
 30
0.0
 10
-169.5005236365993
 20
764.5867071775473
 30
0.0
 10
-173.5786654438496
 20
766.7942183357616
 30
0.0
 10
-177.378639872542
 20
769.0440333673496
 30
0.0
 10
-180.8948142821077
 20
771.3308683094584
 30
0.0
 10
-184.1223982613225
 20
773.6492327107054
 30
0.0
 10
-187.0573737203862
 20
775.9935038175977
 30
0.0
 10
-189.6971058790672
 20
778.3578965294536
 30
0.0
 10
-192.037997729199
 20
780.7366527792807
 30
0.0
 10
-194.0857508914544
 20
783.1249653215422
 30
0.0
 10
-195.8175604718242
 20
785.5176168217117
 30
0.0
 10
-197.019257206185
 20
787.4319446273895
 30
0.0
 10
-197.5378667024973
 20
788.5413593034106
 30
0.0
 10
-197.6861149311316
 20
788.8584934124281
 30
0.0
  0
LWPOLYLINE
  5
118
330
10D
100
AcDbEntity
  8
0
  6
CONTINUOUS
 62
     7
100
AcDbPolyline
 90
        8
 70
   128
 43
0.0
 10
142.2881198946
 20
-65.0670701553
 10
144.7202461547
 20
-62.7546626195
 10
146.8143715742
 20
-60.4057873715
 10
148.5656052263
 20
-58.0259303182
 10
149.9698570235
 20
-55.6206497261
 10
151.0238472707
 20
-53.1955632395
 10
151.7251143248
 20
-50.7563347602
 10
151.8178068995
 20
-50.0804349255
  0
LWPOLYLINE
  5
119
330
10D
100
AcDbEntity
  8
0
  6
CONTINUOUS
 62
     7
100
AcDbPolyline
 90
       58
 70
   128
 43
0.0
 10
-151.8462467312
 20
-50.0826615159
 10
-151.7003379375
 20
-50.8700522157
 10
-150.9826175927
 20
-53.3087488885
 10
-149.9122703488
 20
-55.7330392182
 10
-148.4917960512
 20
-58.1372611626
 10
-146.7245122835
 20
-60.5157995498
 10
-144.6145466188
 20
-62.8630991932
 10
-142.1668269798
 20
-65.1736778658
 10
-139.387070129
 20
-67.442139104
 10
-136.2817683173
 20
-69.6631848115
 10
-132.8581741211
 20
-71.8316276331
 10
-129.1242835032
 20
-73.9424030701
 10
-125.0888171382
 20
-75.9905813086
 10
-120.7612000447
 20
-77.9713787336
 10
-116.151539573
 20
-79.8801691009
 10
-111.2706017987
 20
-81.712494342
 10
-106.1297863781
 20
-83.4640749765
 10
-100.7410999239
 20
-85.1308201067
 10
-95.1171279629
 20
-86.708836972
 10
-89.2710055423
 20
-88.194440041
 10
-83.2163865518
 20
-89.5841596189
 10
-76.9674118347
 20
-90.8747499512
 10
-70.538676161
 20
-92.0631968044
 10
-63.9451941406
 20
-93.1467245057
 10
-57.2023651564
 20
-94.1228024261
 10
-50.3259373979
 20
-94.9891508903
 10
-43.3319710807
 20
-95.7437465014
 10
-36.2368009372
 20
-96.3848268663
 10
-29.0569980661
 20
-96.9108947121
 10
-21.8093312297
 20
-97.320721383
 10
-14.5107276897
 20
-97.6133497099
 10
-7.1782336727
 20
-97.7880962456
 10
0.1710254416
 20
-97.8445528616
 10
7.519885118
 20
-97.7825877009
 10
14.8511817543
 20
-97.6023454859
 10
22.1477927675
 20
-97.3042471807
 10
29.3926765845
 20
-96.8889890076
 10
36.5689124433
 20
-96.3575408215
 10
43.6597399128
 20
-95.7111438441
 10
50.6485980366
 20
-94.9513077656
 10
57.519164013
 20
-94.0798072183
 10
64.2553913166
 20
-93.0986776321
 10
70.8415471765
 20
-92.0102104806
 10
77.2622493205
 20
-90.8169479293
 10
83.5025019012
 20
-89.5216768982
 10
89.5477305197
 20
-88.1274225528
 10
95.3838162642
 20
-86.6374412388
 10
100.9971286863
 20
-85.0552128764
 10
106.3745576346
 20
-83.3844328334
 10
111.5035438746
 20
-81.629003294
 10
116.3721084213
 20
-79.7930241452
 10
120.9688805167
 20
-77.8807834013
 10
125.2831241865
 20
-75.8967471893
 10
129.3047633147
 20
-73.8455493176
 10
133.0244051768
 20
-71.731980454
 10
136.4333623769
 20
-69.5609769363
 10
139.5236731375
 20
-67.337609244
 10
142.2881198946
 20
-65.0670701553
  0
LWPOLYLINE
  5
11C
330
10D
100
AcDbEntity
  8
0
  6
CONTINUOUS
 62
     7
100
AcDbPolyline
 90
       77
 70
   128
 43
0.0
 10
-206.0592332429
 20
796.9883569248
 10
-205.8429420916
 20
795.1066660836
 10
-205.2243649188
 20
792.2742319799
 10
-204.255165361
 20
789.4527383546
 10
-202.9369992796
 20
786.6470056821
 10
-201.272118739
 20
783.8618275097
 10
-199.2633681599
 20
781.1019622675
 10
-196.9141794588
 20
778.372125139
 10
-194.2285661853
 20
775.6769800052
 10
-191.2111166646
 20
773.0211314763
 10
-187.8669861585
 20
770.409117025
 10
-184.2018880579
 20
767.8453992341
 10
-180.2220841216
 20
765.3343581725
 10
-175.9343737776
 20
762.8802839117
 10
-171.3460825073
 20
760.4873691964
 10
-166.4650493293
 20
758.1597022813
 10
-161.2996134069
 20
755.9012599462
 10
-155.8585998007
 20
753.7159007021
 10
-150.1513043913
 20
751.6073581985
 10
-144.187477997
 20
749.5792348448
 10
-137.9773097152
 20
747.6349956559
 10
-131.5314095143
 20
745.7779623318
 10
-124.8607901066
 20
744.0113075827
 10
-117.9768481336
 20
742.3380497087
 10
-110.8913446945
 20
740.7610474428
 10
-103.6163852531
 20
739.2829950668
 10
-96.1643989557
 20
737.9064178086
 10
-88.5481173958
 20
736.6336675271
 10
-80.7805528627
 20
735.466918695
 10
-72.87497611
 20
734.4081646831
 10
-64.8448936831
 20
733.4592143548
 10
-56.7040248432
 20
732.6216889758
 10
-48.4662781279
 20
731.8970194442
 10
-40.1457275895
 20
731.2864438457
 10
-31.7565887489
 20
730.7910053385
 10
-23.3131943092
 20
730.4115503711
 10
-14.829969668
 20
730.1487272357
 10
-6.3214082725
 20
730.0029849614
 10
2.1979531431
 20
729.9745725464
 10
10.7135593926
 20
730.0635385327
 10
19.2108617056
 20
730.2697309236
 10
27.6753425836
 20
730.5927974428
 10
36.092540603
 20
731.0321861365
 10
44.4480751223
 20
731.5871463166
 10
52.7276708508
 20
732.2567298428
 10
60.9171822382
 20
733.0397927429
 10
69.0026176416
 20
733.9349971672
 10
76.9701632302
 20
734.9408136739
 10
84.8062065861
 20
736.0555238424
 10
92.4973599606
 20
737.2772232089
 10
100.0304831472
 20
738.6038245207
 10
107.3927059314
 20
740.0330613017
 10
114.5714500789
 20
741.5624917248
 10
121.5544508259
 20
743.1895027837
 10
128.3297778326
 20
744.9113147574
 10
134.8858555666
 20
746.7249859591
 10
141.2114830791
 20
748.6274177618
 10
147.2958531414
 20
750.6153598927
 10
153.1285707095
 20
752.6854159861
 10
158.6996706832
 20
754.8340493859
 10
163.9996349317
 20
757.057589188
 10
169.0194085549
 20
759.3522365118
 10
173.7504153538
 20
761.7140709909
 10
178.1845724827
 20
764.1390574708
 10
182.3143042585
 20
766.6230529027
 10
186.1325551037
 20
769.161813422
 10
189.6328016009
 20
771.7510015991
 10
192.8090636374
 20
774.3861938494
 10
195.6559146231
 20
777.062887991
 10
198.1684907607
 20
779.776510937
 10
200.342499356
 20
782.5224265081
 10
202.1742261518
 20
785.2959433536
 10
203.6605416737
 20
788.0923229665
 10
204.7989065764
 20
790.9067877791
 10
205.5873759826
 20
793.7345293254
 10
206.0246028057
 20
796.5707164566
 10
206.0550509831
 20
796.932600953
  0
LWPOLYLINE
  5
11D
330
10D
100
AcDbEntity
  8
0
  6
CONTINUOUS
 62
     7
100
AcDbPolyline
 90
       12
 70
   128
 43
0.0
 10
-187.3517942439
 20
823.0838035365
 10
-190.1527671716
 20
820.4479391042
 10
-192.6201475313
 20
817.7752892486
 10
-194.7496066995
 20
815.0705427059
 10
-196.5374088812
 20
812.3384445206
 10
-197.9804176639
 20
809.5837877211
 10
-199.0761015198
 20
806.8114049117
 10
-199.8225382471
 20
804.0261597938
 10
-200.2184183421
 20
801.2329386338
 10
-200.2630472967
 20
798.4366416907
 10
-199.9563468165
 20
795.6421746195
 10
-199.710126393
 20
794.4140691557
  0
LWPOLYLINE
  5
11E
330
10D
100
AcDbEntity
  8
0
  6
CONTINUOUS
 62
     7
100
AcDbPolyline
 90
       70
 70
   128
 43
0.0
 10
199.6869071051
 20
794.313363835
 10
199.8225382471
 20
794.933232517
 10
200.2184183421
 20
797.7264536771
 10
200.2630472967
 20
800.5227506202
 10
199.9563468165
 20
803.3172176913
 10
199.2988549584
 20
806.1049524457
 10
198.2917251865
 20
808.8810642492
 10
196.9367243486
 20
811.6406828586
 10
195.2362295766
 20
814.3789669649
 10
193.1932241163
 20
817.0911126874
 10
190.8112920933
 20
819.7723620009
 10
188.0946122259
 20
822.418011083
 10
185.0479504937
 20
825.0234185662
 10
181.6766517766
 20
827.5840136805
 10
177.9866304782
 20
830.095304272
 10
173.9843601496
 20
832.5528846836
 10
169.6768621331
 20
834.9524434841
 10
165.0716932437
 20
837.2897710321
 10
160.1769325127
 20
839.5607668609
 10
155.0011670136
 20
841.7614468719
 10
149.5534767978
 20
843.8879503248
 10
143.8434189651
 20
845.9365466099
 10
137.8810108971
 20
847.9036417931
 10
131.6767126838
 20
849.7857849211
 10
125.2414087724
 20
851.5796740752
 10
118.5863888727
 20
853.2821621644
 10
111.723328151
 20
854.8902624461
 10
104.6642667478
 20
856.4011537658
 10
97.4215886557
 20
857.8121855068
 10
90.0079999929
 20
859.12088224
 10
82.4365067132
 20
860.3249480666
 10
74.7203917887
 20
861.4222706459
 10
66.8731919068
 20
862.4109249014
 10
58.9086737226
 20
863.2891763975
 10
50.8408097074
 20
864.0554843827
 10
42.6837536362
 20
864.7085044923
 10
34.451815757
 20
865.2470911072
 10
26.1594376862
 20
865.6702993634
 10
17.8211670727
 20
865.9773868098
 10
9.4516320764
 20
866.1678147108
 10
1.0655157058
 20
866.2412489911
 10
-7.3224699414
 20
866.197560822
 10
-15.6976094882
 20
866.0368268474
 10
-24.0452100938
 20
865.7593290492
 10
-32.3506272303
 20
865.365554253
 10
-40.5992903738
 20
864.8561932736
 10
-48.7767285663
 20
864.2321397031
 10
-56.8685958024
 20
863.4944883436
 10
-64.8606961974
 20
862.6445332862
 10
-72.7390088915
 20
861.6837656409
 10
-80.4897126471
 20
860.6138709207
 10
-88.0992100961
 20
859.4367260844
 10
-95.5541515943
 20
858.1543962441
 10
-102.8414586411
 20
856.769131042
 10
-109.9483468236
 20
855.2833607041
 10
-116.8623482452
 20
853.6996917763
 10
-123.5713333978
 20
852.0209025521
 10
-130.0635324418
 20
850.2499381983
 10
-136.327555854
 20
848.3899055881
 10
-142.3524144089
 20
846.4440678508
 10
-148.1275384572
 20
844.4158386468
 10
-153.6427964689
 20
842.3087761796
 10
-158.8885128075
 20
840.1265769526
 10
-163.855484704
 20
837.8730692847
 10
-168.5349984018
 20
835.5522065943
 10
-172.9188444438
 20
833.168060463
 10
-176.9993320745
 20
830.7248134933
 10
-180.7693027319
 20
828.2267519707
 10
-184.2221426065
 20
825.6782583438
 10
-187.3517942439
 20
823.0838035365
  0
ARC
  5
11F
330
10D
100
AcDbEntity
  8
0
  6
CONTINUOUS
 62
     7
100
AcDbCircle
 10
-183.0688536175
 20
798.6296793827
 30
0.0
 40
23.04889356848173
100
AcDbArc
 50
169.4658679454
 51
184.0835153493
  0
ARC
  5
120
330
10D
100
AcDbEntity
  8
0
  6
CONTINUOUS
 62
     7
100
AcDbCircle
 10
182.9982149921
 20
798.6758028824
 30
0.0
 40
23.12263909851153
100
AcDbArc
 50
355.6764032712
 51
9.7225888697
  0
ARC
  5
121
330
10D
100
AcDbEntity
  8
0
  6
CONTINUOUS
 62
     7
100
AcDbCircle
 10
-174.1178037207
 20
800.371554128
 30
0.0
 40
26.2765790573953
100
AcDbArc
 50
193.1041730069
 51
206.6051416346
  0
ARC
  5
122
330
10D
100
AcDbEntity
  8
0
  6
CONTINUOUS
 62
     7
100
AcDbCircle
 10
173.8039680448
 20
800.5740569666
 30
0.0
 40
26.62935997888895
100
AcDbArc
 50
333.4374881285
 51
346.4021933934
  0
VIEWPORT
  5
133
330
10D
100
AcDbEntity
  8
0
100
AcDbViewport
 10
0.0
 20
0.0
 30
0.0
 40
205.6
 41
156.0
 68
     1
 69
     1
1001
ACAD
1000
MVIEW
1002
{
1070
    16
1010
0.0
1020
0.0
1030
0.0
1010
0.0
1020
0.0
1030
1.0
1040
0.0
1040
428.4
1040
0.0
1040
0.0
1040
50.0
1040
0.0
1040
0.0
1070
     0
1070
   100
1070
     0
1070
     3
1070
     0
1070
     0
1070
     0
1070
     0
1040
0.0
1040
0.0
1040
0.0
1040
10.0
1040
10.0
1040
10.0
1040
10.0
1070
     0
1002
{
1002
}
1002
}
  0
ENDBLK
  5
110
330
10D
100
AcDbEntity
  8
0
100
AcDbBlockEnd
  0
ENDSEC
  0
SECTION
  2
ENTITIES
  0
CIRCLE
  5
73
330
1F
100
AcDbEntity
  8
0
  6
CONTINUOUS
 62
     7
100
AcDbCircle
 10
0.0
 20
0.0
 30
0.0
 40
210.0000000000001
  0
CIRCLE
  5
74
330
1F
100
AcDbEntity
  8
0
  6
CONTINUOUS
 62
     7
100
AcDbCircle
 10
0.0
 20
0.0
 30
0.0
 40
206.1215591921064
  0
CIRCLE
  5
75
330
1F
100
AcDbEntity
  8
0
  6
CONTINUOUS
 62
     7
100
AcDbCircle
 10
0.0
 20
0.0
 30
0.0
 40
200.2874928100086
  0
CIRCLE
  5
76
330
1F
100
AcDbEntity
  8
0
  6
CONTINUOUS
 62
     7
100
AcDbCircle
 10
0.0
 20
0.0
 30
0.0
 40
34.91753592594223
  0
CIRCLE
  5
77
330
1F
100
AcDbEntity
  8
0
  6
CONTINUOUS
 62
     7
100
AcDbCircle
 10
0.0
 20
0.0
 30
0.0
 40
22.99999999999999
  0
LINE
  5
7F
330
1B
100
AcDbEntity
 67
     1
  8
0
  6
CONTINUOUS
 62
     7
100
AcDbLine
 10
203.1241974663
 20
850.0
 30
0.0
 11
-203.1241974663
 21
850.0
 31
0.0
  0
LINE
  5
80
330
1B
100
AcDbEntity
 67
     1
  8
0
  6
CONTINUOUS
 62
     7
100
AcDbLine
 10
-152.1123985246
 20
-50.0000000001
 30
0.0
 11
152.1123985246
 21
-50.0
 31
0.0
  0
LINE
  5
81
330
1B
100
AcDbEntity
 67
     1
  8
0
  6
CONTINUOUS
 62
     7
100
AcDbLine
 10
-206.1215591921
 20
847.125788254
 30
0.0
 11
206.1215591921
 21
847.125788254
 31
0.0
  0
ARC
  5
82
330
1B
100
AcDbEntity
 67
     1
  8
0
  6
CONTINUOUS
 62
     7
100
AcDbCircle
 10
-4200.2020659295
 20
662.2085823915
 30
0.0
 40
4410.202065929478
100
AcDbArc
 50
350.7065417777
 51
2.4030831734
  0
ARC
  5
83
330
1B
100
AcDbEntity
 67
     1
  8
0
  6
CONTINUOUS
 62
     7
100
AcDbCircle
 10
4200.2020659295
 20
662.2085823915
 30
0.0
 40
4410.202065929487
100
AcDbArc
 50
177.5969168266
 51
189.2934582223
  0
ARC
  5
84
330
1B
100
AcDbEntity
 67
     1
  8
0
  6
CONTINUOUS
 62
     7
100
AcDbCircle
 10
-203.1241974663
 20
847.0
 30
0.0
 40
3.0
100
AcDbArc
 50
90.0
 51
177.5969168266
  0
ARC
  5
85
330
1B
100
AcDbEntity
 67
     1
  8
0
  6
CONTINUOUS
 62
     7
100
AcDbCircle
 10
203.1241974663
 20
847.0
 30
0.0
 40
3.000000000000233
100
AcDbArc
 50
2.4030831734
 51
90.0
  0
VIEWPORT
  5
123
330
1B
100
AcDbEntity
 67
     1
  8
0
100
AcDbViewport
 10
0.0
 20
0.0
 30
0.0
 40
205.6
 41
156.0
 68
     1
 69
     1
1001
ACAD
1000
MVIEW
1002
{
1070
    16
1010
0.0
1020
0.0
1030
0.0
1010
0.0
1020
0.0
1030
1.0
1040
0.0
1040
428.4
1040
0.0
1040
0.0
1040
50.0
1040
0.0
1040
0.0
1070
     0
1070
   100
1070
     0
1070
     3
1070
     0
1070
     0
1070
     0
1070
     0
1040
0.0
1040
0.0
1040
0.0
1040
10.0
1040
10.0
1040
10.0
1040
10.0
1070
     0
1002
{
1002
}
1002
}
  0
ENDSEC
  0
SECTION
  2
OBJECTS
  0
DICTIONARY
  5
C
330
0
100
AcDbDictionary
  3
ACAD_GROUP
350
D
  3
ACAD_MLINESTYLE
350
17
  3
ACAD_SCALELIST
350
47
  3
DWGPROPS
350
135
  0
DICTIONARY
  5
D
102
{ACAD_REACTORS
330
C
102
}
330
C
100
AcDbDictionary
  0
DICTIONARY
  5
17
102
{ACAD_REACTORS
330
C
102
}
330
C
100
AcDbDictionary
  3
STANDARD
350
18
  0
DICTIONARY
  5
47
102
{ACAD_REACTORS
330
C
102
}
330
C
100
AcDbDictionary
  0
XRECORD
  5
135
102
{ACAD_REACTORS
330
C
102
}
330
C
100
AcDbXrecord
  1
DWGPROPS COOKIE
  2

  3

  4

  6

  7

  8
J.schlicker
  9

300
=
301
=
302
=
303
=
304
=
305
=
306
=
307
=
308
=
309
=
 40
0.0
 41
2459626.480449294
 42
2459626.480518322
  1

 90
        0
  0
MLINESTYLE
  5
18
102
{ACAD_REACTORS
330
17
102
}
330
17
100
AcDbMlineStyle
  2
Standard
 70
     0
  3

 62
   256
 51
90.0
 52
90.0
 71
     2
 49
0.5
 62
   256
  6
BYLAYER
 49
-0.5
 62
   256
  6
BYLAYER
  0
ENDSEC
  0
EOF
