  0
SECTION
  2
HEADER
  9
$ACADVER
  1
AC1015
  9
$ACADMAINTVER
 70
     6
  9
$DWGCODEPAGE
  3
ANSI_1252
  9
$INSBASE
 10
0.0
 20
0.0
 30
0.0
  9
$EXTMIN
 10
-210.0
 20
-210.0
 30
0.0
  9
$EXTMAX
 10
210.0
 20
210.0
 30
0.0
  9
$LIMMIN
 10
0.0
 20
0.0
  9
$LIMMAX
 10
420.0
 20
297.0
  9
$ORTHOMODE
 70
     0
  9
$REGENMODE
 70
     1
  9
$FILLMODE
 70
     1
  9
$QTEXTMODE
 70
     0
  9
$MIRRTEXT
 70
     1
  9
$LTSCALE
 40
1.0
  9
$ATTMODE
 70
     1
  9
$TEXTSIZE
 40
3.5
  9
$TRACEWID
 40
1.0
  9
$TEXTSTYLE
  7
STANDARD
  9
$CLAYER
  8
0
  9
$CELTYPE
  6
ByLayer
  9
$CECOLOR
 62
   256
  9
$CELTSCALE
 40
1.0
  9
$DISPSILH
 70
     0
  9
$DIMSCALE
 40
1.0
  9
$DIMASZ
 40
6.0
  9
$DIMEXO
 40
1.0
  9
$DIMDLI
 40
3.75
  9
$DIMRND
 40
0.0
  9
$DIMDLE
 40
0.0
  9
$DIMEXE
 40
1.0
  9
$DIMTP
 40
0.0
  9
$DIMTM
 40
0.0
  9
$DIMTXT
 40
3.5
  9
$DIMCEN
 40
2.5
  9
$DIMTSZ
 40
0.0
  9
$DIMTOL
 70
     0
  9
$DIMLIM
 70
     0
  9
$DIMTIH
 70
     1
  9
$DIMTOH
 70
     1
  9
$DIMSE1
 70
     0
  9
$DIMSE2
 70
     0
  9
$DIMTAD
 70
     1
  9
$DIMZIN
 70
     0
  9
$DIMBLK
  1

  9
$DIMASO
 70
     1
  9
$DIMSHO
 70
     1
  9
$DIMPOST
  1

  9
$DIMAPOST
  1

  9
$DIMALT
 70
     0
  9
$DIMALTD
 70
     3
  9
$DIMALTF
 40
0.0393700787
  9
$DIMLFAC
 40
1.0
  9
$DIMTOFL
 70
     1
  9
$DIMTVP
 40
0.0
  9
$DIMTIX
 70
     0
  9
$DIMSOXD
 70
     0
  9
$DIMSAH
 70
     0
  9
$DIMBLK1
  1

  9
$DIMBLK2
  1

  9
$DIMSTYLE
  2
ISO-25
  9
$DIMCLRD
 70
     0
  9
$DIMCLRE
 70
     0
  9
$DIMCLRT
 70
     0
  9
$DIMTFAC
 40
1.0
  9
$DIMGAP
 40
1.524
  9
$DIMJUST
 70
     0
  9
$DIMSD1
 70
     0
  9
$DIMSD2
 70
     0
  9
$DIMTOLJ
 70
     0
  9
$DIMTZIN
 70
     0
  9
$DIMALTZ
 70
     0
  9
$DIMALTTZ
 70
     0
  9
$DIMUPT
 70
     0
  9
$DIMDEC
 70
     2
  9
$DIMTDEC
 70
     2
  9
$DIMALTU
 70
     2
  9
$DIMALTTD
 70
     3
  9
$DIMTXSTY
  7
STANDARD
  9
$DIMAUNIT
 70
     0
  9
$DIMADEC
 70
     2
  9
$DIMALTRND
 40
0.0
  9
$DIMAZIN
 70
     0
  9
$DIMDSEP
 70
    44
  9
$DIMATFIT
 70
     3
  9
$DIMFRAC
 70
     0
  9
$DIMLDRBLK
  1

  9
$DIMLUNIT
 70
     2
  9
$DIMLWD
 70
    -2
  9
$DIMLWE
 70
    -2
  9
$DIMTMOVE
 70
     0
  9
$LUNITS
 70
     2
  9
$LUPREC
 70
     2
  9
$SKETCHINC
 40
1.0
  9
$FILLETRAD
 40
10.0
  9
$AUNITS
 70
     0
  9
$AUPREC
 70
     2
  9
$MENU
  1
.
  9
$ELEVATION
 40
0.0
  9
$PELEVATION
 40
0.0
  9
$THICKNESS
 40
0.0
  9
$LIMCHECK
 70
     0
  9
$CHAMFERA
 40
0.0
  9
$CHAMFERB
 40
0.0
  9
$CHAMFERC
 40
0.0
  9
$CHAMFERD
 40
0.0
  9
$SKPOLY
 70
     0
  9
$TDCREATE
 40
2458369.454020451
  9
$TDUCREATE
 40
2458369.370687118
  9
$TDUPDATE
 40
2458369.454048704
  9
$TDUUPDATE
 40
2458369.37071537
  9
$TDINDWG
 40
0.0000000116
  9
$TDUSRTIMER
 40
0.0000000116
  9
$USRTIMER
 70
     1
  9
$ANGBASE
 50
0.0
  9
$ANGDIR
 70
     0
  9
$PDMODE
 70
     0
  9
$PDSIZE
 40
-1.0
  9
$PLINEWID
 40
0.0
  9
$SPLFRAME
 70
     0
  9
$SPLINETYPE
 70
     6
  9
$SPLINESEGS
 70
     8
  9
$HANDSEED
  5
1F4
  9
$SURFTAB1
 70
     6
  9
$SURFTAB2
 70
     6
  9
$SURFTYPE
 70
     6
  9
$SURFU
 70
     6
  9
$SURFV
 70
     6
  9
$UCSBASE
  2

  9
$UCSNAME
  2

  9
$UCSORG
 10
0.0
 20
0.0
 30
0.0
  9
$UCSXDIR
 10
1.0
 20
0.0
 30
0.0
  9
$UCSYDIR
 10
0.0
 20
1.0
 30
0.0
  9
$UCSORTHOREF
  2

  9
$UCSORTHOVIEW
 70
     0
  9
$UCSORGTOP
 10
0.0
 20
0.0
 30
0.0
  9
$UCSORGBOTTOM
 10
0.0
 20
0.0
 30
0.0
  9
$UCSORGLEFT
 10
0.0
 20
0.0
 30
0.0
  9
$UCSORGRIGHT
 10
0.0
 20
0.0
 30
0.0
  9
$UCSORGFRONT
 10
0.0
 20
0.0
 30
0.0
  9
$UCSORGBACK
 10
0.0
 20
0.0
 30
0.0
  9
$PUCSBASE
  2

  9
$PUCSNAME
  2

  9
$PUCSORG
 10
0.0
 20
0.0
 30
0.0
  9
$PUCSXDIR
 10
1.0
 20
0.0
 30
0.0
  9
$PUCSYDIR
 10
0.0
 20
1.0
 30
0.0
  9
$PUCSORTHOREF
  2

  9
$PUCSORTHOVIEW
 70
     0
  9
$PUCSORGTOP
 10
0.0
 20
0.0
 30
0.0
  9
$PUCSORGBOTTOM
 10
0.0
 20
0.0
 30
0.0
  9
$PUCSORGLEFT
 10
0.0
 20
0.0
 30
0.0
  9
$PUCSORGRIGHT
 10
0.0
 20
0.0
 30
0.0
  9
$PUCSORGFRONT
 10
0.0
 20
0.0
 30
0.0
  9
$PUCSORGBACK
 10
0.0
 20
0.0
 30
0.0
  9
$USERI1
 70
     0
  9
$USERI2
 70
     0
  9
$USERI3
 70
     0
  9
$USERI4
 70
     0
  9
$USERI5
 70
     0
  9
$USERR1
 40
0.0
  9
$USERR2
 40
0.0
  9
$USERR3
 40
0.0
  9
$USERR4
 40
0.0
  9
$USERR5
 40
0.0
  9
$WORLDVIEW
 70
     1
  9
$SHADEDGE
 70
     3
  9
$SHADEDIF
 70
    70
  9
$TILEMODE
 70
     1
  9
$MAXACTVP
 70
    64
  9
$PINSBASE
 10
0.0
 20
0.0
 30
0.0
  9
$PLIMCHECK
 70
     0
  9
$PEXTMIN
 10
-210.0
 20
-12.0
 30
0.0
  9
$PEXTMAX
 10
210.0
 20
130.0
 30
0.0
  9
$PLIMMIN
 10
-242.6848249028
 20
-24.2568093385
  9
$PLIMMAX
 10
242.6848249027
 20
318.9338521401
  9
$UNITMODE
 70
     0
  9
$VISRETAIN
 70
     1
  9
$PLINEGEN
 70
     0
  9
$PSLTSCALE
 70
     1
  9
$TREEDEPTH
 70
  3020
  9
$CMLSTYLE
  2
Standard
  9
$CMLJUST
 70
     0
  9
$CMLSCALE
 40
20.0
  9
$PROXYGRAPHICS
 70
     1
  9
$MEASUREMENT
 70
     1
  9
$CELWEIGHT
370
    -1
  9
$ENDCAPS
280
     0
  9
$JOINSTYLE
280
     0
  9
$LWDISPLAY
290
     1
  9
$INSUNITS
 70
     4
  9
$HYPERLINKBASE
  1

  9
$STYLESHEET
  1

  9
$XEDIT
290
     1
  9
$CEPSNTYPE
380
     0
  9
$PSTYLEMODE
290
     1
  9
$FINGERPRINTGUID
  2
{5691E359-9176-40B3-9AD4-309D1DEE3390}
  9
$VERSIONGUID
  2
{FAEB1C32-E019-11D5-929B-00C0DF256EC4}
  9
$EXTNAMES
290
     1
  9
$PSVPSCALE
 40
0.0
  9
$OLESTARTUP
290
     0
  0
ENDSEC
  0
SECTION
  2
CLASSES
  0
CLASS
  1
ACDBDICTIONARYWDFLT
  2
AcDbDictionaryWithDefault
  3
ObjectDBX Classes
 90
        0
280
     0
281
     0
  0
CLASS
  1
VISUALSTYLE
  2
AcDbVisualStyle
  3
ObjectDBX Classes
 90
     4095
280
     0
281
     0
  0
CLASS
  1
MATERIAL
  2
AcDbMaterial
  3
ObjectDBX Classes
 90
     1153
280
     0
281
     0
  0
CLASS
  1
SCALE
  2
AcDbScale
  3
ObjectDBX Classes
 90
     1153
280
     0
281
     0
  0
CLASS
  1
TABLESTYLE
  2
AcDbTableStyle
  3
ObjectDBX Classes
 90
     4095
280
     0
281
     0
  0
CLASS
  1
MLEADERSTYLE
  2
AcDbMLeaderStyle
  3
ACDB_MLEADERSTYLE_CLASS
 90
     4095
280
     0
281
     0
  0
CLASS
  1
SUN
  2
AcDbSun
  3
SCENEOE
 90
     1153
280
     0
281
     0
  0
CLASS
  1
ACDBPLACEHOLDER
  2
AcDbPlaceHolder
  3
ObjectDBX Classes
 90
        0
280
     0
281
     0
  0
CLASS
  1
LAYOUT
  2
AcDbLayout
  3
ObjectDBX Classes
 90
        0
280
     0
281
     0
  0
ENDSEC
  0
SECTION
  2
TABLES
  0
TABLE
  2
VPORT
  5
8
330
0
100
AcDbSymbolTable
 70
     1
  0
VPORT
  5
29
330
8
100
AcDbSymbolTableRecord
100
AcDbViewportTableRecord
  2
*Active
 70
     0
 10
0.0
 20
0.0
 11
1.0
 21
1.0
 12
0.0
 22
0.0
 13
0.0
 23
0.0
 14
10.0
 24
10.0
 15
10.0
 25
10.0
 16
0.0
 26
0.0
 36
1.0
 17
0.0
 27
0.0
 37
0.0
 40
428.4
 41
1.0
 42
50.0
 43
0.0
 44
0.0
 50
0.0
 51
0.0
 71
     0
 72
   100
 73
     1
 74
     3
 75
     0
 76
     0
 77
     0
 78
     0
281
     0
 65
     1
110
0.0
120
0.0
130
0.0
111
1.0
121
0.0
131
0.0
112
0.0
122
1.0
132
0.0
 79
     0
146
0.0
  0
ENDTAB
  0
TABLE
  2
LTYPE
  5
5
330
0
100
AcDbSymbolTable
 70
     6
  0
LTYPE
  5
14
330
5
100
AcDbSymbolTableRecord
100
AcDbLinetypeTableRecord
  2
ByBlock
 70
     0
  3

 72
    65
 73
     0
 40
0.0
  0
LTYPE
  5
15
330
5
100
AcDbSymbolTableRecord
100
AcDbLinetypeTableRecord
  2
ByLayer
 70
     0
  3

 72
    65
 73
     0
 40
0.0
  0
LTYPE
  5
16
330
5
100
AcDbSymbolTableRecord
100
AcDbLinetypeTableRecord
  2
Continuous
 70
     0
  3
Solid line
 72
    65
 73
     0
 40
0.0
  0
LTYPE
  5
6E
330
5
100
AcDbSymbolTableRecord
100
AcDbLinetypeTableRecord
  2
HIDDEN
 70
     0
  3
Hidden __ __ __ __ __ __ __ __ __ __ __ __ __ __
 72
    65
 73
     2
 40
1.905
 49
1.27
 74
     0
 49
-0.635
 74
     0
  0
LTYPE
  5
6F
330
5
100
AcDbSymbolTableRecord
100
AcDbLinetypeTableRecord
  2
PHANTOM
 70
     0
  3
Phantom ______  __  __  ______  __  __  ______
 72
    65
 73
     6
 40
12.7
 49
6.35
 74
     0
 49
-1.27
 74
     0
 49
1.27
 74
     0
 49
-1.27
 74
     0
 49
1.27
 74
     0
 49
-1.27
 74
     0
  0
LTYPE
  5
70
330
5
100
AcDbSymbolTableRecord
100
AcDbLinetypeTableRecord
  2
CENTER
 70
     0
  3
Center ____ _ ____ _ ____ _ ____ _ ____ _ ____
 72
    65
 73
     4
 40
10.16
 49
6.35
 74
     0
 49
-1.27
 74
     0
 49
1.27
 74
     0
 49
-1.27
 74
     0
  0
LTYPE
  5
71
330
5
100
AcDbSymbolTableRecord
100
AcDbLinetypeTableRecord
  2
CENTERX2
 70
     0
  3
Center (2x) ________  __  ________  __  _____
 72
    65
 73
     4
 40
20.32
 49
12.7
 74
     0
 49
-2.54
 74
     0
 49
2.54
 74
     0
 49
-2.54
 74
     0
  0
LTYPE
  5
72
330
5
100
AcDbSymbolTableRecord
100
AcDbLinetypeTableRecord
  2
DOT2
 70
     0
  3
Dot (.5x) ........................................
 72
    65
 73
     2
 40
0.635
 49
0.0
 74
     0
 49
-0.635
 74
     0
  0
ENDTAB
  0
TABLE
  2
LAYER
  5
2
330
0
100
AcDbSymbolTable
 70
     1
  0
LAYER
  5
10
330
2
100
AcDbSymbolTableRecord
100
AcDbLayerTableRecord
  2
0
 70
     0
 62
     7
  6
Continuous
370
    -3
390
F
  0
ENDTAB
  0
TABLE
  2
STYLE
  5
3
330
0
100
AcDbSymbolTable
 70
     1
  0
STYLE
  5
11
330
3
100
AcDbSymbolTableRecord
100
AcDbTextStyleTableRecord
  2
STANDARD
 70
     0
 40
0.0
 41
1.0
 50
0.0
 71
     0
 42
3.5
  3
GOTHIC.TTF
  4

1001
ACAD
1000
CENTURY GOTHIC
1071
       34
  0
ENDTAB
  0
TABLE
  2
VIEW
  5
6
330
0
100
AcDbSymbolTable
 70
     0
  0
ENDTAB
  0
TABLE
  2
UCS
  5
7
330
0
100
AcDbSymbolTable
 70
     0
  0
ENDTAB
  0
TABLE
  2
APPID
  5
9
330
0
100
AcDbSymbolTable
 70
     1
  0
APPID
  5
12
330
9
100
AcDbSymbolTableRecord
100
AcDbRegAppTableRecord
  2
ACAD
 70
     0
  0
ENDTAB
  0
TABLE
  2
DIMSTYLE
  5
A
330
0
100
AcDbSymbolTable
 70
     1
100
AcDbDimStyleTable
  0
DIMSTYLE
105
27
330
A
100
AcDbSymbolTableRecord
100
AcDbDimStyleTableRecord
  2
ISO-25
 70
     0
 41
2.5
 42
0.625
 43
3.75
 44
1.25
 73
     0
 74
     0
 77
     1
 78
     8
140
2.5
141
2.5
143
0.0393700787
147
0.625
171
     3
172
     1
178
     0
271
     2
272
     2
274
     3
278
    44
283
     0
284
     8
340
11
  0
ENDTAB
  0
TABLE
  2
BLOCK_RECORD
  5
1
330
0
100
AcDbSymbolTable
 70
     8
  0
BLOCK_RECORD
  5
1F
330
1
100
AcDbSymbolTableRecord
100
AcDbBlockTableRecord
  2
*Model_Space
340
22
  0
BLOCK_RECORD
  5
1B
330
1
100
AcDbSymbolTableRecord
100
AcDbBlockTableRecord
  2
*Paper_Space
340
1E
  0
BLOCK_RECORD
  5
23
330
1
100
AcDbSymbolTableRecord
100
AcDbBlockTableRecord
  2
*Paper_Space0
340
26
  0
BLOCK_RECORD
  5
B4
330
1
100
AcDbSymbolTableRecord
100
AcDbBlockTableRecord
  2
*Paper_Space1
340
B5
  0
BLOCK_RECORD
  5
D6
330
1
100
AcDbSymbolTableRecord
100
AcDbBlockTableRecord
  2
*Paper_Space2
340
D7
  0
BLOCK_RECORD
  5
F8
330
1
100
AcDbSymbolTableRecord
100
AcDbBlockTableRecord
  2
*Paper_Space3
340
F9
  0
BLOCK_RECORD
  5
11F
330
1
100
AcDbSymbolTableRecord
100
AcDbBlockTableRecord
  2
*Paper_Space4
340
120
  0
BLOCK_RECORD
  5
198
330
1
100
AcDbSymbolTableRecord
100
AcDbBlockTableRecord
  2
*Paper_Space5
340
199
  0
BLOCK_RECORD
  5
1B4
330
1
100
AcDbSymbolTableRecord
100
AcDbBlockTableRecord
  2
*Paper_Space6
340
1B5
  0
BLOCK_RECORD
  5
1CD
330
1
100
AcDbSymbolTableRecord
100
AcDbBlockTableRecord
  2
*Paper_Space7
340
1CE
  0
ENDTAB
  0
ENDSEC
  0
SECTION
  2
BLOCKS
  0
BLOCK
  5
20
330
1F
100
AcDbEntity
  8
0
100
AcDbBlockBegin
  2
*Model_Space
 70
     0
 10
0.0
 20
0.0
 30
0.0
  3
*Model_Space
  1

  0
ENDBLK
  5
21
330
1F
100
AcDbEntity
  8
0
100
AcDbBlockEnd
  0
BLOCK
  5
1C
330
1B
100
AcDbEntity
 67
     1
  8
0
100
AcDbBlockBegin
  2
*Paper_Space
 70
     0
 10
0.0
 20
0.0
 30
0.0
  3
*Paper_Space
  1

  0
ENDBLK
  5
1D
330
1B
100
AcDbEntity
 67
     1
  8
0
100
AcDbBlockEnd
  0
BLOCK
  5
24
330
23
100
AcDbEntity
  8
0
100
AcDbBlockBegin
  2
*Paper_Space0
 70
     0
 10
0.0
 20
0.0
 30
0.0
  3
*Paper_Space0
  1

  0
LWPOLYLINE
  5
9B
330
23
100
AcDbEntity
  8
0
  6
Continuous
 62
     7
370
    25
100
AcDbPolyline
 90
        3
 70
   128
 43
0.0
 10
-78.270431802
 20
0.0
 10
-76.5039745695
 20
-0.4040995969
 10
-68.2497916456
 20
-2.0603935686
  0
LWPOLYLINE
  5
9C
330
23
100
AcDbEntity
  8
0
  6
Continuous
 62
     7
370
    25
100
AcDbPolyline
 90
        3
 70
   128
 43
0.0
 10
68.2497916456
 20
-2.0603935686
 10
76.5039984863
 20
-0.4040942452
 10
78.270431802
 20
0.0
  0
LINE
  5
A6
330
23
100
AcDbEntity
  8
0
  6
Continuous
 62
     7
370
    25
100
AcDbLine
 10
203.521705329
 20
130.0
 30
0.0
 11
-203.521705329
 21
130.0
 31
0.0
  0
LINE
  5
A7
330
23
100
AcDbEntity
  8
0
  6
Continuous
 62
     7
370
    25
100
AcDbLine
 10
-60.0
 20
-11.9060408666
 30
0.0
 11
-60.0
 21
-12.0
 31
0.0
  0
LINE
  5
A8
330
23
100
AcDbEntity
  8
0
  6
Continuous
 62
     7
370
    25
100
AcDbLine
 10
60.0
 20
-12.0
 30
0.0
 11
60.0
 21
-11.9060408666
 31
0.0
  0
LINE
  5
A9
330
23
100
AcDbEntity
  8
0
  6
Continuous
 62
     7
370
    25
100
AcDbLine
 10
-190.0
 20
0.0
 30
0.0
 11
190.0
 21
0.0
 31
0.0
  0
LINE
  5
AA
330
23
100
AcDbEntity
  8
0
  6
Continuous
 62
     7
370
    25
100
AcDbLine
 10
-60.0
 20
-12.0
 30
0.0
 11
60.0
 21
-12.0
 31
0.0
  0
LINE
  5
AB
330
23
100
AcDbEntity
  8
0
  6
Continuous
 62
    60
370
    25
100
AcDbLine
 10
-206.4711169734
 20
127.5486081952
 30
0.0
 11
206.4711169734
 21
127.5486081952
 31
0.0
  0
LINE
  5
AC
330
23
100
AcDbEntity
  8
0
  6
Continuous
 62
    60
370
    25
100
AcDbLine
 10
-68.2497916456
 20
-2.0603935686
 30
0.0
 11
68.2497916456
 21
-2.0603935686
 31
0.0
  0
LINE
  5
AD
330
23
100
AcDbEntity
  8
0
  6
Continuous
 62
    60
370
    25
100
AcDbLine
 10
-60.0
 20
-11.9060408666
 30
0.0
 11
60.0
 21
-11.9060408666
 31
0.0
  0
ARC
  5
AE
330
23
100
AcDbEntity
  8
0
  6
Continuous
 62
     7
370
    25
100
AcDbCircle
 10
-0.7295274343
 20
89.2794427773
 30
0.0
 40
209.270472565714
100
AcDbArc
 50
169.4630610397
 51
205.2533907078
  0
ARC
  5
AF
330
23
100
AcDbEntity
  8
0
  6
Continuous
 62
     7
370
    25
100
AcDbCircle
 10
0.7295274343
 20
89.2794427773
 30
0.0
 40
209.2704725657137
100
AcDbArc
 50
334.7466092922
 51
10.5369389603
  0
ARC
  5
B0
330
23
100
AcDbEntity
  8
0
  6
Continuous
 62
     7
370
    25
100
AcDbCircle
 10
-203.521705329
 20
127.0
 30
0.0
 40
3.000000000000143
100
AcDbArc
 50
90.0
 51
169.4630610397
  0
ARC
  5
B1
330
23
100
AcDbEntity
  8
0
  6
Continuous
 62
     7
370
    25
100
AcDbCircle
 10
203.521705329
 20
127.0
 30
0.0
 40
3.000000000000143
100
AcDbArc
 50
10.5369389603
 51
90.0
  0
ARC
  5
B2
330
23
100
AcDbEntity
  8
0
  6
Continuous
 62
     7
370
    25
100
AcDbCircle
 10
-70.0
 20
-11.9060408666
 30
0.0
 40
9.999999999999982
100
AcDbArc
 50
0.0
 51
79.9201293963
  0
ARC
  5
B3
330
23
100
AcDbEntity
  8
0
  6
Continuous
 62
     7
370
    25
100
AcDbCircle
 10
70.0
 20
-11.9060408666
 30
0.0
 40
9.999999999999995
100
AcDbArc
 50
100.0798706037
 51
180.0
  0
VIEWPORT
  5
1E4
330
23
100
AcDbEntity
  8
0
100
AcDbViewport
 10
0.0
 20
0.0
 30
0.0
 40
205.6
 41
156.0
 68
     1
 69
     1
 12
0.0
 22
0.0
 13
0.0
 23
0.0
 14
10.0
 24
10.0
 15
10.0
 25
10.0
 16
0.0
 26
0.0
 36
1.0
 17
0.0
 27
0.0
 37
0.0
 42
50.0
 43
0.0
 44
0.0
 45
428.4
 50
0.0
 51
0.0
 72
   100
 90
   557152
  1

281
     0
 71
     1
 74
     0
110
0.0
120
0.0
130
0.0
111
1.0
121
0.0
131
0.0
112
0.0
122
1.0
132
0.0
 79
     0
146
0.0
  0
ENDBLK
  5
25
330
23
100
AcDbEntity
  8
0
100
AcDbBlockEnd
  0
BLOCK
  5
B6
330
B4
100
AcDbEntity
  8
0
100
AcDbBlockBegin
  2
*Paper_Space1
 70
     0
 10
0.0
 20
0.0
 30
0.0
  3
*Paper_Space1
  1

  0
LWPOLYLINE
  5
BD
330
B4
100
AcDbEntity
  8
0
  6
Continuous
 62
     7
370
    25
100
AcDbPolyline
 90
        3
 70
   128
 43
0.0
 10
-78.270431802
 20
0.0
 10
-76.5039745695
 20
-0.4040995969
 10
-68.2497916456
 20
-2.0603935686
  0
LWPOLYLINE
  5
BE
330
B4
100
AcDbEntity
  8
0
  6
Continuous
 62
     7
370
    25
100
AcDbPolyline
 90
        3
 70
   128
 43
0.0
 10
68.2497916456
 20
-2.0603935686
 10
76.5039984863
 20
-0.4040942452
 10
78.270431802
 20
0.0
  0
LINE
  5
C8
330
B4
100
AcDbEntity
  8
0
  6
Continuous
 62
     7
370
    25
100
AcDbLine
 10
203.521705329
 20
130.0
 30
0.0
 11
-203.521705329
 21
130.0
 31
0.0
  0
LINE
  5
C9
330
B4
100
AcDbEntity
  8
0
  6
Continuous
 62
     7
370
    25
100
AcDbLine
 10
-60.0
 20
-11.9060408666
 30
0.0
 11
-60.0
 21
-12.0
 31
0.0
  0
LINE
  5
CA
330
B4
100
AcDbEntity
  8
0
  6
Continuous
 62
     7
370
    25
100
AcDbLine
 10
60.0
 20
-12.0
 30
0.0
 11
60.0
 21
-11.9060408666
 31
0.0
  0
LINE
  5
CB
330
B4
100
AcDbEntity
  8
0
  6
Continuous
 62
     7
370
    25
100
AcDbLine
 10
-190.0
 20
0.0
 30
0.0
 11
190.0
 21
0.0
 31
0.0
  0
LINE
  5
CC
330
B4
100
AcDbEntity
  8
0
  6
Continuous
 62
     7
370
    25
100
AcDbLine
 10
-60.0
 20
-12.0
 30
0.0
 11
60.0
 21
-12.0
 31
0.0
  0
LINE
  5
CD
330
B4
100
AcDbEntity
  8
0
  6
Continuous
 62
    60
370
    25
100
AcDbLine
 10
-206.4711169734
 20
127.5486081952
 30
0.0
 11
206.4711169734
 21
127.5486081952
 31
0.0
  0
LINE
  5
CE
330
B4
100
AcDbEntity
  8
0
  6
Continuous
 62
    60
370
    25
100
AcDbLine
 10
-68.2497916456
 20
-2.0603935686
 30
0.0
 11
68.2497916456
 21
-2.0603935686
 31
0.0
  0
LINE
  5
CF
330
B4
100
AcDbEntity
  8
0
  6
Continuous
 62
    60
370
    25
100
AcDbLine
 10
-60.0
 20
-11.9060408666
 30
0.0
 11
60.0
 21
-11.9060408666
 31
0.0
  0
ARC
  5
D0
330
B4
100
AcDbEntity
  8
0
  6
Continuous
 62
     7
370
    25
100
AcDbCircle
 10
-0.7295274343
 20
89.2794427773
 30
0.0
 40
209.2704725657147
100
AcDbArc
 50
169.4630610397
 51
205.2533907078
  0
ARC
  5
D1
330
B4
100
AcDbEntity
  8
0
  6
Continuous
 62
     7
370
    25
100
AcDbCircle
 10
0.7295274343
 20
89.2794427773
 30
0.0
 40
209.2704725657142
100
AcDbArc
 50
334.7466092922
 51
10.5369389603
  0
ARC
  5
D2
330
B4
100
AcDbEntity
  8
0
  6
Continuous
 62
     7
370
    25
100
AcDbCircle
 10
-203.521705329
 20
127.0
 30
0.0
 40
3.000000000000143
100
AcDbArc
 50
90.0
 51
169.4630610397
  0
ARC
  5
D3
330
B4
100
AcDbEntity
  8
0
  6
Continuous
 62
     7
370
    25
100
AcDbCircle
 10
203.521705329
 20
127.0
 30
0.0
 40
3.000000000000143
100
AcDbArc
 50
10.5369389603
 51
90.0
  0
ARC
  5
D4
330
B4
100
AcDbEntity
  8
0
  6
Continuous
 62
     7
370
    25
100
AcDbCircle
 10
-70.0
 20
-11.9060408666
 30
0.0
 40
9.999999999999998
100
AcDbArc
 50
0.0
 51
79.9201293963
  0
ARC
  5
D5
330
B4
100
AcDbEntity
  8
0
  6
Continuous
 62
     7
370
    25
100
AcDbCircle
 10
70.0
 20
-11.9060408666
 30
0.0
 40
9.999999999999982
100
AcDbArc
 50
100.0798706037
 51
180.0
  0
VIEWPORT
  5
1E6
330
B4
100
AcDbEntity
  8
0
100
AcDbViewport
 10
0.0
 20
0.0
 30
0.0
 40
205.6
 41
156.0
 68
     1
 69
     1
 12
0.0
 22
0.0
 13
0.0
 23
0.0
 14
10.0
 24
10.0
 15
10.0
 25
10.0
 16
0.0
 26
0.0
 36
1.0
 17
0.0
 27
0.0
 37
0.0
 42
50.0
 43
0.0
 44
0.0
 45
428.4
 50
0.0
 51
0.0
 72
   100
 90
   557152
  1

281
     0
 71
     1
 74
     0
110
0.0
120
0.0
130
0.0
111
1.0
121
0.0
131
0.0
112
0.0
122
1.0
132
0.0
 79
     0
146
0.0
  0
ENDBLK
  5
B7
330
B4
100
AcDbEntity
  8
0
100
AcDbBlockEnd
  0
BLOCK
  5
D8
330
D6
100
AcDbEntity
  8
0
100
AcDbBlockBegin
  2
*Paper_Space2
 70
     0
 10
0.0
 20
0.0
 30
0.0
  3
*Paper_Space2
  1

  0
LWPOLYLINE
  5
DF
330
D6
100
AcDbEntity
  8
0
  6
Continuous
 62
     7
370
    25
100
AcDbPolyline
 90
        3
 70
   128
 43
0.0
 10
-78.270431802
 20
0.0
 10
-76.5039745695
 20
-0.4040995969
 10
-68.2497916456
 20
-2.0603935686
  0
LWPOLYLINE
  5
E0
330
D6
100
AcDbEntity
  8
0
  6
Continuous
 62
     7
370
    25
100
AcDbPolyline
 90
        3
 70
   128
 43
0.0
 10
68.2497916456
 20
-2.0603935686
 10
76.5039984863
 20
-0.4040942452
 10
78.270431802
 20
0.0
  0
LINE
  5
EA
330
D6
100
AcDbEntity
  8
0
  6
Continuous
 62
     7
370
    25
100
AcDbLine
 10
203.521705329
 20
130.0
 30
0.0
 11
-203.521705329
 21
130.0
 31
0.0
  0
LINE
  5
EB
330
D6
100
AcDbEntity
  8
0
  6
Continuous
 62
     7
370
    25
100
AcDbLine
 10
-60.0
 20
-11.9060408666
 30
0.0
 11
-60.0
 21
-12.0
 31
0.0
  0
LINE
  5
EC
330
D6
100
AcDbEntity
  8
0
  6
Continuous
 62
     7
370
    25
100
AcDbLine
 10
60.0
 20
-12.0
 30
0.0
 11
60.0
 21
-11.9060408666
 31
0.0
  0
LINE
  5
ED
330
D6
100
AcDbEntity
  8
0
  6
Continuous
 62
     7
370
    25
100
AcDbLine
 10
-190.0
 20
0.0
 30
0.0
 11
190.0
 21
0.0
 31
0.0
  0
LINE
  5
EE
330
D6
100
AcDbEntity
  8
0
  6
Continuous
 62
     7
370
    25
100
AcDbLine
 10
-60.0
 20
-12.0
 30
0.0
 11
60.0
 21
-12.0
 31
0.0
  0
LINE
  5
EF
330
D6
100
AcDbEntity
  8
0
  6
Continuous
 62
    60
370
    25
100
AcDbLine
 10
-206.4711169734
 20
127.5486081952
 30
0.0
 11
206.4711169734
 21
127.5486081952
 31
0.0
  0
LINE
  5
F0
330
D6
100
AcDbEntity
  8
0
  6
Continuous
 62
    60
370
    25
100
AcDbLine
 10
-68.2497916456
 20
-2.0603935686
 30
0.0
 11
68.2497916456
 21
-2.0603935686
 31
0.0
  0
LINE
  5
F1
330
D6
100
AcDbEntity
  8
0
  6
Continuous
 62
    60
370
    25
100
AcDbLine
 10
-60.0
 20
-11.9060408666
 30
0.0
 11
60.0
 21
-11.9060408666
 31
0.0
  0
ARC
  5
F2
330
D6
100
AcDbEntity
  8
0
  6
Continuous
 62
     7
370
    25
100
AcDbCircle
 10
-0.7295274343
 20
89.2794427773
 30
0.0
 40
209.2704725657137
100
AcDbArc
 50
169.4630610397
 51
205.2533907078
  0
ARC
  5
F3
330
D6
100
AcDbEntity
  8
0
  6
Continuous
 62
     7
370
    25
100
AcDbCircle
 10
0.7295274343
 20
89.2794427773
 30
0.0
 40
209.2704725657137
100
AcDbArc
 50
334.7466092922
 51
10.5369389603
  0
ARC
  5
F4
330
D6
100
AcDbEntity
  8
0
  6
Continuous
 62
     7
370
    25
100
AcDbCircle
 10
-203.521705329
 20
127.0
 30
0.0
 40
3.000000000000143
100
AcDbArc
 50
90.0
 51
169.4630610397
  0
ARC
  5
F5
330
D6
100
AcDbEntity
  8
0
  6
Continuous
 62
     7
370
    25
100
AcDbCircle
 10
203.521705329
 20
127.0
 30
0.0
 40
3.000000000000143
100
AcDbArc
 50
10.5369389603
 51
90.0
  0
ARC
  5
F6
330
D6
100
AcDbEntity
  8
0
  6
Continuous
 62
     7
370
    25
100
AcDbCircle
 10
-70.0
 20
-11.9060408666
 30
0.0
 40
9.999999999999991
100
AcDbArc
 50
0.0
 51
79.9201293963
  0
ARC
  5
F7
330
D6
100
AcDbEntity
  8
0
  6
Continuous
 62
     7
370
    25
100
AcDbCircle
 10
70.0
 20
-11.9060408666
 30
0.0
 40
9.999999999999998
100
AcDbArc
 50
100.0798706037
 51
180.0
  0
VIEWPORT
  5
1E8
330
D6
100
AcDbEntity
  8
0
100
AcDbViewport
 10
0.0
 20
0.0
 30
0.0
 40
205.6
 41
156.0
 68
     1
 69
     1
 12
0.0
 22
0.0
 13
0.0
 23
0.0
 14
10.0
 24
10.0
 15
10.0
 25
10.0
 16
0.0
 26
0.0
 36
1.0
 17
0.0
 27
0.0
 37
0.0
 42
50.0
 43
0.0
 44
0.0
 45
428.4
 50
0.0
 51
0.0
 72
   100
 90
   557152
  1

281
     0
 71
     1
 74
     0
110
0.0
120
0.0
130
0.0
111
1.0
121
0.0
131
0.0
112
0.0
122
1.0
132
0.0
 79
     0
146
0.0
  0
ENDBLK
  5
D9
330
D6
100
AcDbEntity
  8
0
100
AcDbBlockEnd
  0
BLOCK
  5
FA
330
F8
100
AcDbEntity
  8
0
100
AcDbBlockBegin
  2
*Paper_Space3
 70
     0
 10
0.0
 20
0.0
 30
0.0
  3
*Paper_Space3
  1

  0
LWPOLYLINE
  5
101
330
F8
100
AcDbEntity
  8
0
  6
Continuous
 62
     7
370
    25
100
AcDbPolyline
 90
        3
 70
   128
 43
0.0
 10
-78.270431802
 20
0.0
 10
-76.5039745695
 20
-0.4040995969
 10
-68.2497916456
 20
-2.0603935686
  0
LWPOLYLINE
  5
102
330
F8
100
AcDbEntity
  8
0
  6
Continuous
 62
     7
370
    25
100
AcDbPolyline
 90
        3
 70
   128
 43
0.0
 10
68.2497916456
 20
-2.0603935686
 10
76.5039984863
 20
-0.4040942452
 10
78.270431802
 20
0.0
  0
LINE
  5
111
330
F8
100
AcDbEntity
  8
0
  6
Continuous
 62
     7
370
    25
100
AcDbLine
 10
203.521705329
 20
130.0
 30
0.0
 11
-203.521705329
 21
130.0
 31
0.0
  0
LINE
  5
112
330
F8
100
AcDbEntity
  8
0
  6
Continuous
 62
     7
370
    25
100
AcDbLine
 10
-60.0
 20
-11.9060408666
 30
0.0
 11
-60.0
 21
-12.0
 31
0.0
  0
LINE
  5
113
330
F8
100
AcDbEntity
  8
0
  6
Continuous
 62
     7
370
    25
100
AcDbLine
 10
60.0
 20
-12.0
 30
0.0
 11
60.0
 21
-11.9060408666
 31
0.0
  0
LINE
  5
114
330
F8
100
AcDbEntity
  8
0
  6
Continuous
 62
     7
370
    25
100
AcDbLine
 10
-190.0
 20
0.0
 30
0.0
 11
190.0
 21
0.0
 31
0.0
  0
LINE
  5
115
330
F8
100
AcDbEntity
  8
0
  6
Continuous
 62
     7
370
    25
100
AcDbLine
 10
-60.0
 20
-12.0
 30
0.0
 11
60.0
 21
-12.0
 31
0.0
  0
LINE
  5
116
330
F8
100
AcDbEntity
  8
0
  6
Continuous
 62
    60
370
    25
100
AcDbLine
 10
-206.4711169734
 20
127.5486081952
 30
0.0
 11
206.4711169734
 21
127.5486081952
 31
0.0
  0
LINE
  5
117
330
F8
100
AcDbEntity
  8
0
  6
Continuous
 62
    60
370
    25
100
AcDbLine
 10
-68.2497916456
 20
-2.0603935686
 30
0.0
 11
68.2497916456
 21
-2.0603935686
 31
0.0
  0
LINE
  5
118
330
F8
100
AcDbEntity
  8
0
  6
Continuous
 62
    60
370
    25
100
AcDbLine
 10
-60.0
 20
-11.9060408666
 30
0.0
 11
60.0
 21
-11.9060408666
 31
0.0
  0
ARC
  5
119
330
F8
100
AcDbEntity
  8
0
  6
Continuous
 62
     7
370
    25
100
AcDbCircle
 10
-0.7295274343
 20
89.2794427773
 30
0.0
 40
209.270472565714
100
AcDbArc
 50
169.4630610397
 51
205.2533907078
  0
ARC
  5
11A
330
F8
100
AcDbEntity
  8
0
  6
Continuous
 62
     7
370
    25
100
AcDbCircle
 10
0.7295274343
 20
89.2794427773
 30
0.0
 40
209.2704725657137
100
AcDbArc
 50
334.7466092922
 51
10.5369389603
  0
ARC
  5
11B
330
F8
100
AcDbEntity
  8
0
  6
Continuous
 62
     7
370
    25
100
AcDbCircle
 10
-203.521705329
 20
127.0
 30
0.0
 40
3.000000000000143
100
AcDbArc
 50
90.0
 51
169.4630610397
  0
ARC
  5
11C
330
F8
100
AcDbEntity
  8
0
  6
Continuous
 62
     7
370
    25
100
AcDbCircle
 10
203.521705329
 20
127.0
 30
0.0
 40
3.000000000000143
100
AcDbArc
 50
10.5369389603
 51
90.0
  0
ARC
  5
11D
330
F8
100
AcDbEntity
  8
0
  6
Continuous
 62
     7
370
    25
100
AcDbCircle
 10
-70.0
 20
-11.9060408666
 30
0.0
 40
9.999999999999982
100
AcDbArc
 50
0.0
 51
79.9201293963
  0
ARC
  5
11E
330
F8
100
AcDbEntity
  8
0
  6
Continuous
 62
     7
370
    25
100
AcDbCircle
 10
70.0
 20
-11.9060408666
 30
0.0
 40
9.999999999999995
100
AcDbArc
 50
100.0798706037
 51
180.0
  0
VIEWPORT
  5
1EA
330
F8
100
AcDbEntity
  8
0
100
AcDbViewport
 10
0.0
 20
0.0
 30
0.0
 40
205.6
 41
156.0
 68
     1
 69
     1
 12
0.0
 22
0.0
 13
0.0
 23
0.0
 14
10.0
 24
10.0
 15
10.0
 25
10.0
 16
0.0
 26
0.0
 36
1.0
 17
0.0
 27
0.0
 37
0.0
 42
50.0
 43
0.0
 44
0.0
 45
428.4
 50
0.0
 51
0.0
 72
   100
 90
   557152
  1

281
     0
 71
     1
 74
     0
110
0.0
120
0.0
130
0.0
111
1.0
121
0.0
131
0.0
112
0.0
122
1.0
132
0.0
 79
     0
146
0.0
  0
ENDBLK
  5
FB
330
F8
100
AcDbEntity
  8
0
100
AcDbBlockEnd
  0
BLOCK
  5
121
330
11F
100
AcDbEntity
  8
0
100
AcDbBlockBegin
  2
*Paper_Space4
 70
     0
 10
0.0
 20
0.0
 30
0.0
  3
*Paper_Space4
  1

  0
CIRCLE
  5
123
330
11F
100
AcDbEntity
  8
0
  6
Continuous
 62
     7
370
    25
100
AcDbCircle
 10
0.0
 20
0.0
 30
0.0
 40
209.9999999999998
  0
CIRCLE
  5
124
330
11F
100
AcDbEntity
  8
0
  6
Continuous
 62
     7
370
    25
100
AcDbCircle
 10
0.0
 20
0.0
 30
0.0
 40
23.0
  0
CIRCLE
  5
125
330
11F
100
AcDbEntity
  8
0
  6
Continuous
 62
     7
370
    25
100
AcDbCircle
 10
0.0
 20
0.0
 30
0.0
 40
59.99999999999996
  0
CIRCLE
  5
126
330
11F
100
AcDbEntity
  8
0
  6
Continuous
 62
     7
370
    25
100
AcDbCircle
 10
0.0
 20
0.0
 30
0.0
 40
68.24979164557521
  0
SPLINE
  5
127
330
11F
100
AcDbEntity
  8
0
  6
Continuous
 62
     7
370
    25
100
AcDbSpline
210
0.0
220
0.0
230
1.0
 70
     8
 71
     3
 72
    32
 73
    28
 74
     0
 42
0.000000001
 43
0.00000001
 40
0.0
 40
0.0
 40
0.0
 40
0.0
 40
0.1249999999999994
 40
0.1249999999999994
 40
0.1874999999999994
 40
0.1874999999999994
 40
0.2499999999999993
 40
0.2499999999999993
 40
0.3749999999999997
 40
0.3749999999999997
 40
0.4374999999999998
 40
0.4374999999999998
 40
0.4687499999999998
 40
0.4687499999999998
 40
0.4999999999999999
 40
0.4999999999999999
 40
0.625
 40
0.625
 40
0.6875000000000001
 40
0.6875000000000001
 40
0.7187500000000002
 40
0.7187500000000002
 40
0.7500000000000003
 40
0.7500000000000003
 40
0.8750000000000001
 40
0.8750000000000001
 40
1.0
 40
1.0
 40
1.0
 40
1.0
 10
-26.0791636542723
 20
-144.7115772570927
 30
0.0
 10
-24.168848480862
 20
-143.7249666114322
 30
0.0
 10
-22.18694516289957
 20
-142.8233481063607
 30
0.0
 10
-19.09328802712417
 20
-141.6227430578901
 30
0.0
 10
-18.0418960846908
 20
-141.2478898796246
 30
0.0
 10
-15.89585657301672
 20
-140.5537362868637
 30
0.0
 10
-14.7981066810136
 20
-140.2338409938422
 30
0.0
 10
-11.48335970313818
 20
-139.3772878799398
 30
0.0
 10
-9.23272805227289
 20
-138.9387971792581
 30
0.0
 10
-5.792400240289814
 20
-138.4945741032052
 30
0.0
 10
-4.634869292579189
 20
-138.382143662986
 30
0.0
 10
-2.881766182267012
 20
-138.2694873525572
 30
0.0
 10
-2.293174916444863
 20
-138.2412395241418
 30
0.0
 10
-1.118111927035089
 20
-138.2041158477101
 30
0.0
 10
-0.5320436724767295
 20
-138.1951948679561
 30
0.0
 10
2.391098590704024
 20
-138.1980411866087
 30
0.0
 10
4.706655102751169
 20
-138.3517901560631
 30
0.0
 10
8.146795806565041
 20
-138.7999263908266
 30
0.0
 10
9.287961107196478
 20
-138.9856321067893
 30
0.0
 10
10.99141136314551
 20
-139.3180597596852
 30
0.0
 10
11.5586499191349
 20
-139.4380729879906
 30
0.0
 10
12.68003437020985
 20
-139.6934947882183
 30
0.0
 10
13.23537430613794
 20
-139.8291083540498
 30
0.0
 10
15.98630910374323
 20
-140.5449463218326
 30
0.0
 10
18.10493644279772
 20
-141.2380483301203
 30
0.0
 10
22.19742646998453
 20
-142.8285598789673
 30
0.0
 10
24.17115830422875
 20
-143.7261595540183
 30
0.0
 10
26.07916365427227
 20
-144.7115772570927
 30
0.0
  0
SPLINE
  5
129
330
11F
100
AcDbEntity
  8
0
  6
Continuous
 62
     7
370
    25
100
AcDbSpline
210
0.0
220
0.0
230
1.0
 70
     8
 71
     3
 72
    32
 73
    28
 74
     0
 42
0.000000001
 43
0.00000001
 40
0.0
 40
0.0
 40
0.0
 40
0.0
 40
0.1249999999999999
 40
0.1249999999999999
 40
0.1875000000000001
 40
0.1875000000000001
 40
0.2500000000000003
 40
0.2500000000000003
 40
0.3750000000000007
 40
0.3750000000000007
 40
0.4375000000000008
 40
0.4375000000000008
 40
0.4687500000000008
 40
0.4687500000000008
 40
0.5000000000000009
 40
0.5000000000000009
 40
0.6250000000000011
 40
0.6250000000000011
 40
0.6875000000000011
 40
0.6875000000000011
 40
0.7187500000000011
 40
0.7187500000000011
 40
0.750000000000001
 40
0.750000000000001
 40
0.8750000000000006
 40
0.8750000000000006
 40
1.0
 40
1.0
 40
1.0
 40
1.0
 10
-144.7115772570926
 20
26.07916365427226
 30
0.0
 10
-143.7249666114321
 20
24.16884848086196
 30
0.0
 10
-142.8233481063607
 20
22.1869451628996
 30
0.0
 10
-141.6227430578901
 20
19.0932880271242
 30
0.0
 10
-141.2478898796247
 20
18.04189608469083
 30
0.0
 10
-140.5537362868636
 20
15.89585657301674
 30
0.0
 10
-140.2338409938422
 20
14.79810668101362
 30
0.0
 10
-139.3772878799399
 20
11.48335970313821
 30
0.0
 10
-138.9387971792582
 20
9.232728052272924
 30
0.0
 10
-138.4945741032052
 20
5.792400240289846
 30
0.0
 10
-138.382143662986
 20
4.634869292579221
 30
0.0
 10
-138.2694873525572
 20
2.881766182267044
 30
0.0
 10
-138.2412395241418
 20
2.293174916444884
 30
0.0
 10
-138.2041158477101
 20
1.118111927035113
 30
0.0
 10
-138.1951948679562
 20
0.5320436724767544
 30
0.0
 10
-138.1980411866087
 20
-2.391098590703992
 30
0.0
 10
-138.3517901560631
 20
-4.706655102751153
 30
0.0
 10
-138.7999263908265
 20
-8.146795806565024
 30
0.0
 10
-138.9856321067893
 20
-9.287961107196459
 30
0.0
 10
-139.3180597596852
 20
-10.99141136314549
 30
0.0
 10
-139.4380729879906
 20
-11.55864991913489
 30
0.0
 10
-139.6934947882184
 20
-12.68003437020985
 30
0.0
 10
-139.8291083540498
 20
-13.23537430613792
 30
0.0
 10
-140.5449463218326
 20
-15.98630910374321
 30
0.0
 10
-141.2380483301203
 20
-18.1049364427977
 30
0.0
 10
-142.8285598789673
 20
-22.19742646998449
 30
0.0
 10
-143.7261595540182
 20
-24.17115830422875
 30
0.0
 10
-144.7115772570926
 20
-26.07916365427229
 30
0.0
  0
SPLINE
  5
12B
330
11F
100
AcDbEntity
  8
0
  6
Continuous
 62
     7
370
    25
100
AcDbSpline
210
0.0
220
0.0
230
1.0
 70
     8
 71
     3
 72
    32
 73
    28
 74
     0
 42
0.000000001
 43
0.00000001
 40
0.0
 40
0.0
 40
0.0
 40
0.0
 40
0.1250000000000002
 40
0.1250000000000002
 40
0.1875
 40
0.1875
 40
0.2499999999999998
 40
0.2499999999999998
 40
0.3749999999999997
 40
0.3749999999999997
 40
0.4374999999999998
 40
0.4374999999999998
 40
0.4687499999999998
 40
0.4687499999999998
 40
0.4999999999999998
 40
0.4999999999999998
 40
0.6249999999999999
 40
0.6249999999999999
 40
0.6875
 40
0.6875
 40
0.7187500000000001
 40
0.7187500000000001
 40
0.7500000000000001
 40
0.7500000000000001
 40
0.8750000000000001
 40
0.8750000000000001
 40
1.0
 40
1.0
 40
1.0
 40
1.0
 10
26.0791636542723
 20
144.7115772570926
 30
0.0
 10
24.16884848086199
 20
143.7249666114321
 30
0.0
 10
22.18694516289958
 20
142.8233481063606
 30
0.0
 10
19.09328802712418
 20
141.6227430578901
 30
0.0
 10
18.0418960846908
 20
141.2478898796246
 30
0.0
 10
15.89585657301672
 20
140.5537362868636
 30
0.0
 10
14.7981066810136
 20
140.2338409938421
 30
0.0
 10
11.48335970313818
 20
139.3772878799398
 30
0.0
 10
9.232728052272892
 20
138.9387971792581
 30
0.0
 10
5.792400240289814
 20
138.4945741032051
 30
0.0
 10
4.634869292579191
 20
138.382143662986
 30
0.0
 10
2.881766182267012
 20
138.2694873525572
 30
0.0
 10
2.293174916444848
 20
138.2412395241418
 30
0.0
 10
1.118111927035076
 20
138.2041158477101
 30
0.0
 10
0.5320436724767158
 20
138.1951948679561
 30
0.0
 10
-2.391098590704035
 20
138.1980411866088
 30
0.0
 10
-4.706655102751185
 20
138.3517901560631
 30
0.0
 10
-8.146795806565061
 20
138.7999263908265
 30
0.0
 10
-9.287961107196503
 20
138.9856321067893
 30
0.0
 10
-10.99141136314554
 20
139.3180597596852
 30
0.0
 10
-11.55864991913492
 20
139.4380729879906
 30
0.0
 10
-12.68003437020988
 20
139.6934947882183
 30
0.0
 10
-13.23537430613795
 20
139.8291083540498
 30
0.0
 10
-15.98630910374324
 20
140.5449463218327
 30
0.0
 10
-18.10493644279777
 20
141.2380483301204
 30
0.0
 10
-22.19742646998456
 20
142.8285598789674
 30
0.0
 10
-24.17115830422879
 20
143.7261595540183
 30
0.0
 10
-26.07916365427233
 20
144.7115772570927
 30
0.0
  0
SPLINE
  5
12D
330
11F
100
AcDbEntity
  8
0
  6
Continuous
 62
     7
370
    25
100
AcDbSpline
210
0.0
220
0.0
230
1.0
 70
     8
 71
     3
 72
    32
 73
    28
 74
     0
 42
0.000000001
 43
0.00000001
 40
0.0
 40
0.0
 40
0.0
 40
0.0
 40
0.1250000000000007
 40
0.1250000000000007
 40
0.1875000000000008
 40
0.1875000000000008
 40
0.2500000000000008
 40
0.2500000000000008
 40
0.3750000000000008
 40
0.3750000000000008
 40
0.4375000000000007
 40
0.4375000000000007
 40
0.4687500000000006
 40
0.4687500000000006
 40
0.5000000000000004
 40
0.5000000000000004
 40
0.6250000000000003
 40
0.6250000000000003
 40
0.6875000000000002
 40
0.6875000000000002
 40
0.7187500000000002
 40
0.7187500000000002
 40
0.7500000000000001
 40
0.7500000000000001
 40
0.8750000000000001
 40
0.8750000000000001
 40
1.0
 40
1.0
 40
1.0
 40
1.0
 10
144.7115772570926
 20
-26.0791636542723
 30
0.0
 10
143.7249666114321
 20
-24.16884848086198
 30
0.0
 10
142.8233481063606
 20
-22.1869451628996
 30
0.0
 10
141.6227430578901
 20
-19.0932880271242
 30
0.0
 10
141.2478898796247
 20
-18.04189608469083
 30
0.0
 10
140.5537362868636
 20
-15.89585657301674
 30
0.0
 10
140.2338409938422
 20
-14.79810668101362
 30
0.0
 10
139.3772878799398
 20
-11.4833597031382
 30
0.0
 10
138.9387971792581
 20
-9.232728052272906
 30
0.0
 10
138.4945741032051
 20
-5.792400240289825
 30
0.0
 10
138.382143662986
 20
-4.634869292579205
 30
0.0
 10
138.2694873525572
 20
-2.881766182267024
 30
0.0
 10
138.2412395241418
 20
-2.293174916444864
 30
0.0
 10
138.2041158477101
 20
-1.118111927035089
 30
0.0
 10
138.1951948679561
 20
-0.5320436724767332
 30
0.0
 10
138.1980411866088
 20
2.391098590704018
 30
0.0
 10
138.3517901560632
 20
4.706655102751173
 30
0.0
 10
138.7999263908266
 20
8.146795806565043
 30
0.0
 10
138.9856321067893
 20
9.287961107196486
 30
0.0
 10
139.3180597596852
 20
10.99141136314552
 30
0.0
 10
139.4380729879906
 20
11.55864991913493
 30
0.0
 10
139.6934947882183
 20
12.68003437020988
 30
0.0
 10
139.8291083540498
 20
13.23537430613795
 30
0.0
 10
140.5449463218326
 20
15.98630910374324
 30
0.0
 10
141.2380483301203
 20
18.10493644279775
 30
0.0
 10
142.8285598789673
 20
22.19742646998456
 30
0.0
 10
143.7261595540182
 20
24.17115830422878
 30
0.0
 10
144.7115772570926
 20
26.07916365427232
 30
0.0
  0
SPLINE
  5
12F
330
11F
100
AcDbEntity
  8
0
  6
Continuous
 62
     7
370
    25
100
AcDbSpline
210
0.0
220
0.0
230
1.0
 70
     8
 71
     3
 72
    14
 73
    10
 74
     0
 42
0.000000001
 43
0.00000001
 40
0.0
 40
0.0
 40
0.0
 40
0.0
 40
0.2500000000000001
 40
0.2500000000000001
 40
0.5000000000000001
 40
0.5000000000000001
 40
0.7500000000000001
 40
0.7500000000000001
 40
1.0
 40
1.0
 40
1.0
 40
1.0
 10
-172.4559522695813
 20
-12.96485032081611
 30
0.0
 10
-171.2750107948744
 20
-13.859342450191
 30
0.0
 10
-170.0474707392384
 20
-14.68660955852959
 30
0.0
 10
-167.5324738609271
 20
-16.23672349023465
 30
0.0
 10
-166.2446404995293
 20
-16.95938862087614
 30
0.0
 10
-163.6267906230586
 20
-18.31992688259446
 30
0.0
 10
-162.2964850005669
 20
-18.95773172771914
 30
0.0
 10
-159.6082151014775
 20
-20.16086149537019
 30
0.0
 10
-158.2496979450883
 20
-20.72639310267894
 30
0.0
 10
-156.8802809733154
 20
-21.26120402366625
 30
0.0
  0
SPLINE
  5
131
330
11F
100
AcDbEntity
  8
0
  6
Continuous
 62
     7
370
    25
100
AcDbSpline
210
0.0
220
0.0
230
1.0
 70
     8
 71
     3
 72
    12
 73
     8
 74
     0
 42
0.000000001
 43
0.00000001
 40
0.0
 40
0.0
 40
0.0
 40
0.0
 40
0.5
 40
0.5
 40
0.75
 40
0.75
 40
1.0
 40
1.0
 40
1.0
 40
1.0
 10
-156.8802809733154
 20
21.2612040236662
 30
0.0
 10
-159.6209031666134
 20
20.19088380017848
 30
0.0
 10
-162.3171254510768
 20
19.00043222946893
 30
0.0
 10
-166.2409492017475
 20
16.96138117950837
 30
0.0
 10
-167.528454195011
 20
16.23906409761534
 30
0.0
 10
-170.0442977549408
 20
14.68870173766533
 30
0.0
 10
-171.273019599578
 20
13.86085066085074
 30
0.0
 10
-172.4559522695813
 20
12.96485032081604
 30
0.0
  0
SPLINE
  5
132
330
11F
100
AcDbEntity
  8
0
  6
Continuous
 62
     7
370
    25
100
AcDbSpline
210
0.0
220
0.0
230
1.0
 70
     8
 71
     3
 72
    32
 73
    28
 74
     0
 42
0.000000001
 43
0.00000001
 40
0.0
 40
0.0
 40
0.0
 40
0.0
 40
0.1250000000000013
 40
0.1250000000000013
 40
0.2500000000000026
 40
0.2500000000000026
 40
0.2812500000000026
 40
0.2812500000000026
 40
0.3125000000000025
 40
0.3125000000000025
 40
0.3750000000000023
 40
0.3750000000000023
 40
0.5000000000000019
 40
0.5000000000000019
 40
0.5312500000000019
 40
0.5312500000000019
 40
0.5625000000000018
 40
0.5625000000000018
 40
0.6250000000000014
 40
0.6250000000000014
 40
0.750000000000001
 40
0.750000000000001
 40
0.8125000000000008
 40
0.8125000000000008
 40
0.8750000000000004
 40
0.8750000000000004
 40
1.0
 40
1.0
 40
1.0
 40
1.0
 10
-156.8802809733153
 20
-21.26120402366618
 30
0.0
 10
-156.1995768113801
 20
-19.71659460192096
 30
0.0
 10
-155.5751680127233
 20
-18.1210131085158
 30
0.0
 10
-154.4607174807013
 20
-14.80959712202295
 30
0.0
 10
-153.9705044620946
 20
-13.09391213125587
 30
0.0
 10
-153.4599711197742
 20
-10.85765085357261
 30
0.0
 10
-153.3630030928789
 20
-10.40578844824184
 30
0.0
 10
-153.1799311768744
 20
-9.492302180528831
 30
0.0
 10
-153.0936266804311
 20
-9.029474118803257
 30
0.0
 10
-152.8535797539908
 20
-7.634917225230089
 30
0.0
 10
-152.7190133217515
 20
-6.699852081449395
 30
0.0
 10
-152.3935772072694
 20
-3.878132469235652
 30
0.0
 10
-152.2808014630837
 20
-1.974981356571214
 30
0.0
 10
-152.2784776233405
 20
0.4333320105541565
 30
0.0
 10
-152.284958229162
 20
0.9164655709733893
 30
0.0
 10
-152.312076339403
 20
1.88573025525235
 30
0.0
 10
-152.3327352940769
 20
2.37096062318016
 30
0.0
 10
-152.4149680248689
 20
3.81407675037099
 30
0.0
 10
-152.496902403954
 20
4.764861217368079
 30
0.0
 10
-152.8191278886557
 20
7.58545424723992
 30
0.0
 10
-153.1356536882406
 20
9.423586272765151
 30
0.0
 10
-153.7476643314301
 20
12.1241104945786
 30
0.0
 10
-153.9751026302334
 20
13.01592981806028
 30
0.0
 10
-154.4656262536211
 20
14.75547157415989
 30
0.0
 10
-154.7294256234313
 20
15.60673598153677
 30
0.0
 10
-155.5708168610326
 20
18.11060077171586
 30
0.0
 10
-156.1982166918473
 20
19.71350830751769
 30
0.0
 10
-156.8802809733154
 20
21.26120402366615
 30
0.0
  0
SPLINE
  5
134
330
11F
100
AcDbEntity
  8
0
  6
Continuous
 62
     7
370
    25
100
AcDbSpline
210
0.0
220
0.0
230
1.0
 70
     8
 71
     3
 72
    12
 73
     8
 74
     0
 42
0.000000001
 43
0.00000001
 40
0.0
 40
0.0
 40
0.0
 40
0.0
 40
0.4999999999999994
 40
0.4999999999999994
 40
0.7499999999999997
 40
0.7499999999999997
 40
1.0
 40
1.0
 40
1.0
 40
1.0
 10
-159.0286620201842
 20
-28.65931379613294
 30
0.0
 10
-162.0035003118972
 20
-27.72300224751007
 30
0.0
 10
-164.9664699156943
 20
-26.68644674927083
 30
0.0
 10
-169.3867513109305
 20
-24.92367951654272
 30
0.0
 10
-170.856113401849
 20
-24.30111663218701
 30
0.0
 10
-173.7848634752949
 20
-22.96954575659358
 30
0.0
 10
-175.2442736087042
 20
-22.26073404109477
 30
0.0
 10
-176.6972662686038
 20
-21.495955275403
 30
0.0
  0
SPLINE
  5
135
330
11F
100
AcDbEntity
  8
0
  6
Continuous
 62
     7
370
    25
100
AcDbSpline
210
0.0
220
0.0
230
1.0
 70
     8
 71
     3
 72
    20
 73
    16
 74
     0
 42
0.000000001
 43
0.00000001
 40
0.0
 40
0.0
 40
0.0
 40
0.0
 40
0.2499999999999998
 40
0.2499999999999998
 40
0.3749999999999998
 40
0.3749999999999998
 40
0.4999999999999999
 40
0.4999999999999999
 40
0.6249999999999999
 40
0.6249999999999999
 40
0.7499999999999999
 40
0.7499999999999999
 40
0.875
 40
0.875
 40
1.0
 40
1.0
 40
1.0
 40
1.0
 10
-176.6972662686038
 20
-21.49595527540276
 30
0.0
 10
-176.7998115537818
 20
-20.65303057968486
 30
0.0
 10
-176.7901466313116
 20
-19.81442043113621
 30
0.0
 10
-176.5910729573452
 20
-18.56360227307538
 30
0.0
 10
-176.4929411895913
 20
-18.1483458141525
 30
0.0
 10
-176.2386674391554
 20
-17.348652057528
 30
0.0
 10
-176.0821051470807
 20
-16.96058165826876
 30
0.0
 10
-175.709299472474
 20
-16.20832609865979
 30
0.0
 10
-175.4906970384028
 20
-15.8411602619313
 30
0.0
 10
-175.0046346470896
 20
-15.15141805840303
 30
0.0
 10
-174.737484987824
 20
-14.82790346768961
 30
0.0
 10
-174.1572561849161
 20
-14.22154410489465
 30
0.0
 10
-173.8428197016613
 20
-13.93768361220913
 30
0.0
 10
-173.1743075483942
 20
-13.41520679044528
 30
0.0
 10
-172.823104090399
 20
-13.17849033917507
 30
0.0
 10
-172.4559522695812
 20
-12.96485032081615
 30
0.0
  0
CIRCLE
  5
136
330
11F
100
AcDbEntity
  8
0
  6
Continuous
 62
     7
370
    25
100
AcDbCircle
 10
0.0
 20
0.0
 30
0.0
 40
189.9999999999998
  0
SPLINE
  5
137
330
11F
100
AcDbEntity
  8
0
  6
Continuous
 62
     7
370
    25
100
AcDbSpline
210
0.0
220
0.0
230
1.0
 70
     8
 71
     3
 72
    22
 73
    18
 74
     0
 42
0.000000001
 43
0.00000001
 40
0.0
 40
0.0
 40
0.0
 40
0.0
 40
0.2499999999999991
 40
0.2499999999999991
 40
0.3749999999999986
 40
0.3749999999999986
 40
0.499999999999998
 40
0.499999999999998
 40
0.5625
 40
0.5625
 40
0.625000000000002
 40
0.625000000000002
 40
0.7500000000000013
 40
0.7500000000000013
 40
0.8750000000000007
 40
0.8750000000000007
 40
1.0
 40
1.0
 40
1.0
 40
1.0
 10
-21.49595527540273
 20
176.6972662686038
 30
0.0
 10
-20.65281570066491
 20
176.7998376947058
 30
0.0
 10
-19.8144128635583
 20
176.7900804261119
 30
0.0
 10
-18.5645753887976
 20
176.591260295949
 30
0.0
 10
-18.14865600027874
 20
176.4930340092267
 30
0.0
 10
-17.34855095701912
 20
176.2386410996819
 30
0.0
 10
-16.9606477317175
 20
176.0821032781487
 30
0.0
 10
-16.39717339384685
 20
175.8029064034422
 30
0.0
 10
-16.21242087429621
 20
175.7024210648901
 30
0.0
 10
-15.84919790610596
 20
175.4862787645381
 30
0.0
 10
-15.6701971041178
 20
175.3701783323787
 30
0.0
 10
-15.15166870607684
 20
175.0048923154624
 30
0.0
 10
-14.82784078039045
 20
174.7374290263571
 30
0.0
 10
-14.22152085666692
 20
174.1572299136034
 30
0.0
 10
-13.93866697253396
 20
173.8440017698763
 30
0.0
 10
-13.41545039078164
 20
173.1746952051614
 30
0.0
 10
-13.17855603793288
 20
172.8232169972354
 30
0.0
 10
-12.9648503208161
 20
172.4559522695813
 30
0.0
  0
SPLINE
  5
139
330
11F
100
AcDbEntity
  8
0
  6
Continuous
 62
     7
370
    25
100
AcDbSpline
210
0.0
220
0.0
230
1.0
 70
     8
 71
     3
 72
    20
 73
    16
 74
     0
 42
0.000000001
 43
0.00000001
 40
0.0
 40
0.0
 40
0.0
 40
0.0
 40
0.2499999999999957
 40
0.2499999999999957
 40
0.3749999999999964
 40
0.3749999999999964
 40
0.4999999999999971
 40
0.4999999999999971
 40
0.6249999999999978
 40
0.6249999999999978
 40
0.7499999999999986
 40
0.7499999999999986
 40
0.8749999999999992
 40
0.8749999999999992
 40
1.0
 40
1.0
 40
1.0
 40
1.0
 10
-172.4559522695813
 20
12.96485032081604
 30
0.0
 10
-173.1898490696551
 20
13.39189362266342
 30
0.0
 10
-173.852876973177
 20
13.90547091533642
 30
0.0
 10
-174.7300489355367
 20
14.81915057491449
 30
0.0
 10
-175.0018549736488
 20
15.14806455226157
 30
0.0
 10
-175.4857701362978
 20
15.83358716798267
 30
0.0
 10
-175.7005297224564
 20
16.19272926284681
 30
0.0
 10
-176.0749752005519
 20
16.94418319354522
 30
0.0
 10
-176.2356074123506
 20
17.34015957064681
 30
0.0
 10
-176.4919312595394
 20
18.14405608572524
 30
0.0
 10
-176.5885758925645
 20
18.55234548048312
 30
0.0
 10
-176.7218478899044
 20
19.38099947473587
 30
0.0
 10
-176.7584669515498
 20
19.80309636150067
 30
0.0
 10
-176.7717128132499
 20
20.65140335330724
 30
0.0
 10
-176.7485645689659
 20
21.07428202003581
 30
0.0
 10
-176.6972662686038
 20
21.49595527540267
 30
0.0
  0
SPLINE
  5
13B
330
11F
100
AcDbEntity
  8
0
  6
Continuous
 62
     7
370
    25
100
AcDbSpline
210
0.0
220
0.0
230
1.0
 70
     8
 71
     3
 72
    22
 73
    18
 74
     0
 42
0.000000001
 43
0.00000001
 40
0.0
 40
0.0
 40
0.0
 40
0.0
 40
0.2499999999999956
 40
0.2499999999999956
 40
0.3749999999999933
 40
0.3749999999999933
 40
0.4999999999999916
 40
0.4999999999999916
 40
0.562499999999993
 40
0.562499999999993
 40
0.6249999999999944
 40
0.6249999999999944
 40
0.7499999999999963
 40
0.7499999999999963
 40
0.8749999999999982
 40
0.8749999999999982
 40
1.0
 40
1.0
 40
1.0
 40
1.0
 10
-12.96485032081605
 20
-172.4559522695813
 30
0.0
 10
-13.39199241940252
 20
-173.1900188571459
 30
0.0
 10
-13.90552170513124
 20
-173.8528430061152
 30
0.0
 10
-14.81846836108801
 20
-174.7294352998865
 30
0.0
 10
-15.1478261325188
 20
-175.0016803907983
 30
0.0
 10
-15.83365971490171
 20
-175.4858276268544
 30
0.0
 10
-16.19268830399934
 20
-175.7004769067158
 30
0.0
 10
-16.75557755970466
 20
-175.981010191244
 30
0.0
 10
-16.94727656911305
 20
-176.0675948900012
 30
0.0
 10
-17.33898963698056
 20
-176.226611011862
 30
0.0
 10
-17.5396078371395
 20
-176.2991702713998
 30
0.0
 10
-18.14373269249962
 20
-176.4918910387795
 30
0.0
 10
-18.55241572914258
 20
-176.5885891716628
 30
0.0
 10
-19.38100837967415
 20
-176.7218473408489
 30
0.0
 10
-19.80168271063483
 20
-176.7584017454755
 30
0.0
 10
-20.65098426021835
 20
-176.7717493090271
 30
0.0
 10
-21.0741635553705
 20
-176.7485789806837
 30
0.0
 10
-21.49595527540269
 20
-176.6972662686038
 30
0.0
  0
SPLINE
  5
13D
330
11F
100
AcDbEntity
  8
0
  6
Continuous
 62
     7
370
    25
100
AcDbSpline
210
0.0
220
0.0
230
1.0
 70
     8
 71
     3
 72
    20
 73
    16
 74
     0
 42
0.000000001
 43
0.00000001
 40
0.0
 40
0.0
 40
0.0
 40
0.0
 40
0.2500000000000017
 40
0.2500000000000017
 40
0.3750000000000014
 40
0.3750000000000014
 40
0.5000000000000011
 40
0.5000000000000011
 40
0.6250000000000009
 40
0.6250000000000009
 40
0.7500000000000006
 40
0.7500000000000006
 40
0.8750000000000003
 40
0.8750000000000003
 40
1.0
 40
1.0
 40
1.0
 40
1.0
 10
21.49595527540274
 20
-176.6972662686038
 30
0.0
 10
20.65294710053336
 20
-176.7998217093668
 30
0.0
 10
19.81442379050056
 20
-176.7901199353378
 30
0.0
 10
18.56400656979679
 20
-176.5911509117827
 30
0.0
 10
18.14846957970074
 20
-176.4929778570227
 30
0.0
 10
17.34862500247388
 20
-176.2386615218457
 30
0.0
 10
16.96062914966689
 20
-176.0821129393198
 30
0.0
 10
16.20877355411735
 20
-175.7095369575213
 30
0.0
 10
15.84188402457068
 20
-175.4911760809205
 30
0.0
 10
15.15150842941244
 20
-175.0047292892765
 30
0.0
 10
14.82787764444783
 20
-174.7374610815327
 30
0.0
 10
14.22155275816012
 20
-174.1572636611333
 30
0.0
 10
13.93807740269679
 20
-173.8432931439289
 30
0.0
 10
13.41530378195076
 20
-173.1744620360201
 30
0.0
 10
13.17851623253726
 20
-172.8231485895297
 30
0.0
 10
12.96485032081613
 20
-172.4559522695812
 30
0.0
  0
SPLINE
  5
13F
330
11F
100
AcDbEntity
  8
0
  6
Continuous
 62
     7
370
    25
100
AcDbSpline
210
0.0
220
0.0
230
1.0
 70
     8
 71
     3
 72
    20
 73
    16
 74
     0
 42
0.000000001
 43
0.00000001
 40
0.0
 40
0.0
 40
0.0
 40
0.0
 40
0.2499999999999961
 40
0.2499999999999961
 40
0.3749999999999971
 40
0.3749999999999971
 40
0.4999999999999977
 40
0.4999999999999977
 40
0.6249999999999982
 40
0.6249999999999982
 40
0.7499999999999988
 40
0.7499999999999988
 40
0.8749999999999994
 40
0.8749999999999994
 40
1.0
 40
1.0
 40
1.0
 40
1.0
 10
172.4559522695813
 20
-12.96485032081606
 30
0.0
 10
173.1898490696551
 20
-13.39189362266344
 30
0.0
 10
173.852876973177
 20
-13.90547091533645
 30
0.0
 10
174.7300489355366
 20
-14.81915057491451
 30
0.0
 10
175.0018549736488
 20
-15.14806455226159
 30
0.0
 10
175.4857701362978
 20
-15.83358716798268
 30
0.0
 10
175.7005297224564
 20
-16.19272926284684
 30
0.0
 10
176.0749752005519
 20
-16.94418319354525
 30
0.0
 10
176.2356074123505
 20
-17.34015957064683
 30
0.0
 10
176.4919312595394
 20
-18.14405608572526
 30
0.0
 10
176.5885758925645
 20
-18.55234548048314
 30
0.0
 10
176.7218478899044
 20
-19.38099947473589
 30
0.0
 10
176.7584669515498
 20
-19.8030963615007
 30
0.0
 10
176.77171281325
 20
-20.65140335330727
 30
0.0
 10
176.7485645689659
 20
-21.07428202003585
 30
0.0
 10
176.6972662686038
 20
-21.49595527540269
 30
0.0
  0
SPLINE
  5
141
330
11F
100
AcDbEntity
  8
0
  6
Continuous
 62
     7
370
    25
100
AcDbSpline
210
0.0
220
0.0
230
1.0
 70
     8
 71
     3
 72
    20
 73
    16
 74
     0
 42
0.000000001
 43
0.00000001
 40
0.0
 40
0.0
 40
0.0
 40
0.0
 40
0.2500000000000017
 40
0.2500000000000017
 40
0.3750000000000014
 40
0.3750000000000014
 40
0.5000000000000011
 40
0.5000000000000011
 40
0.6250000000000009
 40
0.6250000000000009
 40
0.7500000000000006
 40
0.7500000000000006
 40
0.8750000000000003
 40
0.8750000000000003
 40
1.0
 40
1.0
 40
1.0
 40
1.0
 10
176.6972662686038
 20
21.49595527540273
 30
0.0
 10
176.7998115537819
 20
20.65303057968483
 30
0.0
 10
176.7901466313116
 20
19.81442043113616
 30
0.0
 10
176.5910729573452
 20
18.56360227307535
 30
0.0
 10
176.4929411895913
 20
18.14834581415247
 30
0.0
 10
176.2386674391553
 20
17.34865205752797
 30
0.0
 10
176.0821051470808
 20
16.96058165826872
 30
0.0
 10
175.7092994724739
 20
16.20832609865975
 30
0.0
 10
175.4906970384028
 20
15.84116026193129
 30
0.0
 10
175.0046346470895
 20
15.151418058403
 30
0.0
 10
174.7374849878241
 20
14.82790346768958
 30
0.0
 10
174.157256184916
 20
14.22154410489462
 30
0.0
 10
173.8428197016613
 20
13.9376836122091
 30
0.0
 10
173.1743075483942
 20
13.41520679044525
 30
0.0
 10
172.8231040903991
 20
13.17849033917505
 30
0.0
 10
172.4559522695813
 20
12.96485032081613
 30
0.0
  0
SPLINE
  5
143
330
11F
100
AcDbEntity
  8
0
  6
Continuous
 62
     7
370
    25
100
AcDbSpline
210
0.0
220
0.0
230
1.0
 70
     8
 71
     3
 72
    22
 73
    18
 74
     0
 42
0.000000001
 43
0.00000001
 40
0.0
 40
0.0
 40
0.0
 40
0.0
 40
0.2499999999999999
 40
0.2499999999999999
 40
0.3749999999999999
 40
0.3749999999999999
 40
0.4999999999999999
 40
0.4999999999999999
 40
0.562499999999999
 40
0.562499999999999
 40
0.6249999999999981
 40
0.6249999999999981
 40
0.7499999999999988
 40
0.7499999999999988
 40
0.8749999999999993
 40
0.8749999999999993
 40
1.0
 40
1.0
 40
1.0
 40
1.0
 10
12.96485032081607
 20
172.4559522695813
 30
0.0
 10
13.39195225688812
 20
173.1899498357125
 30
0.0
 10
13.9054985081673
 20
173.8528520669923
 30
0.0
 10
14.81872877036858
 20
174.7296696659716
 30
0.0
 10
15.14792098572961
 20
175.001749480278
 30
0.0
 10
15.8336211398133
 20
175.4857982653468
 30
0.0
 10
16.19268814339794
 20
175.7004880603303
 30
0.0
 10
16.75584211513568
 20
175.9811364198471
 30
0.0
 10
16.94766396893765
 20
176.0677685666296
 30
0.0
 10
17.33970199454435
 20
176.2268837362089
 30
0.0
 10
17.54023393875353
 20
176.2993829519491
 30
0.0
 10
18.14387099379244
 20
176.4919092151949
 30
0.0
 10
18.55238900129033
 20
176.5885835818253
 30
0.0
 10
19.38098351557206
 20
176.7218446333453
 30
0.0
 10
19.80224173656164
 20
176.758427573542
 30
0.0
 10
20.6511507994378
 20
176.7717348693191
 30
0.0
 10
21.07421110329271
 20
176.7485731962819
 30
0.0
 10
21.49595527540271
 20
176.6972662686038
 30
0.0
  0
SPLINE
  5
145
330
11F
100
AcDbEntity
  8
0
  6
Continuous
 62
     7
370
    25
100
AcDbSpline
210
0.0
220
0.0
230
1.0
 70
     8
 71
     3
 72
    12
 73
     8
 74
     0
 42
0.000000001
 43
0.00000001
 40
0.0
 40
0.0
 40
0.0
 40
0.0
 40
0.2499999999999997
 40
0.2499999999999997
 40
0.4999999999999993
 40
0.4999999999999993
 40
1.0
 40
1.0
 40
1.0
 40
1.0
 10
-176.6972662686038
 20
21.49595527540268
 30
0.0
 10
-175.2442736087041
 20
22.26073404109444
 30
0.0
 10
-173.784863475295
 20
22.96954575659353
 30
0.0
 10
-170.856113401849
 20
24.30111663218696
 30
0.0
 10
-169.3867513109306
 20
24.92367951654267
 30
0.0
 10
-164.9664699156943
 20
26.68644674927075
 30
0.0
 10
-162.0035003118971
 20
27.72300224750999
 30
0.0
 10
-159.0286620201842
 20
28.65931379613286
 30
0.0
  0
SPLINE
  5
147
330
11F
100
AcDbEntity
  8
0
  6
Continuous
 62
     7
370
    25
100
AcDbSpline
210
0.0
220
0.0
230
1.0
 70
     8
 71
     3
 72
    12
 73
     8
 74
     0
 42
0.000000001
 43
0.00000001
 40
0.0
 40
0.0
 40
0.0
 40
0.0
 40
0.4999999999999996
 40
0.4999999999999996
 40
0.7499999999999998
 40
0.7499999999999998
 40
1.0
 40
1.0
 40
1.0
 40
1.0
 10
-21.26120402366622
 20
-156.8802809733154
 30
0.0
 10
-20.1908838001785
 20
-159.6209031666135
 30
0.0
 10
-19.00043222946896
 20
-162.3171254510769
 30
0.0
 10
-16.96138117950839
 20
-166.2409492017475
 30
0.0
 10
-16.23906409761534
 20
-167.528454195011
 30
0.0
 10
-14.68870173766534
 20
-170.0442977549408
 30
0.0
 10
-13.86085066085075
 20
-171.2730195995779
 30
0.0
 10
-12.96485032081605
 20
-172.4559522695813
 30
0.0
  0
SPLINE
  5
148
330
11F
100
AcDbEntity
  8
0
  6
Continuous
 62
     7
370
    25
100
AcDbSpline
210
0.0
220
0.0
230
1.0
 70
     8
 71
     3
 72
    32
 73
    28
 74
     0
 42
0.000000001
 43
0.00000001
 40
0.0
 40
0.0
 40
0.0
 40
0.0
 40
0.1250000000000005
 40
0.1250000000000005
 40
0.2500000000000012
 40
0.2500000000000012
 40
0.2812500000000013
 40
0.2812500000000013
 40
0.3125000000000014
 40
0.3125000000000014
 40
0.3750000000000014
 40
0.3750000000000014
 40
0.5000000000000012
 40
0.5000000000000012
 40
0.5312500000000012
 40
0.5312500000000012
 40
0.5625000000000011
 40
0.5625000000000011
 40
0.625000000000001
 40
0.625000000000001
 40
0.7500000000000006
 40
0.7500000000000006
 40
0.8125000000000004
 40
0.8125000000000004
 40
0.8750000000000002
 40
0.8750000000000002
 40
1.0
 40
1.0
 40
1.0
 40
1.0
 10
21.26120402366617
 20
-156.8802809733153
 30
0.0
 10
19.71659460192095
 20
-156.1995768113802
 30
0.0
 10
18.12101310851585
 20
-155.5751680127233
 30
0.0
 10
14.80959712202299
 20
-154.4607174807013
 30
0.0
 10
13.09391213125592
 20
-153.9705044620947
 30
0.0
 10
10.85765085357266
 20
-153.4599711197742
 30
0.0
 10
10.40578844824187
 20
-153.3630030928789
 30
0.0
 10
9.492302180528862
 20
-153.1799311768744
 30
0.0
 10
9.029474118803286
 20
-153.093626680431
 30
0.0
 10
7.634917225230113
 20
-152.8535797539908
 30
0.0
 10
6.69985208144941
 20
-152.7190133217516
 30
0.0
 10
3.878132469235653
 20
-152.3935772072694
 30
0.0
 10
1.974981356571217
 20
-152.2808014630837
 30
0.0
 10
-0.433332010554165
 20
-152.2784776233405
 30
0.0
 10
-0.9164655709734009
 20
-152.284958229162
 30
0.0
 10
-1.885730255252365
 20
-152.312076339403
 30
0.0
 10
-2.370960623180173
 20
-152.3327352940768
 30
0.0
 10
-3.814076750371005
 20
-152.4149680248689
 30
0.0
 10
-4.764861217368103
 20
-152.496902403954
 30
0.0
 10
-7.585454247239951
 20
-152.8191278886557
 30
0.0
 10
-9.423586272765194
 20
-153.1356536882406
 30
0.0
 10
-12.12411049457863
 20
-153.7476643314301
 30
0.0
 10
-13.01592981806034
 20
-153.9751026302334
 30
0.0
 10
-14.75547157415996
 20
-154.4656262536212
 30
0.0
 10
-15.60673598153683
 20
-154.7294256234313
 30
0.0
 10
-18.11060077171592
 20
-155.5708168610325
 30
0.0
 10
-19.71350830751771
 20
-156.1982166918472
 30
0.0
 10
-21.26120402366618
 20
-156.8802809733153
 30
0.0
  0
SPLINE
  5
149
330
11F
100
AcDbEntity
  8
0
  6
Continuous
 62
     7
370
    25
100
AcDbSpline
210
0.0
220
0.0
230
1.0
 70
     8
 71
     3
 72
    14
 73
    10
 74
     0
 42
0.000000001
 43
0.00000001
 40
0.0
 40
0.0
 40
0.0
 40
0.0
 40
0.25
 40
0.25
 40
0.5
 40
0.5
 40
0.75
 40
0.75
 40
1.0
 40
1.0
 40
1.0
 40
1.0
 10
12.96485032081609
 20
-172.4559522695813
 30
0.0
 10
13.85934245019098
 20
-171.2750107948744
 30
0.0
 10
14.68660955852958
 20
-170.0474707392384
 30
0.0
 10
16.23672349023463
 20
-167.5324738609271
 30
0.0
 10
16.95938862087613
 20
-166.2446404995294
 30
0.0
 10
18.31992688259445
 20
-163.6267906230586
 30
0.0
 10
18.95773172771911
 20
-162.2964850005669
 30
0.0
 10
20.16086149537015
 20
-159.6082151014775
 30
0.0
 10
20.72639310267893
 20
-158.2496979450883
 30
0.0
 10
21.26120402366623
 20
-156.8802809733154
 30
0.0
  0
SPLINE
  5
14A
330
11F
100
AcDbEntity
  8
0
  6
Continuous
 62
     7
370
    25
100
AcDbSpline
210
0.0
220
0.0
230
1.0
 70
     8
 71
     3
 72
    12
 73
     8
 74
     0
 42
0.000000001
 43
0.00000001
 40
0.0
 40
0.0
 40
0.0
 40
0.0
 40
0.4999999999999993
 40
0.4999999999999993
 40
0.7499999999999997
 40
0.7499999999999997
 40
1.0
 40
1.0
 40
1.0
 40
1.0
 10
21.26120402366621
 20
156.8802809733153
 30
0.0
 10
20.19088380017849
 20
159.6209031666133
 30
0.0
 10
19.00043222946897
 20
162.3171254510769
 30
0.0
 10
16.96138117950841
 20
166.2409492017476
 30
0.0
 10
16.23906409761537
 20
167.528454195011
 30
0.0
 10
14.68870173766537
 20
170.0442977549409
 30
0.0
 10
13.86085066085078
 20
171.273019599578
 30
0.0
 10
12.96485032081607
 20
172.4559522695813
 30
0.0
  0
SPLINE
  5
14B
330
11F
100
AcDbEntity
  8
0
  6
Continuous
 62
     7
370
    25
100
AcDbSpline
210
0.0
220
0.0
230
1.0
 70
     8
 71
     3
 72
    32
 73
    28
 74
     0
 42
0.000000001
 43
0.00000001
 40
0.0
 40
0.0
 40
0.0
 40
0.0
 40
0.1250000000000004
 40
0.1250000000000004
 40
0.2500000000000007
 40
0.2500000000000007
 40
0.2812500000000008
 40
0.2812500000000008
 40
0.3125000000000008
 40
0.3125000000000008
 40
0.3750000000000007
 40
0.3750000000000007
 40
0.5000000000000004
 40
0.5000000000000004
 40
0.5312500000000004
 40
0.5312500000000004
 40
0.5625000000000004
 40
0.5625000000000004
 40
0.6250000000000003
 40
0.6250000000000003
 40
0.7500000000000002
 40
0.7500000000000002
 40
0.8125000000000002
 40
0.8125000000000002
 40
0.8750000000000002
 40
0.8750000000000002
 40
1.0
 40
1.0
 40
1.0
 40
1.0
 10
-21.26120402366622
 20
156.8802809733154
 30
0.0
 10
-19.71659460192099
 20
156.1995768113802
 30
0.0
 10
-18.12101310851591
 20
155.5751680127233
 30
0.0
 10
-14.80959712202305
 20
154.4607174807014
 30
0.0
 10
-13.09391213125597
 20
153.9705044620947
 30
0.0
 10
-10.8576508535727
 20
153.4599711197742
 30
0.0
 10
-10.40578844824192
 20
153.363003092879
 30
0.0
 10
-9.492302180528899
 20
153.1799311768744
 30
0.0
 10
-9.029474118803327
 20
153.093626680431
 30
0.0
 10
-7.634917225230152
 20
152.8535797539908
 30
0.0
 10
-6.699852081449452
 20
152.7190133217516
 30
0.0
 10
-3.878132469235693
 20
152.3935772072694
 30
0.0
 10
-1.974981356571255
 20
152.2808014630837
 30
0.0
 10
0.4333320105541293
 20
152.2784776233405
 30
0.0
 10
0.9164655709733651
 20
152.284958229162
 30
0.0
 10
1.885730255252331
 20
152.312076339403
 30
0.0
 10
2.370960623180133
 20
152.3327352940768
 30
0.0
 10
3.814076750370969
 20
152.414968024869
 30
0.0
 10
4.764861217368065
 20
152.496902403954
 30
0.0
 10
7.585454247239918
 20
152.8191278886557
 30
0.0
 10
9.42358627276516
 20
153.1356536882406
 30
0.0
 10
12.12411049457861
 20
153.7476643314301
 30
0.0
 10
13.01592981806032
 20
153.9751026302334
 30
0.0
 10
14.75547157415993
 20
154.4656262536212
 30
0.0
 10
15.60673598153681
 20
154.7294256234313
 30
0.0
 10
18.11060077171592
 20
155.5708168610325
 30
0.0
 10
19.71350830751772
 20
156.1982166918473
 30
0.0
 10
21.26120402366618
 20
156.8802809733153
 30
0.0
  0
SPLINE
  5
14C
330
11F
100
AcDbEntity
  8
0
  6
Continuous
 62
     7
370
    25
100
AcDbSpline
210
0.0
220
0.0
230
1.0
 70
     8
 71
     3
 72
    14
 73
    10
 74
     0
 42
0.000000001
 43
0.00000001
 40
0.0
 40
0.0
 40
0.0
 40
0.0
 40
0.25
 40
0.25
 40
0.5
 40
0.5
 40
0.75
 40
0.75
 40
1.0
 40
1.0
 40
1.0
 40
1.0
 10
-12.96485032081607
 20
172.4559522695813
 30
0.0
 10
-13.85934245019097
 20
171.2750107948744
 30
0.0
 10
-14.68660955852956
 20
170.0474707392384
 30
0.0
 10
-16.23672349023462
 20
167.5324738609271
 30
0.0
 10
-16.95938862087612
 20
166.2446404995294
 30
0.0
 10
-18.31992688259444
 20
163.6267906230586
 30
0.0
 10
-18.9577317277191
 20
162.2964850005669
 30
0.0
 10
-20.16086149537015
 20
159.6082151014775
 30
0.0
 10
-20.72639310267893
 20
158.2496979450884
 30
0.0
 10
-21.26120402366623
 20
156.8802809733154
 30
0.0
  0
SPLINE
  5
14D
330
11F
100
AcDbEntity
  8
0
  6
Continuous
 62
     7
370
    25
100
AcDbSpline
210
0.0
220
0.0
230
1.0
 70
     8
 71
     3
 72
    12
 73
     8
 74
     0
 42
0.000000001
 43
0.00000001
 40
0.0
 40
0.0
 40
0.0
 40
0.0
 40
0.2499999999999997
 40
0.2499999999999997
 40
0.4999999999999993
 40
0.4999999999999993
 40
1.0
 40
1.0
 40
1.0
 40
1.0
 10
-21.49595527540269
 20
-176.6972662686038
 30
0.0
 10
-22.26073404109447
 20
-175.2442736087041
 30
0.0
 10
-22.96954575659354
 20
-173.784863475295
 30
0.0
 10
-24.30111663218697
 20
-170.856113401849
 30
0.0
 10
-24.92367951654268
 20
-169.3867513109306
 30
0.0
 10
-26.68644674927078
 20
-164.9664699156943
 30
0.0
 10
-27.72300224751001
 20
-162.0035003118971
 30
0.0
 10
-28.65931379613288
 20
-159.0286620201842
 30
0.0
  0
SPLINE
  5
150
330
11F
100
AcDbEntity
  8
0
  6
Continuous
 62
     7
370
    25
100
AcDbSpline
210
0.0
220
0.0
230
1.0
 70
     8
 71
     3
 72
    12
 73
     8
 74
     0
 42
0.000000001
 43
0.00000001
 40
0.0
 40
0.0
 40
0.0
 40
0.0
 40
0.5000000000000006
 40
0.5000000000000006
 40
0.7500000000000002
 40
0.7500000000000002
 40
1.0
 40
1.0
 40
1.0
 40
1.0
 10
-28.65931379613292
 20
159.0286620201842
 30
0.0
 10
-27.72300224751005
 20
162.0035003118971
 30
0.0
 10
-26.68644674927079
 20
164.9664699156943
 30
0.0
 10
-24.92367951654269
 20
169.3867513109305
 30
0.0
 10
-24.301116632187
 20
170.856113401849
 30
0.0
 10
-22.96954575659356
 20
173.784863475295
 30
0.0
 10
-22.26073404109474
 20
175.2442736087042
 30
0.0
 10
-21.49595527540296
 20
176.6972662686039
 30
0.0
  0
SPLINE
  5
153
330
11F
100
AcDbEntity
  8
0
  6
Continuous
 62
     7
370
    25
100
AcDbSpline
210
0.0
220
0.0
230
1.0
 70
     8
 71
     3
 72
    12
 73
     8
 74
     0
 42
0.000000001
 43
0.00000001
 40
0.0
 40
0.0
 40
0.0
 40
0.0
 40
0.2499999999999997
 40
0.2499999999999997
 40
0.4999999999999993
 40
0.4999999999999993
 40
1.0
 40
1.0
 40
1.0
 40
1.0
 10
21.49595527540271
 20
176.6972662686038
 30
0.0
 10
22.26073404109448
 20
175.2442736087041
 30
0.0
 10
22.96954575659356
 20
173.784863475295
 30
0.0
 10
24.301116632187
 20
170.856113401849
 30
0.0
 10
24.92367951654271
 20
169.3867513109305
 30
0.0
 10
26.6864467492708
 20
164.9664699156943
 30
0.0
 10
27.72300224751003
 20
162.0035003118971
 30
0.0
 10
28.65931379613291
 20
159.0286620201842
 30
0.0
  0
SPLINE
  5
156
330
11F
100
AcDbEntity
  8
0
  6
Continuous
 62
     7
370
    25
100
AcDbSpline
210
0.0
220
0.0
230
1.0
 70
     8
 71
     3
 72
    12
 73
     8
 74
     0
 42
0.000000001
 43
0.00000001
 40
0.0
 40
0.0
 40
0.0
 40
0.0
 40
0.4999999999999993
 40
0.4999999999999993
 40
0.7499999999999997
 40
0.7499999999999997
 40
1.0
 40
1.0
 40
1.0
 40
1.0
 10
28.65931379613292
 20
-159.0286620201842
 30
0.0
 10
27.72300224751005
 20
-162.0035003118971
 30
0.0
 10
26.6864467492708
 20
-164.9664699156943
 30
0.0
 10
24.92367951654272
 20
-169.3867513109306
 30
0.0
 10
24.301116632187
 20
-170.8561134018491
 30
0.0
 10
22.96954575659356
 20
-173.784863475295
 30
0.0
 10
22.26073404109475
 20
-175.2442736087041
 30
0.0
 10
21.49595527540297
 20
-176.6972662686038
 30
0.0
  0
SPLINE
  5
157
330
11F
100
AcDbEntity
  8
0
  6
Continuous
 62
     7
370
    25
100
AcDbSpline
210
0.0
220
0.0
230
1.0
 70
     8
 71
     3
 72
    12
 73
     8
 74
     0
 42
0.000000001
 43
0.00000001
 40
0.0
 40
0.0
 40
0.0
 40
0.0
 40
0.4999999999999994
 40
0.4999999999999994
 40
0.7499999999999997
 40
0.7499999999999997
 40
1.0
 40
1.0
 40
1.0
 40
1.0
 10
156.8802809733154
 20
-21.2612040236662
 30
0.0
 10
159.6209031666134
 20
-20.19088380017848
 30
0.0
 10
162.3171254510769
 20
-19.00043222946896
 30
0.0
 10
166.2409492017475
 20
-16.9613811795084
 30
0.0
 10
167.528454195011
 20
-16.23906409761537
 30
0.0
 10
170.0442977549409
 20
-14.68870173766536
 30
0.0
 10
171.2730195995779
 20
-13.86085066085077
 30
0.0
 10
172.4559522695813
 20
-12.96485032081606
 30
0.0
  0
SPLINE
  5
158
330
11F
100
AcDbEntity
  8
0
  6
Continuous
 62
     7
370
    25
100
AcDbSpline
210
0.0
220
0.0
230
1.0
 70
     8
 71
     3
 72
    32
 73
    28
 74
     0
 42
0.000000001
 43
0.00000001
 40
0.0
 40
0.0
 40
0.0
 40
0.0
 40
0.1250000000000016
 40
0.1250000000000016
 40
0.2500000000000033
 40
0.2500000000000033
 40
0.2812500000000033
 40
0.2812500000000033
 40
0.3125000000000034
 40
0.3125000000000034
 40
0.3750000000000032
 40
0.3750000000000032
 40
0.5000000000000029
 40
0.5000000000000029
 40
0.5312500000000029
 40
0.5312500000000029
 40
0.5625000000000027
 40
0.5625000000000027
 40
0.6250000000000026
 40
0.6250000000000026
 40
0.750000000000002
 40
0.750000000000002
 40
0.8125000000000016
 40
0.8125000000000016
 40
0.875000000000001
 40
0.875000000000001
 40
1.0
 40
1.0
 40
1.0
 40
1.0
 10
156.8802809733154
 20
21.2612040236662
 30
0.0
 10
156.1995768113802
 20
19.71659460192098
 30
0.0
 10
155.5751680127233
 20
18.12101310851589
 30
0.0
 10
154.4607174807014
 20
14.80959712202303
 30
0.0
 10
153.9705044620947
 20
13.09391213125595
 30
0.0
 10
153.4599711197742
 20
10.85765085357269
 30
0.0
 10
153.363003092879
 20
10.40578844824191
 30
0.0
 10
153.1799311768744
 20
9.492302180528887
 30
0.0
 10
153.0936266804311
 20
9.02947411880332
 30
0.0
 10
152.8535797539908
 20
7.634917225230143
 30
0.0
 10
152.7190133217515
 20
6.699852081449441
 30
0.0
 10
152.3935772072694
 20
3.878132469235686
 30
0.0
 10
152.2808014630836
 20
1.97498135657124
 30
0.0
 10
152.2784776233405
 20
-0.4333320105541412
 30
0.0
 10
152.284958229162
 20
-0.9164655709733767
 30
0.0
 10
152.3120763394029
 20
-1.885730255252342
 30
0.0
 10
152.3327352940768
 20
-2.370960623180146
 30
0.0
 10
152.4149680248689
 20
-3.814076750370984
 30
0.0
 10
152.496902403954
 20
-4.764861217368082
 30
0.0
 10
152.8191278886557
 20
-7.585454247239928
 30
0.0
 10
153.1356536882405
 20
-9.423586272765172
 30
0.0
 10
153.74766433143
 20
-12.12411049457862
 30
0.0
 10
153.9751026302334
 20
-13.01592981806033
 30
0.0
 10
154.4656262536212
 20
-14.75547157415995
 30
0.0
 10
154.7294256234313
 20
-15.60673598153681
 30
0.0
 10
155.5708168610325
 20
-18.11060077171592
 30
0.0
 10
156.1982166918473
 20
-19.71350830751772
 30
0.0
 10
156.8802809733153
 20
-21.26120402366619
 30
0.0
  0
SPLINE
  5
159
330
11F
100
AcDbEntity
  8
0
  6
Continuous
 62
     7
370
    25
100
AcDbSpline
210
0.0
220
0.0
230
1.0
 70
     8
 71
     3
 72
    14
 73
    10
 74
     0
 42
0.000000001
 43
0.00000001
 40
0.0
 40
0.0
 40
0.0
 40
0.0
 40
0.25
 40
0.25
 40
0.5
 40
0.5
 40
0.75
 40
0.75
 40
1.0
 40
1.0
 40
1.0
 40
1.0
 10
172.4559522695813
 20
12.96485032081609
 30
0.0
 10
171.2750107948744
 20
13.85934245019098
 30
0.0
 10
170.0474707392384
 20
14.68660955852958
 30
0.0
 10
167.5324738609271
 20
16.23672349023462
 30
0.0
 10
166.2446404995294
 20
16.95938862087612
 30
0.0
 10
163.6267906230586
 20
18.31992688259443
 30
0.0
 10
162.2964850005669
 20
18.95773172771911
 30
0.0
 10
159.6082151014775
 20
20.16086149537017
 30
0.0
 10
158.2496979450883
 20
20.72639310267893
 30
0.0
 10
156.8802809733154
 20
21.26120402366624
 30
0.0
  0
SPLINE
  5
15B
330
11F
100
AcDbEntity
  8
0
  6
Continuous
 62
     7
370
    25
100
AcDbSpline
210
0.0
220
0.0
230
1.0
 70
     8
 71
     3
 72
    12
 73
     8
 74
     0
 42
0.000000001
 43
0.00000001
 40
0.0
 40
0.0
 40
0.0
 40
0.0
 40
0.5000000000000006
 40
0.5000000000000006
 40
0.7500000000000002
 40
0.7500000000000002
 40
1.0
 40
1.0
 40
1.0
 40
1.0
 10
159.0286620201842
 20
28.65931379613293
 30
0.0
 10
162.0035003118971
 20
27.72300224751007
 30
0.0
 10
164.9664699156943
 20
26.6864467492708
 30
0.0
 10
169.3867513109305
 20
24.92367951654271
 30
0.0
 10
170.856113401849
 20
24.30111663218698
 30
0.0
 10
173.784863475295
 20
22.96954575659355
 30
0.0
 10
175.2442736087042
 20
22.26073404109474
 30
0.0
 10
176.6972662686039
 20
21.49595527540296
 30
0.0
  0
SPLINE
  5
15C
330
11F
100
AcDbEntity
  8
0
  6
Continuous
 62
     7
370
    25
100
AcDbSpline
210
0.0
220
0.0
230
1.0
 70
     8
 71
     3
 72
    12
 73
     8
 74
     0
 42
0.000000001
 43
0.00000001
 40
0.0
 40
0.0
 40
0.0
 40
0.0
 40
0.2499999999999996
 40
0.2499999999999996
 40
0.4999999999999991
 40
0.4999999999999991
 40
1.0
 40
1.0
 40
1.0
 40
1.0
 10
176.6972662686038
 20
-21.4959552754027
 30
0.0
 10
175.2442736087041
 20
-22.26073404109447
 30
0.0
 10
173.784863475295
 20
-22.96954575659356
 30
0.0
 10
170.856113401849
 20
-24.30111663218699
 30
0.0
 10
169.3867513109305
 20
-24.92367951654268
 30
0.0
 10
164.9664699156943
 20
-26.68644674927078
 30
0.0
 10
162.0035003118971
 20
-27.72300224751005
 30
0.0
 10
159.0286620201842
 20
-28.65931379613292
 30
0.0
  0
LINE
  5
170
330
11F
100
AcDbEntity
  8
0
  6
Continuous
 62
     7
370
    25
100
AcDbLine
 10
-159.0286620202
 20
28.6593137961
 30
0.0
 11
-144.7115772571
 21
26.0791636543
 31
0.0
  0
LINE
  5
171
330
11F
100
AcDbEntity
  8
0
  6
Continuous
 62
     7
370
    25
100
AcDbLine
 10
26.0791636543
 20
-144.7115772571
 30
0.0
 11
28.6593137961
 21
-159.0286620202
 31
0.0
  0
LINE
  5
172
330
11F
100
AcDbEntity
  8
0
  6
Continuous
 62
     7
370
    25
100
AcDbLine
 10
-144.7115772571
 20
-26.0791636543
 30
0.0
 11
-159.0286620202
 21
-28.6593137961
 31
0.0
  0
LINE
  5
173
330
11F
100
AcDbEntity
  8
0
  6
Continuous
 62
     7
370
    25
100
AcDbLine
 10
-28.6593137961
 20
-159.0286620202
 30
0.0
 11
-26.0791636543
 21
-144.7115772571
 31
0.0
  0
LINE
  5
174
330
11F
100
AcDbEntity
  8
0
  6
Continuous
 62
     7
370
    25
100
AcDbLine
 10
-26.0791636543
 20
144.7115772571
 30
0.0
 11
-28.6593137961
 21
159.0286620202
 31
0.0
  0
LINE
  5
175
330
11F
100
AcDbEntity
  8
0
  6
Continuous
 62
     7
370
    25
100
AcDbLine
 10
28.6593137961
 20
159.0286620202
 30
0.0
 11
26.0791636543
 21
144.7115772571
 31
0.0
  0
LINE
  5
176
330
11F
100
AcDbEntity
  8
0
  6
Continuous
 62
     7
370
    25
100
AcDbLine
 10
159.0286620202
 20
-28.6593137961
 30
0.0
 11
144.7115772571
 21
-26.0791636543
 31
0.0
  0
LINE
  5
177
330
11F
100
AcDbEntity
  8
0
  6
Continuous
 62
     7
370
    25
100
AcDbLine
 10
144.7115772571
 20
26.0791636543
 30
0.0
 11
159.0286620202
 21
28.6593137961
 31
0.0
  0
ARC
  5
178
330
11F
100
AcDbEntity
  8
0
  6
Continuous
 62
     7
370
    25
100
AcDbCircle
 10
0.0
 20
0.0
 30
0.0
 40
147.0427263387814
100
AcDbArc
 50
190.215892523
 51
259.784107477
  0
ARC
  5
179
330
11F
100
AcDbEntity
  8
0
  6
Continuous
 62
     7
370
    25
100
AcDbCircle
 10
0.0
 20
0.0
 30
0.0
 40
147.0427263387815
100
AcDbArc
 50
100.215892523
 51
169.784107477
  0
ARC
  5
17A
330
11F
100
AcDbEntity
  8
0
  6
Continuous
 62
     7
370
    25
100
AcDbCircle
 10
0.0
 20
0.0
 30
0.0
 40
147.0427263387814
100
AcDbArc
 50
10.215892523
 51
79.784107477
  0
ARC
  5
17B
330
11F
100
AcDbEntity
  8
0
  6
Continuous
 62
     7
370
    25
100
AcDbCircle
 10
0.0
 20
0.0
 30
0.0
 40
147.0427263387814
100
AcDbArc
 50
280.215892523
 51
349.784107477
  0
ARC
  5
17C
330
11F
100
AcDbEntity
  8
0
  6
Continuous
 62
     7
370
    25
100
AcDbCircle
 10
-180.0
 20
0.0
 30
0.0
 40
15.00000000000002
100
AcDbArc
 50
300.1944692067
 51
59.8055307933
  0
ARC
  5
17D
330
11F
100
AcDbEntity
  8
0
  6
Continuous
 62
     7
370
    25
100
AcDbCircle
 10
-147.3028425361
 20
-28.053448722
 30
0.0
 40
11.74146136821031
100
AcDbArc
 50
144.6560312198
 51
182.95780345
  0
ARC
  5
17E
330
11F
100
AcDbEntity
  8
0
  6
Continuous
 62
     7
370
    25
100
AcDbCircle
 10
0.0
 20
0.0
 30
0.0
 40
177.9999999999995
100
AcDbArc
 50
96.9361853197
 51
173.0638146803
  0
ARC
  5
17F
330
11F
100
AcDbEntity
  8
0
  6
Continuous
 62
     7
370
    25
100
AcDbCircle
 10
0.0
 20
0.0
 30
0.0
 40
177.9999999999993
100
AcDbArc
 50
186.9361853197
 51
263.0638146803
  0
ARC
  5
180
330
11F
100
AcDbEntity
  8
0
  6
Continuous
 62
     7
370
    25
100
AcDbCircle
 10
0.0
 20
-180.0
 30
0.0
 40
15.00000000000002
100
AcDbArc
 50
30.1944692067
 51
149.8055307933
  0
ARC
  5
181
330
11F
100
AcDbEntity
  8
0
  6
Continuous
 62
     7
370
    25
100
AcDbCircle
 10
0.0
 20
0.0
 30
0.0
 40
177.9999999999993
100
AcDbArc
 50
276.9361853197
 51
353.0638146803
  0
ARC
  5
182
330
11F
100
AcDbEntity
  8
0
  6
Continuous
 62
     7
370
    25
100
AcDbCircle
 10
180.0
 20
0.0
 30
0.0
 40
15.00000000000001
100
AcDbArc
 50
120.1944692067
 51
239.8055307933
  0
ARC
  5
183
330
11F
100
AcDbEntity
  8
0
  6
Continuous
 62
     7
370
    25
100
AcDbCircle
 10
0.0
 20
0.0
 30
0.0
 40
177.9999999999993
100
AcDbArc
 50
6.9361853197
 51
83.0638146803
  0
ARC
  5
184
330
11F
100
AcDbEntity
  8
0
  6
Continuous
 62
     7
370
    25
100
AcDbCircle
 10
0.0
 20
180.0
 30
0.0
 40
15.0
100
AcDbArc
 50
210.1944692067
 51
329.8055307933
  0
ARC
  5
185
330
11F
100
AcDbEntity
  8
0
  6
Continuous
 62
     7
370
    25
100
AcDbCircle
 10
-147.3028425361
 20
28.053448722
 30
0.0
 40
11.7414613682112
100
AcDbArc
 50
177.04219655
 51
215.3439687802
  0
ARC
  5
186
330
11F
100
AcDbEntity
  8
0
  6
Continuous
 62
     7
370
    25
100
AcDbCircle
 10
-28.053448722
 20
-147.3028425361
 30
0.0
 40
11.74146136821099
100
AcDbArc
 50
267.04219655
 51
305.3439687802
  0
ARC
  5
187
330
11F
100
AcDbEntity
  8
0
  6
Continuous
 62
     7
370
    25
100
AcDbCircle
 10
-28.053448722
 20
147.3028425361
 30
0.0
 40
11.74146136821044
100
AcDbArc
 50
54.6560312198
 51
92.95780345
  0
ARC
  5
188
330
11F
100
AcDbEntity
  8
0
  6
Continuous
 62
     7
370
    25
100
AcDbCircle
 10
0.0
 20
0.0
 30
0.0
 40
161.5904440590325
100
AcDbArc
 50
100.215892523
 51
169.784107477
  0
ARC
  5
189
330
11F
100
AcDbEntity
  8
0
  6
Continuous
 62
     7
370
    25
100
AcDbCircle
 10
0.0
 20
0.0
 30
0.0
 40
161.5904440590324
100
AcDbArc
 50
190.215892523
 51
259.784107477
  0
ARC
  5
18A
330
11F
100
AcDbEntity
  8
0
  6
Continuous
 62
     7
370
    25
100
AcDbCircle
 10
28.053448722
 20
147.3028425361
 30
0.0
 40
11.74146136821052
100
AcDbArc
 50
87.04219655
 51
125.3439687802
  0
ARC
  5
18B
330
11F
100
AcDbEntity
  8
0
  6
Continuous
 62
     7
370
    25
100
AcDbCircle
 10
28.053448722
 20
-147.3028425361
 30
0.0
 40
11.74146136821028
100
AcDbArc
 50
234.6560312198
 51
272.95780345
  0
ARC
  5
18C
330
11F
100
AcDbEntity
  8
0
  6
Continuous
 62
     7
370
    25
100
AcDbCircle
 10
147.3028425361
 20
28.053448722
 30
0.0
 40
11.74146136821039
100
AcDbArc
 50
324.6560312198
 51
2.95780345
  0
ARC
  5
18D
330
11F
100
AcDbEntity
  8
0
  6
Continuous
 62
     7
370
    25
100
AcDbCircle
 10
147.3028425361
 20
-28.053448722
 30
0.0
 40
11.7414613682113
100
AcDbArc
 50
357.04219655
 51
35.3439687802
  0
ARC
  5
18E
330
11F
100
AcDbEntity
  8
0
  6
Continuous
 62
     7
370
    25
100
AcDbCircle
 10
0.0
 20
0.0
 30
0.0
 40
161.5904440590324
100
AcDbArc
 50
280.215892523
 51
349.784107477
  0
ARC
  5
18F
330
11F
100
AcDbEntity
  8
0
  6
Continuous
 62
     7
370
    25
100
AcDbCircle
 10
0.0
 20
0.0
 30
0.0
 40
161.5904440590325
100
AcDbArc
 50
10.215892523
 51
79.784107477
  0
ARC
  5
190
330
11F
100
AcDbEntity
  8
0
  6
Continuous
 62
     7
370
    25
100
AcDbCircle
 10
-157.6409740035
 20
40.9586896704
 30
0.0
 40
19.7121686957725
100
AcDbArc
 50
272.2115945566
 51
310.988641514
  0
ARC
  5
191
330
11F
100
AcDbEntity
  8
0
  6
Continuous
 62
     7
370
    25
100
AcDbCircle
 10
-157.6409740035
 20
-40.9586896704
 30
0.0
 40
19.71216869577227
100
AcDbArc
 50
49.011358486
 51
87.7884054434
  0
ARC
  5
192
330
11F
100
AcDbEntity
  8
0
  6
Continuous
 62
     7
370
    25
100
AcDbCircle
 10
-40.9586896704
 20
157.6409740035
 30
0.0
 40
19.71216869577204
100
AcDbArc
 50
319.011358486
 51
357.7884054434
  0
ARC
  5
193
330
11F
100
AcDbEntity
  8
0
  6
Continuous
 62
     7
370
    25
100
AcDbCircle
 10
40.9586896704
 20
157.6409740035
 30
0.0
 40
19.71216869577232
100
AcDbArc
 50
182.2115945566
 51
220.988641514
  0
ARC
  5
194
330
11F
100
AcDbEntity
  8
0
  6
Continuous
 62
     7
370
    25
100
AcDbCircle
 10
157.6409740035
 20
40.9586896704
 30
0.0
 40
19.71216869577223
100
AcDbArc
 50
229.011358486
 51
267.7884054434
  0
ARC
  5
195
330
11F
100
AcDbEntity
  8
0
  6
Continuous
 62
     7
370
    25
100
AcDbCircle
 10
157.6409740035
 20
-40.9586896704
 30
0.0
 40
19.71216869577249
100
AcDbArc
 50
92.2115945566
 51
130.988641514
  0
ARC
  5
196
330
11F
100
AcDbEntity
  8
0
  6
Continuous
 62
     7
370
    25
100
AcDbCircle
 10
40.9586896704
 20
-157.6409740035
 30
0.0
 40
19.71216869577218
100
AcDbArc
 50
139.011358486
 51
177.7884054434
  0
ARC
  5
197
330
11F
100
AcDbEntity
  8
0
  6
Continuous
 62
     7
370
    25
100
AcDbCircle
 10
-40.9586896704
 20
-157.6409740035
 30
0.0
 40
19.71216869577055
100
AcDbArc
 50
2.2115945566
 51
40.988641514
  0
VIEWPORT
  5
1EC
330
11F
100
AcDbEntity
  8
0
100
AcDbViewport
 10
0.0
 20
0.0
 30
0.0
 40
205.6
 41
156.0
 68
     1
 69
     1
 12
0.0
 22
0.0
 13
0.0
 23
0.0
 14
10.0
 24
10.0
 15
10.0
 25
10.0
 16
0.0
 26
0.0
 36
1.0
 17
0.0
 27
0.0
 37
0.0
 42
50.0
 43
0.0
 44
0.0
 45
428.4
 50
0.0
 51
0.0
 72
   100
 90
   557152
  1

281
     0
 71
     1
 74
     0
110
0.0
120
0.0
130
0.0
111
1.0
121
0.0
131
0.0
112
0.0
122
1.0
132
0.0
 79
     0
146
0.0
  0
ENDBLK
  5
122
330
11F
100
AcDbEntity
  8
0
100
AcDbBlockEnd
  0
BLOCK
  5
19A
330
198
100
AcDbEntity
  8
0
100
AcDbBlockBegin
  2
*Paper_Space5
 70
     0
 10
0.0
 20
0.0
 30
0.0
  3
*Paper_Space5
  1

  0
SPLINE
  5
19C
330
198
100
AcDbEntity
  8
0
  6
Continuous
 62
     7
370
    25
100
AcDbSpline
210
0.0
220
0.0
230
1.0
 70
     8
 71
     3
 72
    28
 73
    24
 74
     0
 42
0.000000001
 43
0.00000001
 40
0.0
 40
0.0
 40
0.0
 40
0.0
 40
0.0273988267923924
 40
0.0788539460592115
 40
0.1301995938110517
 40
0.1814356428091844
 40
0.2325622672094748
 40
0.283579872388041
 40
0.3344890377264347
 40
0.3852904703119799
 40
0.4359849677974298
 40
0.4865733889340537
 40
0.5370566305378959
 40
0.5874356098653782
 40
0.6377112515650253
 40
0.6878844785359839
 40
0.7379562061669985
 40
0.7879273371395149
 40
0.837798739506736
 40
0.8875713001201626
 40
0.9372459022954828
 40
0.9868234328790371
 40
1.0
 40
1.0
 40
1.0
 40
1.0
 10
179.0537582699459
 20
-36.61209246509863
 30
0.0
 10
179.8361318467514
 20
-35.3496681116412
 30
0.0
 10
182.0878065002335
 20
-31.71640517576222
 30
0.0
 10
185.4914315457702
 20
-25.53016156268306
 30
0.0
 10
189.277032113826
 20
-18.08729106253847
 30
0.0
 10
192.7416654802984
 20
-10.50767877237853
 30
0.0
 10
195.899700869599
 20
-2.815131429788814
 30
0.0
 10
198.7433482271938
 20
4.980435038287406
 30
0.0
 10
201.2714216840994
 20
12.86539018877068
 30
0.0
 10
203.4816424620504
 20
20.8271110257203
 30
0.0
 10
205.3726815237891
 20
28.85274045060945
 30
0.0
 10
206.9436023334105
 20
36.92953866065972
 30
0.0
 10
208.1939972426675
 20
45.04480878933218
 30
0.0
 10
209.1239448278767
 20
53.18593771207212
 30
0.0
 10
209.733993801515
 20
61.34040111630782
 30
0.0
 10
210.0252195977171
 20
69.49579696877765
 30
0.0
 10
209.9989644570514
 20
77.63980134257729
 30
0.0
 10
209.6577663987148
 20
85.76040398354779
 30
0.0
 10
209.0018601387872
 20
93.84510324681882
 30
0.0
 10
208.0421533038786
 20
101.8839812571997
 30
0.0
 10
206.7518948172948
 20
109.8583367238169
 30
0.0
 10
205.613932726369
 20
115.8486904903634
 30
0.0
 10
204.8101303629782
 20
119.1539114250101
 30
0.0
 10
204.6413548378632
 20
119.8479133641353
 30
0.0
  0
SPLINE
  5
19D
330
198
100
AcDbEntity
  8
0
  6
Continuous
 62
     7
370
    25
100
AcDbSpline
210
0.0
220
0.0
230
1.0
 70
     8
 71
     3
 72
    28
 73
    24
 74
     0
 42
0.000000001
 43
0.00000001
 40
0.0
 40
0.0
 40
0.0
 40
0.0
 40
0.0091670977902263
 40
0.0600742783763248
 40
0.1108755706807371
 40
0.1615718967005552
 40
0.2121641866131617
 40
0.2626533693356216
 40
0.3130403665162331
 40
0.363326089066204
 40
0.4135114090658868
 40
0.4635972192600701
 40
0.513584408448884
 40
0.5634738684400192
 40
0.6132665033769429
 40
0.6629632415356012
 40
0.7125650497586866
 40
0.762072950766237
 40
0.8114880436510642
 40
0.8608115279408961
 40
0.9100447316842003
 40
0.9591891440948661
 40
1.0
 40
1.0
 40
1.0
 40
1.0
 10
-204.8620778583119
 20
118.9061000522049
 30
0.0
 10
-204.9778755094043
 20
118.4260187031333
 30
0.0
 10
-205.7367264005189
 20
115.2799258755694
 30
0.0
 10
-206.8315686250269
 20
109.4041484382257
 30
0.0
 10
-208.1257021870731
 20
101.2962818279538
 30
0.0
 10
-209.070894981021
 20
93.15507960648557
 30
0.0
 10
-209.703751317288
 20
85.00148776530563
 30
0.0
 10
-210.0156367025826
 20
76.84567746770568
 30
0.0
 10
-210.0105935805916
 20
68.7005450766264
 30
0.0
 10
-209.6898596228112
 20
60.57808750503855
 30
0.0
 10
-209.0559919050239
 20
52.49034937586873
 30
0.0
 10
-208.111753099582
 20
44.44914965470644
 30
0.0
 10
-206.8603953452863
 20
36.46613374099557
 30
0.0
 10
-205.305572007644
 20
28.55274044972887
 30
0.0
 10
-203.4513413935447
 20
20.72019527336813
 30
0.0
 10
-201.3021694077282
 20
12.97948162283813
 30
0.0
 10
-198.8628401545934
 20
5.341373906260855
 30
0.0
 10
-196.1387295381982
 20
-2.1837521225124
 30
0.0
 10
-193.1347168684175
 20
-9.585279742208561
 30
0.0
 10
-189.8591620911295
 20
-16.8547952028043
 30
0.0
 10
-186.3090245692484
 20
-23.977053133123
 30
0.0
 10
-182.736806204391
 20
-30.57287931931193
 30
0.0
 10
-180.2256908544589
 20
-34.71800172569562
 30
0.0
 10
-179.0864494445231
 20
-36.59855854469359
 30
0.0
  0
SPLINE
  5
19E
330
198
100
AcDbEntity
  8
0
  6
Continuous
 62
     7
370
    25
100
AcDbSpline
210
0.0
220
0.0
230
1.0
 70
     8
 71
     3
 72
    62
 73
    58
 74
     0
 42
0.000000001
 43
0.00000001
 40
0.0
 40
0.0
 40
0.0
 40
0.0
 40
0.0080597965264064
 40
0.0263188298644437
 40
0.044606032490558
 40
0.0629211021203611
 40
0.081262539833163
 40
0.0996279656725623
 40
0.1180144414373418
 40
0.1364187636037384
 40
0.1548377035344136
 40
0.1732681857953036
 40
0.1917074060568071
 40
0.210152896784257
 40
0.2286025520054989
 40
0.2470546228011037
 40
0.2655076888601394
 40
0.2839603270997054
 40
0.3024117616050356
 40
0.3208614255412097
 40
0.339308925424799
 40
0.3577540092888278
 40
0.3761965391341896
 40
0.3946364676225496
 40
0.4130738187107111
 40
0.4315086718000247
 40
0.4499411489311244
 40
0.4683714045612192
 40
0.4867996174956937
 40
0.5052259845932819
 40
0.5236507159151937
 40
0.542074031038133
 40
0.5604961562962079
 40
0.5789173227558818
 40
0.597337764761154
 40
0.6157577189132281
 40
0.6341774233700965
 40
0.652597117367798
 40
0.6710169917046486
 40
0.6894372560578935
 40
0.7078581511337658
 40
0.7262799175105437
 40
0.7447027951063088
 40
0.7631270224032455
 40
0.7815528353211665
 40
0.7999804656188547
 40
0.8184101386784202
 40
0.8368420704984824
 40
0.8552764636862784
 40
0.8737135021966029
 40
0.8921533445172505
 40
0.910596114947907
 40
0.9290418925653543
 40
0.9474906974184654
 40
0.9659424734619193
 40
0.9843970677340194
 40
1.0
 40
1.0
 40
1.0
 40
1.0
 10
201.2194171711521
 20
130.8194202179396
 30
0.0
 10
200.9609232499301
 20
131.4996019097911
 30
0.0
 10
200.1168253237173
 20
133.7206984556031
 30
0.0
 10
198.3611452400644
 20
137.4329706767131
 30
0.0
 10
195.9663830591231
 20
141.9510763437844
 30
0.0
 10
193.2517480019767
 20
146.4083779839483
 30
0.0
 10
190.2437859870462
 20
150.8012043065733
 30
0.0
 10
186.9408936513816
 20
155.1214877984576
 30
0.0
 10
183.3497977810638
 20
159.3624320609225
 30
0.0
 10
179.4757285764437
 20
163.5170653504016
 30
0.0
 10
175.3250109542062
 20
167.5786902366586
 30
0.0
 10
170.904314285748
 20
171.540807582532
 30
0.0
 10
166.2207982592767
 20
175.3971655437238
 30
0.0
 10
161.2820222536374
 20
179.1417614816995
 30
0.0
 10
156.0959247343726
 20
182.7688464002251
 30
0.0
 10
150.6707917697056
 20
186.2729217539447
 30
0.0
 10
145.0152661023498
 20
189.6487165397132
 30
0.0
 10
139.1382942344412
 20
192.8912085537407
 30
0.0
 10
133.0491098366375
 20
195.9956182997461
 30
0.0
 10
126.7571844311072
 20
198.9574186286594
 30
0.0
 10
120.2722574202347
 20
201.7723083256008
 30
0.0
 10
113.604325675
 20
204.4362115137451
 30
0.0
 10
106.763633014446
 20
206.945278354742
 30
0.0
 10
99.7606592526821
 20
209.2958868176408
 30
0.0
 10
92.60610861011226
 20
211.484645275487
 30
0.0
 10
85.3108973798132
 20
213.5083956956008
 30
0.0
 10
77.88614080727194
 20
215.3642172114805
 30
0.0
 10
70.34313918839884
 20
217.0494298918105
 30
0.0
 10
62.69336322146196
 20
218.5615985508996
 30
0.0
 10
54.94843866771282
 20
219.8985364721325
 30
0.0
 10
47.12013038638881
 20
221.0583089404067
 30
0.0
 10
39.22032581513843
 20
222.0392365004845
 30
0.0
 10
31.26101796869599
 20
222.8398978757795
 30
0.0
 10
23.25428802821015
 20
223.4591324965508
 30
0.0
 10
15.21228759210562
 20
223.896042598259
 30
0.0
 10
7.147220657035492
 20
224.1499948603353
 30
0.0
 10
-0.9286746037348859
 20
224.220621563369
 30
0.0
 10
-9.003137017549484
 20
224.1078213492634
 30
0.0
 10
-17.06390359797481
 20
223.8117601717555
 30
0.0
 10
-25.09873272053406
 20
223.3328712211099
 30
0.0
 10
-33.09542981277906
 20
222.6718531949163
 30
0.0
 10
-41.04186292839631
 20
221.8296683662542
 30
0.0
 10
-48.92597638706203
 20
220.8075408314281
 30
0.0
 10
-56.73580867601724
 20
219.6069540979683
 30
0.0
 10
-64.4595100315896
 20
218.2296481796438
 30
0.0
 10
-72.08535972068991
 20
216.6776162771565
 30
0.0
 10
-79.60178260438897
 20
214.9531008734431
 30
0.0
 10
-86.99736618792609
 20
213.0585900503265
 30
0.0
 10
-94.26087329016393
 20
210.9968112411494
 30
0.0
 10
-101.3812681156015
 20
208.7707331153508
 30
0.0
 10
-108.3476889568164
 20
206.3835360587267
 30
0.0
 10
-115.1496163956353
 20
203.8386993368001
 30
0.0
 10
-121.7763076380732
 20
201.1396527825257
 30
0.0
 10
-128.2189659560553
 20
198.2910549935703
 30
0.0
 10
-134.4626955198602
 20
195.2940017327861
 30
0.0
 10
-140.2044805744265
 20
192.3252647881852
 30
0.0
 10
-143.7754646110094
 20
190.3034696447498
 30
0.0
 10
-145.411456055761
 20
189.3772152779378
 30
0.0
  0
SPLINE
  5
19F
330
198
100
AcDbEntity
  8
0
  6
Continuous
 62
     7
370
    25
100
AcDbSpline
210
0.0
220
0.0
230
1.0
 70
     8
 71
     3
 72
    22
 73
    18
 74
     0
 42
0.000000001
 43
0.00000001
 40
0.0
 40
0.0
 40
0.0
 40
0.0
 40
0.0368611948637643
 40
0.106823652655187
 40
0.1767958197123423
 40
0.2467682393128004
 40
0.3167354176560096
 40
0.3866911316306201
 40
0.4566277790999705
 40
0.5265363164835167
 40
0.596406291169535
 40
0.6662260133009347
 40
0.7359829141329877
 40
0.8056641317458578
 40
0.8752573451182499
 40
0.944751841539383
 40
0.9999999999999999
 40
0.9999999999999999
 40
0.9999999999999999
 40
0.9999999999999999
 10
-145.411456055761
 20
189.3772152779378
 30
0.0
 10
-146.4152861621741
 20
188.7904201573632
 30
0.0
 10
-149.324383357982
 20
187.0898893316078
 30
0.0
 10
-153.9664538469286
 20
184.1751782904757
 30
0.0
 10
-159.2537189912647
 20
180.5958029324423
 30
0.0
 10
-164.2947237533123
 20
176.8939368098794
 30
0.0
 10
-169.0850179249394
 20
173.077464025937
 30
0.0
 10
-173.6158359421652
 20
169.1514722262786
 30
0.0
 10
-177.8800466201691
 20
165.1220766152803
 30
0.0
 10
-181.8705648012221
 20
160.9954455801556
 30
0.0
 10
-185.5807181339422
 20
156.7780618291615
 30
0.0
 10
-189.0045399550451
 20
152.4767131113295
 30
0.0
 10
-192.1354610411086
 20
148.0982895845976
 30
0.0
 10
-194.9715111544983
 20
143.6505716216405
 30
0.0
 10
-197.4961472814182
 20
139.139180722388
 30
0.0
 10
-199.5970471902789
 20
134.88807616403
 30
0.0
 10
-200.7106584476634
 20
132.1194037431222
 30
0.0
 10
-201.2038736295098
 20
130.8931667932926
 30
0.0
  0
SPLINE
  5
1A0
330
198
100
AcDbEntity
  8
0
  6
Continuous
 62
     7
370
    25
100
AcDbSpline
210
0.0
220
0.0
230
1.0
 70
     8
 71
     3
 72
    71
 73
    67
 74
     0
 42
0.000000001
 43
0.00000001
 40
0.0
 40
0.0
 40
0.0
 40
0.0
 40
0.0056133166152497
 40
0.0216759031077092
 40
0.0377169796599918
 40
0.0537399322983977
 40
0.0697481198211786
 40
0.0857446902061079
 40
0.1017324718517259
 40
0.1177139224384812
 40
0.1336911185826537
 40
0.1496657719911564
 40
0.1656392610440252
 40
0.1816125304634071
 40
0.1975862981595664
 40
0.213561249123372
 40
0.2295378795152427
 40
0.2455165304623929
 40
0.2614974174800772
 40
0.277480655491028
 40
0.2934662797328574
 40
0.309454262979039
 40
0.3254445295485812
 40
0.3414369665768717
 40
0.3574314329882105
 40
0.3734277665642979
 40
0.3894257894521018
 40
0.4054253124042667
 40
0.421426137999067
 40
0.4374280630459733
 40
0.4534308803479339
 40
0.4694343799622491
 40
0.4854383500781988
 40
0.5014425776108219
 40
0.5174468485960243
 40
0.5334508909670304
 40
0.5494544758407801
 40
0.5654573882407439
 40
0.5814594134665345
 40
0.5974603376118428
 40
0.6134599483399559
 40
0.629458036010218
 40
0.6454543952682216
 40
0.661448827234915
 40
0.6774411424577721
 40
0.6934311648207382
 40
0.7094187366494086
 40
0.725403725293321
 40
0.7413860315173537
 40
0.7573656000865301
 40
0.7733424329783715
 40
0.7893166056963323
 40
0.8052882871737602
 40
0.8212577637301062
 40
0.8372254674400855
 40
0.8531920090590466
 40
0.8691581624446738
 40
0.8851246753375028
 40
0.9010928270039162
 40
0.917064223035174
 40
0.9330408316628622
 40
0.9490250080532285
 40
0.9650194967844499
 40
0.98102739959324
 40
0.9970520927035427
 40
0.9999999999999999
 40
0.9999999999999999
 40
0.9999999999999999
 40
0.9999999999999999
 10
188.9666443967443
 20
65.58642596768152
 30
0.0
 10
188.6674575125138
 20
65.08899169850346
 30
0.0
 10
187.5121430419102
 20
63.1681420902942
 30
0.0
 10
185.1955134012675
 20
59.88141560979709
 30
0.0
 10
182.0226028358955
 20
55.73679306082197
 30
0.0
 10
178.5454527010979
 20
51.66989925075406
 30
0.0
 10
174.7949110773797
 20
47.68218382630194
 30
0.0
 10
170.769615026594
 20
43.78080655034039
 30
0.0
 10
166.4773113526946
 20
39.97137077623692
 30
0.0
 10
161.923831037493
 20
36.25985276515902
 30
0.0
 10
157.1160597210811
 20
32.65206054750784
 30
0.0
 10
152.0611517803095
 20
29.15374864950833
 30
0.0
 10
146.7667561983626
 20
25.77056515687116
 30
0.0
 10
141.2409531954357
 20
22.50803320943736
 30
0.0
 10
135.4922385435385
 20
19.37151160539815
 30
0.0
 10
129.5294853571359
 20
16.36616798408402
 30
0.0
 10
123.3619278555662
 20
13.49696529267899
 30
0.0
 10
116.9991649008625
 20
10.76865843243924
 30
0.0
 10
110.4511403732664
 20
8.185779833420593
 30
0.0
 10
103.7281227084594
 20
5.752627025368516
 30
0.0
 10
96.84068405966644
 20
3.4732519570334
 30
0.0
 10
89.79967927183858
 20
1.351451838397348
 30
0.0
 10
82.61622481804443
 20
-0.6092387104838295
 30
0.0
 10
75.30167777888227
 20
-2.405554393402426
 30
0.0
 10
67.86761490917455
 20
-4.034505016608882
 30
0.0
 10
60.32581180930843
 20
-5.493380446409846
 30
0.0
 10
52.68822220271455
 20
-6.779754854938203
 30
0.0
 10
44.96695731184147
 20
-7.891490341301314
 30
0.0
 10
37.17426532074708
 20
-8.826739996757365
 30
0.0
 10
29.32251091127708
 20
-9.583950467286135
 30
0.0
 10
21.4241548605373
 20
-10.16186405457796
 30
0.0
 10
13.49173368924142
 20
-10.55952038667444
 30
0.0
 10
5.537839352325283
 20
-10.77625768178925
 30
0.0
 10
-2.424901033183227
 20
-10.8117136229251
 30
0.0
 10
-10.3838359006586
 20
-10.66582603067114
 30
0.0
 10
-18.32631675172099
 20
-10.33883389081468
 30
0.0
 10
-26.23972092173672
 20
-9.831277254444547
 30
0.0
 10
-34.11148131123216
 20
-9.143995479348362
 30
0.0
 10
-41.92909930027576
 20
-8.278126106981636
 30
0.0
 10
-49.6801625777172
 20
-7.235103629059076
 30
0.0
 10
-57.35236527922807
 20
-6.016657787946952
 30
0.0
 10
-64.93352813127854
 20
-4.624811493449246
 30
0.0
 10
-72.41161861311404
 20
-3.061878337326698
 30
0.0
 10
-79.77477115263595
 20
-1.330459678753601
 30
0.0
 10
-87.01130737559963
 20
0.5665587366050773
 30
0.0
 10
-94.10975643046557
 20
2.626010674806695
 30
0.0
 10
-101.0588754128185
 20
4.844453897315207
 30
0.0
 10
-107.847669912294
 20
7.218175320015077
 30
0.0
 10
-114.465414700296
 20
9.743196964007703
 30
0.0
 10
-120.9016745645207
 20
12.41528284686813
 30
0.0
 10
-127.1463252800855
 20
15.22994699982262
 30
0.0
 10
-133.1895746585476
 20
18.18246284084331
 30
0.0
 10
-139.0219836220391
 20
21.26787416903489
 30
0.0
 10
-144.6344869629155
 20
24.48100812304502
 30
0.0
 10
-150.018414137772
 20
27.81649035206574
 30
0.0
 10
-155.1655016722919
 20
31.26875933377681
 30
0.0
 10
-160.0678891856768
 20
34.83206467883708
 30
0.0
 10
-164.7181473764147
 20
38.50050838935564
 30
0.0
 10
-169.1093729069152
 20
42.26806290411786
 30
0.0
 10
-173.2349384925184
 20
46.12867011014352
 30
0.0
 10
-177.0895216327795
 20
50.07608614129595
 30
0.0
 10
-180.6651784855262
 20
54.10455366889686
 30
0.0
 10
-183.9659799219529
 20
58.20645783391344
 30
0.0
 10
-186.9532583993073
 20
62.38124473605572
 30
0.0
 10
-188.988198214191
 20
65.45236848661015
 30
0.0
 10
-189.9348057088463
 20
67.1442390897701
 30
0.0
 10
-190.0818868195295
 20
67.40711700786196
 30
0.0
  0
LWPOLYLINE
  5
1A3
330
198
100
AcDbEntity
  8
0
  6
Continuous
 62
     7
370
    25
100
AcDbPolyline
 90
       59
 70
   128
 43
0.0
 10
-179.1153898743
 20
-36.5914676301
 10
-176.6876165759
 20
-40.3337260353
 10
-173.5181625913
 20
-44.6846317717
 10
-170.0273929142
 20
-48.9527918566
 10
-166.2217716466
 20
-53.1303026402
 10
-162.1083459228
 20
-57.2094283342
 10
-157.6947328605
 20
-61.1826153367
 10
-152.9891054549
 20
-65.0425062201
 10
-148.0001774448
 20
-68.7819533551
 10
-142.7371871764
 20
-72.3940321464
 10
-137.209880496
 20
-75.8720538556
 10
-131.4284927033
 20
-79.2095779871
 10
-125.4037295976
 20
-82.4004242146
 10
-119.1467476531
 20
-85.4386838254
 10
-112.6691333601
 20
-88.3187306621
 10
-105.982881769
 20
-91.035231541
 10
-99.1003742787
 20
-93.5831561277
 10
-92.0343557085
 20
-95.9577862527
 10
-84.7979106983
 20
-98.1547246473
 10
-77.4044394783
 20
-100.1699030876
 10
-69.8676330552
 20
-101.9995899269
 10
-62.2014478596
 20
-103.6403970065
 10
-54.4200799016
 20
-105.0892859292
 10
-46.5379384833
 20
-106.3435736865
 10
-38.5696195162
 20
-107.400937626
 10
-30.5298784927
 20
-108.2594197533
 10
-22.4336031623
 20
-108.9174303569
 10
-14.2957859632
 20
-109.3737509528
 10
-6.1314962595
 20
-109.6275365403
 10
2.0441475639
 20
-109.6783171668
 10
10.2160060965
 20
-109.5259987984
 10
18.3689469376
 20
-109.1708634936
 10
26.4878727176
 20
-108.6135688812
 10
34.557749055
 20
-107.8551469426
 10
42.5636323964
 20
-106.8970021006
 10
50.490697689
 20
-105.7409086188
 10
58.3242658326
 20
-104.3890073164
 10
66.0498308625
 20
-102.8438016032
 10
73.6530868105
 20
-101.1081528445
 10
81.1199541971
 20
-99.1852750623
 10
88.4366061026
 20
-97.0787289835
 10
95.5894937721
 20
-94.7924154467
 10
102.5653717043
 20
-92.3305681781
 10
109.3513221791
 20
-89.6977459521
 10
115.9347791784
 20
-86.8988241495
 10
122.3035516554
 20
-83.938985729
 10
128.4458461095
 20
-80.82371163
 10
134.3502884254
 20
-77.5587706232
 10
140.0059449352
 20
-74.1502086275
 10
145.402342665
 20
-70.6043375151
 10
150.5294887284
 20
-66.9277234231
 10
155.3778888313
 20
-63.1271745943
 10
159.9385648527
 20
-59.2097287704
 10
164.2030714706
 20
-55.1826401591
 10
168.1635118004
 20
-51.0533660016
 10
171.8125520184
 20
-46.8295527629
 10
175.143434942
 20
-42.5190219729
 10
178.1499925429
 20
-38.1297557422
 10
179.1092053831
 20
-36.6015549159
  0
LWPOLYLINE
  5
1A6
330
198
100
AcDbEntity
  8
0
  6
Continuous
 62
     7
370
    25
100
AcDbPolyline
 90
       21
 70
   128
 43
0.0
 10
-24.6904264356
 20
22.4188879063
 10
-27.0616368538
 20
20.9037572784
 10
-29.1551582578
 20
19.2579139503
 10
-30.9495082847
 20
17.4982465019
 10
-32.4262744753
 20
15.6428115024
 10
-33.57030321
 20
13.7106482255
 10
-34.3698552059
 20
11.7215832813
 10
-34.8167259775
 20
9.6960271676
 10
-34.9063300261
 20
7.6547648313
 10
-34.6377478927
 20
5.618742386
 10
-34.0137355937
 20
3.6088521774
 10
-33.0406963395
 20
1.6457183988
 10
-31.7286148296
 20
-0.2505145408
 10
-30.0909547959
 20
-2.0603887253
 10
-28.1445208465
 20
-3.7653323965
 10
-25.9092860275
 20
-5.3478505252
 10
-23.4081868731
 20
-6.7917043337
 10
-20.6668880449
 20
-8.0820779284
 10
-17.7135189787
 20
-9.2057303298
 10
-14.5783852375
 20
-10.1511313438
 10
-12.8655488615
 20
-10.5738878145
  0
LWPOLYLINE
  5
1A7
330
198
100
AcDbEntity
  8
0
  6
Continuous
 62
     7
370
    25
100
AcDbPolyline
 90
       38
 70
   128
 43
0.0
 10
12.5358346989
 20
-10.6482129866
 10
12.9526460151
 20
-10.5538816844
 10
16.1667019541
 20
-9.701362709
 10
19.2148656541
 20
-8.6655064873
 10
22.0658588306
 20
-7.4569423058
 10
24.6904264356
 20
-6.0880716685
 10
27.0616368538
 20
-4.5729410406
 10
29.1551582578
 20
-2.9270977126
 10
30.9495082847
 20
-1.1674302642
 10
32.4262744753
 20
0.6880047354
 10
33.57030321
 20
2.6201680122
 10
34.3698552059
 20
4.6092329564
 10
34.8167259775
 20
6.6347890701
 10
34.9063300261
 20
8.6760514064
 10
34.6377478927
 20
10.7120738517
 10
34.0137355937
 20
12.7219640603
 10
33.0406963395
 20
14.6850978389
 10
31.7286148296
 20
16.5813307785
 10
30.0909547959
 20
18.3912049631
 10
28.1445208465
 20
20.0961486342
 10
25.9092860275
 20
21.6786667629
 10
23.4081868731
 20
23.1225205715
 10
20.6668880449
 20
24.4128941661
 10
17.7135189787
 20
25.5365465675
 10
14.5783852375
 20
26.4819475815
 10
11.2936575361
 20
27.2393961144
 10
7.8930416256
 20
27.8011197192
 10
4.411432427
 20
28.1613543517
 10
0.8845559621
 20
28.3164035169
 10
-2.6513972439
 20
28.2646762007
 10
-6.1601435264
 20
28.0067031954
 10
-9.6056784002
 20
27.545131653
 10
-12.9526460151
 20
26.8846979222
 10
-16.1667019541
 20
26.0321789467
 10
-19.2148656541
 20
24.996322725
 10
-22.0658588306
 20
23.7877585435
 10
-24.6904264356
 20
22.4188879063
 10
-24.6904264356
 20
22.4188879063
  0
LWPOLYLINE
  5
1A8
330
198
100
AcDbEntity
  8
0
  6
Continuous
 62
     7
370
    25
100
AcDbPolyline
 90
       15
 70
   128
 43
0.0
 10
-16.2634559673
 20
9.388693286
 10
-18.1735652846
 20
8.1379453467
 10
-19.7970666211
 20
6.7588571479
 10
-21.1083563907
 20
5.2731777343
 10
-22.0867547706
 20
3.7043371578
 10
-22.7168318337
 20
2.0770769715
 10
-22.9886508884
 20
0.4170600406
 10
-22.8979251859
 20
-1.2495341763
 10
-22.4460855246
 20
-2.8964224929
 10
-21.6402576859
 20
-4.4976324964
 10
-20.4931500563
 20
-6.0279121488
 10
-19.0228532083
 20
-7.4631280256
 10
-17.2525546015
 20
-8.7806459153
 10
-15.2101729024
 20
-9.9596877735
 10
-15.1249855841
 20
-10.0028288077
  0
LWPOLYLINE
  5
1A9
330
198
100
AcDbEntity
  8
0
  6
Continuous
 62
     7
370
    25
100
AcDbPolyline
 90
       28
 70
   128
 43
0.0
 10
15.1249855841
 20
-10.0028288077
 10
16.2634559673
 20
-9.388693286
 10
18.1735652846
 20
-8.1379453467
 10
19.7970666211
 20
-6.7588571479
 10
21.1083563907
 20
-5.2731777343
 10
22.0867547706
 20
-3.7043371578
 10
22.7168318337
 20
-2.0770769715
 10
22.9886508884
 20
-0.4170600406
 10
22.8979251859
 20
1.2495341763
 10
22.4460855246
 20
2.8964224929
 10
21.6402576859
 20
4.4976324964
 10
20.4931500563
 20
6.0279121488
 10
19.0228532083
 20
7.4631280256
 10
17.2525546015
 20
8.7806459153
 10
15.2101729024
 20
9.9596877735
 10
12.9279176906
 20
10.981659406
 10
10.441781494
 20
11.8304437094
 10
7.7909721656
 20
12.4926548485
 10
5.0172945521
 20
12.9578493578
 10
2.1644912063
 20
13.2186908421
 10
-0.7224474588
 20
13.2710656753
 10
-3.5979926959
 20
13.1141478751
 10
-6.4167954389
 20
12.7504121289
 10
-9.1344014846
 20
12.1855947667
 10
-11.7079525623
 20
11.4286032957
 10
-14.096862234
 20
10.4913759236
 10
-16.2634559673
 20
9.388693286
 10
-16.2634559673
 20
9.388693286
  0
LWPOLYLINE
  5
1AB
330
198
100
AcDbEntity
  8
0
  6
Continuous
 62
     7
370
    25
100
AcDbPolyline
 90
       17
 70
   128
 43
0.0
 10
21.3770108328
 20
-4.8992448713
 10
20.4931500563
 20
-3.7705775939
 10
19.0228532083
 20
-2.335361717
 10
17.2525546015
 20
-1.0178438274
 10
15.2101729024
 20
0.1611980309
 10
12.9279176906
 20
1.1831696633
 10
10.441781494
 20
2.0319539668
 10
7.7909721656
 20
2.6941651058
 10
5.0172945521
 20
3.1593596151
 10
2.1644912063
 20
3.4202010994
 10
-0.7224474588
 20
3.4725759327
 10
-3.5979926959
 20
3.3156581325
 10
-6.4167954389
 20
2.9519223863
 10
-9.1344014846
 20
2.3871050241
 10
-11.7079525623
 20
1.6301135531
 10
-14.096862234
 20
0.692886181
 10
-16.2634559673
 20
-0.4097964567
  0
LWPOLYLINE
  5
1AC
330
198
100
AcDbEntity
  8
0
  6
Continuous
 62
    60
370
    25
100
AcDbPolyline
 90
       81
 70
   128
 43
0.0
 10
-206.239814745
 20
109.788983103
 10
-206.2947407535
 20
109.0743016117
 10
-206.4711169734
 20
104.1486440906
 10
-206.2947407535
 20
99.2229865694
 10
-205.7659134295
 20
94.3057444516
 10
-204.885538494
 20
89.4053187626
 10
-203.6551200529
 20
84.5300817977
 10
-202.0767602555
 20
79.6883628173
 10
-200.1531557028
 20
74.8884338172
 10
-197.8875928412
 20
70.1384953955
 10
-195.2839423467
 20
65.4466627424
 10
-192.3466525125
 20
60.8209517751
 10
-189.080741649
 20
56.2692654434
 10
-185.4917895101
 20
51.799380227
 10
-181.5859277604
 20
47.4189328497
 10
-177.3698294992
 20
43.1354072324
 10
-172.8506978596
 20
38.9561217069
 10
-168.0362537022
 20
34.8882165123
 10
-162.9347224241
 20
30.9386415964
 10
-157.5548199059
 20
27.1141447416
 10
-151.9057376208
 20
23.4212600368
 10
-145.9971269311
 20
19.8662967135
 10
-139.8390825991
 20
16.4553283668
 10
-133.4421255402
 20
13.1941825791
 10
-126.8171848483
 20
10.0884309631
 10
-119.9755791234
 20
7.1433796434
 10
-112.9289971341
 20
4.3640601908
 10
-105.6894778475
 20
1.755221026
 10
-98.269389861
 20
-0.6786806932
 10
-90.6814102702
 20
-2.9334866864
 10
-82.9385030112
 20
-5.0053446554
 10
-75.0538967111
 20
-6.8907148657
 10
-67.0410620874
 20
-8.5863761938
 10
-58.9136889337
 20
-10.0894316308
 10
-50.6856627307
 20
-11.3973132318
 10
-42.3710409232
 20
-12.507786503
 10
-33.984028903
 20
-13.4189542193
 10
-25.5389557396
 20
-14.1292596661
 10
-17.0502496986
 20
-14.6374892983
 10
-8.5324135921
 20
-14.9427748143
 10
0.0
 20
-15.0445946388
 10
8.5324135921
 20
-14.9427748143
 10
17.0502496986
 20
-14.6374892983
 10
25.5389557396
 20
-14.1292596661
 10
33.9840289031
 20
-13.4189542193
 10
42.3710409232
 20
-12.507786503
 10
50.6856627307
 20
-11.3973132318
 10
58.9136889337
 20
-10.0894316308
 10
67.0410620874
 20
-8.5863761938
 10
75.0538967111
 20
-6.8907148657
 10
82.9385030112
 20
-5.0053446554
 10
90.6814102702
 20
-2.9334866864
 10
98.269389861
 20
-0.6786806932
 10
105.6894778475
 20
1.755221026
 10
112.9289971341
 20
4.3640601908
 10
119.9755791234
 20
7.1433796434
 10
126.8171848483
 20
10.0884309631
 10
133.4421255402
 20
13.1941825791
 10
139.8390825991
 20
16.4553283668
 10
145.9971269311
 20
19.8662967135
 10
151.9057376208
 20
23.4212600368
 10
157.5548199059
 20
27.1141447416
 10
162.9347224241
 20
30.9386415964
 10
168.0362537022
 20
34.8882165123
 10
172.8506978596
 20
38.9561217069
 10
177.3698294992
 20
43.1354072324
 10
181.5859277604
 20
47.4189328497
 10
185.4917895101
 20
51.799380227
 10
189.080741649
 20
56.2692654434
 10
192.3466525125
 20
60.8209517751
 10
195.2839423467
 20
65.4466627424
 10
197.8875928412
 20
70.1384953955
 10
200.1531557028
 20
74.8884338172
 10
202.0767602555
 20
79.6883628173
 10
203.6551200529
 20
84.5300817977
 10
204.885538494
 20
89.4053187626
 10
205.7659134295
 20
94.3057444516
 10
206.2947407535
 20
99.2229865694
 10
206.4711169734
 20
104.1486440906
 10
206.2947407535
 20
109.0743016117
 10
206.1212477745
 20
111.0845910301
  0
LWPOLYLINE
  5
1AD
330
198
100
AcDbEntity
  8
0
  6
Continuous
 62
    60
370
    25
100
AcDbPolyline
 90
       24
 70
   128
 43
0.0
 10
-141.9072700287
 20
186.4243379826
 10
-147.725252944
 20
182.9219700984
 10
-153.2840755683
 20
179.2820287196
 10
-158.5739858378
 20
175.5108995401
 10
-163.5857034523
 20
171.6151984021
 10
-168.3104361562
 20
167.6017596891
 10
-172.7398951628
 20
163.4776243364
 10
-176.8663096959
 20
159.2500274787
 10
-180.6824406221
 20
154.9263857575
 10
-184.1815931513
 20
150.5142843095
 10
-187.3576285807
 20
146.02146346
 10
-190.204975065
 20
141.4558051434
 10
-192.718637391
 20
136.8253190758
 10
-194.8942057407
 20
132.1381287031
 10
-196.7278634281
 20
127.4024569501
 10
-198.2163935945
 20
122.6266117942
 10
-199.3571848521
 20
117.8189716906
 10
-200.1482358655
 20
112.9879708737
 10
-200.5881588623
 20
108.1420845606
 10
-200.6761820681
 20
103.2898140824
 10
-200.4121510604
 20
98.4396719704
 10
-199.7965290393
 20
93.600167022
 10
-198.8303960148
 20
88.7797893733
 10
-198.3320318428
 20
86.8060462418
  0
LWPOLYLINE
  5
1AE
330
198
100
AcDbEntity
  8
0
  6
Continuous
 62
    60
370
    25
100
AcDbPolyline
 90
       61
 70
   128
 43
0.0
 10
198.3351570054
 20
86.8177223458
 10
199.3571848521
 20
91.1870577882
 10
200.1482358655
 20
96.0180586051
 10
200.5881588623
 20
100.8639449183
 10
200.6761820681
 20
105.7162153964
 10
200.4121510604
 20
110.5663575084
 10
199.7965290393
 20
115.4058624568
 10
198.8303960148
 20
120.2262401056
 10
197.5154469128
 20
125.0190338742
 10
195.8539886006
 20
129.7758355739
 10
193.8489358409
 20
134.488300158
 10
191.5038061773
 20
139.1481603625
 10
188.8227137643
 20
143.7472412091
 10
185.8103621489
 20
148.2774743471
 10
182.4720360196
 20
152.7309122084
 10
178.8135919346
 20
157.0997419495
 10
174.8414480482
 20
161.3762991586
 10
170.5625728503
 20
165.5530813012
 10
165.9844729421
 20
169.6227608821
 10
161.1151798665
 20
173.5781983004
 10
155.963236018
 20
177.4124543748
 10
150.537679657
 20
181.1188025173
 10
144.8480290527
 20
184.6907405339
 10
138.9042657859
 20
188.1220020314
 10
132.7168172368
 20
191.4065674113
 10
126.2965382928
 20
194.5386744297
 10
119.6546923049
 20
197.5128283068
 10
112.8029313276
 20
200.3238113659
 10
105.7532756782
 20
202.9666921876
 10
98.5180928479
 20
205.4368342609
 10
91.1100758062
 20
207.7299041172
 10
83.5422207321
 20
209.8418789327
 10
75.827804215
 20
211.7690535861
 10
67.9803599628
 20
213.5080471582
 10
60.0136550594
 20
215.0558088632
 10
51.9416658122
 20
216.4096234012
 10
43.7785532333
 20
217.5671157215
 10
35.5386381959
 20
218.5262551892
 10
27.2363763111
 20
219.2853591479
 10
18.8863325672
 20
219.8430958711
 10
10.5031557784
 20
220.1984868992
 10
2.1015528854
 20
220.3509087556
 10
-6.3037368456
 20
220.3000940405
 10
-14.69796768
 20
220.0461319001
 10
-23.0664132848
 20
219.5894678705
 10
-31.3943925626
 20
218.9309030954
 10
-39.667295408
 20
218.0715929213
 10
-47.8706083382
 20
217.0130448702
 10
-55.9899399549
 20
215.7571159951
 10
-64.0110461913
 20
214.306009622
 10
-71.9198553016
 20
212.6622714845
 10
-79.7024925472
 20
210.828785258
 10
-87.3453045378
 20
208.8087675002
 10
-94.8348831841
 20
206.6057620087
 10
-102.1580892202
 20
204.2236336038
 10
-109.3020752542
 20
201.6665613482
 10
-116.2543083072
 20
198.9390312153
 10
-123.0025917999
 20
196.04582822
 10
-129.53508695
 20
192.9920280234
 10
-135.8403335413
 20
189.7829880287
 10
-141.9072700287
 20
186.4243379826
  0
ARC
  5
1AF
330
198
100
AcDbEntity
  8
0
  6
Continuous
 62
     7
370
    25
100
AcDbCircle
 10
-133.5106948426
 20
103.5917682031
 30
0.0
 40
72.99267329194751
100
AcDbArc
 50
158.2640679616
 51
175.1296176158
  0
ARC
  5
1B0
330
198
100
AcDbEntity
  8
0
  6
Continuous
 62
     7
370
    25
100
AcDbCircle
 10
133.0890419214
 20
103.4742954845
 30
0.0
 40
73.42764935680236
100
AcDbArc
 50
5.949016044
 51
21.6396831504
  0
ARC
  5
1B1
330
198
100
AcDbEntity
  8
0
  6
Continuous
 62
     7
370
    25
100
AcDbCircle
 10
-122.0323365907
 20
107.6590303674
 30
0.0
 40
79.09798001531115
100
AcDbArc
 50
195.2858511577
 51
210.7549059801
  0
ARC
  5
1B2
330
198
100
AcDbEntity
  8
0
  6
Continuous
 62
     7
370
    25
100
AcDbCircle
 10
121.6247690018
 20
107.7892619787
 30
0.0
 40
79.52539910149386
100
AcDbArc
 50
327.7497858937
 51
344.7097623285
  0
ARC
  5
1B3
330
198
100
AcDbEntity
  8
0
  6
Continuous
 62
     7
370
    25
100
AcDbCircle
 10
-9.0751394189
 20
-13.7543414303
 30
0.0
 40
15.15746599377403
100
AcDbArc
 50
118.3100492416
 51
144.2530175476
  0
VIEWPORT
  5
1EE
330
198
100
AcDbEntity
  8
0
100
AcDbViewport
 10
0.0
 20
0.0
 30
0.0
 40
205.6
 41
156.0
 68
     1
 69
     1
 12
0.0
 22
0.0
 13
0.0
 23
0.0
 14
10.0
 24
10.0
 15
10.0
 25
10.0
 16
0.0
 26
0.0
 36
1.0
 17
0.0
 27
0.0
 37
0.0
 42
50.0
 43
0.0
 44
0.0
 45
428.4
 50
0.0
 51
0.0
 72
   100
 90
   557152
  1

281
     0
 71
     1
 74
     0
110
0.0
120
0.0
130
0.0
111
1.0
121
0.0
131
0.0
112
0.0
122
1.0
132
0.0
 79
     0
146
0.0
  0
ENDBLK
  5
19B
330
198
100
AcDbEntity
  8
0
100
AcDbBlockEnd
  0
BLOCK
  5
1B6
330
1B4
100
AcDbEntity
  8
0
100
AcDbBlockBegin
  2
*Paper_Space6
 70
     0
 10
0.0
 20
0.0
 30
0.0
  3
*Paper_Space6
  1

  0
SPLINE
  5
1B8
330
1B4
100
AcDbEntity
  8
0
  6
Continuous
 62
     7
370
    25
100
AcDbSpline
210
0.0
220
0.0
230
1.0
 70
     8
 71
     3
 72
    26
 73
    22
 74
     0
 42
0.000000001
 43
0.00000001
 40
0.0
 40
0.0
 40
0.0
 40
0.0
 40
0.0496738756465558
 40
0.1039663476009831
 40
0.1581234567999845
 40
0.2121468491345355
 40
0.2660382550182375
 40
0.3197994382786334
 40
0.3734321572419327
 40
0.4269381355104617
 40
0.4803190404452271
 40
0.5335764677844496
 40
0.5867119311695232
 40
0.6397268556258955
 40
0.6926225742705269
 40
0.7454003277008568
 40
0.7980612599356092
 40
0.850606412479861
 40
0.9030367664738486
 40
0.9553532285316206
 40
1.0
 40
1.0
 40
1.0
 40
1.0
 10
182.1823967470615
 20
-27.75449533663691
 30
0.0
 10
183.4351042628187
 20
-25.52895193057241
 30
0.0
 10
186.0569940052712
 20
-20.87093770590578
 30
0.0
 10
189.6800288022167
 20
-13.59062281753818
 30
0.0
 10
193.1273621715254
 20
-5.981299402911998
 30
0.0
 10
196.2543069193344
 20
1.743806522647912
 30
0.0
 10
199.0669738886919
 20
9.566841893444234
 30
0.0
 10
201.560959333854
 20
17.4762628961524
 30
0.0
 10
203.7353087411722
 20
25.45887310104724
 30
0.0
 10
205.5887787906862
 20
33.50196619812641
 30
0.0
 10
207.1208256523407
 20
41.59277158829166
 30
0.0
 10
208.3313340943203
 20
49.71862099352293
 30
0.0
 10
209.2206756396875
 20
57.86692140016125
 30
0.0
 10
209.7897065817887
 20
66.0251860366151
 30
0.0
 10
210.0396789130276
 20
74.1810279739894
 30
0.0
 10
209.972557099445
 20
82.3222460881016
 30
0.0
 10
209.5898016498459
 20
90.43657920703086
 30
0.0
 10
208.8968599084074
 20
98.51269160518578
 30
0.0
 10
207.8864232302479
 20
106.5365855079746
 30
0.0
 10
206.6625711813555
 20
114.1213673662212
 30
0.0
 10
205.6281418629348
 20
118.9979615608736
 30
0.0
 10
205.151838343547
 20
121.2433919021992
 30
0.0
  0
SPLINE
  5
1B9
330
1B4
100
AcDbEntity
  8
0
  6
Continuous
 62
     7
370
    25
100
AcDbSpline
210
0.0
220
0.0
230
1.0
 70
     8
 71
     3
 72
    27
 73
    23
 74
     0
 42
0.000000001
 43
0.00000001
 40
0.0
 40
0.0
 40
0.0
 40
0.0
 40
0.0107026631784735
 40
0.0640921697043014
 40
0.1173581622020948
 40
0.1705021556304941
 40
0.2235255763834385
 40
0.2764297589590098
 40
0.329215945316211
 40
0.3818852811386427
 40
0.4344388088168048
 40
0.4868775106423752
 40
0.5392022942640929
 40
0.5914140018309141
 40
0.6435134210499746
 40
0.6955012983396848
 40
0.7473783543423999
 40
0.7991453021476156
 40
0.8508028686709506
 40
0.9023518197381243
 40
0.9537929895407163
 40
1.0
 40
1.0
 40
1.0
 40
1.0
 10
-205.1436919917726
 20
121.248570436652
 30
0.0
 10
-205.269067809303
 20
120.7129122798966
 30
0.0
 10
-206.019872355795
 20
117.505159880913
 30
0.0
 10
-207.0857541777671
 20
111.5638340688225
 30
0.0
 10
-208.3222176189122
 20
103.4432841734336
 30
0.0
 10
-209.2099283658492
 20
95.29388035323394
 30
0.0
 10
-209.7846679846622
 20
87.13601873082483
 30
0.0
 10
-210.0384050942241
 20
78.97996531130389
 30
0.0
 10
-209.9753882356622
 20
70.83853016723748
 30
0.0
 10
-209.5971578529243
 20
62.72366419697897
 30
0.0
 10
-208.9065390426632
 20
54.64734720742239
 30
0.0
 10
-207.9065642488928
 20
46.62133057072073
 30
0.0
 10
-206.6007504167032
 20
38.65718464482543
 30
0.0
 10
-204.9930079715118
 20
30.76627001148423
 30
0.0
 10
-203.0876686859619
 20
22.95971634379911
 30
0.0
 10
-200.8894006067496
 20
15.24844486643732
 30
0.0
 10
-198.4034499377163
 20
7.643009475915751
 30
0.0
 10
-195.6346858934724
 20
0.1541190363589517
 30
0.0
 10
-192.5910875123123
 20
-7.209374436738032
 30
0.0
 10
-189.2707017619765
 20
-14.43305804698902
 30
0.0
 10
-185.8283859048615
 20
-21.28900728665417
 30
0.0
 10
-183.3628465569858
 20
-25.66142582147029
 30
0.0
 10
-182.1961560756113
 20
-27.73044941647007
 30
0.0
  0
SPLINE
  5
1BA
330
1B4
100
AcDbEntity
  8
0
  6
Continuous
 62
     7
370
    25
100
AcDbSpline
210
0.0
220
0.0
230
1.0
 70
     8
 71
     3
 72
    70
 73
    66
 74
     0
 42
0.000000001
 43
0.00000001
 40
0.0
 40
0.0
 40
0.0
 40
0.0
 40
0.0151615097043504
 40
0.0309115977820911
 40
0.0467000966371854
 40
0.0625256637094442
 40
0.0783851368938078
 40
0.0942741723698974
 40
0.1101878493113211
 40
0.1261211690229
 40
0.1420694161843963
 40
0.1580283829264781
 40
0.1739944771386665
 40
0.1899647449588692
 40
0.2059368371651803
 40
0.2219085425295327
 40
0.2378785552972952
 40
0.2538460203726596
 40
0.2698103674920799
 40
0.285771249623217
 40
0.3017284915115398
 40
0.3176820478150027
 40
0.3336319697348153
 40
0.3495783788668542
 40
0.3655214470142028
 40
0.3814613808182996
 40
0.397398410223734
 40
0.4133327799557426
 40
0.4292647433419923
 40
0.4451945579438152
 40
0.4611224825741817
 40
0.4770487753716824
 40
0.4929736926734307
 40
0.5088974884881553
 40
0.5248204144159672
 40
0.5407427198963245
 40
0.5566646526918216
 40
0.5725864595347868
 40
0.5885083652344321
 40
0.6044305562018842
 40
0.6203532803908104
 40
0.6362767876084606
 40
0.6522013302202235
 40
0.6681271637323194
 40
0.6840545471780101
 40
0.6999837432236057
 40
0.7159150178872813
 40
0.7318486397324234
 40
0.7477848783562223
 40
0.7637240019412322
 40
0.7796662735698306
 40
0.7956119459165587
 40
0.8115612538279375
 40
0.8275144041720569
 40
0.8434715621908739
 40
0.8594328334208922
 40
0.8753982400743763
 40
0.8913676906180976
 40
0.9073409411953536
 40
0.9233175475872886
 40
0.9392968067260775
 40
0.9552776875408352
 40
0.9712583314039579
 40
0.9872364705491505
 40
1.0
 40
1.0
 40
1.0
 40
1.0
 10
202.7286787205977
 20
129.532637087313
 30
0.0
 10
202.2072219498428
 20
130.8689976177066
 30
0.0
 10
201.1440651618551
 20
133.5935969493638
 30
0.0
 10
199.1532525131546
 20
137.6531867591095
 30
0.0
 10
196.8558106627296
 20
141.7205387238632
 30
0.0
 10
194.247380678827
 20
145.7371548231381
 30
0.0
 10
191.3399002388729
 20
149.6973978995649
 30
0.0
 10
188.1355514861467
 20
153.5942540343019
 30
0.0
 10
184.640051962124
 20
157.4211751277273
 30
0.0
 10
180.8590067921812
 20
161.1717015034871
 30
0.0
 10
176.7987930161816
 20
164.83964625667
 30
0.0
 10
172.4662238949412
 20
168.419093092316
 30
0.0
 10
167.8685512796272
 20
171.9044144408283
 30
0.0
 10
163.0133939145929
 20
175.2902628783775
 30
0.0
 10
157.9087463117387
 20
178.5715295931754
 30
0.0
 10
152.5629123054273
 20
181.7433607157415
 30
0.0
 10
146.9844778105667
 20
184.8011442124859
 30
0.0
 10
141.1822473768461
 20
187.7405153254907
 30
0.0
 10
135.1652858255163
 20
190.5573124771254
 30
0.0
 10
128.9429240364961
 20
193.247564018884
 30
0.0
 10
122.5247541786099
 20
195.8074844801765
 30
0.0
 10
115.9206241740658
 20
198.2334734777142
 30
0.0
 10
109.1406309727494
 20
200.5221166948323
 30
0.0
 10
102.1951124386662
 20
202.6701883860662
 30
0.0
 10
95.09463780279414
 20
204.6746549385766
 30
0.0
 10
87.84999672922942
 20
206.5326791050666
 30
0.0
 10
80.47218709381427
 20
208.2416246013195
 30
0.0
 10
72.97240159977439
 20
209.7990608298941
 30
0.0
 10
65.36201336326866
 20
211.2027675482736
 30
0.0
 10
57.65256060011263
 20
212.4507393452525
 30
0.0
 10
49.85573053781409
 20
213.5411898248833
 30
0.0
 10
41.9833426674967
 20
214.4725554245011
 30
0.0
 10
34.04733144001485
 20
215.2434988138325
 30
0.0
 10
26.05972850073435
 20
215.8529118373669
 30
0.0
 10
18.03264454856611
 20
216.2999179732807
 30
0.0
 10
9.978250897199183
 20
216.5838742901956
 30
0.0
 10
1.908760810340512
 20
216.7043728887567
 30
0.0
 10
-6.163585665064724
 20
216.6612418385653
 30
0.0
 10
-14.2265340718324
 20
216.4545461411666
 30
0.0
 10
-22.26784485725516
 20
216.0845882530513
 30
0.0
 10
-30.27531615150482
 20
215.5519070431083
 30
0.0
 10
-38.23680908104188
 20
214.8572753950153
 30
0.0
 10
-46.14025628310574
 20
214.0016987045578
 30
0.0
 10
-53.97368042516509
 20
212.9864125751213
 30
0.0
 10
-61.72521245909339
 20
211.8128799756437
 30
0.0
 10
-69.38310953489733
 20
210.4827878672532
 30
0.0
 10
-76.93577249466118
 20
208.9980433096258
 30
0.0
 10
-84.37176285845221
 20
207.3607690652162
 30
0.0
 10
-91.6798192035274
 20
205.5732987296152
 30
0.0
 10
-98.84887282688535
 20
203.6381714308873
 30
0.0
 10
-105.8680625651468
 20
201.5581261599433
 30
0.0
 10
-112.7267486418537
 20
199.3360958245969
 30
0.0
 10
-119.4145253607828
 20
196.9752011457423
 30
0.0
 10
-125.9212325952525
 20
194.4787446065806
 30
0.0
 10
-132.2369654891345
 20
191.8502045709301
 30
0.0
 10
-138.3520837732961
 20
189.0932303665716
 30
0.0
 10
-144.2572147401554
 20
186.2116370046313
 30
0.0
 10
-149.9432715765046
 20
183.2094066477388
 30
0.0
 10
-155.4014058520992
 20
180.0906730202149
 30
0.0
 10
-160.6231977609537
 20
176.8597810426951
 30
0.0
 10
-165.599952174146
 20
173.5210812220276
 30
0.0
 10
-170.3252874693607
 20
170.0797644831001
 30
0.0
 10
-174.7853425012629
 20
166.5389195323672
 30
0.0
 10
-178.7135349052682
 20
163.153536800928
 30
0.0
 10
-181.054256803901
 20
160.9190870450433
 30
0.0
 10
-182.0937188236379
 20
159.9268180969
 30
0.0
  0
SPLINE
  5
1BB
330
1B4
100
AcDbEntity
  8
0
  6
Continuous
 62
     7
370
    25
100
AcDbSpline
210
0.0
220
0.0
230
1.0
 70
     8
 71
     3
 72
    16
 73
    12
 74
     0
 42
0.000000001
 43
0.00000001
 40
0.0
 40
0.0
 40
0.0
 40
0.0
 40
0.0696391092272537
 40
0.2015880447303247
 40
0.3334527030367309
 40
0.4651614137251647
 40
0.5966713250280832
 40
0.7279394185192786
 40
0.8589265838306174
 40
0.9896027289274775
 40
1.0
 40
1.0
 40
1.0
 40
1.0
 10
-182.0937188236379
 20
159.9268180969
 30
0.0
 10
-182.7602862833566
 20
159.2662504473995
 30
0.0
 10
-184.6898346704136
 20
157.354070031071
 30
0.0
 10
-187.6669151816387
 20
154.1276801609531
 30
0.0
 10
-190.9249819754653
 20
150.2280126365705
 30
0.0
 10
-193.8842204100688
 20
146.2597615503112
 30
0.0
 10
-196.5407775746441
 20
142.2312139184416
 30
0.0
 10
-198.9003181111202
 20
138.1505644405887
 30
0.0
 10
-200.9164029816415
 20
134.0201083900206
 30
0.0
 10
-202.1858067504761
 20
131.1377500943705
 30
0.0
 10
-202.6923095234359
 20
129.6240559573404
 30
0.0
 10
-202.7296393533389
 20
129.5124949794401
 30
0.0
  0
SPLINE
  5
1BC
330
1B4
100
AcDbEntity
  8
0
  6
Continuous
 62
     7
370
    25
100
AcDbSpline
210
0.0
220
0.0
230
1.0
 70
     8
 71
     3
 72
    74
 73
    70
 74
     0
 42
0.000000001
 43
0.00000001
 40
0.0
 40
0.0
 40
0.0
 40
0.0
 40
0.0010877331193388
 40
0.016556829706645
 40
0.0319902465452154
 40
0.0473939895123099
 40
0.0627741000716289
 40
0.0781361939356587
 40
0.0934852120515058
 40
0.1088253249628169
 40
0.1241599364942015
 40
0.1394917445266669
 40
0.1548227989741301
 40
0.1701542197647213
 40
0.1854872712828589
 40
0.2008228467318819
 40
0.2161615447264988
 40
0.2315037340822597
 40
0.2468496071109747
 40
0.2621992225977723
 40
0.2775525399014782
 40
0.2929094456393652
 40
0.308269774307691
 40
0.3236333240222932
 40
0.3389998683813974
 40
0.3543691652778461
 40
0.3697409633315387
 40
0.3851150064784835
 40
0.4004910371410703
 40
0.4158687983128312
 40
0.4312480348176022
 40
0.4466284939449369
 40
0.4620099256180626
 40
0.4773920822154238
 40
0.4927747181400793
 40
0.5081575892111694
 40
0.5235404396260702
 40
0.5389229569877984
 40
0.5543048964607941
 40
0.5696860112492582
 40
0.5850660518881747
 40
0.6004447656777749
 40
0.6158218963173402
 40
0.631197183819712
 40
0.6465703648105536
 40
0.6619411733463696
 40
0.6773093424244906
 40
0.6926746064086308
 40
0.7080367046576821
 40
0.7233953867259121
 40
0.7387504196023742
 40
0.7541015975786854
 40
0.7694487554784467
 40
0.7847917861472467
 40
0.800130663283276
 40
0.815465470869872
 40
0.8307964406240553
 40
0.8461239989468925
 40
0.8614488247652413
 40
0.87677191925204
 40
0.8920945435153189
 40
0.9074180538602002
 40
0.9227447387029497
 40
0.9380775439795285
 40
0.9534201559454413
 40
0.9687770482688793
 40
0.9841534605643328
 40
0.9995552637292838
 40
1.0
 40
1.0
 40
1.0
 40
1.0
 10
192.3377006317436
 20
80.25371735841239
 30
0.0
 10
192.288555610084
 20
80.16333790725471
 30
0.0
 10
191.5404991796221
 20
78.7876353978861
 30
0.0
 10
189.8112131264032
 20
76.1614174545657
 30
0.0
 10
187.13238881346
 20
72.3882558314952
 30
0.0
 10
184.1295562491594
 20
68.67446322274098
 30
0.0
 10
180.8492148064744
 20
65.02052132588472
 30
0.0
 10
177.2846414412865
 20
61.43284017828222
 30
0.0
 10
173.443788969431
 20
57.91636261654691
 30
0.0
 10
169.3312133981223
 20
54.47652638263761
 30
0.0
 10
164.9529594790608
 20
51.11870179636336
 30
0.0
 10
160.3152861627163
 20
47.84829571029074
 30
0.0
 10
155.4250634163947
 20
44.67070071386334
 30
0.0
 10
150.2896224665566
 20
41.59122358330153
 30
0.0
 10
144.9167617455452
 20
38.61504947628855
 30
0.0
 10
139.314667543038
 20
35.74719266372684
 30
0.0
 10
133.4919595737611
 20
32.99251264785967
 30
0.0
 10
127.4576680234314
 20
30.35569320838234
 30
0.0
 10
121.2212101762206
 20
27.84122519600253
 30
0.0
 10
114.7923666053864
 20
25.45339257426823
 30
0.0
 10
108.1812575694003
 20
23.19626110451631
 30
0.0
 10
101.3983197950518
 20
21.07366916216228
 30
0.0
 10
94.45428376447221
 20
19.08922024442602
 30
0.0
 10
87.36015151992493
 20
17.24627681298972
 30
0.0
 10
80.12717495589017
 20
15.54795518886711
 30
0.0
 10
72.76683454113983
 20
13.99712128092961
 30
0.0
 10
65.29081840395772
 20
12.59638698238093
 30
0.0
 10
57.71100171329152
 20
11.3481071118518
 30
0.0
 10
50.03942629396031
 20
10.25437680891848
 30
0.0
 10
42.28828042219391
 20
9.317029319215326
 30
0.0
 10
34.46987875701428
 20
8.537634123349056
 30
0.0
 10
26.59664237221697
 20
7.917495377819258
 30
0.0
 10
18.68107886226414
 20
7.45765064620732
 30
0.0
 10
10.73576250301882
 20
7.158869905906889
 30
0.0
 10
2.773314454457429
 20
7.021654820401221
 30
0.0
 10
-5.193614876374195
 20
7.046238263466425
 30
0.0
 10
-13.15235583830528
 20
7.232583637868398
 30
0.0
 10
-21.09025122393511
 20
7.580384100954449
 30
0.0
 10
-28.99467830209535
 20
8.08906304885114
 30
0.0
 10
-36.85307809769421
 20
8.757775991362001
 30
0.0
 10
-44.6529631717286
 20
9.585411032664137
 30
0.0
 10
-52.38193723596564
 20
10.57058986586418
 30
0.0
 10
-60.02771476176793
 20
11.71166900273314
 30
0.0
 10
-67.57814059319382
 20
13.00674123926421
 30
0.0
 10
-75.02120958477771
 20
14.45363736129343
 30
0.0
 10
-82.34508629236872
 20
16.04992810003733
 30
0.0
 10
-89.53812475549181
 20
17.79292635586088
 30
0.0
 10
-96.58888842102408
 20
19.6796897208773
 30
0.0
 10
-103.4861702703894
 20
21.70702334837418
 30
0.0
 10
-110.2190132252929
 20
23.87148324111699
 30
0.0
 10
-116.7767309189083
 20
26.16938006327006
 30
0.0
 10
-123.148928929008
 20
28.59678362420988
 30
0.0
 10
-129.3255265713256
 20
31.14952823968514
 30
0.0
 10
-135.2967793493488
 20
33.82321924833012
 30
0.0
 10
-141.0533021111376
 20
36.61324105501348
 30
0.0
 10
-146.5860929858592
 20
39.51476717533026
 30
0.0
 10
-151.8865577959581
 20
42.52277291265426
 30
0.0
 10
-156.9465355355959
 20
45.63205132905382
 30
0.0
 10
-161.7583213499046
 20
48.83723370908256
 30
0.0
 10
-166.3146834509018
 20
52.13280397985267
 30
0.0
 10
-170.6088252819287
 20
55.51310223705671
 30
0.0
 10
-174.6345505161645
 20
58.97237371836643
 30
0.0
 10
-178.385917327871
 20
62.5048620085986
 30
0.0
 10
-181.8586595532394
 20
66.10474926601869
 30
0.0
 10
-185.044946609008
 20
69.76672648812199
 30
0.0
 10
-187.9527723367062
 20
73.4840496451805
 30
0.0
 10
-190.533332390388
 20
77.25610082266095
 30
0.0
 10
-192.1677510903744
 20
79.82646586376548
 30
0.0
 10
-192.8562379811555
 20
81.14595602703564
 30
0.0
 10
-192.8755605022325
 20
81.18298778004655
 30
0.0
  0
LWPOLYLINE
  5
1BF
330
1B4
100
AcDbEntity
  8
0
  6
Continuous
 62
     7
370
    25
100
AcDbPolyline
 90
       62
 70
   128
 43
0.0
 10
-182.2083207111
 20
-27.7362605917
 10
-182.1157732393
 20
-27.8970274025
 10
-179.6168565736
 20
-31.9065353076
 10
-176.7853308381
 20
-35.8569596543
 10
-173.6264393667
 20
-39.7409851662
 10
-170.1460316991
 20
-43.5514195221
 10
-166.3505527492
 20
-47.2812066748
 10
-162.2470308703
 20
-50.9234399171
 10
-157.8430648401
 20
-54.4713746714
 10
-153.1468097901
 20
-57.9184409794
 10
-148.1669621034
 20
-61.2582556678
 10
-142.9127433116
 20
-64.4846341687
 10
-137.3938830183
 20
-67.5916019717
 10
-131.6206008824
 20
-70.5734056877
 10
-125.6035876933
 20
-73.4245237027
 10
-119.3539855743
 20
-76.1396764025
 10
-112.8833673498
 20
-78.7138359492
 10
-106.2037151152
 20
-81.1422355921
 10
-99.3273980488
 20
-83.4203784939
 10
-92.2671495069
 20
-85.5440460585
 10
-85.0360434443
 20
-87.5093057425
 10
-77.647470205
 20
-89.3125183372
 10
-70.1151117256
 20
-90.9503447081
 10
-62.4529162002
 20
-92.4197519778
 10
-54.6750722509
 20
-93.7180191423
 10
-46.7959826542
 20
-94.8427421096
 10
-38.8302376703
 20
-95.7918381518
 10
-30.7925880251
 20
-96.5635497614
 10
-22.6979175955
 20
-97.1564479062
 10
-14.5612158476
 20
-97.5694346753
 10
-6.3975500801
 20
-97.8017453123
 10
1.7779624774
 20
-97.8529496315
 10
9.9501826577
 20
-97.722952814
 10
18.1039773904
 20
-97.4119955843
 10
26.2242477245
 20
-96.9206537634
 10
34.2959567887
 20
-96.2498372032
 10
42.3041576361
 20
-95.4007881018
 10
50.2340209221
 20
-94.3750787024
 10
58.0708623655
 20
-93.1746083829
 10
65.80016994
 20
-91.8016001378
 10
73.4076307472
 20
-90.2585964624
 10
80.879157521
 20
-88.5484546443
 10
88.2009147139
 20
-86.6743414725
 10
95.3593441169
 20
-84.639727373
 10
102.3411899668
 20
-82.448379983
 10
109.1335234923
 20
-80.1043571731
 10
115.7237668552
 20
-77.6119995342
 10
122.0997164421
 20
-74.9759223387
 10
128.2495654621
 20
-72.2010069949
 10
134.1619258104
 20
-69.2923920071
 10
139.8258491568
 20
-66.2554634608
 10
145.2308472191
 20
-63.0958450484
 10
150.3669111851
 20
-59.8193876559
 10
155.2245302468
 20
-56.4321585282
 10
159.7947092118
 20
-52.9404300338
 10
164.0689851608
 20
-49.3506680501
 10
168.0394431187
 20
-45.6695199899
 10
171.6987307114
 20
-41.9038024921
 10
175.0400717806
 20
-38.0604887984
 10
178.0572789319
 20
-34.1466958413
 10
180.7447649922
 20
-30.1696710641
 10
182.2039606521
 20
-27.7438573212
  0
LWPOLYLINE
  5
1C3
330
1B4
100
AcDbEntity
  8
0
  6
Continuous
 62
     7
370
    25
100
AcDbPolyline
 90
       28
 70
   128
 43
0.0
 10
34.9174776589
 20
8.6045269568
 10
34.9097206865
 20
8.9521452435
 10
34.6558744862
 20
10.7691829343
 10
34.0464121168
 20
12.5636711995
 10
33.0875874869
 20
14.3171961612
 10
31.7892394348
 20
16.0117642804
 10
30.1646907683
 20
17.6299869951
 10
28.2306115552
 20
19.1552591504
 10
26.0068480654
 20
20.57192939
 10
23.5162191216
 20
21.8654607601
 10
20.7842819471
 20
23.0225798786
 10
17.8390699141
 20
24.0314131374
 10
14.7108048838
 20
24.881608542
 10
11.4315870884
 20
25.5644419372
 10
8.0350657401
 20
26.0729065283
 10
4.5560937441
 20
26.4017847804
 10
1.0303700609
 20
26.5477019578
 10
-2.5059266134
 20
26.5091607528
 10
-6.0165090896
 20
26.2865566501
 10
-9.4653540409
 20
25.8821738692
 10
-12.8170716511
 20
25.3001619246
 10
-16.0372687619
 20
24.5464930464
 10
-19.0929017933
 20
23.6289008973
 10
-21.9526158154
 20
22.5568012143
 10
-24.5870662927
 20
21.341195191
 10
-26.9692201982
 20
19.9945565902
 10
-29.0746334092
 20
18.5307037461
 10
-30.8817015372
 20
16.96465777
  0
LWPOLYLINE
  5
1C4
330
1B4
100
AcDbEntity
  8
0
  6
Continuous
 62
     7
370
    25
100
AcDbPolyline
 90
       16
 70
   128
 43
0.0
 10
17.7972554102
 20
7.5036239843
 10
16.4945401715
 20
8.255566245
 10
14.3555042985
 20
9.2552140909
 10
11.9900735471
 20
10.1089016818
 10
9.4355521734
 20
10.8031658544
 10
6.7322265054
 20
11.327057648
 10
3.9227296038
 20
11.672314976
 10
1.051368913
 20
11.8334929241
 10
-1.8365724936
 20
11.8080496199
 10
-4.6955500549
 20
11.5963863193
 10
-7.4804759868
 20
11.2018410792
 10
-10.1474303438
 20
10.6306361135
 10
-12.6543536625
 20
9.891779666
 10
-14.9617102646
 20
8.996923944
 10
-17.0331117581
 20
7.9601813569
 10
-17.7845778775
 20
7.5115930997
  0
LWPOLYLINE
  5
1C5
330
1B4
100
AcDbEntity
  8
0
  6
Continuous
 62
    60
370
    25
100
AcDbPolyline
 90
       80
 70
   128
 43
0.0
 10
-206.2351134805
 20
114.4134839573
 10
-206.3728960999
 20
112.6101970093
 10
-206.459756274
 20
108.2149680083
 10
-206.1938834178
 20
103.8216448685
 10
-205.5757317706
 20
99.4377335088
 10
-204.6063574341
 20
95.0707237681
 10
-203.2874165681
 20
90.7280766095
 10
-201.621162561
 20
86.4172113727
 10
-199.6104421798
 20
82.1454930987
 10
-197.2586907065
 20
77.9202199464
 10
-194.569926069
 20
73.7486107242
 10
-191.5487419767
 20
69.6377925564
 10
-188.2003000719
 20
65.594788707
 10
-184.5303211114
 20
61.6265065802
 10
-180.5450751927
 20
57.7397259194
 10
-176.2513710416
 20
53.9410872242
 10
-171.6565443796
 20
50.2370804051
 10
-166.768445391
 20
46.6340336957
 10
-161.595425311
 20
43.1381028407
 10
-156.1463221575
 20
39.7552605793
 10
-150.4304456319
 20
36.491286441
 10
-144.4575612133
 20
33.3517568706
 10
-138.2378734746
 20
30.3420357019
 10
-131.782008648
 20
27.467264993
 10
-125.1009964702
 20
24.7323562413
 10
-118.2062513384
 20
22.1419819926
 10
-111.1095528091
 20
19.7005678579
 10
-103.8230254726
 20
17.4122849522
 10
-96.3591182387
 20
15.2810427686
 10
-88.7305830677
 20
13.3104824985
 10
-80.950453184
 20
11.5039708111
 10
-73.0320208088
 20
9.8645941013
 10
-64.9888144512
 20
8.3951532168
 10
-56.8345757943
 20
7.0981586726
 10
-48.583236218
 20
5.9758263621
 10
-40.2488929976
 20
5.0300737713
 10
-31.8457852187
 20
4.2625167026
 10
-23.3882694499
 20
3.6744665144
 10
-14.8907952151
 20
3.2669278806
 10
-6.3678803065
 20
3.0405970741
 10
2.1659140188
 20
2.9958607772
 10
10.6960079164
 20
3.1327954212
 10
19.2078278638
 20
3.4511670556
 10
27.6868315596
 20
3.9504317477
 10
36.1185327681
 20
4.6297365123
 10
44.4885260692
 20
5.4879207684
 10
52.7825114698
 20
6.5235183227
 10
60.9863188349
 20
7.7347598742
 10
69.0859320974
 20
9.119576037
 10
77.0675132037
 20
10.6756008758
 10
84.9174257565
 20
12.4001759484
 10
92.6222583119
 20
14.2903548472
 10
100.1688472926
 20
16.3429082332
 10
107.5442994781
 20
18.5543293535
 10
114.7360140318
 20
20.920840032
 10
121.7317040303
 20
23.438397125
 10
128.5194174544
 20
26.1026994285
 10
135.0875576097
 20
28.9091950267
 10
141.4249029389
 20
31.8530890689
 10
147.5206261937
 20
34.9293519615
 10
153.3643129332
 20
38.1327279609
 10
158.9459793168
 20
41.4577441531
 10
164.2560891609
 20
44.8987198036
 10
169.285570232
 20
48.4497760633
 10
174.0258297461
 20
52.104846012
 10
178.4687690493
 20
55.8576850242
 10
182.6067974543
 20
59.7018814372
 10
186.432845209
 20
63.6308675061
 10
189.940375575
 20
67.637930624
 10
193.1233959955
 20
71.7162247908
 10
195.9764683335
 20
75.8587823093
 10
198.4947181628
 20
80.0585256895
 10
200.6738430958
 20
84.3082797403
 10
202.5101201341
 20
88.6007838282
 10
204.0004120292
 20
92.9287042819
 10
205.1421726423
 20
97.284646922
 10
205.9334512946
 20
101.6611696935
 10
206.3728960999
 20
106.0507953806
 10
206.459756274
 20
110.4460243816
 10
206.2291998806
 20
114.4767359412
  0
LWPOLYLINE
  5
1C6
330
1B4
100
AcDbEntity
  8
0
  6
Continuous
 62
    60
370
    25
100
AcDbPolyline
 90
       16
 70
   128
 43
0.0
 10
-177.4913839753
 20
157.9408533229
 10
-181.2577585698
 20
154.0704847118
 10
-184.7061454639
 20
150.1222795763
 10
-187.8304950154
 20
146.1031644098
 10
-190.6253260533
 20
142.0201901059
 10
-193.0857354945
 20
137.880519589
 10
-195.2074069446
 20
133.691415248
 10
-196.986618271
 20
129.4602261951
 10
-198.4202481324
 20
125.1943753739
 10
-199.505781455
 20
120.9013465362
 10
-200.2413138444
 20
116.5886711134
 10
-200.6255549268
 20
112.2639150036
 10
-200.6578306129
 20
107.9346652985
 10
-200.3380842801
 20
103.6085169734
 10
-199.6668768721
 20
99.2930595623
 10
-198.9752834634
 20
96.2307016047
  0
LWPOLYLINE
  5
1C7
330
1B4
100
AcDbEntity
  8
0
  6
Continuous
 62
    60
370
    25
100
AcDbPolyline
 90
       68
 70
   128
 43
0.0
 10
198.9862767079
 20
96.2738421957
 10
199.505781455
 20
98.5036501413
 10
200.2413138444
 20
102.8163255641
 10
200.6255549268
 20
107.1410816739
 10
200.6578306129
 20
111.470331379
 10
200.3380842801
 20
115.7964797041
 10
199.6668768721
 20
120.1119371152
 10
198.6453859148
 20
124.4091328335
 10
197.2754034505
 20
128.6805281176
 10
195.5593328939
 20
132.9186294887
 10
193.5001848159
 20
137.1160018768
 10
191.1015716619
 20
141.2652816646
 10
188.3677014145
 20
145.3591896053
 10
185.303370211
 20
149.3905435933
 10
181.9139539297
 20
153.3522712638
 10
178.2053987584
 20
157.2374224003
 10
174.184210763
 20
161.0391811276
 10
169.8574444738
 20
164.7508778689
 10
165.2326905091
 20
168.366001047
 10
160.3180622587
 20
171.8782085073
 10
155.1221816507
 20
175.2813386445
 10
149.6541640252
 20
178.569421212
 10
143.9236021432
 20
181.7366877956
 10
137.9405493575
 20
184.7775819336
 10
131.7155019757
 20
187.6867688642
 10
125.2593808461
 20
190.4591448851
 10
118.5835121992
 20
193.0898463067
 10
111.6996077769
 20
195.5742579847
 10
104.6197442868
 20
197.9080214169
 10
97.3563422151
 20
200.0870423891
 10
89.9221440374
 20
202.1074981582
 10
82.3301918632
 20
203.9658441582
 10
74.5938045565
 20
205.6588202188
 10
66.7265543695
 20
207.1834562846
 10
58.7422431323
 20
208.5370776259
 10
50.6548780398
 20
209.7173095309
 10
42.4786470787
 20
210.7220814718
 10
34.2278941362
 20
211.5496307372
 10
25.9170938367
 20
212.1985055245
 10
17.560826148
 20
212.6675674868
 10
9.1737508029
 20
212.9559937301
 10
0.7705815817
 20
213.0632782567
 10
-7.6339395015
 20
212.9892328531
 10
-16.0250680607
 20
212.7339874201
 10
-24.3880832052
 20
212.2979897448
 10
-32.7083133647
 20
211.6820047155
 10
-40.9711620281
 20
210.8871129791
 10
-49.1621333512
 20
209.9147090459
 10
-57.2668575871
 20
208.7664988428
 10
-65.2711162953
 20
207.4444967206
 10
-73.1608672863
 20
205.9510219203
 10
-80.9222692558
 20
204.2886945041
 10
-88.5417060675
 20
202.4604307593
 10
-96.00581064
 20
200.4694380817
 10
-103.3014883977
 20
198.3192093489
 10
-110.4159402427
 20
196.0135167929
 10
-117.3366850089
 20
193.5564053818
 10
-124.0515813583
 20
190.952185724
 10
-130.548849081
 20
188.2054265057
 10
-136.8170897616
 20
185.3209464759
 10
-142.8453067761
 20
182.3038059928
 10
-148.6229245832
 20
179.159298146
 10
-154.1398072783
 20
175.8929394707
 10
-159.3862763743
 20
172.51046027
 10
-164.3531277817
 20
169.0177945618
 10
-169.0316479555
 20
165.4210696685
 10
-173.4136291813
 20
161.7265954679
 10
-177.4913839753
 20
157.9408533229
  0
ARC
  5
1C8
330
1B4
100
AcDbEntity
  8
0
  6
Continuous
 62
     7
370
    25
100
AcDbCircle
 10
-148.4091277527
 20
108.9008516355
 30
0.0
 40
58.08815490700735
100
AcDbArc
 50
159.5165845144
 51
174.554369957
  0
ARC
  5
1C9
330
1B4
100
AcDbEntity
  8
0
  6
Continuous
 62
     7
370
    25
100
AcDbCircle
 10
148.2144707434
 20
108.8555574497
 30
0.0
 40
58.28641732423088
100
AcDbArc
 50
5.534242286
 51
20.4778987749
  0
ARC
  5
1CA
330
1B4
100
AcDbEntity
  8
0
  6
Continuous
 62
     7
370
    25
100
AcDbCircle
 10
-137.7942924695
 20
112.1891123962
 30
0.0
 40
63.22803598076843
100
AcDbArc
 50
194.6192538405
 51
209.5953182865
  0
ARC
  5
1CB
330
1B4
100
AcDbEntity
  8
0
  6
Continuous
 62
     7
370
    25
100
AcDbCircle
 10
137.6810720385
 20
112.2115905074
 30
0.0
 40
63.34303387750767
100
AcDbArc
 50
329.4413767836
 51
345.4271887753
  0
ARC
  5
1CC
330
1B4
100
AcDbEntity
  8
0
  6
Continuous
 62
     7
370
    25
100
AcDbCircle
 10
-23.1579971391
 20
8.0818957214
 30
0.0
 40
11.77111172499869
100
AcDbArc
 50
131.0074835713
 51
177.4524957186
  0
VIEWPORT
  5
1F0
330
1B4
100
AcDbEntity
  8
0
100
AcDbViewport
 10
0.0
 20
0.0
 30
0.0
 40
205.6
 41
156.0
 68
     1
 69
     1
 12
0.0
 22
0.0
 13
0.0
 23
0.0
 14
10.0
 24
10.0
 15
10.0
 25
10.0
 16
0.0
 26
0.0
 36
1.0
 17
0.0
 27
0.0
 37
0.0
 42
50.0
 43
0.0
 44
0.0
 45
428.4
 50
0.0
 51
0.0
 72
   100
 90
   557152
  1

281
     0
 71
     1
 74
     0
110
0.0
120
0.0
130
0.0
111
1.0
121
0.0
131
0.0
112
0.0
122
1.0
132
0.0
 79
     0
146
0.0
  0
ENDBLK
  5
1B7
330
1B4
100
AcDbEntity
  8
0
100
AcDbBlockEnd
  0
BLOCK
  5
1CF
330
1CD
100
AcDbEntity
  8
0
100
AcDbBlockBegin
  2
*Paper_Space7
 70
     0
 10
0.0
 20
0.0
 30
0.0
  3
*Paper_Space7
  1

  0
SPLINE
  5
1D1
330
1CD
100
AcDbEntity
  8
0
  6
Continuous
 62
     7
370
    25
100
AcDbSpline
210
0.0
220
0.0
230
1.0
 70
     8
 71
     3
 72
    25
 73
    21
 74
     0
 42
0.000000001
 43
0.00000001
 40
0.0
 40
0.0
 40
0.0
 40
0.0
 40
0.0518809189101595
 40
0.1122143172217792
 40
0.1723478045766944
 40
0.2322880749983888
 40
0.292041150502186
 40
0.3516124311378688
 40
0.4110067410631673
 40
0.4702283704528563
 40
0.5292811132760836
 40
0.5881683011082524
 40
0.6468928332185445
 40
0.7054572032121617
 40
0.7638635225211177
 40
0.822113533698336
 40
0.8802086355031669
 40
0.9381499067184195
 40
0.9959381120698524
 40
1.0
 40
1.0
 40
1.0
 40
1.0
 10
187.3030414849542
 20
-10.58739583525263
 30
0.0
 10
188.3792320409145
 20
-8.43303658070163
 30
0.0
 10
190.7069469498721
 20
-3.773328196999097
 30
0.0
 10
193.9116534759744
 20
3.559501824474454
 30
0.0
 10
196.9866426468084
 20
11.34922367503804
 30
0.0
 10
199.7311979084228
 20
19.23382325100503
 30
0.0
 10
202.154400451398
 20
27.19539817310724
 30
0.0
 10
204.252857378487
 20
35.22257200543165
 30
0.0
 10
206.0270405254684
 20
43.30228106495807
 30
0.0
 10
207.476932887759
 20
51.42198117918334
 30
0.0
 10
208.6032002532448
 20
59.56907822239478
 30
0.0
 10
209.406857355957
 20
67.7310935588114
 30
0.0
 10
209.8894470112157
 20
75.89565761984348
 30
0.0
 10
210.0526618402542
 20
84.0504621551776
 30
0.0
 10
209.8996714588421
 20
92.18354919119672
 30
0.0
 10
209.4302022089286
 20
100.2823000421651
 30
0.0
 10
208.6588089340462
 20
108.3372715816445
 30
0.0
 10
207.5469402809858
 20
116.3280128072049
 30
0.0
 10
206.6545470359457
 20
121.8197999031293
 30
0.0
 10
206.0478375487977
 20
124.6255918908314
 30
0.0
 10
206.0079930503952
 20
124.8098569744339
 30
0.0
  0
SPLINE
  5
1D2
330
1CD
100
AcDbEntity
  8
0
  6
Continuous
 62
     7
370
    25
100
AcDbSpline
210
0.0
220
0.0
230
1.0
 70
     8
 71
     3
 72
    25
 73
    21
 74
     0
 42
0.000000001
 43
0.00000001
 40
0.0
 40
0.0
 40
0.0
 40
0.0
 40
0.0556340015000984
 40
0.1146914053507505
 40
0.1735831517571002
 40
0.2323121540734506
 40
0.2908809191509822
 40
0.3492915709296465
 40
0.4075458643324751
 40
0.4656452089018365
 40
0.5235906942293024
 40
0.5813830954179027
 40
0.6390228852533802
 40
0.6965102449573399
 40
0.7538450738407692
 40
0.8110269982054013
 40
0.8680553798869944
 40
0.9249293249021241
 40
0.9816476927521982
 40
1.0
 40
1.0
 40
1.0
 40
1.0
 10
-206.0093651466144
 20
124.8071551335535
 30
0.0
 10
-206.4872355686438
 20
122.2692912871822
 30
0.0
 10
-207.4723818604846
 20
117.0373977817569
 30
0.0
 10
-208.566072671384
 20
109.0521959954266
 30
0.0
 10
-209.3861643650643
 20
100.8915693349494
 30
0.0
 10
-209.8780389189387
 20
92.72660727742357
 30
0.0
 10
-210.0525212070145
 20
84.57132507451672
 30
0.0
 10
-209.9095630786737
 20
76.43739044085861
 30
0.0
 10
-209.4525649699334
 20
68.33691366292516
 30
0.0
 10
-208.6845493401675
 20
60.28168290184909
 30
0.0
 10
-207.6091802884033
 20
52.28334561096678
 30
0.0
 10
-206.2304715071272
 20
44.35334655487143
 30
0.0
 10
-204.5529071701534
 20
36.5028985771444
 30
0.0
 10
-202.5812139251903
 20
28.74306619507448
 30
0.0
 10
-200.3211080766955
 20
21.08436648233615
 30
0.0
 10
-197.7764984683531
 20
13.53818135917864
 30
0.0
 10
-194.9598372274898
 20
6.111432797421052
 30
0.0
 10
-191.8536015821573
 20
-1.173698328818348
 30
0.0
 10
-189.2944890752715
 20
-6.740948471102487
 30
0.0
 10
-187.6841582323867
 20
-9.830952428619282
 30
0.0
 10
-187.2904853852901
 20
-10.58635661209487
 30
0.0
  0
SPLINE
  5
1D3
330
1CD
100
AcDbEntity
  8
0
  6
Continuous
 62
     7
370
    25
100
AcDbSpline
210
0.0
220
0.0
230
1.0
 70
     8
 71
     3
 72
    76
 73
    72
 74
     0
 42
0.000000001
 43
0.00000001
 40
0.0
 40
0.0
 40
0.0
 40
0.0
 40
0.0008643141189745
 40
0.015017394027435
 40
0.0293111752736438
 40
0.0437568549188569
 40
0.0583448420880514
 40
0.0730510697289644
 40
0.0878450919908724
 40
0.1026970684139407
 40
0.1175819916844243
 40
0.1324811536813007
 40
0.1473800708205298
 40
0.1622706190059311
 40
0.1771491317535249
 40
0.1920139634594493
 40
0.2068647368269616
 40
0.2217018274223489
 40
0.2365260259725969
 40
0.2513383247971149
 40
0.2661397872387521
 40
0.2809314709673372
 40
0.295714385457449
 40
0.3104894706947867
 40
0.3252575887672254
 40
0.3400195230424267
 40
0.3547759816127272
 40
0.3695276029583666
 40
0.3842749625877944
 40
0.399018579923528
 40
0.4137589250206871
 40
0.42849642490269
 40
0.4432314694189692
 40
0.4579644166015918
 40
0.4726955975393574
 40
0.4874253208110878
 40
0.5021538765315262
 40
0.5168815400683416
 40
0.5316085754900131
 40
0.5463352388038433
 40
0.5610617810419348
 40
0.5757884142859772
 40
0.5905153421784985
 40
0.6052428172265402
 40
0.6199710978883478
 40
0.6347004516832914
 40
0.6494311584721114
 40
0.6641635139605898
 40
0.6788978334873228
 40
0.6936344561574818
 40
0.7083737493837667
 40
0.7231161138917325
 40
0.7378619892363147
 40
0.7526118598553025
 40
0.7673662616468047
 40
0.7821257889902171
 40
0.7968911020167653
 40
0.8116629337489948
 40
0.826442096426523
 40
0.8412294858517403
 40
0.8560260818219854
 40
0.8708329415077167
 40
0.8856511807534797
 40
0.9004819353749394
 40
0.9153262901194565
 40
0.9301851564395134
 40
0.9450590709805832
 40
0.9599478745119807
 40
0.9748502172978454
 40
0.9897628271504423
 40
1.0
 40
1.0
 40
1.0
 40
1.0
 10
205.1007166414757
 20
128.2163089081914
 30
0.0
 10
205.0844171749491
 20
128.2740046361768
 30
0.0
 10
204.8012151470139
 20
129.2764636517554
 30
0.0
 10
203.9603618970607
 20
131.2001405598004
 30
0.0
 10
202.5552114645338
 20
133.9848136460397
 30
0.0
 10
200.7987989838205
 20
136.7445429148673
 30
0.0
 10
198.7353548026816
 20
139.4794002845996
 30
0.0
 10
196.3547982387837
 20
142.181910591843
 30
0.0
 10
193.664737686371
 20
144.8458242990659
 30
0.0
 10
190.6704146543091
 20
147.4647673123453
 30
0.0
 10
187.3792811264375
 20
150.0332927300875
 30
0.0
 10
183.799071567583
 20
152.5467480237187
 30
0.0
 10
179.9377208510285
 20
155.0013036343495
 30
0.0
 10
175.8030075187865
 20
157.3937875019234
 30
0.0
 10
171.4023885062846
 20
159.7215431888554
 30
0.0
 10
166.7431889976765
 20
161.9821591047568
 30
0.0
 10
161.8328169023417
 20
164.1733003637832
 30
0.0
 10
156.678841499842
 20
166.2926592867523
 30
0.0
 10
151.2890544235233
 20
168.3379343554735
 30
0.0
 10
145.6715122462079
 20
170.3068267706018
 30
0.0
 10
139.8345636054024
 20
172.1970470654058
 30
0.0
 10
133.7868640717976
 20
174.0063268511763
 30
0.0
 10
127.5373817484763
 20
175.732432690246
 30
0.0
 10
121.0953960097453
 20
177.3731803572572
 30
0.0
 10
114.4704912298401
 20
178.9264485463139
 30
0.0
 10
107.6725468717654
 20
180.390191561746
 30
0.0
 10
100.7117249326644
 20
181.7624508087116
 30
0.0
 10
93.59845546199789
 20
183.0413650539411
 30
0.0
 10
86.34342066466351
 20
184.2251795065007
 30
0.0
 10
78.95753795478976
 20
185.31225380466
 30
0.0
 10
71.45194222200145
 20
186.3010690067275
 30
0.0
 10
63.83796749872111
 20
187.1902336823814
 30
0.0
 10
56.12712816569444
 20
187.9784891932112
 30
0.0
 10
48.33109979704071
 20
188.664714240613
 30
0.0
 10
40.46169972113665
 20
189.247928747968
 30
0.0
 10
32.53086735629604
 20
189.7272971331759
 30
0.0
 10
24.55064436819436
 20
190.1021310176531
 30
0.0
 10
16.53315468778167
 20
190.3718914089405
 30
0.0
 10
8.490584422566373
 20
190.5361903861021
 30
0.0
 10
0.4351616910209383
 20
190.5947923100126
 30
0.0
 10
-7.620856854826775
 20
190.5476146136683
 30
0.0
 10
-15.66520460856295
 20
190.3947286225318
 30
0.0
 10
-23.68563369205042
 20
190.1363597540318
 30
0.0
 10
-31.66994192511797
 20
189.7728865062386
 30
0.0
 10
-39.60599446919242
 20
189.3048388277898
 30
0.0
 10
-47.48173558198985
 20
188.7328967953811
 30
0.0
 10
-55.28520864031228
 20
188.0578886492948
 30
0.0
 10
-63.00457604834669
 20
187.2807883200814
 30
0.0
 10
-70.62813900219366
 20
186.4027124124244
 30
0.0
 10
-78.14435707993923
 20
185.4249166024097
 30
0.0
 10
-85.54186762094668
 20
184.3487913928726
 30
0.0
 10
-92.80950485004422
 20
183.1758571577902
 30
0.0
 10
-99.93631869027271
 20
181.9077583904779
 30
0.0
 10
-106.9115931902716
 20
180.5462570513431
 30
0.0
 10
-113.7248644663755
 20
179.0932248890291
 30
0.0
 10
-120.3659380226591
 20
177.5506345844857
 30
0.0
 10
-126.8249052551035
 20
175.9205495412151
 30
0.0
 10
-133.0921588773459
 20
174.2051121223636
 30
0.0
 10
-139.1584068560527
 20
172.40653011085
 30
0.0
 10
-145.0146844195015
 20
170.5270611942727
 30
0.0
 10
-150.6523629641678
 20
168.5689952155724
 30
0.0
 10
-156.0631562714666
 20
166.5346343958751
 30
0.0
 10
-161.2391168838848
 20
164.4262706193125
 30
0.0
 10
-166.1726415207851
 20
162.2461643528932
 30
0.0
 10
-170.8564042184041
 20
159.9965117909197
 30
0.0
 10
-175.2835066889402
 20
157.6794585217318
 30
0.0
 10
-179.4467455848593
 20
155.296957734132
 30
0.0
 10
-183.3410876101972
 20
152.8512563859886
 30
0.0
 10
-186.9540417509657
 20
150.3431292388163
 30
0.0
 10
-189.9509837387927
 20
148.0469698837715
 30
0.0
 10
-191.6641111514866
 20
146.5722807635003
 30
0.0
 10
-192.3614365178629
 20
145.9720112660512
 30
0.0
  0
SPLINE
  5
1D4
330
1CD
100
AcDbEntity
  8
0
  6
Continuous
 62
     7
370
    25
100
AcDbSpline
210
0.0
220
0.0
230
1.0
 70
     8
 71
     3
 72
    14
 73
    10
 74
     0
 42
0.000000001
 43
0.00000001
 40
0.0
 40
0.0
 40
0.0
 40
0.0
 40
0.0824673755177559
 40
0.2400108127078663
 40
0.3972614311216692
 40
0.5538711146220326
 40
0.7095036995538663
 40
0.8638177088814164
 40
1.0
 40
1.0
 40
1.0
 40
1.0
 10
-192.3614365178629
 20
145.9720112660512
 30
0.0
 10
-192.8739613715988
 20
145.511313063303
 30
0.0
 10
-194.365599803231
 20
144.1705095108626
 30
0.0
 10
-196.6098633002072
 20
141.9083625420899
 30
0.0
 10
-198.9865041023155
 20
139.1712803004353
 30
0.0
 10
-201.0471286228845
 20
136.3899311276154
 30
0.0
 10
-202.7792804535453
 20
133.5718468207309
 30
0.0
 10
-204.1637074227326
 20
130.8320703092194
 30
0.0
 10
-204.8096815233497
 20
129.0130658084659
 30
0.0
 10
-205.112508901496
 20
128.1603313671418
 30
0.0
  0
SPLINE
  5
1D5
330
1CD
100
AcDbEntity
  8
0
  6
Continuous
 62
     7
370
    25
100
AcDbSpline
210
0.0
220
0.0
230
1.0
 70
     8
 71
     3
 72
    79
 73
    75
 74
     0
 42
0.000000001
 43
0.00000001
 40
0.0
 40
0.0
 40
0.0
 40
0.0
 40
0.0126245262775901
 40
0.0267992192808901
 40
0.0408473788129901
 40
0.0548132359472367
 40
0.068730890211924
 40
0.0826245941796603
 40
0.0965106250835021
 40
0.1103974266358432
 40
0.1242914149996102
 40
0.1381967791663179
 40
0.1521155723275511
 40
0.1660484819890503
 40
0.1799953559016353
 40
0.193955552538446
 40
0.2079281693851598
 40
0.2219121880408293
 40
0.2359065637111636
 40
0.2499102781391287
 40
0.2639223688892389
 40
0.2779419436209822
 40
0.2919681850530579
 40
0.3060003503384941
 40
0.3200377672467216
 40
0.3340798286725469
 40
0.3481259864168926
 40
0.3621757448100159
 40
0.3762286545067458
 40
0.3902843066295948
 40
0.4043423273391774
 40
0.4184023728519922
 40
0.4324641248902192
 40
0.4465272865278836
 40
0.4605915783869477
 40
0.4746567351317895
 40
0.4887225022088932
 40
0.5027886327785412
 40
0.5168548847861744
 40
0.530920957192997
 40
0.5449865893613816
 40
0.5590515349980733
 40
0.5731155402919307
 40
0.5871783408733324
 40
0.6012396585926179
 40
0.6152991980611855
 40
0.6293566429006376
 40
0.6434116516458206
 40
0.6574638532506355
 40
0.6715128421531681
 40
0.6855581728718356
 40
0.6995993541320669
 40
0.713635842570438
 40
0.7276670361416571
 40
0.741692267480155
 40
0.7557107976682512
 40
0.7697218111755294
 40
0.7837244132178642
 40
0.7977176315255955
 40
0.8117004256365667
 40
0.8256717085246054
 40
0.8396303878973298
 40
0.8535754382003166
 40
0.867506019694875
 40
0.8814216684366921
 40
0.895322590987017
 40
0.9092101101865538
 40
0.9230873219431768
 40
0.9369600332147561
 40
0.9508347879874097
 40
0.9647244497341309
 40
0.9786492936846369
 40
0.9926383076416632
 40
1.0
 40
1.0
 40
1.0
 40
1.0
 10
197.9212110886982
 20
109.6653716130208
 30
0.0
 10
197.536499079622
 20
108.9473301149643
 30
0.0
 10
196.7198362390106
 20
107.4230787382333
 30
0.0
 10
195.0924748199914
 20
105.0840216562016
 30
0.0
 10
193.1307521741217
 20
102.6652945868406
 30
0.0
 10
190.8670721279083
 20
100.2643590276015
 30
0.0
 10
188.3118874366494
 20
97.8835577464576
 30
0.0
 10
185.4636826400065
 20
95.52579328264885
 30
0.0
 10
182.3252686542764
 20
93.19513380665249
 30
0.0
 10
178.899603630587
 20
90.89613225048763
 30
0.0
 10
175.1908418616889
 20
88.63357730617982
 30
0.0
 10
171.2037547467497
 20
86.41220087532936
 30
0.0
 10
166.9438887216418
 20
84.23668572430083
 30
0.0
 10
162.4175311365985
 20
82.11162181532997
 30
0.0
 10
157.6316271019887
 20
80.0414473997658
 30
0.0
 10
152.5937005428
 20
78.03041596190278
 30
0.0
 10
147.3117898056472
 20
76.08258015821204
 30
0.0
 10
141.7943942583293
 20
74.20178605289071
 30
0.0
 10
136.0504306822916
 20
72.39167327865484
 30
0.0
 10
130.0891972756829
 20
70.65567827419336
 30
0.0
 10
123.9203434927703
 20
68.99703884386457
 30
0.0
 10
117.5538441800439
 20
67.41879900296527
 30
0.0
 10
110.9999767962259
 20
65.92381353807971
 30
0.0
 10
104.2693007788915
 20
64.5147520029969
 30
0.0
 10
97.3726383550772
 20
63.19410204671559
 30
0.0
 10
90.3210562790425
 20
61.96417207167291
 30
0.0
 10
83.12584812439808
 20
60.82709327511356
 30
0.0
 10
75.79851686694788
 20
59.78482115253304
 30
0.0
 10
68.35075757620201
 20
58.8391365510275
 30
0.0
 10
60.79444009388845
 20
57.99164635950923
 30
0.0
 10
53.14159162214558
 20
57.24378391666767
 30
0.0
 10
45.40437917645499
 20
56.59680920899567
 30
0.0
 10
37.59509188192715
 20
56.05180892177831
 30
0.0
 10
29.72612310861095
 20
55.60969639653288
 30
0.0
 10
21.80995245378962
 20
55.27121153944822
 30
0.0
 10
13.85912758818707
 20
55.03692071707348
 30
0.0
 10
5.886245988896796
 20
54.9072166678995
 30
0.0
 10
-2.096063412001817
 20
54.88231845141947
 30
0.0
 10
-10.07514711654416
 20
54.96227133447647
 30
0.0
 10
-18.03835338925009
 20
55.14694620313537
 30
0.0
 10
-25.97305439262183
 20
55.43603955236159
 30
0.0
 10
-33.86667595322525
 20
55.82907445126205
 30
0.0
 10
-41.70670783810596
 20
56.32540093792907
 30
0.0
 10
-49.48071835628817
 20
56.92419618843869
 30
0.0
 10
-57.17637239109524
 20
57.62446478159256
 30
0.0
 10
-64.78144925744161
 20
58.42503894566585
 30
0.0
 10
-72.28386035784696
 20
59.32457874743557
 30
0.0
 10
-79.67166661699963
 20
60.32157217364782
 30
0.0
 10
-86.93309568255944
 20
61.41433504339858
 30
0.0
 10
-94.05655889102988
 20
62.60101067640855
 30
0.0
 10
-101.0306680132247
 20
63.87956922670387
 30
0.0
 10
-107.8442518158221
 20
65.24780657370044
 30
0.0
 10
-114.4863725062235
 20
66.7033426433782
 30
0.0
 10
-120.9463421706672
 20
68.24361901183941
 30
0.0
 10
-127.2137393748581
 20
69.86589562372167
 30
0.0
 10
-133.2784261781126
 20
71.56724644183119
 30
0.0
 10
-139.1305659243182
 20
73.34455383772763
 30
0.0
 10
-144.7606423246802
 20
75.19450154566861
 30
0.0
 10
-150.1594805538479
 20
77.11356605121289
 30
0.0
 10
-155.3182713415089
 20
79.09800639741277
 30
0.0
 10
-160.228599418961
 20
81.14385261259032
 30
0.0
 10
-164.8824779853822
 20
83.24689335238952
 30
0.0
 10
-169.2723917942232
 20
85.402664049112
 30
0.0
 10
-173.3913502890324
 20
87.60643788249544
 30
0.0
 10
-177.2329587779432
 20
89.85322398804266
 30
0.0
 10
-180.7914924359613
 20
92.13777876399946
 30
0.0
 10
-184.0620429941534
 20
94.45464477657643
 30
0.0
 10
-187.0404838395257
 20
96.79821977154037
 30
0.0
 10
-189.7239794212631
 20
99.16274503277567
 30
0.0
 10
-192.1090849356108
 20
101.5424541286789
 30
0.0
 10
-194.2000928436828
 20
103.9323772505351
 30
0.0
 10
-195.978570137703
 20
106.3273629305243
 30
0.0
 10
-197.271174911471
 20
108.3441473398435
 30
0.0
 10
-197.8547109603013
 20
109.5548386536077
 30
0.0
 10
-198.0559133377795
 20
109.9722832505778
 30
0.0
  0
LWPOLYLINE
  5
1D8
330
1CD
100
AcDbEntity
  8
0
  6
Continuous
 62
     7
370
    25
100
AcDbPolyline
 90
       67
 70
   128
 43
0.0
 10
-187.3363737721
 20
-10.5676816623
 10
-186.28423587
 20
-12.4640971758
 10
-184.5030582302
 20
-15.1240114561
 10
-182.3802234001
 20
-17.7559195487
 10
-179.919662381
 20
-20.3549477658
 10
-177.1259315654
 20
-22.9162833055
 10
-174.0042042997
 20
-25.4351831639
 10
-170.5602613043
 20
-27.9069829184
 10
-166.8004799686
 20
-30.3271053649
 10
-162.7318225423
 20
-32.6910689936
 10
-158.3618232421
 20
-34.9944962882
 10
-153.698574301
 20
-37.2331218316
 10
-148.7507109823
 20
-39.4028002045
 10
-143.52739559
 20
-41.4995136622
 10
-138.0383005017
 20
-43.5193795739
 10
-132.2935902579
 20
-45.4586576131
 10
-126.3039027395
 20
-47.3137566831
 10
-120.0803294689
 20
-49.0812415676
 10
-113.6343950712
 20
-50.7578392914
 10
-106.978035933
 20
-52.3404451815
 10
-100.1235780991
 20
-53.8261286162
 10
-93.0837144474
 20
-55.2121384516
 10
-85.8714811848
 20
-56.4959081168
 10
-78.5002337071
 20
-57.6750603657
 10
-70.9836218676
 20
-58.7474116799
 10
-63.3355647012
 20
-59.7109763115
 10
-55.5702246491
 20
-60.5639699608
 10
-47.7019813335
 20
-61.3048130798
 10
-39.7454049297
 20
-61.9321337976
 10
-31.7152291854
 20
-62.4447704607
 10
-23.6263241378
 20
-62.841773784
 10
-15.4936685767
 20
-63.1224086086
 10
-7.3323223081
 20
-63.2861552636
 10
0.8426017335
 20
-63.3327105278
 10
9.0159654706
 20
-63.2619881915
 10
17.1726337152
 20
-63.0741192163
 10
25.2975021954
 20
-62.7694514923
 10
33.3755255251
 20
-62.3485491939
 10
41.3917450647
 20
-61.8121917353
 10
49.331316621
 20
-61.1613723271
 10
57.1795379352
 20
-60.397296137
 10
64.9218759082
 20
-59.5213780581
 10
72.5439935123
 20
-58.5352400891
 10
80.0317763403
 20
-57.4407083306
 10
87.3713587423
 20
-56.2398096033
 10
94.5491495011
 20
-54.9347676954
 10
101.5518570007
 20
-53.5279992438
 10
108.3665138388
 20
-52.0221092601
 10
114.9805008397
 20
-50.4198863057
 10
121.3815704221
 20
-48.7242973288
 10
127.5578692787
 20
-46.9384821698
 10
133.4979603258
 20
-45.0657477472
 10
139.1908438821
 20
-43.1095619342
 10
144.6259780379
 20
-41.0735471365
 10
149.793298176
 20
-38.9614735848
 10
154.6832356089
 20
-36.7772523531
 10
159.2867352982
 20
-34.5249281163
 10
163.5952726223
 20
-32.2086716605
 10
167.6008691619
 20
-29.8327721593
 10
171.2961074742
 20
-27.4016292317
 10
174.6741448286
 20
-24.9197447948
 10
177.7287258776
 20
-22.3917147271
 10
180.4541942402
 20
-19.8222203584
 10
182.8455029764
 20
-17.2160198008
 10
184.8982239329
 20
-14.5779391378
 10
186.6085559431
 20
-11.9128634873
 10
187.3367172442
 20
-10.5670051034
  0
LWPOLYLINE
  5
1DB
330
1CD
100
AcDbEntity
  8
0
  6
Continuous
 62
    60
370
    25
100
AcDbPolyline
 90
       79
 70
   128
 43
0.0
 10
-206.4089208549
 20
121.9431470435
 10
-206.4593779579
 20
119.5200875141
 10
-206.1920273713
 20
116.676738278
 10
-205.5724011648
 20
113.8395007012
 10
-204.6015579592
 20
111.0132221564
 10
-203.281156424
 20
108.2027312933
 10
-201.613452443
 20
105.4128297881
 10
-199.6012952605
 20
102.648284141
 10
-197.2481226133
 20
99.9138175316
 10
-194.5579548574
 20
97.2141017505
 10
-191.5353880992
 20
94.5537492167
 10
-188.1855863434
 20
91.9373050978
 10
-184.51427267
 20
89.3692395448
 10
-180.5277194569
 20
86.8539400546
 10
-176.2327376635
 20
84.3957039742
 10
-171.6366651939
 20
81.9987311586
 10
-166.7473543611
 20
79.6671167958
 10
-161.5731584704
 20
77.4048444097
 10
-156.1229175488
 20
75.2157790548
 10
-150.4059432414
 20
73.1036607125
 10
-144.4320029031
 20
71.0720979015
 10
-138.2113029105
 20
69.124561513
 10
-131.7544712254
 20
67.26437888
 10
-125.0725392363
 20
65.4947280934
 10
-118.176922912
 20
63.818632572
 10
-111.0794032972
 20
62.2389558968
 10
-103.7921063853
 20
60.7583969189
 10
-96.3274824006
 20
59.3794851484
 10
-88.6982845281
 20
58.1045764331
 10
-80.9175471244
 20
56.935848933
 10
-72.9985634488
 20
55.8752993995
 10
-64.954862952
 20
54.9247397636
 10
-56.8001881615
 20
54.0857940407
 10
-48.5484712023
 20
53.3598955553
 10
-40.2138099945
 20
52.7482844928
 10
-31.8104441668
 20
52.2520057805
 10
-23.3527307289
 20
51.8719073023
 10
-14.8551195423
 20
51.60863845
 10
-6.3321286331
 20
51.4626490141
 10
2.2016806116
 20
51.4341884149
 10
10.731728322
 20
51.5233052771
 10
19.2434410545
 20
51.7298473459
 10
27.7222766908
 20
52.0534617477
 10
36.1537492824
 20
52.4935955926
 10
44.5234537998
 20
53.0494969195
 10
52.8170907432
 20
53.7202159802
 10
61.0204905731
 20
54.5046068624
 10
69.1196379185
 20
55.4013294475
 10
77.1006955219
 20
56.4088517
 10
84.9500278803
 20
57.525452285
 10
92.6542245411
 20
58.7492235091
 10
100.2001230136
 20
60.0780745798
 10
107.5748312567
 20
61.5097351773
 10
114.7657497051
 20
63.0417593335
 10
121.7605927952
 20
64.6715296107
 10
128.5474099551
 20
66.3962615739
 10
135.1146060214
 20
68.2130085473
 10
141.4509610498
 20
70.1186666493
 10
147.5456494841
 20
72.1099800949
 10
153.3882586512
 20
74.1835467586
 10
158.9688065514
 20
76.3358239865
 10
164.2777589123
 20
78.563134649
 10
169.3060454777
 20
80.8616734232
 10
174.0450755046
 20
83.2275132942
 10
178.4867524394
 20
85.6566122643
 10
182.6234877518
 20
88.1448202586
 10
186.4482138987
 20
90.6878862155
 10
189.9543963998
 20
93.2814653495
 10
193.1360450011
 20
95.921126574
 10
195.9877239093
 20
98.6023600723
 10
198.5045610788
 20
101.3205850018
 10
200.6822565355
 20
104.0711573209
 10
202.5170897233
 20
106.8493777229
 10
204.0059258604
 20
109.6504996648
 10
205.1462212954
 20
112.4697374767
 10
205.9360278525
 20
115.3022745383
 10
206.3739961605
 20
118.1432715073
 10
206.4593779579
 20
120.9878745882
 10
206.4054409077
 20
121.9897520271
  0
LWPOLYLINE
  5
1DC
330
1CD
100
AcDbEntity
  8
0
  6
Continuous
 62
    60
370
    25
100
AcDbPolyline
 90
       12
 70
   128
 43
0.0
 10
-187.7256728701
 20
144.3143625252
 10
-190.5322354102
 20
141.6732379704
 10
-193.0045396661
 20
138.9952545836
 10
-195.138248376
 20
136.2851104576
 10
-196.9296182899
 20
133.547560106
 10
-198.3755067362
 20
130.7874061225
 10
-199.4733771351
 20
128.009490755
 10
-200.2213034491
 20
125.2186874111
 10
-200.6179735612
 20
122.4198921081
 10
-200.6626915772
 20
119.618014884
 10
-200.3553790465
 20
116.8179711835
 10
-200.0973417684
 20
115.5380450005
  0
LWPOLYLINE
  5
1DD
330
1CD
100
AcDbEntity
  8
0
  6
Continuous
 62
    60
370
    25
100
AcDbPolyline
 90
       70
 70
   128
 43
0.0
 10
200.0725748934
 20
115.4317143785
 10
200.2213034491
 20
116.1076143185
 10
200.6179735612
 20
118.9064096215
 10
200.6626915772
 20
121.7082868456
 10
200.3553790465
 20
124.5083305461
 10
199.6965750998
 20
127.3016284948
 10
198.687435503
 20
130.083280298
 10
197.3297306299
 20
132.8484059931
 10
195.6258423561
 20
135.5921546102
 10
193.5787598808
 20
138.3097126818
 10
191.1920744821
 20
140.9963126876
 10
188.4699732173
 20
143.6472414184
 10
185.4172315769
 20
146.2578482443
 10
182.0392051072
 20
148.8235532738
 10
178.3418200143
 20
151.3398553885
 10
174.3315627682
 20
153.8023401395
 10
170.0154687227
 20
156.2066874917
 10
165.4011097735
 20
158.5486794029
 10
160.496581074
 20
160.8242072235
 10
155.3104868342
 20
163.0292789044
 10
149.8519252257
 20
165.1600260006
 10
144.1304724203
 20
167.2127104577
 10
138.1561657903
 20
169.1837311696
 10
131.9394862999
 20
171.0696302962
 10
125.4913401171
 20
172.8670993297
 10
118.8230394815
 20
174.5729848985
 10
111.9462828583
 20
176.1842942998
 10
104.8731344153
 20
177.6982007493
 10
97.6160028585
 20
179.1120483406
 10
90.1876196625
 20
180.4233567047
 10
82.6010167357
 20
181.6298253611
 10
74.8695035575
 20
182.7293377539
 10
67.0066438292
 20
183.7199649645
 10
59.0262316787
 20
184.5999690964
 10
50.9422674605
 20
185.3678063233
 10
42.7689331949
 20
186.0221295977
 10
34.5205676876
 20
186.5617910142
 10
26.2116413743
 20
186.9858438235
 10
17.8567309352
 20
187.2935440926
 10
9.4704937224
 20
187.4843520109
 10
1.0676420455
 20
187.5579328364
 10
-7.3370826384
 20
187.5141574833
 10
-15.7289355862
 20
187.3531027485
 10
-24.0931946362
 20
187.0750511767
 10
-32.4151860359
 20
186.6804905648
 10
-40.6803101845
 20
186.1701131062
 10
-48.8740672459
 20
185.5448141765
 10
-56.9820825857
 20
184.8056907623
 10
-64.99013199
 20
183.9540395374
 10
-72.8841666191
 20
182.9913545874
 10
-80.6503376537
 20
181.9193247888
 10
-88.2750205909
 20
180.7398308461
 10
-95.7448391459
 20
179.4549419926
 10
-103.0466887187
 20
178.0669123598
 10
-110.167759384
 20
176.5781770234
 10
-117.0955583641
 20
174.9913477311
 10
-123.8179319455
 20
173.3092083207
 10
-130.3230868006
 20
171.5347098362
 10
-136.5996106774
 20
169.670965351
 10
-142.6364924203
 20
167.7212445063
 10
-148.4231412872
 20
165.6889677748
 10
-153.9494055297
 20
163.5777004606
 10
-159.2055902027
 20
161.391146444
 10
-164.1824741719
 20
159.1331416836
 10
-168.8713262919
 20
156.8076474872
 10
-173.2639207228
 20
154.4187435617
 10
-177.3525513612
 20
151.9706208564
 10
-181.1300453597
 20
149.4675742104
 10
-184.5897757102
 20
146.913994818
 10
-187.7256728701
 20
144.3143625252
  0
ARC
  5
1DE
330
1CD
100
AcDbEntity
  8
0
  6
Continuous
 62
     7
370
    25
100
AcDbCircle
 10
-182.3624673203
 20
120.1362218795
 30
0.0
 40
24.11424695370591
100
AcDbArc
 50
161.3703285698
 51
175.7026933535
  0
ARC
  5
1DF
330
1CD
100
AcDbEntity
  8
0
  6
Continuous
 62
     7
370
    25
100
AcDbCircle
 10
182.0924177574
 20
120.0814960785
 30
0.0
 40
24.38779480549734
100
AcDbArc
 50
4.4877730264
 51
18.6738918515
  0
ARC
  5
1E0
330
1CD
100
AcDbEntity
  8
0
  6
Continuous
 62
     7
370
    25
100
AcDbCircle
 10
-174.4350356206
 20
121.5676683195
 30
0.0
 40
26.36115160974328
100
AcDbArc
 50
193.2223959289
 51
206.7087095706
  0
ARC
  5
1E1
330
1CD
100
AcDbEntity
  8
0
  6
Continuous
 62
     7
370
    25
100
AcDbCircle
 10
174.0529155621
 20
121.7034372015
 30
0.0
 40
26.76484968922582
100
AcDbArc
 50
332.5932190822
 51
346.448053992
  0
VIEWPORT
  5
1F2
330
1CD
100
AcDbEntity
  8
0
100
AcDbViewport
 10
0.0
 20
0.0
 30
0.0
 40
205.6
 41
156.0
 68
     1
 69
     1
 12
0.0
 22
0.0
 13
0.0
 23
0.0
 14
10.0
 24
10.0
 15
10.0
 25
10.0
 16
0.0
 26
0.0
 36
1.0
 17
0.0
 27
0.0
 37
0.0
 42
50.0
 43
0.0
 44
0.0
 45
428.4
 50
0.0
 51
0.0
 72
   100
 90
   557152
  1

281
     0
 71
     1
 74
     0
110
0.0
120
0.0
130
0.0
111
1.0
121
0.0
131
0.0
112
0.0
122
1.0
132
0.0
 79
     0
146
0.0
  0
ENDBLK
  5
1D0
330
1CD
100
AcDbEntity
  8
0
100
AcDbBlockEnd
  0
ENDSEC
  0
SECTION
  2
ENTITIES
  0
CIRCLE
  5
73
330
1F
100
AcDbEntity
  8
0
  6
Continuous
 62
     7
370
    25
100
AcDbCircle
 10
0.0
 20
0.0
 30
0.0
 40
209.9999999999998
  0
CIRCLE
  5
74
330
1F
100
AcDbEntity
  8
0
  6
Continuous
 62
     7
370
    25
100
AcDbCircle
 10
0.0
 20
0.0
 30
0.0
 40
206.4711169734444
  0
CIRCLE
  5
75
330
1F
100
AcDbEntity
  8
0
  6
Continuous
 62
     7
370
    25
100
AcDbCircle
 10
0.0
 20
0.0
 30
0.0
 40
200.6871858738754
  0
CIRCLE
  5
76
330
1F
100
AcDbEntity
  8
0
  6
Continuous
 62
     7
370
    25
100
AcDbCircle
 10
0.0
 20
0.0
 30
0.0
 40
34.91753592594218
  0
CIRCLE
  5
77
330
1F
100
AcDbEntity
  8
0
  6
Continuous
 62
     7
370
    25
100
AcDbCircle
 10
0.0
 20
0.0
 30
0.0
 40
22.99999999999999
  0
LWPOLYLINE
  5
7D
330
1B
100
AcDbEntity
 67
     1
  8
0
  6
Continuous
 62
     7
370
    25
100
AcDbPolyline
 90
        3
 70
   128
 43
0.0
 10
-78.270431802
 20
0.0
 10
-76.5039745695
 20
-0.4040995969
 10
-68.2497916456
 20
-2.0603935686
  0
LWPOLYLINE
  5
7E
330
1B
100
AcDbEntity
 67
     1
  8
0
  6
Continuous
 62
     7
370
    25
100
AcDbPolyline
 90
        3
 70
   128
 43
0.0
 10
68.2497916456
 20
-2.0603935686
 10
76.5039984863
 20
-0.4040942452
 10
78.270431802
 20
0.0
  0
LINE
  5
88
330
1B
100
AcDbEntity
 67
     1
  8
0
  6
Continuous
 62
     7
370
    25
100
AcDbLine
 10
203.521705329
 20
130.0
 30
0.0
 11
-203.521705329
 21
130.0
 31
0.0
  0
LINE
  5
89
330
1B
100
AcDbEntity
 67
     1
  8
0
  6
Continuous
 62
     7
370
    25
100
AcDbLine
 10
-60.0
 20
-11.9060408666
 30
0.0
 11
-60.0
 21
-12.0
 31
0.0
  0
LINE
  5
8A
330
1B
100
AcDbEntity
 67
     1
  8
0
  6
Continuous
 62
     7
370
    25
100
AcDbLine
 10
60.0
 20
-12.0
 30
0.0
 11
60.0
 21
-11.9060408666
 31
0.0
  0
LINE
  5
8B
330
1B
100
AcDbEntity
 67
     1
  8
0
  6
Continuous
 62
     7
370
    25
100
AcDbLine
 10
-190.0
 20
0.0
 30
0.0
 11
190.0
 21
0.0
 31
0.0
  0
LINE
  5
8C
330
1B
100
AcDbEntity
 67
     1
  8
0
  6
Continuous
 62
     7
370
    25
100
AcDbLine
 10
-60.0
 20
-12.0
 30
0.0
 11
60.0
 21
-12.0
 31
0.0
  0
LINE
  5
8D
330
1B
100
AcDbEntity
 67
     1
  8
0
  6
Continuous
 62
    60
370
    25
100
AcDbLine
 10
-206.4711169734
 20
127.5486081952
 30
0.0
 11
206.4711169734
 21
127.5486081952
 31
0.0
  0
LINE
  5
8E
330
1B
100
AcDbEntity
 67
     1
  8
0
  6
Continuous
 62
    60
370
    25
100
AcDbLine
 10
-68.2497916456
 20
-2.0603935686
 30
0.0
 11
68.2497916456
 21
-2.0603935686
 31
0.0
  0
LINE
  5
8F
330
1B
100
AcDbEntity
 67
     1
  8
0
  6
Continuous
 62
    60
370
    25
100
AcDbLine
 10
-60.0
 20
-11.9060408666
 30
0.0
 11
60.0
 21
-11.9060408666
 31
0.0
  0
ARC
  5
90
330
1B
100
AcDbEntity
 67
     1
  8
0
  6
Continuous
 62
     7
370
    25
100
AcDbCircle
 10
-0.7295274343
 20
89.2794427773
 30
0.0
 40
209.2704725657147
100
AcDbArc
 50
169.4630610397
 51
205.2533907078
  0
ARC
  5
91
330
1B
100
AcDbEntity
 67
     1
  8
0
  6
Continuous
 62
     7
370
    25
100
AcDbCircle
 10
0.7295274343
 20
89.2794427773
 30
0.0
 40
209.2704725657142
100
AcDbArc
 50
334.7466092922
 51
10.5369389603
  0
ARC
  5
92
330
1B
100
AcDbEntity
 67
     1
  8
0
  6
Continuous
 62
     7
370
    25
100
AcDbCircle
 10
-203.521705329
 20
127.0
 30
0.0
 40
3.000000000000143
100
AcDbArc
 50
90.0
 51
169.4630610397
  0
ARC
  5
93
330
1B
100
AcDbEntity
 67
     1
  8
0
  6
Continuous
 62
     7
370
    25
100
AcDbCircle
 10
203.521705329
 20
127.0
 30
0.0
 40
3.000000000000143
100
AcDbArc
 50
10.5369389603
 51
90.0
  0
ARC
  5
94
330
1B
100
AcDbEntity
 67
     1
  8
0
  6
Continuous
 62
     7
370
    25
100
AcDbCircle
 10
-70.0
 20
-11.9060408666
 30
0.0
 40
9.999999999999998
100
AcDbArc
 50
0.0
 51
79.9201293963
  0
ARC
  5
95
330
1B
100
AcDbEntity
 67
     1
  8
0
  6
Continuous
 62
     7
370
    25
100
AcDbCircle
 10
70.0
 20
-11.9060408666
 30
0.0
 40
9.999999999999982
100
AcDbArc
 50
100.0798706037
 51
180.0
  0
VIEWPORT
  5
1E2
330
1B
100
AcDbEntity
 67
     1
  8
0
100
AcDbViewport
 10
0.0
 20
0.0
 30
0.0
 40
205.6
 41
156.0
 68
     1
 69
     1
 12
0.0
 22
0.0
 13
0.0
 23
0.0
 14
10.0
 24
10.0
 15
10.0
 25
10.0
 16
0.0
 26
0.0
 36
1.0
 17
0.0
 27
0.0
 37
0.0
 42
50.0
 43
0.0
 44
0.0
 45
428.4
 50
0.0
 51
0.0
 72
   100
 90
   557152
  1

281
     0
 71
     1
 74
     0
110
0.0
120
0.0
130
0.0
111
1.0
121
0.0
131
0.0
112
0.0
122
1.0
132
0.0
 79
     0
146
0.0
  0
ENDSEC
  0
SECTION
  2
OBJECTS
  0
DICTIONARY
  5
C
330
0
100
AcDbDictionary
281
     1
  3
ACAD_GROUP
350
D
  3
ACAD_LAYOUT
350
1A
  3
ACAD_MLINESTYLE
350
17
  3
ACAD_PLOTSETTINGS
350
19
  3
ACAD_PLOTSTYLENAME
350
E
  3
ACAD_SCALELIST
350
47
  0
DICTIONARY
  5
D
102
{ACAD_REACTORS
330
C
102
}
330
C
100
AcDbDictionary
281
     1
  0
DICTIONARY
  5
1A
102
{ACAD_REACTORS
330
C
102
}
330
C
100
AcDbDictionary
281
     1
  3
_Dimetrisch
350
1CE
  3
_Isometrisch
350
199
  3
_Links
350
F9
  3
_Normal auf
350
B5
  3
_Rechts
350
26
  3
_Rückseite
350
D7
  3
_Trimetrisch
350
1B5
  3
_Unten
350
120
  3
_Vorderseite
350
1E
  3
Model
350
22
  0
DICTIONARY
  5
17
102
{ACAD_REACTORS
330
C
102
}
330
C
100
AcDbDictionary
281
     1
  3
Standard
350
18
  0
DICTIONARY
  5
19
102
{ACAD_REACTORS
330
C
102
}
330
C
100
AcDbDictionary
281
     1
  0
ACDBDICTIONARYWDFLT
  5
E
102
{ACAD_REACTORS
330
C
102
}
330
C
100
AcDbDictionary
281
     1
  3
Normal
350
F
100
AcDbDictionaryWithDefault
340
F
  0
DICTIONARY
  5
47
102
{ACAD_REACTORS
330
C
102
}
330
C
100
AcDbDictionary
281
     1
  3
A0
350
48
  3
A1
350
49
  3
A2
350
4A
  3
A3
350
4B
  3
A4
350
4C
  3
A5
350
4D
  3
A6
350
4E
  3
A7
350
4F
  3
A8
350
50
  3
A9
350
51
  3
B0
350
52
  3
B1
350
53
  3
B2
350
54
  3
B3
350
55
  3
B4
350
56
  3
B5
350
57
  3
B6
350
58
  3
B7
350
59
  3
B8
350
5A
  3
B9
350
5B
  3
C0
350
5C
  3
C1
350
5D
  3
C2
350
5E
  3
C3
350
5F
  3
C4
350
60
  3
C5
350
61
  3
C6
350
62
  3
C7
350
63
  3
C8
350
64
  3
C9
350
65
  3
D0
350
66
  3
D1
350
67
  3
D2
350
68
  0
LAYOUT
  5
1CE
102
{ACAD_REACTORS
330
1A
102
}
330
1A
100
AcDbPlotSettings
  1

  2
none_device
  4
ISO_A4_(210.00_x_297.00_MM)
  6

 40
7.5
 41
20.0
 42
7.5
 43
20.0
 44
210.0
 45
297.0
 46
0.0
 47
0.0
 48
0.0
 49
0.0
140
0.0
141
0.0
142
1.0
143
1.6342412451
 70
   688
 72
     1
 73
     1
 74
     1
  7

 75
     0
147
0.6119047619
148
210.0
149
12.0
100
AcDbLayout
  1
_Dimetrisch
 70
     1
 71
     9
 10
0.0
 20
0.0
 11
0.0
 21
0.0
 12
0.0
 22
0.0
 32
0.0
 14
0.0
 24
0.0
 34
0.0
 15
0.0
 25
0.0
 35
0.0
146
0.0
 13
0.0
 23
0.0
 33
0.0
 16
1.0
 26
0.0
 36
0.0
 17
0.0
 27
1.0
 37
0.0
 76
     0
330
1CD
331
1F2
  0
LAYOUT
  5
199
102
{ACAD_REACTORS
330
1A
102
}
330
1A
100
AcDbPlotSettings
  1

  2
none_device
  4
ISO_A4_(210.00_x_297.00_MM)
  6

 40
7.5
 41
20.0
 42
7.5
 43
20.0
 44
210.0
 45
297.0
 46
0.0
 47
0.0
 48
0.0
 49
0.0
140
0.0
141
0.0
142
1.0
143
1.6342412451
 70
   688
 72
     1
 73
     1
 74
     1
  7

 75
     0
147
0.6119047619
148
210.0
149
12.0
100
AcDbLayout
  1
_Isometrisch
 70
     1
 71
     7
 10
0.0
 20
0.0
 11
0.0
 21
0.0
 12
0.0
 22
0.0
 32
0.0
 14
0.0
 24
0.0
 34
0.0
 15
0.0
 25
0.0
 35
0.0
146
0.0
 13
0.0
 23
0.0
 33
0.0
 16
1.0
 26
0.0
 36
0.0
 17
0.0
 27
1.0
 37
0.0
 76
     0
330
198
331
1EE
  0
LAYOUT
  5
F9
102
{ACAD_REACTORS
330
1A
102
}
330
1A
100
AcDbPlotSettings
  1

  2
none_device
  4
ISO_A4_(210.00_x_297.00_MM)
  6

 40
7.5
 41
20.0
 42
7.5
 43
20.0
 44
210.0
 45
297.0
 46
0.0
 47
0.0
 48
0.0
 49
0.0
140
0.0
141
0.0
142
1.0
143
1.6342412451
 70
   688
 72
     1
 73
     1
 74
     1
  7

 75
     0
147
0.6119047619
148
210.0
149
12.0
100
AcDbLayout
  1
_Links
 70
     1
 71
     5
 10
0.0
 20
0.0
 11
0.0
 21
0.0
 12
0.0
 22
0.0
 32
0.0
 14
0.0
 24
0.0
 34
0.0
 15
0.0
 25
0.0
 35
0.0
146
0.0
 13
0.0
 23
0.0
 33
0.0
 16
1.0
 26
0.0
 36
0.0
 17
0.0
 27
1.0
 37
0.0
 76
     0
330
F8
331
1EA
  0
LAYOUT
  5
B5
102
{ACAD_REACTORS
330
1A
102
}
330
1A
100
AcDbPlotSettings
  1

  2
none_device
  4
ISO_A4_(210.00_x_297.00_MM)
  6

 40
7.5
 41
20.0
 42
7.5
 43
20.0
 44
210.0
 45
297.0
 46
0.0
 47
0.0
 48
0.0
 49
0.0
140
0.0
141
0.0
142
1.0
143
1.6342412451
 70
   688
 72
     1
 73
     1
 74
     1
  7

 75
     0
147
0.6119047619
148
210.0
149
12.0
100
AcDbLayout
  1
_Normal auf
 70
     1
 71
     3
 10
0.0
 20
0.0
 11
0.0
 21
0.0
 12
0.0
 22
0.0
 32
0.0
 14
0.0
 24
0.0
 34
0.0
 15
0.0
 25
0.0
 35
0.0
146
0.0
 13
0.0
 23
0.0
 33
0.0
 16
1.0
 26
0.0
 36
0.0
 17
0.0
 27
1.0
 37
0.0
 76
     0
330
B4
331
1E6
  0
LAYOUT
  5
26
102
{ACAD_REACTORS
330
1A
102
}
330
1A
100
AcDbPlotSettings
  1

  2
none_device
  4
ISO_A4_(210.00_x_297.00_MM)
  6

 40
7.5
 41
20.0
 42
7.5
 43
20.0
 44
210.0
 45
297.0
 46
0.0
 47
0.0
 48
0.0
 49
0.0
140
0.0
141
0.0
142
1.0
143
1.6342412451
 70
   688
 72
     1
 73
     1
 74
     1
  7

 75
     0
147
0.6119047619
148
210.0
149
12.0
100
AcDbLayout
  1
_Rechts
 70
     1
 71
     2
 10
0.0
 20
0.0
 11
0.0
 21
0.0
 12
0.0
 22
0.0
 32
0.0
 14
0.0
 24
0.0
 34
0.0
 15
0.0
 25
0.0
 35
0.0
146
0.0
 13
0.0
 23
0.0
 33
0.0
 16
1.0
 26
0.0
 36
0.0
 17
0.0
 27
1.0
 37
0.0
 76
     0
330
23
331
1E4
  0
LAYOUT
  5
D7
102
{ACAD_REACTORS
330
1A
102
}
330
1A
100
AcDbPlotSettings
  1

  2
none_device
  4
ISO_A4_(210.00_x_297.00_MM)
  6

 40
7.5
 41
20.0
 42
7.5
 43
20.0
 44
210.0
 45
297.0
 46
0.0
 47
0.0
 48
0.0
 49
0.0
140
0.0
141
0.0
142
1.0
143
1.6342412451
 70
   688
 72
     1
 73
     1
 74
     1
  7

 75
     0
147
0.6119047619
148
210.0
149
12.0
100
AcDbLayout
  1
_Rückseite
 70
     1
 71
     4
 10
0.0
 20
0.0
 11
0.0
 21
0.0
 12
0.0
 22
0.0
 32
0.0
 14
0.0
 24
0.0
 34
0.0
 15
0.0
 25
0.0
 35
0.0
146
0.0
 13
0.0
 23
0.0
 33
0.0
 16
1.0
 26
0.0
 36
0.0
 17
0.0
 27
1.0
 37
0.0
 76
     0
330
D6
331
1E8
  0
LAYOUT
  5
1B5
102
{ACAD_REACTORS
330
1A
102
}
330
1A
100
AcDbPlotSettings
  1

  2
none_device
  4
ISO_A4_(210.00_x_297.00_MM)
  6

 40
7.5
 41
20.0
 42
7.5
 43
20.0
 44
210.0
 45
297.0
 46
0.0
 47
0.0
 48
0.0
 49
0.0
140
0.0
141
0.0
142
1.0
143
1.6342412451
 70
   688
 72
     1
 73
     1
 74
     1
  7

 75
     0
147
0.6119047619
148
210.0
149
12.0
100
AcDbLayout
  1
_Trimetrisch
 70
     1
 71
     8
 10
0.0
 20
0.0
 11
0.0
 21
0.0
 12
0.0
 22
0.0
 32
0.0
 14
0.0
 24
0.0
 34
0.0
 15
0.0
 25
0.0
 35
0.0
146
0.0
 13
0.0
 23
0.0
 33
0.0
 16
1.0
 26
0.0
 36
0.0
 17
0.0
 27
1.0
 37
0.0
 76
     0
330
1B4
331
1F0
  0
LAYOUT
  5
120
102
{ACAD_REACTORS
330
1A
102
}
330
1A
100
AcDbPlotSettings
  1

  2
none_device
  4
ISO_A4_(210.00_x_297.00_MM)
  6

 40
7.5
 41
20.0
 42
7.5
 43
20.0
 44
210.0
 45
297.0
 46
0.0
 47
0.0
 48
0.0
 49
0.0
140
0.0
141
0.0
142
1.0
143
1.6342412451
 70
   688
 72
     1
 73
     1
 74
     1
  7

 75
     0
147
0.6119047619
148
210.0
149
12.0
100
AcDbLayout
  1
_Unten
 70
     1
 71
     6
 10
0.0
 20
0.0
 11
0.0
 21
0.0
 12
0.0
 22
0.0
 32
0.0
 14
0.0
 24
0.0
 34
0.0
 15
0.0
 25
0.0
 35
0.0
146
0.0
 13
0.0
 23
0.0
 33
0.0
 16
1.0
 26
0.0
 36
0.0
 17
0.0
 27
1.0
 37
0.0
 76
     0
330
11F
331
1EC
  0
LAYOUT
  5
1E
102
{ACAD_REACTORS
330
1A
102
}
330
1A
100
AcDbPlotSettings
  1

  2
none_device
  4
ISO_A4_(210.00_x_297.00_MM)
  6

 40
7.5
 41
20.0
 42
7.5
 43
20.0
 44
210.0
 45
297.0
 46
0.0
 47
0.0
 48
0.0
 49
0.0
140
0.0
141
0.0
142
1.0
143
1.6342412451
 70
   688
 72
     1
 73
     1
 74
     1
  7

 75
     0
147
0.6119047619
148
210.0
149
12.0
100
AcDbLayout
  1
_Vorderseite
 70
     1
 71
     1
 10
-242.6848249028
 20
-24.2568093385
 11
242.6848249027
 21
318.9338521401
 12
0.0
 22
0.0
 32
0.0
 14
-210.0
 24
-12.0
 34
0.0
 15
210.0
 25
130.0
 35
0.0
146
0.0
 13
0.0
 23
0.0
 33
0.0
 16
1.0
 26
0.0
 36
0.0
 17
0.0
 27
1.0
 37
0.0
 76
     0
330
1B
331
1E2
  0
LAYOUT
  5
22
102
{ACAD_REACTORS
330
1A
102
}
330
1A
100
AcDbPlotSettings
  1

  2
none_device
  4
ANSI_A_(11.00_x_8.50_Inches)
  6

 40
6.35
 41
19.05
 42
6.35000508
 43
19.05000254
 44
279.4
 45
215.9
 46
133.34999746
 47
88.89999873
 48
0.0
 49
0.0
140
0.0
141
0.0
142
0.0200357143
143
1.0
 70
  1696
 72
     0
 73
     0
 74
     0
  7

 75
     0
147
0.0179189148
148
-1300.4909072572
149
0.0
100
AcDbLayout
  1
Model
 70
     1
 71
     0
 10
0.0
 20
0.0
 11
420.0
 21
297.0
 12
0.0
 22
0.0
 32
0.0
 14
-210.0
 24
-210.0
 34
0.0
 15
210.0
 25
210.0
 35
0.0
146
0.0
 13
0.0
 23
0.0
 33
0.0
 16
1.0
 26
0.0
 36
0.0
 17
0.0
 27
1.0
 37
0.0
 76
     0
330
1F
331
29
  0
MLINESTYLE
  5
18
102
{ACAD_REACTORS
330
17
102
}
330
17
100
AcDbMlineStyle
  2
Standard
 70
     0
  3

 62
   256
 51
90.0
 52
90.0
 71
     2
 49
0.5
 62
   256
  6
BYLAYER
 49
-0.5
 62
   256
  6
BYLAYER
  0
ACDBPLACEHOLDER
  5
F
102
{ACAD_REACTORS
330
E
102
}
330
E
  0
SCALE
  5
48
102
{ACAD_REACTORS
330
47
102
}
330
47
100
AcDbScale
 70
     0
300
1:1
140
1.0
141
1.0
290
     1
  0
SCALE
  5
49
102
{ACAD_REACTORS
330
47
102
}
330
47
100
AcDbScale
 70
     0
300
1:2
140
1.0
141
2.0
290
     0
  0
SCALE
  5
4A
102
{ACAD_REACTORS
330
47
102
}
330
47
100
AcDbScale
 70
     0
300
1:4
140
1.0
141
4.0
290
     0
  0
SCALE
  5
4B
102
{ACAD_REACTORS
330
47
102
}
330
47
100
AcDbScale
 70
     0
300
1:5
140
1.0
141
5.0
290
     0
  0
SCALE
  5
4C
102
{ACAD_REACTORS
330
47
102
}
330
47
100
AcDbScale
 70
     0
300
1:8
140
1.0
141
8.0
290
     0
  0
SCALE
  5
4D
102
{ACAD_REACTORS
330
47
102
}
330
47
100
AcDbScale
 70
     0
300
1:10
140
1.0
141
10.0
290
     0
  0
SCALE
  5
4E
102
{ACAD_REACTORS
330
47
102
}
330
47
100
AcDbScale
 70
     0
300
1:16
140
1.0
141
16.0
290
     0
  0
SCALE
  5
4F
102
{ACAD_REACTORS
330
47
102
}
330
47
100
AcDbScale
 70
     0
300
1:20
140
1.0
141
20.0
290
     0
  0
SCALE
  5
50
102
{ACAD_REACTORS
330
47
102
}
330
47
100
AcDbScale
 70
     0
300
1:30
140
1.0
141
30.0
290
     0
  0
SCALE
  5
51
102
{ACAD_REACTORS
330
47
102
}
330
47
100
AcDbScale
 70
     0
300
1:40
140
1.0
141
40.0
290
     0
  0
SCALE
  5
52
102
{ACAD_REACTORS
330
47
102
}
330
47
100
AcDbScale
 70
     0
300
1:50
140
1.0
141
50.0
290
     0
  0
SCALE
  5
53
102
{ACAD_REACTORS
330
47
102
}
330
47
100
AcDbScale
 70
     0
300
1:100
140
1.0
141
100.0
290
     0
  0
SCALE
  5
54
102
{ACAD_REACTORS
330
47
102
}
330
47
100
AcDbScale
 70
     0
300
2:1
140
2.0
141
1.0
290
     0
  0
SCALE
  5
55
102
{ACAD_REACTORS
330
47
102
}
330
47
100
AcDbScale
 70
     0
300
4:1
140
4.0
141
1.0
290
     0
  0
SCALE
  5
56
102
{ACAD_REACTORS
330
47
102
}
330
47
100
AcDbScale
 70
     0
300
8:1
140
8.0
141
1.0
290
     0
  0
SCALE
  5
57
102
{ACAD_REACTORS
330
47
102
}
330
47
100
AcDbScale
 70
     0
300
10:1
140
10.0
141
1.0
290
     0
  0
SCALE
  5
58
102
{ACAD_REACTORS
330
47
102
}
330
47
100
AcDbScale
 70
     0
300
100:1
140
100.0
141
1.0
290
     0
  0
SCALE
  5
59
102
{ACAD_REACTORS
330
47
102
}
330
47
100
AcDbScale
 70
     0
300
1/128" = 1'-0"
140
0.0078125
141
12.0
290
     0
  0
SCALE
  5
5A
102
{ACAD_REACTORS
330
47
102
}
330
47
100
AcDbScale
 70
     0
300
1/64" = 1'-0"
140
0.015625
141
12.0
290
     0
  0
SCALE
  5
5B
102
{ACAD_REACTORS
330
47
102
}
330
47
100
AcDbScale
 70
     0
300
1/32" = 1'-0"
140
0.03125
141
12.0
290
     0
  0
SCALE
  5
5C
102
{ACAD_REACTORS
330
47
102
}
330
47
100
AcDbScale
 70
     0
300
1/16" = 1'-0"
140
0.0625
141
12.0
290
     0
  0
SCALE
  5
5D
102
{ACAD_REACTORS
330
47
102
}
330
47
100
AcDbScale
 70
     0
300
3/32" = 1'-0"
140
0.09375
141
12.0
290
     0
  0
SCALE
  5
5E
102
{ACAD_REACTORS
330
47
102
}
330
47
100
AcDbScale
 70
     0
300
1/8" = 1'-0"
140
0.125
141
12.0
290
     0
  0
SCALE
  5
5F
102
{ACAD_REACTORS
330
47
102
}
330
47
100
AcDbScale
 70
     0
300
3/16" = 1'-0"
140
0.1875
141
12.0
290
     0
  0
SCALE
  5
60
102
{ACAD_REACTORS
330
47
102
}
330
47
100
AcDbScale
 70
     0
300
1/4" = 1'-0"
140
0.25
141
12.0
290
     0
  0
SCALE
  5
61
102
{ACAD_REACTORS
330
47
102
}
330
47
100
AcDbScale
 70
     0
300
3/8" = 1'-0"
140
0.375
141
12.0
290
     0
  0
SCALE
  5
62
102
{ACAD_REACTORS
330
47
102
}
330
47
100
AcDbScale
 70
     0
300
1/2" = 1'-0"
140
0.5
141
12.0
290
     0
  0
SCALE
  5
63
102
{ACAD_REACTORS
330
47
102
}
330
47
100
AcDbScale
 70
     0
300
3/4" = 1'-0"
140
0.75
141
12.0
290
     0
  0
SCALE
  5
64
102
{ACAD_REACTORS
330
47
102
}
330
47
100
AcDbScale
 70
     0
300
1" = 1'-0"
140
1.0
141
12.0
290
     0
  0
SCALE
  5
65
102
{ACAD_REACTORS
330
47
102
}
330
47
100
AcDbScale
 70
     0
300
1-1/2" = 1'-0"
140
1.5
141
12.0
290
     0
  0
SCALE
  5
66
102
{ACAD_REACTORS
330
47
102
}
330
47
100
AcDbScale
 70
     0
300
3" = 1'-0"
140
3.0
141
12.0
290
     0
  0
SCALE
  5
67
102
{ACAD_REACTORS
330
47
102
}
330
47
100
AcDbScale
 70
     0
300
6" = 1'-0"
140
6.0
141
12.0
290
     0
  0
SCALE
  5
68
102
{ACAD_REACTORS
330
47
102
}
330
47
100
AcDbScale
 70
     0
300
1'-0" = 1'-0"
140
12.0
141
12.0
290
     0
  0
ENDSEC
  0
EOF
