  0
SECTION
  2
HEADER
  9
$ACADVER
  1
AC1014
  9
$ACADMAINTVER
 70
     9
  9
$DWGCODEPAGE
  3
ANSI_1252
  9
$INSBASE
 10
0.0
 20
0.0
 30
0.0
  9
$EXTMIN
 10
-275.0
 20
-175.0
 30
0.0
  9
$EXTMAX
 10
275.0
 20
175.0
 30
0.0
  9
$LIMMIN
 10
0.0
 20
0.0
  9
$LIMMAX
 10
420.0
 20
297.0
  9
$ORTHOMODE
 70
     0
  9
$REGENMODE
 70
     1
  9
$FILLMODE
 70
     1
  9
$QTEXTMODE
 70
     0
  9
$MIRRTEXT
 70
     1
  9
$DRAGMODE
 70
     2
  9
$LTSCALE
 40
1.0
  9
$OSMODE
 70
    37
  9
$ATTMODE
 70
     1
  9
$TEXTSIZE
 40
3.5
  9
$TRACEWID
 40
1.0
  9
$TEXTSTYLE
  7
STANDARD
  9
$CLAYER
  8
0
  9
$CELTYPE
  6
BYLAYER
  9
$CECOLOR
 62
   256
  9
$CELTSCALE
 40
1.0
  9
$DELOBJ
 70
     1
  9
$DISPSILH
 70
     0
  9
$DIMSCALE
 40
1.0
  9
$DIMASZ
 40
8.0
  9
$DIMEXO
 40
0.0
  9
$DIMDLI
 40
3.75
  9
$DIMRND
 40
0.0
  9
$DIMDLE
 40
0.0
  9
$DIMEXE
 40
1.0
  9
$DIMTP
 40
0.0
  9
$DIMTM
 40
0.0
  9
$DIMTXT
 40
16.9333333333
  9
$DIMCEN
 40
2.5
  9
$DIMTSZ
 40
0.0
  9
$DIMTOL
 70
     0
  9
$DIMLIM
 70
     0
  9
$DIMTIH
 70
     1
  9
$DIMTOH
 70
     1
  9
$DIMSE1
 70
     0
  9
$DIMSE2
 70
     0
  9
$DIMTAD
 70
     1
  9
$DIMZIN
 70
     0
  9
$DIMBLK
  1

  9
$DIMASO
 70
     1
  9
$DIMSHO
 70
     1
  9
$DIMPOST
  1

  9
$DIMAPOST
  1

  9
$DIMALT
 70
     0
  9
$DIMALTD
 70
     3
  9
$DIMALTF
 40
0.0393700787
  9
$DIMLFAC
 40
1.0
  9
$DIMTOFL
 70
     1
  9
$DIMTVP
 40
0.0
  9
$DIMTIX
 70
     0
  9
$DIMSOXD
 70
     0
  9
$DIMSAH
 70
     0
  9
$DIMBLK1
  1

  9
$DIMBLK2
  1

  9
$DIMSTYLE
  2
ISO-25
  9
$DIMCLRD
 70
     0
  9
$DIMCLRE
 70
     0
  9
$DIMCLRT
 70
     0
  9
$DIMTFAC
 40
1.0
  9
$DIMGAP
 40
1.524
  9
$DIMJUST
 70
     0
  9
$DIMSD1
 70
     0
  9
$DIMSD2
 70
     0
  9
$DIMTOLJ
 70
     0
  9
$DIMTZIN
 70
     0
  9
$DIMALTZ
 70
     0
  9
$DIMALTTZ
 70
     0
  9
$DIMFIT
 70
     3
  9
$DIMUPT
 70
     0
  9
$DIMUNIT
 70
     2
  9
$DIMDEC
 70
     2
  9
$DIMTDEC
 70
     2
  9
$DIMALTU
 70
     2
  9
$DIMALTTD
 70
     3
  9
$DIMTXSTY
  7
STANDARD
  9
$DIMAUNIT
 70
     0
  9
$LUNITS
 70
     2
  9
$LUPREC
 70
     2
  9
$SKETCHINC
 40
1.0
  9
$FILLETRAD
 40
10.0
  9
$AUNITS
 70
     0
  9
$AUPREC
 70
     2
  9
$MENU
  1
.
  9
$ELEVATION
 40
0.0
  9
$PELEVATION
 40
0.0
  9
$THICKNESS
 40
0.0
  9
$LIMCHECK
 70
     0
  9
$CHAMFERA
 40
0.0
  9
$CHAMFERB
 40
0.0
  9
$CHAMFERC
 40
0.0
  9
$CHAMFERD
 40
0.0
  9
$SKPOLY
 70
     0
  9
$TDCREATE
 40
2459415.307360104
  9
$TDUPDATE
 40
2459415.307400185
  9
$TDINDWG
 40
0.0000000116
  9
$TDUSRTIMER
 40
0.0000000116
  9
$USRTIMER
 70
     1
  9
$ANGBASE
 50
0.0
  9
$ANGDIR
 70
     0
  9
$PDMODE
 70
     0
  9
$PDSIZE
 40
-1.0
  9
$PLINEWID
 40
0.0
  9
$COORDS
 70
     1
  9
$SPLFRAME
 70
     0
  9
$SPLINETYPE
 70
     6
  9
$SPLINESEGS
 70
     8
  9
$ATTDIA
 70
     0
  9
$ATTREQ
 70
     1
  9
$HANDLING
 70
     1
  9
$HANDSEED
  5
440
  9
$SURFTAB1
 70
     6
  9
$SURFTAB2
 70
     6
  9
$SURFTYPE
 70
     6
  9
$SURFU
 70
     6
  9
$SURFV
 70
     6
  9
$UCSNAME
  2

  9
$UCSORG
 10
0.0
 20
0.0
 30
0.0
  9
$UCSXDIR
 10
1.0
 20
0.0
 30
0.0
  9
$UCSYDIR
 10
0.0
 20
1.0
 30
0.0
  9
$PUCSNAME
  2

  9
$PUCSORG
 10
0.0
 20
0.0
 30
0.0
  9
$PUCSXDIR
 10
1.0
 20
0.0
 30
0.0
  9
$PUCSYDIR
 10
0.0
 20
1.0
 30
0.0
  9
$USERI1
 70
     0
  9
$USERI2
 70
     0
  9
$USERI3
 70
     0
  9
$USERI4
 70
     0
  9
$USERI5
 70
     0
  9
$USERR1
 40
0.0
  9
$USERR2
 40
0.0
  9
$USERR3
 40
0.0
  9
$USERR4
 40
0.0
  9
$USERR5
 40
0.0
  9
$WORLDVIEW
 70
     1
  9
$SHADEDGE
 70
     3
  9
$SHADEDIF
 70
    70
  9
$TILEMODE
 70
     1
  9
$MAXACTVP
 70
    64
  9
$PINSBASE
 10
0.0
 20
0.0
 30
0.0
  9
$PLIMCHECK
 70
     0
  9
$PEXTMIN
 10
-275.0
 20
-120.0
 30
0.0
  9
$PEXTMAX
 10
275.0
 20
0.0
 30
0.0
  9
$PLIMMIN
 10
-317.8015564202
 20
-136.0505836576
  9
$PLIMMAX
 10
317.8015564202
 20
313.3657587549
  9
$UNITMODE
 70
     0
  9
$VISRETAIN
 70
     1
  9
$PLINEGEN
 70
     0
  9
$PSLTSCALE
 70
     1
  9
$TREEDEPTH
 70
  3020
  9
$PICKSTYLE
 70
     1
  9
$CMLSTYLE
  2
STANDARD
  9
$CMLJUST
 70
     0
  9
$CMLSCALE
 40
20.0
  9
$PROXYGRAPHICS
 70
     1
  9
$MEASUREMENT
 70
     1
  0
ENDSEC
  0
SECTION
  2
CLASSES
  0
CLASS
  1
ACDBDICTIONARYWDFLT
  2
AcDbDictionaryWithDefault
  3
ObjectDBX Classes
 90
        0
280
     0
281
     0
  0
CLASS
  1
VISUALSTYLE
  2
AcDbVisualStyle
  3
ObjectDBX Classes
 90
     4095
280
     0
281
     0
  0
CLASS
  1
MATERIAL
  2
AcDbMaterial
  3
ObjectDBX Classes
 90
     1153
280
     0
281
     0
  0
CLASS
  1
SCALE
  2
AcDbScale
  3
ObjectDBX Classes
 90
     1153
280
     0
281
     0
  0
CLASS
  1
TABLESTYLE
  2
AcDbTableStyle
  3
ObjectDBX Classes
 90
     4095
280
     0
281
     0
  0
CLASS
  1
MLEADERSTYLE
  2
AcDbMLeaderStyle
  3
ACDB_MLEADERSTYLE_CLASS
 90
     4095
280
     0
281
     0
  0
CLASS
  1
SUN
  2
AcDbSun
  3
SCENEOE
 90
     1153
280
     0
281
     0
  0
CLASS
  1
XRECORD
  2
AcDbXrecord
  3
ObjectDBX Classes
 90
        0
280
     0
281
     0
  0
CLASS
  1
LWPOLYLINE
  2
AcDbPolyline
  3
ObjectDBX Classes
 90
        0
280
     0
281
     1
  0
CLASS
  1
HATCH
  2
AcDbHatch
  3
ObjectDBX Classes
 90
        0
280
     0
281
     1
  0
ENDSEC
  0
SECTION
  2
TABLES
  0
TABLE
  2
VPORT
  5
8
330
0
100
AcDbSymbolTable
 70
     1
  0
VPORT
  5
29
330
8
100
AcDbSymbolTableRecord
100
AcDbViewportTableRecord
  2
*ACTIVE
 70
     0
 10
0.0
 20
0.0
 11
1.0
 21
1.0
 12
0.0
 22
0.0
 13
0.0
 23
0.0
 14
10.0
 24
10.0
 15
10.0
 25
10.0
 16
0.0
 26
0.0
 36
1.0
 17
0.0
 27
0.0
 37
0.0
 40
357.0
 41
1.5714285714
 42
50.0
 43
0.0
 44
0.0
 50
0.0
 51
0.0
 71
     0
 72
   100
 73
     1
 74
     3
 75
     0
 76
     0
 77
     0
 78
     0
  0
ENDTAB
  0
TABLE
  2
LTYPE
  5
5
330
0
100
AcDbSymbolTable
 70
     6
  0
LTYPE
  5
14
330
5
100
AcDbSymbolTableRecord
100
AcDbLinetypeTableRecord
  2
BYBLOCK
 70
     0
  3

 72
    65
 73
     0
 40
0.0
  0
LTYPE
  5
15
330
5
100
AcDbSymbolTableRecord
100
AcDbLinetypeTableRecord
  2
BYLAYER
 70
     0
  3

 72
    65
 73
     0
 40
0.0
  0
LTYPE
  5
16
330
5
100
AcDbSymbolTableRecord
100
AcDbLinetypeTableRecord
  2
CONTINUOUS
 70
     0
  3
Solid line
 72
    65
 73
     0
 40
0.0
  0
LTYPE
  5
6E
330
5
100
AcDbSymbolTableRecord
100
AcDbLinetypeTableRecord
  2
HIDDEN
 70
     0
  3
Hidden __ __ __ __ __ __ __ __ __ __ __ __ __ __
 72
    65
 73
     2
 40
1.905
 49
1.27
 74
     0
 49
-0.635
 74
     0
  0
LTYPE
  5
6F
330
5
100
AcDbSymbolTableRecord
100
AcDbLinetypeTableRecord
  2
PHANTOM
 70
     0
  3
Phantom ______  __  __  ______  __  __  ______
 72
    65
 73
     6
 40
12.7
 49
6.35
 74
     0
 49
-1.27
 74
     0
 49
1.27
 74
     0
 49
-1.27
 74
     0
 49
1.27
 74
     0
 49
-1.27
 74
     0
  0
LTYPE
  5
70
330
5
100
AcDbSymbolTableRecord
100
AcDbLinetypeTableRecord
  2
CENTER
 70
     0
  3
Center ____ _ ____ _ ____ _ ____ _ ____ _ ____
 72
    65
 73
     4
 40
10.16
 49
6.35
 74
     0
 49
-1.27
 74
     0
 49
1.27
 74
     0
 49
-1.27
 74
     0
  0
LTYPE
  5
71
330
5
100
AcDbSymbolTableRecord
100
AcDbLinetypeTableRecord
  2
CENTERX2
 70
     0
  3
Center (2x) ________  __  ________  __  _____
 72
    65
 73
     4
 40
20.32
 49
12.7
 74
     0
 49
-2.54
 74
     0
 49
2.54
 74
     0
 49
-2.54
 74
     0
  0
LTYPE
  5
72
330
5
100
AcDbSymbolTableRecord
100
AcDbLinetypeTableRecord
  2
DOT2
 70
     0
  3
Dot (.5x) ........................................
 72
    65
 73
     2
 40
0.635
 49
0.0
 74
     0
 49
-0.635
 74
     0
  0
ENDTAB
  0
TABLE
  2
LAYER
  5
2
330
0
100
AcDbSymbolTable
 70
     1
  0
LAYER
  5
10
330
2
100
AcDbSymbolTableRecord
100
AcDbLayerTableRecord
  2
0
 70
     0
 62
     7
  6
CONTINUOUS
  0
ENDTAB
  0
TABLE
  2
STYLE
  5
3
330
0
100
AcDbSymbolTable
 70
     1
  0
STYLE
  5
11
330
3
100
AcDbSymbolTableRecord
100
AcDbTextStyleTableRecord
  2
STANDARD
 70
     0
 40
0.0
 41
1.0
 50
0.0
 71
     0
 42
3.5
  3
txt
  4

  0
ENDTAB
  0
TABLE
  2
VIEW
  5
6
330
0
100
AcDbSymbolTable
 70
     0
  0
ENDTAB
  0
TABLE
  2
UCS
  5
7
330
0
100
AcDbSymbolTable
 70
     0
  0
ENDTAB
  0
TABLE
  2
APPID
  5
9
330
0
100
AcDbSymbolTable
 70
     1
  0
APPID
  5
12
330
9
100
AcDbSymbolTableRecord
100
AcDbRegAppTableRecord
  2
ACAD
 70
     0
  0
ENDTAB
  0
TABLE
  2
DIMSTYLE
  5
A
330
0
100
AcDbSymbolTable
 70
     1
  0
DIMSTYLE
105
27
330
A
100
AcDbSymbolTableRecord
100
AcDbDimStyleTableRecord
  2
ISO-25
 70
     0
  3

  4

  5

  6

  7

 40
1.0
 41
2.5
 42
0.625
 43
3.75
 44
1.25
 45
0.0
 46
0.0
 47
0.0
 48
0.0
140
2.5
141
2.5
142
0.0
143
0.0393700787
144
1.0
145
0.0
146
1.0
147
0.625
 71
     0
 72
     0
 73
     0
 74
     0
 75
     0
 76
     0
 77
     1
 78
     8
170
     0
171
     3
172
     1
173
     0
174
     0
175
     0
176
     0
177
     0
178
     0
270
     2
271
     2
272
     2
273
     2
274
     3
340
11
275
     0
280
     0
281
     0
282
     0
283
     0
284
     8
285
     0
286
     0
287
     3
288
     0
  0
ENDTAB
  0
TABLE
  2
BLOCK_RECORD
  5
1
330
0
100
AcDbSymbolTable
 70
     8
  0
BLOCK_RECORD
  5
1F
330
1
100
AcDbSymbolTableRecord
100
AcDbBlockTableRecord
  2
*MODEL_SPACE
  0
BLOCK_RECORD
  5
1B
330
1
100
AcDbSymbolTableRecord
100
AcDbBlockTableRecord
  2
*PAPER_SPACE
  0
BLOCK_RECORD
  5
23
330
1
100
AcDbSymbolTableRecord
100
AcDbBlockTableRecord
  2
*PAPER_SPACE0
  0
BLOCK_RECORD
  5
165
330
1
100
AcDbSymbolTableRecord
100
AcDbBlockTableRecord
  2
*PAPER_SPACE1
  0
BLOCK_RECORD
  5
1AC
330
1
100
AcDbSymbolTableRecord
100
AcDbBlockTableRecord
  2
*PAPER_SPACE2
  0
BLOCK_RECORD
  5
1F3
330
1
100
AcDbSymbolTableRecord
100
AcDbBlockTableRecord
  2
*PAPER_SPACE3
  0
BLOCK_RECORD
  5
235
330
1
100
AcDbSymbolTableRecord
100
AcDbBlockTableRecord
  2
*PAPER_SPACE4
  0
BLOCK_RECORD
  5
29C
330
1
100
AcDbSymbolTableRecord
100
AcDbBlockTableRecord
  2
*PAPER_SPACE5
  0
BLOCK_RECORD
  5
32E
330
1
100
AcDbSymbolTableRecord
100
AcDbBlockTableRecord
  2
*PAPER_SPACE6
  0
BLOCK_RECORD
  5
3BC
330
1
100
AcDbSymbolTableRecord
100
AcDbBlockTableRecord
  2
*PAPER_SPACE7
  0
ENDTAB
  0
ENDSEC
  0
SECTION
  2
BLOCKS
  0
BLOCK
  5
20
330
1F
100
AcDbEntity
  8
0
100
AcDbBlockBegin
  2
*MODEL_SPACE
 70
     0
 10
0.0
 20
0.0
 30
0.0
  3
*MODEL_SPACE
  1

  0
ENDBLK
  5
21
330
1F
100
AcDbEntity
  8
0
100
AcDbBlockEnd
  0
BLOCK
  5
1C
330
1B
100
AcDbEntity
 67
     1
  8
0
100
AcDbBlockBegin
  2
*PAPER_SPACE
 70
     0
 10
0.0
 20
0.0
 30
0.0
  3
*PAPER_SPACE
  1

  0
ENDBLK
  5
1D
330
1B
100
AcDbEntity
 67
     1
  8
0
100
AcDbBlockEnd
  0
BLOCK
  5
24
330
23
100
AcDbEntity
  8
0
100
AcDbBlockBegin
  2
*PAPER_SPACE0
 70
     0
 10
0.0
 20
0.0
 30
0.0
  3
*PAPER_SPACE0
  1

  0
LWPOLYLINE
  5
137
330
23
100
AcDbEntity
  8
0
  6
CONTINUOUS
 62
     7
100
AcDbPolyline
 90
       14
 70
   128
 43
0.0
 10
126.9683925398
 20
-80.5670210031
 10
130.4094766226
 20
-80.9500614439
 10
133.8041722114
 20
-81.1709988816
 10
137.1067161653
 20
-81.2268549076
 10
140.2725876191
 20
-81.1168765391
 10
143.2591081596
 20
-80.8425463702
 10
146.0260171634
 20
-80.4075625852
 10
148.5360145418
 20
-79.8177891044
 10
150.7552635749
 20
-79.0811765337
 10
152.6538470569
 20
-78.2076549845
 10
154.2061706035
 20
-77.2090002076
 10
155.3913076842
 20
-76.0986748474
 10
156.1932817279
 20
-74.8916469546
 10
156.6012814997
 20
-73.6041882055
  0
LWPOLYLINE
  5
13B
330
23
100
AcDbEntity
  8
0
  6
CONTINUOUS
 62
     7
100
AcDbPolyline
 90
       14
 70
   128
 43
0.0
 10
-156.6012814997
 20
-73.6041882055
 10
-156.1932817279
 20
-74.8916469546
 10
-155.3913076842
 20
-76.0986748474
 10
-154.2061706035
 20
-77.2090002076
 10
-152.6538470569
 20
-78.2076549845
 10
-150.7552635749
 20
-79.0811765337
 10
-148.5360145418
 20
-79.8177891044
 10
-146.0260171634
 20
-80.4075625852
 10
-143.2591081596
 20
-80.8425463702
 10
-140.2725876191
 20
-81.1168765391
 10
-137.1067161653
 20
-81.2268549076
 10
-133.8041722114
 20
-81.1709988816
 10
-130.4094766226
 20
-80.9500614439
 10
-126.9683925398
 20
-80.5670210031
  0
LWPOLYLINE
  5
13D
330
23
100
AcDbEntity
  8
0
  6
CONTINUOUS
 62
     7
100
AcDbPolyline
 90
        5
 70
   128
 43
0.0
 10
125.5636062804
 20
-112.9990657488
 10
106.0000000016
 20
-112.9990463883
 10
-0.000000034
 20
-112.9989907922
 10
-106.0000000325
 20
-112.9990465443
 10
-124.7461372856
 20
-112.999065076
  0
LWPOLYLINE
  5
13F
330
23
100
AcDbEntity
  8
0
  6
CONTINUOUS
 62
     7
100
AcDbPolyline
 90
       14
 70
   128
 43
0.0
 10
125.5636062804
 20
-112.9990657488
 10
125.5773866594
 20
-112.8308597585
 10
125.6161857289
 20
-112.2958920105
 10
125.6798518296
 20
-111.2760791662
 10
125.7210100166
 20
-110.5455606823
 10
125.7683849614
 20
-109.6468790772
 10
125.821976664
 20
-108.5642962986
 10
125.8817851244
 20
-107.2824081405
 10
125.9478103426
 20
-105.7864065465
 10
126.0200486114
 20
-104.062464359
 10
126.2110061128
 20
-99.317272467
 10
126.4327159346
 20
-93.738222812
 10
126.685178077
 20
-87.4436393018
 10
126.9683925398
 20
-80.5670210031
  0
LWPOLYLINE
  5
141
330
23
100
AcDbEntity
  8
0
  6
CONTINUOUS
 62
     7
100
AcDbPolyline
 90
        4
 70
   128
 43
0.0
 10
125.7362821577
 20
-112.9836536511
 10
125.7362797267
 20
-112.9836537189
 10
125.7477988696
 20
-112.9825865054
 10
125.7502766771
 20
-112.9823610447
  0
LWPOLYLINE
  5
144
330
23
100
AcDbEntity
  8
0
  6
CONTINUOUS
 62
     7
100
AcDbPolyline
 90
        3
 70
   128
 43
0.0
 10
-124.7461372856
 20
-112.999065076
 10
-125.0210692729
 20
-112.9974865406
 10
-125.2086899933
 20
-112.9944304352
  0
LWPOLYLINE
  5
145
330
23
100
AcDbEntity
  8
0
  6
CONTINUOUS
 62
     7
100
AcDbPolyline
 90
        5
 70
   128
 43
0.0
 10
-125.1008786052
 20
-112.9979018123
 10
-125.1008785908
 20
-112.9979018125
 10
-125.1019162077
 20
-112.9978681341
 10
-125.153102229
 20
-112.9962195421
 10
-125.2086899933
 20
-112.9944304352
  0
LWPOLYLINE
  5
147
330
23
100
AcDbEntity
  8
0
  6
CONTINUOUS
 62
     7
100
AcDbPolyline
 90
        4
 70
   128
 43
0.0
 10
26.202603829
 20
-117.8626695949
 10
-47.3716538154
 20
-115.4985087442
 10
-86.9604534915
 20
-114.225097289
 10
-125.2086899933
 20
-112.9944304352
  0
LWPOLYLINE
  5
148
330
23
100
AcDbEntity
  8
0
  6
CONTINUOUS
 62
     7
100
AcDbPolyline
 90
        4
 70
   128
 43
0.0
 10
71.7043737052
 20
-117.8164294273
 10
97.7160773933
 20
-115.4963563296
 10
113.5390801432
 20
-114.0787677949
 10
125.5636062804
 20
-112.9990657488
  0
LWPOLYLINE
  5
149
330
23
100
AcDbEntity
  8
0
  6
CONTINUOUS
 62
     7
100
AcDbPolyline
 90
       15
 70
   128
 43
0.0
 10
71.7043737052
 20
-117.8164294273
 10
69.170763962
 20
-117.8102954646
 10
66.5263449158
 20
-117.8051367758
 10
63.7533661262
 20
-117.8011150147
 10
60.8922776903
 20
-117.7984898678
 10
57.5849300763
 20
-117.7973622859
 10
54.202300312
 20
-117.7982873924
 10
50.716222866
 20
-117.8013033015
 10
47.1996900145
 20
-117.8063015338
 10
43.8304238521
 20
-117.8127057672
 10
40.480928454
 20
-117.8204118855
 10
37.1276400788
 20
-117.8292169912
 10
33.8441591591
 20
-117.8386593897
 10
29.9305427576
 20
-117.8506886722
 10
26.202603829
 20
-117.8626695949
  0
LWPOLYLINE
  5
14B
330
23
100
AcDbEntity
  8
0
  6
CONTINUOUS
 62
     7
100
AcDbPolyline
 90
       12
 70
   128
 43
0.0
 10
8.7242130279
 20
-117.7869751472
 10
8.7155360975
 20
-117.7866453273
 10
9.3240482716
 20
-117.790448681
 10
10.0639831014
 20
-117.7949234973
 10
11.1045777035
 20
-117.8009409273
 10
12.3830818936
 20
-117.8079315083
 10
13.9305085037
 20
-117.8158406195
 10
15.7483789593
 20
-117.8244313028
 10
17.8399488154
 20
-117.8334834551
 10
19.7042949665
 20
-117.8408848529
 10
23.8933142102
 20
-117.8555583641
 10
26.202603829
 20
-117.8626695949
  0
LINE
  5
14E
330
23
100
AcDbEntity
  8
0
  6
CONTINUOUS
 62
     7
100
AcDbLine
 10
91.7590370844
 20
-117.2915911546
 30
0.0
 11
126.126364692
 21
-112.9682297733
 31
0.0
  0
LINE
  5
14F
330
23
100
AcDbEntity
  8
0
  6
CONTINUOUS
 62
     7
100
AcDbLine
 10
-125.1008786052
 20
-112.9979018123
 30
0.0
 11
8.7242130279
 21
-117.7869751472
 31
0.0
  0
LINE
  5
150
330
23
100
AcDbEntity
  8
0
  6
CONTINUOUS
 62
     7
100
AcDbLine
 10
8.7242130279
 20
-117.7869751472
 30
0.0
 11
9.5
 21
-118.4454345274
 31
0.0
  0
LINE
  5
151
330
23
100
AcDbEntity
  8
0
  6
CONTINUOUS
 62
     7
100
AcDbLine
 10
90.5
 20
-118.4454345274
 30
0.0
 11
91.7590370844
 21
-117.2915911546
 31
0.0
  0
LINE
  5
152
330
23
100
AcDbEntity
  8
0
  6
CONTINUOUS
 62
     7
100
AcDbLine
 10
9.5
 20
-118.4454345274
 30
0.0
 11
9.5
 21
-120.0
 31
0.0
  0
LINE
  5
153
330
23
100
AcDbEntity
  8
0
  6
CONTINUOUS
 62
     7
100
AcDbLine
 10
90.5
 20
-120.0
 30
0.0
 11
90.5
 21
-118.4454345274
 31
0.0
  0
LINE
  5
154
330
23
100
AcDbEntity
  8
0
  6
CONTINUOUS
 62
     7
100
AcDbLine
 10
137.6368695403
 20
-13.0
 30
0.0
 11
138.0
 21
0.0
 31
0.0
  0
LINE
  5
155
330
23
100
AcDbEntity
  8
0
  6
CONTINUOUS
 62
     7
100
AcDbLine
 10
-175.0
 20
-13.0
 30
0.0
 11
175.0
 21
-13.0
 31
0.0
  0
LINE
  5
156
330
23
100
AcDbEntity
  8
0
  6
CONTINUOUS
 62
     7
100
AcDbLine
 10
-138.0
 20
-13.0
 30
0.0
 11
-138.0
 21
0.0
 31
0.0
  0
LINE
  5
157
330
23
100
AcDbEntity
  8
0
  6
CONTINUOUS
 62
     7
100
AcDbLine
 10
-175.0
 20
0.0
 30
0.0
 11
175.0
 21
0.0
 31
0.0
  0
LINE
  5
158
330
23
100
AcDbEntity
  8
0
  6
CONTINUOUS
 62
     7
100
AcDbLine
 10
175.0
 20
-13.0
 30
0.0
 11
175.0
 21
0.0
 31
0.0
  0
LINE
  5
159
330
23
100
AcDbEntity
  8
0
  6
CONTINUOUS
 62
     7
100
AcDbLine
 10
-175.0
 20
-13.0
 30
0.0
 11
-175.0
 21
0.0
 31
0.0
  0
LINE
  5
15A
330
23
100
AcDbEntity
  8
0
  6
CONTINUOUS
 62
     7
100
AcDbLine
 10
166.1703638479
 20
-13.0
 30
0.0
 11
154.3789621841
 21
-87.6788772042
 31
0.0
  0
LINE
  5
15B
330
23
100
AcDbEntity
  8
0
  6
CONTINUOUS
 62
     7
100
AcDbLine
 10
126.9683925398
 20
-80.5670210031
 30
0.0
 11
137.6368695403
 21
-13.0
 31
0.0
  0
LINE
  5
15C
330
23
100
AcDbEntity
  8
0
  6
CONTINUOUS
 62
     7
100
AcDbLine
 10
-126.9683925398
 20
-80.5670210031
 30
0.0
 11
126.9683925398
 21
-80.5670210031
 31
0.0
  0
LINE
  5
15D
330
23
100
AcDbEntity
  8
0
  6
CONTINUOUS
 62
     7
100
AcDbLine
 10
-138.0
 20
-13.0
 30
0.0
 11
-126.9683925398
 21
-80.5670210031
 31
0.0
  0
LINE
  5
15E
330
23
100
AcDbEntity
  8
0
  6
CONTINUOUS
 62
     7
100
AcDbLine
 10
-154.3789621841
 20
-87.6788772042
 30
0.0
 11
-166.1703638479
 21
-13.0
 31
0.0
  0
LINE
  5
15F
330
23
100
AcDbEntity
  8
0
  6
CONTINUOUS
 62
     7
100
AcDbLine
 10
-124.7461372856
 20
-112.999065076
 30
0.0
 11
-126.9683925398
 21
-80.5670210031
 31
0.0
  0
LINE
  5
160
330
23
100
AcDbEntity
  8
0
  6
CONTINUOUS
 62
     7
100
AcDbLine
 10
9.5
 20
-118.4454345274
 30
0.0
 11
90.5
 21
-118.4454345274
 31
0.0
  0
LINE
  5
161
330
23
100
AcDbEntity
  8
0
  6
CONTINUOUS
 62
     7
100
AcDbLine
 10
9.5
 20
-120.0
 30
0.0
 11
90.5
 21
-120.0
 31
0.0
  0
ARC
  5
162
330
23
100
AcDbEntity
  8
0
  6
CONTINUOUS
 62
     7
100
AcDbCircle
 10
124.7460732242
 20
-83.0
 30
0.0
 40
30.00000000000001
100
AcDbArc
 50
271.8915033163
 51
351.0273733851
  0
ARC
  5
163
330
23
100
AcDbEntity
  8
0
  6
CONTINUOUS
 62
     7
100
AcDbCircle
 10
-124.7460732242
 20
-83.0
 30
0.0
 40
30.0
100
AcDbArc
 50
188.9726266149
 51
269.3223558392
  0
ARC
  5
164
330
23
100
AcDbEntity
  8
0
  6
CONTINUOUS
 62
     7
100
AcDbCircle
 10
72.6577721284
 20
224.2181192244
 30
0.0
 40
342.0358774163678
100
AcDbArc
 50
269.8402922612
 51
273.2012342607
  0
VIEWPORT
  5
42F
330
23
100
AcDbEntity
  8
0
100
AcDbViewport
 10
0.0
 20
0.0
 30
0.0
 40
205.6
 41
156.0
 68
     1
 69
     1
1001
ACAD
1000
MVIEW
1002
{
1070
    16
1010
0.0
1020
0.0
1030
0.0
1010
0.0
1020
0.0
1030
1.0
1040
0.0
1040
425.6614785992
1040
0.0
1040
0.0
1040
50.0
1040
0.0
1040
0.0
1070
     0
1070
   100
1070
     0
1070
     3
1070
     0
1070
     0
1070
     0
1070
     0
1040
0.0
1040
0.0
1040
0.0
1040
10.0
1040
10.0
1040
10.0
1040
10.0
1070
     0
1002
{
1002
}
1002
}
  0
ENDBLK
  5
25
330
23
100
AcDbEntity
  8
0
100
AcDbBlockEnd
  0
BLOCK
  5
167
330
165
100
AcDbEntity
  8
0
100
AcDbBlockBegin
  2
*PAPER_SPACE1
 70
     0
 10
0.0
 20
0.0
 30
0.0
  3
*PAPER_SPACE1
  1

  0
LWPOLYLINE
  5
169
330
165
100
AcDbEntity
  8
0
  6
CONTINUOUS
 62
     7
100
AcDbPolyline
 90
        3
 70
   128
 43
0.0
 10
41.19231765
 20
-117.8057510094
 10
113.0393071498
 20
-115.4386391399
 10
187.0879149885
 20
-112.9989916025
  0
LWPOLYLINE
  5
16A
330
165
100
AcDbEntity
  8
0
  6
CONTINUOUS
 62
     7
100
AcDbPolyline
 90
        3
 70
   128
 43
0.0
 10
-187.0756724619
 20
-112.999065076
 10
-113.0392836902
 20
-115.4386399178
 10
-41.186224221
 20
-117.8059517676
  0
LWPOLYLINE
  5
17A
330
165
100
AcDbEntity
  8
0
  6
CONTINUOUS
 62
     7
100
AcDbPolyline
 90
       14
 70
   128
 43
0.0
 10
-235.60754412
 20
-80.5670210031
 10
-235.2268586358
 20
-80.9500614439
 10
-234.4785742047
 20
-81.1709988816
 10
-233.3727782838
 20
-81.2268549076
 10
-231.9243778634
 20
-81.1168765391
 10
-230.1528985094
 20
-80.8425463702
 10
-228.0822211436
 20
-80.4075625852
 10
-225.7402601098
 20
-79.8177891044
 10
-223.1585868671
 20
-79.0811765337
 10
-220.372004382
 20
-78.2076549845
 10
-217.4180779568
 20
-77.2090002076
 10
-214.3366288211
 20
-76.0986748474
 10
-211.1691973094
 20
-74.8916469546
 10
-207.9584828659
 20
-73.6041882055
  0
LWPOLYLINE
  5
181
330
165
100
AcDbEntity
  8
0
  6
CONTINUOUS
 62
     7
100
AcDbPolyline
 90
       14
 70
   128
 43
0.0
 10
207.9584828659
 20
-73.6041882055
 10
211.1691973094
 20
-74.8916469546
 10
214.3366288211
 20
-76.0986748474
 10
217.4180779568
 20
-77.2090002076
 10
220.372004382
 20
-78.2076549845
 10
223.1585868671
 20
-79.0811765337
 10
225.7402601098
 20
-79.8177891044
 10
228.0822211436
 20
-80.4075625852
 10
230.1528985094
 20
-80.8425463702
 10
231.9243778634
 20
-81.1168765391
 10
233.3727782838
 20
-81.2268549076
 10
234.4785742047
 20
-81.1709988816
 10
235.2268586358
 20
-80.9500614439
 10
235.60754412
 20
-80.5670210031
  0
LWPOLYLINE
  5
184
330
165
100
AcDbEntity
  8
0
  6
CONTINUOUS
 62
     7
100
AcDbPolyline
 90
        3
 70
   128
 43
0.0
 10
-187.0756724619
 20
-112.999065076
 10
-187.1254270185
 20
-112.9974865406
 10
-187.2218096144
 20
-112.9944304352
  0
LWPOLYLINE
  5
187
330
165
100
AcDbEntity
  8
0
  6
CONTINUOUS
 62
     7
100
AcDbPolyline
 90
        3
 70
   128
 43
0.0
 10
187.0756724619
 20
-112.999065076
 10
187.1254270185
 20
-112.9974865406
 10
187.2218096148
 20
-112.9944304352
  0
LWPOLYLINE
  5
18A
330
165
100
AcDbEntity
  8
0
  6
CONTINUOUS
 62
     7
100
AcDbPolyline
 90
       10
 70
   128
 43
0.0
 10
186.7608692377
 20
-112.9979018123
 10
119.9999992231
 20
-112.9976621079
 10
80.0000004926
 20
-112.9975328862
 10
60.0000008255
 20
-112.9974809303
 10
40.0000010551
 20
-112.9974413027
 10
0.0
 20
-112.9974079527
 10
-60.0
 20
-112.9974809303
 10
-119.9999984139
 20
-112.9976621079
 10
-179.9999962089
 20
-112.9978779829
 10
-186.7608692377
 20
-112.9979018123
  0
LWPOLYLINE
  5
18B
330
165
100
AcDbEntity
  8
0
  6
CONTINUOUS
 62
     7
100
AcDbPolyline
 90
        4
 70
   128
 43
0.0
 10
-33.6254631349
 20
-117.8626695949
 10
-108.2286975459
 20
-115.4985087442
 10
-148.4028601765
 20
-114.225097289
 10
-187.2218096144
 20
-112.9944304352
  0
LWPOLYLINE
  5
18C
330
165
100
AcDbEntity
  8
0
  6
CONTINUOUS
 62
     7
100
AcDbPolyline
 90
        4
 70
   128
 43
0.0
 10
33.6254631349
 20
-117.8626695949
 10
108.2286975459
 20
-115.4985087442
 10
148.4028601765
 20
-114.225097289
 10
187.2218096148
 20
-112.9944304352
  0
LWPOLYLINE
  5
18D
330
165
100
AcDbEntity
  8
0
  6
CONTINUOUS
 62
     7
100
AcDbPolyline
 90
       21
 70
   128
 43
0.0
 10
-33.6254631349
 20
-117.8626695949
 10
-31.8563630639
 20
-117.8554777986
 10
-27.8056200576
 20
-117.8403685893
 10
-25.5387471973
 20
-117.8326189942
 10
-22.7780912961
 20
-117.8238492069
 10
-19.8394333424
 20
-117.8153602308
 10
-16.6931415901
 20
-117.8073157381
 10
-13.3999661289
 20
-117.8001627308
 10
-6.7783951454
 20
-117.7901738636
 10
-3.2984123555
 20
-117.7874799959
 10
0.2317562733
 20
-117.7866453273
 10
7.0394161271
 20
-117.790448681
 10
10.4288408987
 20
-117.7949234973
 10
13.7913143011
 20
-117.8009409273
 10
16.950933736
 20
-117.8079315083
 10
20.0145134697
 20
-117.8158406195
 10
22.968911324
 20
-117.8244313028
 10
25.7989508476
 20
-117.8334834551
 10
27.9517039485
 20
-117.8408848529
 10
31.8767485454
 20
-117.8555583641
 10
33.6254631349
 20
-117.8626695949
  0
LWPOLYLINE
  5
18E
330
165
100
AcDbEntity
  8
0
  6
CONTINUOUS
 62
     7
100
AcDbPolyline
 90
        8
 70
   128
 43
0.0
 10
41.19231765
 20
-117.8057510094
 10
41.1665549509
 20
-117.8063015338
 10
40.7901155967
 20
-117.8127057672
 10
40.1313695748
 20
-117.8204118855
 10
39.1736697249
 20
-117.8292169912
 10
37.9253867621
 20
-117.8386593897
 10
35.9914059362
 20
-117.8506886722
 10
33.6254631349
 20
-117.8626695949
  0
LWPOLYLINE
  5
18F
330
165
100
AcDbEntity
  8
0
  6
CONTINUOUS
 62
     7
100
AcDbPolyline
 90
        9
 70
   128
 43
0.0
 10
-33.6254631349
 20
-117.8626695949
 10
-35.2333363341
 20
-117.8547974875
 10
-36.6718324705
 20
-117.8467380096
 10
-37.9431264065
 20
-117.8385363731
 10
-39.0215997833
 20
-117.8304669414
 10
-39.9996231953
 20
-117.8217431176
 10
-40.7068848276
 20
-117.813819701
 10
-41.1363744444
 20
-117.8069871625
 10
-41.186224221
 20
-117.8059517676
  0
LINE
  5
193
330
165
100
AcDbEntity
  8
0
  6
CONTINUOUS
 62
     7
100
AcDbLine
 10
-41.186224221
 20
-117.8059517676
 30
0.0
 11
-40.5
 21
-118.4454345274
 31
0.0
  0
LINE
  5
194
330
165
100
AcDbEntity
  8
0
  6
CONTINUOUS
 62
     7
100
AcDbLine
 10
40.5
 20
-118.4454345274
 30
0.0
 11
41.19231765
 21
-117.8057510094
 31
0.0
  0
LINE
  5
195
330
165
100
AcDbEntity
  8
0
  6
CONTINUOUS
 62
     7
100
AcDbLine
 10
-40.5
 20
-118.4454345274
 30
0.0
 11
-40.5
 21
-120.0
 31
0.0
  0
LINE
  5
196
330
165
100
AcDbEntity
  8
0
  6
CONTINUOUS
 62
     7
100
AcDbLine
 10
40.5
 20
-120.0
 30
0.0
 11
40.5
 21
-118.4454345274
 31
0.0
  0
LINE
  5
197
330
165
100
AcDbEntity
  8
0
  6
CONTINUOUS
 62
     7
100
AcDbLine
 10
275.0
 20
-13.0
 30
0.0
 11
275.0
 21
0.0
 31
0.0
  0
LINE
  5
198
330
165
100
AcDbEntity
  8
0
  6
CONTINUOUS
 62
     7
100
AcDbLine
 10
-275.0
 20
-13.0
 30
0.0
 11
275.0
 21
-13.0
 31
0.0
  0
LINE
  5
199
330
165
100
AcDbEntity
  8
0
  6
CONTINUOUS
 62
     7
100
AcDbLine
 10
238.0
 20
-13.0
 30
0.0
 11
238.0
 21
0.0
 31
0.0
  0
LINE
  5
19A
330
165
100
AcDbEntity
  8
0
  6
CONTINUOUS
 62
     7
100
AcDbLine
 10
-275.0
 20
0.0
 30
0.0
 11
275.0
 21
0.0
 31
0.0
  0
LINE
  5
19B
330
165
100
AcDbEntity
  8
0
  6
CONTINUOUS
 62
     7
100
AcDbLine
 10
-238.0
 20
-13.0
 30
0.0
 11
-238.0
 21
0.0
 31
0.0
  0
LINE
  5
19C
330
165
100
AcDbEntity
  8
0
  6
CONTINUOUS
 62
     7
100
AcDbLine
 10
-275.0
 20
-13.0
 30
0.0
 11
-275.0
 21
0.0
 31
0.0
  0
LINE
  5
19D
330
165
100
AcDbEntity
  8
0
  6
CONTINUOUS
 62
     7
100
AcDbLine
 10
-233.4760357946
 20
-13.0
 30
0.0
 11
-207.9584828659
 21
-73.6041882055
 31
0.0
  0
LINE
  5
19E
330
165
100
AcDbEntity
  8
0
  6
CONTINUOUS
 62
     7
100
AcDbLine
 10
-235.60754412
 20
-80.5670210031
 30
0.0
 11
-264.0568161213
 21
-13.0
 31
0.0
  0
LINE
  5
19F
330
165
100
AcDbEntity
  8
0
  6
CONTINUOUS
 62
     7
100
AcDbLine
 10
207.9584828659
 20
-73.6041882055
 30
0.0
 11
233.4760357946
 21
-13.0
 31
0.0
  0
LINE
  5
1A0
330
165
100
AcDbEntity
  8
0
  6
CONTINUOUS
 62
     7
100
AcDbLine
 10
-186.7608692377
 20
-87.6788772042
 30
0.0
 11
186.7608692377
 21
-87.6788772042
 31
0.0
  0
LINE
  5
1A1
330
165
100
AcDbEntity
  8
0
  6
CONTINUOUS
 62
     7
100
AcDbLine
 10
264.0568161213
 20
-13.0
 30
0.0
 11
235.60754412
 21
-80.5670210031
 31
0.0
  0
LINE
  5
1A2
330
165
100
AcDbEntity
  8
0
  6
CONTINUOUS
 62
     7
100
AcDbLine
 10
-186.7608692377
 20
-87.6788772042
 30
0.0
 11
-186.7608692377
 21
-112.9979018123
 31
0.0
  0
LINE
  5
1A3
330
165
100
AcDbEntity
  8
0
  6
CONTINUOUS
 62
     7
100
AcDbLine
 10
186.7608692377
 20
-112.9979018123
 30
0.0
 11
186.7608692377
 21
-87.6788772042
 31
0.0
  0
LINE
  5
1A4
330
165
100
AcDbEntity
  8
0
  6
CONTINUOUS
 62
     7
100
AcDbLine
 10
-40.5
 20
-118.4454345274
 30
0.0
 11
40.5
 21
-118.4454345274
 31
0.0
  0
LINE
  5
1A5
330
165
100
AcDbEntity
  8
0
  6
CONTINUOUS
 62
     7
100
AcDbLine
 10
-40.5
 20
-120.0
 30
0.0
 11
40.5
 21
-120.0
 31
0.0
  0
ARC
  5
1A6
330
165
100
AcDbEntity
  8
0
  6
CONTINUOUS
 62
     7
100
AcDbCircle
 10
186.7608692377
 20
-64.6788772042
 30
0.0
 40
23.00000000000006
100
AcDbArc
 50
270.0
 51
337.1663458221
  0
ARC
  5
1A7
330
165
100
AcDbEntity
  8
0
  6
CONTINUOUS
 62
     7
100
AcDbCircle
 10
-186.7608692377
 20
-64.6788772042
 30
0.0
 40
23.00000000000006
100
AcDbArc
 50
202.8336541779
 51
270.0
  0
ARC
  5
1A8
330
165
100
AcDbEntity
  8
0
  6
CONTINUOUS
 62
     7
100
AcDbCircle
 10
-186.7698540369
 20
-83.5866395813
 30
0.0
 40
29.41126360339348
100
AcDbArc
 50
269.1195153425
 51
270.0175031949
  0
ARC
  5
1A9
330
165
100
AcDbEntity
  8
0
  6
CONTINUOUS
 62
     7
100
AcDbCircle
 10
-186.7608692377
 20
-60.0
 30
0.0
 40
53.00000000000002
100
AcDbArc
 50
202.8336541779
 51
269.6596792042
  0
ARC
  5
1AA
330
165
100
AcDbEntity
  8
0
  6
CONTINUOUS
 62
     7
100
AcDbCircle
 10
186.7608692377
 20
-60.0
 30
0.0
 40
53.00000000000013
100
AcDbArc
 50
270.3403207958
 51
337.1663458221
  0
ARC
  5
1AB
330
165
100
AcDbEntity
  8
0
  6
CONTINUOUS
 62
     7
100
AcDbCircle
 10
186.7698540342
 20
-83.586639229
 30
0.0
 40
29.41126395568758
100
AcDbArc
 50
269.9824968105
 51
270.880484653
  0
VIEWPORT
  5
431
330
165
100
AcDbEntity
  8
0
100
AcDbViewport
 10
0.0
 20
0.0
 30
0.0
 40
205.6
 41
156.0
 68
     1
 69
     1
1001
ACAD
1000
MVIEW
1002
{
1070
    16
1010
0.0
1020
0.0
1030
0.0
1010
0.0
1020
0.0
1030
1.0
1040
0.0
1040
425.6614785992
1040
0.0
1040
0.0
1040
50.0
1040
0.0
1040
0.0
1070
     0
1070
   100
1070
     0
1070
     3
1070
     0
1070
     0
1070
     0
1070
     0
1040
0.0
1040
0.0
1040
0.0
1040
10.0
1040
10.0
1040
10.0
1040
10.0
1070
     0
1002
{
1002
}
1002
}
  0
ENDBLK
  5
168
330
165
100
AcDbEntity
  8
0
100
AcDbBlockEnd
  0
BLOCK
  5
1AE
330
1AC
100
AcDbEntity
  8
0
100
AcDbBlockBegin
  2
*PAPER_SPACE2
 70
     0
 10
0.0
 20
0.0
 30
0.0
  3
*PAPER_SPACE2
  1

  0
LWPOLYLINE
  5
1B0
330
1AC
100
AcDbEntity
  8
0
  6
CONTINUOUS
 62
     7
100
AcDbPolyline
 90
        3
 70
   128
 43
0.0
 10
-187.0879149667
 20
-112.998990942
 10
-113.0393071498
 20
-115.4386391399
 10
-41.19231765
 20
-117.8057510094
  0
LWPOLYLINE
  5
1B1
330
1AC
100
AcDbEntity
  8
0
  6
CONTINUOUS
 62
     7
100
AcDbPolyline
 90
        3
 70
   128
 43
0.0
 10
41.253583281
 20
-117.8022492644
 10
113.0392836902
 20
-115.4386399178
 10
187.0879308588
 20
-112.9989910797
  0
LWPOLYLINE
  5
1C5
330
1AC
100
AcDbEntity
  8
0
  6
CONTINUOUS
 62
     7
100
AcDbPolyline
 90
       14
 70
   128
 43
0.0
 10
-235.60754412
 20
-80.5670210031
 10
-235.2268586358
 20
-80.9500614439
 10
-234.4785742047
 20
-81.1709988816
 10
-233.3727782838
 20
-81.2268549076
 10
-231.9243778634
 20
-81.1168765391
 10
-230.1528985094
 20
-80.8425463702
 10
-228.0822211436
 20
-80.4075625852
 10
-225.7402601098
 20
-79.8177891044
 10
-223.1585868671
 20
-79.0811765337
 10
-220.372004382
 20
-78.2076549845
 10
-217.4180779568
 20
-77.2090002076
 10
-214.3366288211
 20
-76.0986748474
 10
-211.1691973094
 20
-74.8916469546
 10
-207.9584828659
 20
-73.6041882055
  0
LWPOLYLINE
  5
1C8
330
1AC
100
AcDbEntity
  8
0
  6
CONTINUOUS
 62
     7
100
AcDbPolyline
 90
       14
 70
   128
 43
0.0
 10
207.9584828659
 20
-73.6041882055
 10
211.1691973094
 20
-74.8916469546
 10
214.3366288211
 20
-76.0986748474
 10
217.4180779568
 20
-77.2090002076
 10
220.372004382
 20
-78.2076549845
 10
223.1585868671
 20
-79.0811765337
 10
225.7402601098
 20
-79.8177891044
 10
228.0822211436
 20
-80.4075625852
 10
230.1528985094
 20
-80.8425463702
 10
231.9243778634
 20
-81.1168765391
 10
233.3727782838
 20
-81.2268549076
 10
234.4785742047
 20
-81.1709988816
 10
235.2268586358
 20
-80.9500614439
 10
235.60754412
 20
-80.5670210031
  0
LWPOLYLINE
  5
1CF
330
1AC
100
AcDbEntity
  8
0
  6
CONTINUOUS
 62
     7
100
AcDbPolyline
 90
       10
 70
   128
 43
0.0
 10
186.7608692377
 20
-112.9836536511
 10
182.3055598803
 20
-112.9833095278
 10
122.3057577213
 20
-112.9777516562
 10
61.1529945872
 20
-112.9713756641
 10
30.5765317711
 20
-112.9690843123
 10
0.0
 20
-112.9682297659
 10
-30.0
 20
-112.9690532715
 10
-58.1959069773
 20
-112.9711076678
 10
-118.7828663282
 20
-112.9773807113
 10
-186.7608692377
 20
-112.9836536511
  0
LWPOLYLINE
  5
1D0
330
1AC
100
AcDbEntity
  8
0
  6
CONTINUOUS
 62
     7
100
AcDbPolyline
 90
        4
 70
   128
 43
0.0
 10
-35.0777883703
 20
-117.8164294273
 10
-108.2823181994
 20
-115.4963563296
 10
-153.0123187842
 20
-114.0787677949
 10
-187.0755591655
 20
-112.9990657488
  0
LWPOLYLINE
  5
1D1
330
1AC
100
AcDbEntity
  8
0
  6
CONTINUOUS
 62
     7
100
AcDbPolyline
 90
        6
 70
   128
 43
0.0
 10
187.0755591655
 20
-112.9990657488
 10
152.218969162
 20
-114.1039130342
 10
108.2823181994
 20
-115.4963563296
 10
63.5698351408
 20
-116.9131641999
 10
40.4233222766
 20
-117.6468438545
 10
35.0777883703
 20
-117.8164294273
  0
LWPOLYLINE
  5
1D2
330
1AC
100
AcDbEntity
  8
0
  6
CONTINUOUS
 62
     7
100
AcDbPolyline
 90
       14
 70
   128
 43
0.0
 10
35.0777883703
 20
-117.8164294273
 10
31.6982261485
 20
-117.7694952388
 10
27.6066838411
 20
-117.70397938
 10
22.0670657471
 20
-117.5993416791
 10
15.9158590214
 20
-117.4715080979
 10
9.5451030453
 20
-117.3534193766
 10
2.6928177502
 20
-117.2810507593
 10
-3.9133426473
 20
-117.2883651675
 10
-10.6025954572
 20
-117.3705249238
 10
-16.6341186787
 20
-117.4863616465
 10
-22.3844536755
 20
-117.6057522034
 10
-27.7903601745
 20
-117.7071445741
 10
-31.7063569798
 20
-117.7696152981
 10
-35.0777883703
 20
-117.8164294273
  0
LWPOLYLINE
  5
1D3
330
1AC
100
AcDbEntity
  8
0
  6
CONTINUOUS
 62
     7
100
AcDbPolyline
 90
        9
 70
   128
 43
0.0
 10
-35.0777883703
 20
-117.8164294273
 10
-36.53239687
 20
-117.8102954646
 10
-37.8090129369
 20
-117.8051367758
 10
-38.9086368599
 20
-117.8011150147
 10
-39.8077079722
 20
-117.7984898678
 10
-40.5693860533
 20
-117.7973622859
 10
-41.0567402125
 20
-117.7982873924
 10
-41.261430012
 20
-117.8013033015
 10
-41.2421133767
 20
-117.8023209455
  0
LWPOLYLINE
  5
1D4
330
1AC
100
AcDbEntity
  8
0
  6
CONTINUOUS
 62
     7
100
AcDbPolyline
 90
        3
 70
   128
 43
0.0
 10
-187.0755591655
 20
-112.9990657488
 10
-187.0788030851
 20
-112.9990463883
 10
-187.0879149667
 20
-112.998990942
  0
LWPOLYLINE
  5
1D5
330
1AC
100
AcDbEntity
  8
0
  6
CONTINUOUS
 62
     7
100
AcDbPolyline
 90
        8
 70
   128
 43
0.0
 10
41.253583281
 20
-117.8022492644
 10
41.265761539
 20
-117.8017569863
 10
41.1021270663
 20
-117.7985771091
 10
40.6531727582
 20
-117.7973667449
 10
39.9029807001
 20
-117.798272438
 10
38.8550066395
 20
-117.8012956893
 10
37.1837268147
 20
-117.8076210268
 10
35.0777883703
 20
-117.8164294273
  0
LWPOLYLINE
  5
1D6
330
1AC
100
AcDbEntity
  8
0
  6
CONTINUOUS
 62
     7
100
AcDbPolyline
 90
        4
 70
   128
 43
0.0
 10
187.0879308588
 20
-112.9989910797
 10
187.0879395854
 20
-112.9989907922
 10
187.0788030851
 20
-112.9990463883
 10
187.0755591655
 20
-112.9990657488
  0
LINE
  5
1DA
330
1AC
100
AcDbEntity
  8
0
  6
CONTINUOUS
 62
     7
100
AcDbLine
 10
-41.2421133767
 20
-117.8023209455
 30
0.0
 11
-40.5
 21
-118.4454345274
 31
0.0
  0
LINE
  5
1DB
330
1AC
100
AcDbEntity
  8
0
  6
CONTINUOUS
 62
     7
100
AcDbLine
 10
40.5
 20
-118.4454345274
 30
0.0
 11
41.253583281
 21
-117.8022492644
 31
0.0
  0
LINE
  5
1DC
330
1AC
100
AcDbEntity
  8
0
  6
CONTINUOUS
 62
     7
100
AcDbLine
 10
-40.5
 20
-118.4454345274
 30
0.0
 11
-40.5
 21
-120.0
 31
0.0
  0
LINE
  5
1DD
330
1AC
100
AcDbEntity
  8
0
  6
CONTINUOUS
 62
     7
100
AcDbLine
 10
40.5
 20
-120.0
 30
0.0
 11
40.5
 21
-118.4454345274
 31
0.0
  0
LINE
  5
1DE
330
1AC
100
AcDbEntity
  8
0
  6
CONTINUOUS
 62
     7
100
AcDbLine
 10
-238.0
 20
-13.0
 30
0.0
 11
-238.0
 21
0.0
 31
0.0
  0
LINE
  5
1DF
330
1AC
100
AcDbEntity
  8
0
  6
CONTINUOUS
 62
     7
100
AcDbLine
 10
-275.0
 20
-13.0
 30
0.0
 11
-275.0
 21
0.0
 31
0.0
  0
LINE
  5
1E0
330
1AC
100
AcDbEntity
  8
0
  6
CONTINUOUS
 62
     7
100
AcDbLine
 10
-275.0
 20
-13.0
 30
0.0
 11
275.0
 21
-13.0
 31
0.0
  0
LINE
  5
1E1
330
1AC
100
AcDbEntity
  8
0
  6
CONTINUOUS
 62
     7
100
AcDbLine
 10
-275.0
 20
0.0
 30
0.0
 11
275.0
 21
0.0
 31
0.0
  0
LINE
  5
1E2
330
1AC
100
AcDbEntity
  8
0
  6
CONTINUOUS
 62
     7
100
AcDbLine
 10
238.0
 20
-13.0
 30
0.0
 11
238.0
 21
0.0
 31
0.0
  0
LINE
  5
1E3
330
1AC
100
AcDbEntity
  8
0
  6
CONTINUOUS
 62
     7
100
AcDbLine
 10
275.0
 20
-13.0
 30
0.0
 11
275.0
 21
0.0
 31
0.0
  0
LINE
  5
1E4
330
1AC
100
AcDbEntity
  8
0
  6
CONTINUOUS
 62
     7
100
AcDbLine
 10
207.9584828659
 20
-73.6041882055
 30
0.0
 11
233.4760357946
 21
-13.0
 31
0.0
  0
LINE
  5
1E5
330
1AC
100
AcDbEntity
  8
0
  6
CONTINUOUS
 62
     7
100
AcDbLine
 10
-186.7608692377
 20
-87.6788772042
 30
0.0
 11
186.7608692377
 21
-87.6788772042
 31
0.0
  0
LINE
  5
1E6
330
1AC
100
AcDbEntity
  8
0
  6
CONTINUOUS
 62
     7
100
AcDbLine
 10
-233.4760357946
 20
-13.0
 30
0.0
 11
-207.9584828659
 21
-73.6041882055
 31
0.0
  0
LINE
  5
1E7
330
1AC
100
AcDbEntity
  8
0
  6
CONTINUOUS
 62
     7
100
AcDbLine
 10
-235.60754412
 20
-80.5670210031
 30
0.0
 11
-264.0568161213
 21
-13.0
 31
0.0
  0
LINE
  5
1E8
330
1AC
100
AcDbEntity
  8
0
  6
CONTINUOUS
 62
     7
100
AcDbLine
 10
264.0568161213
 20
-13.0
 30
0.0
 11
235.60754412
 21
-80.5670210031
 31
0.0
  0
LINE
  5
1E9
330
1AC
100
AcDbEntity
  8
0
  6
CONTINUOUS
 62
     7
100
AcDbLine
 10
186.7608692377
 20
-112.9836536511
 30
0.0
 11
186.7608692377
 21
-87.6788772042
 31
0.0
  0
LINE
  5
1EA
330
1AC
100
AcDbEntity
  8
0
  6
CONTINUOUS
 62
     7
100
AcDbLine
 10
-186.7608692377
 20
-87.6788772042
 30
0.0
 11
-186.7608692377
 21
-112.9836536511
 31
0.0
  0
LINE
  5
1EB
330
1AC
100
AcDbEntity
  8
0
  6
CONTINUOUS
 62
     7
100
AcDbLine
 10
-40.5
 20
-118.4454345274
 30
0.0
 11
40.5
 21
-118.4454345274
 31
0.0
  0
LINE
  5
1EC
330
1AC
100
AcDbEntity
  8
0
  6
CONTINUOUS
 62
     7
100
AcDbLine
 10
-40.5
 20
-120.0
 30
0.0
 11
40.5
 21
-120.0
 31
0.0
  0
ARC
  5
1ED
330
1AC
100
AcDbEntity
  8
0
  6
CONTINUOUS
 62
     7
100
AcDbCircle
 10
186.7608692377
 20
-64.6788772042
 30
0.0
 40
22.99999999999997
100
AcDbArc
 50
270.0
 51
337.1663458221
  0
ARC
  5
1EE
330
1AC
100
AcDbEntity
  8
0
  6
CONTINUOUS
 62
     7
100
AcDbCircle
 10
-186.7608692377
 20
-64.6788772042
 30
0.0
 40
23.0000000000001
100
AcDbArc
 50
202.8336541779
 51
270.0
  0
ARC
  5
1EF
330
1AC
100
AcDbEntity
  8
0
  6
CONTINUOUS
 62
     7
100
AcDbCircle
 10
186.7608692377
 20
-60.0
 30
0.0
 40
53.00000000000004
100
AcDbArc
 50
270.3401983143
 51
337.1663458221
  0
ARC
  5
1F0
330
1AC
100
AcDbEntity
  8
0
  6
CONTINUOUS
 62
     7
100
AcDbCircle
 10
186.7639475213
 20
-79.7057369248
 30
0.0
 40
33.27791686870294
100
AcDbArc
 50
269.9947000091
 51
270.5050309891
  0
ARC
  5
1F1
330
1AC
100
AcDbEntity
  8
0
  6
CONTINUOUS
 62
     7
100
AcDbCircle
 10
-188.5460475923
 20
-79.7536538189
 30
0.0
 40
33.2779168609158
100
AcDbArc
 50
272.5326171607
 51
273.0750814961
  0
ARC
  5
1F2
330
1AC
100
AcDbEntity
  8
0
  6
CONTINUOUS
 62
     7
100
AcDbCircle
 10
-186.7608692377
 20
-60.0
 30
0.0
 40
53.0000000000001
100
AcDbArc
 50
202.8336541779
 51
269.6598016188
  0
VIEWPORT
  5
433
330
1AC
100
AcDbEntity
  8
0
100
AcDbViewport
 10
0.0
 20
0.0
 30
0.0
 40
205.6
 41
156.0
 68
     1
 69
     1
1001
ACAD
1000
MVIEW
1002
{
1070
    16
1010
0.0
1020
0.0
1030
0.0
1010
0.0
1020
0.0
1030
1.0
1040
0.0
1040
425.6614785992
1040
0.0
1040
0.0
1040
50.0
1040
0.0
1040
0.0
1070
     0
1070
   100
1070
     0
1070
     3
1070
     0
1070
     0
1070
     0
1070
     0
1040
0.0
1040
0.0
1040
0.0
1040
10.0
1040
10.0
1040
10.0
1040
10.0
1070
     0
1002
{
1002
}
1002
}
  0
ENDBLK
  5
1AF
330
1AC
100
AcDbEntity
  8
0
100
AcDbBlockEnd
  0
BLOCK
  5
1F5
330
1F3
100
AcDbEntity
  8
0
100
AcDbBlockBegin
  2
*PAPER_SPACE3
 70
     0
 10
0.0
 20
0.0
 30
0.0
  3
*PAPER_SPACE3
  1

  0
LWPOLYLINE
  5
20A
330
1F3
100
AcDbEntity
  8
0
  6
CONTINUOUS
 62
     7
100
AcDbPolyline
 90
       14
 70
   128
 43
0.0
 10
-156.6012814997
 20
-73.6041882055
 10
-156.1932817279
 20
-74.8916469546
 10
-155.3913076842
 20
-76.0986748474
 10
-154.2061706035
 20
-77.2090002076
 10
-152.6538470569
 20
-78.2076549845
 10
-150.7552635749
 20
-79.0811765337
 10
-148.5360145418
 20
-79.8177891044
 10
-146.0260171634
 20
-80.4075625852
 10
-143.2591081596
 20
-80.8425463702
 10
-140.2725876191
 20
-81.1168765391
 10
-137.1067161653
 20
-81.2268549076
 10
-133.8041722114
 20
-81.1709988816
 10
-130.4094766226
 20
-80.9500614439
 10
-126.9683925398
 20
-80.5670210031
  0
LWPOLYLINE
  5
20D
330
1F3
100
AcDbEntity
  8
0
  6
CONTINUOUS
 62
     7
100
AcDbPolyline
 90
       14
 70
   128
 43
0.0
 10
126.9683925398
 20
-80.5670210031
 10
130.4094766226
 20
-80.9500614439
 10
133.8041722114
 20
-81.1709988816
 10
137.1067161653
 20
-81.2268549076
 10
140.2725876191
 20
-81.1168765391
 10
143.2591081596
 20
-80.8425463702
 10
146.0260171634
 20
-80.4075625852
 10
148.5360145418
 20
-79.8177891044
 10
150.7552635749
 20
-79.0811765337
 10
152.6538470569
 20
-78.2076549845
 10
154.2061706035
 20
-77.2090002076
 10
155.3913076842
 20
-76.0986748474
 10
156.1932817279
 20
-74.8916469546
 10
156.6012814997
 20
-73.6041882055
  0
LWPOLYLINE
  5
20E
330
1F3
100
AcDbEntity
  8
0
  6
CONTINUOUS
 62
     7
100
AcDbPolyline
 90
       14
 70
   128
 43
0.0
 10
-125.5636062804
 20
-112.9990657488
 10
-125.5773947969
 20
-112.8304093972
 10
-125.6162130846
 20
-112.2942965097
 10
-125.6799094841
 20
-111.2729074374
 10
-125.7210869758
 20
-110.5415456669
 10
-125.7684839955
 20
-109.6420508619
 10
-125.8221005431
 20
-108.5587405082
 10
-125.8819366186
 20
-107.2762693216
 10
-125.9479922221
 20
-105.7798905316
 10
-126.0199616006
 20
-104.0632258185
 10
-126.2110684828
 20
-99.3179616116
 10
-126.4328426
 20
-93.7387511991
 10
-126.6852839524
 20
-87.4439323715
 10
-126.9683925398
 20
-80.5670210031
  0
LWPOLYLINE
  5
20F
330
1F3
100
AcDbEntity
  8
0
  6
CONTINUOUS
 62
     7
100
AcDbPolyline
 90
        4
 70
   128
 43
0.0
 10
-125.7362821577
 20
-112.9836536511
 10
-125.7362797267
 20
-112.9836537189
 10
-125.7477988696
 20
-112.9825865054
 10
-125.7502766771
 20
-112.9823610447
  0
LWPOLYLINE
  5
212
330
1F3
100
AcDbEntity
  8
0
  6
CONTINUOUS
 62
     7
100
AcDbPolyline
 90
        5
 70
   128
 43
0.0
 10
124.7461372855
 20
-112.999065076
 10
106.0000000657
 20
-112.9990465443
 10
0.000000034
 20
-112.9989907922
 10
-105.9999999675
 20
-112.9990463883
 10
-125.5636062804
 20
-112.9990657488
  0
LWPOLYLINE
  5
215
330
1F3
100
AcDbEntity
  8
0
  6
CONTINUOUS
 62
     7
100
AcDbPolyline
 90
        5
 70
   128
 43
0.0
 10
125.1008786052
 20
-112.9979018123
 10
125.1008785908
 20
-112.9979018125
 10
125.1019162077
 20
-112.9978681341
 10
125.153102229
 20
-112.9962195421
 10
125.2086899931
 20
-112.9944304352
  0
LWPOLYLINE
  5
216
330
1F3
100
AcDbEntity
  8
0
  6
CONTINUOUS
 62
     7
100
AcDbPolyline
 90
        3
 70
   128
 43
0.0
 10
124.7461372855
 20
-112.999065076
 10
125.0210692728
 20
-112.9974865406
 10
125.2086899931
 20
-112.9944304352
  0
LWPOLYLINE
  5
218
330
1F3
100
AcDbEntity
  8
0
  6
CONTINUOUS
 62
     7
100
AcDbPolyline
 90
        6
 70
   128
 43
0.0
 10
-125.5636062804
 20
-112.9990657488
 10
-113.2588015656
 20
-114.1039130342
 10
-97.7160773933
 20
-115.4963563296
 10
-81.8435604776
 20
-116.9131641999
 10
-73.6052208602
 20
-117.6468438545
 10
-71.7043737052
 20
-117.8164294273
  0
LWPOLYLINE
  5
219
330
1F3
100
AcDbEntity
  8
0
  6
CONTINUOUS
 62
     7
100
AcDbPolyline
 90
        8
 70
   128
 43
0.0
 10
-71.7043737052
 20
-117.8164294273
 10
-76.4834131847
 20
-117.7694952388
 10
-80.8297906449
 20
-117.70397938
 10
-85.1565984799
 20
-117.5993416791
 10
-88.500619689
 20
-117.4715080979
 10
-90.6970408618
 20
-117.3534193766
 10
-91.8010127918
 20
-117.2810507593
 10
-91.7590370844
 20
-117.2915911546
  0
LWPOLYLINE
  5
21A
330
1F3
100
AcDbEntity
  8
0
  6
CONTINUOUS
 62
     7
100
AcDbPolyline
 90
        4
 70
   128
 43
0.0
 10
-26.202603829
 20
-117.8626695949
 10
47.3716538154
 20
-115.4985087442
 10
86.9604534915
 20
-114.225097289
 10
125.2086899931
 20
-112.9944304352
  0
LWPOLYLINE
  5
21B
330
1F3
100
AcDbEntity
  8
0
  6
CONTINUOUS
 62
     7
100
AcDbPolyline
 90
       15
 70
   128
 43
0.0
 10
-26.202603829
 20
-117.8626695949
 10
-28.6371145155
 20
-117.8547974875
 10
-31.1923106022
 20
-117.8467380096
 10
-33.8854910119
 20
-117.8385363731
 10
-36.6783651873
 20
-117.8304669414
 10
-39.9481930099
 20
-117.8217431176
 10
-43.3114129101
 20
-117.813819701
 10
-46.7971495686
 20
-117.8069871625
 10
-50.3329887523
 20
-117.8017569863
 10
-53.7285246431
 20
-117.7985771091
 10
-57.1221734784
 20
-117.7973667449
 10
-60.5389205854
 20
-117.798272438
 10
-63.9035171675
 20
-117.8012956893
 10
-67.882048996
 20
-117.8076210268
 10
-71.7043737052
 20
-117.8164294273
  0
LWPOLYLINE
  5
21C
330
1F3
100
AcDbEntity
  8
0
  6
CONTINUOUS
 62
     7
100
AcDbPolyline
 90
       11
 70
   128
 43
0.0
 10
-26.202603829
 20
-117.8626695949
 10
-23.8682915742
 20
-117.8554777986
 10
-19.5693293989
 20
-117.8403685893
 10
-17.631618815
 20
-117.8326189942
 10
-15.6203518571
 20
-117.8238492069
 10
-13.833259986
 20
-117.8153602308
 10
-12.2671726032
 20
-117.8073157381
 10
-10.9670436691
 20
-117.8001627308
 10
-9.2794053608
 20
-117.7901738636
 10
-8.8478553
 20
-117.7874799959
 10
-8.7242228681
 20
-117.7867001234
  0
LINE
  5
21F
330
1F3
100
AcDbEntity
  8
0
  6
CONTINUOUS
 62
     7
100
AcDbLine
 10
-125.7502766771
 20
-112.9823610447
 30
0.0
 11
-91.7590370844
 21
-117.2915911546
 31
0.0
  0
LINE
  5
220
330
1F3
100
AcDbEntity
  8
0
  6
CONTINUOUS
 62
     7
100
AcDbLine
 10
-8.7242228681
 20
-117.7867001234
 30
0.0
 11
125.1404285469
 21
-112.9974079527
 31
0.0
  0
LINE
  5
221
330
1F3
100
AcDbEntity
  8
0
  6
CONTINUOUS
 62
     7
100
AcDbLine
 10
-91.7590370844
 20
-117.2915911546
 30
0.0
 11
-90.5
 21
-118.4454345274
 31
0.0
  0
LINE
  5
222
330
1F3
100
AcDbEntity
  8
0
  6
CONTINUOUS
 62
     7
100
AcDbLine
 10
-9.5
 20
-118.4454345274
 30
0.0
 11
-8.7203887745
 21
-117.7912630356
 31
0.0
  0
LINE
  5
223
330
1F3
100
AcDbEntity
  8
0
  6
CONTINUOUS
 62
     7
100
AcDbLine
 10
-90.5
 20
-118.4454345274
 30
0.0
 11
-90.5
 21
-120.0
 31
0.0
  0
LINE
  5
224
330
1F3
100
AcDbEntity
  8
0
  6
CONTINUOUS
 62
     7
100
AcDbLine
 10
-9.5
 20
-120.0
 30
0.0
 11
-9.5
 21
-118.4454345274
 31
0.0
  0
LINE
  5
225
330
1F3
100
AcDbEntity
  8
0
  6
CONTINUOUS
 62
     7
100
AcDbLine
 10
138.0
 20
-13.0
 30
0.0
 11
138.0
 21
0.0
 31
0.0
  0
LINE
  5
226
330
1F3
100
AcDbEntity
  8
0
  6
CONTINUOUS
 62
     7
100
AcDbLine
 10
-175.0
 20
-13.0
 30
0.0
 11
175.0
 21
-13.0
 31
0.0
  0
LINE
  5
227
330
1F3
100
AcDbEntity
  8
0
  6
CONTINUOUS
 62
     7
100
AcDbLine
 10
-138.0
 20
-13.0
 30
0.0
 11
-138.0
 21
0.0
 31
0.0
  0
LINE
  5
228
330
1F3
100
AcDbEntity
  8
0
  6
CONTINUOUS
 62
     7
100
AcDbLine
 10
-175.0
 20
0.0
 30
0.0
 11
175.0
 21
0.0
 31
0.0
  0
LINE
  5
229
330
1F3
100
AcDbEntity
  8
0
  6
CONTINUOUS
 62
     7
100
AcDbLine
 10
-175.0
 20
-13.0
 30
0.0
 11
-175.0
 21
0.0
 31
0.0
  0
LINE
  5
22A
330
1F3
100
AcDbEntity
  8
0
  6
CONTINUOUS
 62
     7
100
AcDbLine
 10
175.0
 20
-13.0
 30
0.0
 11
175.0
 21
0.0
 31
0.0
  0
LINE
  5
22B
330
1F3
100
AcDbEntity
  8
0
  6
CONTINUOUS
 62
     7
100
AcDbLine
 10
126.9683925398
 20
-80.5670210031
 30
0.0
 11
138.0
 21
-13.0
 31
0.0
  0
LINE
  5
22C
330
1F3
100
AcDbEntity
  8
0
  6
CONTINUOUS
 62
     7
100
AcDbLine
 10
-126.9683925398
 20
-80.5670210031
 30
0.0
 11
126.9683925398
 21
-80.5670210031
 31
0.0
  0
LINE
  5
22D
330
1F3
100
AcDbEntity
  8
0
  6
CONTINUOUS
 62
     7
100
AcDbLine
 10
-138.0
 20
-13.0
 30
0.0
 11
-126.9683925398
 21
-80.5670210031
 31
0.0
  0
LINE
  5
22E
330
1F3
100
AcDbEntity
  8
0
  6
CONTINUOUS
 62
     7
100
AcDbLine
 10
-154.3789621841
 20
-87.6788772042
 30
0.0
 11
-166.1703638479
 21
-13.0
 31
0.0
  0
LINE
  5
22F
330
1F3
100
AcDbEntity
  8
0
  6
CONTINUOUS
 62
     7
100
AcDbLine
 10
166.1703638479
 20
-13.0
 30
0.0
 11
154.3789621841
 21
-87.6788772042
 31
0.0
  0
LINE
  5
230
330
1F3
100
AcDbEntity
  8
0
  6
CONTINUOUS
 62
     7
100
AcDbLine
 10
124.7461372855
 20
-112.999065076
 30
0.0
 11
126.9683925398
 21
-80.5670210031
 31
0.0
  0
LINE
  5
231
330
1F3
100
AcDbEntity
  8
0
  6
CONTINUOUS
 62
     7
100
AcDbLine
 10
-90.5
 20
-118.4454345274
 30
0.0
 11
-9.5
 21
-118.4454345274
 31
0.0
  0
LINE
  5
232
330
1F3
100
AcDbEntity
  8
0
  6
CONTINUOUS
 62
     7
100
AcDbLine
 10
-90.5
 20
-120.0
 30
0.0
 11
-9.5
 21
-120.0
 31
0.0
  0
ARC
  5
233
330
1F3
100
AcDbEntity
  8
0
  6
CONTINUOUS
 62
     7
100
AcDbCircle
 10
-124.7460732242
 20
-83.0
 30
0.0
 40
30.00000000000002
100
AcDbArc
 50
188.9726266149
 51
268.1084966837
  0
ARC
  5
234
330
1F3
100
AcDbEntity
  8
0
  6
CONTINUOUS
 62
     7
100
AcDbCircle
 10
124.7460732242
 20
-83.0
 30
0.0
 40
29.99999999999993
100
AcDbArc
 50
270.6776441608
 51
351.0273733851
  0
VIEWPORT
  5
435
330
1F3
100
AcDbEntity
  8
0
100
AcDbViewport
 10
0.0
 20
0.0
 30
0.0
 40
205.6
 41
156.0
 68
     1
 69
     1
1001
ACAD
1000
MVIEW
1002
{
1070
    16
1010
0.0
1020
0.0
1030
0.0
1010
0.0
1020
0.0
1030
1.0
1040
0.0
1040
425.6614785992
1040
0.0
1040
0.0
1040
50.0
1040
0.0
1040
0.0
1070
     0
1070
   100
1070
     0
1070
     3
1070
     0
1070
     0
1070
     0
1070
     0
1040
0.0
1040
0.0
1040
0.0
1040
10.0
1040
10.0
1040
10.0
1040
10.0
1070
     0
1002
{
1002
}
1002
}
  0
ENDBLK
  5
1F6
330
1F3
100
AcDbEntity
  8
0
100
AcDbBlockEnd
  0
BLOCK
  5
237
330
235
100
AcDbEntity
  8
0
100
AcDbBlockBegin
  2
*PAPER_SPACE4
 70
     0
 10
0.0
 20
0.0
 30
0.0
  3
*PAPER_SPACE4
  1

  0
LWPOLYLINE
  5
23B
330
235
100
AcDbEntity
  8
0
  6
CONTINUOUS
 62
     7
100
AcDbPolyline
 90
       14
 70
   128
 43
0.0
 10
-35.0777883703
 20
-71.7043737052
 10
-31.6982261485
 20
-76.4834131847
 10
-27.6066838411
 20
-80.8297906449
 10
-22.0670657471
 20
-85.1565984799
 10
-15.9158590214
 20
-88.500619689
 10
-9.5451030453
 20
-90.6970408618
 10
-2.6928177502
 20
-91.8010127918
 10
3.9133426473
 20
-91.69570117
 10
10.6025954572
 20
-90.4133544593
 10
16.6341186787
 20
-88.1764817448
 10
22.3844536755
 20
-84.9462998258
 10
27.7903601745
 20
-80.6592346693
 10
31.7063569798
 20
-76.4734550423
 10
35.0777883703
 20
-71.7043737052
  0
LWPOLYLINE
  5
23D
330
235
100
AcDbEntity
  8
0
  6
CONTINUOUS
 62
     7
100
AcDbPolyline
 90
        6
 70
   128
 43
0.0
 10
-187.0755591655
 20
-125.5636062804
 10
-152.218969162
 20
-113.2588015656
 10
-108.2823181994
 20
-97.7160773933
 10
-63.5698351408
 20
-81.8435604776
 10
-40.4233222766
 20
-73.6052208602
 10
-35.0777883703
 20
-71.7043737052
  0
LWPOLYLINE
  5
23E
330
235
100
AcDbEntity
  8
0
  6
CONTINUOUS
 62
     7
100
AcDbPolyline
 90
        5
 70
   128
 43
0.0
 10
-187.0756724619
 20
124.7461372855
 10
-187.0787770717
 20
106.0000000657
 10
-187.0879395854
 20
0.000000034
 10
-187.0788030851
 20
-105.9999999675
 10
-187.0755591655
 20
-125.5636062804
  0
LWPOLYLINE
  5
23F
330
235
100
AcDbEntity
  8
0
  6
CONTINUOUS
 62
     7
100
AcDbPolyline
 90
        3
 70
   128
 43
0.0
 10
-187.0756724619
 20
124.7461372855
 10
-187.1254270185
 20
125.0210692728
 10
-187.2218096144
 20
125.2086899931
  0
LWPOLYLINE
  5
240
330
235
100
AcDbEntity
  8
0
  6
CONTINUOUS
 62
     7
100
AcDbPolyline
 90
        4
 70
   128
 43
0.0
 10
-33.6254631349
 20
-26.202603829
 10
-108.2286975459
 20
47.3716538154
 10
-148.4028601765
 20
86.9604534915
 10
-187.2218096144
 20
125.2086899931
  0
LWPOLYLINE
  5
242
330
235
100
AcDbEntity
  8
0
  6
CONTINUOUS
 62
     7
100
AcDbPolyline
 90
       10
 70
   128
 43
0.0
 10
186.7608692377
 20
125.1008786052
 10
119.9999992231
 20
125.1205970001
 10
80.0000004926
 20
125.1308078597
 10
60.0000008255
 20
125.1348377224
 10
40.0000010551
 20
125.1378835011
 10
0.0
 20
125.1404285469
 10
-60.0
 20
125.1348377226
 10
-119.9999984139
 20
125.1205970004
 10
-179.9999962089
 20
125.102887635
 10
-186.7608692377
 20
125.1008786052
  0
LWPOLYLINE
  5
244
330
235
100
AcDbEntity
  8
0
  6
CONTINUOUS
 62
     7
100
AcDbPolyline
 90
        4
 70
   128
 43
0.0
 10
33.6254631349
 20
-26.202603829
 10
108.2286975459
 20
47.3716538154
 10
148.4028601765
 20
86.9604534915
 10
187.2218096148
 20
125.2086899933
  0
LWPOLYLINE
  5
245
330
235
100
AcDbEntity
  8
0
  6
CONTINUOUS
 62
     7
100
AcDbPolyline
 90
        4
 70
   128
 43
0.0
 10
35.0777883703
 20
-71.7043737052
 10
108.2823181994
 20
-97.7160773933
 10
153.0123187842
 20
-113.5390801432
 10
187.0755591655
 20
-125.5636062804
  0
LWPOLYLINE
  5
247
330
235
100
AcDbEntity
  8
0
  6
CONTINUOUS
 62
     7
100
AcDbPolyline
 90
       10
 70
   128
 43
0.0
 10
-186.7608692377
 20
-125.7362821577
 10
-182.3055598803
 20
-125.7466479405
 10
-122.3057577213
 20
-125.9012379922
 10
-61.1529945872
 20
-126.0562796196
 10
-30.5765317711
 20
-126.1076845784
 10
0.0
 20
-126.1263647508
 10
30.0
 20
-126.1083676161
 10
58.1959069773
 20
-126.0623958159
 10
118.7828663282
 20
-125.9108245664
 10
186.7608692377
 20
-125.7362821577
  0
LWPOLYLINE
  5
249
330
235
100
AcDbEntity
  8
0
  6
CONTINUOUS
 62
     7
100
AcDbPolyline
 90
        3
 70
   128
 43
0.0
 10
187.0756724619
 20
124.7461372856
 10
187.1254270185
 20
125.0210692729
 10
187.2218096148
 20
125.2086899933
  0
LWPOLYLINE
  5
24A
330
235
100
AcDbEntity
  8
0
  6
CONTINUOUS
 62
     7
100
AcDbPolyline
 90
        5
 70
   128
 43
0.0
 10
187.0755591655
 20
-125.5636062804
 10
187.0788030851
 20
-106.0000000016
 10
187.0879395854
 20
0.000000034
 10
187.0787770717
 20
106.0000000325
 10
187.0756724619
 20
124.7461372856
  0
CIRCLE
  5
24B
330
235
100
AcDbEntity
  8
0
  6
CONTINUOUS
 62
     7
100
AcDbCircle
 10
0.0
 20
-50.0
 30
0.0
 40
22.49999999999998
  0
CIRCLE
  5
24C
330
235
100
AcDbEntity
  8
0
  6
CONTINUOUS
 62
     7
100
AcDbCircle
 10
0.0
 20
-50.0
 30
0.0
 40
40.49999999999996
  0
LWPOLYLINE
  5
24D
330
235
100
AcDbEntity
  8
0
  6
CONTINUOUS
 62
     7
100
AcDbPolyline
 90
       14
 70
   128
 43
0.0
 10
-187.0755591655
 20
-125.5636062804
 10
-190.9973586956
 20
-125.5773947969
 10
-195.3809940948
 20
-125.6162130846
 10
-200.1805921451
 20
-125.6799094841
 10
-202.7155601343
 20
-125.7210869758
 10
-205.3260728784
 20
-125.7684839955
 10
-207.998776862
 20
-125.8221005431
 10
-210.7182138116
 20
-125.8819366186
 10
-213.4667042353
 20
-125.9479922221
 10
-216.2130700123
 20
-126.0199616006
 10
-222.3009577958
 20
-126.2110684828
 10
-227.6350257125
 20
-126.4328426
 10
-232.1021371511
 20
-126.6852839524
 10
-235.60754412
 20
-126.9683925398
  0
LWPOLYLINE
  5
24F
330
235
100
AcDbEntity
  8
0
  6
CONTINUOUS
 62
     7
100
AcDbPolyline
 90
       10
 70
   128
 43
0.0
 10
-207.9584828659
 20
-156.6012814997
 10
-206.6196592181
 20
-156.1784963142
 10
-204.9443923017
 20
-155.7867492307
 10
-202.9610641216
 20
-155.4326771423
 10
-200.7032757894
 20
-155.1222786608
 10
-198.2092782602
 20
-154.8608124892
 10
-195.5213242938
 20
-154.6527083301
 10
-192.6849526173
 20
-154.5014918387
 10
-189.7482164182
 20
-154.4097248915
 10
-186.7608692377
 20
-154.3789621841
  0
LWPOLYLINE
  5
250
330
235
100
AcDbEntity
  8
0
  6
CONTINUOUS
 62
     7
100
AcDbPolyline
 90
       14
 70
   128
 43
0.0
 10
-207.9584828659
 20
-156.6012814997
 10
-211.1691973094
 20
-156.1932817279
 10
-214.3366288211
 20
-155.3913076842
 10
-217.4180779568
 20
-154.2061706035
 10
-220.372004382
 20
-152.6538470569
 10
-223.1585868671
 20
-150.7552635749
 10
-225.7402601098
 20
-148.5360145418
 10
-228.0822211436
 20
-146.0260171634
 10
-230.1528985094
 20
-143.2591081596
 10
-231.9243778634
 20
-140.2725876191
 10
-233.3727782838
 20
-137.1067161653
 10
-234.4785742047
 20
-133.8041722114
 10
-235.2268586358
 20
-130.4094766226
 10
-235.60754412
 20
-126.9683925398
  0
LWPOLYLINE
  5
252
330
235
100
AcDbEntity
  8
0
  6
CONTINUOUS
 62
     7
100
AcDbPolyline
 90
       15
 70
   128
 43
0.0
 10
-187.0756724619
 20
124.7461372855
 10
-191.4848050124
 20
124.7605271842
 10
-195.8611701082
 20
124.8000071739
 10
-200.1744112095
 20
124.8643034029
 10
-204.3946096342
 20
124.952969882
 10
-208.4924920884
 20
125.0653915786
 10
-212.4396337196
 20
125.2007886825
 10
-216.2086552851
 20
125.3582220155
 10
-219.7734130671
 20
125.5365995452
 10
-223.1091802183
 20
125.7346839608
 10
-226.1928182786
 20
125.951101255
 10
-229.0029376749
 20
126.184350255
 10
-231.5200460887
 20
126.4328130353
 10
-233.7266836647
 20
126.6947661405
 10
-235.60754412
 20
126.9683925398
  0
LWPOLYLINE
  5
253
330
235
100
AcDbEntity
  8
0
  6
CONTINUOUS
 62
     7
100
AcDbPolyline
 90
       15
 70
   128
 43
0.0
 10
187.0756724619
 20
124.7461372856
 10
191.4848050124
 20
124.7605271842
 10
195.8611701082
 20
124.8000071739
 10
200.1744112095
 20
124.8643034029
 10
204.3946096342
 20
124.952969882
 10
208.4924920884
 20
125.0653915786
 10
212.4396337196
 20
125.2007886825
 10
216.2086552851
 20
125.3582220155
 10
219.7734130671
 20
125.5365995452
 10
223.1091802183
 20
125.7346839608
 10
226.1928182786
 20
125.951101255
 10
229.0029376749
 20
126.184350255
 10
231.5200460887
 20
126.4328130353
 10
233.7266836647
 20
126.6947661405
 10
235.60754412
 20
126.9683925398
  0
LWPOLYLINE
  5
255
330
235
100
AcDbEntity
  8
0
  6
CONTINUOUS
 62
     7
100
AcDbPolyline
 90
       14
 70
   128
 43
0.0
 10
187.0755591655
 20
-125.5636062804
 10
190.9917387908
 20
-125.5773866594
 10
195.3713093444
 20
-125.6161857289
 10
200.1684680289
 20
-125.6798518296
 10
202.7028357195
 20
-125.7210100166
 10
205.3131574496
 20
-125.7683849614
 10
207.9860694728
 20
-125.821976664
 10
210.706095911
 20
-125.8817851244
 10
213.4555311678
 20
-125.9478103426
 10
216.2142091945
 20
-126.0200486114
 10
222.3017201807
 20
-126.2110061128
 10
227.6354618533
 20
-126.4327159346
 10
232.1023145375
 20
-126.685178077
 10
235.60754412
 20
-126.9683925398
  0
LWPOLYLINE
  5
257
330
235
100
AcDbEntity
  8
0
  6
CONTINUOUS
 62
     7
100
AcDbPolyline
 90
       14
 70
   128
 43
0.0
 10
235.60754412
 20
-126.9683925398
 10
235.2268586358
 20
-130.4094766226
 10
234.4785742047
 20
-133.8041722114
 10
233.3727782838
 20
-137.1067161653
 10
231.9243778634
 20
-140.2725876191
 10
230.1528985094
 20
-143.2591081596
 10
228.0822211436
 20
-146.0260171634
 10
225.7402601098
 20
-148.5360145418
 10
223.1585868671
 20
-150.7552635749
 10
220.372004382
 20
-152.6538470569
 10
217.4180779568
 20
-154.2061706035
 10
214.3366288211
 20
-155.3913076842
 10
211.1691973094
 20
-156.1932817279
 10
207.9584828659
 20
-156.6012814997
  0
LWPOLYLINE
  5
258
330
235
100
AcDbEntity
  8
0
  6
CONTINUOUS
 62
     7
100
AcDbPolyline
 90
       10
 70
   128
 43
0.0
 10
186.7608692377
 20
-154.3789621841
 10
189.7482164182
 20
-154.4097248915
 10
192.6849526173
 20
-154.5014918387
 10
195.5213242938
 20
-154.6527083301
 10
198.2092782602
 20
-154.8608124892
 10
200.7032757894
 20
-155.1222786608
 10
202.9610641216
 20
-155.4326771423
 10
204.9443923017
 20
-155.7867492307
 10
206.6196592181
 20
-156.1784963142
 10
207.9584828659
 20
-156.6012814997
  0
LWPOLYLINE
  5
259
330
235
100
AcDbEntity
  8
0
  6
CONTINUOUS
 62
     7
100
AcDbPolyline
 90
       10
 70
   128
 43
0.0
 10
207.9584828659
 20
156.6012814997
 10
206.6196592181
 20
156.1784963142
 10
204.9443923017
 20
155.7867492307
 10
202.9610641216
 20
155.4326771423
 10
200.7032757894
 20
155.1222786608
 10
198.2092782602
 20
154.8608124892
 10
195.5213242938
 20
154.6527083301
 10
192.6849526173
 20
154.5014918387
 10
189.7482164182
 20
154.4097248915
 10
186.7608692377
 20
154.3789621841
  0
LWPOLYLINE
  5
25A
330
235
100
AcDbEntity
  8
0
  6
CONTINUOUS
 62
     7
100
AcDbPolyline
 90
       14
 70
   128
 43
0.0
 10
207.9584828659
 20
156.6012814997
 10
211.1691973094
 20
156.1932817279
 10
214.3366288211
 20
155.3913076842
 10
217.4180779568
 20
154.2061706035
 10
220.372004382
 20
152.6538470569
 10
223.1585868671
 20
150.7552635749
 10
225.7402601098
 20
148.5360145418
 10
228.0822211436
 20
146.0260171634
 10
230.1528985094
 20
143.2591081596
 10
231.9243778634
 20
140.2725876191
 10
233.3727782838
 20
137.1067161653
 10
234.4785742047
 20
133.8041722114
 10
235.2268586358
 20
130.4094766226
 10
235.60754412
 20
126.9683925398
  0
LWPOLYLINE
  5
25D
330
235
100
AcDbEntity
  8
0
  6
CONTINUOUS
 62
     7
100
AcDbPolyline
 90
       14
 70
   128
 43
0.0
 10
-235.60754412
 20
126.9683925398
 10
-235.2268586358
 20
130.4094766226
 10
-234.4785742047
 20
133.8041722114
 10
-233.3727782838
 20
137.1067161653
 10
-231.9243778634
 20
140.2725876191
 10
-230.1528985094
 20
143.2591081596
 10
-228.0822211436
 20
146.0260171634
 10
-225.7402601098
 20
148.5360145418
 10
-223.1585868671
 20
150.7552635749
 10
-220.372004382
 20
152.6538470569
 10
-217.4180779568
 20
154.2061706035
 10
-214.3366288211
 20
155.3913076842
 10
-211.1691973094
 20
156.1932817279
 10
-207.9584828659
 20
156.6012814997
  0
LWPOLYLINE
  5
25E
330
235
100
AcDbEntity
  8
0
  6
CONTINUOUS
 62
     7
100
AcDbPolyline
 90
       10
 70
   128
 43
0.0
 10
-186.7608692377
 20
154.3789621841
 10
-189.7482164182
 20
154.4097248915
 10
-192.6849526173
 20
154.5014918387
 10
-195.5213242938
 20
154.6527083301
 10
-198.2092782602
 20
154.8608124892
 10
-200.7032757894
 20
155.1222786608
 10
-202.9610641216
 20
155.4326771423
 10
-204.9443923017
 20
155.7867492307
 10
-206.6196592181
 20
156.1784963142
 10
-207.9584828659
 20
156.6012814997
  0
LWPOLYLINE
  5
268
330
235
100
AcDbEntity
  8
0
  6
CONTINUOUS
 62
     7
100
AcDbPolyline
 90
       15
 70
   128
 43
0.0
 10
-233.4760357946
 20
-166.1703638479
 10
-236.9627444603
 20
-165.9938204666
 10
-240.3860153498
 20
-165.4662427338
 10
-243.7060511102
 20
-164.5937640226
 10
-246.884254552
 20
-163.3865273641
 10
-249.8836773622
 20
-161.8585675294
 10
-252.6694496482
 20
-160.0276478679
 10
-255.2091853188
 20
-157.9150537988
 10
-257.47335859
 20
-155.5453453569
 10
-259.4356472379
 20
-152.9460716688
 10
-261.0732386086
 20
-150.1474506799
 10
-262.3670948275
 20
-147.1820178543
 10
-263.3021741248
 20
-144.0842479328
 10
-263.8676057042
 20
-140.8901541459
 10
-264.0568161213
 20
-137.6368695403
  0
LWPOLYLINE
  5
26C
330
235
100
AcDbEntity
  8
0
  6
CONTINUOUS
 62
     7
100
AcDbPolyline
 90
       15
 70
   128
 43
0.0
 10
264.0568161213
 20
-137.6368695403
 10
263.8676057042
 20
-140.8901541459
 10
263.3021741248
 20
-144.0842479328
 10
262.3670948275
 20
-147.1820178543
 10
261.0732386086
 20
-150.1474506799
 10
259.4356472379
 20
-152.9460716688
 10
257.47335859
 20
-155.5453453569
 10
255.2091853188
 20
-157.9150537988
 10
252.6694496482
 20
-160.0276478679
 10
249.8836773622
 20
-161.8585675294
 10
246.884254552
 20
-163.3865273641
 10
243.7060511102
 20
-164.5937640226
 10
240.3860153498
 20
-165.4662427338
 10
236.9627444603
 20
-165.9938204666
 10
233.4760357946
 20
-166.1703638479
  0
LWPOLYLINE
  5
26F
330
235
100
AcDbEntity
  8
0
  6
CONTINUOUS
 62
     7
100
AcDbPolyline
 90
       15
 70
   128
 43
0.0
 10
-264.0568161213
 20
137.6368695403
 10
-263.8676057042
 20
140.8901541459
 10
-263.3021741248
 20
144.0842479328
 10
-262.3670948275
 20
147.1820178543
 10
-261.0732386086
 20
150.1474506799
 10
-259.4356472379
 20
152.9460716688
 10
-257.47335859
 20
155.5453453569
 10
-255.2091853188
 20
157.9150537988
 10
-252.6694496482
 20
160.0276478679
 10
-249.8836773622
 20
161.8585675294
 10
-246.884254552
 20
163.3865273641
 10
-243.7060511102
 20
164.5937640226
 10
-240.3860153498
 20
165.4662427338
 10
-236.9627444603
 20
165.9938204666
 10
-233.4760357946
 20
166.1703638479
  0
LWPOLYLINE
  5
270
330
235
100
AcDbEntity
  8
0
  6
CONTINUOUS
 62
     7
100
AcDbPolyline
 90
       15
 70
   128
 43
0.0
 10
233.4760357946
 20
166.1703638479
 10
236.9627444603
 20
165.9938204666
 10
240.3860153498
 20
165.4662427338
 10
243.7060511102
 20
164.5937640226
 10
246.884254552
 20
163.3865273641
 10
249.8836773622
 20
161.8585675294
 10
252.6694496482
 20
160.0276478679
 10
255.2091853188
 20
157.9150537988
 10
257.47335859
 20
155.5453453569
 10
259.4356472379
 20
152.9460716688
 10
261.0732386086
 20
150.1474506799
 10
262.3670948275
 20
147.1820178543
 10
263.3021741248
 20
144.0842479328
 10
263.8676057042
 20
140.8901541459
 10
264.0568161213
 20
137.6368695403
  0
LINE
  5
279
330
235
100
AcDbEntity
  8
0
  6
CONTINUOUS
 62
     7
100
AcDbLine
 10
-186.7608692377
 20
-125.7362821577
 30
0.0
 11
-186.7608692377
 21
-154.3789621841
 31
0.0
  0
LINE
  5
27A
330
235
100
AcDbEntity
  8
0
  6
CONTINUOUS
 62
     7
100
AcDbLine
 10
-235.60754412
 20
-126.9683925398
 30
0.0
 11
-235.60754412
 21
126.9683925398
 31
0.0
  0
LINE
  5
27B
330
235
100
AcDbEntity
  8
0
  6
CONTINUOUS
 62
     7
100
AcDbLine
 10
235.60754412
 20
126.9683925398
 30
0.0
 11
235.60754412
 21
-126.9683925398
 31
0.0
  0
LINE
  5
27C
330
235
100
AcDbEntity
  8
0
  6
CONTINUOUS
 62
     7
100
AcDbLine
 10
186.7608692377
 20
-154.3789621841
 30
0.0
 11
186.7608692377
 21
-125.7362821577
 31
0.0
  0
LINE
  5
27D
330
235
100
AcDbEntity
  8
0
  6
CONTINUOUS
 62
     7
100
AcDbLine
 10
186.7608692377
 20
125.1008786052
 30
0.0
 11
186.7608692377
 21
154.3789621841
 31
0.0
  0
LINE
  5
27E
330
235
100
AcDbEntity
  8
0
  6
CONTINUOUS
 62
     7
100
AcDbLine
 10
-186.7608692377
 20
154.3789621841
 30
0.0
 11
-186.7608692377
 21
125.1008786052
 31
0.0
  0
LINE
  5
27F
330
235
100
AcDbEntity
  8
0
  6
CONTINUOUS
 62
     7
100
AcDbLine
 10
-186.7608692377
 20
154.3789621841
 30
0.0
 11
186.7608692377
 21
154.3789621841
 31
0.0
  0
LINE
  5
280
330
235
100
AcDbEntity
  8
0
  6
CONTINUOUS
 62
     7
100
AcDbLine
 10
186.7608692377
 20
-154.3789621841
 30
0.0
 11
-186.7608692377
 21
-154.3789621841
 31
0.0
  0
LINE
  5
281
330
235
100
AcDbEntity
  8
0
  6
CONTINUOUS
 62
     7
100
AcDbLine
 10
-207.9584828659
 20
-156.6012814997
 30
0.0
 11
-233.4760357946
 21
-166.1703638479
 31
0.0
  0
LINE
  5
282
330
235
100
AcDbEntity
  8
0
  6
CONTINUOUS
 62
     7
100
AcDbLine
 10
233.4760357946
 20
-166.1703638479
 30
0.0
 11
207.9584828659
 21
-156.6012814997
 31
0.0
  0
LINE
  5
283
330
235
100
AcDbEntity
  8
0
  6
CONTINUOUS
 62
     7
100
AcDbLine
 10
233.4760357946
 20
-166.1703638479
 30
0.0
 11
-233.4760357946
 21
-166.1703638479
 31
0.0
  0
LINE
  5
284
330
235
100
AcDbEntity
  8
0
  6
CONTINUOUS
 62
     7
100
AcDbLine
 10
207.9584828659
 20
156.6012814997
 30
0.0
 11
233.4760357946
 21
166.1703638479
 31
0.0
  0
LINE
  5
285
330
235
100
AcDbEntity
  8
0
  6
CONTINUOUS
 62
     7
100
AcDbLine
 10
-233.4760357946
 20
166.1703638479
 30
0.0
 11
-207.9584828659
 21
156.6012814997
 31
0.0
  0
LINE
  5
286
330
235
100
AcDbEntity
  8
0
  6
CONTINUOUS
 62
     7
100
AcDbLine
 10
-233.4760357946
 20
166.1703638479
 30
0.0
 11
233.4760357946
 21
166.1703638479
 31
0.0
  0
LINE
  5
287
330
235
100
AcDbEntity
  8
0
  6
CONTINUOUS
 62
     7
100
AcDbLine
 10
-264.0568161213
 20
-137.6368695403
 30
0.0
 11
-235.60754412
 21
-126.9683925398
 31
0.0
  0
LINE
  5
288
330
235
100
AcDbEntity
  8
0
  6
CONTINUOUS
 62
     7
100
AcDbLine
 10
-235.60754412
 20
126.9683925398
 30
0.0
 11
-264.0568161213
 21
137.6368695403
 31
0.0
  0
LINE
  5
289
330
235
100
AcDbEntity
  8
0
  6
CONTINUOUS
 62
     7
100
AcDbLine
 10
-264.0568161213
 20
-137.6368695403
 30
0.0
 11
-264.0568161213
 21
137.6368695403
 31
0.0
  0
LINE
  5
28A
330
235
100
AcDbEntity
  8
0
  6
CONTINUOUS
 62
     7
100
AcDbLine
 10
235.60754412
 20
-126.9683925398
 30
0.0
 11
264.0568161213
 21
-137.6368695403
 31
0.0
  0
LINE
  5
28B
330
235
100
AcDbEntity
  8
0
  6
CONTINUOUS
 62
     7
100
AcDbLine
 10
264.0568161213
 20
137.6368695403
 30
0.0
 11
235.60754412
 21
126.9683925398
 31
0.0
  0
LINE
  5
28C
330
235
100
AcDbEntity
  8
0
  6
CONTINUOUS
 62
     7
100
AcDbLine
 10
264.0568161213
 20
137.6368695403
 30
0.0
 11
264.0568161213
 21
-137.6368695403
 31
0.0
  0
LINE
  5
28D
330
235
100
AcDbEntity
  8
0
  6
CONTINUOUS
 62
     7
100
AcDbLine
 10
238.0
 20
-175.0
 30
0.0
 11
-238.0
 21
-175.0
 31
0.0
  0
LINE
  5
28E
330
235
100
AcDbEntity
  8
0
  6
CONTINUOUS
 62
     7
100
AcDbLine
 10
-275.0
 20
-138.0
 30
0.0
 11
-275.0
 21
138.0
 31
0.0
  0
LINE
  5
28F
330
235
100
AcDbEntity
  8
0
  6
CONTINUOUS
 62
     7
100
AcDbLine
 10
-238.0
 20
175.0
 30
0.0
 11
238.0
 21
175.0
 31
0.0
  0
LINE
  5
290
330
235
100
AcDbEntity
  8
0
  6
CONTINUOUS
 62
     7
100
AcDbLine
 10
275.0
 20
138.0
 30
0.0
 11
275.0
 21
-138.0
 31
0.0
  0
ARC
  5
291
330
235
100
AcDbEntity
  8
0
  6
CONTINUOUS
 62
     7
100
AcDbCircle
 10
0.0
 20
-49.8036569577
 30
0.0
 40
41.08140065551538
100
AcDbArc
 50
35.0642639405
 51
144.9357360595
  0
ARC
  5
292
330
235
100
AcDbEntity
  8
0
  6
CONTINUOUS
 62
     7
100
AcDbCircle
 10
0.2513512452
 20
-50.0419011373
 30
0.0
 40
41.01394202686586
100
AcDbArc
 50
328.1178793494
 51
35.5384120994
  0
ARC
  5
293
330
235
100
AcDbEntity
  8
0
  6
CONTINUOUS
 62
     7
100
AcDbCircle
 10
-0.2419667366
 20
-50.042200672
 30
0.0
 40
41.02175288076106
100
AcDbArc
 50
144.4688661838
 51
211.8748423674
  0
ARC
  5
294
330
235
100
AcDbEntity
  8
0
  6
CONTINUOUS
 62
     7
100
AcDbCircle
 10
-186.76504058
 20
126.1223098774
 30
0.0
 40
1.021439789613589
100
AcDbArc
 50
243.4370012138
 51
270.2339843939
  0
ARC
  5
295
330
235
100
AcDbEntity
  8
0
  6
CONTINUOUS
 62
     7
100
AcDbCircle
 10
186.7650405779
 20
126.1223098863
 30
0.0
 40
1.02143979852535
100
AcDbArc
 50
269.7660157268
 51
296.5629986939
  0
ARC
  5
296
330
235
100
AcDbEntity
  8
0
  6
CONTINUOUS
 62
     7
100
AcDbCircle
 10
188.3558094636
 20
-128.269862857
 30
0.0
 40
2.993804516708809
100
AcDbArc
 50
115.3174525337
 51
122.191243762
  0
ARC
  5
297
330
235
100
AcDbEntity
  8
0
  6
CONTINUOUS
 62
     7
100
AcDbCircle
 10
-186.7680487169
 20
-128.7300780623
 30
0.0
 40
2.993804513244075
100
AcDbArc
 50
89.8625981593
 51
95.5438039835
  0
ARC
  5
298
330
235
100
AcDbEntity
  8
0
  6
CONTINUOUS
 62
     7
100
AcDbCircle
 10
-238.0
 20
-138.0
 30
0.0
 40
36.99999999999994
100
AcDbArc
 50
180.0
 51
270.0
  0
ARC
  5
299
330
235
100
AcDbEntity
  8
0
  6
CONTINUOUS
 62
     7
100
AcDbCircle
 10
-238.0
 20
138.0
 30
0.0
 40
36.99999999999997
100
AcDbArc
 50
90.0
 51
180.0
  0
ARC
  5
29A
330
235
100
AcDbEntity
  8
0
  6
CONTINUOUS
 62
     7
100
AcDbCircle
 10
238.0
 20
138.0
 30
0.0
 40
36.99999999999986
100
AcDbArc
 50
0.0
 51
90.0
  0
ARC
  5
29B
330
235
100
AcDbEntity
  8
0
  6
CONTINUOUS
 62
     7
100
AcDbCircle
 10
238.0
 20
-138.0
 30
0.0
 40
36.99999999999991
100
AcDbArc
 50
270.0
 51
0.0
  0
VIEWPORT
  5
437
330
235
100
AcDbEntity
  8
0
100
AcDbViewport
 10
0.0
 20
0.0
 30
0.0
 40
205.6
 41
156.0
 68
     1
 69
     1
1001
ACAD
1000
MVIEW
1002
{
1070
    16
1010
0.0
1020
0.0
1030
0.0
1010
0.0
1020
0.0
1030
1.0
1040
0.0
1040
425.6614785992
1040
0.0
1040
0.0
1040
50.0
1040
0.0
1040
0.0
1070
     0
1070
   100
1070
     0
1070
     3
1070
     0
1070
     0
1070
     0
1070
     0
1040
0.0
1040
0.0
1040
0.0
1040
10.0
1040
10.0
1040
10.0
1040
10.0
1070
     0
1002
{
1002
}
1002
}
  0
ENDBLK
  5
238
330
235
100
AcDbEntity
  8
0
100
AcDbBlockEnd
  0
BLOCK
  5
29E
330
29C
100
AcDbEntity
  8
0
100
AcDbBlockBegin
  2
*PAPER_SPACE5
 70
     0
 10
0.0
 20
0.0
 30
0.0
  3
*PAPER_SPACE5
  1

  0
LWPOLYLINE
  5
2A0
330
29C
100
AcDbEntity
  8
0
  6
CONTINUOUS
 62
     7
100
AcDbPolyline
 90
       14
 70
   128
 43
0.0
 10
28.8523018055
 20
-220.9127506154
 10
31.0602754001
 20
-222.1206860457
 10
34.4494080894
 20
-223.720582642
 10
37.8406636683
 20
-225.021601919
 10
41.2157084097
 20
-226.0251335791
 10
44.5668967881
 20
-226.7377930299
 10
47.8904489273
 20
-227.1661379777
 10
51.181304414
 20
-227.3147824647
 10
54.43104398
 20
-227.1867404889
 10
57.627609335
 20
-226.7844697254
 10
60.7558570205
 20
-226.1108906032
 10
64.1215948573
 20
-225.0525894283
 10
67.3237797447
 20
-223.6901214493
 10
69.5757411748
 20
-222.461755012
  0
LWPOLYLINE
  5
2A9
330
29C
100
AcDbEntity
  8
0
  6
CONTINUOUS
 62
     7
100
AcDbPolyline
 90
        7
 70
   128
 43
0.0
 10
57.8540994496
 20
-70.5399040548
 10
57.8047503472
 20
-71.171604361
 10
57.4615954011
 20
-72.5441949581
 10
56.8899886857
 20
-73.7473592976
 10
55.9833055027
 20
-75.0357691965
 10
54.8060369415
 20
-76.2648140316
 10
53.50269537
 20
-77.3165251211
  0
LWPOLYLINE
  5
2AA
330
29C
100
AcDbEntity
  8
0
  6
CONTINUOUS
 62
     7
100
AcDbPolyline
 90
        9
 70
   128
 43
0.0
 10
18.8139682238
 20
-78.3889240996
 10
18.0273411794
 20
-77.8922768538
 10
16.496108032
 20
-76.7766218492
 10
15.2295042318
 20
-75.6021415799
 10
14.2361448076
 20
-74.3938646063
 10
13.5143219531
 20
-73.1700984953
 10
13.0566119442
 20
-71.934956428
 10
12.8614227113
 20
-70.6699289009
 10
12.8757203262
 20
-70.4602973937
  0
LWPOLYLINE
  5
2AC
330
29C
100
AcDbEntity
  8
0
  6
CONTINUOUS
 62
     7
100
AcDbPolyline
 90
       17
 70
   128
 43
0.0
 10
44.5477272148
 20
-168.5882750914
 10
47.2381266046
 20
-169.9959541561
 10
50.1545794969
 20
-171.2446210584
 10
53.2689988561
 20
-172.3222504533
 10
56.5513911211
 20
-173.2184641806
 10
59.9701450602
 20
-173.9246312123
 10
63.4923362041
 20
-174.4339507738
 10
67.0840439265
 20
-174.7415178393
 10
70.7106781187
 20
-174.8443703698
 10
74.3373123108
 20
-174.7415178393
 10
77.9290200333
 20
-174.4339507738
 10
81.4512111771
 20
-173.9246312123
 10
84.8699651162
 20
-173.2184641806
 10
88.1523573812
 20
-172.3222504533
 10
91.2667767404
 20
-171.2446210584
 10
94.1832296327
 20
-169.9959541561
 10
96.8736290226
 20
-168.5882750914
  0
LWPOLYLINE
  5
2AE
330
29C
100
AcDbEntity
  8
0
  6
CONTINUOUS
 62
     7
100
AcDbPolyline
 90
       17
 70
   128
 43
0.0
 10
-292.03510063
 20
55.9239556599
 10
-294.4735365006
 20
54.3708211515
 10
-296.6365253813
 20
52.6871887339
 10
-298.503236507
 20
50.8892727075
 10
-300.0556924291
 20
48.9943879867
 10
-301.2789421482
 20
47.020783347
 10
-302.1612051011
 20
44.9874656801
 10
-302.693984613
 20
42.9140169465
 10
-302.8721497261
 20
40.8204055911
 10
-302.693984613
 20
38.7267942358
 10
-302.1612051011
 20
36.6533455022
 10
-301.2789421482
 20
34.6200278353
 10
-300.0556924291
 20
32.6464231956
 10
-298.503236507
 20
30.7515384747
 10
-296.6365253813
 20
28.9536224484
 10
-294.4735365006
 20
27.2699900308
 10
-292.03510063
 20
25.7168555224
  0
LWPOLYLINE
  5
2B0
330
29C
100
AcDbEntity
  8
0
  6
CONTINUOUS
 62
     7
100
AcDbPolyline
 90
       17
 70
   128
 43
0.0
 10
-44.5477272148
 20
168.5882750914
 10
-47.2381266046
 20
169.9959541561
 10
-50.1545794969
 20
171.2446210584
 10
-53.2689988561
 20
172.3222504533
 10
-56.5513911211
 20
173.2184641806
 10
-59.9701450602
 20
173.9246312123
 10
-63.4923362041
 20
174.4339507738
 10
-67.0840439265
 20
174.7415178393
 10
-70.7106781187
 20
174.8443703698
 10
-74.3373123108
 20
174.7415178393
 10
-77.9290200333
 20
174.4339507738
 10
-81.4512111771
 20
173.9246312123
 10
-84.8699651162
 20
173.2184641806
 10
-88.1523573812
 20
172.3222504533
 10
-91.2667767404
 20
171.2446210584
 10
-94.1832296327
 20
169.9959541561
 10
-96.8736290226
 20
168.5882750914
  0
LWPOLYLINE
  5
2B2
330
29C
100
AcDbEntity
  8
0
  6
CONTINUOUS
 62
     7
100
AcDbPolyline
 90
       17
 70
   128
 43
0.0
 10
292.03510063
 20
-55.9239556599
 10
294.4735365006
 20
-54.3708211515
 10
296.6365253813
 20
-52.6871887339
 10
298.503236507
 20
-50.8892727075
 10
300.0556924291
 20
-48.9943879867
 10
301.2789421482
 20
-47.020783347
 10
302.1612051011
 20
-44.9874656801
 10
302.693984613
 20
-42.9140169465
 10
302.8721497261
 20
-40.8204055911
 10
302.693984613
 20
-38.7267942358
 10
302.1612051011
 20
-36.6533455022
 10
301.2789421482
 20
-34.6200278353
 10
300.0556924291
 20
-32.6464231956
 10
298.503236507
 20
-30.7515384747
 10
296.6365253813
 20
-28.9536224484
 10
294.4735365006
 20
-27.2699900308
 10
292.03510063
 20
-25.7168555224
  0
LWPOLYLINE
  5
2B6
330
29C
100
AcDbEntity
  8
0
  6
CONTINUOUS
 62
     7
100
AcDbPolyline
 90
       10
 70
   128
 43
0.0
 10
274.7722215483
 20
-45.4794008334
 10
276.0677187872
 20
-44.5822174426
 10
277.0535788184
 20
-43.569360712
 10
277.7021066587
 20
-42.4692840213
 10
277.9950837306
 20
-41.3128909518
 10
277.9242796616
 20
-40.1326671356
 10
277.4916834943
 20
-38.9617676635
 10
276.7094478093
 20
-37.8330856845
 10
275.5995473328
 20
-36.7783283655
 10
274.1931616174
 20
-35.8271261662
  0
LWPOLYLINE
  5
2BA
330
29C
100
AcDbEntity
  8
0
  6
CONTINUOUS
 62
     7
100
AcDbPolyline
 90
       10
 70
   128
 43
0.0
 10
-274.7722215483
 20
45.4794008334
 10
-276.0677187872
 20
44.5822174426
 10
-277.0535788184
 20
43.569360712
 10
-277.7021066587
 20
42.4692840213
 10
-277.9950837306
 20
41.3128909518
 10
-277.9242796616
 20
40.1326671356
 10
-277.4916834943
 20
38.9617676635
 10
-276.7094478093
 20
37.8330856845
 10
-275.5995473328
 20
36.7783283655
 10
-274.1931616174
 20
35.8271261662
  0
LWPOLYLINE
  5
2BC
330
29C
100
AcDbEntity
  8
0
  6
CONTINUOUS
 62
     7
100
AcDbPolyline
 90
       17
 70
   128
 43
0.0
 10
44.5477272148
 20
-179.2033056459
 10
47.2381266046
 20
-180.6109847107
 10
50.1545794969
 20
-181.8596516129
 10
53.2689988561
 20
-182.9372810078
 10
56.5513911211
 20
-183.8334947351
 10
59.9701450602
 20
-184.5396617668
 10
63.4923362041
 20
-185.0489813283
 10
67.0840439265
 20
-185.3565483938
 10
70.7106781187
 20
-185.4594009243
 10
74.3373123108
 20
-185.3565483938
 10
77.9290200333
 20
-185.0489813283
 10
81.4512111771
 20
-184.5396617668
 10
84.8699651162
 20
-183.8334947351
 10
88.1523573812
 20
-182.9372810078
 10
91.2667767404
 20
-181.8596516129
 10
94.1832296327
 20
-180.6109847107
 10
96.8736290226
 20
-179.2033056459
  0
LWPOLYLINE
  5
2BE
330
29C
100
AcDbEntity
  8
0
  6
CONTINUOUS
 62
     7
100
AcDbPolyline
 90
       14
 70
   128
 43
0.0
 10
36.3150253488
 20
-208.9155980316
 10
38.8738427096
 20
-211.1109401404
 10
41.6806362951
 20
-213.0621170085
 10
44.6975683413
 20
-214.7428252517
 10
47.883968254
 20
-216.1304076138
 10
51.1968808804
 20
-217.2061584036
 10
54.5916455775
 20
-217.9555756624
 10
58.0224982728
 20
-218.3685566618
 10
61.4431883993
 20
-218.4395340963
 10
64.8076023896
 20
-218.1675511347
 10
68.0703853221
 20
-217.5562743193
 10
71.1875523414
 20
-216.6139441376
 10
74.1170816078
 20
-215.3532639346
 10
76.8194807848
 20
-213.7912286615
  0
LWPOLYLINE
  5
2C4
330
29C
100
AcDbEntity
  8
0
  6
CONTINUOUS
 62
     7
100
AcDbPolyline
 90
       10
 70
   128
 43
0.0
 10
36.3150253488
 20
-208.9155980316
 10
35.6672883403
 20
-210.3829040985
 10
34.7597027626
 20
-211.5650313172
 10
33.6076447319
 20
-212.4419523474
 10
32.2306321629
 20
-212.998810585
 10
30.6519941007
 20
-213.22617186
 10
28.8984754856
 20
-213.1201842673
 10
26.9997840458
 20
-212.6826434255
 10
24.9880869955
 20
-211.9209620557
 10
22.8974660654
 20
-210.8480443968
  0
LWPOLYLINE
  5
2CA
330
29C
100
AcDbEntity
  8
0
  6
CONTINUOUS
 62
     7
100
AcDbPolyline
 90
       20
 70
   128
 43
0.0
 10
1.0289555856
 20
-57.298869808
 10
0.5070817357
 20
-59.3644578446
 10
0.3571622079
 20
-61.4501059545
 10
0.5807971744
 20
-63.533552886
 10
1.1755996581
 20
-65.5925608816
 10
2.13522101
 20
-67.6051530341
 10
3.4494186717
 20
-69.5498478575
 10
5.1041655
 20
-71.4058885708
 10
7.0817994858
 20
-73.1534646464
 10
9.3612122706
 20
-74.7739232584
 10
11.9180744474
 20
-76.2499683745
 10
14.7250952415
 20
-77.565845366
 10
17.7523137999
 20
-78.707509165
 10
20.9674189796
 20
-79.6627741755
 10
24.3360942219
 20
-80.4214443369
 10
27.8223838316
 20
-80.9754219516
 10
31.3890767519
 20
-81.3187941166
 10
34.9981037377
 20
-81.4478958347
 10
38.6109436894
 20
-81.3613491335
 10
42.18903481
 20
-81.0600777727
  0
LWPOLYLINE
  5
2CC
330
29C
100
AcDbEntity
  8
0
  6
CONTINUOUS
 62
     7
100
AcDbPolyline
 90
       12
 70
   128
 43
0.0
 10
42.18903481
 20
-81.0600777727
 10
45.8182236517
 20
-80.5250118273
 10
49.3275797138
 20
-79.7691165501
 10
52.6769098845
 20
-78.8010493082
 10
55.8278538491
 20
-77.6318975018
 10
58.7443234363
 20
-76.2750515787
 10
61.39291594
 20
-74.746051672
 10
63.7432966854
 20
-73.0624096167
 10
65.7685464559
 20
-71.2434083844
 10
67.4454698022
 20
-69.3098812332
 10
68.7548607027
 20
-67.2839731011
 10
69.6817225331
 20
-65.188886978
  0
LWPOLYLINE
  5
2CD
330
29C
100
AcDbEntity
  8
0
  6
CONTINUOUS
 62
     7
100
AcDbPolyline
 90
        9
 70
   128
 43
0.0
 10
292.03510063
 20
-66.5389862144
 10
294.4735365006
 20
-64.985851706
 10
296.6365253813
 20
-63.3022192884
 10
298.503236507
 20
-61.5043032621
 10
300.0556924291
 20
-59.6094185412
 10
301.2789421482
 20
-57.6358139015
 10
302.1612051011
 20
-55.6024962346
 10
302.693984613
 20
-53.529047501
 10
302.8721497261
 20
-51.4354361457
  0
LWPOLYLINE
  5
2CE
330
29C
100
AcDbEntity
  8
0
  6
CONTINUOUS
 62
     7
100
AcDbPolyline
 90
       10
 70
   128
 43
0.0
 10
-48.8871953866
 20
83.7484880781
 10
-48.2394583781
 20
80.84299027
 10
-47.3318728005
 20
77.9733360544
 10
-46.1798147697
 20
75.1881424845
 10
-44.8028022007
 20
72.5345956994
 10
-43.2241641385
 20
70.0576515074
 10
-41.4706455234
 20
67.7992737542
 10
-39.5719540836
 20
65.7977233808
 10
-37.5602570333
 20
64.0869102153
 10
-35.4696361032
 20
62.6958184793
  0
LWPOLYLINE
  5
2D2
330
29C
100
AcDbEntity
  8
0
  6
CONTINUOUS
 62
     7
100
AcDbPolyline
 90
       20
 70
   128
 43
0.0
 10
69.6817225331
 20
-65.188886978
 10
70.2035963829
 20
-63.1232989414
 10
70.3535159108
 20
-61.0376508315
 10
70.1298809443
 20
-58.9542039
 10
69.5350784606
 20
-56.8951959044
 10
68.5754571087
 20
-54.8826037519
 10
67.2612594469
 20
-52.9379089285
 10
65.6065126186
 20
-51.0818682152
 10
63.6288786329
 20
-49.3342921396
 10
61.3494658481
 20
-47.7138335276
 10
58.7926036713
 20
-46.2377884115
 10
55.9855828772
 20
-44.92191142
 10
52.9583643188
 20
-43.780247621
 10
49.7432591391
 20
-42.8249826105
 10
46.3745838968
 20
-42.0663124491
 10
42.888294287
 20
-41.5123348344
 10
39.3216013668
 20
-41.1689626694
 10
35.712574381
 20
-41.0398609513
 10
32.0997344292
 20
-41.1264076525
 10
28.5216433087
 20
-41.4276790133
  0
LWPOLYLINE
  5
2D4
330
29C
100
AcDbEntity
  8
0
  6
CONTINUOUS
 62
     7
100
AcDbPolyline
 90
       12
 70
   128
 43
0.0
 10
28.5216433087
 20
-41.4276790133
 10
24.892454467
 20
-41.9627449587
 10
21.3830984048
 20
-42.7186402359
 10
18.0337682342
 20
-43.6867074778
 10
14.8828242695
 20
-44.8558592843
 10
11.9663546824
 20
-46.2127052073
 10
9.3177621787
 20
-47.741705114
 10
6.9673814332
 20
-49.4253471694
 10
4.9421316627
 20
-51.2443484016
 10
3.2652083165
 20
-53.1778755529
 10
1.9558174159
 20
-55.2037836849
 10
1.0289555856
 20
-57.298869808
  0
LWPOLYLINE
  5
2D6
330
29C
100
AcDbEntity
  8
0
  6
CONTINUOUS
 62
     7
100
AcDbPolyline
 90
        9
 70
   128
 43
0.0
 10
-302.8721497261
 20
30.2053750366
 10
-302.693984613
 20
28.1117636812
 10
-302.1612051011
 20
26.0383149477
 10
-301.2789421482
 20
24.0049972807
 10
-300.0556924291
 20
22.0313926411
 10
-298.503236507
 20
20.1365079202
 10
-296.6365253813
 20
18.3385918939
 10
-294.4735365006
 20
16.6549594763
 10
-292.03510063
 20
15.1018249679
  0
LWPOLYLINE
  5
2D8
330
29C
100
AcDbEntity
  8
0
  6
CONTINUOUS
 62
     7
100
AcDbPolyline
 90
       17
 70
   128
 43
0.0
 10
28.7505282613
 20
-42.5378848658
 10
32.8620579719
 20
-42.2151547067
 10
37.0111012538
 20
-42.1854459931
 10
41.135232161
 20
-42.4492057185
 10
45.1723995755
 20
-43.0024653894
 10
49.0618608205
 20
-43.8369007355
 10
52.7450955864
 20
-44.939956955
 10
56.1666864192
 20
-46.2950376127
 10
59.2751525244
 20
-47.8817543476
 10
62.02372434
 20
-49.6762336336
 10
64.3710472247
 20
-51.6514759771
 10
66.281803675
 20
-53.7777621482
 10
67.7272447066
 20
-56.0231003316
 10
68.6856224086
 20
-58.3537074716
 10
69.1425171594
 20
-60.7345175673
 10
69.0910545821
 20
-63.1297092709
 10
68.5320089756
 20
-65.5032448508
  0
LWPOLYLINE
  5
2DA
330
29C
100
AcDbEntity
  8
0
  6
CONTINUOUS
 62
     7
100
AcDbPolyline
 90
       10
 70
   128
 43
0.0
 10
41.9601498576
 20
-80.842852607
 10
37.8486201468
 20
-81.1655827661
 10
33.6995768648
 20
-81.1952914796
 10
29.5754459577
 20
-80.9315317543
 10
25.5382785432
 20
-80.3782720833
 10
21.6488172981
 20
-79.5438367373
 10
17.9655825323
 20
-78.4407805178
 10
14.5439916995
 20
-77.0856998601
 10
11.4355255942
 20
-75.4989831252
 10
9.299354509
 20
-74.104326183
  0
LWPOLYLINE
  5
2DB
330
29C
100
AcDbEntity
  8
0
  6
CONTINUOUS
 62
     7
100
AcDbPolyline
 90
        9
 70
   128
 43
0.0
 10
2.178669143
 20
-57.877492622
 10
3.5064239915
 20
-55.1092492842
 10
5.5232349939
 20
-52.4833894734
 10
8.1854681354
 20
-50.0567240687
 10
11.4355255942
 20
-47.8817543476
 10
15.2030918798
 20
-46.005536113
 10
19.4066551186
 20
-44.4686616337
 10
23.9552705764
 20
-43.3043814245
 10
28.7505282613
 20
-42.5378848658
  0
LWPOLYLINE
  5
2DD
330
29C
100
AcDbEntity
  8
0
  6
CONTINUOUS
 62
     7
100
AcDbPolyline
 90
        3
 70
   128
 43
0.0
 10
50.442630796
 20
-79.1602957356
 10
52.3982571322
 20
-78.0903291141
 10
53.7124156945
 20
-77.2104983603
  0
LWPOLYLINE
  5
2DE
330
29C
100
AcDbEntity
  8
0
  6
CONTINUOUS
 62
     7
100
AcDbPolyline
 90
        3
 70
   128
 43
0.0
 10
2.178669143
 20
-57.877492622
 10
1.6390979972
 20
-57.5292552168
 10
1.0289555856
 20
-57.298869808
  0
LWPOLYLINE
  5
2DF
330
29C
100
AcDbEntity
  8
0
  6
CONTINUOUS
 62
     7
100
AcDbPolyline
 90
        3
 70
   128
 43
0.0
 10
41.9601498576
 20
-80.842852607
 10
42.06756767
 20
-80.8681139778
 10
42.18903481
 20
-81.0600777727
  0
LWPOLYLINE
  5
2E0
330
29C
100
AcDbEntity
  8
0
  6
CONTINUOUS
 62
     7
100
AcDbPolyline
 90
        3
 70
   128
 43
0.0
 10
69.6817225331
 20
-65.188886978
 10
69.0715801215
 20
-65.2790294129
 10
68.5320089756
 20
-65.5032448508
  0
LWPOLYLINE
  5
2E2
330
29C
100
AcDbEntity
  8
0
  6
CONTINUOUS
 62
     7
100
AcDbPolyline
 90
       22
 70
   128
 43
0.0
 10
56.9323095468
 20
-73.8925064864
 10
56.0048181372
 20
-72.416151195
 10
54.7220346669
 20
-70.96276916
 10
53.1338268378
 20
-69.6136611394
 10
51.265241636
 20
-68.3901033727
 10
49.1457477665
 20
-67.3113920968
 10
46.8087709137
 20
-66.3945392328
 10
44.2911665986
 20
-65.6540040981
 10
41.6326389452
 20
-65.1014653742
 10
38.8751145227
 20
-64.7456369268
 10
36.0620811386
 20
-64.5921303831
 10
33.2379020097
 20
-64.6433666331
 10
30.4471161279
 20
-64.8985376503
 10
27.7337358538
 20
-65.3536192355
 10
25.1405528152
 20
-66.0014344802
 10
22.7084630577
 20
-66.831766951
 10
20.4758220895
 20
-67.8315218088
 10
18.4778399926
 20
-68.9849323223
 10
16.7460261381
 20
-70.2738085187
 10
15.3076922651
 20
-71.6778240504
 10
14.1855217579
 20
-73.1748367538
 10
13.8196350313
 20
-73.8128577342
  0
LWPOLYLINE
  5
2E3
330
29C
100
AcDbEntity
  8
0
  6
CONTINUOUS
 62
     7
100
AcDbPolyline
 90
       12
 70
   128
 43
0.0
 10
-43.8510827951
 20
49.5870202284
 10
-46.4690064685
 20
51.2772710653
 10
-49.0280890583
 20
53.2894344861
 10
-51.4992939458
 20
55.6006794882
 10
-53.8545816166
 20
58.1847815409
 10
-56.0672278102
 20
61.0124201426
 10
-58.1121267471
 20
64.0515115054
 10
-59.9660759912
 20
67.2675725934
 10
-61.6080397162
 20
70.6241123848
 10
-63.0193873885
 20
74.0830459167
 10
-64.1841051583
 20
77.6051264162
 10
-65.088977561
 20
81.1503906136
  0
LWPOLYLINE
  5
2E4
330
29C
100
AcDbEntity
  8
0
  6
CONTINUOUS
 62
     7
100
AcDbPolyline
 90
        3
 70
   128
 43
0.0
 10
28.5216433087
 20
-41.4276790133
 10
28.6431104487
 20
-41.9401706519
 10
28.7505282613
 20
-42.5378848658
  0
LWPOLYLINE
  5
2F4
330
29C
100
AcDbEntity
  8
0
  6
CONTINUOUS
 62
     7
100
AcDbPolyline
 90
        9
 70
   128
 43
0.0
 10
9.299354509
 20
-74.104326183
 10
8.6869537787
 20
-73.7045038392
 10
6.3396308939
 20
-71.7292614957
 10
4.4288744437
 20
-69.6029753246
 10
2.9834334121
 20
-67.3576371412
 10
2.02505571
 20
-65.0270300012
 10
1.5681609592
 20
-62.6462199055
 10
1.6196235366
 20
-60.2510282019
 10
2.178669143
 20
-57.877492622
  0
LWPOLYLINE
  5
2F5
330
29C
100
AcDbEntity
  8
0
  6
CONTINUOUS
 62
     7
100
AcDbPolyline
 90
       40
 70
   128
 43
0.0
 10
53.7124156945
 20
-77.2104983603
 10
54.2382588263
 20
-76.8111577801
 10
55.7920147049
 20
-75.4111486964
 10
57.0359714127
 20
-73.9115245736
 10
57.951271834
 20
-72.3350181848
 10
58.5240409475
 20
-70.7055277598
 10
58.7455961573
 20
-69.0477547124
 10
58.6125789122
 20
-67.3868291922
 10
58.127005618
 20
-65.7479291371
 10
57.296237071
 20
-64.1558986013
 10
56.1328668754
 20
-62.6348711448
 10
54.6545305375
 20
-61.2079039935
 10
52.8836381294
 20
-59.8966285148
 10
50.8470345748
 20
-58.7209223083
 10
48.5755927075
 20
-57.6986078816
 10
46.1037452708
 20
-56.8451824795
 10
43.4689629524
 20
-56.173583161
 10
40.7111863662
 20
-55.6939906872
 10
37.8722205944
 20
-55.4136751911
 10
34.995101464
 20
-55.33688597
 10
32.1234431684
 20
-55.4647870702
 10
29.3007771201
 20
-55.7954396413
 10
26.5698920591
 20
-56.3238313274
 10
23.9721854193
 20
-57.0419522492
 10
21.5470357852
 20
-57.9389164255
 10
19.3312059534
 20
-59.0011267937
 10
17.3582856454
 20
-60.2124813274
 10
15.658182322
 20
-61.5546171266
 10
14.2566678165
 20
-63.0071887808
 10
13.1749876602
 20
-64.5481767842
 10
12.4295390218
 20
-66.1542213297
 10
12.0316221426
 20
-67.8009764189
 10
11.987269037
 20
-69.4634789234
 10
12.2971520529
 20
-71.1165269998
 10
12.9565736796
 20
-72.7350621244
 10
13.9555377573
 20
-74.2945489544
 10
15.2789010091
 20
-75.7713472592
 10
16.9066025969
 20
-77.1430702818
 10
18.8139682238
 20
-78.3889240996
 10
18.8139682238
 20
-78.3889240996
  0
LWPOLYLINE
  5
2F6
330
29C
100
AcDbEntity
  8
0
  6
CONTINUOUS
 62
     7
100
AcDbPolyline
 90
       27
 70
   128
 43
0.0
 10
12.8757203262
 20
-70.4602973937
 10
12.9551948558
 20
-69.1811899641
 10
13.3972119157
 20
-67.5701035675
 10
14.1855217579
 20
-66.0037024771
 10
15.3076922651
 20
-64.5066897737
 10
16.7460261381
 20
-63.102674242
 10
18.4778399926
 20
-61.8137980456
 10
20.4758220895
 20
-60.6603875321
 10
22.7084630577
 20
-59.6606326743
 10
25.1405528152
 20
-58.8303002035
 10
27.7337358538
 20
-58.1824849588
 10
30.4471161279
 20
-57.7274033736
 10
33.2379020097
 20
-57.4722323564
 10
36.0620811386
 20
-57.4209961064
 10
38.8751145227
 20
-57.5745026501
 10
41.6326389452
 20
-57.9303310975
 10
44.2911665986
 20
-58.4828698214
 10
46.8087709137
 20
-59.2234049561
 10
49.1457477665
 20
-60.1402578201
 10
51.265241636
 20
-61.218969096
 10
53.1338268378
 20
-62.4425268627
 10
54.7220346669
 20
-63.7916348833
 10
56.0048181372
 20
-65.2450169183
 10
56.9619469871
 20
-66.7797522648
 10
57.5783267227
 20
-68.3716372297
 10
57.8442366676
 20
-69.995566836
 10
57.8553390593
 20
-70.403560354
  0
LINE
  5
2F7
330
29C
100
AcDbEntity
  8
0
  6
CONTINUOUS
 62
     7
100
AcDbLine
 10
69.5969521359
 20
-222.4855429014
 30
0.0
 11
247.8564880608
 21
-119.5785032499
 31
0.0
  0
LINE
  5
2F8
330
29C
100
AcDbEntity
  8
0
  6
CONTINUOUS
 62
     7
100
AcDbLine
 10
-235.2674523911
 20
-68.4396619987
 30
0.0
 11
28.8523018055
 21
-220.9127506154
 31
0.0
  0
LINE
  5
2F9
330
29C
100
AcDbEntity
  8
0
  6
CONTINUOUS
 62
     7
100
AcDbLine
 10
302.8721497261
 20
-51.4354361457
 30
0.0
 11
302.8721497261
 21
-40.8204055911
 31
0.0
  0
LINE
  5
2FA
330
29C
100
AcDbEntity
  8
0
  6
CONTINUOUS
 62
     7
100
AcDbLine
 10
262.8103386671
 20
-104.3399263479
 30
0.0
 11
280.9329915955
 21
-72.9480973382
 31
0.0
  0
LINE
  5
2FB
330
29C
100
AcDbEntity
  8
0
  6
CONTINUOUS
 62
     7
100
AcDbLine
 10
-284.7601333723
 20
10.9020757642
 30
0.0
 11
-264.2574135474
 21
-35.3724459741
 31
0.0
  0
LINE
  5
2FC
330
29C
100
AcDbEntity
  8
0
  6
CONTINUOUS
 62
     7
100
AcDbLine
 10
-302.8721497261
 20
40.8204055911
 30
0.0
 11
-302.8721497261
 21
30.2053750366
 31
0.0
  0
LINE
  5
2FD
330
29C
100
AcDbEntity
  8
0
  6
CONTINUOUS
 62
     7
100
AcDbLine
 10
96.8736290226
 20
-168.5882750914
 30
0.0
 11
292.03510063
 21
-55.9239556599
 31
0.0
  0
LINE
  5
2FE
330
29C
100
AcDbEntity
  8
0
  6
CONTINUOUS
 62
     7
100
AcDbLine
 10
-292.03510063
 20
25.7168555224
 30
0.0
 11
44.5477272148
 21
-168.5882750914
 31
0.0
  0
LINE
  5
2FF
330
29C
100
AcDbEntity
  8
0
  6
CONTINUOUS
 62
     7
100
AcDbLine
 10
-96.8736290226
 20
168.5882750914
 30
0.0
 11
-292.03510063
 21
55.9239556599
 31
0.0
  0
LINE
  5
300
330
29C
100
AcDbEntity
  8
0
  6
CONTINUOUS
 62
     7
100
AcDbLine
 10
292.03510063
 20
-25.7168555224
 30
0.0
 11
-44.5477272148
 21
168.5882750914
 31
0.0
  0
LINE
  5
301
330
29C
100
AcDbEntity
  8
0
  6
CONTINUOUS
 62
     7
100
AcDbLine
 10
-274.1931616174
 20
35.8271261662
 30
0.0
 11
62.0611272614
 21
-158.2883429396
 31
0.0
  0
LINE
  5
302
330
29C
100
AcDbEntity
  8
0
  6
CONTINUOUS
 62
     7
100
AcDbLine
 10
78.781169045
 20
-158.6226271223
 30
0.0
 11
274.7722215483
 21
-45.4794008334
 31
0.0
  0
LINE
  5
303
330
29C
100
AcDbEntity
  8
0
  6
CONTINUOUS
 62
     7
100
AcDbLine
 10
274.1931616174
 20
-35.8271261662
 30
0.0
 11
-62.0611272614
 21
158.2883429396
 31
0.0
  0
LINE
  5
304
330
29C
100
AcDbEntity
  8
0
  6
CONTINUOUS
 62
     7
100
AcDbLine
 10
-78.781169045
 20
158.6226271223
 30
0.0
 11
-274.7722215483
 21
45.4794008334
 31
0.0
  0
LINE
  5
305
330
29C
100
AcDbEntity
  8
0
  6
CONTINUOUS
 62
     7
100
AcDbLine
 10
96.8736290226
 20
-179.2033056459
 30
0.0
 11
96.8736290226
 21
-168.5882750914
 31
0.0
  0
LINE
  5
306
330
29C
100
AcDbEntity
  8
0
  6
CONTINUOUS
 62
     7
100
AcDbLine
 10
44.5477272148
 20
-179.2033056459
 30
0.0
 11
44.5477272148
 21
-168.5882750914
 31
0.0
  0
LINE
  5
307
330
29C
100
AcDbEntity
  8
0
  6
CONTINUOUS
 62
     7
100
AcDbLine
 10
292.03510063
 20
-66.5389862144
 30
0.0
 11
292.03510063
 21
-55.9239556599
 31
0.0
  0
LINE
  5
308
330
29C
100
AcDbEntity
  8
0
  6
CONTINUOUS
 62
     7
100
AcDbLine
 10
96.8736290226
 20
-179.2033056459
 30
0.0
 11
292.03510063
 21
-66.5389862144
 31
0.0
  0
LINE
  5
309
330
29C
100
AcDbEntity
  8
0
  6
CONTINUOUS
 62
     7
100
AcDbLine
 10
-292.03510063
 20
15.1018249679
 30
0.0
 11
-292.03510063
 21
25.7168555224
 31
0.0
  0
LINE
  5
30A
330
29C
100
AcDbEntity
  8
0
  6
CONTINUOUS
 62
     7
100
AcDbLine
 10
-292.03510063
 20
15.1018249679
 30
0.0
 11
44.5477272148
 21
-179.2033056459
 31
0.0
  0
LINE
  5
30B
330
29C
100
AcDbEntity
  8
0
  6
CONTINUOUS
 62
     7
100
AcDbLine
 10
76.8194807848
 20
-213.7912286615
 30
0.0
 11
256.3799035072
 21
-110.1332030469
 31
0.0
  0
LINE
  5
30C
330
29C
100
AcDbEntity
  8
0
  6
CONTINUOUS
 62
     7
100
AcDbLine
 10
-241.2222881312
 20
-58.3749557801
 30
0.0
 11
22.8974660654
 21
-210.8480443968
 31
0.0
  0
LINE
  5
30D
330
29C
100
AcDbEntity
  8
0
  6
CONTINUOUS
 62
     7
100
AcDbLine
 10
42.18903481
 20
-81.0600777727
 30
0.0
 11
43.0796714047
 21
-147.330581716
 31
0.0
  0
LINE
  5
30E
330
29C
100
AcDbEntity
  8
0
  6
CONTINUOUS
 62
     7
100
AcDbLine
 10
1.0289555856
 20
-57.298869808
 30
0.0
 11
-117.5571301862
 21
-54.5969300489
 31
0.0
  0
LINE
  5
30F
330
29C
100
AcDbEntity
  8
0
  6
CONTINUOUS
 62
     7
100
AcDbLine
 10
69.6817225331
 20
-65.188886978
 30
0.0
 11
188.9229411332
 21
-95.0391355084
 31
0.0
  0
LINE
  5
310
330
29C
100
AcDbEntity
  8
0
  6
CONTINUOUS
 62
     7
100
AcDbLine
 10
-48.8871953866
 20
83.7484880781
 30
0.0
 11
-62.0611272614
 21
158.2883429396
 31
0.0
  0
LINE
  5
311
330
29C
100
AcDbEntity
  8
0
  6
CONTINUOUS
 62
     7
100
AcDbLine
 10
-43.8510827951
 20
49.5870202284
 30
0.0
 11
28.5216433087
 21
-41.4276790133
 31
0.0
  0
LINE
  5
312
330
29C
100
AcDbEntity
  8
0
  6
CONTINUOUS
 62
     7
100
AcDbLine
 10
-43.8510827951
 20
49.5870202284
 30
0.0
 11
197.7994266496
 21
-89.9148494933
 31
0.0
  0
LINE
  5
313
330
29C
100
AcDbEntity
  8
0
  6
CONTINUOUS
 62
     7
100
AcDbLine
 10
-170.939831326
 20
-23.7797526429
 30
0.0
 11
-43.8510827951
 21
49.5870202284
 31
0.0
  0
LINE
  5
314
330
29C
100
AcDbEntity
  8
0
  6
CONTINUOUS
 62
     7
100
AcDbLine
 10
-78.781169045
 20
158.6226271223
 30
0.0
 11
-65.088977561
 21
81.1503906136
 31
0.0
  0
LINE
  5
315
330
29C
100
AcDbEntity
  8
0
  6
CONTINUOUS
 62
     7
100
AcDbLine
 10
18.8139682238
 20
-78.3889240996
 30
0.0
 11
20.7273992355
 21
-79.3783748477
 31
0.0
  0
LINE
  5
316
330
29C
100
AcDbEntity
  8
0
  6
CONTINUOUS
 62
     7
100
AcDbLine
 10
57.8553390593
 20
-70.403560354
 30
0.0
 11
57.8540994496
 21
-70.5399040548
 31
0.0
  0
LINE
  5
317
330
29C
100
AcDbEntity
  8
0
  6
CONTINUOUS
 62
     7
100
AcDbLine
 10
86.5667271994
 20
-183.3986634495
 30
0.0
 11
76.8194807848
 21
-213.7912286615
 31
0.0
  0
LINE
  5
318
330
29C
100
AcDbEntity
  8
0
  6
CONTINUOUS
 62
     7
100
AcDbLine
 10
36.3150253488
 20
-208.9155980316
 30
0.0
 11
45.6485302245
 21
-179.8131065666
 31
0.0
  0
LINE
  5
319
330
29C
100
AcDbEntity
  8
0
  6
CONTINUOUS
 62
     7
100
AcDbLine
 10
256.3799035072
 20
-110.1332030469
 30
0.0
 11
276.3045014212
 21
-75.6200678414
 31
0.0
  0
LINE
  5
31A
330
29C
100
AcDbEntity
  8
0
  6
CONTINUOUS
 62
     7
100
AcDbLine
 10
-278.3011043904
 20
7.1733577009
 30
0.0
 11
-257.7826815307
 21
-39.1366056976
 31
0.0
  0
LINE
  5
31B
330
29C
100
AcDbEntity
  8
0
  6
CONTINUOUS
 62
     7
100
AcDbLine
 10
274.1931616174
 20
-35.8271261662
 30
0.0
 11
265.5460384678
 21
-50.8055629552
 31
0.0
  0
LINE
  5
31C
330
29C
100
AcDbEntity
  8
0
  6
CONTINUOUS
 62
     7
100
AcDbLine
 10
213.3439324999
 20
-80.9411972754
 30
0.0
 11
-35.4696361032
 21
62.6958184793
 31
0.0
  0
LINE
  5
31D
330
29C
100
AcDbEntity
  8
0
  6
CONTINUOUS
 62
     7
100
AcDbLine
 10
-269.2248297819
 20
32.958969248
 30
0.0
 11
-274.7722215483
 21
45.4794008334
 31
0.0
  0
LINE
  5
31E
330
29C
100
AcDbEntity
  8
0
  6
CONTINUOUS
 62
     7
100
AcDbLine
 10
-65.088977561
 20
81.1503906136
 30
0.0
 11
-208.8964213822
 21
-1.8678796108
 31
0.0
  0
ARC
  5
31F
330
29C
100
AcDbEntity
  8
0
  6
CONTINUOUS
 62
     7
100
AcDbCircle
 10
226.5948546443
 20
-83.7576237648
 30
0.0
 40
41.65564142616722
100
AcDbArc
 50
300.691427369
 51
330.3891834219
  0
ARC
  5
320
330
29C
100
AcDbEntity
  8
0
  6
CONTINUOUS
 62
     7
100
AcDbCircle
 10
-197.3006523219
 20
-5.9129173997
 30
0.0
 40
73.15101979899688
100
AcDbArc
 50
203.7484575599
 51
238.7335007271
  0
ARC
  5
321
330
29C
100
AcDbEntity
  8
0
  6
CONTINUOUS
 62
     7
100
AcDbCircle
 10
70.7369808507
 20
-142.6583394503
 30
0.0
 40
17.87644943990742
100
AcDbArc
 50
240.9663577809
 51
296.7429157099
  0
ARC
  5
322
330
29C
100
AcDbEntity
  8
0
  6
CONTINUOUS
 62
     7
100
AcDbCircle
 10
-70.7369808507
 20
142.6583394503
 30
0.0
 40
17.87644943990747
100
AcDbArc
 50
60.9663577809
 51
116.7429157099
  0
ARC
  5
323
330
29C
100
AcDbEntity
  8
0
  6
CONTINUOUS
 62
     7
100
AcDbCircle
 10
-218.0150659023
 20
-21.6513750931
 30
0.0
 40
43.44187544361663
100
AcDbArc
 50
203.7343798312
 51
237.7094333652
  0
ARC
  5
324
330
29C
100
AcDbEntity
  8
0
  6
CONTINUOUS
 62
     7
100
AcDbCircle
 10
238.2216622341
 20
-102.3156557841
 30
0.0
 40
19.76956679694344
100
AcDbArc
 50
299.1669760805
 51
336.70699237
  0
ARC
  5
325
330
29C
100
AcDbEntity
  8
0
  6
CONTINUOUS
 62
     7
100
AcDbCircle
 10
-54.0331229608
 20
65.3310146838
 30
0.0
 40
18.74959475156025
100
AcDbArc
 50
302.8917726258
 51
351.920509528
  0
ARC
  5
326
330
29C
100
AcDbEntity
  8
0
  6
CONTINUOUS
 62
     7
100
AcDbCircle
 10
38.4861064103
 20
-39.548354078
 30
0.0
 40
41.4403738717204
100
AcDbArc
 50
274.8088831293
 51
304.1162227334
  0
ARC
  5
327
330
29C
100
AcDbEntity
  8
0
  6
CONTINUOUS
 62
     7
100
AcDbCircle
 10
-49.8863463643
 20
38.1628612302
 30
0.0
 40
45.59657528581685
100
AcDbArc
 50
88.7443855998
 51
109.4762490774
  0
ARC
  5
328
330
29C
100
AcDbEntity
  8
0
  6
CONTINUOUS
 62
     7
100
AcDbCircle
 10
60.7130578937
 20
-207.758425013
 30
0.0
 40
17.19917376525711
100
AcDbArc
 50
301.0997967741
 51
339.4661165158
  0
ARC
  5
329
330
29C
100
AcDbEntity
  8
0
  6
CONTINUOUS
 62
     7
100
AcDbCircle
 10
36.0918112254
 20
-209.8355020013
 30
0.0
 40
13.23313969945903
100
AcDbArc
 50
184.3883134157
 51
236.833316311
  0
ARC
  5
32A
330
29C
100
AcDbEntity
  8
0
  6
CONTINUOUS
 62
     7
100
AcDbCircle
 10
-228.0279531741
 20
-57.3624167979
 30
0.0
 40
13.23312926526015
100
AcDbArc
 50
184.3883020602
 51
236.83350122
  0
ARC
  5
32B
330
29C
100
AcDbEntity
  8
0
  6
CONTINUOUS
 62
     7
100
AcDbCircle
 10
250.3116334199
 20
-96.9320567991
 30
0.0
 40
14.52907994706674
100
AcDbArc
 50
294.6871782003
 51
329.3451611967
  0
ARC
  5
32C
330
29C
100
AcDbEntity
  8
0
  6
CONTINUOUS
 62
     7
100
AcDbCircle
 10
-257.5111630564
 20
-31.2188928202
 30
0.0
 40
7.922367038368236
100
AcDbArc
 50
211.6199095287
 51
268.0359519221
  0
ARC
  5
32D
330
29C
100
AcDbEntity
  8
0
  6
CONTINUOUS
 62
     7
100
AcDbCircle
 10
52.5475383036
 20
-59.4327274203
 30
0.0
 40
17.0983766638116
100
AcDbArc
 50
302.4778388132
 51
339.2044274843
  0
VIEWPORT
  5
439
330
29C
100
AcDbEntity
  8
0
100
AcDbViewport
 10
0.0
 20
0.0
 30
0.0
 40
205.6
 41
156.0
 68
     1
 69
     1
1001
ACAD
1000
MVIEW
1002
{
1070
    16
1010
0.0
1020
0.0
1030
0.0
1010
0.0
1020
0.0
1030
1.0
1040
0.0
1040
425.6614785992
1040
0.0
1040
0.0
1040
50.0
1040
0.0
1040
0.0
1070
     0
1070
   100
1070
     0
1070
     3
1070
     0
1070
     0
1070
     0
1070
     0
1040
0.0
1040
0.0
1040
0.0
1040
10.0
1040
10.0
1040
10.0
1040
10.0
1070
     0
1002
{
1002
}
1002
}
  0
ENDBLK
  5
29F
330
29C
100
AcDbEntity
  8
0
100
AcDbBlockEnd
  0
BLOCK
  5
330
330
32E
100
AcDbEntity
  8
0
100
AcDbBlockBegin
  2
*PAPER_SPACE6
 70
     0
 10
0.0
 20
0.0
 30
0.0
  3
*PAPER_SPACE6
  1

  0
LWPOLYLINE
  5
332
330
32E
100
AcDbEntity
  8
0
  6
CONTINUOUS
 62
     7
100
AcDbPolyline
 90
       14
 70
   128
 43
0.0
 10
99.088324263
 20
-201.8086644709
 10
101.7928640697
 20
-202.4715341696
 10
105.8733280534
 20
-203.2001512162
 10
109.9844804069
 20
-203.6037294378
 10
114.0710893186
 20
-203.6703565357
 10
118.095547211
 20
-203.3982867889
 10
122.02316579
 20
-202.7918496224
 10
125.8232010458
 20
-201.860366139
 10
129.4690066217
 20
-200.6168830907
 10
132.9375452314
 20
-199.0771056456
 10
136.2087654834
 20
-197.2586462946
 10
139.2651206156
 20
-195.1805161837
 10
142.0912842109
 20
-192.8627422037
 10
143.2870589673
 20
-191.6882686046
  0
LWPOLYLINE
  5
33E
330
32E
100
AcDbEntity
  8
0
  6
CONTINUOUS
 62
     7
100
AcDbPolyline
 90
       17
 70
   128
 43
0.0
 10
128.8198198965
 20
-136.9211591255
 10
132.1104297335
 20
-137.7117224841
 10
135.5356468725
 20
-138.3323606579
 10
139.0624846
 20
-138.777096562
 10
142.6569775408
 20
-139.0416471467
 10
146.2845087628
 20
-139.123464645
 10
149.9101431573
 20
-139.0217611098
 10
153.4989638833
 20
-138.7375160018
 10
157.0164086352
 20
-138.2734667567
 10
160.4286024972
 20
-137.6340824223
 10
163.7026841773
 20
-136.8255206195
 10
166.8071224789
 20
-135.8555682402
 10
169.7120199642
 20
-134.7335664563
 10
172.3894008824
 20
-133.4703207582
 10
174.8134805917
 20
-132.0779968925
 10
176.9609138794
 20
-130.5700036992
 10
178.8110197889
 20
-128.9608639771
  0
LWPOLYLINE
  5
340
330
32E
100
AcDbEntity
  8
0
  6
CONTINUOUS
 62
     7
100
AcDbPolyline
 90
       17
 70
   128
 43
0.0
 10
-307.6189471336
 20
3.2403780991
 10
-309.1539081338
 20
1.5455887433
 10
-310.358941711
 20
-0.2185284981
 10
-311.2224427332
 20
-2.0349842118
 10
-311.7360952134
 20
-3.8862849363
 10
-311.8949523977
 20
-5.7546016335
 10
-311.6974844043
 20
-7.6219413924
 10
-311.145592958
 20
-9.4703207103
 10
-310.2445930752
 20
-11.2819386839
 10
-309.0031618772
 20
-13.0393484419
 10
-307.4332550252
 20
-14.7256251674
 10
-305.5499915803
 20
-16.324529094
 10
-303.3715083989
 20
-17.8206619026
 10
-300.9187854651
 20
-19.1996150166
 10
-298.2154438414
 20
-20.4481083635
 10
-295.2875181855
 20
-21.5541182699
 10
-292.163206022
 20
-22.506993256
  0
LWPOLYLINE
  5
342
330
32E
100
AcDbEntity
  8
0
  6
CONTINUOUS
 62
     7
100
AcDbPolyline
 90
       17
 70
   128
 43
0.0
 10
-128.8198198965
 20
136.9211591255
 10
-132.1104297335
 20
137.7117224841
 10
-135.5356468725
 20
138.3323606579
 10
-139.0624846
 20
138.777096562
 10
-142.6569775408
 20
139.0416471467
 10
-146.2845087628
 20
139.123464645
 10
-149.9101431573
 20
139.0217611098
 10
-153.4989638833
 20
138.7375160018
 10
-157.0164086352
 20
138.2734667567
 10
-160.4286024972
 20
137.6340824223
 10
-163.7026841773
 20
136.8255206195
 10
-166.8071224789
 20
135.8555682402
 10
-169.7120199642
 20
134.7335664563
 10
-172.3894008824
 20
133.4703207582
 10
-174.8134805917
 20
132.0779968925
 10
-176.9609138794
 20
130.5700036992
 10
-178.8110197889
 20
128.9608639771
  0
LWPOLYLINE
  5
344
330
32E
100
AcDbEntity
  8
0
  6
CONTINUOUS
 62
     7
100
AcDbPolyline
 90
       17
 70
   128
 43
0.0
 10
307.6189471336
 20
-3.2403780991
 10
309.1539081338
 20
-1.5455887433
 10
310.358941711
 20
0.2185284981
 10
311.2224427332
 20
2.0349842118
 10
311.7360952134
 20
3.8862849363
 10
311.8949523977
 20
5.7546016335
 10
311.6974844043
 20
7.6219413924
 10
311.145592958
 20
9.4703207103
 10
310.2445930752
 20
11.2819386839
 10
309.0031618772
 20
13.0393484419
 10
307.4332550252
 20
14.7256251674
 10
305.5499915803
 20
16.324529094
 10
303.3715083989
 20
17.8206619026
 10
300.9187854651
 20
19.1996150166
 10
298.2154438414
 20
20.4481083635
 10
295.2875181855
 20
21.5541182699
 10
292.163206022
 20
22.506993256
  0
LWPOLYLINE
  5
346
330
32E
100
AcDbEntity
  8
0
  6
CONTINUOUS
 62
     7
100
AcDbPolyline
 90
       10
 70
   128
 43
0.0
 10
140.2817435614
 20
-125.4775940423
 10
142.2713449522
 20
-125.918952604
 10
144.3447505476
 20
-126.1871340162
 10
146.4437138107
 20
-126.2746044713
 10
148.5092702329
 20
-126.1789067314
 10
150.4833937778
 20
-125.9027291569
 10
152.31062696
 20
-125.4538301852
 10
153.9396387684
 20
-124.8448203788
 10
155.3246666679
 20
-124.0928081666
 10
156.4268021692
 20
-123.2189192305
  0
LWPOLYLINE
  5
348
330
32E
100
AcDbEntity
  8
0
  6
CONTINUOUS
 62
     7
100
AcDbPolyline
 90
       10
 70
   128
 43
0.0
 10
285.7822586695
 20
3.0359718886
 10
286.5609006494
 20
3.9977794321
 10
286.9845356313
 20
5.0110776392
 10
287.0412627739
 20
6.0474007278
 10
286.7294884868
 20
7.0776360962
 10
286.0579711973
 20
8.0728421602
 10
285.0455753075
 20
9.0050613861
 10
283.7207412514
 20
9.8481056792
 10
282.1206865402
 20
10.5782920657
 10
280.2903602404
 20
11.175107999
  0
LWPOLYLINE
  5
34A
330
32E
100
AcDbEntity
  8
0
  6
CONTINUOUS
 62
     7
100
AcDbPolyline
 90
       10
 70
   128
 43
0.0
 10
-140.2817435614
 20
125.4775940423
 10
-142.2713449522
 20
125.918952604
 10
-144.3447505476
 20
126.1871340162
 10
-146.4437138107
 20
126.2746044713
 10
-148.5092702329
 20
126.1789067314
 10
-150.4833937778
 20
125.9027291569
 10
-152.31062696
 20
125.4538301852
 10
-153.9396387684
 20
124.8448203788
 10
-155.3246666679
 20
124.0928081666
 10
-156.4268021692
 20
123.2189192305
  0
LWPOLYLINE
  5
34C
330
32E
100
AcDbEntity
  8
0
  6
CONTINUOUS
 62
     7
100
AcDbPolyline
 90
       10
 70
   128
 43
0.0
 10
-285.7822586695
 20
-3.0359718886
 10
-286.5609006494
 20
-3.9977794321
 10
-286.9845356313
 20
-5.0110776392
 10
-287.0412627739
 20
-6.0474007278
 10
-286.7294884868
 20
-7.0776360962
 10
-286.0579711973
 20
-8.0728421602
 10
-285.0455753075
 20
-9.0050613861
 10
-283.7207412514
 20
-9.8481056792
 10
-282.1206865402
 20
-10.5782920657
 10
-280.2903602404
 20
-11.175107999
  0
LWPOLYLINE
  5
34E
330
32E
100
AcDbEntity
  8
0
  6
CONTINUOUS
 62
     7
100
AcDbPolyline
 90
       17
 70
   128
 43
0.0
 10
128.8198198965
 20
-148.0643340346
 10
132.1104297335
 20
-148.8548973932
 10
135.5356468725
 20
-149.475535567
 10
139.0624846
 20
-149.9202714712
 10
142.6569775408
 20
-150.1848220558
 10
146.2845087628
 20
-150.2666395541
 10
149.9101431573
 20
-150.164936019
 10
153.4989638833
 20
-149.8806909109
 10
157.0164086352
 20
-149.4166416658
 10
160.4286024972
 20
-148.7772573315
 10
163.7026841773
 20
-147.9686955286
 10
166.8071224789
 20
-146.9987431494
 10
169.7120199642
 20
-145.8767413654
 10
172.3894008824
 20
-144.6134956673
 10
174.8134805917
 20
-143.2211718016
 10
176.9609138794
 20
-141.7131786083
 10
178.8110197889
 20
-140.1040388862
  0
LWPOLYLINE
  5
352
330
32E
100
AcDbEntity
  8
0
  6
CONTINUOUS
 62
     7
100
AcDbPolyline
 90
       14
 70
   128
 43
0.0
 10
110.8371548267
 20
-184.4105243159
 10
113.8671804762
 20
-186.0999905355
 10
117.0427918926
 20
-187.5306514853
 10
120.3211793601
 20
-188.6832207411
 10
123.6581476619
 20
-189.5421607716
 10
127.0087118659
 20
-190.095892396
 10
130.3277037566
 20
-190.3369508807
 10
133.5703807378
 20
-190.2620865695
 10
136.693028998
 20
-189.8723086918
 10
139.653552806
 20
-189.1728717568
 10
142.4120419947
 20
-188.1732047194
 10
144.9313099811
 20
-186.8867838699
 10
147.1773950703
 20
-185.3309511634
 10
149.1200182855
 20
-183.5266804369
  0
LWPOLYLINE
  5
355
330
32E
100
AcDbEntity
  8
0
  6
CONTINUOUS
 62
     7
100
AcDbPolyline
 90
       10
 70
   128
 43
0.0
 10
110.8371548267
 20
-184.4105243159
 10
109.8503868274
 20
-186.1913193411
 10
108.5515769654
 20
-187.7368856559
 10
106.9627293927
 20
-189.0210386145
 10
105.1107620169
 20
-190.0220223788
 10
103.0270504633
 20
-190.7228785012
 10
100.7468965166
 20
-191.1117332309
 10
98.3089300454
 20
-191.1819986761
 10
95.7544545434
 20
-190.9324844151
 10
93.126747375
 20
-190.3674176639
  0
LWPOLYLINE
  5
359
330
32E
100
AcDbEntity
  8
0
  6
CONTINUOUS
 62
     7
100
AcDbPolyline
 90
        3
 70
   128
 43
0.0
 10
261.2235637739
 20
-76.634818988
 10
264.3988815145
 20
-73.0370691133
 10
267.6311449619
 20
-67.8561876742
  0
LWPOLYLINE
  5
35C
330
32E
100
AcDbEntity
  8
0
  6
CONTINUOUS
 62
     7
100
AcDbPolyline
 90
       20
 70
   128
 43
0.0
 10
-11.4785231532
 20
-64.8007496722
 10
-10.9202346369
 20
-66.640769765
 10
-9.9963239116
 20
-68.4413031972
 10
-8.716652377
 20
-70.1831319004
 10
-7.0948786602
 20
-71.8476643938
 10
-5.1483128304
 20
-73.4171342205
 10
-2.8977316388
 20
-74.8747895791
 10
-0.3671567573
 20
-76.2050721247
 10
2.4164016181
 20
-77.3937830313
 10
5.4232330613
 20
-78.4282345435
 10
8.6212440321
 20
-79.2973854003
 10
11.9763004276
 20
-79.9919586839
 10
15.452591914
 20
-80.5045408374
 10
19.0130141496
 20
-80.8296607939
 10
22.6195648199
 20
-80.9638483722
 10
26.2337492565
 20
-80.9056713154
 10
29.8169913117
 20
-80.6557505789
 10
33.3310451025
 20
-80.216753702
 10
36.73840323
 20
-79.5933663361
 10
40.0026971155
 20
-78.7922422321
  0
LWPOLYLINE
  5
35E
330
32E
100
AcDbEntity
  8
0
  6
CONTINUOUS
 62
     7
100
AcDbPolyline
 90
       12
 70
   128
 43
0.0
 10
40.0026971155
 20
-78.7922422321
 10
43.1961856663
 20
-77.7840671554
 10
46.1621988311
 20
-76.6058957016
 10
48.866766475
 20
-75.271221622
 10
51.2789128325
 20
-73.7953311124
 10
53.3710112773
 20
-72.1951277391
 10
55.1191007335
 20
-70.4889388397
 10
56.503160105
 20
-68.6963056177
 10
57.5073375797
 20
-66.8377593349
 10
58.120132182
 20
-64.9345861638
 10
58.3345254957
 20
-63.0085833946
 10
58.1480620462
 20
-61.0818097878
  0
LWPOLYLINE
  5
35F
330
32E
100
AcDbEntity
  8
0
  6
CONTINUOUS
 62
     7
100
AcDbPolyline
 90
       13
 70
   128
 43
0.0
 10
-311.8954766316
 20
-16.7963349133
 10
-311.8949523977
 20
-16.8977765426
 10
-311.6974844043
 20
-18.7651163015
 10
-311.145592958
 20
-20.6134956194
 10
-310.2445930752
 20
-22.4251135931
 10
-309.0031618772
 20
-24.182523351
 10
-307.4332550252
 20
-25.8688000766
 10
-305.5499915803
 20
-27.4677040031
 10
-303.3715083989
 20
-28.9638368118
 10
-300.9187854651
 20
-30.3427899257
 10
-298.2154438414
 20
-31.5912832726
 10
-295.2875181855
 20
-32.6972931791
 10
-292.163206022
 20
-33.6501681651
  0
LWPOLYLINE
  5
362
330
32E
100
AcDbEntity
  8
0
  6
CONTINUOUS
 62
     7
100
AcDbPolyline
 90
       12
 70
   128
 43
0.0
 10
6.6668417775
 20
-47.0903172279
 10
3.4733532267
 20
-48.0984923046
 10
0.5073400619
 20
-49.2766637584
 10
-2.197227582
 20
-50.611337838
 10
-4.6093739395
 20
-52.0872283476
 10
-6.7014723843
 20
-53.6874317209
 10
-8.4495618405
 20
-55.3936206203
 10
-9.833621212
 20
-57.1862538423
 10
-10.8377986866
 20
-59.0448001251
 10
-11.450593289
 20
-60.9479732962
 10
-11.6649866027
 20
-62.8739760654
 10
-11.4785231532
 20
-64.8007496722
  0
LWPOLYLINE
  5
369
330
32E
100
AcDbEntity
  8
0
  6
CONTINUOUS
 62
     7
100
AcDbPolyline
 90
       20
 70
   128
 43
0.0
 10
58.1480620462
 20
-61.0818097878
 10
57.5897735299
 20
-59.241789695
 10
56.6658628046
 20
-57.4412562628
 10
55.38619127
 20
-55.6994275596
 10
53.7644175532
 20
-54.0348950662
 10
51.8178517234
 20
-52.4654252395
 10
49.5672705318
 20
-51.0077698809
 10
47.0366956503
 20
-49.6774873353
 10
44.2531372749
 20
-48.4887764287
 10
41.2463058317
 20
-47.4543249165
 10
38.0482948609
 20
-46.5851740597
 10
34.6932384654
 20
-45.8906007761
 10
31.216946979
 20
-45.3780186226
 10
27.6565247434
 20
-45.0528986661
 10
24.0499740731
 20
-44.9187110878
 10
20.4357896365
 20
-44.9768881446
 10
16.8525475813
 20
-45.2268088811
 10
13.3384937905
 20
-45.665805758
 10
9.931135663
 20
-46.2891931239
 10
6.6668417775
 20
-47.0903172279
  0
LWPOLYLINE
  5
36A
330
32E
100
AcDbEntity
  8
0
  6
CONTINUOUS
 62
     7
100
AcDbPolyline
 90
       17
 70
   128
 43
0.0
 10
7.2251103884
 20
-48.0899279458
 10
10.9880620559
 20
-47.1893616257
 10
14.936780619
 20
-46.5328486175
 10
19.0118541902
 20
-46.1302667278
 10
23.1519697617
 20
-45.9876731492
 10
27.2948357127
 20
-46.1072133257
 10
31.3781190403
 20
-46.4870886717
 10
35.3403832139
 20
-47.121583634
 10
39.1220125408
 20
-48.001151687
 10
42.6661091358
 20
-49.1125589683
 10
45.9193489991
 20
-50.4390833936
 10
48.8327843223
 20
-51.9607662553
 10
51.36257995
 20
-53.6547125181
 10
53.4706729183
 20
-55.4954352949
 10
55.1253451444
 20
-57.4552393187
 10
56.3017006531
 20
-59.5046376425
 10
56.9820401578
 20
-61.6127952952
  0
LWPOLYLINE
  5
36C
330
32E
100
AcDbEntity
  8
0
  6
CONTINUOUS
 62
     7
100
AcDbPolyline
 90
       14
 70
   128
 43
0.0
 10
39.4444285047
 20
-78.7300419089
 10
35.6814768371
 20
-79.6306082292
 10
31.732758274
 20
-80.2871212373
 10
27.6576847028
 20
-80.689703127
 10
23.5175691313
 20
-80.8322967056
 10
19.3747031803
 20
-80.7127565292
 10
15.2914198527
 20
-80.3328811831
 10
11.3291556791
 20
-79.6983862208
 10
7.5475263522
 20
-78.8188181678
 10
4.0034297572
 20
-77.7074108865
 10
0.7501898939
 20
-76.3808864612
 10
-2.1632454293
 20
-74.8592035995
 10
-4.693041057
 20
-73.1652573367
 10
-5.4162550329
 20
-72.5337688502
  0
LWPOLYLINE
  5
36D
330
32E
100
AcDbEntity
  8
0
  6
CONTINUOUS
 62
     7
100
AcDbPolyline
 90
        9
 70
   128
 43
0.0
 10
-10.3125012648
 20
-65.2071745596
 10
-10.4603860223
 20
-62.6456400958
 10
-9.8771074169
 20
-60.1006423493
 10
-8.5752847705
 20
-57.6272427363
 10
-6.5830832153
 20
-55.2789536359
 10
-3.943604337
 20
-53.1065806425
 10
-0.7139536653
 20
-51.1571233784
 10
3.035994813
 20
-49.4727586499
 10
7.2251103884
 20
-48.0899279458
  0
LWPOLYLINE
  5
36E
330
32E
100
AcDbEntity
  8
0
  6
CONTINUOUS
 62
     7
100
AcDbPolyline
 90
        3
 70
   128
 43
0.0
 10
43.3699658736
 20
-77.134619177
 10
42.9284009908
 20
-77.4972133312
 10
43.3699658736
 20
-77.134619177
  0
LWPOLYLINE
  5
36F
330
32E
100
AcDbEntity
  8
0
  6
CONTINUOUS
 62
     7
100
AcDbPolyline
 90
        3
 70
   128
 43
0.0
 10
-10.3125012648
 20
-65.2071745596
 10
-10.8597260604
 20
-64.9359358397
 10
-11.4785231532
 20
-64.8007496722
  0
LWPOLYLINE
  5
370
330
32E
100
AcDbEntity
  8
0
  6
CONTINUOUS
 62
     7
100
AcDbPolyline
 90
        3
 70
   128
 43
0.0
 10
39.4444285047
 20
-78.7300419089
 10
39.7064290972
 20
-78.6787333103
 10
40.0026971155
 20
-78.7922422321
  0
LWPOLYLINE
  5
371
330
32E
100
AcDbEntity
  8
0
  6
CONTINUOUS
 62
     7
100
AcDbPolyline
 90
        3
 70
   128
 43
0.0
 10
58.1480620462
 20
-61.0818097878
 10
57.5292649534
 20
-61.2830991308
 10
56.9820401578
 20
-61.6127952952
  0
LWPOLYLINE
  5
374
330
32E
100
AcDbEntity
  8
0
  6
CONTINUOUS
 62
     7
100
AcDbPolyline
 90
       21
 70
   128
 43
0.0
 10
44.4496752014
 20
-76.0815254817
 10
43.526549113
 20
-74.9719282543
 10
42.1231686911
 20
-73.7088360108
 10
40.4234839894
 20
-72.5462937801
 10
38.4543000511
 20
-71.5026355477
 10
36.2466720831
 20
-70.5943204273
 10
33.8354156974
 20
-69.8356730909
 10
31.2585578476
 20
-69.2386578604
 10
28.5567371212
 20
-68.8126900224
 10
25.7725628451
 20
-68.5644873443
 10
22.9499431109
 20
-68.4979641306
 10
20.1333923178
 20
-68.614169492
 10
17.3673291545
 20
-68.9112708007
 10
14.6953760894
 20
-69.3845825914
 10
12.1596714184
 20
-70.0266404546
 10
9.800204719
 20
-70.8273187541
 10
7.6541861906
 20
-71.7739903149
 10
5.7554598272
 20
-72.851725561
 10
4.1339696778
 20
-74.0435279636
 10
2.8152876109
 20
-75.3306020871
 10
2.2196757611
 20
-76.0817884388
  0
LWPOLYLINE
  5
375
330
32E
100
AcDbEntity
  8
0
  6
CONTINUOUS
 62
     7
100
AcDbPolyline
 90
        3
 70
   128
 43
0.0
 10
6.6668417775
 20
-47.0903172279
 10
6.9631097958
 20
-47.5403016603
 10
7.2251103884
 20
-48.0899279458
  0
LWPOLYLINE
  5
37C
330
32E
100
AcDbEntity
  8
0
  6
CONTINUOUS
 62
     7
100
AcDbPolyline
 90
        8
 70
   128
 43
0.0
 10
99.088324263
 20
-201.8086644709
 10
97.7981192872
 20
-201.248170137
 10
96.6257887054
 20
-200.2984855022
 10
95.5943830214
 20
-198.9744782657
 10
94.7179723057
 20
-197.2942100644
 10
94.0085122425
 20
-195.2806025212
 10
93.4756810341
 20
-192.9611245558
 10
93.126747375
 20
-190.3674176639
  0
LWPOLYLINE
  5
37D
330
32E
100
AcDbEntity
  8
0
  6
CONTINUOUS
 62
     7
100
AcDbPolyline
 90
        8
 70
   128
 43
0.0
 10
-237.2226469732
 20
-100.5855308114
 10
-236.8737133141
 20
-103.1792377033
 10
-236.3408821057
 20
-105.4987156686
 10
-235.6314220424
 20
-107.5123232118
 10
-234.7550113268
 20
-109.1925914131
 10
-233.7236056428
 20
-110.5165986496
 10
-232.551275061
 20
-111.4662832844
 10
-231.2610700851
 20
-112.0267776183
  0
LWPOLYLINE
  5
37E
330
32E
100
AcDbEntity
  8
0
  6
CONTINUOUS
 62
     7
100
AcDbPolyline
 90
        9
 70
   128
 43
0.0
 10
-269.9760833639
 20
-80.4149220003
 10
-269.8697184858
 20
-80.6157122762
 10
-268.96984991
 20
-81.8164317057
 10
-267.7222846006
 20
-82.8164656185
 10
-266.1438407097
 20
-83.6023327785
 10
-264.2557968905
 20
-84.163439084
 10
-262.0836054446
 20
-84.4922203851
 10
-259.6565492047
 20
-84.5842444536
 10
-257.0073467796
 20
-84.4382707335
  0
LWPOLYLINE
  5
382
330
32E
100
AcDbEntity
  8
0
  6
CONTINUOUS
 62
     7
100
AcDbPolyline
 90
        3
 70
   128
 43
0.0
 10
267.6311449619
 20
-67.8561876742
 10
268.9003978953
 20
-66.525568815
 10
269.5880560895
 20
-65.4616217501
  0
LWPOLYLINE
  5
384
330
32E
100
AcDbEntity
  8
0
  6
CONTINUOUS
 62
     7
100
AcDbPolyline
 90
        6
 70
   128
 43
0.0
 10
56.9820401578
 20
-61.6127952952
 10
57.1299249153
 20
-64.174329759
 10
56.5466463099
 20
-66.7193275055
 10
55.2448236635
 20
-69.1927271185
 10
53.2526221083
 20
-71.5410162189
 10
52.1180481322
 20
-72.4748057956
  0
LWPOLYLINE
  5
386
330
32E
100
AcDbEntity
  8
0
  6
CONTINUOUS
 62
     7
100
AcDbPolyline
 90
       37
 70
   128
 43
0.0
 10
43.3699658736
 20
-77.134619177
 10
44.3503800516
 20
-76.2072014194
 10
45.4537838778
 20
-74.8369670303
 10
46.2218859921
 20
-73.4072815205
 10
46.6430427494
 20
-71.939817465
 10
46.7108698426
 20
-70.4568201231
 10
46.424339082
 20
-68.9807702226
 10
45.787793982
 20
-67.5340431757
 10
44.8108839174
 20
-66.1385698894
 10
43.5084178489
 20
-64.8155043165
 10
41.9001398346
 20
-63.5849027823
 10
40.0104297296
 20
-62.4654199517
 10
37.867933613
 20
-61.4740260433
 10
35.505129542
 20
-60.6257495781
 10
32.9578352176
 20
-59.9334495626
 10
30.2646650254
 20
-59.4076205595
 10
27.4664446802
 20
-59.0562336004
 10
24.60559235
 20
-58.8846153533
 10
21.72547564
 20
-58.8953673761
 10
18.8697541837
 20
-59.088326679
 10
16.0817178074
 20
-59.4605681956
 10
13.4036303006
 20
-60.0064491241
 10
10.8760887399
 20
-60.7176944659
 10
8.5374080792
 20
-61.5835224666
 10
6.4230403331
 20
-62.5908080565
 10
4.5650371615
 20
-63.7242818127
 10
2.9915639986
 20
-64.9667614284
 10
1.7264730936
 20
-66.2994121793
 10
0.7889419349
 20
-67.7020324382
 10
0.1931825394
 20
-69.153359912
 10
-0.0517739878
 20
-70.6313939554
 10
0.0577856445
 20
-72.113729079
 10
0.5202006239
 20
-73.5778945934
 10
1.3284612109
 20
-75.0016952418
 10
2.4703149987
 20
-76.3635476577
 10
3.9284526479
 20
-77.6428075467
 10
4.1924614262
 20
-77.8405385683
  0
LWPOLYLINE
  5
387
330
32E
100
AcDbEntity
  8
0
  6
CONTINUOUS
 62
     7
100
AcDbPolyline
 90
       27
 70
   128
 43
0.0
 10
0.8347694465
 20
-72.5566960662
 10
0.8582892756
 20
-72.0269726762
 10
1.1644299037
 20
-70.5802617258
 10
1.8202100302
 20
-69.1647203257
 10
2.8152876109
 20
-67.8026724093
 10
4.1339696778
 20
-66.5155982858
 10
5.7554598272
 20
-65.3237958832
 10
7.6541861906
 20
-64.2460606371
 10
9.800204719
 20
-63.2993890763
 10
12.1596714184
 20
-62.4987107768
 10
14.6953760894
 20
-61.8566529136
 10
17.3673291545
 20
-61.3833411229
 10
20.1333923178
 20
-61.0862398142
 10
22.9499431109
 20
-60.9700344528
 10
25.7725628451
 20
-61.0365576665
 10
28.5567371212
 20
-61.2847603446
 10
31.2585578476
 20
-61.7107281826
 10
33.8354156974
 20
-62.3077434131
 10
36.2466720831
 20
-63.0663907495
 10
38.4543000511
 20
-63.9747058699
 10
40.4234839894
 20
-65.0183641023
 10
42.1231686911
 20
-66.180906333
 10
43.526549113
 20
-67.4439985764
 10
44.6114931076
 20
-68.7877211135
 10
45.36089046
 20
-70.1908826371
 10
45.7629227263
 20
-71.6313544517
 10
45.8025355438
 20
-72.5692428772
  0
LINE
  5
388
330
32E
100
AcDbEntity
  8
0
  6
CONTINUOUS
 62
     7
100
AcDbLine
 10
143.3204236326
 20
-191.7118982538
 30
0.0
 11
261.2235637739
 21
-76.634818988
 31
0.0
  0
LINE
  5
389
330
32E
100
AcDbEntity
  8
0
  6
CONTINUOUS
 62
     7
100
AcDbLine
 10
-231.2610700851
 20
-112.0267776183
 30
0.0
 11
99.088324263
 21
-201.8086644709
 31
0.0
  0
LINE
  5
38A
330
32E
100
AcDbEntity
  8
0
  6
CONTINUOUS
 62
     7
100
AcDbLine
 10
-311.8954766316
 20
-5.6531600042
 30
0.0
 11
-311.8954766316
 21
-16.7963349133
 31
0.0
  0
LINE
  5
38B
330
32E
100
AcDbEntity
  8
0
  6
CONTINUOUS
 62
     7
100
AcDbLine
 10
-293.7368841081
 20
-33.1968922078
 30
0.0
 11
-269.9760833639
 21
-80.4149220003
 31
0.0
  0
LINE
  5
38C
330
32E
100
AcDbEntity
  8
0
  6
CONTINUOUS
 62
     7
100
AcDbLine
 10
311.8954766316
 20
-5.4900149049
 30
0.0
 11
311.8954766316
 21
5.6531600042
 31
0.0
  0
LINE
  5
38D
330
32E
100
AcDbEntity
  8
0
  6
CONTINUOUS
 62
     7
100
AcDbLine
 10
269.5880560895
 20
-65.4616217501
 30
0.0
 11
285.4521504763
 21
-36.0190261003
 31
0.0
  0
LINE
  5
38E
330
32E
100
AcDbEntity
  8
0
  6
CONTINUOUS
 62
     7
100
AcDbLine
 10
178.8110197889
 20
-128.9608639771
 30
0.0
 11
307.6189471336
 21
-3.2403780991
 31
0.0
  0
LINE
  5
38F
330
32E
100
AcDbEntity
  8
0
  6
CONTINUOUS
 62
     7
100
AcDbLine
 10
-292.163206022
 20
-22.506993256
 30
0.0
 11
128.8198198965
 21
-136.9211591255
 31
0.0
  0
LINE
  5
390
330
32E
100
AcDbEntity
  8
0
  6
CONTINUOUS
 62
     7
100
AcDbLine
 10
-178.8110197889
 20
128.9608639771
 30
0.0
 11
-307.6189471336
 21
3.2403780991
 31
0.0
  0
LINE
  5
391
330
32E
100
AcDbEntity
  8
0
  6
CONTINUOUS
 62
     7
100
AcDbLine
 10
292.163206022
 20
22.506993256
 30
0.0
 11
-128.8198198965
 21
136.9211591255
 31
0.0
  0
LINE
  5
392
330
32E
100
AcDbEntity
  8
0
  6
CONTINUOUS
 62
     7
100
AcDbLine
 10
-280.2903602404
 20
-11.175107999
 30
0.0
 11
140.2817435614
 21
-125.4775940423
 31
0.0
  0
LINE
  5
393
330
32E
100
AcDbEntity
  8
0
  6
CONTINUOUS
 62
     7
100
AcDbLine
 10
156.4268021692
 20
-123.2189192305
 30
0.0
 11
285.7822586695
 21
3.0359718886
 31
0.0
  0
LINE
  5
394
330
32E
100
AcDbEntity
  8
0
  6
CONTINUOUS
 62
     7
100
AcDbLine
 10
280.2903602404
 20
11.175107999
 30
0.0
 11
-140.2817435614
 21
125.4775940423
 31
0.0
  0
LINE
  5
395
330
32E
100
AcDbEntity
  8
0
  6
CONTINUOUS
 62
     7
100
AcDbLine
 10
-156.4268021692
 20
123.2189192305
 30
0.0
 11
-285.7822586695
 21
-3.0359718886
 31
0.0
  0
LINE
  5
396
330
32E
100
AcDbEntity
  8
0
  6
CONTINUOUS
 62
     7
100
AcDbLine
 10
178.8110197889
 20
-140.1040388862
 30
0.0
 11
178.8110197889
 21
-128.9608639771
 31
0.0
  0
LINE
  5
397
330
32E
100
AcDbEntity
  8
0
  6
CONTINUOUS
 62
     7
100
AcDbLine
 10
128.8198198965
 20
-148.0643340346
 30
0.0
 11
128.8198198965
 21
-136.9211591255
 31
0.0
  0
LINE
  5
398
330
32E
100
AcDbEntity
  8
0
  6
CONTINUOUS
 62
     7
100
AcDbLine
 10
-292.163206022
 20
-33.6501681651
 30
0.0
 11
-292.163206022
 21
-22.506993256
 31
0.0
  0
LINE
  5
399
330
32E
100
AcDbEntity
  8
0
  6
CONTINUOUS
 62
     7
100
AcDbLine
 10
-292.163206022
 20
-33.6501681651
 30
0.0
 11
128.8198198965
 21
-148.0643340346
 31
0.0
  0
LINE
  5
39A
330
32E
100
AcDbEntity
  8
0
  6
CONTINUOUS
 62
     7
100
AcDbLine
 10
307.6189471336
 20
-14.3835530082
 30
0.0
 11
307.6189471336
 21
-3.2403780991
 31
0.0
  0
LINE
  5
39B
330
32E
100
AcDbEntity
  8
0
  6
CONTINUOUS
 62
     7
100
AcDbLine
 10
178.8110197889
 20
-140.1040388862
 30
0.0
 11
307.6189471336
 21
-14.3835530082
 31
0.0
  0
LINE
  5
39C
330
32E
100
AcDbEntity
  8
0
  6
CONTINUOUS
 62
     7
100
AcDbLine
 10
-237.2226469732
 20
-100.5855308114
 30
0.0
 11
93.126747375
 21
-190.3674176639
 31
0.0
  0
LINE
  5
39D
330
32E
100
AcDbEntity
  8
0
  6
CONTINUOUS
 62
     7
100
AcDbLine
 10
149.1200182855
 20
-183.5266804369
 30
0.0
 11
267.6311449619
 21
-67.8561876742
 31
0.0
  0
LINE
  5
39E
330
32E
100
AcDbEntity
  8
0
  6
CONTINUOUS
 62
     7
100
AcDbLine
 10
40.0026971155
 20
-78.7922422321
 30
0.0
 11
55.1034316933
 21
-102.327954027
 31
0.0
  0
LINE
  5
39F
330
32E
100
AcDbEntity
  8
0
  6
CONTINUOUS
 62
     7
100
AcDbLine
 10
-11.4785231532
 20
-64.8007496722
 30
0.0
 11
-59.2738144
 21
-71.2426693467
 31
0.0
  0
LINE
  5
3A0
330
32E
100
AcDbEntity
  8
0
  6
CONTINUOUS
 62
     7
100
AcDbLine
 10
58.1480620462
 20
-61.0818097878
 30
0.0
 11
212.0576718199
 21
-68.9214850084
 31
0.0
  0
LINE
  5
3A1
330
32E
100
AcDbEntity
  8
0
  6
CONTINUOUS
 62
     7
100
AcDbLine
 10
-169.9199164849
 20
-41.1714296592
 30
0.0
 11
-106.9562800132
 21
20.2830097767
 31
0.0
  0
LINE
  5
3A2
330
32E
100
AcDbEntity
  8
0
  6
CONTINUOUS
 62
     7
100
AcDbLine
 10
-106.9562800132
 20
20.2830097767
 30
0.0
 11
6.6668417775
 21
-47.0903172279
 31
0.0
  0
LINE
  5
3A3
330
32E
100
AcDbEntity
  8
0
  6
CONTINUOUS
 62
     7
100
AcDbLine
 10
-156.4268021692
 20
123.2189192305
 30
0.0
 11
-134.4480197932
 21
47.4076496745
 31
0.0
  0
LINE
  5
3A4
330
32E
100
AcDbEntity
  8
0
  6
CONTINUOUS
 62
     7
100
AcDbLine
 10
-119.1348744097
 20
52.5358373016
 30
0.0
 11
-140.2817435614
 21
125.4775940423
 31
0.0
  0
LINE
  5
3A5
330
32E
100
AcDbEntity
  8
0
  6
CONTINUOUS
 62
     7
100
AcDbLine
 10
-106.9562800132
 20
20.2830097767
 30
0.0
 11
214.0638585516
 21
-66.9633852557
 31
0.0
  0
LINE
  5
3A6
330
32E
100
AcDbEntity
  8
0
  6
CONTINUOUS
 62
     7
100
AcDbLine
 10
0.8369056068
 20
-72.7163766834
 30
0.0
 11
0.8347694465
 21
-72.5566960662
 31
0.0
  0
LINE
  5
3A7
330
32E
100
AcDbEntity
  8
0
  6
CONTINUOUS
 62
     7
100
AcDbLine
 10
164.7840525725
 20
-147.6549879417
 30
0.0
 11
149.1200182855
 21
-183.5266804369
 31
0.0
  0
LINE
  5
3A8
330
32E
100
AcDbEntity
  8
0
  6
CONTINUOUS
 62
     7
100
AcDbLine
 10
110.8371548267
 20
-184.4105243159
 30
0.0
 11
126.9323828745
 21
-147.551369095
 31
0.0
  0
LINE
  5
3A9
330
32E
100
AcDbEntity
  8
0
  6
CONTINUOUS
 62
     7
100
AcDbLine
 10
-281.0439593206
 20
-36.6721411619
 30
0.0
 11
-257.0073467796
 21
-84.4382707335
 31
0.0
  0
LINE
  5
3AA
330
32E
100
AcDbEntity
  8
0
  6
CONTINUOUS
 62
     7
100
AcDbLine
 10
267.6311449619
 20
-67.8561876742
 30
0.0
 11
284.0459415587
 21
-37.3915291132
 31
0.0
  0
LINE
  5
3AB
330
32E
100
AcDbEntity
  8
0
  6
CONTINUOUS
 62
     7
100
AcDbLine
 10
-281.9551384281
 20
-10.6413164863
 30
0.0
 11
-285.7822586695
 21
-3.0359718886
 31
0.0
  0
LINE
  5
3AC
330
32E
100
AcDbEntity
  8
0
  6
CONTINUOUS
 62
     7
100
AcDbLine
 10
-134.4480197932
 20
47.4076496745
 30
0.0
 11
-213.1616392315
 21
-29.4192559748
 31
0.0
  0
LINE
  5
3AD
330
32E
100
AcDbEntity
  8
0
  6
CONTINUOUS
 62
     7
100
AcDbLine
 10
280.2903602404
 20
11.175107999
 30
0.0
 11
264.9483228386
 21
-17.2985881762
 31
0.0
  0
LINE
  5
3AE
330
32E
100
AcDbEntity
  8
0
  6
CONTINUOUS
 62
     7
100
AcDbLine
 10
226.5532859514
 20
-54.7733212324
 30
0.0
 11
-101.4244669579
 21
34.3640042953
 31
0.0
  0
ARC
  5
3AF
330
32E
100
AcDbEntity
  8
0
  6
CONTINUOUS
 62
     7
100
AcDbCircle
 10
-214.4302706696
 20
-51.9010614874
 30
0.0
 40
62.43698863034872
100
AcDbArc
 50
207.1732214338
 51
254.3616426695
  0
ARC
  5
3B0
330
32E
100
AcDbEntity
  8
0
  6
CONTINUOUS
 62
     7
100
AcDbCircle
 10
228.3849178893
 20
-43.3335957714
 30
0.0
 40
46.76909376128342
100
AcDbArc
 50
314.5992841073
 51
331.7621068568
  0
ARC
  5
3B1
330
32E
100
AcDbEntity
  8
0
  6
CONTINUOUS
 62
     7
100
AcDbCircle
 10
39.5258870218
 20
-72.1556172039
 30
0.0
 40
6.290262543526053
100
AcDbArc
 50
307.6702266606
 51
356.2297094459
  0
ARC
  5
3B2
330
32E
100
AcDbEntity
  8
0
  6
CONTINUOUS
 62
     7
100
AcDbCircle
 10
7.6843628498
 20
-71.8369550591
 30
0.0
 40
6.903698507959395
100
AcDbArc
 50
187.3184571795
 51
238.7366974808
  0
ARC
  5
3B3
330
32E
100
AcDbEntity
  8
0
  6
CONTINUOUS
 62
     7
100
AcDbCircle
 10
-228.2359230064
 20
-69.3800005405
 30
0.0
 40
32.47377907084342
100
AcDbArc
 50
207.6264768216
 51
253.9343942124
  0
ARC
  5
3B4
330
32E
100
AcDbEntity
  8
0
  6
CONTINUOUS
 62
     7
100
AcDbCircle
 10
299.3991162947
 20
-4.9560101847
 30
0.0
 40
12.50776489670601
100
AcDbArc
 50
311.085022242
 51
357.5530784637
  0
ARC
  5
3B5
330
32E
100
AcDbEntity
  8
0
  6
CONTINUOUS
 62
     7
100
AcDbCircle
 10
-93.7391975263
 20
59.5703924625
 30
0.0
 40
26.35195193290832
100
AcDbArc
 50
195.4826323547
 51
253.0438654698
  0
ARC
  5
3B6
330
32E
100
AcDbEntity
  8
0
  6
CONTINUOUS
 62
     7
100
AcDbCircle
 10
-94.9152972784
 20
59.9811768658
 30
0.0
 40
41.48409014861657
100
AcDbArc
 50
197.6434562422
 51
253.1267506918
  0
ARC
  5
3B7
330
32E
100
AcDbEntity
  8
0
  6
CONTINUOUS
 62
     7
100
AcDbCircle
 10
32.3053420612
 20
-48.2991566036
 30
0.0
 40
31.25708456838919
100
AcDbArc
 50
283.2028317122
 51
309.3356983451
  0
ARC
  5
3B8
330
32E
100
AcDbEntity
  8
0
  6
CONTINUOUS
 62
     7
100
AcDbCircle
 10
-125.5275681397
 20
35.7059669393
 30
0.0
 40
24.14042978736131
100
AcDbArc
 50
320.2912771614
 51
356.8132940342
  0
ARC
  5
3B9
330
32E
100
AcDbEntity
  8
0
  6
CONTINUOUS
 62
     7
100
AcDbCircle
 10
-112.3042652823
 20
6.7119531827
 30
0.0
 40
46.3301799779917
100
AcDbArc
 50
98.4782089596
 51
118.5519435886
  0
ARC
  5
3BA
330
32E
100
AcDbEntity
  8
0
  6
CONTINUOUS
 62
     7
100
AcDbCircle
 10
123.7493714616
 20
-171.6976826749
 30
0.0
 40
27.99276528529863
100
AcDbArc
 50
314.3585913739
 51
335.0028366192
  0
ARC
  5
3BB
330
32E
100
AcDbEntity
  8
0
  6
CONTINUOUS
 62
     7
100
AcDbCircle
 10
2.2542644702
 20
-62.10834406
 30
0.0
 40
12.9431971129197
100
AcDbArc
 50
193.8521751782
 51
233.6561767326
  0
VIEWPORT
  5
43B
330
32E
100
AcDbEntity
  8
0
100
AcDbViewport
 10
0.0
 20
0.0
 30
0.0
 40
205.6
 41
156.0
 68
     1
 69
     1
1001
ACAD
1000
MVIEW
1002
{
1070
    16
1010
0.0
1020
0.0
1030
0.0
1010
0.0
1020
0.0
1030
1.0
1040
0.0
1040
425.6614785992
1040
0.0
1040
0.0
1040
50.0
1040
0.0
1040
0.0
1070
     0
1070
   100
1070
     0
1070
     3
1070
     0
1070
     0
1070
     0
1070
     0
1040
0.0
1040
0.0
1040
0.0
1040
10.0
1040
10.0
1040
10.0
1040
10.0
1070
     0
1002
{
1002
}
1002
}
  0
ENDBLK
  5
331
330
32E
100
AcDbEntity
  8
0
100
AcDbBlockEnd
  0
BLOCK
  5
3BE
330
3BC
100
AcDbEntity
  8
0
100
AcDbBlockBegin
  2
*PAPER_SPACE7
 70
     0
 10
0.0
 20
0.0
 30
0.0
  3
*PAPER_SPACE7
  1

  0
LWPOLYLINE
  5
3CA
330
3BC
100
AcDbEntity
  8
0
  6
CONTINUOUS
 62
     7
100
AcDbPolyline
 90
       17
 70
   128
 43
0.0
 10
160.7567711807
 20
-82.6144058532
 10
164.2121677142
 20
-82.9862560571
 10
167.7602686499
 20
-83.2434196717
 10
171.366903836
 20
-83.3834200707
 10
174.9973394042
 20
-83.4049089739
 10
178.6166122753
 20
-83.3076794313
 10
182.1898668732
 20
-83.0926678166
 10
185.6826908027
 20
-82.7619448092
 10
189.0614462599
 20
-82.3186954524
 10
192.2935939829
 20
-81.7671884798
 10
195.3480066221
 20
-81.1127352051
 10
198.1952685142
 20
-80.361638371
 10
200.8079589706
 20
-79.5211314508
 10
203.1609163541
 20
-78.5993089853
 10
205.2314803987
 20
-77.6050486291
 10
206.9997104408
 20
-76.5479256527
 10
208.4485774585
 20
-75.4381207283
  0
LWPOLYLINE
  5
3CC
330
3BC
100
AcDbEntity
  8
0
  6
CONTINUOUS
 62
     7
100
AcDbPolyline
 90
       17
 70
   128
 43
0.0
 10
-306.0293132398
 20
-10.6199991498
 10
-307.1448638517
 20
-11.7717979941
 10
-307.9163546956
 20
-12.9544983057
 10
-308.3363558928
 20
-14.1567100341
 10
-308.4008226024
 20
-15.3668552232
 10
-308.1091339746
 20
-16.5732795133
 10
-307.4640991303
 20
-17.764364379
 10
-306.4719301078
 20
-18.9286390218
 10
-305.1421820371
 20
-20.0548908407
 10
-303.4876611189
 20
-21.1322734147
 10
-301.5243012943
 20
-22.1504109609
 10
-299.2710107917
 20
-23.099498258
 10
-296.7494900302
 20
-23.9703950766
 10
-293.9840226333
 20
-24.7547142043
 10
-291.0012415638
 20
-25.444902219
 10
-287.8298726339
 20
-26.0343122328
 10
-284.50045786
 20
-26.5172679053
  0
LWPOLYLINE
  5
3CE
330
3BC
100
AcDbEntity
  8
0
  6
CONTINUOUS
 62
     7
100
AcDbPolyline
 90
       17
 70
   128
 43
0.0
 10
-160.7567711807
 20
82.6144058532
 10
-164.2121677142
 20
82.9862560571
 10
-167.7602686499
 20
83.2434196717
 10
-171.366903836
 20
83.3834200707
 10
-174.9973394042
 20
83.4049089739
 10
-178.6166122753
 20
83.3076794313
 10
-182.1898668732
 20
83.0926678166
 10
-185.6826908027
 20
82.7619448092
 10
-189.0614462599
 20
82.3186954524
 10
-192.2935939829
 20
81.7671884798
 10
-195.3480066221
 20
81.1127352051
 10
-198.1952685142
 20
80.361638371
 10
-200.8079589706
 20
79.5211314508
 10
-203.1609163541
 20
78.5993089853
 10
-205.2314803987
 20
77.6050486291
 10
-206.9997104408
 20
76.5479256527
 10
-208.4485774585
 20
75.4381207283
  0
LWPOLYLINE
  5
3D0
330
3BC
100
AcDbEntity
  8
0
  6
CONTINUOUS
 62
     7
100
AcDbPolyline
 90
       17
 70
   128
 43
0.0
 10
306.0293132398
 20
10.6199991498
 10
307.1448638517
 20
11.7717979941
 10
307.9163546956
 20
12.9544983057
 10
308.3363558928
 20
14.1567100341
 10
308.4008226024
 20
15.3668552232
 10
308.1091339746
 20
16.5732795133
 10
307.4640991303
 20
17.764364379
 10
306.4719301078
 20
18.9286390218
 10
305.1421820371
 20
20.0548908407
 10
303.4876611189
 20
21.1322734147
 10
301.5243012943
 20
22.1504109609
 10
299.2710107917
 20
23.099498258
 10
296.7494900302
 20
23.9703950766
 10
293.9840226333
 20
24.7547142043
 10
291.0012415638
 20
25.444902219
 10
287.8298726339
 20
26.0343122328
 10
284.50045786
 20
26.5172679053
  0
LWPOLYLINE
  5
3D2
330
3BC
100
AcDbEntity
  8
0
  6
CONTINUOUS
 62
     7
100
AcDbPolyline
 90
       10
 70
   128
 43
0.0
 10
169.3782978435
 20
-74.7919080519
 10
171.458722503
 20
-74.9932091521
 10
173.5806576108
 20
-75.0798327621
 10
175.6844933289
 20
-75.0493454337
 10
177.7111282708
 20
-74.9026036232
 10
179.6036297902
 20
-74.6437296318
 10
181.3088333445
 20
-74.279995801
 10
182.7788360042
 20
-73.8216202164
 10
183.9723421517
 20
-73.2814796594
 10
184.8558235665
 20
-72.6747478699
  0
LWPOLYLINE
  5
3D4
330
3BC
100
AcDbEntity
  8
0
  6
CONTINUOUS
 62
     7
100
AcDbPolyline
 90
       10
 70
   128
 43
0.0
 10
282.8513497956
 20
13.7491827986
 10
283.3926848052
 20
14.3990209833
 10
283.5693633845
 20
15.0672697722
 10
283.3764222425
 20
15.7351565826
 10
282.8192815215
 20
16.3839190005
 10
281.9135925334
 20
16.9953318586
 10
280.6847980799
 20
17.5522192208
 10
279.1674177078
 20
18.0389368927
 10
277.4040779793
 20
18.4418119011
 10
275.4443149972
 20
18.7495265983
  0
LWPOLYLINE
  5
3D6
330
3BC
100
AcDbEntity
  8
0
  6
CONTINUOUS
 62
     7
100
AcDbPolyline
 90
       10
 70
   128
 43
0.0
 10
-169.3782978435
 20
74.7919080519
 10
-171.458722503
 20
74.9932091521
 10
-173.5806576108
 20
75.0798327621
 10
-175.6844933289
 20
75.0493454337
 10
-177.7111282708
 20
74.9026036232
 10
-179.6036297902
 20
74.6437296318
 10
-181.3088333445
 20
74.279995801
 10
-182.7788360042
 20
73.8216202164
 10
-183.9723421517
 20
73.2814796594
 10
-184.8558235665
 20
72.6747478699
  0
LWPOLYLINE
  5
3D8
330
3BC
100
AcDbEntity
  8
0
  6
CONTINUOUS
 62
     7
100
AcDbPolyline
 90
       10
 70
   128
 43
0.0
 10
-282.8513497956
 20
-13.7491827986
 10
-283.3926848052
 20
-14.3990209833
 10
-283.5693633845
 20
-15.0672697722
 10
-283.3764222425
 20
-15.7351565826
 10
-282.8192815215
 20
-16.3839190005
 10
-281.9135925334
 20
-16.9953318586
 10
-280.6847980799
 20
-17.5522192208
 10
-279.1674177078
 20
-18.0389368927
 10
-277.4040779793
 20
-18.4418119011
 10
-275.4443149972
 20
-18.7495265983
  0
LWPOLYLINE
  5
3DA
330
3BC
100
AcDbEntity
  8
0
  6
CONTINUOUS
 62
     7
100
AcDbPolyline
 90
       17
 70
   128
 43
0.0
 10
160.7567711807
 20
-94.8709233941
 10
164.2121677142
 20
-95.242773598
 10
167.7602686499
 20
-95.4999372126
 10
171.366903836
 20
-95.6399376116
 10
174.9973394042
 20
-95.6614265148
 10
178.6166122753
 20
-95.5641969722
 10
182.1898668732
 20
-95.3491853575
 10
185.6826908027
 20
-95.0184623501
 10
189.0614462599
 20
-94.5752129933
 10
192.2935939829
 20
-94.0237060207
 10
195.3480066221
 20
-93.369252746
 10
198.1952685142
 20
-92.618155912
 10
200.8079589706
 20
-91.7776489917
 10
203.1609163541
 20
-90.8558265263
 10
205.2314803987
 20
-89.86156617
 10
206.9997104408
 20
-88.8044431936
 10
208.4485774585
 20
-87.6946382692
  0
LWPOLYLINE
  5
3DE
330
3BC
100
AcDbEntity
  8
0
  6
CONTINUOUS
 62
     7
100
AcDbPolyline
 90
       14
 70
   128
 43
0.0
 10
139.160434363
 20
-142.7318648342
 10
142.3080324193
 20
-144.1968626292
 10
145.5544339398
 20
-145.4580854813
 10
148.8558749032
 20
-146.4985311239
 10
152.1678493136
 20
-147.3041735393
 10
155.4457091758
 20
-147.86415204
 10
158.6452663855
 20
-148.1709176798
 10
161.7233884193
 20
-148.2203350187
 10
164.6385797943
 20
-148.0117378727
 10
167.3515414598
 20
-147.5479382937
 10
169.8257005793
 20
-146.8351886613
 10
172.0277035605
 20
-145.8830973958
 10
173.927865688
 20
-144.7044994291
 10
175.500571296
 20
-143.31528318
  0
LWPOLYLINE
  5
3DF
330
3BC
100
AcDbEntity
  8
0
  6
CONTINUOUS
 62
     7
100
AcDbPolyline
 90
       10
 70
   128
 43
0.0
 10
139.160434363
 20
-142.7318648342
 10
138.0575566509
 20
-144.9667592496
 10
136.6289914523
 20
-146.9863489212
 10
134.8989412057
 20
-148.7564184034
 10
132.8967160434
 20
-150.2469795669
 10
130.6562372254
 20
-151.4327796509
 10
128.2154624529
 20
-152.2937290903
 10
125.6157427974
 20
-152.8152418683
 10
122.9011221395
 20
-152.9884826297
 10
120.1175909877
 20
-152.8105163674
  0
LWPOLYLINE
  5
3E7
330
3BC
100
AcDbEntity
  8
0
  6
CONTINUOUS
 62
     7
100
AcDbPolyline
 90
       14
 70
   128
 43
0.0
 10
-308.418982411
 20
-27.237008506
 10
-308.4008226024
 20
-27.6233727641
 10
-308.1091339746
 20
-28.8297970542
 10
-307.4640991303
 20
-30.0208819199
 10
-306.4719301078
 20
-31.1851565628
 10
-305.1421820371
 20
-32.3114083816
 10
-303.4876611189
 20
-33.3887909557
 10
-301.5243012943
 20
-34.4069285018
 10
-299.2710107917
 20
-35.356015799
 10
-296.7494900302
 20
-36.2269126176
 10
-293.9840226333
 20
-37.0112317452
 10
-291.0012415638
 20
-37.7014197599
 10
-287.8298726339
 20
-38.2908297738
 10
-284.50045786
 20
-38.7737854462
  0
LWPOLYLINE
  5
3F0
330
3BC
100
AcDbEntity
  8
0
  6
CONTINUOUS
 62
     7
100
AcDbPolyline
 90
        9
 70
   128
 43
0.0
 10
-130.5943993501
 20
-28.660457259
 10
-129.8483094793
 20
-27.8261557757
 10
-129.1254736364
 20
-26.6652335571
 10
-128.4484210706
 20
-25.2138740693
 10
-127.8382540646
 20
-23.5173130879
 10
-127.3139902206
 20
-21.6284287951
 10
-126.8919697231
 20
-19.6060936802
 10
-126.5853460496
 20
-17.5133396095
 10
-126.4036760052
 20
-15.4153932579
  0
LWPOLYLINE
  5
3F7
330
3BC
100
AcDbEntity
  8
0
  6
CONTINUOUS
 62
     7
100
AcDbPolyline
 90
       11
 70
   128
 43
0.0
 10
126.844399352
 20
-168.9242543973
 10
126.8339656264
 20
-168.9229231451
 10
125.7032393125
 20
-168.570514517
 10
124.6392364688
 20
-167.8168919733
 10
123.6564718447
 20
-166.6723361655
 10
122.7683519664
 20
-165.1524607179
 10
121.9869922504
 20
-163.2779992321
 10
121.3230517287
 20
-161.0745224469
 10
120.7855876424
 20
-158.5720894108
 10
120.3819318858
 20
-155.8048374277
 10
120.1175909877
 20
-152.8105163674
  0
LWPOLYLINE
  5
3F8
330
3BC
100
AcDbEntity
  8
0
  6
CONTINUOUS
 62
     7
100
AcDbPolyline
 90
       11
 70
   128
 43
0.0
 10
-229.2800019956
 20
-108.7905573552
 10
-229.0156610975
 20
-111.7848784155
 10
-228.6120053409
 20
-114.5521303986
 10
-228.0745412546
 20
-117.0545634347
 10
-227.4106007329
 20
-119.2580402199
 10
-226.6292410169
 20
-121.1325017057
 10
-225.7411211386
 20
-122.6523771533
 10
-224.7583565145
 20
-123.7969329611
 10
-223.6943536708
 20
-124.5505555048
 10
-222.5636273569
 20
-124.9029641329
 10
-222.5531936313
 20
-124.9042953851
  0
LWPOLYLINE
  5
3F9
330
3BC
100
AcDbEntity
  8
0
  6
CONTINUOUS
 62
     7
100
AcDbPolyline
 90
       10
 70
   128
 43
0.0
 10
-266.497238844
 20
-92.9752806012
 10
-265.9380666174
 20
-93.7641794828
 10
-264.9793753616
 20
-94.4608399643
 10
-263.6760894944
 20
-94.9634281345
 10
-262.0457783247
 20
-95.2651687133
 10
-260.1104197169
 20
-95.3619940028
 10
-257.8961038128
 20
-95.2525987226
 10
-255.4326813156
 20
-94.9384576063
 10
-252.7533610795
 20
-94.4238055208
 10
-249.8942624285
 20
-93.7155803771
  0
LWPOLYLINE
  5
3FC
330
3BC
100
AcDbEntity
  8
0
  6
CONTINUOUS
 62
     7
100
AcDbPolyline
 90
        3
 70
   128
 43
0.0
 10
265.2807826367
 20
-64.136579224
 10
266.1412909176
 20
-63.3799025275
 10
266.4930956837
 20
-62.8215476868
  0
LINE
  5
3FF
330
3BC
100
AcDbEntity
  8
0
  6
CONTINUOUS
 62
     7
100
AcDbLine
 10
-222.5531936313
 20
-124.9042953851
 30
0.0
 11
126.844399352
 21
-168.9242543973
 31
0.0
  0
LINE
  5
400
330
3BC
100
AcDbEntity
  8
0
  6
CONTINUOUS
 62
     7
100
AcDbLine
 10
165.2745419091
 20
-157.5565999762
 30
0.0
 11
254.4044273567
 21
-78.9514295483
 31
0.0
  0
LINE
  5
401
330
3BC
100
AcDbEntity
  8
0
  6
CONTINUOUS
 62
     7
100
AcDbLine
 10
-308.418982411
 20
-14.9804909651
 30
0.0
 11
-308.418982411
 21
-27.237008506
 31
0.0
  0
LINE
  5
402
330
3BC
100
AcDbEntity
  8
0
  6
CONTINUOUS
 62
     7
100
AcDbLine
 10
-293.0706979263
 20
-37.2381374135
 30
0.0
 11
-266.497238844
 21
-92.9752806012
 31
0.0
  0
LINE
  5
403
330
3BC
100
AcDbEntity
  8
0
  6
CONTINUOUS
 62
     7
100
AcDbLine
 10
266.4930956837
 20
-62.8215476868
 30
0.0
 11
288.1744252005
 21
-17.3830495378
 31
0.0
  0
LINE
  5
404
330
3BC
100
AcDbEntity
  8
0
  6
CONTINUOUS
 62
     7
100
AcDbLine
 10
308.418982411
 20
2.7239734242
 30
0.0
 11
308.418982411
 21
14.9804909651
 31
0.0
  0
LINE
  5
405
330
3BC
100
AcDbEntity
  8
0
  6
CONTINUOUS
 62
     7
100
AcDbLine
 10
208.4485774585
 20
-75.4381207283
 30
0.0
 11
306.0293132398
 21
10.6199991498
 31
0.0
  0
LINE
  5
406
330
3BC
100
AcDbEntity
  8
0
  6
CONTINUOUS
 62
     7
100
AcDbLine
 10
-284.50045786
 20
-26.5172679053
 30
0.0
 11
160.7567711807
 21
-82.6144058532
 31
0.0
  0
LINE
  5
407
330
3BC
100
AcDbEntity
  8
0
  6
CONTINUOUS
 62
     7
100
AcDbLine
 10
-208.4485774585
 20
75.4381207283
 30
0.0
 11
-306.0293132398
 21
-10.6199991498
 31
0.0
  0
LINE
  5
408
330
3BC
100
AcDbEntity
  8
0
  6
CONTINUOUS
 62
     7
100
AcDbLine
 10
284.50045786
 20
26.5172679053
 30
0.0
 11
-160.7567711807
 21
82.6144058532
 31
0.0
  0
LINE
  5
409
330
3BC
100
AcDbEntity
  8
0
  6
CONTINUOUS
 62
     7
100
AcDbLine
 10
-275.4443149972
 20
-18.7495265983
 30
0.0
 11
169.3782978435
 21
-74.7919080519
 31
0.0
  0
LINE
  5
40A
330
3BC
100
AcDbEntity
  8
0
  6
CONTINUOUS
 62
     7
100
AcDbLine
 10
184.8558235665
 20
-72.6747478699
 30
0.0
 11
282.8513497956
 21
13.7491827986
 31
0.0
  0
LINE
  5
40B
330
3BC
100
AcDbEntity
  8
0
  6
CONTINUOUS
 62
     7
100
AcDbLine
 10
275.4443149972
 20
18.7495265983
 30
0.0
 11
-169.3782978435
 21
74.7919080519
 31
0.0
  0
LINE
  5
40C
330
3BC
100
AcDbEntity
  8
0
  6
CONTINUOUS
 62
     7
100
AcDbLine
 10
-184.8558235665
 20
72.6747478699
 30
0.0
 11
-282.8513497956
 21
-13.7491827986
 31
0.0
  0
LINE
  5
40D
330
3BC
100
AcDbEntity
  8
0
  6
CONTINUOUS
 62
     7
100
AcDbLine
 10
208.4485774585
 20
-87.6946382692
 30
0.0
 11
208.4485774585
 21
-75.4381207283
 31
0.0
  0
LINE
  5
40E
330
3BC
100
AcDbEntity
  8
0
  6
CONTINUOUS
 62
     7
100
AcDbLine
 10
160.7567711807
 20
-94.8709233941
 30
0.0
 11
160.7567711807
 21
-82.6144058532
 31
0.0
  0
LINE
  5
40F
330
3BC
100
AcDbEntity
  8
0
  6
CONTINUOUS
 62
     7
100
AcDbLine
 10
-284.50045786
 20
-38.7737854462
 30
0.0
 11
-284.50045786
 21
-26.5172679053
 31
0.0
  0
LINE
  5
410
330
3BC
100
AcDbEntity
  8
0
  6
CONTINUOUS
 62
     7
100
AcDbLine
 10
-284.50045786
 20
-38.7737854462
 30
0.0
 11
160.7567711807
 21
-94.8709233941
 31
0.0
  0
LINE
  5
411
330
3BC
100
AcDbEntity
  8
0
  6
CONTINUOUS
 62
     7
100
AcDbLine
 10
-229.2800019956
 20
-108.7905573552
 30
0.0
 11
120.1175909877
 21
-152.8105163674
 31
0.0
  0
LINE
  5
412
330
3BC
100
AcDbEntity
  8
0
  6
CONTINUOUS
 62
     7
100
AcDbLine
 10
306.0293132398
 20
-1.6365183911
 30
0.0
 11
306.0293132398
 21
10.6199991498
 31
0.0
  0
LINE
  5
413
330
3BC
100
AcDbEntity
  8
0
  6
CONTINUOUS
 62
     7
100
AcDbLine
 10
208.4485774585
 20
-87.6946382692
 30
0.0
 11
306.0293132398
 21
-1.6365183911
 31
0.0
  0
LINE
  5
414
330
3BC
100
AcDbEntity
  8
0
  6
CONTINUOUS
 62
     7
100
AcDbLine
 10
175.500571296
 20
-143.31528318
 30
0.0
 11
265.2807826367
 21
-64.136579224
 31
0.0
  0
LINE
  5
415
330
3BC
100
AcDbEntity
  8
0
  6
CONTINUOUS
 62
     7
100
AcDbLine
 10
161.7751281309
 20
-73.8339987078
 30
0.0
 11
183.7697732403
 21
-73.3890838036
 31
0.0
  0
LINE
  5
416
330
3BC
100
AcDbEntity
  8
0
  6
CONTINUOUS
 62
     7
100
AcDbLine
 10
-138.8674421263
 20
-35.956595183
 30
0.0
 11
-130.5943993501
 21
-28.660457259
 31
0.0
  0
LINE
  5
417
330
3BC
100
AcDbEntity
  8
0
  6
CONTINUOUS
 62
     7
100
AcDbLine
 10
-130.5943993501
 20
-28.660457259
 30
0.0
 11
-86.9186420498
 21
-42.5015287945
 31
0.0
  0
LINE
  5
418
330
3BC
100
AcDbEntity
  8
0
  6
CONTINUOUS
 62
     7
100
AcDbLine
 10
-184.8558235665
 20
72.6747478699
 30
0.0
 11
-159.9825741537
 21
-3.9728867347
 31
0.0
  0
LINE
  5
419
330
3BC
100
AcDbEntity
  8
0
  6
CONTINUOUS
 62
     7
100
AcDbLine
 10
-130.5943993501
 20
-28.660457259
 30
0.0
 11
189.0936208803
 21
-68.9373619368
 31
0.0
  0
LINE
  5
41A
330
3BC
100
AcDbEntity
  8
0
  6
CONTINUOUS
 62
     7
100
AcDbLine
 10
-145.4465193805
 20
1.0454433004
 30
0.0
 11
-169.3782978435
 21
74.7919080519
 31
0.0
  0
LINE
  5
41B
330
3BC
100
AcDbEntity
  8
0
  6
CONTINUOUS
 62
     7
100
AcDbLine
 10
195.5225038731
 20
-93.3274385785
 30
0.0
 11
175.500571296
 21
-143.31528318
 31
0.0
  0
LINE
  5
41C
330
3BC
100
AcDbEntity
  8
0
  6
CONTINUOUS
 62
     7
100
AcDbLine
 10
139.160434363
 20
-142.7318648342
 30
0.0
 11
158.4470220033
 21
-94.5799223508
 31
0.0
  0
LINE
  5
41D
330
3BC
100
AcDbEntity
  8
0
  6
CONTINUOUS
 62
     7
100
AcDbLine
 10
-275.5509623111
 20
-39.9013159019
 30
0.0
 11
-249.8942624285
 21
-93.7155803771
 31
0.0
  0
LINE
  5
41E
330
3BC
100
AcDbEntity
  8
0
  6
CONTINUOUS
 62
     7
100
AcDbLine
 10
265.2807826367
 20
-64.136579224
 30
0.0
 11
287.1646715925
 21
-18.2735685153
 31
0.0
  0
LINE
  5
41F
330
3BC
100
AcDbEntity
  8
0
  6
CONTINUOUS
 62
     7
100
AcDbLine
 10
-281.1220556486
 20
-17.3763325493
 30
0.0
 11
-282.8513497956
 21
-13.7491827986
 31
0.0
  0
LINE
  5
420
330
3BC
100
AcDbEntity
  8
0
  6
CONTINUOUS
 62
     7
100
AcDbLine
 10
-159.9825741537
 20
-3.9728867347
 30
0.0
 11
-189.0760346127
 21
-29.6309071196
 31
0.0
  0
LINE
  5
421
330
3BC
100
AcDbEntity
  8
0
  6
CONTINUOUS
 62
     7
100
AcDbLine
 10
275.4443149972
 20
18.7495265983
 30
0.0
 11
265.9431724189
 21
-1.1624280225
 31
0.0
  0
LINE
  5
422
330
3BC
100
AcDbEntity
  8
0
  6
CONTINUOUS
 62
     7
100
AcDbLine
 10
202.758640841
 20
-56.8859471109
 30
0.0
 11
-126.4036760052
 21
-15.4153932579
 31
0.0
  0
ARC
  5
423
330
3BC
100
AcDbEntity
  8
0
  6
CONTINUOUS
 62
     7
100
AcDbCircle
 10
133.5957941122
 20
-121.2590995394
 30
0.0
 40
48.14092145817298
100
AcDbArc
 50
261.9381312029
 51
311.1272579376
  0
ARC
  5
424
330
3BC
100
AcDbEntity
  8
0
  6
CONTINUOUS
 62
     7
100
AcDbCircle
 10
-214.9852373026
 20
-68.2837834566
 30
0.0
 40
57.1240433971901
100
AcDbArc
 50
205.6100235365
 51
262.3869093637
  0
ARC
  5
425
330
3BC
100
AcDbEntity
  8
0
  6
CONTINUOUS
 62
     7
100
AcDbCircle
 10
221.4547365274
 20
-41.5539250806
 30
0.0
 40
49.80728427456509
100
AcDbArc
 50
312.9764569008
 51
334.7227889611
  0
ARC
  5
426
330
3BC
100
AcDbEntity
  8
0
  6
CONTINUOUS
 62
     7
100
AcDbCircle
 10
-225.4404818207
 20
-81.9082475876
 30
0.0
 40
27.155119105191
100
AcDbArc
 50
205.7732407042
 51
261.871589089
  0
ARC
  5
427
330
3BC
100
AcDbEntity
  8
0
  6
CONTINUOUS
 62
     7
100
AcDbCircle
 10
228.5474550559
 20
-48.5686005281
 30
0.0
 40
39.89610652472124
100
AcDbArc
 50
310.399079136
 51
337.0322475917
  0
ARC
  5
428
330
3BC
100
AcDbEntity
  8
0
  6
CONTINUOUS
 62
     7
100
AcDbCircle
 10
-125.0827812659
 20
7.7362741717
 30
0.0
 40
36.811682829512
100
AcDbArc
 50
198.5470166298
 51
261.3890272687
  0
ARC
  5
429
330
3BC
100
AcDbEntity
  8
0
  6
CONTINUOUS
 62
     7
100
AcDbCircle
 10
302.503230858
 20
3.1309195616
 30
0.0
 40
5.929732000320922
100
AcDbArc
 50
306.4872917922
 51
356.0648073762
  0
ARC
  5
42A
330
3BC
100
AcDbEntity
  8
0
  6
CONTINUOUS
 62
     7
100
AcDbCircle
 10
-122.8846308554
 20
7.900987794
 30
0.0
 40
23.58044325539046
100
AcDbArc
 50
196.9016707591
 51
261.4173602014
  0
ARC
  5
42B
330
3BC
100
AcDbEntity
  8
0
  6
CONTINUOUS
 62
     7
100
AcDbCircle
 10
-98.9057109438
 20
-157.3259665959
 30
0.0
 40
165.0683201661322
100
AcDbArc
 50
106.3765473757
 51
111.7162093758
  0
ARC
  5
42C
330
3BC
100
AcDbEntity
  8
0
  6
CONTINUOUS
 62
     7
100
AcDbCircle
 10
139.136917158
 20
-127.9963061221
 30
0.0
 40
39.45866698666843
100
AcDbArc
 50
311.4835632025
 51
337.1556868911
  0
VIEWPORT
  5
43D
330
3BC
100
AcDbEntity
  8
0
100
AcDbViewport
 10
0.0
 20
0.0
 30
0.0
 40
205.6
 41
156.0
 68
     1
 69
     1
1001
ACAD
1000
MVIEW
1002
{
1070
    16
1010
0.0
1020
0.0
1030
0.0
1010
0.0
1020
0.0
1030
1.0
1040
0.0
1040
425.6614785992
1040
0.0
1040
0.0
1040
50.0
1040
0.0
1040
0.0
1070
     0
1070
   100
1070
     0
1070
     3
1070
     0
1070
     0
1070
     0
1070
     0
1040
0.0
1040
0.0
1040
0.0
1040
10.0
1040
10.0
1040
10.0
1040
10.0
1070
     0
1002
{
1002
}
1002
}
  0
ENDBLK
  5
3BF
330
3BC
100
AcDbEntity
  8
0
100
AcDbBlockEnd
  0
ENDSEC
  0
SECTION
  2
ENTITIES
  0
LWPOLYLINE
  5
87
330
1F
100
AcDbEntity
  8
0
  6
CONTINUOUS
 62
     7
100
AcDbPolyline
 90
       10
 70
   128
 43
0.0
 10
-207.9584828659
 20
138.8215481237
 10
-206.6196592181
 20
138.3987629383
 10
-204.9443923017
 20
138.0070158548
 10
-202.9610641216
 20
137.6529437664
 10
-200.7032757894
 20
137.3425452848
 10
-198.2092782602
 20
137.0810791133
 10
-195.5213242938
 20
136.8729749542
 10
-192.6849526173
 20
136.7217584628
 10
-189.7482164182
 20
136.6299915156
 10
-186.7608692377
 20
136.5992288082
  0
LWPOLYLINE
  5
8A
330
1F
100
AcDbEntity
  8
0
  6
CONTINUOUS
 62
     7
100
AcDbPolyline
 90
       10
 70
   128
 43
0.0
 10
186.7608692377
 20
136.5992288082
 10
189.7482164182
 20
136.6299915156
 10
192.6849526173
 20
136.7217584628
 10
195.5213242938
 20
136.8729749542
 10
198.2092782602
 20
137.0810791133
 10
200.7032757894
 20
137.3425452848
 10
202.9610641216
 20
137.6529437664
 10
204.9443923017
 20
138.0070158548
 10
206.6196592181
 20
138.3987629383
 10
207.9584828659
 20
138.8215481237
  0
LWPOLYLINE
  5
93
330
1F
100
AcDbEntity
  8
0
  6
CONTINUOUS
 62
     7
100
AcDbPolyline
 90
       10
 70
   128
 43
0.0
 10
-186.7608692377
 20
-136.5992288082
 10
-189.7482164182
 20
-136.6299915156
 10
-192.6849526173
 20
-136.7217584628
 10
-195.5213242938
 20
-136.8729749542
 10
-198.2092782602
 20
-137.0810791133
 10
-200.7032757894
 20
-137.3425452848
 10
-202.9610641216
 20
-137.6529437664
 10
-204.9443923017
 20
-138.0070158548
 10
-206.6196592181
 20
-138.3987629383
 10
-207.9584828659
 20
-138.8215481237
  0
LWPOLYLINE
  5
95
330
1F
100
AcDbEntity
  8
0
  6
CONTINUOUS
 62
     7
100
AcDbPolyline
 90
       10
 70
   128
 43
0.0
 10
207.9584828659
 20
-138.8215481237
 10
206.6196592181
 20
-138.3987629383
 10
204.9443923017
 20
-138.0070158548
 10
202.9610641216
 20
-137.6529437664
 10
200.7032757894
 20
-137.3425452848
 10
198.2092782602
 20
-137.0810791133
 10
195.5213242938
 20
-136.8729749542
 10
192.6849526173
 20
-136.7217584628
 10
189.7482164182
 20
-136.6299915156
 10
186.7608692377
 20
-136.5992288082
  0
LWPOLYLINE
  5
97
330
1F
100
AcDbEntity
  8
0
  6
CONTINUOUS
 62
     7
100
AcDbPolyline
 90
       12
 70
   128
 43
0.0
 10
186.7608692377
 20
124.7460732242
 10
190.4837752487
 20
124.7666760709
 10
194.1644393242
 20
124.8282508407
 10
197.7610988268
 20
124.930098876
 10
201.2329442765
 20
125.0710645584
 10
204.5405823953
 20
125.2495484215
 10
207.6464830831
 20
125.463525299
 10
210.5154052522
 20
125.7105673032
 10
213.1147966911
 20
125.9878713732
 10
215.4151634169
 20
126.2922910798
 10
217.3904043297
 20
126.620372326
 10
219.0181073676
 20
126.9683925398
  0
LWPOLYLINE
  5
9A
330
1F
100
AcDbEntity
  8
0
  6
CONTINUOUS
 62
     7
100
AcDbPolyline
 90
       12
 70
   128
 43
0.0
 10
-186.7608692377
 20
124.7460732242
 10
-190.4837752487
 20
124.7666760709
 10
-194.1644393242
 20
124.8282508407
 10
-197.7610988268
 20
124.930098876
 10
-201.2329442765
 20
125.0710645584
 10
-204.5405823953
 20
125.2495484215
 10
-207.6464830831
 20
125.463525299
 10
-210.5154052522
 20
125.7105673032
 10
-213.1147966911
 20
125.9878713732
 10
-215.4151634169
 20
126.2922910798
 10
-217.3904043297
 20
126.620372326
 10
-219.0181073676
 20
126.9683925398
  0
LWPOLYLINE
  5
9B
330
1F
100
AcDbEntity
  8
0
  6
CONTINUOUS
 62
     7
100
AcDbPolyline
 90
       12
 70
   128
 43
0.0
 10
186.7608692377
 20
-124.7460732242
 10
190.4837752487
 20
-124.7666760709
 10
194.1644393242
 20
-124.8282508407
 10
197.7610988268
 20
-124.930098876
 10
201.2329442765
 20
-125.0710645584
 10
204.5405823953
 20
-125.2495484215
 10
207.6464830831
 20
-125.463525299
 10
210.5154052522
 20
-125.7105673032
 10
213.1147966911
 20
-125.9878713732
 10
215.4151634169
 20
-126.2922910798
 10
217.3904043297
 20
-126.620372326
 10
219.0181073676
 20
-126.9683925398
  0
LWPOLYLINE
  5
9D
330
1F
100
AcDbEntity
  8
0
  6
CONTINUOUS
 62
     7
100
AcDbPolyline
 90
       12
 70
   128
 43
0.0
 10
-186.7608692377
 20
-124.7460732242
 10
-190.4837752487
 20
-124.7666760709
 10
-194.1644393242
 20
-124.8282508407
 10
-197.7610988268
 20
-124.930098876
 10
-201.2329442765
 20
-125.0710645584
 10
-204.5405823953
 20
-125.2495484215
 10
-207.6464830831
 20
-125.463525299
 10
-210.5154052522
 20
-125.7105673032
 10
-213.1147966911
 20
-125.9878713732
 10
-215.4151634169
 20
-126.2922910798
 10
-217.3904043297
 20
-126.620372326
 10
-219.0181073676
 20
-126.9683925398
  0
CIRCLE
  5
B3
330
1F
100
AcDbEntity
  8
0
  6
CONTINUOUS
 62
     7
100
AcDbCircle
 10
0.0
 20
50.0
 30
0.0
 40
23.39303097578365
  0
CIRCLE
  5
B4
330
1F
100
AcDbEntity
  8
0
  6
CONTINUOUS
 62
     7
100
AcDbCircle
 10
0.0
 20
50.0
 30
0.0
 40
22.49999999999996
  0
LINE
  5
B5
330
1F
100
AcDbEntity
  8
0
  6
CONTINUOUS
 62
     7
100
AcDbLine
 10
275.0
 20
-138.0
 30
0.0
 11
275.0
 21
138.0
 31
0.0
  0
LINE
  5
B6
330
1F
100
AcDbEntity
  8
0
  6
CONTINUOUS
 62
     7
100
AcDbLine
 10
-238.0
 20
-175.0
 30
0.0
 11
238.0
 21
-175.0
 31
0.0
  0
LINE
  5
B7
330
1F
100
AcDbEntity
  8
0
  6
CONTINUOUS
 62
     7
100
AcDbLine
 10
-275.0
 20
138.0
 30
0.0
 11
-275.0
 21
-138.0
 31
0.0
  0
LINE
  5
B8
330
1F
100
AcDbEntity
  8
0
  6
CONTINUOUS
 62
     7
100
AcDbLine
 10
238.0
 20
175.0
 30
0.0
 11
-238.0
 21
175.0
 31
0.0
  0
LINE
  5
B9
330
1F
100
AcDbEntity
  8
0
  6
CONTINUOUS
 62
     7
100
AcDbLine
 10
-237.7676878693
 20
-150.0
 30
0.0
 11
237.7676878693
 21
-150.0
 31
0.0
  0
LINE
  5
BA
330
1F
100
AcDbEntity
  8
0
  6
CONTINUOUS
 62
     7
100
AcDbLine
 10
250.0
 20
-138.5866022769
 30
0.0
 11
250.0
 21
138.5866022769
 31
0.0
  0
LINE
  5
BB
330
1F
100
AcDbEntity
  8
0
  6
CONTINUOUS
 62
     7
100
AcDbLine
 10
237.7676878693
 20
150.0
 30
0.0
 11
-237.7676878693
 21
150.0
 31
0.0
  0
LINE
  5
BC
330
1F
100
AcDbEntity
  8
0
  6
CONTINUOUS
 62
     7
100
AcDbLine
 10
-250.0
 20
138.5866022769
 30
0.0
 11
-250.0
 21
-138.5866022769
 31
0.0
  0
LINE
  5
BD
330
1F
100
AcDbEntity
  8
0
  6
CONTINUOUS
 62
     7
100
AcDbLine
 10
-237.7676878693
 20
-150.0
 30
0.0
 11
-207.9584828659
 21
-138.8215481237
 31
0.0
  0
LINE
  5
BE
330
1F
100
AcDbEntity
  8
0
  6
CONTINUOUS
 62
     7
100
AcDbLine
 10
-219.0181073676
 20
-126.9683925398
 30
0.0
 11
-250.0
 21
-138.5866022769
 31
0.0
  0
LINE
  5
BF
330
1F
100
AcDbEntity
  8
0
  6
CONTINUOUS
 62
     7
100
AcDbLine
 10
186.7608692377
 20
136.5992288082
 30
0.0
 11
-186.7608692377
 21
136.5992288082
 31
0.0
  0
LINE
  5
C0
330
1F
100
AcDbEntity
  8
0
  6
CONTINUOUS
 62
     7
100
AcDbLine
 10
-207.9584828659
 20
138.8215481237
 30
0.0
 11
-237.7676878693
 21
150.0
 31
0.0
  0
LINE
  5
C1
330
1F
100
AcDbEntity
  8
0
  6
CONTINUOUS
 62
     7
100
AcDbLine
 10
237.7676878693
 20
150.0
 30
0.0
 11
207.9584828659
 21
138.8215481237
 31
0.0
  0
LINE
  5
C2
330
1F
100
AcDbEntity
  8
0
  6
CONTINUOUS
 62
     7
100
AcDbLine
 10
250.0
 20
-138.5866022769
 30
0.0
 11
219.0181073676
 21
-126.9683925398
 31
0.0
  0
LINE
  5
C3
330
1F
100
AcDbEntity
  8
0
  6
CONTINUOUS
 62
     7
100
AcDbLine
 10
207.9584828659
 20
-138.8215481237
 30
0.0
 11
237.7676878693
 21
-150.0
 31
0.0
  0
LINE
  5
C4
330
1F
100
AcDbEntity
  8
0
  6
CONTINUOUS
 62
     7
100
AcDbLine
 10
-219.0181073676
 20
126.9683925398
 30
0.0
 11
-219.0181073676
 21
-126.9683925398
 31
0.0
  0
LINE
  5
C5
330
1F
100
AcDbEntity
  8
0
  6
CONTINUOUS
 62
     7
100
AcDbLine
 10
-250.0
 20
138.5866022769
 30
0.0
 11
-219.0181073676
 21
126.9683925398
 31
0.0
  0
LINE
  5
C6
330
1F
100
AcDbEntity
  8
0
  6
CONTINUOUS
 62
     7
100
AcDbLine
 10
219.0181073676
 20
-126.9683925398
 30
0.0
 11
219.0181073676
 21
126.9683925398
 31
0.0
  0
LINE
  5
C7
330
1F
100
AcDbEntity
  8
0
  6
CONTINUOUS
 62
     7
100
AcDbLine
 10
219.0181073676
 20
126.9683925398
 30
0.0
 11
250.0
 21
138.5866022769
 31
0.0
  0
LINE
  5
C8
330
1F
100
AcDbEntity
  8
0
  6
CONTINUOUS
 62
     7
100
AcDbLine
 10
-186.7608692377
 20
-136.5992288082
 30
0.0
 11
186.7608692377
 21
-136.5992288082
 31
0.0
  0
LINE
  5
C9
330
1F
100
AcDbEntity
  8
0
  6
CONTINUOUS
 62
     7
100
AcDbLine
 10
186.7608692377
 20
136.5992288082
 30
0.0
 11
186.7608692377
 21
-136.5992288082
 31
0.0
  0
LINE
  5
CA
330
1F
100
AcDbEntity
  8
0
  6
CONTINUOUS
 62
     7
100
AcDbLine
 10
-186.7608692377
 20
-136.5992288082
 30
0.0
 11
-186.7608692377
 21
136.5992288082
 31
0.0
  0
LINE
  5
CB
330
1F
100
AcDbEntity
  8
0
  6
CONTINUOUS
 62
     7
100
AcDbLine
 10
186.7608692377
 20
-124.7460732242
 30
0.0
 11
-186.7608692377
 21
-124.7460732242
 31
0.0
  0
LINE
  5
CC
330
1F
100
AcDbEntity
  8
0
  6
CONTINUOUS
 62
     7
100
AcDbLine
 10
-186.7608692377
 20
124.7460732242
 30
0.0
 11
186.7608692377
 21
124.7460732242
 31
0.0
  0
LINE
  5
CD
330
1F
100
AcDbEntity
  8
0
  6
CONTINUOUS
 62
     7
100
AcDbLine
 10
-29.1045711338
 20
30.559734078
 30
0.0
 11
-186.7608692377
 21
-124.7460732242
 31
0.0
  0
LINE
  5
CE
330
1F
100
AcDbEntity
  8
0
  6
CONTINUOUS
 62
     7
100
AcDbLine
 10
-186.7608692377
 20
124.7460732242
 30
0.0
 11
-29.1045711338
 21
69.440265922
 31
0.0
  0
LINE
  5
CF
330
1F
100
AcDbEntity
  8
0
  6
CONTINUOUS
 62
     7
100
AcDbLine
 10
29.1045711338
 20
30.559734078
 30
0.0
 11
186.7608692377
 21
-124.7460732242
 31
0.0
  0
LINE
  5
D0
330
1F
100
AcDbEntity
  8
0
  6
CONTINUOUS
 62
     7
100
AcDbLine
 10
29.1045711338
 20
69.440265922
 30
0.0
 11
186.7608692377
 21
124.7460732242
 31
0.0
  0
LINE
  5
D1
330
1F
100
AcDbEntity
  8
0
  6
CONTINUOUS
 62
     7
100
AcDbLine
 10
-28.1297547788
 20
31.2108582288
 30
0.0
 11
-29.1045711338
 21
30.559734078
 31
0.0
  0
LINE
  5
D2
330
1F
100
AcDbEntity
  8
0
  6
CONTINUOUS
 62
     7
100
AcDbLine
 10
-29.1045711338
 20
69.440265922
 30
0.0
 11
-28.1297547788
 21
68.7891417712
 31
0.0
  0
LINE
  5
D3
330
1F
100
AcDbEntity
  8
0
  6
CONTINUOUS
 62
     7
100
AcDbLine
 10
29.1045711338
 20
69.440265922
 30
0.0
 11
28.1297547788
 21
68.7891417712
 31
0.0
  0
LINE
  5
D4
330
1F
100
AcDbEntity
  8
0
  6
CONTINUOUS
 62
     7
100
AcDbLine
 10
28.1297547789
 20
31.2108582289
 30
0.0
 11
29.1045711338
 21
30.559734078
 31
0.0
  0
ARC
  5
D5
330
1F
100
AcDbEntity
  8
0
  6
CONTINUOUS
 62
     7
100
AcDbCircle
 10
238.0
 20
-138.0
 30
0.0
 40
36.99999999999989
100
AcDbArc
 50
270.0
 51
0.0
  0
ARC
  5
D6
330
1F
100
AcDbEntity
  8
0
  6
CONTINUOUS
 62
     7
100
AcDbCircle
 10
-238.0
 20
-138.0
 30
0.0
 40
36.99999999999994
100
AcDbArc
 50
180.0
 51
270.0
  0
ARC
  5
D7
330
1F
100
AcDbEntity
  8
0
  6
CONTINUOUS
 62
     7
100
AcDbCircle
 10
-238.0
 20
138.0
 30
0.0
 40
36.99999999999991
100
AcDbArc
 50
90.0
 51
180.0
  0
ARC
  5
D8
330
1F
100
AcDbEntity
  8
0
  6
CONTINUOUS
 62
     7
100
AcDbCircle
 10
238.0
 20
138.0
 30
0.0
 40
36.99999999999989
100
AcDbArc
 50
0.0
 51
90.0
  0
ARC
  5
D9
330
1F
100
AcDbEntity
  8
0
  6
CONTINUOUS
 62
     7
100
AcDbCircle
 10
238.2872759649
 20
-138.2951778865
 30
0.0
 40
11.71634894058631
100
AcDbArc
 50
267.4582549699
 51
358.574717268
  0
ARC
  5
DA
330
1F
100
AcDbEntity
  8
0
  6
CONTINUOUS
 62
     7
100
AcDbCircle
 10
238.2550158607
 20
138.260603111
 30
0.0
 40
11.74950755940226
100
AcDbArc
 50
1.589919713
 51
92.3771080491
  0
ARC
  5
DB
330
1F
100
AcDbEntity
  8
0
  6
CONTINUOUS
 62
     7
100
AcDbCircle
 10
-238.2872759649
 20
138.2951778865
 30
0.0
 40
11.71634894058634
100
AcDbArc
 50
87.4582549699
 51
178.574717268
  0
ARC
  5
DC
330
1F
100
AcDbEntity
  8
0
  6
CONTINUOUS
 62
     7
100
AcDbCircle
 10
-238.2550158607
 20
-138.260603111
 30
0.0
 40
11.74950755940224
100
AcDbArc
 50
181.589919713
 51
272.3771080491
  0
ARC
  5
DD
330
1F
100
AcDbEntity
  8
0
  6
CONTINUOUS
 62
     7
100
AcDbCircle
 10
-206.6638769989
 20
-126.5274253104
 30
0.0
 40
12.36209772245102
100
AcDbArc
 50
182.0442260548
 51
263.9887461832
  0
ARC
  5
DE
330
1F
100
AcDbEntity
  8
0
  6
CONTINUOUS
 62
     7
100
AcDbCircle
 10
206.6638769989
 20
-126.5274253104
 30
0.0
 40
12.36209772245102
100
AcDbArc
 50
276.0112538168
 51
357.9557739452
  0
ARC
  5
DF
330
1F
100
AcDbEntity
  8
0
  6
CONTINUOUS
 62
     7
100
AcDbCircle
 10
-206.6638769989
 20
126.5274253104
 30
0.0
 40
12.362097722451
100
AcDbArc
 50
96.0112538168
 51
177.9557739452
  0
ARC
  5
E0
330
1F
100
AcDbEntity
  8
0
  6
CONTINUOUS
 62
     7
100
AcDbCircle
 10
206.6638769989
 20
126.5274253104
 30
0.0
 40
12.36209772245111
100
AcDbArc
 50
2.0442260548
 51
83.9887461832
  0
ARC
  5
E1
330
1F
100
AcDbEntity
  8
0
  6
CONTINUOUS
 62
     7
100
AcDbCircle
 10
0.0
 20
50.0
 30
0.0
 40
35.00000000000005
100
AcDbArc
 50
33.7407622874
 51
326.2592377126
  0
ARC
  5
E2
330
1F
100
AcDbEntity
  8
0
  6
CONTINUOUS
 62
     7
100
AcDbCircle
 10
0.0
 20
50.0
 30
0.0
 40
33.82772461181839
100
AcDbArc
 50
33.7407622874
 51
326.2592377127
  0
LWPOLYLINE
  5
E3
330
1B
100
AcDbEntity
 67
     1
  8
0
  6
CONTINUOUS
 62
     7
100
AcDbPolyline
 90
        3
 70
   128
 43
0.0
 10
41.19231765
 20
-117.8057510094
 10
113.0393071498
 20
-115.4386391399
 10
187.0879149885
 20
-112.9989916025
  0
LWPOLYLINE
  5
E4
330
1B
100
AcDbEntity
 67
     1
  8
0
  6
CONTINUOUS
 62
     7
100
AcDbPolyline
 90
        3
 70
   128
 43
0.0
 10
-187.0756724619
 20
-112.999065076
 10
-113.0392836902
 20
-115.4386399178
 10
-41.186224221
 20
-117.8059517676
  0
LWPOLYLINE
  5
F4
330
1B
100
AcDbEntity
 67
     1
  8
0
  6
CONTINUOUS
 62
     7
100
AcDbPolyline
 90
       14
 70
   128
 43
0.0
 10
-235.60754412
 20
-80.5670210031
 10
-235.2268586358
 20
-80.9500614439
 10
-234.4785742047
 20
-81.1709988816
 10
-233.3727782838
 20
-81.2268549076
 10
-231.9243778634
 20
-81.1168765391
 10
-230.1528985094
 20
-80.8425463702
 10
-228.0822211436
 20
-80.4075625852
 10
-225.7402601098
 20
-79.8177891044
 10
-223.1585868671
 20
-79.0811765337
 10
-220.372004382
 20
-78.2076549845
 10
-217.4180779568
 20
-77.2090002076
 10
-214.3366288211
 20
-76.0986748474
 10
-211.1691973094
 20
-74.8916469546
 10
-207.9584828659
 20
-73.6041882055
  0
LWPOLYLINE
  5
FB
330
1B
100
AcDbEntity
 67
     1
  8
0
  6
CONTINUOUS
 62
     7
100
AcDbPolyline
 90
       14
 70
   128
 43
0.0
 10
207.9584828659
 20
-73.6041882055
 10
211.1691973094
 20
-74.8916469546
 10
214.3366288211
 20
-76.0986748474
 10
217.4180779568
 20
-77.2090002076
 10
220.372004382
 20
-78.2076549845
 10
223.1585868671
 20
-79.0811765337
 10
225.7402601098
 20
-79.8177891044
 10
228.0822211436
 20
-80.4075625852
 10
230.1528985094
 20
-80.8425463702
 10
231.9243778634
 20
-81.1168765391
 10
233.3727782838
 20
-81.2268549076
 10
234.4785742047
 20
-81.1709988816
 10
235.2268586358
 20
-80.9500614439
 10
235.60754412
 20
-80.5670210031
  0
LWPOLYLINE
  5
FE
330
1B
100
AcDbEntity
 67
     1
  8
0
  6
CONTINUOUS
 62
     7
100
AcDbPolyline
 90
        3
 70
   128
 43
0.0
 10
-187.0756724619
 20
-112.999065076
 10
-187.1254270185
 20
-112.9974865406
 10
-187.2218096144
 20
-112.9944304352
  0
LWPOLYLINE
  5
101
330
1B
100
AcDbEntity
 67
     1
  8
0
  6
CONTINUOUS
 62
     7
100
AcDbPolyline
 90
        3
 70
   128
 43
0.0
 10
187.0756724619
 20
-112.999065076
 10
187.1254270185
 20
-112.9974865406
 10
187.2218096148
 20
-112.9944304352
  0
LWPOLYLINE
  5
104
330
1B
100
AcDbEntity
 67
     1
  8
0
  6
CONTINUOUS
 62
     7
100
AcDbPolyline
 90
       10
 70
   128
 43
0.0
 10
186.7608692377
 20
-112.9979018123
 10
119.9999992231
 20
-112.9976621079
 10
80.0000004926
 20
-112.9975328862
 10
60.0000008255
 20
-112.9974809303
 10
40.0000010551
 20
-112.9974413027
 10
0.0
 20
-112.9974079527
 10
-60.0
 20
-112.9974809303
 10
-119.9999984139
 20
-112.9976621079
 10
-179.9999962089
 20
-112.9978779829
 10
-186.7608692377
 20
-112.9979018123
  0
LWPOLYLINE
  5
105
330
1B
100
AcDbEntity
 67
     1
  8
0
  6
CONTINUOUS
 62
     7
100
AcDbPolyline
 90
        4
 70
   128
 43
0.0
 10
-33.6254631349
 20
-117.8626695949
 10
-108.2286975459
 20
-115.4985087442
 10
-148.4028601765
 20
-114.225097289
 10
-187.2218096144
 20
-112.9944304352
  0
LWPOLYLINE
  5
106
330
1B
100
AcDbEntity
 67
     1
  8
0
  6
CONTINUOUS
 62
     7
100
AcDbPolyline
 90
        4
 70
   128
 43
0.0
 10
33.6254631349
 20
-117.8626695949
 10
108.2286975459
 20
-115.4985087442
 10
148.4028601765
 20
-114.225097289
 10
187.2218096148
 20
-112.9944304352
  0
LWPOLYLINE
  5
107
330
1B
100
AcDbEntity
 67
     1
  8
0
  6
CONTINUOUS
 62
     7
100
AcDbPolyline
 90
       21
 70
   128
 43
0.0
 10
-33.6254631349
 20
-117.8626695949
 10
-31.8563630639
 20
-117.8554777986
 10
-27.8056200576
 20
-117.8403685893
 10
-25.5387471973
 20
-117.8326189942
 10
-22.7780912961
 20
-117.8238492069
 10
-19.8394333424
 20
-117.8153602308
 10
-16.6931415901
 20
-117.8073157381
 10
-13.3999661289
 20
-117.8001627308
 10
-6.7783951454
 20
-117.7901738636
 10
-3.2984123555
 20
-117.7874799959
 10
0.2317562733
 20
-117.7866453273
 10
7.0394161271
 20
-117.790448681
 10
10.4288408987
 20
-117.7949234973
 10
13.7913143011
 20
-117.8009409273
 10
16.950933736
 20
-117.8079315083
 10
20.0145134697
 20
-117.8158406195
 10
22.968911324
 20
-117.8244313028
 10
25.7989508476
 20
-117.8334834551
 10
27.9517039485
 20
-117.8408848529
 10
31.8767485454
 20
-117.8555583641
 10
33.6254631349
 20
-117.8626695949
  0
LWPOLYLINE
  5
108
330
1B
100
AcDbEntity
 67
     1
  8
0
  6
CONTINUOUS
 62
     7
100
AcDbPolyline
 90
        8
 70
   128
 43
0.0
 10
41.19231765
 20
-117.8057510094
 10
41.1665549509
 20
-117.8063015338
 10
40.7901155967
 20
-117.8127057672
 10
40.1313695748
 20
-117.8204118855
 10
39.1736697249
 20
-117.8292169912
 10
37.9253867621
 20
-117.8386593897
 10
35.9914059362
 20
-117.8506886722
 10
33.6254631349
 20
-117.8626695949
  0
LWPOLYLINE
  5
109
330
1B
100
AcDbEntity
 67
     1
  8
0
  6
CONTINUOUS
 62
     7
100
AcDbPolyline
 90
        9
 70
   128
 43
0.0
 10
-33.6254631349
 20
-117.8626695949
 10
-35.2333363341
 20
-117.8547974875
 10
-36.6718324705
 20
-117.8467380096
 10
-37.9431264065
 20
-117.8385363731
 10
-39.0215997833
 20
-117.8304669414
 10
-39.9996231953
 20
-117.8217431176
 10
-40.7068848276
 20
-117.813819701
 10
-41.1363744444
 20
-117.8069871625
 10
-41.186224221
 20
-117.8059517676
  0
LINE
  5
10D
330
1B
100
AcDbEntity
 67
     1
  8
0
  6
CONTINUOUS
 62
     7
100
AcDbLine
 10
-41.186224221
 20
-117.8059517676
 30
0.0
 11
-40.5
 21
-118.4454345274
 31
0.0
  0
LINE
  5
10E
330
1B
100
AcDbEntity
 67
     1
  8
0
  6
CONTINUOUS
 62
     7
100
AcDbLine
 10
40.5
 20
-118.4454345274
 30
0.0
 11
41.19231765
 21
-117.8057510094
 31
0.0
  0
LINE
  5
10F
330
1B
100
AcDbEntity
 67
     1
  8
0
  6
CONTINUOUS
 62
     7
100
AcDbLine
 10
-40.5
 20
-118.4454345274
 30
0.0
 11
-40.5
 21
-120.0
 31
0.0
  0
LINE
  5
110
330
1B
100
AcDbEntity
 67
     1
  8
0
  6
CONTINUOUS
 62
     7
100
AcDbLine
 10
40.5
 20
-120.0
 30
0.0
 11
40.5
 21
-118.4454345274
 31
0.0
  0
LINE
  5
111
330
1B
100
AcDbEntity
 67
     1
  8
0
  6
CONTINUOUS
 62
     7
100
AcDbLine
 10
275.0
 20
-13.0
 30
0.0
 11
275.0
 21
0.0
 31
0.0
  0
LINE
  5
112
330
1B
100
AcDbEntity
 67
     1
  8
0
  6
CONTINUOUS
 62
     7
100
AcDbLine
 10
-275.0
 20
-13.0
 30
0.0
 11
275.0
 21
-13.0
 31
0.0
  0
LINE
  5
113
330
1B
100
AcDbEntity
 67
     1
  8
0
  6
CONTINUOUS
 62
     7
100
AcDbLine
 10
238.0
 20
-13.0
 30
0.0
 11
238.0
 21
0.0
 31
0.0
  0
LINE
  5
114
330
1B
100
AcDbEntity
 67
     1
  8
0
  6
CONTINUOUS
 62
     7
100
AcDbLine
 10
-275.0
 20
0.0
 30
0.0
 11
275.0
 21
0.0
 31
0.0
  0
LINE
  5
115
330
1B
100
AcDbEntity
 67
     1
  8
0
  6
CONTINUOUS
 62
     7
100
AcDbLine
 10
-238.0
 20
-13.0
 30
0.0
 11
-238.0
 21
0.0
 31
0.0
  0
LINE
  5
116
330
1B
100
AcDbEntity
 67
     1
  8
0
  6
CONTINUOUS
 62
     7
100
AcDbLine
 10
-275.0
 20
-13.0
 30
0.0
 11
-275.0
 21
0.0
 31
0.0
  0
LINE
  5
117
330
1B
100
AcDbEntity
 67
     1
  8
0
  6
CONTINUOUS
 62
     7
100
AcDbLine
 10
-233.4760357946
 20
-13.0
 30
0.0
 11
-207.9584828659
 21
-73.6041882055
 31
0.0
  0
LINE
  5
118
330
1B
100
AcDbEntity
 67
     1
  8
0
  6
CONTINUOUS
 62
     7
100
AcDbLine
 10
-235.60754412
 20
-80.5670210031
 30
0.0
 11
-264.0568161213
 21
-13.0
 31
0.0
  0
LINE
  5
119
330
1B
100
AcDbEntity
 67
     1
  8
0
  6
CONTINUOUS
 62
     7
100
AcDbLine
 10
207.9584828659
 20
-73.6041882055
 30
0.0
 11
233.4760357946
 21
-13.0
 31
0.0
  0
LINE
  5
11A
330
1B
100
AcDbEntity
 67
     1
  8
0
  6
CONTINUOUS
 62
     7
100
AcDbLine
 10
-186.7608692377
 20
-87.6788772042
 30
0.0
 11
186.7608692377
 21
-87.6788772042
 31
0.0
  0
LINE
  5
11B
330
1B
100
AcDbEntity
 67
     1
  8
0
  6
CONTINUOUS
 62
     7
100
AcDbLine
 10
264.0568161213
 20
-13.0
 30
0.0
 11
235.60754412
 21
-80.5670210031
 31
0.0
  0
LINE
  5
11C
330
1B
100
AcDbEntity
 67
     1
  8
0
  6
CONTINUOUS
 62
     7
100
AcDbLine
 10
-186.7608692377
 20
-87.6788772042
 30
0.0
 11
-186.7608692377
 21
-112.9979018123
 31
0.0
  0
LINE
  5
11D
330
1B
100
AcDbEntity
 67
     1
  8
0
  6
CONTINUOUS
 62
     7
100
AcDbLine
 10
186.7608692377
 20
-112.9979018123
 30
0.0
 11
186.7608692377
 21
-87.6788772042
 31
0.0
  0
LINE
  5
11E
330
1B
100
AcDbEntity
 67
     1
  8
0
  6
CONTINUOUS
 62
     7
100
AcDbLine
 10
-40.5
 20
-118.4454345274
 30
0.0
 11
40.5
 21
-118.4454345274
 31
0.0
  0
LINE
  5
11F
330
1B
100
AcDbEntity
 67
     1
  8
0
  6
CONTINUOUS
 62
     7
100
AcDbLine
 10
-40.5
 20
-120.0
 30
0.0
 11
40.5
 21
-120.0
 31
0.0
  0
ARC
  5
120
330
1B
100
AcDbEntity
 67
     1
  8
0
  6
CONTINUOUS
 62
     7
100
AcDbCircle
 10
186.7608692377
 20
-64.6788772042
 30
0.0
 40
23.00000000000006
100
AcDbArc
 50
270.0
 51
337.1663458221
  0
ARC
  5
121
330
1B
100
AcDbEntity
 67
     1
  8
0
  6
CONTINUOUS
 62
     7
100
AcDbCircle
 10
-186.7608692377
 20
-64.6788772042
 30
0.0
 40
23.00000000000006
100
AcDbArc
 50
202.8336541779
 51
270.0
  0
ARC
  5
122
330
1B
100
AcDbEntity
 67
     1
  8
0
  6
CONTINUOUS
 62
     7
100
AcDbCircle
 10
-186.7698540369
 20
-83.5866395813
 30
0.0
 40
29.41126360339348
100
AcDbArc
 50
269.1195153425
 51
270.0175031949
  0
ARC
  5
123
330
1B
100
AcDbEntity
 67
     1
  8
0
  6
CONTINUOUS
 62
     7
100
AcDbCircle
 10
-186.7608692377
 20
-60.0
 30
0.0
 40
53.00000000000002
100
AcDbArc
 50
202.8336541779
 51
269.6596792042
  0
ARC
  5
124
330
1B
100
AcDbEntity
 67
     1
  8
0
  6
CONTINUOUS
 62
     7
100
AcDbCircle
 10
186.7608692377
 20
-60.0
 30
0.0
 40
53.00000000000013
100
AcDbArc
 50
270.3403207958
 51
337.1663458221
  0
ARC
  5
125
330
1B
100
AcDbEntity
 67
     1
  8
0
  6
CONTINUOUS
 62
     7
100
AcDbCircle
 10
186.7698540342
 20
-83.586639229
 30
0.0
 40
29.41126395568758
100
AcDbArc
 50
269.9824968105
 51
270.880484653
  0
VIEWPORT
  5
42D
330
1B
100
AcDbEntity
 67
     1
  8
0
100
AcDbViewport
 10
0.0
 20
0.0
 30
0.0
 40
205.6
 41
156.0
 68
     1
 69
     1
1001
ACAD
1000
MVIEW
1002
{
1070
    16
1010
0.0
1020
0.0
1030
0.0
1010
0.0
1020
0.0
1030
1.0
1040
0.0
1040
425.6614785992
1040
0.0
1040
0.0
1040
50.0
1040
0.0
1040
0.0
1070
     0
1070
   100
1070
     0
1070
     3
1070
     0
1070
     0
1070
     0
1070
     0
1040
0.0
1040
0.0
1040
0.0
1040
10.0
1040
10.0
1040
10.0
1040
10.0
1070
     0
1002
{
1002
}
1002
}
  0
ENDSEC
  0
SECTION
  2
OBJECTS
  0
DICTIONARY
  5
C
330
0
100
AcDbDictionary
  3
ACAD_GROUP
350
D
  3
ACAD_MLINESTYLE
350
17
  3
ACAD_SCALELIST
350
47
  3
DWGPROPS
350
43F
  0
DICTIONARY
  5
D
102
{ACAD_REACTORS
330
C
102
}
330
C
100
AcDbDictionary
  0
DICTIONARY
  5
17
102
{ACAD_REACTORS
330
C
102
}
330
C
100
AcDbDictionary
  3
STANDARD
350
18
  0
DICTIONARY
  5
47
102
{ACAD_REACTORS
330
C
102
}
330
C
100
AcDbDictionary
  0
XRECORD
  5
43F
102
{ACAD_REACTORS
330
C
102
}
330
C
100
AcDbXrecord
  1
DWGPROPS COOKIE
  2

  3

  4

  6

  7

  8
J.schlicker
  9

300
=
301
=
302
=
303
=
304
=
305
=
306
=
307
=
308
=
309
=
 40
0.0
 41
2459415.224026771
 42
2459415.224066852
  1

 90
        0
  0
MLINESTYLE
  5
18
102
{ACAD_REACTORS
330
17
102
}
330
17
100
AcDbMlineStyle
  2
Standard
 70
     0
  3

 62
   256
 51
90.0
 52
90.0
 71
     2
 49
0.5
 62
   256
  6
BYLAYER
 49
-0.5
 62
   256
  6
BYLAYER
  0
ENDSEC
  0
EOF
